  0
SECTION
  2
HEADER
  9
$ACADVER
  1
AC1012
  9
$DWGCODEPAGE
  3
ansi_932
  9
$INSBASE
 10
0.0
 20
0.0
 30
0.0
  9
$EXTMIN
 10
4497.030742030909
 20
1081.679513413321
 30
0.0000000001127424
  9
$EXTMAX
 10
5128.33050935142
 20
1503.379513404367
 30
0.0000000001691137
  9
$LIMMIN
 10
0.0
 20
0.0
  9
$LIMMAX
 10
420.0
 20
297.0
  9
$ORTHOMODE
 70
     0
  9
$REGENMODE
 70
     1
  9
$FILLMODE
 70
     1
  9
$QTEXTMODE
 70
     0
  9
$MIRRTEXT
 70
     0
  9
$DRAGMODE
 70
     2
  9
$LTSCALE
 40
0.5
  9
$OSMODE
 70
 14463
  9
$ATTMODE
 70
     1
  9
$TEXTSIZE
 40
4.0
  9
$TRACEWID
 40
1.0
  9
$TEXTSTYLE
  7
STANDARD
  9
$CLAYER
  8
1TEXT
  9
$CELTYPE
  6
BYLAYER
  9
$CECOLOR
 62
   256
  9
$CELTSCALE
 40
1.0
  9
$DELOBJ
 70
     1
  9
$DISPSILH
 70
     0
  9
$DIMSCALE
 40
1.0
  9
$DIMASZ
 40
2.0
  9
$DIMEXO
 40
0.0
  9
$DIMDLI
 40
7.0
  9
$DIMRND
 40
0.0
  9
$DIMDLE
 40
0.0
  9
$DIMEXE
 40
1.0
  9
$DIMTP
 40
0.0
  9
$DIMTM
 40
0.0
  9
$DIMTXT
 40
3.5
  9
$DIMCEN
 40
0.0
  9
$DIMTSZ
 40
0.0
  9
$DIMTOL
 70
     0
  9
$DIMLIM
 70
     0
  9
$DIMTIH
 70
     0
  9
$DIMTOH
 70
     0
  9
$DIMSE1
 70
     0
  9
$DIMSE2
 70
     0
  9
$DIMTAD
 70
     1
  9
$DIMZIN
 70
     8
  9
$DIMBLK
  1

  9
$DIMASO
 70
     1
  9
$DIMSHO
 70
     1
  9
$DIMPOST
  1
 
  9
$DIMAPOST
  1

  9
$DIMALT
 70
     0
  9
$DIMALTD
 70
     2
  9
$DIMALTF
 40
25.4
  9
$DIMLFAC
 40
1.0
  9
$DIMTOFL
 70
     1
  9
$DIMTVP
 40
0.0
  9
$DIMTIX
 70
     0
  9
$DIMSOXD
 70
     0
  9
$DIMSAH
 70
     1
  9
$DIMBLK1
  1
OPEN30
  9
$DIMBLK2
  1
OPEN30
  9
$DIMSTYLE
  2
NEWX10
  9
$DIMCLRD
 70
   256
  9
$DIMCLRE
 70
   256
  9
$DIMCLRT
 70
   201
  9
$DIMTFAC
 40
0.7
  9
$DIMGAP
 40
0.7
  9
$DIMJUST
 70
     0
  9
$DIMSD1
 70
     0
  9
$DIMSD2
 70
     0
  9
$DIMTOLJ
 70
     1
  9
$DIMTZIN
 70
     8
  9
$DIMALTZ
 70
     0
  9
$DIMALTTZ
 70
     0
  9
$DIMFIT
 70
     2
  9
$DIMUPT
 70
     0
  9
$DIMUNIT
 70
     2
  9
$DIMDEC
 70
     2
  9
$DIMTDEC
 70
     4
  9
$DIMALTU
 70
     2
  9
$DIMALTTD
 70
     2
  9
$DIMTXSTY
  7
STANDARD
  9
$DIMAUNIT
 70
     0
  9
$LUNITS
 70
     2
  9
$LUPREC
 70
     4
  9
$SKETCHINC
 40
1.0
  9
$FILLETRAD
 40
0.0
  9
$AUNITS
 70
     0
  9
$AUPREC
 70
     2
  9
$MENU
  1
acad
  9
$ELEVATION
 40
0.0
  9
$PELEVATION
 40
0.0
  9
$THICKNESS
 40
0.0
  9
$LIMCHECK
 70
     0
  9
$CHAMFERA
 40
10.0
  9
$CHAMFERB
 40
10.0
  9
$CHAMFERC
 40
20.0
  9
$CHAMFERD
 40
0.0
  9
$SKPOLY
 70
     0
  9
$TDCREATE
 40
2451318.621352917
  9
$TDUPDATE
 40
2458159.442836944
  9
$TDINDWG
 40
1.4856969792
  9
$TDUSRTIMER
 40
1.4856969792
  9
$USRTIMER
 70
     1
  9
$ANGBASE
 50
0.0
  9
$ANGDIR
 70
     0
  9
$PDMODE
 70
     0
  9
$PDSIZE
 40
0.0
  9
$PLINEWID
 40
0.0
  9
$COORDS
 70
     2
  9
$SPLFRAME
 70
     0
  9
$SPLINETYPE
 70
     6
  9
$SPLINESEGS
 70
     8
  9
$ATTDIA
 70
     0
  9
$ATTREQ
 70
     1
  9
$HANDLING
 70
     1
  9
$HANDSEED
  5
FE89
  9
$SURFTAB1
 70
     6
  9
$SURFTAB2
 70
     6
  9
$SURFTYPE
 70
     6
  9
$SURFU
 70
     6
  9
$SURFV
 70
     6
  9
$UCSNAME
  2

  9
$UCSORG
 10
0.0
 20
0.0
 30
0.0
  9
$UCSXDIR
 10
1.0
 20
0.0
 30
0.0
  9
$UCSYDIR
 10
0.0
 20
1.0
 30
0.0
  9
$PUCSNAME
  2

  9
$PUCSORG
 10
0.0
 20
0.0
 30
0.0
  9
$PUCSXDIR
 10
1.0
 20
0.0
 30
0.0
  9
$PUCSYDIR
 10
0.0
 20
1.0
 30
0.0
  9
$USERI1
 70
     0
  9
$USERI2
 70
     0
  9
$USERI3
 70
     0
  9
$USERI4
 70
     0
  9
$USERI5
 70
     0
  9
$USERR1
 40
0.0
  9
$USERR2
 40
0.0
  9
$USERR3
 40
0.0
  9
$USERR4
 40
0.0
  9
$USERR5
 40
0.0
  9
$WORLDVIEW
 70
     1
  9
$SHADEDGE
 70
     3
  9
$SHADEDIF
 70
    70
  9
$TILEMODE
 70
     1
  9
$MAXACTVP
 70
    48
  9
$PINSBASE
 10
0.0
 20
0.0
 30
0.0
  9
$PLIMCHECK
 70
     0
  9
$PEXTMIN
 10
1.000000000000000E+20
 20
1.000000000000000E+20
 30
1.000000000000000E+20
  9
$PEXTMAX
 10
-1.000000000000000E+20
 20
-1.000000000000000E+20
 30
-1.000000000000000E+20
  9
$PLIMMIN
 10
0.0
 20
0.0
  9
$PLIMMAX
 10
420.0
 20
297.0
  9
$UNITMODE
 70
     0
  9
$VISRETAIN
 70
     1
  9
$PLINEGEN
 70
     0
  9
$PSLTSCALE
 70
     1
  9
$TREEDEPTH
 70
  3020
  9
$PICKSTYLE
 70
     1
  9
$CMLSTYLE
  2
STANDARD
  9
$CMLJUST
 70
     0
  9
$CMLSCALE
 40
20.0
  9
$SAVEIMAGES
 70
     1
  0
ENDSEC
  0
SECTION
  2
CLASSES
  0
CLASS
  1
DICTIONARYVAR
  2
AcDbDictionaryVar
  3
ObjectDBX Classes
 90
        0
280
     0
281
     0
  0
CLASS
  1
IDBUFFER
  2
AcDbIdBuffer
  3
ObjectDBX Classes
 90
    32768
280
     0
281
     0
  0
CLASS
  1
LWPOLYLINE
  2
AcDbPolyline
  3
ObjectDBX Classes
 90
    32768
280
     0
281
     1
  0
CLASS
  1
ACDBDICTIONARYWDFLT
  2
AcDbDictionaryWithDefault
  3
ObjectDBX Classes
 90
    32768
280
     0
281
     0
  0
CLASS
  1
ACDBPLACEHOLDER
  2
AcDbPlaceHolder
  3
ObjectDBX Classes
 90
        0
280
     0
281
     0
  0
CLASS
  1
LAYOUT
  2
AcDbLayout
  3
ObjectDBX Classes
 90
        0
280
     0
281
     0
  0
CLASS
  1
TABLESTYLE
  2
AcDbTableStyle
  3
ObjectDBX Classes
 90
     4095
280
     0
281
     0
  0
CLASS
  1
SORTENTSTABLE
  2
AcDbSortentsTable
  3
ObjectDBX Classes
 90
    32768
280
     0
281
     0
  0
CLASS
  1
MATERIAL
  2
AcDbMaterial
  3
ObjectDBX Classes
 90
     1153
280
     0
281
     0
  0
CLASS
  1
VISUALSTYLE
  2
AcDbVisualStyle
  3
ObjectDBX Classes
 90
     4095
280
     0
281
     0
  0
CLASS
  1
SCALE
  2
AcDbScale
  3
ObjectDBX Classes
 90
     1153
280
     0
281
     0
  0
CLASS
  1
MLEADERSTYLE
  2
AcDbMLeaderStyle
  3
ACDB_MLEADERSTYLE_CLASS
 90
     4095
280
     0
281
     0
  0
CLASS
  1
CELLSTYLEMAP
  2
AcDbCellStyleMap
  3
ObjectDBX Classes
 90
     1152
280
     0
281
     0
  0
CLASS
  1
SUN
  2
AcDbSun
  3
SCENEOE
 90
     1153
280
     0
281
     0
  0
CLASS
  1
XRECORD
  2
AcDbXrecord
  3
ObjectDBX Classes
 90
    32768
280
     0
281
     0
  0
CLASS
  1
HATCH
  2
AcDbHatch
  3
ObjectDBX Classes
 90
    32768
280
     0
281
     1
  0
ENDSEC
  0
SECTION
  2
TABLES
  0
TABLE
  2
VPORT
  5
8
330
0
100
AcDbSymbolTable
 70
     1
  0
VPORT
  5
952D
330
8
100
AcDbSymbolTableRecord
100
AcDbViewportTableRecord
  2
*ACTIVE
 70
     0
 10
0.0
 20
0.0
 11
1.0
 21
1.0
 12
4812.680625691164
 22
1292.529513408844
 13
0.0
 23
0.0
 14
10.0
 24
10.0
 15
10.0
 25
10.0
 16
0.0
 26
0.0
 36
1.0
 17
0.0
 27
0.0
 37
0.0
 40
452.7726315693334
 41
1.871481028151775
 42
50.0
 43
0.0
 44
0.0
 50
0.0
 51
0.0
 71
    16
 72
   100
 73
     1
 74
     1
 75
     0
 76
     0
 77
     0
 78
     0
1001
ACAD_NAV_VCDISPLAY
1070
     3
  0
ENDTAB
  0
TABLE
  2
LTYPE
  5
5
330
0
100
AcDbSymbolTable
 70
     2
  0
LTYPE
  5
12
330
5
100
AcDbSymbolTableRecord
100
AcDbLinetypeTableRecord
  2
BYBLOCK
 70
     0
  3

 72
    65
 73
     0
 40
0.0
  0
LTYPE
  5
13
330
5
100
AcDbSymbolTableRecord
100
AcDbLinetypeTableRecord
  2
BYLAYER
 70
     0
  3

 72
    65
 73
     0
 40
0.0
  0
LTYPE
  5
14
330
5
100
AcDbSymbolTableRecord
100
AcDbLinetypeTableRecord
  2
CONTINUOUS
 70
     0
  3
Solid line
 72
    65
 73
     0
 40
0.0
  0
LTYPE
  5
9837
330
5
100
AcDbSymbolTableRecord
100
AcDbLinetypeTableRecord
  2
CENTER2
 70
     0
  3
Center (.5x) ___ _ ___ _ ___ _ ___ _ ___ _ ___
 72
    65
 73
     4
 40
28.575
 49
19.05
 74
     0
 49
-3.175
 74
     0
 49
3.175
 74
     0
 49
-3.175
 74
     0
  0
ENDTAB
  0
TABLE
  2
LAYER
  5
2
102
{ACAD_XDICTIONARY
360
96D9
102
}
330
0
100
AcDbSymbolTable
 70
     5
  0
LAYER
  5
E
102
{ACAD_XDICTIONARY
360
9593
102
}
330
2
100
AcDbSymbolTableRecord
100
AcDbLayerTableRecord
  2
0
 70
     0
 62
     7
  6
CONTINUOUS
  0
LAYER
  5
29
102
{ACAD_XDICTIONARY
360
9595
102
}
330
2
100
AcDbSymbolTableRecord
100
AcDbLayerTableRecord
  2
1CENTER
 70
     0
 62
     7
  6
CENTER2
  0
LAYER
  5
31
102
{ACAD_XDICTIONARY
360
9597
102
}
330
2
100
AcDbSymbolTableRecord
100
AcDbLayerTableRecord
  2
1TEXT
 70
     0
 62
     7
  6
CONTINUOUS
  0
LAYER
  5
243
102
{ACAD_XDICTIONARY
360
959D
102
}
330
2
100
AcDbSymbolTableRecord
100
AcDbLayerTableRecord
  2
01
 70
     0
 62
     1
  6
CONTINUOUS
  0
LAYER
  5
24E
102
{ACAD_XDICTIONARY
360
95A3
102
}
330
2
100
AcDbSymbolTableRecord
100
AcDbLayerTableRecord
  2
1DIM
 70
     0
 62
     7
  6
CONTINUOUS
  0
ENDTAB
  0
TABLE
  2
STYLE
  5
3
330
0
100
AcDbSymbolTable
 70
     1
  0
STYLE
  5
F
330
3
100
AcDbSymbolTableRecord
100
AcDbTextStyleTableRecord
  2
STANDARD
 70
     0
 40
0.0
 41
1.0
 50
0.0
 71
     0
 42
4.0
  3
txt.shx
  4
extfont.shx
  0
ENDTAB
  0
TABLE
  2
VIEW
  5
6
330
0
100
AcDbSymbolTable
 70
     0
  0
ENDTAB
  0
TABLE
  2
UCS
  5
7
330
0
100
AcDbSymbolTable
 70
     0
  0
ENDTAB
  0
TABLE
  2
APPID
  5
9
330
0
100
AcDbSymbolTable
 70
    14
  0
APPID
  5
10
330
9
100
AcDbSymbolTableRecord
100
AcDbRegAppTableRecord
  2
ACAD
 70
     0
  0
APPID
  5
21
330
9
100
AcDbSymbolTableRecord
100
AcDbRegAppTableRecord
  2
DRAWINGVARIABLESXDATA
 70
     0
  0
APPID
  5
64
330
9
100
AcDbSymbolTableRecord
100
AcDbRegAppTableRecord
  2
CONTENTTABDATA
 70
     0
  0
APPID
  5
65
330
9
100
AcDbSymbolTableRecord
100
AcDbRegAppTableRecord
  2
CONTENTCURRENTTAB
 70
     0
  0
APPID
  5
66
330
9
100
AcDbSymbolTableRecord
100
AcDbRegAppTableRecord
  2
CONTENTBLOCKDESCRIPTION
 70
     0
  0
APPID
  5
67
330
9
100
AcDbSymbolTableRecord
100
AcDbRegAppTableRecord
  2
CONTENTBLOCKICON
 70
     0
  0
APPID
  5
68
330
9
100
AcDbSymbolTableRecord
100
AcDbRegAppTableRecord
  2
CONTENTLONGBLOCKNAME
 70
     0
  0
APPID
  5
2AE
330
9
100
AcDbSymbolTableRecord
100
AcDbRegAppTableRecord
  2
ACAD_PSEXT
 70
     0
  0
APPID
  5
9585
330
9
100
AcDbSymbolTableRecord
100
AcDbRegAppTableRecord
  2
ACAD_MLEADERVER
 70
     0
  0
APPID
  5
A2E3
330
9
100
AcDbSymbolTableRecord
100
AcDbRegAppTableRecord
  2
ACADANNOTATIVE
 70
     0
  0
APPID
  5
A2E4
330
9
100
AcDbSymbolTableRecord
100
AcDbRegAppTableRecord
  2
ACDBBLOCKREPETAG
 70
     0
  0
APPID
  5
AEB1
330
9
100
AcDbSymbolTableRecord
100
AcDbRegAppTableRecord
  2
ACAD_NAV_VCDISPLAY
 70
     0
  0
APPID
  5
B6A4
330
9
100
AcDbSymbolTableRecord
100
AcDbRegAppTableRecord
  2
ACAECLAYERSTANDARD
 70
     0
  0
APPID
  5
E1EF
330
9
100
AcDbSymbolTableRecord
100
AcDbRegAppTableRecord
  2
ACAD_EXEMPT_FROM_CAD_STAND
 70
     0
  0
ENDTAB
  0
TABLE
  2
DIMSTYLE
  5
A
330
0
100
AcDbSymbolTable
 70
     1
  0
DIMSTYLE
105
48
330
A
100
AcDbSymbolTableRecord
100
AcDbDimStyleTableRecord
  2
NEWX10
 70
     0
  3
 
  4

  5

  6
OPEN30
  7
OPEN30
 40
1.0
 41
2.0
 42
0.0
 43
7.0
 44
1.0
 45
0.0
 46
0.0
 47
0.0
 48
0.0
140
3.5
141
0.0
142
0.0
143
25.4
144
1.0
145
0.0
146
0.7
147
0.7
 71
     0
 72
     0
 73
     0
 74
     0
 75
     0
 76
     0
 77
     1
 78
     8
170
     0
171
     2
172
     1
173
     1
174
     0
175
     0
176
   256
177
   256
178
   201
179
     2
270
     2
271
     2
272
     4
273
     2
274
     2
340
F
275
     0
280
     0
281
     0
282
     0
283
     1
284
     8
285
     0
286
     0
287
     2
288
     0
  0
ENDTAB
  0
TABLE
  2
BLOCK_RECORD
  5
1
330
0
100
AcDbSymbolTable
 70
     8
  0
BLOCK_RECORD
  5
18
102
{ACAD_XDICTIONARY
360
88F
102
}
330
1
100
AcDbSymbolTableRecord
100
AcDbBlockTableRecord
  2
*MODEL_SPACE
  0
BLOCK_RECORD
  5
15
330
1
100
AcDbSymbolTableRecord
100
AcDbBlockTableRecord
  2
*PAPER_SPACE
  0
BLOCK_RECORD
  5
42
330
1
100
AcDbSymbolTableRecord
100
AcDbBlockTableRecord
  2
_OPEN30
  0
BLOCK_RECORD
  5
A333
330
1
100
AcDbSymbolTableRecord
100
AcDbBlockTableRecord
  2
A3WAKUKAWAJUN2017_HYOUDAI_
  0
BLOCK_RECORD
  5
FCE9
330
1
100
AcDbSymbolTableRecord
100
AcDbBlockTableRecord
  2
*X21
  0
BLOCK_RECORD
  5
FD37
330
1
100
AcDbSymbolTableRecord
100
AcDbBlockTableRecord
  2
*X22
  0
BLOCK_RECORD
  5
FD89
330
1
100
AcDbSymbolTableRecord
100
AcDbBlockTableRecord
  2
*X23
  0
BLOCK_RECORD
  5
FDDA
330
1
100
AcDbSymbolTableRecord
100
AcDbBlockTableRecord
  2
*X24
  0
BLOCK_RECORD
  5
FE17
330
1
100
AcDbSymbolTableRecord
100
AcDbBlockTableRecord
  2
*X25
  0
BLOCK_RECORD
  5
FE57
330
1
100
AcDbSymbolTableRecord
100
AcDbBlockTableRecord
  2
*X26
  0
ENDTAB
  0
ENDSEC
  0
SECTION
  2
BLOCKS
  0
BLOCK
  5
19
330
18
100
AcDbEntity
  8
0
100
AcDbBlockBegin
  2
*MODEL_SPACE
 70
     0
 10
0.0
 20
0.0
 30
0.0
  3
*MODEL_SPACE
  1

  0
ENDBLK
  5
1A
330
18
100
AcDbEntity
  8
0
100
AcDbBlockEnd
  0
BLOCK
  5
16
330
15
100
AcDbEntity
 67
     1
  8
0
100
AcDbBlockBegin
  2
*PAPER_SPACE
 70
     0
 10
0.0
 20
0.0
 30
0.0
  3
*PAPER_SPACE
  1

  0
ENDBLK
  5
17
330
15
100
AcDbEntity
 67
     1
  8
0
100
AcDbBlockEnd
  0
BLOCK
  5
43
330
42
100
AcDbEntity
  8
0
100
AcDbBlockBegin
  2
_OPEN30
 70
     0
 10
0.0
 20
0.0
 30
0.0
  3
_OPEN30
  1

  0
LINE
  5
44
330
42
100
AcDbEntity
  8
0
  6
BYBLOCK
 62
     0
100
AcDbLine
 10
-1.0
 20
0.26794919
 30
0.0
 11
0.0
 21
0.0
 31
0.0
  0
LINE
  5
45
330
42
100
AcDbEntity
  8
0
  6
BYBLOCK
 62
     0
100
AcDbLine
 10
0.0
 20
0.0
 30
0.0
 11
-1.0
 21
-0.26794919
 31
0.0
  0
LINE
  5
46
330
42
100
AcDbEntity
  8
0
  6
BYBLOCK
 62
     0
100
AcDbLine
 10
0.0
 20
0.0
 30
0.0
 11
-1.0
 21
0.0
 31
0.0
  0
ENDBLK
  5
47
330
42
100
AcDbEntity
  8
0
100
AcDbBlockEnd
  0
BLOCK
  5
AA56
330
A333
100
AcDbEntity
  8
0
100
AcDbBlockBegin
  2
A3WAKUKAWAJUN2017_HYOUDAI_
 70
     0
 10
0.0
 20
0.0
 30
0.0
  3
A3WAKUKAWAJUN2017_HYOUDAI_
  1

  0
LINE
  5
A335
330
A333
100
AcDbEntity
  8
0
100
AcDbLine
 10
13.26299999998673
 20
-0.0001000000000317
 30
0.0
 11
9.236999999990758
 21
8.999899999990987
 31
0.0
1001
ACAD
1000
ASC_BOUNDS
1002
{
1070
    19
1005
A376
1002
}
  0
LINE
  5
A336
330
A333
100
AcDbEntity
  8
0
100
AcDbLine
 10
5.657999999994331
 20
0.9999999999989768
 30
0.0
 11
9.236999999990758
 21
8.999999999991019
 31
0.0
1001
ACAD
1000
ASC_BOUNDS
1002
{
1070
    19
1005
A376
1002
}
  0
LINE
  5
A337
330
A333
100
AcDbEntity
  8
0
100
AcDbLine
 10
18.59199999998134
 20
-0.2368999999997641
 30
0.0
 11
16.46099999998353
 21
5.432899999994561
 31
0.0
1001
ACAD
1000
ASC_BOUNDS
1002
{
1070
    19
1005
A377
1002
}
  0
LINE
  5
A338
330
A333
100
AcDbEntity
  8
0
100
AcDbLine
 10
18.59199999998134
 20
-0.2368999999997641
 30
0.0
 11
22.38199999997767
 21
8.763099999991255
 31
0.0
1001
ACAD
1000
ASC_BOUNDS
1002
{
1070
    19
1005
A377
1002
}
  0
LINE
  5
A339
330
A333
100
AcDbEntity
  8
0
100
AcDbLine
 10
14.32899999998563
 20
-0.2368999999997641
 30
0.0
 11
16.46099999998353
 21
5.432899999994561
 31
0.0
1001
ACAD
1000
ASC_BOUNDS
1002
{
1070
    19
1005
A377
1002
}
  0
LINE
  5
A33A
330
A333
100
AcDbEntity
  8
0
100
AcDbLine
 10
14.32899999998563
 20
-0.2368999999997641
 30
0.0
 11
10.53899999998941
 21
8.763099999991255
 31
0.0
1001
ACAD
1000
ASC_BOUNDS
1002
{
1070
    19
1005
A377
1002
}
  0
LINE
  5
A33B
330
A333
100
AcDbEntity
  8
0
100
AcDbLine
 10
19.53899999998043
 20
-0.0001000000000317
 30
0.0
 11
23.56599999997638
 21
8.999899999990987
 31
0.0
1001
ACAD
1000
ASC_BOUNDS
1002
{
1070
    19
1005
A378
1002
}
  0
LINE
  5
A33C
330
A333
100
AcDbEntity
  8
0
100
AcDbLine
 10
26.97358892824991
 20
1.383099999991202
 30
0.0
 11
23.56599999997638
 21
8.999899999990987
 31
0.0
1001
ACAD
1000
ASC_BOUNDS
1002
{
1070
    19
1005
A378
1002
}
  0
LINE
  5
A33D
330
A333
100
AcDbEntity
  8
0
100
AcDbLine
 10
5.657999999994331
 20
0.9999999999989768
 30
0.0
 11
3.181999999996833
 21
4.668599999995308
 31
0.0
1001
ACAD
1000
ASC_BOUNDS
1002
{
1070
    19
1005
A376
1002
}
  0
LINE
  5
A33E
330
A333
100
AcDbEntity
  8
0
100
AcDbLine
 10
4.617999999995391
 20
-0.0001000000000317
 30
0.0
 11
1.420999999998571
 21
4.736799999995242
 31
0.0
1001
ACAD
1000
ASC_BOUNDS
1002
{
1070
    19
1005
A376
1002
}
  0
LINE
  5
A33F
330
A333
100
AcDbEntity
  8
0
100
AcDbLine
 10
1.420999999998571
 20
8.763099999991255
 30
0.0
 11
1.420999999998571
 21
0.0
 31
0.0
1001
ACAD
1000
ASC_BOUNDS
1002
{
1070
    19
1005
A37B
1002
}
  0
LINE
  5
A340
330
A333
100
AcDbEntity
  8
0
100
AcDbLine
 10
0.0
 20
8.763099999991255
 30
0.0
 11
0.0
 21
0.0
 31
0.0
1001
ACAD
1000
ASC_BOUNDS
1002
{
1070
    19
1005
A37B
1002
}
  0
LINE
  5
A341
330
A333
100
AcDbEntity
  8
0
100
AcDbLine
 10
6.766999999993232
 20
-0.0001000000000317
 30
0.0
 11
7.826999999992154
 21
2.368399999997621
 31
0.0
1001
ACAD
1000
ASC_BOUNDS
1002
{
1070
    19
1005
A376
1002
}
  0
LINE
  5
A342
330
A333
100
AcDbEntity
  8
0
100
AcDbLine
 10
0.0
 20
0.0
 30
0.0
 11
1.420999999998571
 21
0.0
 31
0.0
1001
ACAD
1000
ASC_BOUNDS
1002
{
1070
    19
1005
A37B
1002
}
  0
LINE
  5
A343
330
A333
100
AcDbEntity
  8
0
100
AcDbLine
 10
4.617999999995391
 20
0.0
 30
0.0
 11
6.766999999993232
 21
0.0
 31
0.0
1001
ACAD
1000
ASC_BOUNDS
1002
{
1070
    19
1005
A376
1002
}
  0
LINE
  5
A344
330
A333
100
AcDbEntity
  8
0
100
AcDbLine
 10
11.70599999998831
 20
-0.0001000000000317
 30
0.0
 11
10.64699999998936
 21
2.368399999997621
 31
0.0
1001
ACAD
1000
ASC_BOUNDS
1002
{
1070
    19
1005
A376
1002
}
  0
LINE
  5
A345
330
A333
100
AcDbEntity
  8
0
100
AcDbLine
 10
7.826999999992154
 20
2.368399999997621
 30
0.0
 11
10.64699999998936
 21
2.368399999997621
 31
0.0
1001
ACAD
1000
ASC_BOUNDS
1002
{
1070
    19
1005
A376
1002
}
  0
LINE
  5
A346
330
A333
100
AcDbEntity
  8
0
100
AcDbLine
 10
11.70599999998831
 20
0.0
 30
0.0
 11
13.26299999998673
 21
0.0
 31
0.0
1001
ACAD
1000
ASC_BOUNDS
1002
{
1070
    19
1005
A376
1002
}
  0
LINE
  5
A347
330
A333
100
AcDbEntity
  8
0
100
AcDbLine
 10
22.15599999997789
 20
2.368399999997621
 30
0.0
 11
24.97599999997499
 21
2.368399999997621
 31
0.0
1001
ACAD
1000
ASC_BOUNDS
1002
{
1070
    19
1005
A378
1002
}
  0
LINE
  5
A348
330
A333
100
AcDbEntity
  8
0
100
AcDbLine
 10
19.53899999998043
 20
0.0
 30
0.0
 11
21.09599999997886
 21
0.0
 31
0.0
1001
ACAD
1000
ASC_BOUNDS
1002
{
1070
    19
1005
A378
1002
}
  0
LINE
  5
A349
330
A333
100
AcDbEntity
  8
0
100
AcDbLine
 10
21.09599999997886
 20
-0.0001000000000317
 30
0.0
 11
22.15599999997789
 21
2.368399999997621
 31
0.0
1001
ACAD
1000
ASC_BOUNDS
1002
{
1070
    19
1005
A378
1002
}
  0
LINE
  5
A34A
330
A333
100
AcDbEntity
  8
0
100
AcDbLine
 10
26.02015566812236
 20
0.0330999999912365
 30
0.0
 11
24.97599999997499
 21
2.368399999997621
 31
0.0
1001
ACAD
1000
ASC_BOUNDS
1002
{
1070
    19
1005
A378
1002
}
  0
LINE
  5
A34B
330
A333
100
AcDbEntity
  8
0
100
AcDbLine
 10
14.32399999998563
 20
3.315799999996671
 30
0.0
 11
16.46099999998353
 21
8.999899999990987
 31
0.0
1001
ACAD
1000
ASC_BOUNDS
1002
{
1070
    19
1005
A377
1002
}
  0
LINE
  5
A34C
330
A333
100
AcDbEntity
  8
0
100
AcDbLine
 10
6.432999999993513
 20
8.763099999991255
 30
0.0
 11
3.181999999996833
 21
4.668599999995308
 31
0.0
1001
ACAD
1000
ASC_BOUNDS
1002
{
1070
    19
1005
A376
1002
}
  0
LINE
  5
A34D
330
A333
100
AcDbEntity
  8
0
100
AcDbLine
 10
4.617999999995391
 20
8.763099999991255
 30
0.0
 11
1.420999999998571
 21
4.736799999995242
 31
0.0
1001
ACAD
1000
ASC_BOUNDS
1002
{
1070
    19
1005
A376
1002
}
  0
LINE
  5
A34E
330
A333
100
AcDbEntity
  8
0
100
AcDbLine
 10
0.0
 20
8.763099999991255
 30
0.0
 11
1.420999999998571
 21
8.763099999991255
 31
0.0
1001
ACAD
1000
ASC_BOUNDS
1002
{
1070
    19
1005
A37B
1002
}
  0
LINE
  5
A34F
330
A333
100
AcDbEntity
  8
0
100
AcDbLine
 10
4.617999999995391
 20
8.763099999991255
 30
0.0
 11
6.432999999993513
 21
8.763099999991255
 31
0.0
1001
ACAD
1000
ASC_BOUNDS
1002
{
1070
    19
1005
A376
1002
}
  0
LINE
  5
A350
330
A333
100
AcDbEntity
  8
0
100
AcDbLine
 10
14.32399999998563
 20
3.315799999996671
 30
0.0
 11
12.02999999998792
 21
8.763099999991255
 31
0.0
1001
ACAD
1000
ASC_BOUNDS
1002
{
1070
    19
1005
A377
1002
}
  0
LINE
  5
A351
330
A333
100
AcDbEntity
  8
0
100
AcDbLine
 10
10.06399999998996
 20
3.670999999996297
 30
0.0
 11
9.236999999990758
 21
5.5200999999945
 31
0.0
1001
ACAD
1000
ASC_BOUNDS
1002
{
1070
    19
1005
A376
1002
}
  0
LINE
  5
A352
330
A333
100
AcDbEntity
  8
0
100
AcDbLine
 10
8.409999999991555
 20
3.670999999996297
 30
0.0
 11
9.236999999990758
 21
5.5200999999945
 31
0.0
1001
ACAD
1000
ASC_BOUNDS
1002
{
1070
    19
1005
A376
1002
}
  0
LINE
  5
A353
330
A333
100
AcDbEntity
  8
0
100
AcDbLine
 10
8.409999999991555
 20
3.670999999996297
 30
0.0
 11
10.06399999998996
 21
3.670999999996297
 31
0.0
1001
ACAD
1000
ASC_BOUNDS
1002
{
1070
    19
1005
A376
1002
}
  0
LINE
  5
A354
330
A333
100
AcDbEntity
  8
0
100
AcDbLine
 10
10.53899999998941
 20
8.763099999991255
 30
0.0
 11
12.02999999998792
 21
8.763099999991255
 31
0.0
1001
ACAD
1000
ASC_BOUNDS
1002
{
1070
    19
1005
A377
1002
}
  0
LINE
  5
A355
330
A333
100
AcDbEntity
  8
0
100
AcDbLine
 10
22.7389999999773
 20
3.670999999996297
 30
0.0
 11
23.56599999997638
 21
5.5200999999945
 31
0.0
1001
ACAD
1000
ASC_BOUNDS
1002
{
1070
    19
1005
A378
1002
}
  0
LINE
  5
A356
330
A333
100
AcDbEntity
  8
0
100
AcDbLine
 10
22.7389999999773
 20
3.670999999996297
 30
0.0
 11
24.39299999997559
 21
3.670999999996297
 31
0.0
1001
ACAD
1000
ASC_BOUNDS
1002
{
1070
    19
1005
A378
1002
}
  0
LINE
  5
A357
330
A333
100
AcDbEntity
  8
0
100
AcDbLine
 10
18.59799999998143
 20
3.315799999996671
 30
0.0
 11
20.89099999997916
 21
8.763099999991255
 31
0.0
1001
ACAD
1000
ASC_BOUNDS
1002
{
1070
    19
1005
A377
1002
}
  0
LINE
  5
A358
330
A333
100
AcDbEntity
  8
0
100
AcDbLine
 10
18.59799999998143
 20
3.315799999996671
 30
0.0
 11
16.46099999998353
 21
8.999899999990987
 31
0.0
1001
ACAD
1000
ASC_BOUNDS
1002
{
1070
    19
1005
A377
1002
}
  0
LINE
  5
A359
330
A333
100
AcDbEntity
  8
0
100
AcDbLine
 10
20.89099999997916
 20
8.763099999991255
 30
0.0
 11
22.38199999997767
 21
8.763099999991255
 31
0.0
1001
ACAD
1000
ASC_BOUNDS
1002
{
1070
    19
1005
A377
1002
}
  0
LINE
  5
A35A
330
A333
100
AcDbEntity
  8
0
100
AcDbLine
 10
24.39299999997559
 20
3.670999999996297
 30
0.0
 11
23.56599999997638
 21
5.5200999999945
 31
0.0
1001
ACAD
1000
ASC_BOUNDS
1002
{
1070
    19
1005
A378
1002
}
  0
LINE
  5
A35B
330
A333
100
AcDbEntity
  8
0
100
AcDbLine
 10
44.99999999995498
 20
-0.2368999999997641
 30
0.0
 11
40.02599999995994
 21
5.341799999994635
 31
0.0
1001
ACAD
1000
ASC_BOUNDS
1002
{
1070
    19
1005
A37A
1002
}
  0
LINE
  5
A35C
330
A333
100
AcDbEntity
  8
0
100
AcDbLine
 10
40.02599999995994
 20
5.341799999994635
 30
0.0
 11
40.02599999995994
 21
0.0
 31
0.0
1001
ACAD
1000
ASC_BOUNDS
1002
{
1070
    19
1005
A37A
1002
}
  0
LINE
  5
A35D
330
A333
100
AcDbEntity
  8
0
100
AcDbLine
 10
38.60499999996136
 20
8.999999999991019
 30
0.0
 11
38.60499999996136
 21
0.0
 31
0.0
1001
ACAD
1000
ASC_BOUNDS
1002
{
1070
    19
1005
A37A
1002
}
  0
LINE
  5
A35E
330
A333
100
AcDbEntity
  8
0
100
AcDbLine
 10
44.99999999995498
 20
8.763099999991255
 30
0.0
 11
44.99999999995498
 21
-0.2368999999997641
 31
0.0
1001
ACAD
1000
ASC_BOUNDS
1002
{
1070
    19
1005
A37A
1002
}
  0
LINE
  5
A35F
330
A333
100
AcDbEntity
  8
0
100
AcDbLine
 10
38.60499999996136
 20
0.0
 30
0.0
 11
40.02599999995994
 21
0.0
 31
0.0
1001
ACAD
1000
ASC_BOUNDS
1002
{
1070
    19
1005
A37A
1002
}
  0
LINE
  5
A360
330
A333
100
AcDbEntity
  8
0
100
AcDbLine
 10
43.57899999995641
 20
3.421199999996588
 30
0.0
 11
38.60499999996136
 21
8.999899999990987
 31
0.0
1001
ACAD
1000
ASC_BOUNDS
1002
{
1070
    19
1005
A37A
1002
}
  0
LINE
  5
A361
330
A333
100
AcDbEntity
  8
0
100
AcDbLine
 10
43.57899999995641
 20
8.763099999991255
 30
0.0
 11
43.57899999995641
 21
3.421199999996588
 31
0.0
1001
ACAD
1000
ASC_BOUNDS
1002
{
1070
    19
1005
A37A
1002
}
  0
LINE
  5
A362
330
A333
100
AcDbEntity
  8
0
100
AcDbLine
 10
43.57899999995641
 20
8.763099999991255
 30
0.0
 11
44.99999999995498
 21
8.763099999991255
 31
0.0
1001
ACAD
1000
ASC_BOUNDS
1002
{
1070
    19
1005
A37A
1002
}
  0
LINE
  5
A363
330
A333
100
AcDbEntity
  8
0
100
AcDbLine
 10
37.67199999996831
 20
8.763099999991255
 30
0.0
 11
36.23199999996837
 21
8.763099999991255
 31
0.0
  0
LINE
  5
A364
330
A333
100
AcDbEntity
  8
0
100
AcDbLine
 10
31.64199999996833
 20
8.763099999991255
 30
0.0
 11
31.64199999996833
 21
2.481619422925121
 31
0.0
  0
LINE
  5
A365
330
A333
100
AcDbEntity
  8
0
100
AcDbLine
 10
37.67199999996831
 20
8.763099999991255
 30
0.0
 11
37.67199999996831
 21
2.481619422925121
 31
0.0
  0
LINE
  5
A366
330
A333
100
AcDbEntity
  8
0
100
AcDbLine
 10
36.23199999996837
 20
8.763099999991255
 30
0.0
 11
36.23199999996837
 21
2.481619422925064
 31
0.0
  0
LINE
  5
A367
330
A333
100
AcDbEntity
  8
0
100
AcDbLine
 10
33.08199999996839
 20
8.763099999991255
 30
0.0
 11
33.08199999996839
 21
2.481619422925121
 31
0.0
  0
ARC
  5
A368
330
A333
100
AcDbEntity
  8
0
100
AcDbCircle
 10
34.65699999996832
 20
3.183099999991214
 30
0.0
 40
3.420000000000007
100
AcDbArc
 50
240.0000000000255
 51
299.9999999999766
  0
ARC
  5
A369
330
A333
100
AcDbEntity
  8
0
100
AcDbCircle
 10
34.65699999996832
 20
3.183099999991214
 30
0.0
 40
1.97999999999999
100
AcDbArc
 50
240.000000000026
 51
299.9999999999703
  0
LINE
  5
A36A
330
A333
100
AcDbEntity
  8
0
100
AcDbLine
 10
33.08199999996828
 20
8.763099999991255
 30
0.0
 11
31.64199999996833
 21
8.763099999991255
 31
0.0
  0
ARC
  5
A36B
330
A333
100
AcDbEntity
  8
0
100
AcDbCircle
 10
35.06199999996829
 20
2.481619422925064
 30
0.0
 40
1.17
100
AcDbArc
 50
299.9999999999699
 51
0.0
  0
ARC
  5
A36C
330
A333
100
AcDbEntity
  8
0
100
AcDbCircle
 10
34.25199999996835
 20
2.481619422925121
 30
0.0
 40
1.17
100
AcDbArc
 50
180.0
 51
240.0000000000238
  0
ARC
  5
A36D
330
A333
100
AcDbEntity
  8
0
100
AcDbCircle
 10
35.06199999996841
 20
2.481619422925121
 30
0.0
 40
2.61
100
AcDbArc
 50
299.9999999999756
 51
0.0
  0
ARC
  5
A36E
330
A333
100
AcDbEntity
  8
0
100
AcDbCircle
 10
34.25199999996835
 20
2.481619422925121
 30
0.0
 40
2.61
100
AcDbArc
 50
180.0
 51
240.0000000000244
  0
LINE
  5
A36F
330
A333
100
AcDbEntity
  8
0
100
AcDbLine
 10
29.30199999996933
 20
8.763099999991255
 30
0.0
 11
30.74199999996927
 21
8.763099999991255
 31
0.0
1001
ACAD
1000
ASC_BOUNDS
1002
{
1070
    19
1005
A378
1002
}
  0
LINE
  5
A370
330
A333
100
AcDbEntity
  8
0
100
AcDbLine
 10
30.74199999996927
 20
8.763099999991255
 30
0.0
 11
30.74199999996927
 21
2.373099999991211
 31
0.0
1001
ACAD
1000
ASC_BOUNDS
1002
{
1070
    19
1005
A378
1002
}
  0
LINE
  5
A371
330
A333
100
AcDbEntity
  8
0
100
AcDbLine
 10
26.02015566812236
 20
0.0330999999912365
 30
0.0
 11
28.40199999996923
 21
0.0330999999912365
 31
0.0
1001
ACAD
1000
ASC_BOUNDS
1002
{
1070
    19
1005
A378
1002
}
  0
LINE
  5
A372
330
A333
100
AcDbEntity
  8
0
100
AcDbLine
 10
29.30199999996933
 20
8.763099999991255
 30
0.0
 11
29.30199999996933
 21
2.283099999991236
 31
0.0
1001
ACAD
1000
ASC_BOUNDS
1002
{
1070
    19
1005
A378
1002
}
  0
LINE
  5
A373
330
A333
100
AcDbEntity
  8
0
100
AcDbLine
 10
26.97358892824991
 20
1.383099999991202
 30
0.0
 11
28.40199999996923
 21
1.383099999991202
 31
0.0
1001
ACAD
1000
ASC_BOUNDS
1002
{
1070
    19
1005
A378
1002
}
  0
ARC
  5
A374
330
A333
100
AcDbEntity
  8
0
100
AcDbCircle
 10
28.40199999996923
 20
2.283099999991236
 30
0.0
 40
0.9
100
AcDbArc
 50
270.0
 51
0.0
1001
ACAD
1000
ASC_BOUNDS
1002
{
1070
    19
1005
A378
1002
}
  0
ARC
  5
A375
330
A333
100
AcDbEntity
  8
0
100
AcDbCircle
 10
28.40199999996923
 20
2.373099999991211
 30
0.0
 40
2.34
100
AcDbArc
 50
270.0
 51
0.0
1001
ACAD
1000
ASC_BOUNDS
1002
{
1070
    19
1005
A378
1002
}
  0
INSERT
  5
A376
330
A333
100
AcDbEntity
  8
0
100
AcDbBlockReference
  2
*X21
 10
0.0
 20
0.0
 30
0.0
1001
ACAD
1000
HATCH
1002
{
1070
    19
1000
ANSI37
1040
0.15
1040
0.0
1000
ASC_BOUNDS
1070
     2
1070
     2
1070
    12
1005
A335
1005
A336
1005
A33D
1005
A34C
1005
A34F
1005
A34D
1005
A33E
1005
A343
1005
A341
1005
A345
1005
A344
1005
A346
1070
     2
1070
     3
1005
A351
1005
A353
1005
A352
1000
ASC_SEEDPOINT
1011
3.614004224891801
1021
2.996669441146025
1031
0.0
1000
R14_HATCH_DATA
1000
A376
1011
1.0
1021
0.0
1031
0.0
1011
0.0
1021
1.0
1031
0.0
1011
0.0
1021
0.0
1031
1.0
1040
0.0
1010
0.0
1020
0.0
1030
1.0
1000
ANSI37
1070
     0
1070
     1
1071
        2
1071
        7
1070
     0
1070
     1
1071
       17
1040
13.26299999998673
1040
-0.0001000000000317
1040
9.236999999990758
1040
8.999899999990987
1040
9.236999999990758
1040
8.999999999991019
1040
5.657999999994331
1040
0.9999999999989768
1040
3.181999999996833
1040
4.668599999995308
1040
6.432999999993513
1040
8.763099999991255
1040
4.617999999995391
1040
8.763099999991255
1040
1.420999999998571
1040
4.736799999995242
1040
4.617999999995391
1040
-0.0001000000000317
1040
4.617999999995391
1040
0.0
1040
6.766999999993232
1040
0.0
1040
6.766999999993232
1040
-0.0001000000000317
1040
7.826999999992154
1040
2.368399999997621
1040
10.64699999998936
1040
2.368399999997621
1040
11.70599999998831
1040
-0.0001000000000317
1040
11.70599999998831
1040
0.0
1040
13.26299999998673
1040
0.0
1071
       12
1005
A335
1005
A336
1005
A33D
1005
A34C
1005
A34F
1005
A34D
1005
A33E
1005
A343
1005
A341
1005
A345
1005
A344
1005
A346
1071
       22
1070
     0
1070
     1
1071
        3
1040
9.236999999990758
1040
5.5200999999945
1040
10.06399999998996
1040
3.670999999996297
1040
8.409999999991555
1040
3.670999999996297
1071
        3
1005
A351
1005
A353
1005
A352
1070
     0
1070
     1
1040
0.0
1040
0.15
1070
     0
1070
     2
1040
0.7853981633974483
1040
49.29960901727088
1040
-10.17736998311392
1040
-0.3367596045400932
1040
0.3367596045400932
1070
     0
1040
2.356194490192345
1040
49.29960901727088
1040
-10.17736998311392
1040
-0.3367596045400932
1040
-0.3367596045400932
1070
     0
1040
0.0110235143455945
1071
        2
1040
3.614004224891801
1040
2.996669441146025
1040
0.0
1040
3.614004224891801
1040
2.996669441146025
1040
0.0
1002
}
  0
INSERT
  5
A377
330
A333
100
AcDbEntity
  8
0
100
AcDbBlockReference
  2
*X22
 10
0.0
 20
0.0
 30
0.0
1001
ACAD
1000
HATCH
1002
{
1070
    19
1000
ANSI37
1040
0.15
1040
0.0
1000
ASC_BOUNDS
1070
     1
1070
     2
1070
    10
1005
A337
1005
A338
1005
A359
1005
A357
1005
A358
1005
A34B
1005
A350
1005
A354
1005
A33A
1005
A339
1000
ASC_SEEDPOINT
1011
14.73245321214324
1021
2.798246178283421
1031
0.0
1000
R14_HATCH_DATA
1000
A377
1011
1.0
1021
0.0
1031
0.0
1011
0.0
1021
1.0
1031
0.0
1011
0.0
1021
0.0
1031
1.0
1040
0.0
1010
0.0
1020
0.0
1030
1.0
1000
ANSI37
1070
     0
1070
     1
1071
        1
1071
        7
1070
     0
1070
     1
1071
       10
1040
16.46099999998353
1040
5.432899999994561
1040
18.59199999998134
1040
-0.2368999999997641
1040
22.38199999997767
1040
8.763099999991255
1040
20.89099999997916
1040
8.763099999991255
1040
18.59799999998143
1040
3.315799999996671
1040
16.46099999998353
1040
8.999899999990987
1040
14.32399999998563
1040
3.315799999996671
1040
12.02999999998792
1040
8.763099999991255
1040
10.53899999998941
1040
8.763099999991255
1040
14.32899999998563
1040
-0.2368999999997641
1071
       10
1005
A337
1005
A338
1005
A359
1005
A357
1005
A358
1005
A34B
1005
A350
1005
A354
1005
A33A
1005
A339
1070
     0
1070
     1
1040
0.0
1040
0.15
1070
     0
1070
     2
1040
0.7853981633974483
1040
49.29960901727088
1040
-10.17736998311392
1040
-0.3367596045400932
1040
0.3367596045400932
1070
     0
1040
2.356194490192345
1040
49.29960901727088
1040
-10.17736998311392
1040
-0.3367596045400932
1040
-0.3367596045400932
1070
     0
1040
0.0110235143455945
1071
        1
1040
14.73245321214324
1040
2.798246178283421
1040
0.0
1002
}
  0
INSERT
  5
A378
330
A333
100
AcDbEntity
  8
0
100
AcDbBlockReference
  2
*X23
 10
0.0
 20
0.0
 30
0.0
1001
ACAD
1000
HATCH
1002
{
1070
    19
1000
ANSI37
1040
0.15
1040
0.0
1000
ASC_BOUNDS
1070
     2
1070
     2
1070
    13
1005
A33B
1005
A348
1005
A349
1005
A347
1005
A34A
1005
A371
1005
A375
1005
A370
1005
A36F
1005
A372
1005
A374
1005
A373
1005
A33C
1070
     2
1070
     3
1005
A355
1005
A35A
1005
A356
1000
ASC_SEEDPOINT
1011
21.97929957367762
1021
3.294304244259308
1031
0.0
1000
R14_HATCH_DATA
1000
A378
1011
1.0
1021
0.0
1031
0.0
1011
0.0
1021
1.0
1031
0.0
1011
0.0
1021
0.0
1031
1.0
1040
0.0
1010
0.0
1020
0.0
1030
1.0
1000
ANSI37
1070
     0
1070
     1
1071
        2
1071
        7
1070
     1
1070
     1
1071
       15
1040
23.56599999997638
1040
8.999899999990987
1040
0.0
1040
19.53899999998043
1040
-0.0001000000000317
1040
0.0
1040
19.53899999998043
1040
0.0
1040
0.0
1040
21.09599999997886
1040
0.0
1040
0.0
1040
21.09599999997886
1040
-0.0001000000000317
1040
0.0
1040
22.15599999997789
1040
2.368399999997621
1040
0.0
1040
24.97599999997499
1040
2.368399999997621
1040
0.0
1040
26.02015566812236
1040
0.0330999999912365
1040
0.0
1040
28.40199999996923
1040
0.0330999999912365
1040
0.414213562373095
1040
30.74199999996923
1040
2.373099999991211
1040
0.0
1040
30.74199999996927
1040
8.763099999991255
1040
0.0
1040
29.30199999996933
1040
8.763099999991255
1040
0.0
1040
29.30199999996933
1040
2.283099999991236
1040
-0.414213562373095
1040
28.40199999996923
1040
1.383099999991237
1040
0.0
1040
26.97358892824991
1040
1.383099999991202
1040
0.0
1071
       13
1005
A33B
1005
A348
1005
A349
1005
A347
1005
A34A
1005
A371
1005
A375
1005
A370
1005
A36F
1005
A372
1005
A374
1005
A373
1005
A33C
1071
       22
1070
     0
1070
     1
1071
        3
1040
22.7389999999773
1040
3.670999999996297
1040
23.56599999997638
1040
5.5200999999945
1040
24.39299999997559
1040
3.670999999996297
1071
        3
1005
A355
1005
A35A
1005
A356
1070
     0
1070
     1
1040
0.0
1040
0.15
1070
     0
1070
     2
1040
0.7853981633974483
1040
49.29960901727088
1040
-10.17736998311392
1040
-0.3367596045400932
1040
0.3367596045400932
1070
     0
1040
2.356194490192345
1040
49.29960901727088
1040
-10.17736998311392
1040
-0.3367596045400932
1040
-0.3367596045400932
1070
     0
1040
0.0110235143455945
1071
        2
1040
21.97929957367762
1040
3.294304244259308
1040
0.0
1040
21.97929957367762
1040
3.294304244259308
1040
0.0
1002
}
  0
INSERT
  5
A379
330
A333
100
AcDbEntity
  8
0
100
AcDbBlockReference
  2
*X24
 10
0.0
 20
0.0
 30
0.0
1001
ACAD
1000
HATCH
1002
{
1070
    19
1000
ANSI37
1040
0.15
1040
0.0
1000
R14_HATCH_DATA
1000
A379
1011
1.0
1021
0.0
1031
0.0
1011
0.0
1021
1.0
1031
0.0
1011
0.0
1021
0.0
1031
1.0
1040
0.0
1010
0.0
1020
0.0
1030
1.0
1000
ANSI37
1070
     0
1070
     1
1071
        1
1071
        7
1070
     1
1070
     1
1071
       12
1040
31.64199999996833
1040
2.481619422925121
1040
0.2679491924310942
1040
32.94699999997067
1040
0.2212931190493919
1040
0.2679491924301353
1040
36.36699999995983
1040
0.2212931190459813
1040
0.2679491924321411
1040
37.67199999996831
1040
2.481619422928361
1040
0.0
1040
37.67199999996831
1040
8.763099999991255
1040
0.0
1040
36.23199999996837
1040
8.763099999991255
1040
0.0
1040
36.23199999996837
1040
2.481619422925064
1040
-0.2679491924310291
1040
35.64699999996708
1040
1.468369700498386
1040
-0.267949192430519
1040
33.66699999997093
1040
1.468369700497703
1040
-0.267949192431809
1040
33.08199999996839
1040
2.481619422926997
1040
0.0
1040
33.08199999996839
1040
8.763099999991255
1040
0.0
1040
31.64199999996833
1040
8.763099999991255
1040
0.0
1071
        0
1070
     0
1070
     1
1040
0.0
1040
0.15
1070
     0
1070
     2
1040
0.7853981633974483
1040
49.29960901727088
1040
-10.17736998311392
1040
-0.3367596045400932
1040
0.3367596045400932
1070
     0
1040
2.356194490192345
1040
49.29960901727088
1040
-10.17736998311392
1040
-0.3367596045400932
1040
-0.3367596045400932
1070
     0
1040
0.0110235143455945
1071
        1
1040
32.30357378967278
1040
3.988785755459219
1040
0.0
1002
}
  0
INSERT
  5
A37A
330
A333
100
AcDbEntity
  8
0
100
AcDbBlockReference
  2
*X25
 10
0.0
 20
0.0
 30
0.0
1001
ACAD
1000
HATCH
1002
{
1070
    19
1000
ANSI37
1040
0.15
1040
0.0
1000
ASC_BOUNDS
1070
     1
1070
     2
1070
     8
1005
A35B
1005
A35E
1005
A362
1005
A361
1005
A360
1005
A35D
1005
A35F
1005
A35C
1000
ASC_SEEDPOINT
1011
39.74896370716704
1021
4.484843821435049
1031
0.0
1000
R14_HATCH_DATA
1000
A37A
1011
1.0
1021
0.0
1031
0.0
1011
0.0
1021
1.0
1031
0.0
1011
0.0
1021
0.0
1031
1.0
1040
0.0
1010
0.0
1020
0.0
1030
1.0
1000
ANSI37
1070
     0
1070
     1
1071
        1
1071
        7
1070
     0
1070
     1
1071
        9
1040
40.02599999995994
1040
5.341799999994635
1040
44.99999999995498
1040
-0.2368999999997641
1040
44.99999999995498
1040
8.763099999991255
1040
43.57899999995641
1040
8.763099999991255
1040
43.57899999995641
1040
3.421199999996588
1040
38.60499999996136
1040
8.999899999990987
1040
38.60499999996136
1040
8.999999999991019
1040
38.60499999996136
1040
0.0
1040
40.02599999995994
1040
0.0
1071
        8
1005
A35B
1005
A35E
1005
A362
1005
A361
1005
A360
1005
A35D
1005
A35F
1005
A35C
1070
     0
1070
     1
1040
0.0
1040
0.15
1070
     0
1070
     2
1040
0.7853981633974483
1040
49.29960901727088
1040
-10.17736998311392
1040
-0.3367596045400932
1040
0.3367596045400932
1070
     0
1040
2.356194490192345
1040
49.29960901727088
1040
-10.17736998311392
1040
-0.3367596045400932
1040
-0.3367596045400932
1070
     0
1040
0.0110235143455945
1071
        1
1040
39.74896370716704
1040
4.484843821435049
1040
0.0
1002
}
  0
INSERT
  5
A37B
330
A333
100
AcDbEntity
  8
0
100
AcDbBlockReference
  2
*X26
 10
0.0
 20
0.0
 30
0.0
1001
ACAD
1000
HATCH
1002
{
1070
    19
1000
ANSI37
1040
0.15
1040
0.0
1000
ASC_BOUNDS
1070
     1
1070
     2
1070
     4
1005
A33F
1005
A34E
1005
A340
1005
A342
1000
ASC_SEEDPOINT
1011
1.079051535452663
1021
4.148538732891836
1031
0.0
1000
R14_HATCH_DATA
1000
A37B
1011
1.0
1021
0.0
1031
0.0
1011
0.0
1021
1.0
1031
0.0
1011
0.0
1021
0.0
1031
1.0
1040
0.0
1010
0.0
1020
0.0
1030
1.0
1000
ANSI37
1070
     0
1070
     1
1071
        1
1071
        7
1070
     0
1070
     1
1071
        4
1040
1.420999999998571
1040
0.0
1040
1.420999999998571
1040
8.763099999991255
1040
0.0
1040
8.763099999991255
1040
0.0
1040
0.0
1071
        4
1005
A33F
1005
A34E
1005
A340
1005
A342
1070
     0
1070
     1
1040
0.0
1040
0.15
1070
     0
1070
     2
1040
0.7853981633974483
1040
49.29960901727088
1040
-10.17736998311392
1040
-0.3367596045400932
1040
0.3367596045400932
1070
     0
1040
2.356194490192345
1040
49.29960901727088
1040
-10.17736998311392
1040
-0.3367596045400932
1040
-0.3367596045400932
1070
     0
1040
0.0053004257112761
1071
        1
1040
1.079051535452663
1040
4.148538732891836
1040
0.0
1002
}
  0
ENDBLK
  5
AA57
330
A333
100
AcDbEntity
  8
0
100
AcDbBlockEnd
  0
BLOCK
  5
FE77
330
FCE9
100
AcDbEntity
  8
0
100
AcDbBlockBegin
  2
*X21
 70
     1
 10
0.0
 20
0.0
 30
0.0
  3
*X21
  1

  0
LINE
  5
FCEA
330
FCE9
100
AcDbEntity
  8
0
  6
CONTINUOUS
100
AcDbLine
 10
3.418023043697893
 20
7.251849696850613
 30
0.0
 11
4.929273346838536
 21
8.763099999991255
 31
0.0
  0
LINE
  5
FCEB
330
FCE9
100
AcDbEntity
  8
0
  6
CONTINUOUS
100
AcDbLine
 10
1.483656411257782
 20
4.643963855330318
 30
0.0
 11
5.60279255591872
 21
8.763099999991255
 31
0.0
  0
LINE
  5
FCEC
330
FCE9
100
AcDbEntity
  8
0
  6
CONTINUOUS
100
AcDbLine
 10
1.755053947328235
 20
4.241842182320584
 30
0.0
 11
6.276311764998907
 21
8.763099999991255
 31
0.0
  0
LINE
  5
FCED
330
FCE9
100
AcDbEntity
  8
0
  6
CONTINUOUS
100
AcDbLine
 10
2.026451483398688
 20
3.839720509310849
 30
0.0
 11
4.441040904851878
 21
6.254309930764039
 31
0.0
  0
LINE
  5
FCEE
330
FCE9
100
AcDbEntity
  8
0
  6
CONTINUOUS
100
AcDbLine
 10
2.297849019469139
 20
3.437598836301114
 30
0.0
 11
3.321765168359338
 21
4.461514985191313
 31
0.0
  0
LINE
  5
FCEF
330
FCE9
100
AcDbEntity
  8
0
  6
CONTINUOUS
100
AcDbLine
 10
2.569246555539591
 20
3.03547716329138
 30
0.0
 11
3.593163397972743
 21
4.059394005724531
 31
0.0
  0
LINE
  5
FCF0
330
FCE9
100
AcDbEntity
  8
0
  6
CONTINUOUS
100
AcDbLine
 10
2.840644091610043
 20
2.633355490281646
 30
0.0
 11
3.864561627586149
 21
3.657273026257751
 31
0.0
  0
LINE
  5
FCF1
330
FCE9
100
AcDbEntity
  8
0
  6
CONTINUOUS
100
AcDbLine
 10
3.112041627680496
 20
2.231233817271911
 30
0.0
 11
4.135959857199554
 21
3.25515204679097
 31
0.0
  0
LINE
  5
FCF2
330
FCE9
100
AcDbEntity
  8
0
  6
CONTINUOUS
100
AcDbLine
 10
3.383439163750948
 20
1.829112144262177
 30
0.0
 11
4.40735808681296
 21
2.853031067324189
 31
0.0
  0
LINE
  5
FCF3
330
FCE9
100
AcDbEntity
  8
0
  6
CONTINUOUS
100
AcDbLine
 10
3.654836699821399
 20
1.426990471252442
 30
0.0
 11
4.678756316426365
 21
2.450910087857407
 31
0.0
  0
LINE
  5
FCF4
330
FCE9
100
AcDbEntity
  8
0
  6
CONTINUOUS
100
AcDbLine
 10
3.926234235891853
 20
1.024868798242709
 30
0.0
 11
4.95015454603977
 21
2.048789108390626
 31
0.0
  0
LINE
  5
FCF5
330
FCE9
100
AcDbEntity
  8
0
  6
CONTINUOUS
100
AcDbLine
 10
4.197631771962304
 20
0.6227471252329737
 30
0.0
 11
5.221552775653176
 21
1.646668128923846
 31
0.0
  0
LINE
  5
FCF6
330
FCE9
100
AcDbEntity
  8
0
  6
CONTINUOUS
100
AcDbLine
 10
8.715877546767851
 20
7.835069736359266
 30
0.0
 11
9.435953450375058
 21
8.555145639966472
 31
0.0
  0
LINE
  5
FCF7
330
FCE9
100
AcDbEntity
  8
0
  6
CONTINUOUS
100
AcDbLine
 10
8.170620868422267
 20
6.616293848933497
 30
0.0
 11
9.644120833743461
 21
8.08979381425469
 31
0.0
  0
LINE
  5
FCF8
330
FCE9
100
AcDbEntity
  8
0
  6
CONTINUOUS
100
AcDbLine
 10
7.625364190076684
 20
5.397517961507727
 30
0.0
 11
9.852288217111864
 21
7.624441988542907
 31
0.0
  0
LINE
  5
FCF9
330
FCE9
100
AcDbEntity
  8
0
  6
CONTINUOUS
100
AcDbLine
 10
7.080107511731101
 20
4.178742074081957
 30
0.0
 11
10.06045560048027
 21
7.159090162831124
 31
0.0
  0
LINE
  5
FCFA
330
FCE9
100
AcDbEntity
  8
0
  6
CONTINUOUS
100
AcDbLine
 10
6.534850833385518
 20
2.959966186656187
 30
0.0
 11
10.26862298384867
 21
6.693738337119342
 31
0.0
  0
LINE
  5
FCFB
330
FCE9
100
AcDbEntity
  8
0
  6
CONTINUOUS
100
AcDbLine
 10
4.469029308032756
 20
0.2206254522232385
 30
0.0
 11
5.492951005266582
 21
1.244547149457064
 31
0.0
  0
LINE
  5
FCFC
330
FCE9
100
AcDbEntity
  8
0
  6
CONTINUOUS
100
AcDbLine
 10
5.989594155039935
 20
1.741190299230417
 30
0.0
 11
8.806950407233131
 21
4.558546551423613
 31
0.0
  0
LINE
  5
FCFD
330
FCE9
100
AcDbEntity
  8
0
  6
CONTINUOUS
100
AcDbLine
 10
9.401251593263643
 20
5.152847737454126
 30
0.0
 11
10.47679036721708
 21
6.228386511407559
 31
0.0
  0
LINE
  5
FCFE
330
FCE9
100
AcDbEntity
  8
0
  6
CONTINUOUS
100
AcDbLine
 10
4.921837203428691
 20
-0.0000858614610131
 30
0.0
 11
8.592923064886001
 21
3.670999999996297
 31
0.0
  0
LINE
  5
FCFF
330
FCE9
100
AcDbEntity
  8
0
  6
CONTINUOUS
100
AcDbLine
 10
9.609390446785305
 20
4.6874673818956
 30
0.0
 11
10.68495775058548
 21
5.763034685695775
 31
0.0
  0
LINE
  5
FD00
330
FCE9
100
AcDbEntity
  8
0
  6
CONTINUOUS
100
AcDbLine
 10
5.595387755019432
 20
-0.0000545189504582
 30
0.0
 11
7.716137258923768
 21
2.120694984953879
 31
0.0
  0
LINE
  5
FD01
330
FCE9
100
AcDbEntity
  8
0
  6
CONTINUOUS
100
AcDbLine
 10
6.268938306610172
 20
-0.000023176439905
 30
0.0
 11
7.170485805526503
 21
0.9015243224764267
 31
0.0
  0
LINE
  5
FD02
330
FCE9
100
AcDbEntity
  8
0
  6
CONTINUOUS
100
AcDbLine
 10
7.963842273967511
 20
2.368399999997621
 30
0.0
 11
9.266442273966188
 21
3.670999999996297
 31
0.0
  0
LINE
  5
FD03
330
FCE9
100
AcDbEntity
  8
0
  6
CONTINUOUS
100
AcDbLine
 10
8.637361483047696
 20
2.368399999997621
 30
0.0
 11
9.939961483046375
 21
3.670999999996297
 31
0.0
  0
LINE
  5
FD04
330
FCE9
100
AcDbEntity
  8
0
  6
CONTINUOUS
100
AcDbLine
 10
9.817529300306965
 20
4.222087026337075
 30
0.0
 11
10.89312513395388
 21
5.297682859983993
 31
0.0
  0
LINE
  5
FD05
330
FCE9
100
AcDbEntity
  8
0
  6
CONTINUOUS
100
AcDbLine
 10
10.02566815382863
 20
3.756706670778549
 30
0.0
 11
11.10129251732229
 21
4.832331034272211
 31
0.0
  0
LINE
  5
FD06
330
FCE9
100
AcDbEntity
  8
0
  6
CONTINUOUS
100
AcDbLine
 10
9.310880692127883
 20
2.368399999997621
 30
0.0
 11
11.30945990069069
 21
4.366979208560428
 31
0.0
  0
LINE
  5
FD07
330
FCE9
100
AcDbEntity
  8
0
  6
CONTINUOUS
100
AcDbLine
 10
9.98439990120807
 20
2.36839999999762
 30
0.0
 11
11.5176272840591
 21
3.901627382848645
 31
0.0
  0
LINE
  5
FD08
330
FCE9
100
AcDbEntity
  8
0
  6
CONTINUOUS
100
AcDbLine
 10
10.65037369446246
 20
2.36085458417182
 30
0.0
 11
11.7257946674275
 21
3.436275557136862
 31
0.0
  0
LINE
  5
FD09
330
FCE9
100
AcDbEntity
  8
0
  6
CONTINUOUS
100
AcDbLine
 10
10.85847197087848
 20
1.895433651507656
 30
0.0
 11
11.9339620507959
 21
2.97092373142508
 31
0.0
  0
LINE
  5
FD0A
330
FCE9
100
AcDbEntity
  8
0
  6
CONTINUOUS
100
AcDbLine
 10
11.0665702472945
 20
1.430012718843491
 30
0.0
 11
12.14212943416431
 21
2.505571905713296
 31
0.0
  0
LINE
  5
FD0B
330
FCE9
100
AcDbEntity
  8
0
  6
CONTINUOUS
100
AcDbLine
 10
11.27466852371052
 20
0.9645917861793256
 30
0.0
 11
12.35029681753271
 21
2.040220080001513
 31
0.0
  0
LINE
  5
FD0C
330
FCE9
100
AcDbEntity
  8
0
  6
CONTINUOUS
100
AcDbLine
 10
11.48276680012654
 20
0.4991708535151611
 30
0.0
 11
12.55846420090111
 21
1.57486825428973
 31
0.0
  0
LINE
  5
FD0D
330
FCE9
100
AcDbEntity
  8
0
  6
CONTINUOUS
100
AcDbLine
 10
11.69086507654257
 20
0.0337499208509957
 30
0.0
 11
12.76663158426952
 21
1.109516428577947
 31
0.0
  0
LINE
  5
FD0E
330
FCE9
100
AcDbEntity
  8
0
  6
CONTINUOUS
100
AcDbLine
 10
12.33057447873954
 20
-0.0000598860322123
 30
0.0
 11
12.97479896763792
 21
0.6441646028661663
 31
0.0
  0
LINE
  5
FD0F
330
FCE9
100
AcDbEntity
  8
0
  6
CONTINUOUS
100
AcDbLine
 10
13.00413694809395
 20
-0.0000166257579952
 30
0.0
 11
13.18296635100632
 21
0.1788127771543824
 31
0.0
  0
LINE
  5
FD10
330
FCE9
100
AcDbEntity
  8
0
  6
CONTINUOUS
100
AcDbLine
 10
4.772852165289667
 20
-0.000092794222212
 30
0.0
 11
4.296495091028902
 21
0.4762642800385528
 31
0.0
  0
LINE
  5
FD11
330
FCE9
100
AcDbEntity
  8
0
  6
CONTINUOUS
100
AcDbLine
 10
5.446340034776103
 20
-0.0000614546284616
 30
0.0
 11
2.898195908335625
 21
2.548082671812017
 31
0.0
  0
LINE
  5
FD12
330
FCE9
100
AcDbEntity
  8
0
  6
CONTINUOUS
100
AcDbLine
 10
6.119827904262539
 20
-0.0000301150347113
 30
0.0
 11
1.499896725642348
 21
4.61990106358548
 31
0.0
  0
LINE
  5
FD13
330
FCE9
100
AcDbEntity
  8
0
  6
CONTINUOUS
100
AcDbLine
 10
6.775136745476159
 20
0.0181802528318542
 30
0.0
 11
5.699826040202669
 21
1.093490958105344
 31
0.0
  0
LINE
  5
FD14
330
FCE9
100
AcDbEntity
  8
0
  6
CONTINUOUS
100
AcDbLine
 10
6.983376846288489
 20
0.4834593610997118
 30
0.0
 11
5.908008617934405
 21
1.558827589453796
 31
0.0
  0
LINE
  5
FD15
330
FCE9
100
AcDbEntity
  8
0
  6
CONTINUOUS
100
AcDbLine
 10
5.377063484962296
 20
1.416253513345719
 30
0.0
 11
1.702276957014131
 21
5.091040041293883
 31
0.0
  0
LINE
  5
FD16
330
FCE9
100
AcDbEntity
  8
0
  6
CONTINUOUS
100
AcDbLine
 10
3.978745891735324
 20
3.488090315652877
 30
0.0
 11
2.000373521109399
 21
5.466462686278803
 31
0.0
  0
LINE
  5
FD17
330
FCE9
100
AcDbEntity
  8
0
  6
CONTINUOUS
100
AcDbLine
 10
7.191616947100819
 20
0.948738469367568
 30
0.0
 11
6.11619119566614
 21
2.024164220802247
 31
0.0
  0
LINE
  5
FD18
330
FCE9
100
AcDbEntity
  8
0
  6
CONTINUOUS
100
AcDbLine
 10
7.399857047913149
 20
1.414017577635424
 30
0.0
 11
6.324373773397875
 21
2.489500852150698
 31
0.0
  0
LINE
  5
FD19
330
FCE9
100
AcDbEntity
  8
0
  6
CONTINUOUS
100
AcDbLine
 10
7.608097148725479
 20
1.879296685903281
 30
0.0
 11
6.53255635112961
 21
2.95483748349915
 31
0.0
  0
LINE
  5
FD1A
330
FCE9
100
AcDbEntity
  8
0
  6
CONTINUOUS
100
AcDbLine
 10
7.816337249537808
 20
2.344575794171138
 30
0.0
 11
6.740738928861345
 21
3.420174114847601
 31
0.0
  0
LINE
  5
FD1B
330
FCE9
100
AcDbEntity
  8
0
  6
CONTINUOUS
100
AcDbLine
 10
3.310241080789734
 20
4.830114335678653
 30
0.0
 11
2.298470085204666
 21
5.84188533126372
 31
0.0
  0
LINE
  5
FD1C
330
FCE9
100
AcDbEntity
  8
0
  6
CONTINUOUS
100
AcDbLine
 10
3.60832983563551
 20
5.205544789913063
 30
0.0
 11
2.596566649299935
 21
6.217307976248638
 31
0.0
  0
LINE
  5
FD1D
330
FCE9
100
AcDbEntity
  8
0
  6
CONTINUOUS
100
AcDbLine
 10
3.906418590481286
 20
5.580975244147473
 30
0.0
 11
2.894663213395203
 21
6.592730621233557
 31
0.0
  0
LINE
  5
FD1E
330
FCE9
100
AcDbEntity
  8
0
  6
CONTINUOUS
100
AcDbLine
 10
4.204507345327062
 20
5.956405698381884
 30
0.0
 11
3.192759777490472
 21
6.968153266218474
 31
0.0
  0
LINE
  5
FD1F
330
FCE9
100
AcDbEntity
  8
0
  6
CONTINUOUS
100
AcDbLine
 10
8.466032252791512
 20
2.368399999997621
 30
0.0
 11
6.948921506593081
 21
3.885510746196053
 31
0.0
  0
LINE
  5
FD20
330
FCE9
100
AcDbEntity
  8
0
  6
CONTINUOUS
100
AcDbLine
 10
9.139551461871699
 20
2.36839999999762
 30
0.0
 11
7.157104084324816
 21
4.350847377544504
 31
0.0
  0
LINE
  5
FD21
330
FCE9
100
AcDbEntity
  8
0
  6
CONTINUOUS
100
AcDbLine
 10
4.502596100172839
 20
6.331836152616295
 30
0.0
 11
3.49085634158574
 21
7.343575911203393
 31
0.0
  0
LINE
  5
FD22
330
FCE9
100
AcDbEntity
  8
0
  6
CONTINUOUS
100
AcDbLine
 10
4.800684855018615
 20
6.707266606850705
 30
0.0
 11
3.788952905681008
 21
7.718998556188312
 31
0.0
  0
LINE
  5
FD23
330
FCE9
100
AcDbEntity
  8
0
  6
CONTINUOUS
100
AcDbLine
 10
12.18154012887317
 20
-0.0000694579236642
 30
0.0
 11
11.32140332908496
 21
0.8600673418645499
 31
0.0
  0
LINE
  5
FD24
330
FCE9
100
AcDbEntity
  8
0
  6
CONTINUOUS
100
AcDbLine
 10
12.85501608323566
 20
-0.0000262032059659
 30
0.0
 11
10.77672456435345
 21
2.078265315676246
 31
0.0
  0
LINE
  5
FD25
330
FCE9
100
AcDbEntity
  8
0
  6
CONTINUOUS
100
AcDbLine
 10
9.813070670951886
 20
2.36839999999762
 30
0.0
 11
8.51047067095321
 21
3.670999999996297
 31
0.0
  0
LINE
  5
FD26
330
FCE9
100
AcDbEntity
  8
0
  6
CONTINUOUS
100
AcDbLine
 10
10.48658988003207
 20
2.36839999999762
 30
0.0
 11
9.183989880033396
 21
3.670999999996297
 31
0.0
  0
LINE
  5
FD27
330
FCE9
100
AcDbEntity
  8
0
  6
CONTINUOUS
100
AcDbLine
 10
8.441048632286794
 20
3.740422038662712
 30
0.0
 11
7.365286662056551
 21
4.816184008892956
 31
0.0
  0
LINE
  5
FD28
330
FCE9
100
AcDbEntity
  8
0
  6
CONTINUOUS
100
AcDbLine
 10
8.649187485808454
 20
4.205802394221237
 30
0.0
 11
7.573469239788285
 21
5.281520640241407
 31
0.0
  0
LINE
  5
FD29
330
FCE9
100
AcDbEntity
  8
0
  6
CONTINUOUS
100
AcDbLine
 10
5.098773609864391
 20
7.082697061085115
 30
0.0
 11
4.087049469776277
 21
8.09442120117323
 31
0.0
  0
LINE
  5
FD2A
330
FCE9
100
AcDbEntity
  8
0
  6
CONTINUOUS
100
AcDbLine
 10
5.396862364710167
 20
7.458127515319526
 30
0.0
 11
4.385146033871544
 21
8.469843846158149
 31
0.0
  0
LINE
  5
FD2B
330
FCE9
100
AcDbEntity
  8
0
  6
CONTINUOUS
100
AcDbLine
 10
13.04801363231285
 20
0.4804954567970334
 30
0.0
 11
9.85750908911358
 21
3.670999999996297
 31
0.0
  0
LINE
  5
FD2C
330
FCE9
100
AcDbEntity
  8
0
  6
CONTINUOUS
100
AcDbLine
 10
8.857326339330116
 20
4.671182749779763
 30
0.0
 11
7.781651817520021
 21
5.746857271589858
 31
0.0
  0
LINE
  5
FD2D
330
FCE9
100
AcDbEntity
  8
0
  6
CONTINUOUS
100
AcDbLine
 10
5.694951119555943
 20
7.833557969553937
 30
0.0
 11
4.765409089118624
 21
8.763099999991255
 31
0.0
  0
LINE
  5
FD2E
330
FCE9
100
AcDbEntity
  8
0
  6
CONTINUOUS
100
AcDbLine
 10
12.50286117236978
 20
1.699167125820288
 30
0.0
 11
9.68611877250287
 21
4.515909525687196
 31
0.0
  0
LINE
  5
FD2F
330
FCE9
100
AcDbEntity
  8
0
  6
CONTINUOUS
100
AcDbLine
 10
9.065465192851777
 20
5.136563105338288
 30
0.0
 11
7.989834395251757
 21
6.21219390293831
 31
0.0
  0
LINE
  5
FD30
330
FCE9
100
AcDbEntity
  8
0
  6
CONTINUOUS
100
AcDbLine
 10
5.993039874401719
 20
8.208988423788346
 30
0.0
 11
5.43892829819881
 21
8.763099999991255
 31
0.0
  0
LINE
  5
FD31
330
FCE9
100
AcDbEntity
  8
0
  6
CONTINUOUS
100
AcDbLine
 10
11.95770871242671
 20
2.917838794843543
 30
0.0
 11
8.19801697298349
 21
6.677530534286761
 31
0.0
  0
LINE
  5
FD32
330
FCE9
100
AcDbEntity
  8
0
  6
CONTINUOUS
100
AcDbLine
 10
6.291128629247495
 20
8.584418878022756
 30
0.0
 11
6.112447507278997
 21
8.763099999991255
 31
0.0
  0
LINE
  5
FD33
330
FCE9
100
AcDbEntity
  8
0
  6
CONTINUOUS
100
AcDbLine
 10
11.41255625248364
 20
4.136510463866797
 30
0.0
 11
8.406199550715227
 21
7.142867165635211
 31
0.0
  0
LINE
  5
FD34
330
FCE9
100
AcDbEntity
  8
0
  6
CONTINUOUS
100
AcDbLine
 10
10.86740379254057
 20
5.355182132890051
 30
0.0
 11
8.614382128446962
 21
7.608203796983664
 31
0.0
  0
LINE
  5
FD35
330
FCE9
100
AcDbEntity
  8
0
  6
CONTINUOUS
100
AcDbLine
 10
10.3222513325975
 20
6.573853801913305
 30
0.0
 11
8.822564706178696
 21
8.073540428332114
 31
0.0
  0
LINE
  5
FD36
330
FCE9
100
AcDbEntity
  8
0
  6
CONTINUOUS
100
AcDbLine
 10
9.777098872654436
 20
7.792525470936562
 30
0.0
 11
9.030747283910433
 21
8.538877059680566
 31
0.0
  0
ENDBLK
  5
FE78
330
FCE9
100
AcDbEntity
  8
0
100
AcDbBlockEnd
  0
BLOCK
  5
FE79
330
FD37
100
AcDbEntity
  8
0
100
AcDbBlockBegin
  2
*X22
 70
     1
 10
0.0
 20
0.0
 30
0.0
  3
*X22
  1

  0
LINE
  5
FD38
330
FD37
100
AcDbEntity
  8
0
  6
CONTINUOUS
100
AcDbLine
 10
10.67292308101235
 20
8.445076852443387
 30
0.0
 11
10.99094622856022
 21
8.763099999991255
 31
0.0
  0
LINE
  5
FD39
330
FD37
100
AcDbEntity
  8
0
  6
CONTINUOUS
100
AcDbLine
 10
10.87250383178748
 20
7.971138394138331
 30
0.0
 11
11.6644654376404
 21
8.763099999991255
 31
0.0
  0
LINE
  5
FD3A
330
FD37
100
AcDbEntity
  8
0
  6
CONTINUOUS
100
AcDbLine
 10
11.07208458256261
 20
7.497199935833273
 30
0.0
 11
12.12126590876355
 21
8.546381262034211
 31
0.0
  0
LINE
  5
FD3B
330
FD37
100
AcDbEntity
  8
0
  6
CONTINUOUS
100
AcDbLine
 10
11.27166533333774
 20
7.023261477528216
 30
0.0
 11
12.32085164573666
 21
8.072447789927136
 31
0.0
  0
LINE
  5
FD3C
330
FD37
100
AcDbEntity
  8
0
  6
CONTINUOUS
100
AcDbLine
 10
11.47124608411287
 20
6.549323019223158
 30
0.0
 11
12.52043738270977
 21
7.59851431782006
 31
0.0
  0
LINE
  5
FD3D
330
FD37
100
AcDbEntity
  8
0
  6
CONTINUOUS
100
AcDbLine
 10
11.670826834888
 20
6.075384560918101
 30
0.0
 11
12.72002311968288
 21
7.124580845712984
 31
0.0
  0
LINE
  5
FD3E
330
FD37
100
AcDbEntity
  8
0
  6
CONTINUOUS
100
AcDbLine
 10
11.87040758566313
 20
5.601446102613043
 30
0.0
 11
12.91960885665599
 21
6.650647373605907
 31
0.0
  0
LINE
  5
FD3F
330
FD37
100
AcDbEntity
  8
0
  6
CONTINUOUS
100
AcDbLine
 10
12.06998833643825
 20
5.127507644307986
 30
0.0
 11
13.1191945936291
 21
6.176713901498832
 31
0.0
  0
LINE
  5
FD40
330
FD37
100
AcDbEntity
  8
0
  6
CONTINUOUS
100
AcDbLine
 10
12.26956908721338
 20
4.65356918600293
 30
0.0
 11
13.31878033060221
 21
5.702780429391757
 31
0.0
  0
LINE
  5
FD41
330
FD37
100
AcDbEntity
  8
0
  6
CONTINUOUS
100
AcDbLine
 10
12.46914983798851
 20
4.179630727697873
 30
0.0
 11
13.51836606757532
 21
5.228846957284683
 31
0.0
  0
LINE
  5
FD42
330
FD37
100
AcDbEntity
  8
0
  6
CONTINUOUS
100
AcDbLine
 10
12.66873058876364
 20
3.705692269392816
 30
0.0
 11
13.71795180454843
 21
4.754913485177607
 31
0.0
  0
LINE
  5
FD43
330
FD37
100
AcDbEntity
  8
0
  6
CONTINUOUS
100
AcDbLine
 10
12.86831133953877
 20
3.231753811087759
 30
0.0
 11
13.91753754152154
 21
4.280980013070531
 31
0.0
  0
LINE
  5
FD44
330
FD37
100
AcDbEntity
  8
0
  6
CONTINUOUS
100
AcDbLine
 10
13.0678920903139
 20
2.757815352782702
 30
0.0
 11
14.11712327849465
 21
3.807046540963456
 31
0.0
  0
LINE
  5
FD45
330
FD37
100
AcDbEntity
  8
0
  6
CONTINUOUS
100
AcDbLine
 10
13.26747284108903
 20
2.283876894477644
 30
0.0
 11
14.31670901546777
 21
3.333113068856379
 31
0.0
  0
LINE
  5
FD46
330
FD37
100
AcDbEntity
  8
0
  6
CONTINUOUS
100
AcDbLine
 10
16.36767838827179
 20
8.751678487061342
 30
0.0
 11
16.50332410898388
 21
8.887324207773432
 31
0.0
  0
LINE
  5
FD47
330
FD37
100
AcDbEntity
  8
0
  6
CONTINUOUS
100
AcDbLine
 10
15.96190732182191
 20
7.67238821153127
 30
0.0
 11
16.68735328004734
 21
8.397834169756699
 31
0.0
  0
LINE
  5
FD48
330
FD37
100
AcDbEntity
  8
0
  6
CONTINUOUS
100
AcDbLine
 10
15.55613625537202
 20
6.593097936001196
 30
0.0
 11
16.87138245111079
 21
7.908344131739965
 31
0.0
  0
LINE
  5
FD49
330
FD37
100
AcDbEntity
  8
0
  6
CONTINUOUS
100
AcDbLine
 10
15.15036518892213
 20
5.513807660471122
 30
0.0
 11
17.05541162217424
 21
7.418854093723231
 31
0.0
  0
LINE
  5
FD4A
330
FD37
100
AcDbEntity
  8
0
  6
CONTINUOUS
100
AcDbLine
 10
14.74459412247225
 20
4.434517384941048
 30
0.0
 11
17.2394407932377
 21
6.929364055706499
 31
0.0
  0
LINE
  5
FD4B
330
FD37
100
AcDbEntity
  8
0
  6
CONTINUOUS
100
AcDbLine
 10
14.33882305602236
 20
3.355227109410975
 30
0.0
 11
17.42346996430115
 21
6.439874017689766
 31
0.0
  0
LINE
  5
FD4C
330
FD37
100
AcDbEntity
  8
0
  6
CONTINUOUS
100
AcDbLine
 10
13.46705359186416
 20
1.809938436172586
 30
0.0
 11
16.0819338255367
 21
4.424818669845129
 31
0.0
  0
LINE
  5
FD4D
330
FD37
100
AcDbEntity
  8
0
  6
CONTINUOUS
100
AcDbLine
 10
16.63283254238972
 20
4.975717386698149
 30
0.0
 11
17.60749913536461
 21
5.950383979673033
 31
0.0
  0
LINE
  5
FD4E
330
FD37
100
AcDbEntity
  8
0
  6
CONTINUOUS
100
AcDbLine
 10
13.66663434263929
 20
1.335999977867529
 30
0.0
 11
15.67604797733754
 21
3.345413612565779
 31
0.0
  0
LINE
  5
FD4F
330
FD37
100
AcDbEntity
  8
0
  6
CONTINUOUS
100
AcDbLine
 10
13.86621509341442
 20
0.8620615195624723
 30
0.0
 11
15.27016212913838
 21
2.26600855528643
 31
0.0
  0
LINE
  5
FD50
330
FD37
100
AcDbEntity
  8
0
  6
CONTINUOUS
100
AcDbLine
 10
16.81682257348267
 20
4.486188208710908
 30
0.0
 11
17.79152830642806
 21
5.460893941656299
 31
0.0
  0
LINE
  5
FD51
330
FD37
100
AcDbEntity
  8
0
  6
CONTINUOUS
100
AcDbLine
 10
17.00081260457561
 20
3.996659030723667
 30
0.0
 11
17.97555747749151
 21
4.971403903639565
 31
0.0
  0
LINE
  5
FD52
330
FD37
100
AcDbEntity
  8
0
  6
CONTINUOUS
100
AcDbLine
 10
20.74362343514722
 20
8.412989070375462
 30
0.0
 11
21.09373436476302
 21
8.763099999991256
 31
0.0
  0
LINE
  5
FD53
330
FD37
100
AcDbEntity
  8
0
  6
CONTINUOUS
100
AcDbLine
 10
20.25401257174777
 20
7.249858997895826
 30
0.0
 11
21.7672535738432
 21
8.763099999991255
 31
0.0
  0
LINE
  5
FD54
330
FD37
100
AcDbEntity
  8
0
  6
CONTINUOUS
100
AcDbLine
 10
14.06579584418955
 20
0.3881230612574149
 30
0.0
 11
14.86427628093921
 21
1.186603498007082
 31
0.0
  0
LINE
  5
FD55
330
FD37
100
AcDbEntity
  8
0
  6
CONTINUOUS
100
AcDbLine
 10
14.26537659496467
 20
-0.0858153970476412
 30
0.0
 11
14.45839043274005
 21
0.1071984407277329
 31
0.0
  0
LINE
  5
FD56
330
FD37
100
AcDbEntity
  8
0
  6
CONTINUOUS
100
AcDbLine
 10
17.18480263566856
 20
3.507129852736426
 30
0.0
 11
18.15958664855496
 21
4.481913865622833
 31
0.0
  0
LINE
  5
FD57
330
FD37
100
AcDbEntity
  8
0
  6
CONTINUOUS
100
AcDbLine
 10
17.3687926667615
 20
3.017600674749186
 30
0.0
 11
18.34361581961842
 21
3.9924238276061
 31
0.0
  0
LINE
  5
FD58
330
FD37
100
AcDbEntity
  8
0
  6
CONTINUOUS
100
AcDbLine
 10
19.76440170834832
 20
6.086728925416191
 30
0.0
 11
22.33924590259489
 21
8.661573119662755
 31
0.0
  0
LINE
  5
FD59
330
FD37
100
AcDbEntity
  8
0
  6
CONTINUOUS
100
AcDbLine
 10
19.27479084494887
 20
4.923598852936555
 30
0.0
 11
21.84929622842713
 21
7.498104236414807
 31
0.0
  0
LINE
  5
FD5A
330
FD37
100
AcDbEntity
  8
0
  6
CONTINUOUS
100
AcDbLine
 10
17.55278269785445
 20
2.528071496761945
 30
0.0
 11
18.52764499068187
 21
3.502933789589366
 31
0.0
  0
LINE
  5
FD5B
330
FD37
100
AcDbEntity
  8
0
  6
CONTINUOUS
100
AcDbLine
 10
18.78517998154942
 20
3.760468780456919
 30
0.0
 11
21.35934655425936
 21
6.33463535316686
 31
0.0
  0
LINE
  5
FD5C
330
FD37
100
AcDbEntity
  8
0
  6
CONTINUOUS
100
AcDbLine
 10
17.73677272894739
 20
2.038542318774704
 30
0.0
 11
20.8693968800916
 21
5.171166469918914
 31
0.0
  0
LINE
  5
FD5D
330
FD37
100
AcDbEntity
  8
0
  6
CONTINUOUS
100
AcDbLine
 10
17.92076276004034
 20
1.549013140787464
 30
0.0
 11
20.37944720592384
 21
4.007697586670968
 31
0.0
  0
LINE
  5
FD5E
330
FD37
100
AcDbEntity
  8
0
  6
CONTINUOUS
100
AcDbLine
 10
18.10475279113329
 20
1.059483962800223
 30
0.0
 11
19.88949753175608
 21
2.84422870342302
 31
0.0
  0
LINE
  5
FD5F
330
FD37
100
AcDbEntity
  8
0
  6
CONTINUOUS
100
AcDbLine
 10
18.28874282222623
 20
0.5699547848129822
 30
0.0
 11
19.39954785758832
 21
1.680759820175074
 31
0.0
  0
LINE
  5
FD60
330
FD37
100
AcDbEntity
  8
0
  6
CONTINUOUS
100
AcDbLine
 10
18.47273285331918
 20
0.0804256068257416
 30
0.0
 11
18.90959818342056
 21
0.517290936927127
 31
0.0
  0
LINE
  5
FD61
330
FD37
100
AcDbEntity
  8
0
  6
CONTINUOUS
100
AcDbLine
 10
14.3590401358224
 20
-0.1570118376323384
 30
0.0
 11
14.24903296539946
 21
-0.0470046672093929
 31
0.0
  0
LINE
  5
FD62
330
FD37
100
AcDbEntity
  8
0
  6
CONTINUOUS
100
AcDbLine
 10
14.54309291258661
 20
0.332454594683643
 30
0.0
 11
13.75908329123172
 21
1.116464216038529
 31
0.0
  0
LINE
  5
FD63
330
FD37
100
AcDbEntity
  8
0
  6
CONTINUOUS
100
AcDbLine
 10
14.72714568935081
 20
0.8219210269996244
 30
0.0
 11
13.26913361706399
 21
2.27993309928645
 31
0.0
  0
LINE
  5
FD64
330
FD37
100
AcDbEntity
  8
0
  6
CONTINUOUS
100
AcDbLine
 10
14.91119846611502
 20
1.311387459315606
 30
0.0
 11
12.77918394289625
 21
3.443401982534371
 31
0.0
  0
LINE
  5
FD65
330
FD37
100
AcDbEntity
  8
0
  6
CONTINUOUS
100
AcDbLine
 10
15.09525124287922
 20
1.800853891631587
 30
0.0
 11
12.28923426872852
 21
4.606870865782293
 31
0.0
  0
LINE
  5
FD66
330
FD37
100
AcDbEntity
  8
0
  6
CONTINUOUS
100
AcDbLine
 10
15.27930401964343
 20
2.290320323947569
 30
0.0
 11
11.79928459456078
 21
5.770339749030213
 31
0.0
  0
LINE
  5
FD67
330
FD37
100
AcDbEntity
  8
0
  6
CONTINUOUS
100
AcDbLine
 10
15.46335679640763
 20
2.77978675626355
 30
0.0
 11
14.48885470994921
 21
3.754288842721972
 31
0.0
  0
LINE
  5
FD68
330
FD37
100
AcDbEntity
  8
0
  6
CONTINUOUS
100
AcDbLine
 10
13.88507249233704
 20
4.358071060334137
 30
0.0
 11
11.30933492039305
 21
6.933808632278135
 31
0.0
  0
LINE
  5
FD69
330
FD37
100
AcDbEntity
  8
0
  6
CONTINUOUS
100
AcDbLine
 10
18.75840522805855
 20
0.1582575336928151
 30
0.0
 11
18.25383727664818
 21
0.6628254851031863
 31
0.0
  0
LINE
  5
FD6A
330
FD37
100
AcDbEntity
  8
0
  6
CONTINUOUS
100
AcDbLine
 10
15.64740957317184
 20
3.269253188579531
 30
0.0
 11
14.67288388101266
 21
4.243778880738705
 31
0.0
  0
LINE
  5
FD6B
330
FD37
100
AcDbEntity
  8
0
  6
CONTINUOUS
100
AcDbLine
 10
13.39509276772158
 20
5.521569994029786
 30
0.0
 11
10.81938524622531
 21
8.097277515526056
 31
0.0
  0
LINE
  5
FD6C
330
FD37
100
AcDbEntity
  8
0
  6
CONTINUOUS
100
AcDbLine
 10
18.95798597883369
 20
0.6321959919978686
 30
0.0
 11
17.84825644852853
 21
1.741925522303024
 31
0.0
  0
LINE
  5
FD6D
330
FD37
100
AcDbEntity
  8
0
  6
CONTINUOUS
100
AcDbLine
 10
19.15756672960882
 20
1.106134450302922
 30
0.0
 11
17.44267562040888
 21
2.821025559502861
 31
0.0
  0
LINE
  5
FD6E
330
FD37
100
AcDbEntity
  8
0
  6
CONTINUOUS
100
AcDbLine
 10
15.83146234993604
 20
3.758719620895513
 30
0.0
 11
14.85691305207612
 21
4.733268918755439
 31
0.0
  0
LINE
  5
FD6F
330
FD37
100
AcDbEntity
  8
0
  6
CONTINUOUS
100
AcDbLine
 10
16.01551512670025
 20
4.248186053211494
 30
0.0
 11
15.04094222313957
 21
5.222758956772172
 31
0.0
  0
LINE
  5
FD70
330
FD37
100
AcDbEntity
  8
0
  6
CONTINUOUS
100
AcDbLine
 10
12.90511304310612
 20
6.685068927725435
 30
0.0
 11
10.8270819708403
 21
8.763099999991255
 31
0.0
  0
LINE
  5
FD71
330
FD37
100
AcDbEntity
  8
0
  6
CONTINUOUS
100
AcDbLine
 10
12.41513331849066
 20
7.848567861421083
 30
0.0
 11
11.50060117992049
 21
8.763099999991255
 31
0.0
  0
LINE
  5
FD72
330
FD37
100
AcDbEntity
  8
0
  6
CONTINUOUS
100
AcDbLine
 10
19.35714748038395
 20
1.580072908607975
 30
0.0
 11
17.03709479228923
 21
3.900125596702697
 31
0.0
  0
LINE
  5
FD73
330
FD37
100
AcDbEntity
  8
0
  6
CONTINUOUS
100
AcDbLine
 10
19.55672823115909
 20
2.054011366913028
 30
0.0
 11
16.63151396416958
 21
4.979225633902534
 31
0.0
  0
LINE
  5
FD74
330
FD37
100
AcDbEntity
  8
0
  6
CONTINUOUS
100
AcDbLine
 10
16.19956790346445
 20
4.737652485527476
 30
0.0
 11
15.22497139420302
 21
5.712248994788904
 31
0.0
  0
LINE
  5
FD75
330
FD37
100
AcDbEntity
  8
0
  6
CONTINUOUS
100
AcDbLine
 10
16.38362068022866
 20
5.227118917843457
 30
0.0
 11
15.40900056526648
 21
6.201739032805637
 31
0.0
  0
LINE
  5
FD76
330
FD37
100
AcDbEntity
  8
0
  6
CONTINUOUS
100
AcDbLine
 10
19.75630898193422
 20
2.527949825218081
 30
0.0
 11
18.70774536448286
 21
3.576513442669441
 31
0.0
  0
LINE
  5
FD77
330
FD37
100
AcDbEntity
  8
0
  6
CONTINUOUS
100
AcDbLine
 10
19.95588973270936
 20
3.001888283523134
 30
0.0
 11
18.90726987211446
 21
4.050508144118028
 31
0.0
  0
LINE
  5
FD78
330
FD37
100
AcDbEntity
  8
0
  6
CONTINUOUS
100
AcDbLine
 10
20.15547048348449
 20
3.475826741828186
 30
0.0
 11
19.10679437974606
 21
4.524502845566614
 31
0.0
  0
LINE
  5
FD79
330
FD37
100
AcDbEntity
  8
0
  6
CONTINUOUS
100
AcDbLine
 10
20.35505123425962
 20
3.94976520013324
 30
0.0
 11
19.30631888737766
 21
4.998497547015201
 31
0.0
  0
LINE
  5
FD7A
330
FD37
100
AcDbEntity
  8
0
  6
CONTINUOUS
100
AcDbLine
 10
20.55463198503475
 20
4.423703658438292
 30
0.0
 11
19.50584339500926
 21
5.472492248463787
 31
0.0
  0
LINE
  5
FD7B
330
FD37
100
AcDbEntity
  8
0
  6
CONTINUOUS
100
AcDbLine
 10
18.37481191085755
 20
3.909446896294752
 30
0.0
 11
15.59302973632993
 21
6.691229070822371
 31
0.0
  0
LINE
  5
FD7C
330
FD37
100
AcDbEntity
  8
0
  6
CONTINUOUS
100
AcDbLine
 10
17.96904084440766
 20
4.988737171824825
 30
0.0
 11
15.77705890739338
 21
7.180719108839104
 31
0.0
  0
LINE
  5
FD7D
330
FD37
100
AcDbEntity
  8
0
  6
CONTINUOUS
100
AcDbLine
 10
17.56326977795777
 20
6.068027447354899
 30
0.0
 11
15.96108807845684
 21
7.670209146855838
 31
0.0
  0
LINE
  5
FD7E
330
FD37
100
AcDbEntity
  8
0
  6
CONTINUOUS
100
AcDbLine
 10
17.15749871150789
 20
7.147317722884972
 30
0.0
 11
16.14511724952029
 21
8.15969918487257
 31
0.0
  0
LINE
  5
FD7F
330
FD37
100
AcDbEntity
  8
0
  6
CONTINUOUS
100
AcDbLine
 10
16.751727645058
 20
8.226607998415046
 30
0.0
 11
16.32914642058374
 21
8.649189222889303
 31
0.0
  0
LINE
  5
FD80
330
FD37
100
AcDbEntity
  8
0
  6
CONTINUOUS
100
AcDbLine
 10
20.75421273580989
 20
4.897642116743345
 30
0.0
 11
19.70536790264086
 21
5.946486949912374
 31
0.0
  0
LINE
  5
FD81
330
FD37
100
AcDbEntity
  8
0
  6
CONTINUOUS
100
AcDbLine
 10
20.95379348658502
 20
5.371580575048398
 30
0.0
 11
19.90489241027246
 21
6.42048165136096
 31
0.0
  0
LINE
  5
FD82
330
FD37
100
AcDbEntity
  8
0
  6
CONTINUOUS
100
AcDbLine
 10
21.15337423736015
 20
5.845519033353452
 30
0.0
 11
20.10441691790406
 21
6.894476352809547
 31
0.0
  0
LINE
  5
FD83
330
FD37
100
AcDbEntity
  8
0
  6
CONTINUOUS
100
AcDbLine
 10
21.35295498813529
 20
6.319457491658505
 30
0.0
 11
20.30394142553566
 21
7.368471054258134
 31
0.0
  0
LINE
  5
FD84
330
FD37
100
AcDbEntity
  8
0
  6
CONTINUOUS
100
AcDbLine
 10
21.55253573891042
 20
6.793395949963558
 30
0.0
 11
20.50346593316726
 21
7.842465755706721
 31
0.0
  0
LINE
  5
FD85
330
FD37
100
AcDbEntity
  8
0
  6
CONTINUOUS
100
AcDbLine
 10
21.75211648968556
 20
7.267334408268612
 30
0.0
 11
20.70299044079886
 21
8.316460457155308
 31
0.0
  0
LINE
  5
FD86
330
FD37
100
AcDbEntity
  8
0
  6
CONTINUOUS
100
AcDbLine
 10
21.95169724046069
 20
7.741272866573663
 30
0.0
 11
20.9298701070431
 21
8.763099999991256
 31
0.0
  0
LINE
  5
FD87
330
FD37
100
AcDbEntity
  8
0
  6
CONTINUOUS
100
AcDbLine
 10
22.15127799123582
 20
8.215211324878716
 30
0.0
 11
21.60338931612328
 21
8.763099999991256
 31
0.0
  0
LINE
  5
FD88
330
FD37
100
AcDbEntity
  8
0
  6
CONTINUOUS
100
AcDbLine
 10
22.35085874201096
 20
8.689149783183769
 30
0.0
 11
22.27690852520347
 21
8.763099999991255
 31
0.0
  0
ENDBLK
  5
FE7A
330
FD37
100
AcDbEntity
  8
0
100
AcDbBlockEnd
  0
BLOCK
  5
FE7B
330
FD89
100
AcDbEntity
  8
0
100
AcDbBlockBegin
  2
*X23
 70
     1
 10
0.0
 20
0.0
 30
0.0
  3
*X23
  1

  0
LINE
  5
FD8A
330
FD89
100
AcDbEntity
  8
0
  6
CONTINUOUS
100
AcDbLine
 10
23.19462913593892
 20
8.169917934846424
 30
0.0
 11
23.70775465517246
 21
8.683043454079957
 31
0.0
  0
LINE
  5
FD8B
330
FD89
100
AcDbEntity
  8
0
  6
CONTINUOUS
100
AcDbLine
 10
22.64923161835078
 20
6.951001208178088
 30
0.0
 11
23.9159364069932
 21
8.217705996820516
 31
0.0
  0
LINE
  5
FD8C
330
FD89
100
AcDbEntity
  8
0
  6
CONTINUOUS
100
AcDbLine
 10
22.10383410076263
 20
5.732084481509751
 30
0.0
 11
24.12411815881395
 21
7.752368539561078
 31
0.0
  0
LINE
  5
FD8D
330
FD89
100
AcDbEntity
  8
0
  6
CONTINUOUS
100
AcDbLine
 10
21.55843658317447
 20
4.513167754841414
 30
0.0
 11
24.3322999106347
 21
7.287031082301639
 31
0.0
  0
LINE
  5
FD8E
330
FD89
100
AcDbEntity
  8
0
  6
CONTINUOUS
100
AcDbLine
 10
21.01303906558632
 20
3.294251028173077
 30
0.0
 11
24.54048166245544
 21
6.821693625042199
 31
0.0
  0
LINE
  5
FD8F
330
FD89
100
AcDbEntity
  8
0
  6
CONTINUOUS
100
AcDbLine
 10
20.46764154799817
 20
2.075334301504738
 30
0.0
 11
23.28571549467848
 21
4.89340824818505
 31
0.0
  0
LINE
  5
FD90
330
FD89
100
AcDbEntity
  8
0
  6
CONTINUOUS
100
AcDbLine
 10
19.92224403041002
 20
0.8564175748364002
 30
0.0
 11
22.74075865492779
 21
3.674932199354171
 31
0.0
  0
LINE
  5
FD91
330
FD89
100
AcDbEntity
  8
0
  6
CONTINUOUS
100
AcDbLine
 10
23.67305085490148
 20
5.280743608408048
 30
0.0
 11
24.74866341427619
 21
6.356356167782759
 31
0.0
  0
LINE
  5
FD92
330
FD89
100
AcDbEntity
  8
0
  6
CONTINUOUS
100
AcDbLine
 10
23.88118970842314
 20
4.815363252849522
 30
0.0
 11
24.95684516609694
 21
5.89101871052332
 31
0.0
  0
LINE
  5
FD93
330
FD89
100
AcDbEntity
  8
0
  6
CONTINUOUS
100
AcDbLine
 10
19.73925852647308
 20
-0.0000871381807288
 30
0.0
 11
23.4103456646501
 21
3.670999999996297
 31
0.0
  0
LINE
  5
FD94
330
FD89
100
AcDbEntity
  8
0
  6
CONTINUOUS
100
AcDbLine
 10
24.0893285619448
 20
4.349982897290997
 30
0.0
 11
25.16502691791769
 21
5.42568125326388
 31
0.0
  0
LINE
  5
FD95
330
FD89
100
AcDbEntity
  8
0
  6
CONTINUOUS
100
AcDbLine
 10
20.41282099582748
 20
-0.0000438779065108
 30
0.0
 11
21.64944178675636
 21
1.236576913022366
 31
0.0
  0
LINE
  5
FD96
330
FD89
100
AcDbEntity
  8
0
  6
CONTINUOUS
100
AcDbLine
 10
22.78126487373161
 20
2.36839999999762
 30
0.0
 11
24.08386487373029
 21
3.670999999996297
 31
0.0
  0
LINE
  5
FD97
330
FD89
100
AcDbEntity
  8
0
  6
CONTINUOUS
100
AcDbLine
 10
24.29746741546646
 20
3.884602541732471
 30
0.0
 11
25.37320866973843
 21
4.960343796004441
 31
0.0
  0
LINE
  5
FD98
330
FD89
100
AcDbEntity
  8
0
  6
CONTINUOUS
100
AcDbLine
 10
21.08638346518189
 20
-0.0000006176322938
 30
0.0
 11
21.10379033335899
 21
0.0174062505448083
 31
0.0
  0
LINE
  5
FD99
330
FD89
100
AcDbEntity
  8
0
  6
CONTINUOUS
100
AcDbLine
 10
23.4547840828118
 20
2.36839999999762
 30
0.0
 11
25.58139042155918
 21
4.495006338745002
 31
0.0
  0
LINE
  5
FD9A
330
FD89
100
AcDbEntity
  8
0
  6
CONTINUOUS
100
AcDbLine
 10
29.30199999996933
 20
8.215615917155148
 30
0.0
 11
29.84948408280543
 21
8.763099999991255
 31
0.0
  0
LINE
  5
FD9B
330
FD89
100
AcDbEntity
  8
0
  6
CONTINUOUS
100
AcDbLine
 10
24.12830329189199
 20
2.36839999999762
 30
0.0
 11
25.78957217337993
 21
4.029668881485562
 31
0.0
  0
LINE
  5
FD9C
330
FD89
100
AcDbEntity
  8
0
  6
CONTINUOUS
100
AcDbLine
 10
29.30199999996933
 20
7.54209670807496
 30
0.0
 11
30.52300329188562
 21
8.763099999991255
 31
0.0
  0
LINE
  5
FD9D
330
FD89
100
AcDbEntity
  8
0
  6
CONTINUOUS
100
AcDbLine
 10
24.80182250097217
 20
2.36839999999762
 30
0.0
 11
25.99775392520067
 21
3.564331424226122
 31
0.0
  0
LINE
  5
FD9E
330
FD89
100
AcDbEntity
  8
0
  6
CONTINUOUS
100
AcDbLine
 10
29.30199999996933
 20
6.868577498994774
 30
0.0
 11
30.74199999996926
 21
8.308577498994712
 31
0.0
  0
LINE
  5
FD9F
330
FD89
100
AcDbEntity
  8
0
  6
CONTINUOUS
100
AcDbLine
 10
25.13028238392013
 20
2.023340673865392
 30
0.0
 11
26.20593567702142
 21
3.098993966966683
 31
0.0
  0
LINE
  5
FDA0
330
FD89
100
AcDbEntity
  8
0
  6
CONTINUOUS
100
AcDbLine
 10
25.33838066033617
 20
1.557919741201244
 30
0.0
 11
26.41411742884217
 21
2.633656509707244
 31
0.0
  0
LINE
  5
FDA1
330
FD89
100
AcDbEntity
  8
0
  6
CONTINUOUS
100
AcDbLine
 10
25.54647893675221
 20
1.092498808537098
 30
0.0
 11
26.62229918066291
 21
2.168319052447804
 31
0.0
  0
LINE
  5
FDA2
330
FD89
100
AcDbEntity
  8
0
  6
CONTINUOUS
100
AcDbLine
 10
25.75457721316825
 20
0.62707787587295
 30
0.0
 11
26.83048093248366
 21
1.702981595188365
 31
0.0
  0
LINE
  5
FDA3
330
FD89
100
AcDbEntity
  8
0
  6
CONTINUOUS
100
AcDbLine
 10
29.30199999996933
 20
6.195058289914587
 30
0.0
 11
30.74199999996926
 21
7.635058289914522
 31
0.0
  0
LINE
  5
FDA4
330
FD89
100
AcDbEntity
  8
0
  6
CONTINUOUS
100
AcDbLine
 10
29.30199999996933
 20
5.521539080834401
 30
0.0
 11
30.74199999996926
 21
6.961539080834331
 31
0.0
  0
LINE
  5
FDA5
330
FD89
100
AcDbEntity
  8
0
  6
CONTINUOUS
100
AcDbLine
 10
29.30199999996933
 20
4.848019871754214
 30
0.0
 11
30.74199999996925
 21
6.288019871754143
 31
0.0
  0
LINE
  5
FDA6
330
FD89
100
AcDbEntity
  8
0
  6
CONTINUOUS
100
AcDbLine
 10
29.30199999996933
 20
4.174500662674028
 30
0.0
 11
30.74199999996925
 21
5.614500662673953
 31
0.0
  0
LINE
  5
FDA7
330
FD89
100
AcDbEntity
  8
0
  6
CONTINUOUS
100
AcDbLine
 10
25.96267548958429
 20
0.1616569432088024
 30
0.0
 11
27.18411854636669
 21
1.383099999991207
 31
0.0
  0
LINE
  5
FDA8
330
FD89
100
AcDbEntity
  8
0
  6
CONTINUOUS
100
AcDbLine
 10
29.30199999996933
 20
3.500981453593841
 30
0.0
 11
30.74199999996925
 21
4.940981453593762
 31
0.0
  0
LINE
  5
FDA9
330
FD89
100
AcDbEntity
  8
0
  6
CONTINUOUS
100
AcDbLine
 10
26.50763775544691
 20
0.0330999999912356
 30
0.0
 11
27.85763775544689
 21
1.383099999991223
 31
0.0
  0
LINE
  5
FDAA
330
FD89
100
AcDbEntity
  8
0
  6
CONTINUOUS
100
AcDbLine
 10
29.30199999996933
 20
2.827462244513656
 30
0.0
 11
30.74199999996925
 21
4.267462244513574
 31
0.0
  0
LINE
  5
FDAB
330
FD89
100
AcDbEntity
  8
0
  6
CONTINUOUS
100
AcDbLine
 10
27.18115696452709
 20
0.0330999999912356
 30
0.0
 11
28.55073879889363
 21
1.402681834357775
 31
0.0
  0
LINE
  5
FDAC
330
FD89
100
AcDbEntity
  8
0
  6
CONTINUOUS
100
AcDbLine
 10
29.28241816560272
 20
2.134361201066866
 30
0.0
 11
30.74199999996924
 21
3.593943035433383
 31
0.0
  0
LINE
  5
FDAD
330
FD89
100
AcDbEntity
  8
0
  6
CONTINUOUS
100
AcDbLine
 10
27.85467617360728
 20
0.0330999999912356
 30
0.0
 11
30.74199999996924
 21
2.920423826353195
 31
0.0
  0
LINE
  5
FDAE
330
FD89
100
AcDbEntity
  8
0
  6
CONTINUOUS
100
AcDbLine
 10
28.53897559587887
 20
0.0438802131826428
 30
0.0
 11
30.73121978677781
 21
2.236124404081585
 31
0.0
  0
LINE
  5
FDAF
330
FD89
100
AcDbEntity
  8
0
  6
CONTINUOUS
100
AcDbLine
 10
29.45140055588722
 20
0.2827859641107988
 30
0.0
 11
30.49231403584965
 21
1.323699444073236
 31
0.0
  0
LINE
  5
FDB0
330
FD89
100
AcDbEntity
  8
0
  6
CONTINUOUS
100
AcDbLine
 10
19.59027867740337
 20
-0.0000967065718083
 30
0.0
 11
19.55485265190471
 21
0.035329318926844
 31
0.0
  0
LINE
  5
FDB1
330
FD89
100
AcDbEntity
  8
0
  6
CONTINUOUS
100
AcDbLine
 10
20.26375463176586
 20
-0.0000534518541091
 30
0.0
 11
19.76305575737534
 21
0.5006454225364014
 31
0.0
  0
LINE
  5
FDB2
330
FD89
100
AcDbEntity
  8
0
  6
CONTINUOUS
100
AcDbLine
 10
20.93723058612834
 20
-0.0000101971364099
 30
0.0
 11
19.97125886284597
 21
0.965961526145958
 31
0.0
  0
LINE
  5
FDB3
330
FD89
100
AcDbEntity
  8
0
  6
CONTINUOUS
100
AcDbLine
 10
21.25514828313686
 20
0.355591314935257
 30
0.0
 11
20.1794619683166
 21
1.431277629755512
 31
0.0
  0
LINE
  5
FDB4
330
FD89
100
AcDbEntity
  8
0
  6
CONTINUOUS
100
AcDbLine
 10
21.46338838394921
 20
0.8208704232030986
 30
0.0
 11
20.38766507378723
 21
1.896593733365069
 31
0.0
  0
LINE
  5
FDB5
330
FD89
100
AcDbEntity
  8
0
  6
CONTINUOUS
100
AcDbLine
 10
21.67162848476155
 20
1.28614953147094
 30
0.0
 11
20.59586817925786
 21
2.361909836974626
 31
0.0
  0
LINE
  5
FDB6
330
FD89
100
AcDbEntity
  8
0
  6
CONTINUOUS
100
AcDbLine
 10
21.8798685855739
 20
1.751428639738782
 30
0.0
 11
20.80407128472849
 21
2.827225940584183
 31
0.0
  0
LINE
  5
FDB7
330
FD89
100
AcDbEntity
  8
0
  6
CONTINUOUS
100
AcDbLine
 10
22.08810868638624
 20
2.216707748006623
 30
0.0
 11
21.01227439019912
 21
3.292542044193739
 31
0.0
  0
LINE
  5
FDB8
330
FD89
100
AcDbEntity
  8
0
  6
CONTINUOUS
100
AcDbLine
 10
22.60993564347543
 20
2.36839999999762
 30
0.0
 11
21.22047749566975
 21
3.757858147803296
 31
0.0
  0
LINE
  5
FDB9
330
FD89
100
AcDbEntity
  8
0
  6
CONTINUOUS
100
AcDbLine
 10
23.28345485255561
 20
2.36839999999762
 30
0.0
 11
21.42868060114038
 21
4.223174251412853
 31
0.0
  0
LINE
  5
FDBA
330
FD89
100
AcDbEntity
  8
0
  6
CONTINUOUS
100
AcDbLine
 10
26.29227406164219
 20
0.0330999999912356
 30
0.0
 11
25.80009199592872
 21
0.5252820657046957
 31
0.0
  0
LINE
  5
FDBB
330
FD89
100
AcDbEntity
  8
0
  6
CONTINUOUS
100
AcDbLine
 10
23.9569740616358
 20
2.36839999999762
 30
0.0
 11
21.63688370661101
 21
4.688490355022409
 31
0.0
  0
LINE
  5
FDBC
330
FD89
100
AcDbEntity
  8
0
  6
CONTINUOUS
100
AcDbLine
 10
26.96579327072237
 20
0.0330999999912356
 30
0.0
 11
25.2554132311971
 21
1.743480039516508
 31
0.0
  0
LINE
  5
FDBD
330
FD89
100
AcDbEntity
  8
0
  6
CONTINUOUS
100
AcDbLine
 10
24.63049327071599
 20
2.36839999999762
 30
0.0
 11
23.32789327071731
 21
3.670999999996297
 31
0.0
  0
LINE
  5
FDBE
330
FD89
100
AcDbEntity
  8
0
  6
CONTINUOUS
100
AcDbLine
 10
22.92098674744635
 20
4.077906523267254
 30
0.0
 11
21.84508681208164
 21
5.153806458631966
 31
0.0
  0
LINE
  5
FDBF
330
FD89
100
AcDbEntity
  8
0
  6
CONTINUOUS
100
AcDbLine
 10
27.63931247980256
 20
0.0330999999912356
 30
0.0
 11
24.0014124797975
 21
3.670999999996297
 31
0.0
  0
LINE
  5
FDC0
330
FD89
100
AcDbEntity
  8
0
  6
CONTINUOUS
100
AcDbLine
 10
23.129125600968
 20
4.5432868788258
 30
0.0
 11
22.05328991755227
 21
5.619122562241522
 31
0.0
  0
LINE
  5
FDC1
330
FD89
100
AcDbEntity
  8
0
  6
CONTINUOUS
100
AcDbLine
 10
28.31283168888275
 20
0.0330999999912356
 30
0.0
 11
24.16488385994816
 21
4.181047828925828
 31
0.0
  0
LINE
  5
FDC2
330
FD89
100
AcDbEntity
  8
0
  6
CONTINUOUS
100
AcDbLine
 10
23.33726445448964
 20
5.008667234384345
 30
0.0
 11
22.2614930230229
 21
6.084438665851079
 31
0.0
  0
LINE
  5
FDC3
330
FD89
100
AcDbEntity
  8
0
  6
CONTINUOUS
100
AcDbLine
 10
28.92085740005492
 20
0.0985934978992438
 30
0.0
 11
27.63635089796295
 21
1.383099999991217
 31
0.0
  0
LINE
  5
FDC4
330
FD89
100
AcDbEntity
  8
0
  6
CONTINUOUS
100
AcDbLine
 10
26.43704649509776
 20
2.582404402856405
 30
0.0
 11
23.61992702019732
 21
5.399523877756844
 31
0.0
  0
LINE
  5
FDC5
330
FD89
100
AcDbEntity
  8
0
  6
CONTINUOUS
100
AcDbLine
 10
23.54540330801128
 20
5.47404758994289
 30
0.0
 11
22.46969612849353
 21
6.549754769460635
 31
0.0
  0
LINE
  5
FDC6
330
FD89
100
AcDbEntity
  8
0
  6
CONTINUOUS
100
AcDbLine
 10
29.42225615078443
 20
0.2707139562499279
 30
0.0
 11
28.30987010704312
 21
1.383099999991234
 31
0.0
  0
LINE
  5
FDC7
330
FD89
100
AcDbEntity
  8
0
  6
CONTINUOUS
100
AcDbLine
 10
25.89179548232307
 20
3.801174624711282
 30
0.0
 11
22.67789923396416
 21
7.015070873070191
 31
0.0
  0
LINE
  5
FDC8
330
FD89
100
AcDbEntity
  8
0
  6
CONTINUOUS
100
AcDbLine
 10
29.83624534690007
 20
0.5302439692144705
 30
0.0
 11
28.85811781497101
 21
1.508371501143527
 31
0.0
  0
LINE
  5
FDC9
330
FD89
100
AcDbEntity
  8
0
  6
CONTINUOUS
100
AcDbLine
 10
25.34654446954838
 20
5.01994484656616
 30
0.0
 11
22.88610233943479
 21
7.480386976679748
 31
0.0
  0
LINE
  5
FDCA
330
FD89
100
AcDbEntity
  8
0
  6
CONTINUOUS
100
AcDbLine
 10
30.17865975401872
 20
0.8613487711760022
 30
0.0
 11
29.18888744090175
 21
1.851121084292977
 31
0.0
  0
LINE
  5
FDCB
330
FD89
100
AcDbEntity
  8
0
  6
CONTINUOUS
100
AcDbLine
 10
24.80129345677369
 20
6.238715068421037
 30
0.0
 11
23.09430544490542
 21
7.945703080289305
 31
0.0
  0
LINE
  5
FDCC
330
FD89
100
AcDbEntity
  8
0
  6
CONTINUOUS
100
AcDbLine
 10
30.45496647202376
 20
1.258561262251155
 30
0.0
 11
29.30199999996933
 21
2.411527734305588
 31
0.0
  0
LINE
  5
FDCD
330
FD89
100
AcDbEntity
  8
0
  6
CONTINUOUS
100
AcDbLine
 10
24.256042443999
 20
7.457485290275915
 30
0.0
 11
23.30250855037605
 21
8.411019183898862
 31
0.0
  0
LINE
  5
FDCE
330
FD89
100
AcDbEntity
  8
0
  6
CONTINUOUS
100
AcDbLine
 10
30.64868582078271
 20
1.738361122572387
 30
0.0
 11
29.30199999996933
 21
3.085046943385775
 31
0.0
  0
LINE
  5
FDCF
330
FD89
100
AcDbEntity
  8
0
  6
CONTINUOUS
100
AcDbLine
 10
23.71079143122431
 20
8.676255512130794
 30
0.0
 11
23.51071165584668
 21
8.876335287508416
 31
0.0
  0
LINE
  5
FDD0
330
FD89
100
AcDbEntity
  8
0
  6
CONTINUOUS
100
AcDbLine
 10
30.73802122914428
 20
2.322544923291007
 30
0.0
 11
29.30199999996933
 21
3.758566152465961
 31
0.0
  0
LINE
  5
FDD1
330
FD89
100
AcDbEntity
  8
0
  6
CONTINUOUS
100
AcDbLine
 10
30.74199999996924
 20
2.992085361546236
 30
0.0
 11
29.30199999996933
 21
4.432085361546148
 31
0.0
  0
LINE
  5
FDD2
330
FD89
100
AcDbEntity
  8
0
  6
CONTINUOUS
100
AcDbLine
 10
30.74199999996924
 20
3.665604570626419
 30
0.0
 11
29.30199999996933
 21
5.105604570626333
 31
0.0
  0
LINE
  5
FDD3
330
FD89
100
AcDbEntity
  8
0
  6
CONTINUOUS
100
AcDbLine
 10
30.74199999996925
 20
4.339123779706602
 30
0.0
 11
29.30199999996933
 21
5.77912377970652
 31
0.0
  0
LINE
  5
FDD4
330
FD89
100
AcDbEntity
  8
0
  6
CONTINUOUS
100
AcDbLine
 10
30.74199999996925
 20
5.012642988786785
 30
0.0
 11
29.30199999996933
 21
6.452642988786707
 31
0.0
  0
LINE
  5
FDD5
330
FD89
100
AcDbEntity
  8
0
  6
CONTINUOUS
100
AcDbLine
 10
30.74199999996925
 20
5.68616219786697
 30
0.0
 11
29.30199999996933
 21
7.126162197866894
 31
0.0
  0
LINE
  5
FDD6
330
FD89
100
AcDbEntity
  8
0
  6
CONTINUOUS
100
AcDbLine
 10
30.74199999996925
 20
6.359681406947153
 30
0.0
 11
29.30199999996933
 21
7.799681406947081
 31
0.0
  0
LINE
  5
FDD7
330
FD89
100
AcDbEntity
  8
0
  6
CONTINUOUS
100
AcDbLine
 10
30.74199999996926
 20
7.033200616027337
 30
0.0
 11
29.30199999996933
 21
8.473200616027269
 31
0.0
  0
LINE
  5
FDD8
330
FD89
100
AcDbEntity
  8
0
  6
CONTINUOUS
100
AcDbLine
 10
30.74199999996926
 20
7.706719825107518
 30
0.0
 11
29.68561982508552
 21
8.763099999991255
 31
0.0
  0
LINE
  5
FDD9
330
FD89
100
AcDbEntity
  8
0
  6
CONTINUOUS
100
AcDbLine
 10
30.74199999996926
 20
8.380239034187703
 30
0.0
 11
30.35913903416571
 21
8.763099999991255
 31
0.0
  0
ENDBLK
  5
FE7C
330
FD89
100
AcDbEntity
  8
0
100
AcDbBlockEnd
  0
BLOCK
  5
FE7D
330
FDDA
100
AcDbEntity
  8
0
100
AcDbBlockBegin
  2
*X24
 70
     1
 10
0.0
 20
0.0
 30
0.0
  3
*X24
  1

  0
LINE
  5
FDDB
330
FDDA
100
AcDbEntity
  8
0
  6
CONTINUOUS
100
AcDbLine
 10
31.64199999996833
 20
8.535058289913598
 30
0.0
 11
31.87004171004599
 21
8.763099999991255
 31
0.0
  0
LINE
  5
FDDC
330
FDDA
100
AcDbEntity
  8
0
  6
CONTINUOUS
100
AcDbLine
 10
31.64199999996833
 20
7.861539080833412
 30
0.0
 11
32.54356091912618
 21
8.763099999991255
 31
0.0
  0
LINE
  5
FDDD
330
FDDA
100
AcDbEntity
  8
0
  6
CONTINUOUS
100
AcDbLine
 10
31.64199999996833
 20
7.188019871753226
 30
0.0
 11
33.08199999996839
 21
8.628019871753281
 31
0.0
  0
LINE
  5
FDDE
330
FDDA
100
AcDbEntity
  8
0
  6
CONTINUOUS
100
AcDbLine
 10
31.64199999996833
 20
6.51450066267304
 30
0.0
 11
33.08199999996839
 21
7.954500662673095
 31
0.0
  0
LINE
  5
FDDF
330
FDDA
100
AcDbEntity
  8
0
  6
CONTINUOUS
100
AcDbLine
 10
31.64199999996833
 20
5.840981453592853
 30
0.0
 11
33.08199999996839
 21
7.280981453592908
 31
0.0
  0
LINE
  5
FDE0
330
FDDA
100
AcDbEntity
  8
0
  6
CONTINUOUS
100
AcDbLine
 10
31.64199999996833
 20
5.167462244512667
 30
0.0
 11
33.08199999996839
 21
6.607462244512721
 31
0.0
  0
LINE
  5
FDE1
330
FDDA
100
AcDbEntity
  8
0
  6
CONTINUOUS
100
AcDbLine
 10
31.64199999996833
 20
4.493943035432481
 30
0.0
 11
33.08199999996839
 21
5.933943035432535
 31
0.0
  0
LINE
  5
FDE2
330
FDDA
100
AcDbEntity
  8
0
  6
CONTINUOUS
100
AcDbLine
 10
31.64199999996833
 20
3.820423826352293
 30
0.0
 11
33.08199999996839
 21
5.260423826352348
 31
0.0
  0
LINE
  5
FDE3
330
FDDA
100
AcDbEntity
  8
0
  6
CONTINUOUS
100
AcDbLine
 10
31.64199999996833
 20
3.146904617272106
 30
0.0
 11
33.08199999996839
 21
4.586904617272161
 31
0.0
  0
LINE
  5
FDE4
330
FDDA
100
AcDbEntity
  8
0
  6
CONTINUOUS
100
AcDbLine
 10
36.23199999996837
 20
8.410423826352325
 30
0.0
 11
36.5846761736073
 21
8.763099999991255
 31
0.0
  0
LINE
  5
FDE5
330
FDDA
100
AcDbEntity
  8
0
  6
CONTINUOUS
100
AcDbLine
 10
36.23199999996837
 20
7.73690461727214
 30
0.0
 11
37.25819538268748
 21
8.763099999991255
 31
0.0
  0
LINE
  5
FDE6
330
FDDA
100
AcDbEntity
  8
0
  6
CONTINUOUS
100
AcDbLine
 10
31.64257403601376
 20
2.473959444237348
 30
0.0
 11
33.08199999996839
 21
3.913385408191974
 31
0.0
  0
LINE
  5
FDE7
330
FDDA
100
AcDbEntity
  8
0
  6
CONTINUOUS
100
AcDbLine
 10
36.23199999996837
 20
7.063385408191953
 30
0.0
 11
37.67199999996831
 21
8.503385408191894
 31
0.0
  0
LINE
  5
FDE8
330
FDDA
100
AcDbEntity
  8
0
  6
CONTINUOUS
100
AcDbLine
 10
31.72013636841932
 20
1.87800256756272
 30
0.0
 11
33.08199999996839
 21
3.239866199111788
 31
0.0
  0
LINE
  5
FDE9
330
FDDA
100
AcDbEntity
  8
0
  6
CONTINUOUS
100
AcDbLine
 10
36.23199999996837
 20
6.389866199111767
 30
0.0
 11
37.67199999996831
 21
7.829866199111708
 31
0.0
  0
LINE
  5
FDEA
330
FDDA
100
AcDbEntity
  8
0
  6
CONTINUOUS
100
AcDbLine
 10
31.89042734314753
 20
1.374774333210744
 30
0.0
 11
33.08199999996839
 21
2.566346990031601
 31
0.0
  0
LINE
  5
FDEB
330
FDDA
100
AcDbEntity
  8
0
  6
CONTINUOUS
100
AcDbLine
 10
36.23199999996837
 20
5.71634699003158
 30
0.0
 11
37.67199999996831
 21
7.156346990031521
 31
0.0
  0
LINE
  5
FDEC
330
FDDA
100
AcDbEntity
  8
0
  6
CONTINUOUS
100
AcDbLine
 10
32.14210568064475
 20
0.952933461627778
 30
0.0
 11
33.18745552475986
 21
1.998283305742888
 31
0.0
  0
LINE
  5
FDED
330
FDDA
100
AcDbEntity
  8
0
  6
CONTINUOUS
100
AcDbLine
 10
36.23199999996837
 20
5.042827780951393
 30
0.0
 11
37.67199999996831
 21
6.482827780951334
 31
0.0
  0
LINE
  5
FDEE
330
FDDA
100
AcDbEntity
  8
0
  6
CONTINUOUS
100
AcDbLine
 10
32.45820639400955
 20
0.5955149659123915
 30
0.0
 11
33.47242681921943
 21
1.60973539112227
 31
0.0
  0
LINE
  5
FDEF
330
FDDA
100
AcDbEntity
  8
0
  6
CONTINUOUS
100
AcDbLine
 10
36.23199999996837
 20
4.369308571871207
 30
0.0
 11
37.67199999996831
 21
5.809308571871147
 31
0.0
  0
LINE
  5
FDF0
330
FDDA
100
AcDbEntity
  8
0
  6
CONTINUOUS
100
AcDbLine
 10
32.83432456621412
 20
0.2981139290367771
 30
0.0
 11
33.89722476612215
 21
1.361014128944803
 31
0.0
  0
LINE
  5
FDF1
330
FDDA
100
AcDbEntity
  8
0
  6
CONTINUOUS
100
AcDbLine
 10
36.23199999996837
 20
3.69578936279102
 30
0.0
 11
37.67199999996831
 21
5.135789362790962
 31
0.0
  0
LINE
  5
FDF2
330
FDDA
100
AcDbEntity
  8
0
  6
CONTINUOUS
100
AcDbLine
 10
33.2711633111245
 20
0.0614334648669672
 30
0.0
 11
34.43247338014423
 21
1.222743533886696
 31
0.0
  0
LINE
  5
FDF3
330
FDDA
100
AcDbEntity
  8
0
  6
CONTINUOUS
100
AcDbLine
 10
36.23199999996837
 20
3.022270153710834
 30
0.0
 11
37.67199999996831
 21
4.462270153710775
 31
0.0
  0
LINE
  5
FDF4
330
FDDA
100
AcDbEntity
  8
0
  6
CONTINUOUS
100
AcDbLine
 10
33.76515245874577
 20
-0.1180965965919523
 30
0.0
 11
35.1587445516215
 21
1.27549549628378
 31
0.0
  0
LINE
  5
FDF5
330
FDDA
100
AcDbEntity
  8
0
  6
CONTINUOUS
100
AcDbLine
 10
36.21639478609585
 20
2.333145730758136
 30
0.0
 11
37.67199999996831
 21
3.788750944630588
 31
0.0
  0
LINE
  5
FDF6
330
FDDA
100
AcDbEntity
  8
0
  6
CONTINUOUS
100
AcDbLine
 10
34.34060583368432
 20
-0.2161624307335863
 30
0.0
 11
37.67199999996831
 21
3.115231735550401
 31
0.0
  0
LINE
  5
FDF7
330
FDDA
100
AcDbEntity
  8
0
  6
CONTINUOUS
100
AcDbLine
 10
35.01698193613905
 20
-0.2133055373590427
 30
0.0
 11
37.66876712070525
 21
2.438479647207154
 31
0.0
  0
LINE
  5
FDF8
330
FDDA
100
AcDbEntity
  8
0
  6
CONTINUOUS
100
AcDbLine
 10
35.90743367693304
 20
0.0036269943547609
 30
0.0
 11
37.51723902192366
 21
1.613432339345381
 31
0.0
  0
LINE
  5
FDF9
330
FDDA
100
AcDbEntity
  8
0
  6
CONTINUOUS
100
AcDbLine
 10
32.55309425579761
 20
0.5074718966376706
 30
0.0
 11
32.27784730925847
 21
0.7827188431768102
 31
0.0
  0
LINE
  5
FDFA
330
FDDA
100
AcDbEntity
  8
0
  6
CONTINUOUS
100
AcDbLine
 10
33.87496468909684
 20
-0.1408793275813673
 30
0.0
 11
31.67993083278052
 21
2.054154528734943
 31
0.0
  0
LINE
  5
FDFB
330
FDDA
100
AcDbEntity
  8
0
  6
CONTINUOUS
100
AcDbLine
 10
34.64362813207632
 20
-0.2360235614806649
 30
0.0
 11
31.64199999996833
 21
2.765604570627322
 31
0.0
  0
LINE
  5
FDFC
330
FDDA
100
AcDbEntity
  8
0
  6
CONTINUOUS
100
AcDbLine
 10
35.25801106796118
 20
-0.1768872882853429
 30
0.0
 11
31.64199999996833
 21
3.439123779707508
 31
0.0
  0
LINE
  5
FDFD
330
FDDA
100
AcDbEntity
  8
0
  6
CONTINUOUS
100
AcDbLine
 10
35.79065650332146
 20
-0.0360135145654361
 30
0.0
 11
34.54143210838231
 21
1.213210880373721
 31
0.0
  0
LINE
  5
FDFE
330
FDDA
100
AcDbEntity
  8
0
  6
CONTINUOUS
100
AcDbLine
 10
33.08199999996839
 20
2.67264298878764
 30
0.0
 11
31.64199999996833
 21
4.112642988787695
 31
0.0
  0
LINE
  5
FDFF
330
FDDA
100
AcDbEntity
  8
0
  6
CONTINUOUS
100
AcDbLine
 10
36.25975597779143
 20
0.1684062200447833
 30
0.0
 11
35.15395110240023
 21
1.274211095435983
 31
0.0
  0
LINE
  5
FE00
330
FDDA
100
AcDbEntity
  8
0
  6
CONTINUOUS
100
AcDbLine
 10
33.08199999996839
 20
3.346162197867826
 30
0.0
 11
31.64199999996833
 21
4.786162197867881
 31
0.0
  0
LINE
  5
FE01
330
FDDA
100
AcDbEntity
  8
0
  6
CONTINUOUS
100
AcDbLine
 10
36.67226329638774
 20
0.4294181105286579
 30
0.0
 11
35.63766478748767
 21
1.464016619428737
 31
0.0
  0
LINE
  5
FE02
330
FDDA
100
AcDbEntity
  8
0
  6
CONTINUOUS
100
AcDbLine
 10
33.08199999996839
 20
4.019681406948012
 30
0.0
 11
31.64199999996833
 21
5.459681406948068
 31
0.0
  0
LINE
  5
FE03
330
FDDA
100
AcDbEntity
  8
0
  6
CONTINUOUS
100
AcDbLine
 10
37.01677749710036
 20
0.7584231188962329
 30
0.0
 11
35.99563422741351
 21
1.779566388583076
 31
0.0
  0
LINE
  5
FE04
330
FDDA
100
AcDbEntity
  8
0
  6
CONTINUOUS
100
AcDbLine
 10
33.08199999996839
 20
4.693200616028199
 30
0.0
 11
31.64199999996833
 21
6.133200616028255
 31
0.0
  0
LINE
  5
FE05
330
FDDA
100
AcDbEntity
  8
0
  6
CONTINUOUS
100
AcDbLine
 10
37.29859977568887
 20
1.1501200493879
 30
0.0
 11
36.20680593341555
 21
2.241913891661226
 31
0.0
  0
LINE
  5
FE06
330
FDDA
100
AcDbEntity
  8
0
  6
CONTINUOUS
100
AcDbLine
 10
33.08199999996839
 20
5.366719825108386
 30
0.0
 11
31.64199999996833
 21
6.80671982510844
 31
0.0
  0
LINE
  5
FE07
330
FDDA
100
AcDbEntity
  8
0
  6
CONTINUOUS
100
AcDbLine
 10
37.5148623517228
 20
1.607376682434161
 30
0.0
 11
36.23199999996837
 21
2.890239034188594
 31
0.0
  0
LINE
  5
FE08
330
FDDA
100
AcDbEntity
  8
0
  6
CONTINUOUS
100
AcDbLine
 10
33.08199999996839
 20
6.040239034188573
 30
0.0
 11
31.64199999996833
 21
7.480239034188627
 31
0.0
  0
LINE
  5
FE09
330
FDDA
100
AcDbEntity
  8
0
  6
CONTINUOUS
100
AcDbLine
 10
37.64705163358367
 20
2.148706609653477
 30
0.0
 11
36.23199999996837
 21
3.56375824326878
 31
0.0
  0
LINE
  5
FE0A
330
FDDA
100
AcDbEntity
  8
0
  6
CONTINUOUS
100
AcDbLine
 10
33.08199999996839
 20
6.713758243268758
 30
0.0
 11
31.64199999996833
 21
8.153758243268815
 31
0.0
  0
LINE
  5
FE0B
330
FDDA
100
AcDbEntity
  8
0
  6
CONTINUOUS
100
AcDbLine
 10
37.67199999996831
 20
2.797277452349026
 30
0.0
 11
36.23199999996837
 21
4.237277452348967
 31
0.0
  0
LINE
  5
FE0C
330
FDDA
100
AcDbEntity
  8
0
  6
CONTINUOUS
100
AcDbLine
 10
37.67199999996831
 20
3.470796661429213
 30
0.0
 11
36.23199999996837
 21
4.910796661429154
 31
0.0
  0
LINE
  5
FE0D
330
FDDA
100
AcDbEntity
  8
0
  6
CONTINUOUS
100
AcDbLine
 10
37.67199999996831
 20
4.144315870509399
 30
0.0
 11
36.23199999996837
 21
5.58431587050934
 31
0.0
  0
LINE
  5
FE0E
330
FDDA
100
AcDbEntity
  8
0
  6
CONTINUOUS
100
AcDbLine
 10
33.08199999996839
 20
7.387277452348945
 30
0.0
 11
31.70617745232608
 21
8.763099999991255
 31
0.0
  0
LINE
  5
FE0F
330
FDDA
100
AcDbEntity
  8
0
  6
CONTINUOUS
100
AcDbLine
 10
33.08199999996839
 20
8.060796661429132
 30
0.0
 11
32.37969666140626
 21
8.763099999991255
 31
0.0
  0
LINE
  5
FE10
330
FDDA
100
AcDbEntity
  8
0
  6
CONTINUOUS
100
AcDbLine
 10
33.08199999996839
 20
8.734315870509318
 30
0.0
 11
33.05321587048645
 21
8.763099999991255
 31
0.0
  0
LINE
  5
FE11
330
FDDA
100
AcDbEntity
  8
0
  6
CONTINUOUS
100
AcDbLine
 10
37.67199999996831
 20
4.817835079589585
 30
0.0
 11
36.23199999996837
 21
6.257835079589526
 31
0.0
  0
LINE
  5
FE12
330
FDDA
100
AcDbEntity
  8
0
  6
CONTINUOUS
100
AcDbLine
 10
37.67199999996831
 20
5.491354288669771
 30
0.0
 11
36.23199999996837
 21
6.931354288669713
 31
0.0
  0
LINE
  5
FE13
330
FDDA
100
AcDbEntity
  8
0
  6
CONTINUOUS
100
AcDbLine
 10
37.67199999996831
 20
6.164873497749958
 30
0.0
 11
36.23199999996837
 21
7.6048734977499
 31
0.0
  0
LINE
  5
FE14
330
FDDA
100
AcDbEntity
  8
0
  6
CONTINUOUS
100
AcDbLine
 10
37.67199999996831
 20
6.838392706830144
 30
0.0
 11
36.23199999996837
 21
8.278392706830086
 31
0.0
  0
LINE
  5
FE15
330
FDDA
100
AcDbEntity
  8
0
  6
CONTINUOUS
100
AcDbLine
 10
37.67199999996831
 20
7.511911915910332
 30
0.0
 11
36.42081191588738
 21
8.763099999991255
 31
0.0
  0
LINE
  5
FE16
330
FDDA
100
AcDbEntity
  8
0
  6
CONTINUOUS
100
AcDbLine
 10
37.67199999996831
 20
8.185431124990519
 30
0.0
 11
37.09433112496757
 21
8.763099999991255
 31
0.0
  0
ENDBLK
  5
FE7E
330
FDDA
100
AcDbEntity
  8
0
100
AcDbBlockEnd
  0
BLOCK
  5
FE7F
330
FE17
100
AcDbEntity
  8
0
100
AcDbBlockBegin
  2
*X25
 70
     1
 10
0.0
 20
0.0
 30
0.0
  3
*X25
  1

  0
LINE
  5
FE18
330
FE17
100
AcDbEntity
  8
0
  6
CONTINUOUS
100
AcDbLine
 10
38.60499999996136
 20
8.762866199104765
 30
0.0
 11
38.71672554182345
 21
8.874591740966855
 31
0.0
  0
LINE
  5
FE19
330
FE17
100
AcDbEntity
  8
0
  6
CONTINUOUS
100
AcDbLine
 10
38.60499999996136
 20
8.089346990024577
 30
0.0
 11
39.03418785440363
 21
8.518534844466847
 31
0.0
  0
LINE
  5
FE1A
330
FE17
100
AcDbEntity
  8
0
  6
CONTINUOUS
100
AcDbLine
 10
38.60499999996136
 20
7.41582778094439
 30
0.0
 11
39.35165016698382
 21
8.16247794796684
 31
0.0
  0
LINE
  5
FE1B
330
FE17
100
AcDbEntity
  8
0
  6
CONTINUOUS
100
AcDbLine
 10
38.60499999996136
 20
6.742308571864204
 30
0.0
 11
39.66911247956399
 21
7.806421051466834
 31
0.0
  0
LINE
  5
FE1C
330
FE17
100
AcDbEntity
  8
0
  6
CONTINUOUS
100
AcDbLine
 10
38.60499999996136
 20
6.068789362784018
 30
0.0
 11
39.98657479214418
 21
7.450364154966827
 31
0.0
  0
LINE
  5
FE1D
330
FE17
100
AcDbEntity
  8
0
  6
CONTINUOUS
100
AcDbLine
 10
38.60499999996136
 20
5.395270153703832
 30
0.0
 11
40.30403710472435
 21
7.09430725846682
 31
0.0
  0
LINE
  5
FE1E
330
FE17
100
AcDbEntity
  8
0
  6
CONTINUOUS
100
AcDbLine
 10
38.60499999996136
 20
4.721750944623645
 30
0.0
 11
40.62149941730453
 21
6.738250361966813
 31
0.0
  0
LINE
  5
FE1F
330
FE17
100
AcDbEntity
  8
0
  6
CONTINUOUS
100
AcDbLine
 10
38.60499999996136
 20
4.048231735543458
 30
0.0
 11
40.93896172988471
 21
6.382193465466806
 31
0.0
  0
LINE
  5
FE20
330
FE17
100
AcDbEntity
  8
0
  6
CONTINUOUS
100
AcDbLine
 10
38.60499999996136
 20
3.374712526463272
 30
0.0
 11
40.02599999995994
 21
4.795712526461843
 31
0.0
  0
LINE
  5
FE21
330
FE17
100
AcDbEntity
  8
0
  6
CONTINUOUS
100
AcDbLine
 10
38.60499999996136
 20
2.701193317383085
 30
0.0
 11
40.02599999995994
 21
4.122193317381657
 31
0.0
  0
LINE
  5
FE22
330
FE17
100
AcDbEntity
  8
0
  6
CONTINUOUS
100
AcDbLine
 10
40.28339754687704
 20
5.053110073378947
 30
0.0
 11
41.25642404246489
 21
6.026136568966799
 31
0.0
  0
LINE
  5
FE23
330
FE17
100
AcDbEntity
  8
0
  6
CONTINUOUS
100
AcDbLine
 10
40.60085985945722
 20
4.697053176878939
 30
0.0
 11
41.57388635504507
 21
5.670079672466793
 31
0.0
  0
LINE
  5
FE24
330
FE17
100
AcDbEntity
  8
0
  6
CONTINUOUS
100
AcDbLine
 10
43.57899999995641
 20
8.348712526458318
 30
0.0
 11
43.99338747348935
 21
8.763099999991255
 31
0.0
  0
LINE
  5
FE25
330
FE17
100
AcDbEntity
  8
0
  6
CONTINUOUS
100
AcDbLine
 10
43.57899999995641
 20
7.675193317378131
 30
0.0
 11
44.66690668256953
 21
8.763099999991255
 31
0.0
  0
LINE
  5
FE26
330
FE17
100
AcDbEntity
  8
0
  6
CONTINUOUS
100
AcDbLine
 10
38.60499999996136
 20
2.027674108302898
 30
0.0
 11
40.02599999995994
 21
3.44867410830147
 31
0.0
  0
LINE
  5
FE27
330
FE17
100
AcDbEntity
  8
0
  6
CONTINUOUS
100
AcDbLine
 10
38.60499999996136
 20
1.354154899222712
 30
0.0
 11
40.02599999995994
 21
2.775154899221284
 31
0.0
  0
LINE
  5
FE28
330
FE17
100
AcDbEntity
  8
0
  6
CONTINUOUS
100
AcDbLine
 10
38.60499999996136
 20
0.6806356901425255
 30
0.0
 11
40.02599999995994
 21
2.101635690141098
 31
0.0
  0
LINE
  5
FE29
330
FE17
100
AcDbEntity
  8
0
  6
CONTINUOUS
100
AcDbLine
 10
38.60499999996136
 20
0.0071164810623383
 30
0.0
 11
40.02599999995994
 21
1.428116481060911
 31
0.0
  0
LINE
  5
FE2A
330
FE17
100
AcDbEntity
  8
0
  6
CONTINUOUS
100
AcDbLine
 10
40.9183221720374
 20
4.340996280378933
 30
0.0
 11
41.89134866762525
 21
5.314022775966786
 31
0.0
  0
LINE
  5
FE2B
330
FE17
100
AcDbEntity
  8
0
  6
CONTINUOUS
100
AcDbLine
 10
41.23578448461758
 20
3.984939383878926
 30
0.0
 11
42.20881098020543
 21
4.957965879466778
 31
0.0
  0
LINE
  5
FE2C
330
FE17
100
AcDbEntity
  8
0
  6
CONTINUOUS
100
AcDbLine
 10
41.55324679719776
 20
3.628882487378919
 30
0.0
 11
42.52627329278561
 21
4.601908982966772
 31
0.0
  0
LINE
  5
FE2D
330
FE17
100
AcDbEntity
  8
0
  6
CONTINUOUS
100
AcDbLine
 10
41.87070910977793
 20
3.272825590878912
 30
0.0
 11
42.84373560536579
 21
4.245852086466765
 31
0.0
  0
LINE
  5
FE2E
330
FE17
100
AcDbEntity
  8
0
  6
CONTINUOUS
100
AcDbLine
 10
43.57899999995641
 20
7.001674108297943
 30
0.0
 11
44.99999999995498
 21
8.422674108296516
 31
0.0
  0
LINE
  5
FE2F
330
FE17
100
AcDbEntity
  8
0
  6
CONTINUOUS
100
AcDbLine
 10
43.57899999995641
 20
6.328154899217758
 30
0.0
 11
44.99999999995498
 21
7.749154899216329
 31
0.0
  0
LINE
  5
FE30
330
FE17
100
AcDbEntity
  8
0
  6
CONTINUOUS
100
AcDbLine
 10
43.57899999995641
 20
5.654635690137571
 30
0.0
 11
44.99999999995498
 21
7.075635690136142
 31
0.0
  0
LINE
  5
FE31
330
FE17
100
AcDbEntity
  8
0
  6
CONTINUOUS
100
AcDbLine
 10
43.57899999995641
 20
4.981116481057384
 30
0.0
 11
44.99999999995498
 21
6.402116481055955
 31
0.0
  0
LINE
  5
FE32
330
FE17
100
AcDbEntity
  8
0
  6
CONTINUOUS
100
AcDbLine
 10
39.27140272797921
 20
-0.0000000000000009
 30
0.0
 11
40.02599999995994
 21
0.7545972719807246
 31
0.0
  0
LINE
  5
FE33
330
FE17
100
AcDbEntity
  8
0
  6
CONTINUOUS
100
AcDbLine
 10
39.9449219370594
 20
-0.0000000000000009
 30
0.0
 11
40.02599999995994
 21
0.0810780629005379
 31
0.0
  0
LINE
  5
FE34
330
FE17
100
AcDbEntity
  8
0
  6
CONTINUOUS
100
AcDbLine
 10
42.18817142235812
 20
2.916768694378905
 30
0.0
 11
43.16119791794597
 21
3.889795189966758
 31
0.0
  0
LINE
  5
FE35
330
FE17
100
AcDbEntity
  8
0
  6
CONTINUOUS
100
AcDbLine
 10
42.50563373493829
 20
2.560711797878898
 30
0.0
 11
43.47866023052615
 21
3.533738293466751
 31
0.0
  0
LINE
  5
FE36
330
FE17
100
AcDbEntity
  8
0
  6
CONTINUOUS
100
AcDbLine
 10
43.57899999995641
 20
4.307597271977198
 30
0.0
 11
44.99999999995498
 21
5.728597271975769
 31
0.0
  0
LINE
  5
FE37
330
FE17
100
AcDbEntity
  8
0
  6
CONTINUOUS
100
AcDbLine
 10
43.57899999995641
 20
3.634078062897011
 30
0.0
 11
44.99999999995498
 21
5.055078062895582
 31
0.0
  0
LINE
  5
FE38
330
FE17
100
AcDbEntity
  8
0
  6
CONTINUOUS
100
AcDbLine
 10
42.82309604751848
 20
2.204654901378891
 30
0.0
 11
44.99999999995498
 21
4.381558853815395
 31
0.0
  0
LINE
  5
FE39
330
FE17
100
AcDbEntity
  8
0
  6
CONTINUOUS
100
AcDbLine
 10
43.14055836009865
 20
1.848598004878885
 30
0.0
 11
44.99999999995498
 21
3.70803964473521
 31
0.0
  0
LINE
  5
FE3A
330
FE17
100
AcDbEntity
  8
0
  6
CONTINUOUS
100
AcDbLine
 10
43.45802067267883
 20
1.492541108378878
 30
0.0
 11
44.99999999995498
 21
3.034520435655023
 31
0.0
  0
LINE
  5
FE3B
330
FE17
100
AcDbEntity
  8
0
  6
CONTINUOUS
100
AcDbLine
 10
43.77548298525902
 20
1.136484211878871
 30
0.0
 11
44.99999999995498
 21
2.361001226574837
 31
0.0
  0
LINE
  5
FE3C
330
FE17
100
AcDbEntity
  8
0
  6
CONTINUOUS
100
AcDbLine
 10
44.09294529783919
 20
0.7804273153788639
 30
0.0
 11
44.99999999995498
 21
1.687482017494649
 31
0.0
  0
LINE
  5
FE3D
330
FE17
100
AcDbEntity
  8
0
  6
CONTINUOUS
100
AcDbLine
 10
44.41040761041938
 20
0.4243704188788566
 30
0.0
 11
44.99999999995498
 21
1.013962808414463
 31
0.0
  0
LINE
  5
FE3E
330
FE17
100
AcDbEntity
  8
0
  6
CONTINUOUS
100
AcDbLine
 10
44.72786992299955
 20
0.0683135223788494
 30
0.0
 11
44.99999999995498
 21
0.340443599334276
 31
0.0
  0
LINE
  5
FE3F
330
FE17
100
AcDbEntity
  8
0
  6
CONTINUOUS
100
AcDbLine
 10
39.12223903415696
 20
-0.0000000000000009
 30
0.0
 11
38.60499999996136
 21
0.5172390341955961
 31
0.0
  0
LINE
  5
FE40
330
FE17
100
AcDbEntity
  8
0
  6
CONTINUOUS
100
AcDbLine
 10
39.79575824323715
 20
-0.0000000000000009
 30
0.0
 11
38.60499999996136
 21
1.190758243275783
 31
0.0
  0
LINE
  5
FE41
330
FE17
100
AcDbEntity
  8
0
  6
CONTINUOUS
100
AcDbLine
 10
40.02599999995994
 20
0.443277452357397
 30
0.0
 11
38.60499999996136
 21
1.864277452355969
 31
0.0
  0
LINE
  5
FE42
330
FE17
100
AcDbEntity
  8
0
  6
CONTINUOUS
100
AcDbLine
 10
40.02599999995994
 20
1.116796661437583
 30
0.0
 11
38.60499999996136
 21
2.537796661436155
 31
0.0
  0
LINE
  5
FE43
330
FE17
100
AcDbEntity
  8
0
  6
CONTINUOUS
100
AcDbLine
 10
40.02599999995994
 20
1.79031587051777
 30
0.0
 11
38.60499999996136
 21
3.211315870516341
 31
0.0
  0
LINE
  5
FE44
330
FE17
100
AcDbEntity
  8
0
  6
CONTINUOUS
100
AcDbLine
 10
40.02599999995994
 20
2.463835079597956
 30
0.0
 11
38.60499999996136
 21
3.884835079596527
 31
0.0
  0
LINE
  5
FE45
330
FE17
100
AcDbEntity
  8
0
  6
CONTINUOUS
100
AcDbLine
 10
40.02599999995994
 20
3.137354288678143
 30
0.0
 11
38.60499999996136
 21
4.558354288676714
 31
0.0
  0
LINE
  5
FE46
330
FE17
100
AcDbEntity
  8
0
  6
CONTINUOUS
100
AcDbLine
 10
40.02599999995994
 20
3.810873497758329
 30
0.0
 11
38.60499999996136
 21
5.2318734977569
 31
0.0
  0
LINE
  5
FE47
330
FE17
100
AcDbEntity
  8
0
  6
CONTINUOUS
100
AcDbLine
 10
40.02599999995994
 20
4.484392706838515
 30
0.0
 11
38.60499999996136
 21
5.905392706837086
 31
0.0
  0
LINE
  5
FE48
330
FE17
100
AcDbEntity
  8
0
  6
CONTINUOUS
100
AcDbLine
 10
44.99999999995498
 20
0.183911915923658
 30
0.0
 11
41.53858364506288
 21
3.64532827081576
 31
0.0
  0
LINE
  5
FE49
330
FE17
100
AcDbEntity
  8
0
  6
CONTINUOUS
100
AcDbLine
 10
40.02599999995994
 20
5.157911915918703
 30
0.0
 11
38.60499999996136
 21
6.578911915917274
 31
0.0
  0
LINE
  5
FE4A
330
FE17
100
AcDbEntity
  8
0
  6
CONTINUOUS
100
AcDbLine
 10
44.99999999995498
 20
0.8574311250038447
 30
0.0
 11
38.60499999996136
 21
7.25243112499746
 31
0.0
  0
LINE
  5
FE4B
330
FE17
100
AcDbEntity
  8
0
  6
CONTINUOUS
100
AcDbLine
 10
44.99999999995498
 20
1.530950334084031
 30
0.0
 11
38.60499999996136
 21
7.925950334077647
 31
0.0
  0
LINE
  5
FE4C
330
FE17
100
AcDbEntity
  8
0
  6
CONTINUOUS
100
AcDbLine
 10
44.99999999995498
 20
2.204469543164218
 30
0.0
 11
43.57899999995641
 21
3.625469543162789
 31
0.0
  0
LINE
  5
FE4D
330
FE17
100
AcDbEntity
  8
0
  6
CONTINUOUS
100
AcDbLine
 10
41.89876730984767
 20
5.305702233271528
 30
0.0
 11
38.60499999996136
 21
8.599469543157834
 31
0.0
  0
LINE
  5
FE4E
330
FE17
100
AcDbEntity
  8
0
  6
CONTINUOUS
100
AcDbLine
 10
44.99999999995498
 20
2.877988752244405
 30
0.0
 11
43.57899999995641
 21
4.298988752242975
 31
0.0
  0
LINE
  5
FE4F
330
FE17
100
AcDbEntity
  8
0
  6
CONTINUOUS
100
AcDbLine
 10
44.99999999995498
 20
3.551507961324591
 30
0.0
 11
43.57899999995641
 21
4.972507961323163
 31
0.0
  0
LINE
  5
FE50
330
FE17
100
AcDbEntity
  8
0
  6
CONTINUOUS
100
AcDbLine
 10
44.99999999995498
 20
4.225027170404777
 30
0.0
 11
43.57899999995641
 21
5.646027170403348
 31
0.0
  0
LINE
  5
FE51
330
FE17
100
AcDbEntity
  8
0
  6
CONTINUOUS
100
AcDbLine
 10
44.99999999995498
 20
4.898546379484964
 30
0.0
 11
43.57899999995641
 21
6.319546379483535
 31
0.0
  0
LINE
  5
FE52
330
FE17
100
AcDbEntity
  8
0
  6
CONTINUOUS
100
AcDbLine
 10
44.99999999995498
 20
5.572065588565151
 30
0.0
 11
43.57899999995641
 21
6.993065588563722
 31
0.0
  0
LINE
  5
FE53
330
FE17
100
AcDbEntity
  8
0
  6
CONTINUOUS
100
AcDbLine
 10
44.99999999995498
 20
6.245584797645336
 30
0.0
 11
43.57899999995641
 21
7.666584797643908
 31
0.0
  0
LINE
  5
FE54
330
FE17
100
AcDbEntity
  8
0
  6
CONTINUOUS
100
AcDbLine
 10
44.99999999995498
 20
6.919104006725522
 30
0.0
 11
43.57899999995641
 21
8.340104006724093
 31
0.0
  0
LINE
  5
FE55
330
FE17
100
AcDbEntity
  8
0
  6
CONTINUOUS
100
AcDbLine
 10
44.99999999995498
 20
7.592623215805709
 30
0.0
 11
43.82952321576943
 21
8.763099999991255
 31
0.0
  0
LINE
  5
FE56
330
FE17
100
AcDbEntity
  8
0
  6
CONTINUOUS
100
AcDbLine
 10
44.99999999995498
 20
8.266142424885896
 30
0.0
 11
44.50304242484962
 21
8.763099999991255
 31
0.0
  0
ENDBLK
  5
FE80
330
FE17
100
AcDbEntity
  8
0
100
AcDbBlockEnd
  0
BLOCK
  5
FE81
330
FE57
100
AcDbEntity
  8
0
100
AcDbBlockBegin
  2
*X26
 70
     1
 10
0.0
 20
0.0
 30
0.0
  3
*X26
  1

  0
LINE
  5
FE58
330
FE57
100
AcDbEntity
  8
0
  6
CONTINUOUS
100
AcDbLine
 10
0.0
 20
8.548461116714023
 30
0.0
 11
0.2146388832772324
 21
8.763099999991255
 31
0.0
  0
LINE
  5
FE59
330
FE57
100
AcDbEntity
  8
0
  6
CONTINUOUS
100
AcDbLine
 10
-0.0000000000000002
 20
7.874941907633837
 30
0.0
 11
0.8881580923574184
 21
8.763099999991255
 31
0.0
  0
LINE
  5
FE5A
330
FE57
100
AcDbEntity
  8
0
  6
CONTINUOUS
100
AcDbLine
 10
0.0
 20
7.20142269855365
 30
0.0
 11
1.420999999998572
 21
8.622422698552223
 31
0.0
  0
LINE
  5
FE5B
330
FE57
100
AcDbEntity
  8
0
  6
CONTINUOUS
100
AcDbLine
 10
-0.0000000000000001
 20
6.527903489473465
 30
0.0
 11
1.420999999998571
 21
7.948903489472036
 31
0.0
  0
LINE
  5
FE5C
330
FE57
100
AcDbEntity
  8
0
  6
CONTINUOUS
100
AcDbLine
 10
-0.0000000000000002
 20
5.854384280393278
 30
0.0
 11
1.420999999998571
 21
7.275384280391849
 31
0.0
  0
LINE
  5
FE5D
330
FE57
100
AcDbEntity
  8
0
  6
CONTINUOUS
100
AcDbLine
 10
-0.0000000000000002
 20
5.180865071313091
 30
0.0
 11
1.420999999998571
 21
6.601865071311663
 31
0.0
  0
LINE
  5
FE5E
330
FE57
100
AcDbEntity
  8
0
  6
CONTINUOUS
100
AcDbLine
 10
0.0
 20
4.507345862232905
 30
0.0
 11
1.420999999998571
 21
5.928345862231477
 31
0.0
  0
LINE
  5
FE5F
330
FE57
100
AcDbEntity
  8
0
  6
CONTINUOUS
100
AcDbLine
 10
-0.0000000000000003
 20
3.833826653152718
 30
0.0
 11
1.420999999998571
 21
5.25482665315129
 31
0.0
  0
LINE
  5
FE60
330
FE57
100
AcDbEntity
  8
0
  6
CONTINUOUS
100
AcDbLine
 10
-0.0000000000000002
 20
3.160307444072532
 30
0.0
 11
1.420999999998571
 21
4.581307444071103
 31
0.0
  0
LINE
  5
FE61
330
FE57
100
AcDbEntity
  8
0
  6
CONTINUOUS
100
AcDbLine
 10
-0.0000000000000001
 20
2.486788234992345
 30
0.0
 11
1.420999999998571
 21
3.907788234990917
 31
0.0
  0
LINE
  5
FE62
330
FE57
100
AcDbEntity
  8
0
  6
CONTINUOUS
100
AcDbLine
 10
-0.0000000000000006
 20
1.813269025912159
 30
0.0
 11
1.420999999998571
 21
3.234269025910731
 31
0.0
  0
LINE
  5
FE63
330
FE57
100
AcDbEntity
  8
0
  6
CONTINUOUS
100
AcDbLine
 10
0.0
 20
1.139749816831973
 30
0.0
 11
1.420999999998571
 21
2.560749816830544
 31
0.0
  0
LINE
  5
FE64
330
FE57
100
AcDbEntity
  8
0
  6
CONTINUOUS
100
AcDbLine
 10
0.0000000000000002
 20
0.466230607751787
 30
0.0
 11
1.420999999998571
 21
1.887230607750358
 31
0.0
  0
LINE
  5
FE65
330
FE57
100
AcDbEntity
  8
0
  6
CONTINUOUS
100
AcDbLine
 10
0.2072886013284003
 20
-0.0000000000000009
 30
0.0
 11
1.420999999998571
 21
1.213711398670171
 31
0.0
  0
LINE
  5
FE66
330
FE57
100
AcDbEntity
  8
0
  6
CONTINUOUS
100
AcDbLine
 10
0.8808078104085864
 20
-0.0000000000000009
 30
0.0
 11
1.420999999998571
 21
0.5401921895899839
 31
0.0
  0
LINE
  5
FE67
330
FE57
100
AcDbEntity
  8
0
  6
CONTINUOUS
100
AcDbLine
 10
0.0581249075061505
 20
-0.0000000000000009
 30
0.0
 11
-0.0000000000000002
 21
0.0581249075061496
 31
0.0
  0
LINE
  5
FE68
330
FE57
100
AcDbEntity
  8
0
  6
CONTINUOUS
100
AcDbLine
 10
0.7316441165863372
 20
-0.0000000000000009
 30
0.0
 11
-0.0000000000000002
 21
0.7316441165863363
 31
0.0
  0
LINE
  5
FE69
330
FE57
100
AcDbEntity
  8
0
  6
CONTINUOUS
100
AcDbLine
 10
1.405163325666523
 20
-0.0000000000000009
 30
0.0
 11
-0.0000000000000002
 21
1.405163325666523
 31
0.0
  0
LINE
  5
FE6A
330
FE57
100
AcDbEntity
  8
0
  6
CONTINUOUS
100
AcDbLine
 10
1.420999999998572
 20
0.6576825347481381
 30
0.0
 11
-0.0000000000000001
 21
2.07868253474671
 31
0.0
  0
LINE
  5
FE6B
330
FE57
100
AcDbEntity
  8
0
  6
CONTINUOUS
100
AcDbLine
 10
1.420999999998571
 20
1.331201743828324
 30
0.0
 11
-0.0000000000000001
 21
2.752201743826896
 31
0.0
  0
LINE
  5
FE6C
330
FE57
100
AcDbEntity
  8
0
  6
CONTINUOUS
100
AcDbLine
 10
1.420999999998571
 20
2.004720952908511
 30
0.0
 11
-0.0000000000000002
 21
3.425720952907082
 31
0.0
  0
LINE
  5
FE6D
330
FE57
100
AcDbEntity
  8
0
  6
CONTINUOUS
100
AcDbLine
 10
1.420999999998571
 20
2.678240161988697
 30
0.0
 11
-0.0000000000000001
 21
4.099240161987269
 31
0.0
  0
LINE
  5
FE6E
330
FE57
100
AcDbEntity
  8
0
  6
CONTINUOUS
100
AcDbLine
 10
1.420999999998572
 20
3.351759371068884
 30
0.0
 11
0.0
 21
4.772759371067455
 31
0.0
  0
LINE
  5
FE6F
330
FE57
100
AcDbEntity
  8
0
  6
CONTINUOUS
100
AcDbLine
 10
1.420999999998571
 20
4.02527858014907
 30
0.0
 11
-0.0000000000000003
 21
5.446278580147642
 31
0.0
  0
LINE
  5
FE70
330
FE57
100
AcDbEntity
  8
0
  6
CONTINUOUS
100
AcDbLine
 10
1.420999999998571
 20
4.698797789229257
 30
0.0
 11
0.0
 21
6.119797789227828
 31
0.0
  0
LINE
  5
FE71
330
FE57
100
AcDbEntity
  8
0
  6
CONTINUOUS
100
AcDbLine
 10
1.420999999998571
 20
5.372316998309444
 30
0.0
 11
-0.0000000000000001
 21
6.793316998308015
 31
0.0
  0
LINE
  5
FE72
330
FE57
100
AcDbEntity
  8
0
  6
CONTINUOUS
100
AcDbLine
 10
1.420999999998572
 20
6.045836207389629
 30
0.0
 11
-0.0000000000000004
 21
7.466836207388202
 31
0.0
  0
LINE
  5
FE73
330
FE57
100
AcDbEntity
  8
0
  6
CONTINUOUS
100
AcDbLine
 10
1.420999999998571
 20
6.719355416469816
 30
0.0
 11
0.0
 21
8.140355416468388
 31
0.0
  0
LINE
  5
FE74
330
FE57
100
AcDbEntity
  8
0
  6
CONTINUOUS
100
AcDbLine
 10
1.420999999998571
 20
7.392874625550003
 30
0.0
 11
0.0507746255573185
 21
8.763099999991255
 31
0.0
  0
LINE
  5
FE75
330
FE57
100
AcDbEntity
  8
0
  6
CONTINUOUS
100
AcDbLine
 10
1.420999999998571
 20
8.06639383463019
 30
0.0
 11
0.7242938346375052
 21
8.763099999991255
 31
0.0
  0
LINE
  5
FE76
330
FE57
100
AcDbEntity
  8
0
  6
CONTINUOUS
100
AcDbLine
 10
1.420999999998571
 20
8.739913043710375
 30
0.0
 11
1.397813043717691
 21
8.763099999991255
 31
0.0
  0
ENDBLK
  5
FE82
330
FE57
100
AcDbEntity
  8
0
100
AcDbBlockEnd
  0
ENDSEC
  0
SECTION
  2
ENTITIES
  0
LINE
  5
EE6E
330
18
100
AcDbEntity
  8
01
100
AcDbLine
 10
4906.03050935142
 20
1229.679513413322
 30
0.0000000001127424
 11
4920.03050935142
 21
1229.679513413322
 31
0.0000000001127424
  0
LINE
  5
EE6F
330
18
100
AcDbEntity
  8
01
100
AcDbLine
 10
4911.03139353348
 20
1441.679513412293
 30
0.0000000001127424
 11
5064.785773688513
 21
1441.679513412293
 31
0.0000000001127424
  0
LINE
  5
EE71
330
18
100
AcDbEntity
  8
01
  6
BYBLOCK
100
AcDbLine
 10
4911.03139353348
 20
1441.679513412293
 30
0.0000000001127424
 11
4911.03139353348
 21
1401.679513412293
 31
0.0000000001127424
  0
LINE
  5
EE75
330
18
100
AcDbEntity
  8
01
100
AcDbLine
 10
4962.030509351418
 20
1436.679513411264
 30
0.0000000001127424
 11
4962.030509351418
 21
1467.597593600513
 31
0.0000000001127424
  0
LINE
  5
EE77
330
18
100
AcDbEntity
  8
01
  6
BYBLOCK
100
AcDbLine
 10
4912.53050935142
 20
1237.579513413322
 30
0.0000000001127424
 11
4912.53050935142
 21
1107.779513413322
 31
0.0000000001127424
  0
LINE
  5
EE78
330
18
100
AcDbEntity
  8
01
  6
BYBLOCK
100
AcDbLine
 10
4912.53050935142
 20
1108.679513413322
 30
0.0000000001127424
 11
4915.03050935142
 21
1108.679513413322
 31
0.0000000001127424
  0
LINE
  5
EE79
330
18
100
AcDbEntity
  8
01
  6
BYBLOCK
100
AcDbLine
 10
4915.03050935142
 20
1108.679513413322
 30
0.0000000001127424
 11
4915.03050935142
 21
1125.182457138474
 31
0.0000000001127424
  0
LINE
  5
EE7A
330
18
100
AcDbEntity
  8
01
  6
BYBLOCK
100
AcDbLine
 10
4911.03050935142
 20
1237.579513413322
 30
0.0000000001127424
 11
4911.03050935142
 21
1107.779513413322
 31
0.0000000001127424
  0
LINE
  5
EE7B
330
18
100
AcDbEntity
  8
01
  6
BYBLOCK
100
AcDbLine
 10
4911.03050935142
 20
1107.779513413322
 30
0.0000000001127424
 11
4912.53050935142
 21
1107.779513413322
 31
0.0000000001127424
  0
LINE
  5
EE7C
330
18
100
AcDbEntity
  8
01
  6
BYBLOCK
100
AcDbLine
 10
4912.53050935142
 20
1236.679513413322
 30
0.0000000001127424
 11
4915.03050935142
 21
1236.679513413322
 31
0.0000000001127424
  0
LINE
  5
EE7D
330
18
100
AcDbEntity
  8
01
  6
BYBLOCK
100
AcDbLine
 10
4911.03050935142
 20
1237.579513413322
 30
0.0000000001127424
 11
4912.53050935142
 21
1237.579513413322
 31
0.0000000001127424
  0
LINE
  5
EE7E
330
18
100
AcDbEntity
  8
01
  6
BYBLOCK
100
AcDbLine
 10
4912.53050935142
 20
1212.679513413322
 30
0.0000000001127424
 11
4913.73050935142
 21
1212.679513413322
 31
0.0000000001127424
  0
LINE
  5
EE7F
330
18
100
AcDbEntity
  8
01
  6
BYBLOCK
100
AcDbLine
 10
4913.73050935142
 20
1218.379513413322
 30
0.0000000001127424
 11
4913.73050935142
 21
1126.979513413322
 31
0.0000000001127424
  0
LINE
  5
EE80
330
18
100
AcDbEntity
  8
01
  6
BYBLOCK
100
AcDbLine
 10
4913.83050935142
 20
1108.679513413322
 30
0.0000000001127424
 11
4913.83050935142
 21
1125.279513413322
 31
0.0000000001127424
  0
LINE
  5
EE81
330
18
100
AcDbEntity
  8
01
  6
BYBLOCK
100
AcDbLine
 10
4913.83050935142
 20
1125.279513413322
 30
0.0000000001127424
 11
4912.881981213995
 21
1126.228041550746
 31
0.0000000001127424
  0
LINE
  5
EE82
330
18
100
AcDbEntity
  8
01
  6
BYBLOCK
100
AcDbLine
 10
4914.679037488843
 20
1126.030985275898
 30
0.0000000001127424
 11
4913.73050935142
 21
1126.979513413322
 31
0.0000000001127424
  0
ARC
  5
EE83
330
18
100
AcDbEntity
  8
01
  6
BYBLOCK
100
AcDbCircle
 10
4913.83050935142
 20
1125.182457138474
 30
0.0000000001127424
 40
1.2
100
AcDbArc
 50
0.0
 51
45.00000000005527
  0
ARC
  5
EE84
330
18
100
AcDbEntity
  8
01
  6
BYBLOCK
100
AcDbCircle
 10
4913.73050935142
 20
1127.07656968817
 30
0.0000000001127424
 40
1.2
100
AcDbArc
 50
180.0
 51
225.0000000000553
  0
LINE
  5
EE85
330
18
100
AcDbEntity
  8
01
  6
BYBLOCK
100
AcDbLine
 10
4915.03050935142
 20
1236.679513413322
 30
0.0000000001127424
 11
4915.03050935142
 21
1220.17656968817
 31
0.0000000001127424
  0
LINE
  5
EE86
330
18
100
AcDbEntity
  8
01
  6
BYBLOCK
100
AcDbLine
 10
4913.83050935142
 20
1236.679513413322
 30
0.0000000001127424
 11
4913.83050935142
 21
1220.079513413322
 31
0.0000000001127424
  0
LINE
  5
EE87
330
18
100
AcDbEntity
  8
01
  6
BYBLOCK
100
AcDbLine
 10
4913.83050935142
 20
1220.079513413322
 30
0.0000000001127424
 11
4912.881981213995
 21
1219.130985275898
 31
0.0000000001127424
  0
LINE
  5
EE88
330
18
100
AcDbEntity
  8
01
  6
BYBLOCK
100
AcDbLine
 10
4914.679037488843
 20
1219.328041550746
 30
0.0000000001127424
 11
4913.73050935142
 21
1218.379513413322
 31
0.0000000001127424
  0
ARC
  5
EE89
330
18
100
AcDbEntity
  8
01
  6
BYBLOCK
100
AcDbCircle
 10
4913.83050935142
 20
1220.17656968817
 30
0.0000000001127424
 40
1.2
100
AcDbArc
 50
314.9999999999447
 51
0.0
  0
ARC
  5
EE8A
330
18
100
AcDbEntity
  8
01
  6
BYBLOCK
100
AcDbCircle
 10
4913.73050935142
 20
1218.282457138474
 30
0.0000000001127424
 40
1.2
100
AcDbArc
 50
134.9999999999447
 51
180.0
  0
CIRCLE
  5
EE8B
330
18
100
AcDbEntity
  8
01
  6
BYBLOCK
100
AcDbCircle
 10
4962.03050935142
 20
1201.679513413322
 30
0.0000000001127424
 40
4.75
  0
LINE
  5
EE8C
330
18
100
AcDbEntity
  8
01
  6
BYBLOCK
100
AcDbLine
 10
4913.73050935142
 20
1135.679513413322
 30
0.0000000001127424
 11
4942.821136639121
 21
1135.679513413322
 31
0.0000000001127424
  0
ARC
  5
EE8D
330
18
100
AcDbEntity
  8
01
  6
BYBLOCK
100
AcDbCircle
 10
4914.13139353348
 20
1425.240763955293
 30
0.0000000001127424
 40
1.6
100
AcDbArc
 50
115.944479772022
 51
180.0
  0
ARC
  5
EE8E
330
18
100
AcDbEntity
  8
01
  6
BYBLOCK
100
AcDbCircle
 10
4914.13139353348
 20
1418.118262869293
 30
0.0000000001127424
 40
1.6
100
AcDbArc
 50
180.0
 51
244.055520227978
  0
ARC
  5
EE8F
330
18
100
AcDbEntity
  8
01
  6
BYBLOCK
100
AcDbCircle
 10
4913.431393533479
 20
1416.840763955293
 30
0.0000000001127424
 40
1.6
100
AcDbArc
 50
0.0
 51
64.05552022797804
  0
ARC
  5
EE90
330
18
100
AcDbEntity
  8
01
  6
BYBLOCK
100
AcDbCircle
 10
4913.431393533479
 20
1426.518262869293
 30
0.0000000001127424
 40
1.6
100
AcDbArc
 50
295.944479772022
 51
0.0
  0
LINE
  5
EE91
330
18
100
AcDbEntity
  8
01
  6
BYBLOCK
100
AcDbLine
 10
4915.03139353348
 20
1426.518262869293
 30
0.0000000001127424
 11
4915.03139353348
 21
1433.879513412293
 31
0.0000000001127424
  0
LINE
  5
EE92
330
18
100
AcDbEntity
  8
01
  6
BYBLOCK
100
AcDbLine
 10
4914.13139353348
 20
1418.279513412293
 30
0.0000000001127424
 11
4914.13139353348
 21
1425.079513412293
 31
0.0000000001127424
  0
LINE
  5
EE93
330
18
100
AcDbEntity
  8
01
  6
BYBLOCK
100
AcDbLine
 10
4915.03139353348
 20
1409.679513412293
 30
0.0000000001127424
 11
4915.03139353348
 21
1416.840763955293
 31
0.0000000001127424
  0
LINE
  5
EE94
330
18
100
AcDbEntity
  8
01
  6
BYBLOCK
100
AcDbLine
 10
4913.431393533479
 20
1426.679513412293
 30
0.0000000001127424
 11
4913.43139353348
 21
1433.879513412293
 31
0.0000000001127424
  0
LINE
  5
EE95
330
18
100
AcDbEntity
  8
01
  6
BYBLOCK
100
AcDbLine
 10
4913.431393533479
 20
1416.679513412293
 30
0.0000000001127424
 11
4913.431393533479
 21
1409.579513412293
 31
0.0000000001127424
  0
ARC
  5
EE96
330
18
100
AcDbEntity
  8
01
  6
BYBLOCK
100
AcDbCircle
 10
4978.431393533479
 20
1429.579513412293
 30
0.0000000001127424
 40
1.6
100
AcDbArc
 50
0.0
 51
90.0
  0
LINE
  5
EE97
330
18
100
AcDbEntity
  8
01
  6
BYBLOCK
100
AcDbLine
 10
4912.53139353348
 20
1434.079513412293
 30
0.0000000001127424
 11
4912.53139353348
 21
1409.279513412293
 31
0.0000000001127424
  0
LINE
  5
EE98
330
18
100
AcDbEntity
  8
01
  6
BYBLOCK
100
AcDbLine
 10
4978.431393533479
 20
1431.179513412293
 30
0.0000000001127424
 11
4915.03139353348
 21
1431.179513412293
 31
0.0000000001127424
  0
LINE
  5
EE99
330
18
100
AcDbEntity
  8
01
  6
BYBLOCK
100
AcDbLine
 10
4978.431393533479
 20
1413.979513412293
 30
0.0000000001127424
 11
4978.431393533479
 21
1431.179513412293
 31
0.0000000001127424
  0
LINE
  5
EE9A
330
18
100
AcDbEntity
  8
01
  6
BYBLOCK
100
AcDbLine
 10
4980.03139353348
 20
1412.379513412293
 30
0.0000000001127424
 11
4980.03139353348
 21
1429.579513412293
 31
0.0000000001127424
  0
LINE
  5
EE9B
330
18
100
AcDbEntity
  8
01
  6
BYBLOCK
100
AcDbLine
 10
4912.53139353348
 20
1433.879513412293
 30
0.0000000001127424
 11
4915.03139353348
 21
1433.879513412293
 31
0.0000000001127424
  0
LINE
  5
EE9C
330
18
100
AcDbEntity
  8
01
  6
BYBLOCK
100
AcDbLine
 10
4915.03139353348
 20
1409.679513412293
 30
0.0000000001127424
 11
4913.431393533479
 21
1409.679513412293
 31
0.0000000001127424
  0
LINE
  5
EE9D
330
18
100
AcDbEntity
  8
01
  6
BYBLOCK
100
AcDbLine
 10
4913.431393533479
 20
1409.579513412293
 30
0.0000000001127424
 11
4912.53139353348
 21
1409.579513412293
 31
0.0000000001127424
  0
ARC
  5
EE9E
330
18
100
AcDbEntity
  8
01
  6
BYBLOCK
100
AcDbCircle
 10
4909.731988460879
 20
1415.979513412294
 30
0.0000000001127424
 40
0.3000000000000051
100
AcDbArc
 50
232.8678058729389
 51
270.0
  0
LINE
  5
EE9F
330
18
100
AcDbEntity
  8
01
  6
BYBLOCK
100
AcDbLine
 10
4910.53139353348
 20
1415.679513412294
 30
0.0000000001127424
 11
4909.731988460879
 21
1415.679513412294
 31
0.0000000001127424
  0
LINE
  5
EEA0
330
18
100
AcDbEntity
  8
01
  6
BYBLOCK
100
AcDbLine
 10
4900.13139353348
 20
1425.352502278498
 30
0.0000000001127424
 11
4900.13139353348
 21
1425.181880222949
 31
0.0000000001127424
  0
ARC
  5
EEA1
330
18
100
AcDbEntity
  8
01
  6
BYBLOCK
100
AcDbCircle
 10
4900.431393533479
 20
1425.181880222949
 30
0.0000000001127424
 40
0.3
100
AcDbArc
 50
180.0
 51
217.7405295629614
  0
ARC
  5
EEA2
330
18
100
AcDbEntity
  8
01
  6
BYBLOCK
100
AcDbCircle
 10
4939.733694132764
 20
1455.602583166889
 30
0.0000000001127424
 40
50.00000000000002
100
AcDbArc
 50
217.7405295629665
 51
232.8678058730001
  0
LINE
  5
EEA3
330
18
100
AcDbEntity
  8
01
  6
BYBLOCK
100
AcDbLine
 10
4899.931393533479
 20
1426.479513412293
 30
0.0000000001127424
 11
4899.931393533479
 21
1427.179513412293
 31
0.0000000001127424
  0
ARC
  5
EEA4
330
18
100
AcDbEntity
  8
01
  6
BYBLOCK
100
AcDbCircle
 10
4900.431393533479
 20
1427.179513412293
 30
0.0000000001127424
 40
0.5000000000000142
100
AcDbArc
 50
90.0
 51
180.0
  0
LINE
  5
EEA5
330
18
100
AcDbEntity
  8
01
  6
BYBLOCK
100
AcDbLine
 10
4910.53139353348
 20
1427.679513412293
 30
0.0000000001127424
 11
4900.431393533479
 21
1427.679513412293
 31
0.0000000001127424
  0
LINE
  5
EEA6
330
18
100
AcDbEntity
  8
01
  6
BYBLOCK
100
AcDbLine
 10
4899.931393533479
 20
1426.100833755853
 30
0.0000000001127424
 11
4899.931393533479
 21
1426.479513412293
 31
0.0000000001127424
  0
SPLINE
  5
EEA7
330
18
100
AcDbEntity
  8
01
  6
BYBLOCK
100
AcDbSpline
210
0.0
220
0.0
230
1.0
 70
     8
 71
     3
 72
     8
 73
     4
 74
     0
 42
0.0000000001
 43
0.0000000001
 40
0.0
 40
0.0
 40
0.0
 40
0.0
 40
1.0
 40
1.0
 40
1.0
 40
1.0
 10
4899.957126074744
 20
1425.824183326404
 30
0.0000000001127424
 10
4899.939658188633
 20
1425.917269522284
 30
0.0000000001127424
 10
4899.931393533479
 20
1426.010535533176
 30
0.0000000001127424
 10
4899.931393533479
 20
1426.100833755853
 30
0.0000000001127424
  0
ARC
  5
EEA8
330
18
100
AcDbEntity
  8
01
  6
BYBLOCK
100
AcDbCircle
 10
4901.431393533479
 20
1426.100833755853
 30
0.0000000001127424
 40
1.499999999999998
100
AcDbArc
 50
190.628112987605
 51
225.0000000000553
  0
LINE
  5
EEA9
330
18
100
AcDbEntity
  8
01
  6
BYBLOCK
100
AcDbLine
 10
4911.03139353348
 20
1428.529513412293
 30
0.0000000001127424
 11
4910.53139353348
 21
1428.529513412293
 31
0.0000000001127424
  0
LINE
  5
EEAA
330
18
100
AcDbEntity
  8
01
  6
BYBLOCK
100
AcDbLine
 10
4910.53139353348
 20
1414.829513412293
 30
0.0000000001127424
 11
4911.03139353348
 21
1414.829513412293
 31
0.0000000001127424
  0
LINE
  5
EEAB
330
18
100
AcDbEntity
  8
01
  6
BYBLOCK
100
AcDbLine
 10
4910.53139353348
 20
1414.829513412293
 30
0.0000000001127424
 11
4910.53139353348
 21
1428.529513412293
 31
0.0000000001127424
  0
LINE
  5
EEAC
330
18
100
AcDbEntity
  8
01
  6
BYBLOCK
100
AcDbLine
 10
4911.03139353348
 20
1434.079513412293
 30
0.0000000001127424
 11
4912.53139353348
 21
1434.079513412293
 31
0.0000000001127424
  0
LINE
  5
EEAD
330
18
100
AcDbEntity
  8
01
  6
BYBLOCK
100
AcDbLine
 10
4911.03139353348
 20
1409.279513412293
 30
0.0000000001127424
 11
4912.53139353348
 21
1409.279513412293
 31
0.0000000001127424
  0
LINE
  5
EEAE
330
18
100
AcDbEntity
  8
01
  6
BYBLOCK
100
AcDbLine
 10
4911.03139353348
 20
1409.279513412293
 30
0.0000000001127424
 11
4911.03139353348
 21
1434.079513412293
 31
0.0000000001127424
  0
LINE
  5
EEAF
330
18
100
AcDbEntity
  8
01
  6
BYBLOCK
100
AcDbLine
 10
4980.03139353348
 20
1413.979513412293
 30
0.0000000001127424
 11
4915.03139353348
 21
1413.979513412293
 31
0.0000000001127424
  0
LINE
  5
EEB0
330
18
100
AcDbEntity
  8
01
  6
BYBLOCK
100
AcDbLine
 10
4980.03139353348
 20
1412.379513412293
 30
0.0000000001127424
 11
4929.63139353348
 21
1412.379513412293
 31
0.0000000001127424
  0
LINE
  5
EEB1
330
18
100
AcDbEntity
  8
01
  6
BYBLOCK
100
AcDbLine
 10
4932.468651833683
 20
1412.379513412293
 30
0.0000000001127424
 11
4915.03139353348
 21
1412.379513412293
 31
0.0000000001127424
  0
LINE
  5
EEB2
330
18
100
AcDbEntity
  8
01
  6
BYBLOCK
100
AcDbLine
 10
4909.584946924073
 20
1415.8259600217
 30
0.0000000001127424
 11
4900.370733361699
 21
1425.040173584073
 31
0.0000000001127424
  0
ARC
  5
EEB3
330
18
100
AcDbEntity
  8
01
  6
BYBLOCK
100
AcDbCircle
 10
4909.938500314666
 20
1416.179513412293
 30
0.0000000001127424
 40
0.5
100
AcDbArc
 50
224.9999999999908
 51
270.0
  0
LINE
  5
EEB4
330
18
100
AcDbEntity
  8
01
  6
BYBLOCK
100
AcDbLine
 10
4910.53139353348
 20
1415.679513412293
 30
0.0000000001127424
 11
4909.938500314666
 21
1415.679513412293
 31
0.0000000001127424
  0
LINE
  5
EEB6
330
18
100
AcDbEntity
  8
01
  6
BYBLOCK
100
AcDbLine
 10
4958.424264767368
 20
1201.679513413322
 30
0.0000000001127424
 11
4962.03050935142
 21
1205.285757997373
 31
0.0000000001127424
  0
LINE
  5
EEB7
330
18
100
AcDbEntity
  8
01
  6
BYBLOCK
100
AcDbLine
 10
4965.636753935471
 20
1201.679513413322
 30
0.0000000001127424
 11
4962.03050935142
 21
1205.285757997373
 31
0.0000000001127424
  0
LINE
  5
EEB8
330
18
100
AcDbEntity
  8
01
  6
BYBLOCK
100
AcDbLine
 10
4958.424264767368
 20
1201.679513413322
 30
0.0000000001127424
 11
4962.03050935142
 21
1198.073268829271
 31
0.0000000001127424
  0
LINE
  5
EEB9
330
18
100
AcDbEntity
  8
01
  6
BYBLOCK
100
AcDbLine
 10
4965.636753935471
 20
1201.679513413322
 30
0.0000000001127424
 11
4962.03050935142
 21
1198.073268829271
 31
0.0000000001127424
  0
LINE
  5
EEBA
330
18
100
AcDbEntity
  8
01
  6
BYBLOCK
100
AcDbLine
 10
4900.03050935142
 20
1182.711183680338
 30
0.0000000001127424
 11
4900.03050935142
 21
1164.647843146332
 31
0.0000000001127424
  0
LINE
  5
EEBB
330
18
100
AcDbEntity
  8
01
  6
BYBLOCK
100
AcDbLine
 10
4904.323402570233
 20
1183.679513413335
 30
0.0000000001127424
 11
4911.03050935142
 21
1183.679513413335
 31
0.0000000001127424
  0
LINE
  5
EEBC
330
18
100
AcDbEntity
  8
01
  6
BYBLOCK
100
AcDbLine
 10
4904.323402570233
 20
1163.679513413335
 30
0.0000000001127424
 11
4911.03050935142
 21
1163.679513413335
 31
0.0000000001127424
  0
LINE
  5
EEBD
330
18
100
AcDbEntity
  8
01
  6
BYBLOCK
100
AcDbLine
 10
4909.823402570234
 20
1178.929513413335
 30
0.0000000001127424
 11
4909.823402570233
 21
1168.429513413335
 31
0.0000000001127424
  0
ARC
  5
EEBE
330
18
100
AcDbEntity
  8
01
  6
BYBLOCK
100
AcDbCircle
 10
4904.323402570233
 20
1173.679513413335
 30
0.0000000001127424
 40
10.00000000000009
100
AcDbArc
 50
53.13010235413383
 51
115.4224671781395
  0
ARC
  5
EEBF
330
18
100
AcDbEntity
  8
01
  6
BYBLOCK
100
AcDbCircle
 10
4904.323402570233
 20
1173.679513413335
 30
0.0000000001127424
 40
10.00000000000009
100
AcDbArc
 50
244.5775328218606
 51
306.8698976458662
  0
LINE
  5
EEC0
330
18
100
AcDbEntity
  8
01
  6
BYBLOCK
100
AcDbLine
 10
4910.323402570234
 20
1181.679513413335
 30
0.0000000001127424
 11
4910.323402570234
 21
1165.679513413335
 31
0.0000000001127424
  0
LINE
  5
EEC1
330
18
100
AcDbEntity
  8
01
  6
BYBLOCK
100
AcDbLine
 10
4900.03050935142
 20
1178.929513413335
 30
0.0000000001127424
 11
4909.823402570234
 21
1178.929513413335
 31
0.0000000001127424
  0
LINE
  5
EEC2
330
18
100
AcDbEntity
  8
01
  6
BYBLOCK
100
AcDbLine
 10
4900.03050935142
 20
1168.429513413335
 30
0.0000000001127424
 11
4909.823402570234
 21
1168.429513413335
 31
0.0000000001127424
  0
LINE
  5
EEC3
330
18
100
AcDbEntity
  8
01
  6
BYBLOCK
100
AcDbLine
 10
4785.630625691165
 20
1237.579513413321
 30
0.0000000001127424
 11
4798.430625691164
 21
1237.579513413321
 31
0.0000000001127424
  0
LINE
  5
EEC4
330
18
100
AcDbEntity
  8
01
  6
BYBLOCK
100
AcDbLine
 10
4785.630625691165
 20
1107.779513413321
 30
0.0000000001127424
 11
4798.430625691164
 21
1107.779513413321
 31
0.0000000001127424
  0
LINE
  5
EEC5
330
18
100
AcDbEntity
  8
01
  6
BYBLOCK
100
AcDbLine
 10
4779.630625691165
 20
1231.579513413321
 30
0.0000000001127424
 11
4779.630625691165
 21
1113.779513413321
 31
0.0000000001127424
  0
LINE
  5
EEC6
330
18
100
AcDbEntity
  8
01
  6
BYBLOCK
100
AcDbLine
 10
4804.430625691164
 20
1231.579513413321
 30
0.0000000001127424
 11
4804.430625691164
 21
1113.779513413321
 31
0.0000000001127424
  0
ARC
  5
EEC7
330
18
100
AcDbEntity
  8
01
  6
BYBLOCK
100
AcDbCircle
 10
4785.630625691165
 20
1113.779513413321
 30
0.0000000001127424
 40
6.0
100
AcDbArc
 50
180.0
 51
270.0
  0
ARC
  5
EEC8
330
18
100
AcDbEntity
  8
01
  6
BYBLOCK
100
AcDbCircle
 10
4798.430625691164
 20
1113.779513413321
 30
0.0000000001127424
 40
6.0
100
AcDbArc
 50
270.0
 51
0.0
  0
ARC
  5
EEC9
330
18
100
AcDbEntity
  8
01
  6
BYBLOCK
100
AcDbCircle
 10
4785.630625691165
 20
1231.579513413321
 30
0.0000000001127424
 40
6.0
100
AcDbArc
 50
90.0
 51
180.0
  0
ARC
  5
EECA
330
18
100
AcDbEntity
  8
01
  6
BYBLOCK
100
AcDbCircle
 10
4798.430625691164
 20
1231.579513413321
 30
0.0000000001127424
 40
6.0
100
AcDbArc
 50
0.0
 51
90.0
  0
CIRCLE
  5
EECB
330
18
100
AcDbEntity
  8
01
  6
BYBLOCK
100
AcDbCircle
 10
4792.030625691164
 20
1115.679513413321
 30
0.0000000001127424
 40
2.75
  0
CIRCLE
  5
EECC
330
18
100
AcDbEntity
  8
01
  6
BYBLOCK
100
AcDbCircle
 10
4792.030625691164
 20
1115.679513413321
 30
0.0000000001127424
 40
4.25
  0
CIRCLE
  5
EECD
330
18
100
AcDbEntity
  8
01
  6
BYBLOCK
100
AcDbCircle
 10
4792.030625691164
 20
1229.679513413321
 30
0.0000000001127424
 40
2.75
  0
CIRCLE
  5
EECE
330
18
100
AcDbEntity
  8
01
  6
BYBLOCK
100
AcDbCircle
 10
4792.030625691164
 20
1229.679513413321
 30
0.0000000001127424
 40
4.25
  0
LINE
  5
EECF
330
18
100
AcDbEntity
  8
1CENTER
100
AcDbLine
 10
4797.90565109907
 20
1115.679513413321
 30
0.0000000001127424
 11
4786.155600283259
 21
1115.679513413321
 31
0.0000000001127424
  0
LINE
  5
EED0
330
18
100
AcDbEntity
  8
1CENTER
100
AcDbLine
 10
4792.030625691164
 20
1121.554538821227
 30
0.0000000001127424
 11
4792.030625691164
 21
1109.804488005415
 31
0.0000000001127424
  0
LINE
  5
EED1
330
18
100
AcDbEntity
  8
1CENTER
100
AcDbLine
 10
4797.90565109907
 20
1229.679513413321
 30
0.0000000001127424
 11
4786.155600283259
 21
1229.679513413321
 31
0.0000000001127424
  0
LINE
  5
EED2
330
18
100
AcDbEntity
  8
1CENTER
100
AcDbLine
 10
4792.030625691164
 20
1235.554538821227
 30
0.0000000001127424
 11
4792.030625691164
 21
1223.804488005415
 31
0.0000000001127424
  0
ARC
  5
EED3
330
18
100
AcDbEntity
  8
01
  6
BYBLOCK
100
AcDbCircle
 10
4792.030625691164
 20
1173.679513413321
 30
0.0000000001127424
 40
10.15
100
AcDbArc
 50
231.9925780701392
 51
308.0074219298607
  0
LINE
  5
EED4
330
18
100
AcDbEntity
  8
01
  6
BYBLOCK
100
AcDbLine
 10
4785.780625691164
 20
1181.677013022574
 30
0.0000000001127424
 11
4785.780625691164
 21
1165.682013804068
 31
0.0000000001127424
  0
LINE
  5
EED5
330
18
100
AcDbEntity
  8
01
  6
BYBLOCK
100
AcDbLine
 10
4798.280625691164
 20
1181.677013022574
 30
0.0000000001127424
 11
4798.280625691164
 21
1165.682013804068
 31
0.0000000001127424
  0
ARC
  5
EED6
330
18
100
AcDbEntity
  8
01
  6
BYBLOCK
100
AcDbCircle
 10
4792.030625691164
 20
1173.679513413321
 30
0.0000000001127424
 40
10.15
100
AcDbArc
 50
51.99257807013929
 51
128.0074219298607
  0
LINE
  5
EED7
330
18
100
AcDbEntity
  8
01
  6
BYBLOCK
100
AcDbLine
 10
4787.530625691164
 20
1178.929513413321
 30
0.0000000001127424
 11
4787.530625691164
 21
1168.429513413321
 31
0.0000000001127424
  0
LINE
  5
EED8
330
18
100
AcDbEntity
  8
01
  6
BYBLOCK
100
AcDbLine
 10
4797.530625691164
 20
1178.929513413321
 30
0.0000000001127424
 11
4797.530625691164
 21
1168.429513413321
 31
0.0000000001127424
  0
LINE
  5
EED9
330
18
100
AcDbEntity
  8
01
  6
BYBLOCK
100
AcDbLine
 10
4788.030625691164
 20
1183.00809851504
 30
0.0000000001127424
 11
4788.030625691164
 21
1178.929513413321
 31
0.0000000001127424
  0
LINE
  5
EEDA
330
18
100
AcDbEntity
  8
01
  6
BYBLOCK
100
AcDbLine
 10
4786.530625691164
 20
1178.929513413321
 30
0.0000000001127424
 11
4786.530625691164
 21
1168.429513413321
 31
0.0000000001127424
  0
LINE
  5
EEDB
330
18
100
AcDbEntity
  8
01
  6
BYBLOCK
100
AcDbLine
 10
4788.030625691164
 20
1168.429513413321
 30
0.0000000001127424
 11
4788.030625691164
 21
1164.350928311603
 31
0.0000000001127424
  0
LINE
  5
EEDC
330
18
100
AcDbEntity
  8
01
  6
BYBLOCK
100
AcDbLine
 10
4786.530625691164
 20
1178.929513413321
 30
0.0000000001127424
 11
4797.530625691164
 21
1178.929513413321
 31
0.0000000001127424
  0
LINE
  5
EEDD
330
18
100
AcDbEntity
  8
01
  6
BYBLOCK
100
AcDbLine
 10
4786.530625691164
 20
1168.429513413321
 30
0.0000000001127424
 11
4797.530625691164
 21
1168.429513413321
 31
0.0000000001127424
  0
LINE
  5
EEDF
330
18
100
AcDbEntity
  8
01
100
AcDbLine
 10
4772.030742030907
 20
1271.679513413322
 30
0.0000000001127424
 11
4772.030742030907
 21
1081.679513413321
 31
0.0000000001127424
  0
LINE
  5
EEE0
330
18
100
AcDbEntity
  8
01
100
AcDbLine
 10
4774.15902741334
 20
1151.679513413321
 30
0.0000000001127424
 11
4751.530742030907
 21
1151.679513413321
 31
0.0000000001127424
  0
LINE
  5
EEE1
330
18
100
AcDbEntity
  8
01
100
AcDbLine
 10
4906.030509351707
 20
1115.67951341361
 30
0.0000000001127424
 11
4920.030509351707
 21
1115.67951341361
 31
0.0000000001127424
  0
LINE
  5
EEE2
330
18
100
AcDbEntity
  8
01
100
AcDbLine
 10
4973.342397618961
 20
1201.679513413322
 30
0.0000000001127424
 11
4950.718621083877
 21
1201.679513413322
 31
0.0000000001127424
  0
LINE
  5
EEE3
330
18
100
AcDbEntity
  8
01
100
AcDbLine
 10
4962.03050935142
 20
1212.991401680863
 30
0.0000000001127424
 11
4962.03050935142
 21
1190.36762514578
 31
0.0000000001127424
  0
LINE
  5
EEE4
330
18
100
AcDbEntity
  8
01
  6
BYBLOCK
100
AcDbLine
 10
4684.030742030911
 20
1182.711183680338
 30
0.0000000001127424
 11
4684.030742030911
 21
1164.647843146332
 31
0.0000000001127424
  0
LINE
  5
EEE5
330
18
100
AcDbEntity
  8
01
  6
BYBLOCK
100
AcDbLine
 10
4679.737848812098
 20
1183.679513413335
 30
0.0000000001127424
 11
4673.030742030911
 21
1183.679513413335
 31
0.0000000001127424
  0
LINE
  5
EEE6
330
18
100
AcDbEntity
  8
01
  6
BYBLOCK
100
AcDbLine
 10
4679.737848812098
 20
1163.679513413335
 30
0.0000000001127424
 11
4673.030742030911
 21
1163.679513413335
 31
0.0000000001127424
  0
ARC
  5
EEE7
330
18
100
AcDbEntity
  8
01
  6
BYBLOCK
100
AcDbCircle
 10
4679.737848812098
 20
1173.679513413335
 30
0.0000000001127424
 40
10.00000000000009
100
AcDbArc
 50
64.57753282186054
 51
90.0
  0
LINE
  5
EEE8
330
18
100
AcDbEntity
  8
01
  6
CONTINUOUS
100
AcDbLine
 10
4683.530742030911
 20
1165.364719220504
 30
0.0000000001127424
 11
4673.030742030911
 21
1165.364719220504
 31
0.0000000001127424
  0
ARC
  5
EEE9
330
18
100
AcDbEntity
  8
01
  6
CONTINUOUS
100
AcDbCircle
 10
4683.569322277825
 20
1165.826858451311
 30
0.0000000001127424
 40
0.4637468103423796
100
AcDbArc
 50
265.2279066161988
 51
354.2577450626177
  0
LINE
  5
EEEA
330
18
100
AcDbEntity
  8
01
  6
CONTINUOUS
100
AcDbLine
 10
4684.030742030911
 20
1181.162828186883
 30
0.0000000001127424
 11
4684.030742030911
 21
1166.196198639787
 31
0.0000000001127424
  0
ARC
  5
EEEB
330
18
100
AcDbEntity
  8
01
  6
CONTINUOUS
100
AcDbCircle
 10
4683.569322277825
 20
1181.532168375359
 30
0.0000000001127424
 40
0.4637468103423387
100
AcDbArc
 50
5.742254937382292
 51
94.77209338380122
  0
ARC
  5
EEEC
330
18
100
AcDbEntity
  8
01
  6
BYBLOCK
100
AcDbCircle
 10
4679.737848812098
 20
1173.679513413335
 30
0.0000000001127424
 40
10.00000000000009
100
AcDbArc
 50
270.0
 51
295.4224671781395
  0
LINE
  5
EEED
330
18
100
AcDbEntity
  8
01
  6
CONTINUOUS
100
AcDbLine
 10
4673.030742030911
 20
1181.994307606166
 30
0.0000000001127424
 11
4683.530742030911
 21
1181.994307606166
 31
0.0000000001127424
  0
LINE
  5
EEEE
330
18
100
AcDbEntity
  8
01
100
AcDbLine
 10
4980.03050935142
 20
1169.028864986219
 30
0.0000000001127424
 11
4980.03050935142
 21
1136.879513413322
 31
0.0000000001127424
  0
ARC
  5
EEEF
330
18
100
AcDbEntity
  8
01
100
AcDbCircle
 10
4979.03050935142
 20
1136.679513413322
 30
0.0000000001127424
 40
1.0
100
AcDbArc
 50
270.0
 51
0.0
  0
LINE
  5
EEF0
330
18
100
AcDbEntity
  8
01
100
AcDbLine
 10
4942.821136639122
 20
1135.679513413322
 30
0.0000000001127424
 11
4979.03050935142
 21
1135.679513413322
 31
0.0000000001127424
  0
LINE
  5
EEF2
330
18
100
AcDbEntity
  8
01
100
AcDbLine
 10
4652.030742030911
 20
1151.679513413322
 30
0.0000000001127424
 11
4592.030742030911
 21
1151.679513413322
 31
0.0000000001127424
  0
LINE
  5
EEF3
330
18
100
AcDbEntity
  8
01
100
AcDbLine
 10
4622.030742030911
 20
1181.679513413322
 30
0.0000000001127424
 11
4622.030742030911
 21
1121.679513413322
 31
0.0000000001127424
  0
LINE
  5
EEFA
330
18
100
AcDbEntity
  8
01
  6
BYBLOCK
100
AcDbLine
 10
4980.03050935142
 20
1198.4616323809
 30
0.0000000001128561
 11
4980.03050935142
 21
1169.028864986219
 31
0.0000000001127424
  0
LINE
  5
EEFB
330
18
100
AcDbEntity
  8
01
  6
BYBLOCK
100
AcDbLine
 10
4913.73050935142
 20
1209.679513413322
 30
0.0000000001127424
 11
4942.187406273437
 21
1209.679513413322
 31
0.0000000001128561
  0
ARC
  5
EEFC
330
18
100
AcDbEntity
  8
01
  6
BYBLOCK
100
AcDbCircle
 10
4979.03050935142
 20
1208.679513413322
 30
0.0000000001127424
 40
1.0
100
AcDbArc
 50
0.0
 51
90.0
  0
LINE
  5
EEFD
330
18
100
AcDbEntity
  8
01
  6
BYBLOCK
100
AcDbLine
 10
4942.187406273437
 20
1209.679513413322
 30
0.0000000001128561
 11
4979.03050935142
 21
1209.679513413322
 31
0.0000000001127424
  0
LINE
  5
EEFE
330
18
100
AcDbEntity
  8
01
  6
BYBLOCK
100
AcDbLine
 10
4980.03050935142
 20
1208.679513413322
 30
0.0000000001127424
 11
4980.03050935142
 21
1198.4616323809
 31
0.0000000001128561
  0
LINE
  5
EEFF
330
18
100
AcDbEntity
  8
01
100
AcDbLine
 10
4678.030742030911
 20
1229.679513413322
 30
0.0000000001127424
 11
4664.030742030911
 21
1229.679513413322
 31
0.0000000001127424
  0
LINE
  5
EF00
330
18
100
AcDbEntity
  8
01
  6
BYBLOCK
100
AcDbLine
 10
4671.530742030911
 20
1237.579513413322
 30
0.0000000001127424
 11
4671.530742030911
 21
1107.779513413322
 31
0.0000000001127424
  0
LINE
  5
EF01
330
18
100
AcDbEntity
  8
01
  6
BYBLOCK
100
AcDbLine
 10
4671.530742030911
 20
1108.679513413322
 30
0.0000000001127424
 11
4669.030742030911
 21
1108.679513413322
 31
0.0000000001127424
  0
LINE
  5
EF02
330
18
100
AcDbEntity
  8
01
  6
BYBLOCK
100
AcDbLine
 10
4669.030742030911
 20
1108.679513413322
 30
0.0000000001127424
 11
4669.030742030911
 21
1125.182457138474
 31
0.0000000001127424
  0
LINE
  5
EF03
330
18
100
AcDbEntity
  8
01
  6
BYBLOCK
100
AcDbLine
 10
4673.030742030911
 20
1237.579513413322
 30
0.0000000001127424
 11
4673.030742030911
 21
1107.779513413322
 31
0.0000000001127424
  0
LINE
  5
EF04
330
18
100
AcDbEntity
  8
01
  6
BYBLOCK
100
AcDbLine
 10
4673.030742030911
 20
1107.779513413322
 30
0.0000000001127424
 11
4671.530742030911
 21
1107.779513413322
 31
0.0000000001127424
  0
LINE
  5
EF05
330
18
100
AcDbEntity
  8
01
  6
BYBLOCK
100
AcDbLine
 10
4671.530742030911
 20
1236.679513413322
 30
0.0000000001127424
 11
4669.030742030911
 21
1236.679513413322
 31
0.0000000001127424
  0
LINE
  5
EF06
330
18
100
AcDbEntity
  8
01
  6
BYBLOCK
100
AcDbLine
 10
4673.030742030911
 20
1237.579513413322
 30
0.0000000001127424
 11
4671.530742030911
 21
1237.579513413322
 31
0.0000000001127424
  0
LINE
  5
EF07
330
18
100
AcDbEntity
  8
01
  6
BYBLOCK
100
AcDbLine
 10
4671.530742030911
 20
1212.679513413322
 30
0.0000000001127424
 11
4670.330742030911
 21
1212.679513413322
 31
0.0000000001127424
  0
LINE
  5
EF08
330
18
100
AcDbEntity
  8
01
  6
BYBLOCK
100
AcDbLine
 10
4670.330742030911
 20
1218.379513413322
 30
0.0000000001127424
 11
4670.330742030911
 21
1126.979513413322
 31
0.0000000001127424
  0
LINE
  5
EF09
330
18
100
AcDbEntity
  8
01
  6
BYBLOCK
100
AcDbLine
 10
4670.230742030911
 20
1108.679513413322
 30
0.0000000001127424
 11
4670.230742030911
 21
1125.279513413322
 31
0.0000000001127424
  0
LINE
  5
EF0A
330
18
100
AcDbEntity
  8
01
  6
BYBLOCK
100
AcDbLine
 10
4670.230742030911
 20
1125.279513413322
 30
0.0000000001127424
 11
4671.179270168335
 21
1126.228041550746
 31
0.0000000001127424
  0
LINE
  5
EF0B
330
18
100
AcDbEntity
  8
01
  6
BYBLOCK
100
AcDbLine
 10
4669.382213893487
 20
1126.030985275898
 30
0.0000000001127424
 11
4670.330742030911
 21
1126.979513413322
 31
0.0000000001127424
  0
ARC
  5
EF0C
330
18
100
AcDbEntity
  8
01
  6
BYBLOCK
100
AcDbCircle
 10
4670.230742030911
 20
1125.182457138474
 30
0.0000000001127424
 40
1.2
100
AcDbArc
 50
134.9999999999447
 51
180.0
  0
ARC
  5
EF0D
330
18
100
AcDbEntity
  8
01
  6
BYBLOCK
100
AcDbCircle
 10
4670.330742030911
 20
1127.07656968817
 30
0.0000000001127424
 40
1.2
100
AcDbArc
 50
314.9999999999447
 51
0.0
  0
LINE
  5
EF0E
330
18
100
AcDbEntity
  8
01
  6
BYBLOCK
100
AcDbLine
 10
4669.030742030911
 20
1236.679513413322
 30
0.0000000001127424
 11
4669.030742030911
 21
1220.17656968817
 31
0.0000000001127424
  0
LINE
  5
EF0F
330
18
100
AcDbEntity
  8
01
  6
BYBLOCK
100
AcDbLine
 10
4670.230742030911
 20
1236.679513413322
 30
0.0000000001127424
 11
4670.230742030911
 21
1220.079513413322
 31
0.0000000001127424
  0
LINE
  5
EF10
330
18
100
AcDbEntity
  8
01
  6
BYBLOCK
100
AcDbLine
 10
4670.230742030911
 20
1220.079513413322
 30
0.0000000001127424
 11
4671.179270168335
 21
1219.130985275898
 31
0.0000000001127424
  0
LINE
  5
EF11
330
18
100
AcDbEntity
  8
01
  6
BYBLOCK
100
AcDbLine
 10
4669.382213893487
 20
1219.328041550746
 30
0.0000000001127424
 11
4670.330742030911
 21
1218.379513413322
 31
0.0000000001127424
  0
ARC
  5
EF12
330
18
100
AcDbEntity
  8
01
  6
BYBLOCK
100
AcDbCircle
 10
4670.230742030911
 20
1220.17656968817
 30
0.0000000001127424
 40
1.2
100
AcDbArc
 50
180.0
 51
225.0000000000553
  0
ARC
  5
EF13
330
18
100
AcDbEntity
  8
01
  6
BYBLOCK
100
AcDbCircle
 10
4670.330742030911
 20
1218.282457138474
 30
0.0000000001127424
 40
1.2
100
AcDbArc
 50
0.0
 51
45.00000000005527
  0
CIRCLE
  5
EF14
330
18
100
AcDbEntity
  8
01
  6
BYBLOCK
100
AcDbCircle
 10
4622.030742030911
 20
1201.679513413322
 30
0.0000000001127424
 40
4.749999999999998
  0
LINE
  5
EF15
330
18
100
AcDbEntity
  8
01
  6
BYBLOCK
100
AcDbLine
 10
4670.330742030911
 20
1135.679513413322
 30
0.0000000001127424
 11
4641.24011474321
 21
1135.679513413322
 31
0.0000000001127424
  0
LINE
  5
EF16
330
18
100
AcDbEntity
  8
01
  6
BYBLOCK
100
AcDbLine
 10
4625.636986614963
 20
1201.679513413322
 30
0.0000000001127424
 11
4622.030742030911
 21
1205.285757997373
 31
0.0000000001127424
  0
LINE
  5
EF17
330
18
100
AcDbEntity
  8
01
  6
BYBLOCK
100
AcDbLine
 10
4618.424497446859
 20
1201.679513413322
 30
0.0000000001127424
 11
4622.030742030911
 21
1205.285757997373
 31
0.0000000001127424
  0
LINE
  5
EF18
330
18
100
AcDbEntity
  8
01
  6
BYBLOCK
100
AcDbLine
 10
4625.636986614963
 20
1201.679513413322
 30
0.0000000001127424
 11
4622.030742030911
 21
1198.073268829271
 31
0.0000000001127424
  0
LINE
  5
EF19
330
18
100
AcDbEntity
  8
01
  6
BYBLOCK
100
AcDbLine
 10
4618.424497446859
 20
1201.679513413322
 30
0.0000000001127424
 11
4622.030742030911
 21
1198.073268829271
 31
0.0000000001127424
  0
LINE
  5
EF1A
330
18
100
AcDbEntity
  8
01
  6
BYBLOCK
100
AcDbLine
 10
4679.737848812098
 20
1183.679513413335
 30
0.0000000001127424
 11
4673.030742030911
 21
1183.679513413335
 31
0.0000000001127424
  0
LINE
  5
EF1B
330
18
100
AcDbEntity
  8
01
  6
BYBLOCK
100
AcDbLine
 10
4679.737848812098
 20
1163.679513413335
 30
0.0000000001127424
 11
4673.030742030911
 21
1163.679513413335
 31
0.0000000001127424
  0
LINE
  5
EF1C
330
18
100
AcDbEntity
  8
01
100
AcDbLine
 10
4678.030742030624
 20
1115.67951341361
 30
0.0000000001127424
 11
4664.030742030624
 21
1115.67951341361
 31
0.0000000001127424
  0
LINE
  5
EF1D
330
18
100
AcDbEntity
  8
01
  6
BYBLOCK
100
AcDbLine
 10
4604.030742030911
 20
1198.4616323809
 30
0.0000000001128561
 11
4604.030742030911
 21
1169.028864986219
 31
0.0000000001127424
  0
LINE
  5
EF1E
330
18
100
AcDbEntity
  8
01
  6
BYBLOCK
100
AcDbLine
 10
4670.330742030911
 20
1209.679513413322
 30
0.0000000001127424
 11
4641.873845108894
 21
1209.679513413322
 31
0.0000000001128561
  0
ARC
  5
EF1F
330
18
100
AcDbEntity
  8
01
  6
BYBLOCK
100
AcDbCircle
 10
4605.030742030911
 20
1208.679513413322
 30
0.0000000001127424
 40
0.9999999999999996
100
AcDbArc
 50
90.0
 51
180.0
  0
LINE
  5
EF20
330
18
100
AcDbEntity
  8
01
  6
BYBLOCK
100
AcDbLine
 10
4641.873845108894
 20
1209.679513413322
 30
0.0000000001128561
 11
4605.030742030911
 21
1209.679513413322
 31
0.0000000001127424
  0
LINE
  5
EF21
330
18
100
AcDbEntity
  8
01
  6
BYBLOCK
100
AcDbLine
 10
4604.030742030911
 20
1208.679513413322
 30
0.0000000001127424
 11
4604.030742030911
 21
1198.4616323809
 31
0.0000000001128561
  0
TEXT
  5
EF24
330
18
100
AcDbEntity
  8
1TEXT
100
AcDbText
 10
4604.030641691164
 20
1433.179513413322
 30
0.0000000001127424
 40
20.0
  1
1-A5C-X-LJ
100
AcDbText
  0
TEXT
  5
EF26
330
18
100
AcDbEntity
  8
1TEXT
100
AcDbText
 10
4616.230641691165
 20
1394.929513413322
 30
0.0000000001127424
 40
6.0
  1
表面処理
 72
     1
 11
4630.130641691165
 21
1394.929513413322
 31
0.0000000001127424
100
AcDbText
  0
TEXT
  5
EF27
330
18
100
AcDbEntity
  8
1TEXT
100
AcDbText
 10
4615.930641691165
 20
1384.676580424035
 30
0.0000000001127424
 40
6.0
  1
クローム
 72
     1
 11
4630.130641691165
 21
1384.676580424035
 31
0.0000000001127424
100
AcDbText
  0
LINE
  5
EF28
330
18
100
AcDbEntity
  8
1DIM
100
AcDbLine
 10
4604.030641691164
 20
1403.179513413322
 30
0.0000000001127424
 11
4709.030641691164
 21
1403.179513413322
 31
0.0000000001127424
  0
LINE
  5
EF29
330
18
100
AcDbEntity
  8
1DIM
100
AcDbLine
 10
4604.030641691164
 20
1392.679513413322
 30
0.0000000001127424
 11
4709.030641691164
 21
1392.679513413322
 31
0.0000000001127424
  0
LINE
  5
EF2A
330
18
100
AcDbEntity
  8
1DIM
100
AcDbLine
 10
4604.030641691164
 20
1382.179513413322
 30
0.0000000001127424
 11
4709.030641691164
 21
1382.179513413322
 31
0.0000000001127424
  0
LINE
  5
EF2B
330
18
100
AcDbEntity
  8
1DIM
100
AcDbLine
 10
4604.030641691164
 20
1382.179513413322
 30
0.0000000001127424
 11
4709.030641691164
 21
1382.179513413322
 31
0.0000000001127424
  0
LINE
  5
EF2C
330
18
100
AcDbEntity
  8
1DIM
100
AcDbLine
 10
4656.530641691164
 20
1403.179513413322
 30
0.0000000001127424
 11
4656.530641691164
 21
1382.179513413322
 31
0.0000000001127424
  0
TEXT
  5
EF2D
330
18
100
AcDbEntity
  8
1TEXT
100
AcDbText
 10
4663.016058357832
 20
1384.107977937848
 30
0.0000000001127424
 40
6.0
  1
1-A5C-C-LJ
 41
0.6999999999999998
 72
     1
 11
4682.630641691165
 21
1384.107977937848
 31
0.0000000001127424
100
AcDbText
  0
TEXT
  5
EF2E
330
18
100
AcDbEntity
  8
1TEXT
100
AcDbText
 10
4672.330641691165
 20
1394.929513413322
 30
0.0000000001127424
 40
6.0
  1
コード
 72
     1
 11
4682.630641691165
 21
1394.929513413322
 31
0.0000000001127424
100
AcDbText
  0
LINE
  5
EF2F
330
18
100
AcDbEntity
  8
1DIM
100
AcDbLine
 10
4709.030641691164
 20
1382.179513413322
 30
0.0000000001127424
 11
4709.030641691164
 21
1403.179513413322
 31
0.0000000001127424
  0
LINE
  5
EF30
330
18
100
AcDbEntity
  8
1DIM
100
AcDbLine
 10
4604.030641691164
 20
1382.179513413322
 30
0.0000000001127424
 11
4709.030641691164
 21
1382.179513413322
 31
0.0000000001127424
  0
LINE
  5
EF31
330
18
100
AcDbEntity
  8
1DIM
100
AcDbLine
 10
4656.530641691164
 20
1382.179513413322
 30
0.0000000001127424
 11
4656.530641691164
 21
1371.679513413322
 31
0.0000000001127424
  0
LINE
  5
EF32
330
18
100
AcDbEntity
  8
1DIM
100
AcDbLine
 10
4604.030641691164
 20
1371.679513413322
 30
0.0000000001127424
 11
4709.030641691164
 21
1371.679513413322
 31
0.0000000001127424
  0
TEXT
  5
EF33
330
18
100
AcDbEntity
  8
1TEXT
100
AcDbText
 10
4605.330641691165
 20
1374.213142995965
 30
0.0000000001127424
 40
6.0
  1
サテンニッケル
 72
     1
 11
4630.130641691165
 21
1374.213142995965
 31
0.0000000001127424
100
AcDbText
  0
LINE
  5
EF34
330
18
100
AcDbEntity
  8
1DIM
100
AcDbLine
 10
4604.030641691164
 20
1371.679513413322
 30
0.0000000001127424
 11
4604.030641691164
 21
1382.179513413322
 31
0.0000000001127424
  0
LINE
  5
EF35
330
18
100
AcDbEntity
  8
1DIM
100
AcDbLine
 10
4709.030641691164
 20
1371.679513413322
 30
0.0000000001127424
 11
4709.030641691164
 21
1382.179513413322
 31
0.0000000001127424
  0
TEXT
  5
EF36
330
18
100
AcDbEntity
  8
1TEXT
100
AcDbText
 10
4663.016058357832
 20
1373.607977937848
 30
0.0000000001127424
 40
6.0
  1
1-A5C-N-LJ
 41
0.6999999999999998
 72
     1
 11
4682.630641691165
 21
1373.607977937848
 31
0.0000000001127424
100
AcDbText
  0
LINE
  5
EF37
330
18
100
AcDbEntity
  8
1DIM
100
AcDbLine
 10
4604.030641691164
 20
1382.179513413322
 30
0.0000000001127424
 11
4604.030641691164
 21
1403.179513413322
 31
0.0000000001127424
  0
LINE
  5
EF38
330
18
100
AcDbEntity
  8
1DIM
100
AcDbLine
 10
4656.530641691164
 20
1371.679513413322
 30
0.0000000001127424
 11
4656.530641691164
 21
1361.179513413322
 31
0.0000000001127424
  0
LINE
  5
EF39
330
18
100
AcDbEntity
  8
1DIM
100
AcDbLine
 10
4604.030641691164
 20
1361.179513413322
 30
0.0000000001127424
 11
4709.030641691164
 21
1361.179513413322
 31
0.0000000001127424
  0
TEXT
  5
EF3A
330
18
100
AcDbEntity
  8
1TEXT
100
AcDbText
 10
4605.930641691165
 20
1363.713142995965
 30
0.0000000001127424
 40
6.0
  1
パールブラック
 72
     1
 11
4630.130641691165
 21
1363.713142995965
 31
0.0000000001127424
100
AcDbText
  0
LINE
  5
EF3B
330
18
100
AcDbEntity
  8
1DIM
100
AcDbLine
 10
4604.030641691164
 20
1361.179513413322
 30
0.0000000001127424
 11
4604.030641691164
 21
1371.679513413322
 31
0.0000000001127424
  0
LINE
  5
EF3C
330
18
100
AcDbEntity
  8
1DIM
100
AcDbLine
 10
4709.030641691164
 20
1361.179513413322
 30
0.0000000001127424
 11
4709.030641691164
 21
1371.679513413322
 31
0.0000000001127424
  0
TEXT
  5
EF3D
330
18
100
AcDbEntity
  8
1TEXT
100
AcDbText
 10
4660.901475024498
 20
1363.107977937848
 30
0.0000000001127424
 40
6.0
  1
1-A5C-GQ-LJ
 41
0.6999999999999998
 72
     1
 11
4682.630641691165
 21
1363.107977937848
 31
0.0000000001127424
100
AcDbText
  0
LINE
  5
EF7B
330
18
100
AcDbEntity
  8
01
100
AcDbLine
 10
4809.902223968989
 20
1151.679513413322
 30
0.0000000001127424
 11
4832.53050935142
 21
1151.679513413322
 31
0.0000000001127424
  0
LINE
  5
EF7C
330
18
100
AcDbEntity
  8
01
  6
BYBLOCK
100
AcDbLine
 10
4911.031277193737
 20
1401.678195100219
 30
0.0000000001127424
 11
5064.785657348768
 21
1401.678195100219
 31
0.0000000001127424
  0
LINE
  5
EF7D
330
18
100
AcDbEntity
  8
01
100
AcDbLine
 10
4962.03050935142
 20
1406.678195100219
 30
0.0000000001127424
 11
4962.03050935142
 21
1380.178195100219
 31
0.0000000001127424
  0
LINE
  5
EF83
330
18
100
AcDbEntity
  8
01
100
AcDbLine
 10
4812.036740917153
 20
1271.929066663986
 30
0.0000000001127424
 11
4812.036740917153
 21
1081.929066663986
 31
0.0000000001127424
  0
LINE
  5
EF84
330
18
100
AcDbEntity
  8
01
100
AcDbLine
 10
4932.03050935142
 20
1151.679513413322
 30
0.0000000001127424
 11
4992.03050935142
 21
1151.679513413322
 31
0.0000000001127424
  0
LINE
  5
EF85
330
18
100
AcDbEntity
  8
01
100
AcDbLine
 10
4962.03050935142
 20
1181.679513413322
 30
0.0000000001127424
 11
4962.03050935142
 21
1121.679513413322
 31
0.0000000001127424
  0
LINE
  5
EF86
330
18
100
AcDbEntity
  8
1CENTER
100
AcDbLine
 10
4809.902223968988
 20
1151.679513413322
 30
0.0000000001127424
 11
4832.53050935142
 21
1151.679513413322
 31
0.0000000001127424
  0
LINE
  5
EF87
330
18
100
AcDbEntity
  8
01
100
AcDbLine
 10
4812.030509351421
 20
1129.179513413322
 30
0.0000000001127424
 11
4812.03050935142
 21
1174.179513413322
 31
0.0000000001127424
  0
LINE
  5
EF88
330
18
100
AcDbEntity
  8
01
100
AcDbLine
 10
4812.03050935142
 20
1174.179513413322
 30
0.0000000001127424
 11
4813.23050935142
 21
1174.179513413322
 31
0.0000000001127424
  0
LINE
  5
EF89
330
18
100
AcDbEntity
  8
01
100
AcDbLine
 10
4812.030509351421
 20
1129.179513413322
 30
0.0000000001127424
 11
4813.23050935142
 21
1129.179513413322
 31
0.0000000001127424
  0
LINE
  5
EF8A
330
18
100
AcDbEntity
  8
01
100
AcDbLine
 10
4873.730509351421
 20
1153.554746621465
 30
0.0000000001127424
 11
4873.730509351421
 21
1149.804280205178
 31
0.0000000001127424
  0
ARC
  5
EF8B
330
18
100
AcDbEntity
  8
01
100
AcDbCircle
 10
4856.730509351421
 20
1183.304513413322
 30
0.0000000001127424
 40
38.12500000000023
100
AcDbArc
 50
275.9502382106966
 51
295.5295428747946
  0
ARC
  5
EF8C
330
18
100
AcDbEntity
  8
01
100
AcDbCircle
 10
4872.730509351421
 20
1149.804280205178
 30
0.0000000001127424
 40
1.0
100
AcDbArc
 50
295.5295428747946
 51
0.0
  0
ARC
  5
EF8D
330
18
100
AcDbEntity
  8
01
100
AcDbCircle
 10
4856.730509351421
 20
1120.054513413322
 30
0.0000000001127424
 40
38.12500000000023
100
AcDbArc
 50
64.47045712520543
 51
84.04976178930337
  0
ARC
  5
EF8E
330
18
100
AcDbEntity
  8
01
100
AcDbCircle
 10
4872.730509351421
 20
1153.554746621465
 30
0.0000000001127424
 40
1.0
100
AcDbArc
 50
0.0
 51
64.47045712520543
  0
LINE
  5
EF8F
330
18
100
AcDbEntity
  8
01
100
AcDbLine
 10
4813.23050935142
 20
1126.679513413322
 30
0.0000000001127424
 11
4813.23050935142
 21
1176.679513413322
 31
0.0000000001127424
  0
LINE
  5
EF90
330
18
100
AcDbEntity
  8
01
100
AcDbLine
 10
4813.23050935142
 20
1126.679513413322
 30
0.0000000001127424
 11
4813.976923819509
 21
1126.679513413322
 31
0.0000000001127424
  0
ARC
  5
EF91
330
18
100
AcDbEntity
  8
01
100
AcDbCircle
 10
4869.49422241899
 20
1060.842873485838
 30
0.0000000001127424
 40
85.0
100
AcDbArc
 50
95.95023821069663
 51
128.0871138498746
  0
ARC
  5
EF92
330
18
100
AcDbEntity
  8
01
100
AcDbCircle
 10
4813.976923819509
 20
1131.679513413322
 30
0.0000000001127424
 40
5.0
100
AcDbArc
 50
270.0
 51
308.0871138498746
  0
LINE
  5
EF93
330
18
100
AcDbEntity
  8
01
100
AcDbLine
 10
4813.23050935142
 20
1176.679513413322
 30
0.0000000001127424
 11
4813.976923819509
 21
1176.679513413322
 31
0.0000000001127424
  0
ARC
  5
EF94
330
18
100
AcDbEntity
  8
01
100
AcDbCircle
 10
4869.49422241899
 20
1242.516153340805
 30
0.0000000001127424
 40
85.0
100
AcDbArc
 50
231.9128861501254
 51
264.0715720573474
  0
ARC
  5
EF95
330
18
100
AcDbEntity
  8
01
100
AcDbCircle
 10
4813.976923819509
 20
1171.679513413322
 30
0.0000000001127424
 40
5.0
100
AcDbArc
 50
51.91288615012537
 51
90.0
  0
LINE
  5
EF96
330
18
100
AcDbEntity
  8
1CENTER
100
AcDbLine
 10
4962.03050935142
 20
1406.678195100219
 30
0.0000000001127424
 11
4962.03050935142
 21
1380.178195100219
 31
0.0000000001127424
  0
LINE
  5
EF97
330
18
100
AcDbEntity
  8
1CENTER
100
AcDbLine
 10
4962.03050935142
 20
1403.959654257323
 30
0.0000000001127424
 11
4962.03050935142
 21
1363.987277755368
 31
0.0000000001127424
  0
LINE
  5
EF98
330
18
100
AcDbEntity
  8
01
100
AcDbLine
 10
4939.53050935142
 20
1401.678195100219
 30
0.0000000001127424
 11
4984.53050935142
 21
1401.678195100219
 31
0.0000000001127424
  0
LINE
  5
EF99
330
18
100
AcDbEntity
  8
01
100
AcDbLine
 10
4984.53050935142
 20
1401.678195100219
 30
0.0000000001127424
 11
4984.53050935142
 21
1400.478195100219
 31
0.0000000001127424
  0
LINE
  5
EF9A
330
18
100
AcDbEntity
  8
01
100
AcDbLine
 10
4939.53050935142
 20
1401.678195100219
 30
0.0000000001127424
 11
4939.530509351421
 21
1400.478195100219
 31
0.0000000001127424
  0
LINE
  5
EF9B
330
18
100
AcDbEntity
  8
1CENTER
100
AcDbLine
 10
4962.03050935142
 20
1402.159654257323
 30
0.0000000001127424
 11
4962.03050935142
 21
1391.855260332199
 31
0.0000000001127424
  0
LINE
  5
EF9C
330
18
100
AcDbEntity
  8
01
100
AcDbLine
 10
5087.03050935142
 20
1361.978195100219
 30
0.0000000001127424
 11
5087.03050935142
 21
1341.978195100219
 31
0.0000000001127424
  0
LINE
  5
EF9D
330
18
100
AcDbEntity
  8
01
100
AcDbLine
 10
4990.486390288484
 20
1400.478195100219
 30
0.0000000001127424
 11
4931.03050935142
 21
1400.478195100219
 31
0.0000000001127424
  0
LINE
  5
EF9E
330
18
100
AcDbEntity
  8
01
100
AcDbLine
 10
5085.03050935142
 20
1339.978195100219
 30
0.0000000001127424
 11
4956.388740126004
 21
1339.978195100219
 31
0.0000000001127424
  0
ARC
  5
EF9F
330
18
100
AcDbEntity
  8
01
100
AcDbCircle
 10
4956.388740126004
 20
1341.978195100219
 30
0.0000000001127424
 40
2.0
100
AcDbArc
 50
201.6379412293865
 51
270.0
  0
ARC
  5
EFA0
330
18
100
AcDbEntity
  8
01
100
AcDbCircle
 10
5085.03050935142
 20
1341.978195100219
 30
0.0000000001127424
 40
2.0
100
AcDbArc
 50
270.0
 51
0.0
  0
LINE
  5
EFA1
330
18
100
AcDbEntity
  8
01
100
AcDbLine
 10
5085.03050935142
 20
1363.978195100219
 30
0.0000000001127424
 11
4985.770364778221
 21
1363.978195100219
 31
0.0000000001127424
  0
ARC
  5
EFA2
330
18
100
AcDbEntity
  8
01
100
AcDbCircle
 10
4985.770364778221
 20
1369.978195100219
 30
0.0000000001127424
 40
6.0
100
AcDbArc
 50
159.9999999999651
 51
270.0
  0
ARC
  5
EFA3
330
18
100
AcDbEntity
  8
01
100
AcDbCircle
 10
5085.03050935142
 20
1361.978195100219
 30
0.0000000001127424
 40
2.0
100
AcDbArc
 50
0.0
 51
90.0
  0
LINE
  5
EFA4
330
18
100
AcDbEntity
  8
01
100
AcDbLine
 10
4990.486390288484
 20
1400.478195100219
 30
0.0000000001127424
 11
4980.132209053505
 21
1372.030315960173
 31
0.0000000001127424
  0
LINE
  5
EFA5
330
18
100
AcDbEntity
  8
01
100
AcDbLine
 10
4954.529675105604
 20
1341.240714761548
 30
0.0000000001127424
 11
4931.03050935142
 21
1400.478195100219
 31
0.0000000001127424
  0
LINE
  5
EFA7
330
18
100
AcDbEntity
  8
1CENTER
100
AcDbLine
 10
4962.03050935142
 20
1181.923823414193
 30
0.0000000001127424
 11
4962.03050935142
 21
1121.43520341245
 31
0.0000000001127424
  0
LINE
  5
EFA8
330
18
100
AcDbEntity
  8
01
100
AcDbLine
 10
5086.03050935142
 20
1149.179513413321
 30
0.0000000001127424
 11
4957.03050935142
 21
1149.179513413322
 31
0.0000000001127424
  0
LINE
  5
EFA9
330
18
100
AcDbEntity
  8
01
100
AcDbLine
 10
5086.03050935142
 20
1154.179513413321
 30
0.0000000001127424
 11
4957.03050935142
 21
1154.179513413322
 31
0.0000000001127424
  0
ARC
  5
EFAA
330
18
100
AcDbEntity
  8
01
100
AcDbCircle
 10
5086.03050935142
 20
1153.179513413321
 30
0.0000000001127424
 40
1.0
100
AcDbArc
 50
0.0
 51
90.0
  0
LINE
  5
EFAB
330
18
100
AcDbEntity
  8
01
100
AcDbLine
 10
5087.03050935142
 20
1146.179513413321
 30
0.0000000001127424
 11
5087.03050935142
 21
1157.179513413321
 31
0.0000000001127424
  0
ARC
  5
EFAC
330
18
100
AcDbEntity
  8
01
100
AcDbCircle
 10
5086.03050935142
 20
1150.179513413321
 30
0.0000000001127424
 40
1.0
100
AcDbArc
 50
270.0
 51
0.0
  0
ARC
  5
EFAD
330
18
100
AcDbEntity
  8
01
100
AcDbCircle
 10
5086.03050935142
 20
1146.179513413321
 30
0.0000000001127424
 40
1.0
100
AcDbArc
 50
270.0
 51
0.0
  0
ARC
  5
EFAE
330
18
100
AcDbEntity
  8
01
100
AcDbCircle
 10
4962.03050935142
 20
1151.679513413322
 30
0.0000000001127424
 40
25.0
100
AcDbArc
 50
33.94497425281912
 51
141.6240321487666
  0
ARC
  5
EFAF
330
18
100
AcDbEntity
  8
01
100
AcDbCircle
 10
4962.03050935142
 20
1151.679513413322
 30
0.0000000001127424
 40
25.0
100
AcDbArc
 50
218.3759678512334
 51
326.0550257471809
  0
LINE
  5
EFB0
330
18
100
AcDbEntity
  8
01
100
AcDbLine
 10
4931.03050935142
 20
1156.148671202757
 30
0.0000000001127424
 11
4931.030509351419
 21
1147.210355623886
 31
0.0000000001127424
  0
LINE
  5
EFB1
330
18
100
AcDbEntity
  8
01
100
AcDbLine
 10
4931.1745209019
 20
1156.665666148853
 30
0.0000000001127424
 11
4957.03050935142
 21
1154.179513413322
 31
0.0000000001127424
  0
LINE
  5
EFB2
330
18
100
AcDbEntity
  8
01
100
AcDbLine
 10
4957.03050935142
 20
1149.179513413322
 30
0.0000000001127424
 11
4931.174520901899
 21
1146.693360677791
 31
0.0000000001127424
  0
LINE
  5
EFB3
330
18
100
AcDbEntity
  8
01
100
AcDbLine
 10
5086.03050935142
 20
1158.179513413321
 30
0.0000000001127424
 11
4970.207843996317
 21
1158.179513413321
 31
0.0000000001127424
  0
ARC
  5
EFB4
330
18
100
AcDbEntity
  8
01
100
AcDbCircle
 10
5086.03050935142
 20
1157.179513413321
 30
0.0000000001127424
 40
1.0
100
AcDbArc
 50
0.0
 51
90.0
  0
LINE
  5
EFB5
330
18
100
AcDbEntity
  8
01
100
AcDbLine
 10
5086.03050935142
 20
1145.179513413321
 30
0.0000000001127424
 11
4970.207843996317
 21
1145.179513413321
 31
0.0000000001127424
  0
ARC
  5
EFB6
330
18
100
AcDbEntity
  8
01
100
AcDbCircle
 10
4903.233965150306
 20
1198.240939401006
 30
0.0000000001127424
 40
50.0
100
AcDbArc
 50
304.3771656009302
 51
321.6240321487666
  0
ARC
  5
EFB7
330
18
100
AcDbEntity
  8
01
100
AcDbCircle
 10
4932.03050935142
 20
1156.148671202757
 30
0.0000000001127424
 40
1.0
100
AcDbArc
 50
124.3771656009302
 51
180.0
  0
ARC
  5
EFB8
330
18
100
AcDbEntity
  8
01
100
AcDbCircle
 10
4903.233965150306
 20
1105.118087425637
 30
0.0000000001127424
 40
50.0
100
AcDbArc
 50
38.37596785123343
 51
55.62283439906979
  0
ARC
  5
EFB9
330
18
100
AcDbEntity
  8
01
100
AcDbCircle
 10
4932.03050935142
 20
1147.210355623886
 30
0.0000000001127424
 40
1.0
100
AcDbArc
 50
180.0
 51
235.6228343990698
  0
ARC
  5
EFBA
330
18
100
AcDbEntity
  8
01
100
AcDbCircle
 10
5024.248576458031
 20
1193.559247480257
 30
0.0000000001127424
 40
50.0
100
AcDbArc
 50
213.9449742528191
 51
225.0395474536832
  0
ARC
  5
EFBB
330
18
100
AcDbEntity
  8
01
100
AcDbCircle
 10
5024.248576458031
 20
1109.799779346385
 30
0.0000000001127424
 40
50.0
100
AcDbArc
 50
134.9604525463168
 51
146.0550257471809
  0
ELLIPSE
  5
EFBC
330
18
100
AcDbEntity
  8
01
100
AcDbEllipse
 10
4962.03050935142
 20
1134.185353410053
 30
0.0000000001127424
 11
3.0
 21
0.0
 31
0.0
210
0.0
220
0.0
230
1.0
 40
0.5076362672574533
 41
3.141592653589793
 42
6.283185307179586
  0
ELLIPSE
  5
EFBD
330
18
100
AcDbEntity
  8
01
100
AcDbEllipse
 10
4962.03050935142
 20
1134.185353410053
 30
0.0000000001127424
 11
3.0
 21
0.0
 31
0.0
210
0.0
220
0.0
230
1.0
 40
0.4694530151218335
 41
6.283185307179586
 42
9.42477796076938
  0
LINE
  5
EFBE
330
18
100
AcDbEntity
  8
1CENTER
100
AcDbLine
 10
4826.536740917153
 20
1145.300116708277
 30
0.0000000001127424
 11
4826.536740917153
 21
1127.697186446935
 31
0.0000000001127424
  0
LINE
  5
EFBF
330
18
100
AcDbEntity
  8
01
100
AcDbLine
 10
4774.15902741334
 20
1151.679513413322
 30
0.0000000001127424
 11
4751.530742030909
 21
1151.679513413322
 31
0.0000000001127424
  0
LINE
  5
EFC0
330
18
100
AcDbEntity
  8
1CENTER
100
AcDbLine
 10
4774.15902741334
 20
1151.679513413322
 30
0.0000000001127424
 11
4751.530742030909
 21
1151.679513413322
 31
0.0000000001127424
  0
LINE
  5
EFC1
330
18
100
AcDbEntity
  8
01
100
AcDbLine
 10
4772.030742030908
 20
1129.179513413322
 30
0.0000000001127424
 11
4772.030742030909
 21
1174.179513413322
 31
0.0000000001127424
  0
LINE
  5
EFC2
330
18
100
AcDbEntity
  8
01
100
AcDbLine
 10
4772.030742030909
 20
1174.179513413322
 30
0.0000000001127424
 11
4770.830742030909
 21
1174.179513413322
 31
0.0000000001127424
  0
LINE
  5
EFC3
330
18
100
AcDbEntity
  8
01
100
AcDbLine
 10
4772.030742030908
 20
1129.179513413322
 30
0.0000000001127424
 11
4770.830742030909
 21
1129.179513413322
 31
0.0000000001127424
  0
LINE
  5
EFC4
330
18
100
AcDbEntity
  8
01
100
AcDbLine
 10
4710.330742030908
 20
1153.554746621465
 30
0.0000000001127424
 11
4710.330742030908
 21
1149.804280205178
 31
0.0000000001127424
  0
ARC
  5
EFC5
330
18
100
AcDbEntity
  8
01
100
AcDbCircle
 10
4727.330742030908
 20
1183.304513413322
 30
0.0000000001127424
 40
38.12500000000023
100
AcDbArc
 50
244.4704571252054
 51
264.0497617893558
  0
ARC
  5
EFC6
330
18
100
AcDbEntity
  8
01
100
AcDbCircle
 10
4711.330742030908
 20
1149.804280205178
 30
0.0000000001127424
 40
1.0
100
AcDbArc
 50
180.0
 51
244.4704571252054
  0
ARC
  5
EFC7
330
18
100
AcDbEntity
  8
01
100
AcDbCircle
 10
4727.330742030908
 20
1120.054513413322
 30
0.0000000001127424
 40
38.12500000000023
100
AcDbArc
 50
95.95023821064412
 51
115.5295428747946
  0
ARC
  5
EFC8
330
18
100
AcDbEntity
  8
01
100
AcDbCircle
 10
4711.330742030908
 20
1153.554746621465
 30
0.0000000001127424
 40
1.0
100
AcDbArc
 50
115.5295428747946
 51
180.0
  0
LINE
  5
EFC9
330
18
100
AcDbEntity
  8
01
100
AcDbLine
 10
4770.830742030909
 20
1126.679513413322
 30
0.0000000001127424
 11
4770.830742030909
 21
1176.679513413322
 31
0.0000000001127424
  0
LINE
  5
EFCA
330
18
100
AcDbEntity
  8
01
100
AcDbLine
 10
4770.830742030909
 20
1126.679513413322
 30
0.0000000001127424
 11
4770.08432756282
 21
1126.679513413322
 31
0.0000000001127424
  0
ARC
  5
EFCB
330
18
100
AcDbEntity
  8
01
100
AcDbCircle
 10
4714.567028963339
 20
1060.842873485838
 30
0.0000000001127424
 40
85.0
100
AcDbArc
 50
51.9128861501294
 51
84.04976178935588
  0
ARC
  5
EFCC
330
18
100
AcDbEntity
  8
01
100
AcDbCircle
 10
4770.08432756282
 20
1131.679513413322
 30
0.0000000001127424
 40
5.0
100
AcDbArc
 50
231.9128861501294
 51
270.0
  0
LINE
  5
EFCD
330
18
100
AcDbEntity
  8
01
100
AcDbLine
 10
4770.830742030909
 20
1176.679513413322
 30
0.0000000001127424
 11
4770.08432756282
 21
1176.679513413322
 31
0.0000000001127424
  0
ARC
  5
EFCE
330
18
100
AcDbEntity
  8
01
100
AcDbCircle
 10
4714.567028963339
 20
1242.516153340805
 30
0.0000000001127424
 40
85.0
100
AcDbArc
 50
275.9284279426001
 51
308.0871138498706
  0
ARC
  5
EFCF
330
18
100
AcDbEntity
  8
01
100
AcDbCircle
 10
4770.08432756282
 20
1171.679513413322
 30
0.0000000001127424
 40
5.0
100
AcDbArc
 50
90.0
 51
128.0871138498706
  0
LINE
  5
EFD0
330
18
100
AcDbEntity
  8
1CENTER
100
AcDbLine
 10
4757.524510465176
 20
1145.300116708277
 30
0.0000000001127424
 11
4757.524510465176
 21
1127.697186446935
 31
0.0000000001127424
  0
LINE
  5
EFD1
330
18
100
AcDbEntity
  8
01
100
AcDbLine
 10
4652.030742030909
 20
1151.679513413322
 30
0.0000000001127424
 11
4592.030742030909
 21
1151.679513413322
 31
0.0000000001127424
  0
LINE
  5
EFD2
330
18
100
AcDbEntity
  8
01
100
AcDbLine
 10
4498.030742030909
 20
1149.179513413321
 30
0.0000000001127424
 11
4627.030742030909
 21
1149.179513413322
 31
0.0000000001127424
  0
LINE
  5
EFD3
330
18
100
AcDbEntity
  8
01
100
AcDbLine
 10
4498.030742030909
 20
1154.179513413321
 30
0.0000000001127424
 11
4627.030742030909
 21
1154.179513413322
 31
0.0000000001127424
  0
ARC
  5
EFD4
330
18
100
AcDbEntity
  8
01
100
AcDbCircle
 10
4498.030742030909
 20
1153.179513413321
 30
0.0000000001127424
 40
1.0
100
AcDbArc
 50
90.0
 51
180.0
  0
LINE
  5
EFD5
330
18
100
AcDbEntity
  8
01
100
AcDbLine
 10
4497.030742030909
 20
1146.179513413321
 30
0.0000000001127424
 11
4497.030742030909
 21
1157.179513413321
 31
0.0000000001127424
  0
ARC
  5
EFD6
330
18
100
AcDbEntity
  8
01
100
AcDbCircle
 10
4498.030742030909
 20
1150.179513413321
 30
0.0000000001127424
 40
1.0
100
AcDbArc
 50
180.0
 51
270.0
  0
ARC
  5
EFD7
330
18
100
AcDbEntity
  8
01
100
AcDbCircle
 10
4498.030742030909
 20
1146.179513413321
 30
0.0000000001127424
 40
1.0
100
AcDbArc
 50
180.0
 51
270.0
  0
ARC
  5
EFD8
330
18
100
AcDbEntity
  8
01
100
AcDbCircle
 10
4622.030742030909
 20
1151.679513413322
 30
0.0000000001127424
 40
25.0
100
AcDbArc
 50
38.37596785124364
 51
146.0550257471809
  0
ARC
  5
EFD9
330
18
100
AcDbEntity
  8
01
100
AcDbCircle
 10
4622.030742030909
 20
1151.679513413322
 30
0.0000000001127424
 40
25.0
100
AcDbArc
 50
213.9449742528191
 51
321.6240321487563
  0
LINE
  5
EFDA
330
18
100
AcDbEntity
  8
01
100
AcDbLine
 10
4653.030742030909
 20
1156.148671202757
 30
0.0000000001127424
 11
4653.03074203091
 21
1147.210355623886
 31
0.0000000001127424
  0
LINE
  5
EFDB
330
18
100
AcDbEntity
  8
01
100
AcDbLine
 10
4652.886730480429
 20
1156.665666148853
 30
0.0000000001127424
 11
4627.030742030909
 21
1154.179513413322
 31
0.0000000001127424
  0
LINE
  5
EFDC
330
18
100
AcDbEntity
  8
01
100
AcDbLine
 10
4627.030742030909
 20
1149.179513413322
 30
0.0000000001127424
 11
4652.88673048043
 21
1146.693360677791
 31
0.0000000001127424
  0
LINE
  5
EFDD
330
18
100
AcDbEntity
  8
01
100
AcDbLine
 10
4498.030742030909
 20
1158.179513413321
 30
0.0000000001127424
 11
4613.853407386012
 21
1158.179513413321
 31
0.0000000001127424
  0
ARC
  5
EFDE
330
18
100
AcDbEntity
  8
01
100
AcDbCircle
 10
4498.030742030909
 20
1157.179513413321
 30
0.0000000001127424
 40
1.0
100
AcDbArc
 50
90.0
 51
180.0
  0
LINE
  5
EFDF
330
18
100
AcDbEntity
  8
01
100
AcDbLine
 10
4498.030742030909
 20
1145.179513413321
 30
0.0000000001127424
 11
4613.853407386012
 21
1145.179513413321
 31
0.0000000001127424
  0
ARC
  5
EFE0
330
18
100
AcDbEntity
  8
01
100
AcDbCircle
 10
4680.827286232023
 20
1198.240939401006
 30
0.0000000001127424
 40
50.0
100
AcDbArc
 50
218.3759678512436
 51
235.6228343990735
  0
ARC
  5
EFE1
330
18
100
AcDbEntity
  8
01
100
AcDbCircle
 10
4652.030742030909
 20
1156.148671202757
 30
0.0000000001127424
 40
1.0
100
AcDbArc
 50
0.0
 51
55.62283439907347
  0
ARC
  5
EFE2
330
18
100
AcDbEntity
  8
01
100
AcDbCircle
 10
4680.827286232023
 20
1105.118087425637
 30
0.0000000001127424
 40
50.0
100
AcDbArc
 50
124.3771656009265
 51
141.6240321487564
  0
ARC
  5
EFE3
330
18
100
AcDbEntity
  8
01
100
AcDbCircle
 10
4652.030742030909
 20
1147.210355623886
 30
0.0000000001127424
 40
1.0
100
AcDbArc
 50
304.3771656009265
 51
0.0
  0
ARC
  5
EFE4
330
18
100
AcDbEntity
  8
01
100
AcDbCircle
 10
4559.812674924298
 20
1193.559247480257
 30
0.0000000001127424
 40
50.0
100
AcDbArc
 50
314.9604525462523
 51
326.0550257471809
  0
ARC
  5
EFE5
330
18
100
AcDbEntity
  8
01
100
AcDbCircle
 10
4559.812674924298
 20
1109.799779346385
 30
0.0000000001127424
 40
50.0
100
AcDbArc
 50
33.94497425281912
 51
45.03954745374773
  0
ELLIPSE
  5
EFE6
330
18
100
AcDbEntity
  8
01
100
AcDbEllipse
 10
4622.030742030909
 20
1134.185353410053
 30
0.0000000001127424
 11
-3.0
 21
0.0
 31
0.0
210
0.0
220
0.0
230
-1.0
 40
0.5076362672574533
 41
3.141592653589793
 42
6.283185307179586
  0
ELLIPSE
  5
EFE7
330
18
100
AcDbEntity
  8
01
100
AcDbEllipse
 10
4622.030742030909
 20
1134.185353410053
 30
0.0000000001127424
 11
-3.0
 21
0.0
 31
0.0
210
0.0
220
0.0
230
-1.0
 40
0.4694530151218335
 41
6.283185307179586
 42
9.42477796076938
  0
LINE
  5
EFE8
330
18
100
AcDbEntity
  8
01
100
AcDbLine
 10
4962.03050935142
 20
1436.679513404367
 30
0.0000000001127424
 11
4962.03050935142
 21
1463.179513404367
 31
0.0000000001127424
  0
LINE
  5
EFE9
330
18
100
AcDbEntity
  8
1CENTER
100
AcDbLine
 10
4962.03050935142
 20
1436.679513404367
 30
0.0000000001127424
 11
4962.03050935142
 21
1463.179513404367
 31
0.0000000001127424
  0
LINE
  5
EFEA
330
18
100
AcDbEntity
  8
1CENTER
100
AcDbLine
 10
4962.03050935142
 20
1439.398054247263
 30
0.0000000001127424
 11
4962.03050935142
 21
1477.385561746374
 31
0.0000000001127424
  0
LINE
  5
EFEB
330
18
100
AcDbEntity
  8
01
100
AcDbLine
 10
4984.53050935142
 20
1441.679513404367
 30
0.0000000001127424
 11
4984.53050935142
 21
1442.879513404367
 31
0.0000000001127424
  0
LINE
  5
EFEC
330
18
100
AcDbEntity
  8
01
100
AcDbLine
 10
4939.53050935142
 20
1441.679513404367
 30
0.0000000001127424
 11
4939.530509351421
 21
1442.879513404367
 31
0.0000000001127424
  0
LINE
  5
EFED
330
18
100
AcDbEntity
  8
1CENTER
100
AcDbLine
 10
4962.03050935142
 20
1441.198054247263
 30
0.0000000001127424
 11
4962.03050935142
 21
1451.502448172387
 31
0.0000000001127424
  0
LINE
  5
EFEE
330
18
100
AcDbEntity
  8
01
100
AcDbLine
 10
5087.03050935142
 20
1481.379513404367
 30
0.0000000001127424
 11
5087.03050935142
 21
1501.379513404367
 31
0.0000000001127424
  0
LINE
  5
EFEF
330
18
100
AcDbEntity
  8
01
100
AcDbLine
 10
4990.486390288484
 20
1442.879513404367
 30
0.0000000001127424
 11
4931.03050935142
 21
1442.879513404367
 31
0.0000000001127424
  0
LINE
  5
EFF0
330
18
100
AcDbEntity
  8
01
100
AcDbLine
 10
5085.03050935142
 20
1503.379513404367
 30
0.0000000001127424
 11
4956.388740126004
 21
1503.379513404367
 31
0.0000000001127424
  0
ARC
  5
EFF1
330
18
100
AcDbEntity
  8
01
100
AcDbCircle
 10
4956.388740126004
 20
1501.379513404367
 30
0.0000000001127424
 40
2.0
100
AcDbArc
 50
90.0
 51
158.3620587706075
  0
ARC
  5
EFF2
330
18
100
AcDbEntity
  8
01
100
AcDbCircle
 10
5085.03050935142
 20
1501.379513404367
 30
0.0000000001127424
 40
2.0
100
AcDbArc
 50
0.0
 51
90.0
  0
LINE
  5
EFF3
330
18
100
AcDbEntity
  8
01
100
AcDbLine
 10
5085.03050935142
 20
1479.379513404367
 30
0.0000000001127424
 11
4985.770364778221
 21
1479.379513404367
 31
0.0000000001127424
  0
ARC
  5
EFF4
330
18
100
AcDbEntity
  8
01
100
AcDbCircle
 10
4985.770364778221
 20
1473.379513404367
 30
0.0000000001127424
 40
6.0
100
AcDbArc
 50
90.0
 51
200.0000000000287
  0
ARC
  5
EFF5
330
18
100
AcDbEntity
  8
01
100
AcDbCircle
 10
5085.03050935142
 20
1481.379513404367
 30
0.0000000001127424
 40
2.0
100
AcDbArc
 50
270.0
 51
0.0
  0
LINE
  5
EFF6
330
18
100
AcDbEntity
  8
01
100
AcDbLine
 10
4990.486390288484
 20
1442.879513404367
 30
0.0000000001127424
 11
4980.132209053505
 21
1471.327392544413
 31
0.0000000001127424
  0
LINE
  5
EFF7
330
18
100
AcDbEntity
  8
01
100
AcDbLine
 10
4954.529675105604
 20
1502.116993743038
 30
0.0000000001127424
 11
4931.03050935142
 21
1442.879513404367
 31
0.0000000001127424
  0
TEXT
  5
FC2B
330
18
100
AcDbEntity
  8
01
  6
CONTINUOUS
100
AcDbText
 10
4859.367006745399
 20
1349.410551449297
 30
0.0000000001127424
 40
4.55
  1
材質：亜鉛ダイキャスト
100
AcDbText
  0
TEXT
  5
FC2C
330
18
100
AcDbEntity
  8
01
  6
CONTINUOUS
100
AcDbText
 10
4869.680340078732
 20
1341.827218115964
 30
0.0000000001127424
 40
4.55
  1
仕上げ：各種メッキ
100
AcDbText
  0
LINE
  5
FC2D
330
18
100
AcDbEntity
  8
01
100
AcDbLine
 10
4900.03050935142
 20
1179.67951271519
 30
0.0000000001127424
 11
4900.03050935142
 21
1282.40100549801
 31
0.0000000001127424
1001
ACAD
1000
DSTYLE
1002
{
1070
    40
1040
1.3
1070
    45
1040
0.5
1002
}
  0
LINE
  5
FC2E
330
18
100
AcDbEntity
  8
01
100
AcDbLine
 10
4911.03050935142
 20
1237.550830764479
 30
0.0000000001127424
 11
4911.03050935142
 21
1282.40100549801
 31
0.0000000001127424
1001
ACAD
1000
DSTYLE
1002
{
1070
    40
1040
1.3
1070
    45
1040
0.5
1002
}
  0
LINE
  5
FC2F
330
18
100
AcDbEntity
  8
01
100
AcDbLine
 10
4902.63050935142
 20
1281.10100549801
 30
0.0000000001127424
 11
4908.430509351419
 21
1281.10100549801
 31
0.0000000001127424
1001
ACAD
1000
DSTYLE
1002
{
1070
    40
1040
1.3
1070
    45
1040
0.5
1002
}
  0
LINE
  5
FC33
330
18
100
AcDbEntity
  8
01
100
AcDbLine
 10
4980.03050935142
 20
1209.679513413322
 30
0.0000000001127424
 11
5008.33050935142
 21
1209.679513413322
 31
0.0000000001127424
1001
ACAD
1000
DSTYLE
1002
{
1070
    40
1040
1.3
1070
    45
1040
0.5
1002
}
  0
LINE
  5
FC34
330
18
100
AcDbEntity
  8
01
100
AcDbLine
 10
4980.03050935142
 20
1135.679513413321
 30
0.0000000001127424
 11
5008.33050935142
 21
1135.679513413321
 31
0.0000000001127424
1001
ACAD
1000
DSTYLE
1002
{
1070
    40
1040
1.3
1070
    45
1040
0.5
1002
}
  0
LINE
  5
FC35
330
18
100
AcDbEntity
  8
01
100
AcDbLine
 10
5007.03050935142
 20
1207.079513413322
 30
0.0000000001127424
 11
5007.03050935142
 21
1138.279513413321
 31
0.0000000001127424
1001
ACAD
1000
DSTYLE
1002
{
1070
    40
1040
1.3
1070
    45
1040
0.5
1002
}
  0
LINE
  5
FC39
330
18
100
AcDbEntity
  8
01
100
AcDbLine
 10
4980.03050935142
 20
1209.679513413322
 30
0.0000000001127424
 11
4980.03050935142
 21
1292.480872966058
 31
0.0000000001127424
1001
ACAD
1000
DSTYLE
1002
{
1070
    40
1040
1.3
1070
    45
1040
0.5
1002
}
  0
LINE
  5
FC3A
330
18
100
AcDbEntity
  8
01
100
AcDbLine
 10
4911.03050935142
 20
1237.550830764479
 30
0.0000000001127424
 11
4911.03050935142
 21
1292.480872966058
 31
0.0000000001127424
1001
ACAD
1000
DSTYLE
1002
{
1070
    40
1040
1.3
1070
    45
1040
0.5
1002
}
  0
LINE
  5
FC3B
330
18
100
AcDbEntity
  8
01
100
AcDbLine
 10
4977.430509351419
 20
1291.180872966058
 30
0.0000000001127424
 11
4913.63050935142
 21
1291.180872966058
 31
0.0000000001127424
1001
ACAD
1000
DSTYLE
1002
{
1070
    40
1040
1.3
1070
    45
1040
0.5
1002
}
  0
LINE
  5
FC3F
330
18
100
AcDbEntity
  8
01
100
AcDbLine
 10
4911.03050935142
 20
1237.550830764479
 30
0.0000000001127424
 11
4911.03050935142
 21
1282.40100549801
 31
0.0000000001127424
1001
ACAD
1000
DSTYLE
1002
{
1070
    40
1040
1.3
1070
    45
1040
0.5
1002
}
  0
LINE
  5
FC40
330
18
100
AcDbEntity
  8
01
100
AcDbLine
 10
4962.03050935142
 20
1201.679513413322
 30
0.0000000001127424
 11
4962.03050935142
 21
1282.40100549801
 31
0.0000000001127424
1001
ACAD
1000
DSTYLE
1002
{
1070
    40
1040
1.3
1070
    45
1040
0.5
1002
}
  0
LINE
  5
FC41
330
18
100
AcDbEntity
  8
01
100
AcDbLine
 10
4913.63050935142
 20
1281.10100549801
 30
0.0000000001127424
 11
4959.430509351419
 21
1281.10100549801
 31
0.0000000001127424
1001
ACAD
1000
DSTYLE
1002
{
1070
    40
1040
1.3
1070
    45
1040
0.5
1002
}
  0
LINE
  5
FC45
330
18
100
AcDbEntity
  8
01
100
AcDbLine
 10
4779.530625691164
 20
1231.679513413321
 30
0.0000000001127424
 11
4779.530625691164
 21
1282.401005498009
 31
0.0000000001127424
1001
ACAD
1000
DSTYLE
1002
{
1070
    40
1040
1.3
1070
    45
1040
0.5
1002
}
  0
LINE
  5
FC46
330
18
100
AcDbEntity
  8
01
100
AcDbLine
 10
4804.530625691164
 20
1231.679513413321
 30
0.0000000001127424
 11
4804.530625691164
 21
1282.401005498009
 31
0.0000000001127424
1001
ACAD
1000
DSTYLE
1002
{
1070
    40
1040
1.3
1070
    45
1040
0.5
1002
}
  0
LINE
  5
FC47
330
18
100
AcDbEntity
  8
01
100
AcDbLine
 10
4782.130625691165
 20
1281.101005498009
 30
0.0000000001127424
 11
4801.930625691164
 21
1281.101005498009
 31
0.0000000001127424
1001
ACAD
1000
DSTYLE
1002
{
1070
    40
1040
1.3
1070
    45
1040
0.5
1002
}
  0
LINE
  5
FC4B
330
18
100
AcDbEntity
  8
01
100
AcDbLine
 10
4797.8325652944
 20
1229.679958557738
 30
0.0000000001691137
 11
4878.118696462609
 21
1229.679958557738
 31
0.0000000001691137
1001
ACAD
1000
DSTYLE
1002
{
1070
    40
1040
1.3
1070
    45
1040
0.5
1002
}
  0
LINE
  5
FC4C
330
18
100
AcDbEntity
  8
01
100
AcDbLine
 10
4797.8325652944
 20
1115.679958557738
 30
0.0000000001691137
 11
4878.118696462609
 21
1115.679958557738
 31
0.0000000001691137
1001
ACAD
1000
DSTYLE
1002
{
1070
    40
1040
1.3
1070
    45
1040
0.5
1002
}
  0
LINE
  5
FC4D
330
18
100
AcDbEntity
  8
01
100
AcDbLine
 10
4876.818696462608
 20
1227.079958557738
 30
0.0000000001691137
 11
4876.818696462608
 21
1118.279958557737
 31
0.0000000001691137
1001
ACAD
1000
DSTYLE
1002
{
1070
    40
1040
1.3
1070
    45
1040
0.5
1002
}
  0
LINE
  5
FC51
330
18
100
AcDbEntity
  8
01
100
AcDbLine
 10
4798.430625691164
 20
1237.579513413321
 30
0.0000000001691137
 11
4887.483030628833
 21
1237.579513413321
 31
0.0000000001691137
1001
ACAD
1000
DSTYLE
1002
{
1070
    40
1040
1.3
1070
    45
1040
0.5
1002
}
  0
LINE
  5
FC52
330
18
100
AcDbEntity
  8
01
100
AcDbLine
 10
4798.357539886494
 20
1107.779958557738
 30
0.0000000001691137
 11
4887.483030628833
 21
1107.779958557738
 31
0.0000000001691137
1001
ACAD
1000
DSTYLE
1002
{
1070
    40
1040
1.3
1070
    45
1040
0.5
1002
}
  0
LINE
  5
FC53
330
18
100
AcDbEntity
  8
01
100
AcDbLine
 10
4886.183030628833
 20
1234.979513413321
 30
0.0000000001691137
 11
4886.183030628833
 21
1110.379958557738
 31
0.0000000001691137
1001
ACAD
1000
DSTYLE
1002
{
1070
    40
1040
1.3
1070
    45
1040
0.5
1002
}
  0
LINE
  5
FC57
330
18
100
AcDbEntity
  8
01
100
AcDbLine
 10
4962.03050935142
 20
1176.679513413322
 30
0.0000000001127424
 11
4925.73050935142
 21
1176.679513413322
 31
0.0000000001127424
1001
ACAD
1000
DSTYLE
1002
{
1070
     3
1000
φ<>
1070
    40
1040
1.3
1070
    45
1040
0.5
1002
}
  0
LINE
  5
FC58
330
18
100
AcDbEntity
  8
01
100
AcDbLine
 10
4962.03050935142
 20
1126.679513413323
 30
0.0000000001127424
 11
4925.73050935142
 21
1126.679513413323
 31
0.0000000001127424
1001
ACAD
1000
DSTYLE
1002
{
1070
     3
1000
φ<>
1070
    40
1040
1.3
1070
    45
1040
0.5
1002
}
  0
LINE
  5
FC59
330
18
100
AcDbEntity
  8
01
100
AcDbLine
 10
4927.03050935142
 20
1174.079513413322
 30
0.0000000001127424
 11
4927.03050935142
 21
1129.279513413323
 31
0.0000000001127424
1001
ACAD
1000
DSTYLE
1002
{
1070
     3
1000
φ<>
1070
    40
1040
1.3
1070
    45
1040
0.5
1002
}
  0
LINE
  5
FC5D
330
18
100
AcDbEntity
  8
01
  6
BYBLOCK
100
AcDbLine
 10
4902.63050935142
 20
1280.40433760401
 30
0.0000000001127424
 11
4900.03050935142
 21
1281.10100549801
 31
0.0000000001127424
  0
LINE
  5
FC5E
330
18
100
AcDbEntity
  8
01
  6
BYBLOCK
100
AcDbLine
 10
4900.03050935142
 20
1281.10100549801
 30
0.0000000001127424
 11
4902.63050935142
 21
1281.79767339201
 31
0.0000000001127424
  0
LINE
  5
FC5F
330
18
100
AcDbEntity
  8
01
  6
BYBLOCK
100
AcDbLine
 10
4900.03050935142
 20
1281.10100549801
 30
0.0000000001127424
 11
4902.63050935142
 21
1281.10100549801
 31
0.0000000001127424
  0
LINE
  5
FC60
330
18
100
AcDbEntity
  8
01
  6
BYBLOCK
100
AcDbLine
 10
4908.430509351419
 20
1281.79767339201
 30
0.0000000001127424
 11
4911.03050935142
 21
1281.10100549801
 31
0.0000000001127424
  0
LINE
  5
FC61
330
18
100
AcDbEntity
  8
01
  6
BYBLOCK
100
AcDbLine
 10
4911.03050935142
 20
1281.10100549801
 30
0.0000000001127424
 11
4908.430509351419
 21
1280.40433760401
 31
0.0000000001127424
  0
LINE
  5
FC62
330
18
100
AcDbEntity
  8
01
  6
BYBLOCK
100
AcDbLine
 10
4911.03050935142
 20
1281.10100549801
 30
0.0000000001127424
 11
4908.430509351419
 21
1281.10100549801
 31
0.0000000001127424
  0
TEXT
  5
FC63
330
18
100
AcDbEntity
  8
01
  6
CONTINUOUS
100
AcDbText
 10
4903.25550935142
 20
1282.01100549801
 30
0.0000000001127424
 40
4.55
  1
11
100
AcDbText
1001
ACAD
1000
DSTYLE
1002
{
1070
    40
1040
1.3
1070
    45
1040
0.5
1002
}
  0
LINE
  5
FC64
330
18
100
AcDbEntity
  8
01
  6
BYBLOCK
100
AcDbLine
 10
5006.33384145742
 20
1207.079513413322
 30
0.0000000001127424
 11
5007.03050935142
 21
1209.679513413322
 31
0.0000000001127424
  0
LINE
  5
FC65
330
18
100
AcDbEntity
  8
01
  6
BYBLOCK
100
AcDbLine
 10
5007.03050935142
 20
1209.679513413322
 30
0.0000000001127424
 11
5007.72717724542
 21
1207.079513413322
 31
0.0000000001127424
  0
LINE
  5
FC66
330
18
100
AcDbEntity
  8
01
  6
BYBLOCK
100
AcDbLine
 10
5007.03050935142
 20
1209.679513413322
 30
0.0000000001127424
 11
5007.03050935142
 21
1207.079513413322
 31
0.0000000001127424
  0
LINE
  5
FC67
330
18
100
AcDbEntity
  8
01
  6
BYBLOCK
100
AcDbLine
 10
5007.72717724542
 20
1138.279513413321
 30
0.0000000001127424
 11
5007.03050935142
 21
1135.679513413321
 31
0.0000000001127424
  0
LINE
  5
FC68
330
18
100
AcDbEntity
  8
01
  6
BYBLOCK
100
AcDbLine
 10
5007.03050935142
 20
1135.679513413321
 30
0.0000000001127424
 11
5006.33384145742
 21
1138.279513413321
 31
0.0000000001127424
  0
LINE
  5
FC69
330
18
100
AcDbEntity
  8
01
  6
BYBLOCK
100
AcDbLine
 10
5007.03050935142
 20
1135.679513413321
 30
0.0000000001127424
 11
5007.03050935142
 21
1138.279513413321
 31
0.0000000001127424
  0
TEXT
  5
FC6A
330
18
100
AcDbEntity
  8
01
  6
CONTINUOUS
100
AcDbText
 10
5006.120509351419
 20
1190.65085749934
 30
0.0000000001127424
 40
4.55
  1
74
 50
90.0
100
AcDbText
1001
ACAD
1000
DSTYLE
1002
{
1070
    40
1040
1.3
1070
    45
1040
0.5
1002
}
  0
LINE
  5
FC6B
330
18
100
AcDbEntity
  8
01
  6
BYBLOCK
100
AcDbLine
 10
4977.430509351419
 20
1291.877540860058
 30
0.0000000001127424
 11
4980.03050935142
 21
1291.180872966058
 31
0.0000000001127424
  0
LINE
  5
FC6C
330
18
100
AcDbEntity
  8
01
  6
BYBLOCK
100
AcDbLine
 10
4980.03050935142
 20
1291.180872966058
 30
0.0000000001127424
 11
4977.430509351419
 21
1290.484205072058
 31
0.0000000001127424
  0
LINE
  5
FC6D
330
18
100
AcDbEntity
  8
01
  6
BYBLOCK
100
AcDbLine
 10
4980.03050935142
 20
1291.180872966058
 30
0.0000000001127424
 11
4977.430509351419
 21
1291.180872966058
 31
0.0000000001127424
  0
LINE
  5
FC6E
330
18
100
AcDbEntity
  8
01
  6
BYBLOCK
100
AcDbLine
 10
4913.63050935142
 20
1290.484205072058
 30
0.0000000001127424
 11
4911.03050935142
 21
1291.180872966058
 31
0.0000000001127424
  0
LINE
  5
FC6F
330
18
100
AcDbEntity
  8
01
  6
BYBLOCK
100
AcDbLine
 10
4911.03050935142
 20
1291.180872966058
 30
0.0000000001127424
 11
4913.63050935142
 21
1291.877540860058
 31
0.0000000001127424
  0
LINE
  5
FC70
330
18
100
AcDbEntity
  8
01
  6
BYBLOCK
100
AcDbLine
 10
4911.03050935142
 20
1291.180872966058
 30
0.0000000001127424
 11
4913.63050935142
 21
1291.180872966058
 31
0.0000000001127424
  0
TEXT
  5
FC71
330
18
100
AcDbEntity
  8
01
  6
CONTINUOUS
100
AcDbText
 10
4941.721990832902
 20
1292.090872966058
 30
0.0000000001127424
 40
4.55
  1
69
100
AcDbText
1001
ACAD
1000
DSTYLE
1002
{
1070
    40
1040
1.3
1070
    45
1040
0.5
1002
}
  0
LINE
  5
FC72
330
18
100
AcDbEntity
  8
01
  6
BYBLOCK
100
AcDbLine
 10
4913.63050935142
 20
1280.40433760401
 30
0.0000000001127424
 11
4911.03050935142
 21
1281.10100549801
 31
0.0000000001127424
  0
LINE
  5
FC73
330
18
100
AcDbEntity
  8
01
  6
BYBLOCK
100
AcDbLine
 10
4911.03050935142
 20
1281.10100549801
 30
0.0000000001127424
 11
4913.63050935142
 21
1281.79767339201
 31
0.0000000001127424
  0
LINE
  5
FC74
330
18
100
AcDbEntity
  8
01
  6
BYBLOCK
100
AcDbLine
 10
4911.03050935142
 20
1281.10100549801
 30
0.0000000001127424
 11
4913.63050935142
 21
1281.10100549801
 31
0.0000000001127424
  0
LINE
  5
FC75
330
18
100
AcDbEntity
  8
01
  6
BYBLOCK
100
AcDbLine
 10
4959.430509351419
 20
1281.79767339201
 30
0.0000000001127424
 11
4962.03050935142
 21
1281.10100549801
 31
0.0000000001127424
  0
LINE
  5
FC76
330
18
100
AcDbEntity
  8
01
  6
BYBLOCK
100
AcDbLine
 10
4962.03050935142
 20
1281.10100549801
 30
0.0000000001127424
 11
4959.430509351419
 21
1280.40433760401
 31
0.0000000001127424
  0
LINE
  5
FC77
330
18
100
AcDbEntity
  8
01
  6
BYBLOCK
100
AcDbLine
 10
4962.03050935142
 20
1281.10100549801
 30
0.0000000001127424
 11
4959.430509351419
 21
1281.10100549801
 31
0.0000000001127424
  0
TEXT
  5
FC78
330
18
100
AcDbEntity
  8
01
  6
CONTINUOUS
100
AcDbText
 10
4933.481377406975
 20
1282.01100549801
 30
0.0000000001127424
 40
4.55
  1
51
100
AcDbText
1001
ACAD
1000
DSTYLE
1002
{
1070
    40
1040
1.3
1070
    45
1040
0.5
1002
}
  0
LINE
  5
FC79
330
18
100
AcDbEntity
  8
01
  6
BYBLOCK
100
AcDbLine
 10
4782.130625691165
 20
1280.404337604009
 30
0.0000000001127424
 11
4779.530625691164
 21
1281.101005498009
 31
0.0000000001127424
  0
LINE
  5
FC7A
330
18
100
AcDbEntity
  8
01
  6
BYBLOCK
100
AcDbLine
 10
4779.530625691164
 20
1281.101005498009
 30
0.0000000001127424
 11
4782.130625691165
 21
1281.79767339201
 31
0.0000000001127424
  0
LINE
  5
FC7B
330
18
100
AcDbEntity
  8
01
  6
BYBLOCK
100
AcDbLine
 10
4779.530625691164
 20
1281.101005498009
 30
0.0000000001127424
 11
4782.130625691165
 21
1281.101005498009
 31
0.0000000001127424
  0
LINE
  5
FC7C
330
18
100
AcDbEntity
  8
01
  6
BYBLOCK
100
AcDbLine
 10
4801.930625691164
 20
1281.79767339201
 30
0.0000000001127424
 11
4804.530625691164
 21
1281.101005498009
 31
0.0000000001127424
  0
LINE
  5
FC7D
330
18
100
AcDbEntity
  8
01
  6
BYBLOCK
100
AcDbLine
 10
4804.530625691164
 20
1281.101005498009
 30
0.0000000001127424
 11
4801.930625691164
 21
1280.404337604009
 31
0.0000000001127424
  0
LINE
  5
FC7E
330
18
100
AcDbEntity
  8
01
  6
BYBLOCK
100
AcDbLine
 10
4804.530625691164
 20
1281.101005498009
 30
0.0000000001127424
 11
4801.930625691164
 21
1281.101005498009
 31
0.0000000001127424
  0
TEXT
  5
FC7F
330
18
100
AcDbEntity
  8
01
  6
CONTINUOUS
100
AcDbText
 10
4788.238959024497
 20
1282.01100549801
 30
0.0000000001127424
 40
4.55
  1
25
100
AcDbText
1001
ACAD
1000
DSTYLE
1002
{
1070
    40
1040
1.3
1070
    45
1040
0.5
1002
}
  0
LINE
  5
FC80
330
18
100
AcDbEntity
  8
01
  6
BYBLOCK
100
AcDbLine
 10
4876.122028568609
 20
1227.079958557738
 30
0.0000000001691137
 11
4876.818696462608
 21
1229.679958557738
 31
0.0000000001691137
  0
LINE
  5
FC81
330
18
100
AcDbEntity
  8
01
  6
BYBLOCK
100
AcDbLine
 10
4876.818696462608
 20
1229.679958557738
 30
0.0000000001691137
 11
4877.515364356608
 21
1227.079958557738
 31
0.0000000001691137
  0
LINE
  5
FC82
330
18
100
AcDbEntity
  8
01
  6
BYBLOCK
100
AcDbLine
 10
4876.818696462608
 20
1229.679958557738
 30
0.0000000001691137
 11
4876.818696462608
 21
1227.079958557738
 31
0.0000000001691137
  0
LINE
  5
FC83
330
18
100
AcDbEntity
  8
01
  6
BYBLOCK
100
AcDbLine
 10
4877.515364356608
 20
1118.279958557737
 30
0.0000000001691137
 11
4876.818696462608
 21
1115.679958557738
 31
0.0000000001691137
  0
LINE
  5
FC84
330
18
100
AcDbEntity
  8
01
  6
BYBLOCK
100
AcDbLine
 10
4876.818696462608
 20
1115.679958557738
 30
0.0000000001691137
 11
4876.122028568609
 21
1118.279958557737
 31
0.0000000001691137
  0
LINE
  5
FC85
330
18
100
AcDbEntity
  8
01
  6
BYBLOCK
100
AcDbLine
 10
4876.818696462608
 20
1115.679958557738
 30
0.0000000001691137
 11
4876.818696462608
 21
1118.279958557737
 31
0.0000000001691137
  0
TEXT
  5
FC86
330
18
100
AcDbEntity
  8
01
  6
CONTINUOUS
100
AcDbText
 10
4875.908696462608
 20
1197.262980905659
 30
0.0000000001691137
 40
4.55
  1
114
 50
90.0
100
AcDbText
1001
ACAD
1000
DSTYLE
1002
{
1070
    40
1040
1.3
1070
    45
1040
0.5
1002
}
  0
LINE
  5
FC87
330
18
100
AcDbEntity
  8
01
  6
BYBLOCK
100
AcDbLine
 10
4885.486362734833
 20
1234.979513413321
 30
0.0000000001691137
 11
4886.183030628833
 21
1237.579513413321
 31
0.0000000001691137
  0
LINE
  5
FC88
330
18
100
AcDbEntity
  8
01
  6
BYBLOCK
100
AcDbLine
 10
4886.183030628833
 20
1237.579513413321
 30
0.0000000001691137
 11
4886.879698522833
 21
1234.979513413321
 31
0.0000000001691137
  0
LINE
  5
FC89
330
18
100
AcDbEntity
  8
01
  6
BYBLOCK
100
AcDbLine
 10
4886.183030628833
 20
1237.579513413321
 30
0.0000000001691137
 11
4886.183030628833
 21
1234.979513413321
 31
0.0000000001691137
  0
LINE
  5
FC8A
330
18
100
AcDbEntity
  8
01
  6
BYBLOCK
100
AcDbLine
 10
4886.879698522833
 20
1110.379958557738
 30
0.0000000001691137
 11
4886.183030628833
 21
1107.779958557738
 31
0.0000000001691137
  0
LINE
  5
FC8B
330
18
100
AcDbEntity
  8
01
  6
BYBLOCK
100
AcDbLine
 10
4886.183030628833
 20
1107.779958557738
 30
0.0000000001691137
 11
4885.486362734833
 21
1110.379958557738
 31
0.0000000001691137
  0
LINE
  5
FC8C
330
18
100
AcDbEntity
  8
01
  6
BYBLOCK
100
AcDbLine
 10
4886.183030628833
 20
1107.779958557738
 30
0.0000000001691137
 11
4886.183030628833
 21
1110.379958557738
 31
0.0000000001691137
  0
TEXT
  5
FC8D
330
18
100
AcDbEntity
  8
01
  6
CONTINUOUS
100
AcDbText
 10
4885.273030628833
 20
1196.478416902852
 30
0.0000000001691137
 40
4.55
  1
130
 50
90.0
100
AcDbText
1001
ACAD
1000
DSTYLE
1002
{
1070
    40
1040
1.3
1070
    45
1040
0.5
1002
}
  0
LINE
  5
FC8E
330
18
100
AcDbEntity
  8
01
  6
BYBLOCK
100
AcDbLine
 10
4926.33384145742
 20
1174.079513413322
 30
0.0000000001127424
 11
4927.03050935142
 21
1176.679513413322
 31
0.0000000001127424
  0
LINE
  5
FC8F
330
18
100
AcDbEntity
  8
01
  6
BYBLOCK
100
AcDbLine
 10
4927.03050935142
 20
1176.679513413322
 30
0.0000000001127424
 11
4927.72717724542
 21
1174.079513413322
 31
0.0000000001127424
  0
LINE
  5
FC90
330
18
100
AcDbEntity
  8
01
  6
BYBLOCK
100
AcDbLine
 10
4927.03050935142
 20
1176.679513413322
 30
0.0000000001127424
 11
4927.03050935142
 21
1174.079513413322
 31
0.0000000001127424
  0
LINE
  5
FC91
330
18
100
AcDbEntity
  8
01
  6
BYBLOCK
100
AcDbLine
 10
4927.72717724542
 20
1129.279513413323
 30
0.0000000001127424
 11
4927.03050935142
 21
1126.679513413323
 31
0.0000000001127424
  0
LINE
  5
FC92
330
18
100
AcDbEntity
  8
01
  6
BYBLOCK
100
AcDbLine
 10
4927.03050935142
 20
1126.679513413323
 30
0.0000000001127424
 11
4926.33384145742
 21
1129.279513413323
 31
0.0000000001127424
  0
LINE
  5
FC93
330
18
100
AcDbEntity
  8
01
  6
BYBLOCK
100
AcDbLine
 10
4927.03050935142
 20
1126.679513413323
 30
0.0000000001127424
 11
4927.03050935142
 21
1129.279513413323
 31
0.0000000001127424
  0
TEXT
  5
FC94
330
18
100
AcDbEntity
  8
01
  6
CONTINUOUS
100
AcDbText
 10
4926.12050935142
 20
1143.480010506722
 30
0.0000000001127424
 40
4.55
  1
φ50
 50
90.0
100
AcDbText
1001
ACAD
1000
DSTYLE
1002
{
1070
     3
1000
φ<>
1070
    40
1040
1.3
1070
    45
1040
0.5
1002
}
  0
SOLID
  5
FC95
330
18
100
AcDbEntity
  8
1DIM
100
AcDbTrace
 10
4959.493025449908
 20
1375.454911341241
 30
0.0000000001127424
 11
4961.77111059148
 21
1376.780847186418
 31
0.0000000001127424
 12
4960.046198434375
 22
1374.787745124795
 32
0.0000000001127424
 13
4960.046198434375
 23
1374.787745124795
 33
0.0000000001127424
1001
ACAD
1000
DSTYLE
1002
{
1070
    40
1040
1.3
1070
    45
1040
0.5
1002
}
  0
LINE
  5
FC96
330
18
100
AcDbEntity
  8
1DIM
100
AcDbLine
 10
4959.769611942142
 20
1375.121328233018
 30
0.0000000001127424
 11
4918.517006745398
 21
1340.917218115964
 31
0.0000000001127424
1001
ACAD
1000
DSTYLE
1002
{
1070
    40
1040
1.3
1070
    45
1040
0.5
1002
}
  0
LINE
  5
FC97
330
18
100
AcDbEntity
  8
1DIM
100
AcDbLine
 10
4978.431393533479
 20
1431.179513412293
 30
0.0000000001127424
 11
4998.991784293193
 21
1431.179513412293
 31
0.0000000001127424
1001
ACAD
1000
DSTYLE
1002
{
1070
    45
1040
0.5
1070
    40
1040
1.3
1002
}
  0
LINE
  5
FC98
330
18
100
AcDbEntity
  8
1DIM
100
AcDbLine
 10
4980.03139353348
 20
1412.379513412293
 30
0.0000000001127424
 11
4998.991784293193
 21
1412.379513412293
 31
0.0000000001127424
1001
ACAD
1000
DSTYLE
1002
{
1070
    45
1040
0.5
1070
    40
1040
1.3
1002
}
  0
LINE
  5
FC99
330
18
100
AcDbEntity
  8
1DIM
100
AcDbLine
 10
4997.691784293193
 20
1428.579513412293
 30
0.0000000001127424
 11
4997.691784293193
 21
1414.979513412293
 31
0.0000000001127424
1001
ACAD
1000
DSTYLE
1002
{
1070
    45
1040
0.5
1070
    40
1040
1.3
1002
}
  0
LINE
  5
FC9D
330
18
100
AcDbEntity
  8
1DIM
100
AcDbLine
 10
4962.03050935142
 20
1380.178195100219
 30
0.0000000001127424
 11
4962.03050935142
 21
1315.378195100219
 31
0.0000000001127424
1001
ACAD
1000
DSTYLE
1002
{
1070
    40
1040
1.3
1070
    45
1040
0.5
1002
}
  0
LINE
  5
FC9E
330
18
100
AcDbEntity
  8
1DIM
100
AcDbLine
 10
5087.03050935142
 20
1341.978195100219
 30
0.0000000001127424
 11
5087.03050935142
 21
1315.378195100219
 31
0.0000000001127424
1001
ACAD
1000
DSTYLE
1002
{
1070
    40
1040
1.3
1070
    45
1040
0.5
1002
}
  0
LINE
  5
FC9F
330
18
100
AcDbEntity
  8
1DIM
100
AcDbLine
 10
4964.63050935142
 20
1316.678195100219
 30
0.0000000001127424
 11
5084.430509351419
 21
1316.678195100219
 31
0.0000000001127424
1001
ACAD
1000
DSTYLE
1002
{
1070
    40
1040
1.3
1070
    45
1040
0.5
1002
}
  0
LINE
  5
FCA3
330
18
100
AcDbEntity
  8
1DIM
100
AcDbLine
 10
4931.03050935142
 20
1400.478195100219
 30
0.0000000001127424
 11
4931.03050935142
 21
1305.378195100219
 31
0.0000000001127424
1001
ACAD
1000
DSTYLE
1002
{
1070
    40
1040
1.3
1070
    45
1040
0.5
1002
}
  0
LINE
  5
FCA4
330
18
100
AcDbEntity
  8
1DIM
100
AcDbLine
 10
5087.03050935142
 20
1341.978195100219
 30
0.0000000001127424
 11
5087.03050935142
 21
1305.378195100219
 31
0.0000000001127424
1001
ACAD
1000
DSTYLE
1002
{
1070
    40
1040
1.3
1070
    45
1040
0.5
1002
}
  0
LINE
  5
FCA5
330
18
100
AcDbEntity
  8
1DIM
100
AcDbLine
 10
4933.63050935142
 20
1306.678195100219
 30
0.0000000001127424
 11
5084.430509351419
 21
1306.678195100219
 31
0.0000000001127424
1001
ACAD
1000
DSTYLE
1002
{
1070
    40
1040
1.3
1070
    45
1040
0.5
1002
}
  0
LINE
  5
FCA9
330
18
100
AcDbEntity
  8
1DIM
100
AcDbLine
 10
5085.03050935142
 20
1363.978195100219
 30
0.0000000001127424
 11
5118.33050935142
 21
1363.978195100219
 31
0.0000000001127424
1001
ACAD
1000
DSTYLE
1002
{
1070
    40
1040
1.3
1070
    45
1040
0.5
1002
}
  0
LINE
  5
FCAA
330
18
100
AcDbEntity
  8
1DIM
100
AcDbLine
 10
5064.785657348768
 20
1401.678195100219
 30
0.0000000001127424
 11
5118.33050935142
 21
1401.678195100219
 31
0.0000000001127424
1001
ACAD
1000
DSTYLE
1002
{
1070
    40
1040
1.3
1070
    45
1040
0.5
1002
}
  0
LINE
  5
FCAB
330
18
100
AcDbEntity
  8
1DIM
100
AcDbLine
 10
5117.03050935142
 20
1366.578195100219
 30
0.0000000001127424
 11
5117.03050935142
 21
1399.078195100219
 31
0.0000000001127424
1001
ACAD
1000
DSTYLE
1002
{
1070
    40
1040
1.3
1070
    45
1040
0.5
1002
}
  0
LINE
  5
FCAF
330
18
100
AcDbEntity
  8
1DIM
100
AcDbLine
 10
5085.03050935142
 20
1339.978195100219
 30
0.0000000001127424
 11
5128.33050935142
 21
1339.978195100219
 31
0.0000000001127424
1001
ACAD
1000
DSTYLE
1002
{
1070
    40
1040
1.3
1070
    45
1040
0.5
1002
}
  0
LINE
  5
FCB0
330
18
100
AcDbEntity
  8
1DIM
100
AcDbLine
 10
5064.785657348768
 20
1401.678195100219
 30
0.0000000001127424
 11
5128.33050935142
 21
1401.678195100219
 31
0.0000000001127424
1001
ACAD
1000
DSTYLE
1002
{
1070
    40
1040
1.3
1070
    45
1040
0.5
1002
}
  0
LINE
  5
FCB1
330
18
100
AcDbEntity
  8
1DIM
100
AcDbLine
 10
5127.03050935142
 20
1342.578195100219
 30
0.0000000001127424
 11
5127.03050935142
 21
1399.078195100219
 31
0.0000000001127424
1001
ACAD
1000
DSTYLE
1002
{
1070
    40
1040
1.3
1070
    45
1040
0.5
1002
}
  0
LINE
  5
FCB5
330
18
100
AcDbEntity
  8
1DIM
100
AcDbLine
 10
5086.03050935142
 20
1145.179513413321
 30
0.0000000001127424
 11
5118.33050935142
 21
1145.179513413321
 31
0.0000000001127424
1001
ACAD
1000
DSTYLE
1002
{
1070
    40
1040
1.3
1070
    45
1040
0.5
1002
}
  0
LINE
  5
FCB6
330
18
100
AcDbEntity
  8
1DIM
100
AcDbLine
 10
5086.03050935142
 20
1158.179513413321
 30
0.0000000001127424
 11
5118.33050935142
 21
1158.179513413321
 31
0.0000000001127424
1001
ACAD
1000
DSTYLE
1002
{
1070
    40
1040
1.3
1070
    45
1040
0.5
1002
}
  0
LINE
  5
FCB7
330
18
100
AcDbEntity
  8
1DIM
100
AcDbLine
 10
5117.03050935142
 20
1147.779513413321
 30
0.0000000001127424
 11
5117.03050935142
 21
1155.579513413321
 31
0.0000000001127424
1001
ACAD
1000
DSTYLE
1002
{
1070
    40
1040
1.3
1070
    45
1040
0.5
1002
}
  0
LINE
  5
FCBB
330
18
100
AcDbEntity
  8
0
  6
BYBLOCK
100
AcDbLine
 10
4996.995116399193
 20
1428.579513412293
 30
0.0000000001127424
 11
4997.691784293193
 21
1431.179513412293
 31
0.0000000001127424
  0
LINE
  5
FCBC
330
18
100
AcDbEntity
  8
0
  6
BYBLOCK
100
AcDbLine
 10
4997.691784293193
 20
1431.179513412293
 30
0.0000000001127424
 11
4998.388452187192
 21
1428.579513412293
 31
0.0000000001127424
  0
LINE
  5
FCBD
330
18
100
AcDbEntity
  8
0
  6
BYBLOCK
100
AcDbLine
 10
4997.691784293193
 20
1431.179513412293
 30
0.0000000001127424
 11
4997.691784293193
 21
1428.579513412293
 31
0.0000000001127424
  0
LINE
  5
FCBE
330
18
100
AcDbEntity
  8
0
  6
BYBLOCK
100
AcDbLine
 10
4998.388452187192
 20
1414.979513412293
 30
0.0000000001127424
 11
4997.691784293193
 21
1412.379513412293
 31
0.0000000001127424
  0
LINE
  5
FCBF
330
18
100
AcDbEntity
  8
0
  6
BYBLOCK
100
AcDbLine
 10
4997.691784293193
 20
1412.379513412293
 30
0.0000000001127424
 11
4996.995116399193
 21
1414.979513412293
 31
0.0000000001127424
  0
LINE
  5
FCC0
330
18
100
AcDbEntity
  8
0
  6
BYBLOCK
100
AcDbLine
 10
4997.691784293193
 20
1412.379513412293
 30
0.0000000001127424
 11
4997.691784293193
 21
1414.979513412293
 31
0.0000000001127424
  0
TEXT
  5
FCC1
330
18
100
AcDbEntity
  8
1DIM
  6
CONTINUOUS
100
AcDbText
 10
4996.781784293192
 20
1418.745126838219
 30
0.0000000001127424
 40
4.55
  1
19
 50
90.0
100
AcDbText
1001
ACAD
1000
DSTYLE
1002
{
1070
    45
1040
0.5
1070
    40
1040
1.3
1002
}
  0
LINE
  5
FCC2
330
18
100
AcDbEntity
  8
0
  6
BYBLOCK
100
AcDbLine
 10
4964.63050935142
 20
1315.981527206219
 30
0.0000000001127424
 11
4962.03050935142
 21
1316.678195100219
 31
0.0000000001127424
  0
LINE
  5
FCC3
330
18
100
AcDbEntity
  8
0
  6
BYBLOCK
100
AcDbLine
 10
4962.03050935142
 20
1316.678195100219
 30
0.0000000001127424
 11
4964.63050935142
 21
1317.374862994219
 31
0.0000000001127424
  0
LINE
  5
FCC4
330
18
100
AcDbEntity
  8
0
  6
BYBLOCK
100
AcDbLine
 10
4962.03050935142
 20
1316.678195100219
 30
0.0000000001127424
 11
4964.63050935142
 21
1316.678195100219
 31
0.0000000001127424
  0
LINE
  5
FCC5
330
18
100
AcDbEntity
  8
0
  6
BYBLOCK
100
AcDbLine
 10
5084.430509351419
 20
1317.374862994219
 30
0.0000000001127424
 11
5087.03050935142
 21
1316.678195100219
 31
0.0000000001127424
  0
LINE
  5
FCC6
330
18
100
AcDbEntity
  8
0
  6
BYBLOCK
100
AcDbLine
 10
5087.03050935142
 20
1316.678195100219
 30
0.0000000001127424
 11
5084.430509351419
 21
1315.981527206219
 31
0.0000000001127424
  0
LINE
  5
FCC7
330
18
100
AcDbEntity
  8
0
  6
BYBLOCK
100
AcDbLine
 10
5087.03050935142
 20
1316.678195100219
 30
0.0000000001127424
 11
5084.430509351419
 21
1316.678195100219
 31
0.0000000001127424
  0
TEXT
  5
FCC8
330
18
100
AcDbEntity
  8
1DIM
  6
CONTINUOUS
100
AcDbText
 10
5019.222176018086
 20
1317.588195100219
 30
0.0000000001127424
 40
4.55
  1
125
100
AcDbText
1001
ACAD
1000
DSTYLE
1002
{
1070
    40
1040
1.3
1070
    45
1040
0.5
1002
}
  0
LINE
  5
FCC9
330
18
100
AcDbEntity
  8
0
  6
BYBLOCK
100
AcDbLine
 10
4933.63050935142
 20
1305.981527206219
 30
0.0000000001127424
 11
4931.03050935142
 21
1306.678195100219
 31
0.0000000001127424
  0
LINE
  5
FCCA
330
18
100
AcDbEntity
  8
0
  6
BYBLOCK
100
AcDbLine
 10
4931.03050935142
 20
1306.678195100219
 30
0.0000000001127424
 11
4933.63050935142
 21
1307.374862994219
 31
0.0000000001127424
  0
LINE
  5
FCCB
330
18
100
AcDbEntity
  8
0
  6
BYBLOCK
100
AcDbLine
 10
4931.03050935142
 20
1306.678195100219
 30
0.0000000001127424
 11
4933.63050935142
 21
1306.678195100219
 31
0.0000000001127424
  0
LINE
  5
FCCC
330
18
100
AcDbEntity
  8
0
  6
BYBLOCK
100
AcDbLine
 10
5084.430509351419
 20
1307.374862994219
 30
0.0000000001127424
 11
5087.03050935142
 21
1306.678195100219
 31
0.0000000001127424
  0
LINE
  5
FCCD
330
18
100
AcDbEntity
  8
0
  6
BYBLOCK
100
AcDbLine
 10
5087.03050935142
 20
1306.678195100219
 30
0.0000000001127424
 11
5084.430509351419
 21
1305.981527206219
 31
0.0000000001127424
  0
LINE
  5
FCCE
330
18
100
AcDbEntity
  8
0
  6
BYBLOCK
100
AcDbLine
 10
5087.03050935142
 20
1306.678195100219
 30
0.0000000001127424
 11
5084.430509351419
 21
1306.678195100219
 31
0.0000000001127424
  0
TEXT
  5
FCCF
330
18
100
AcDbEntity
  8
1DIM
  6
CONTINUOUS
100
AcDbText
 10
5003.706377406976
 20
1307.588195100219
 30
0.0000000001127424
 40
4.55
  1
156
100
AcDbText
1001
ACAD
1000
DSTYLE
1002
{
1070
    40
1040
1.3
1070
    45
1040
0.5
1002
}
  0
LINE
  5
FCD0
330
18
100
AcDbEntity
  8
0
  6
BYBLOCK
100
AcDbLine
 10
5117.72717724542
 20
1366.578195100219
 30
0.0000000001127424
 11
5117.03050935142
 21
1363.978195100219
 31
0.0000000001127424
  0
LINE
  5
FCD1
330
18
100
AcDbEntity
  8
0
  6
BYBLOCK
100
AcDbLine
 10
5117.03050935142
 20
1363.978195100219
 30
0.0000000001127424
 11
5116.33384145742
 21
1366.578195100219
 31
0.0000000001127424
  0
LINE
  5
FCD2
330
18
100
AcDbEntity
  8
0
  6
BYBLOCK
100
AcDbLine
 10
5117.03050935142
 20
1363.978195100219
 30
0.0000000001127424
 11
5117.03050935142
 21
1366.578195100219
 31
0.0000000001127424
  0
LINE
  5
FCD3
330
18
100
AcDbEntity
  8
0
  6
BYBLOCK
100
AcDbLine
 10
5116.33384145742
 20
1399.078195100219
 30
0.0000000001127424
 11
5117.03050935142
 21
1401.678195100219
 31
0.0000000001127424
  0
LINE
  5
FCD4
330
18
100
AcDbEntity
  8
0
  6
BYBLOCK
100
AcDbLine
 10
5117.03050935142
 20
1401.678195100219
 30
0.0000000001127424
 11
5117.72717724542
 21
1399.078195100219
 31
0.0000000001127424
  0
LINE
  5
FCD5
330
18
100
AcDbEntity
  8
0
  6
BYBLOCK
100
AcDbLine
 10
5117.03050935142
 20
1401.678195100219
 30
0.0000000001127424
 11
5117.03050935142
 21
1399.078195100219
 31
0.0000000001127424
  0
TEXT
  5
FCD6
330
18
100
AcDbEntity
  8
1DIM
  6
CONTINUOUS
100
AcDbText
 10
5116.12050935142
 20
1376.00319510022
 30
0.0000000001127424
 40
4.55
  1
37.5
 50
90.0
100
AcDbText
1001
ACAD
1000
DSTYLE
1002
{
1070
    40
1040
1.3
1070
    45
1040
0.5
1002
}
  0
LINE
  5
FCD7
330
18
100
AcDbEntity
  8
0
  6
BYBLOCK
100
AcDbLine
 10
5127.72717724542
 20
1342.578195100219
 30
0.0000000001127424
 11
5127.03050935142
 21
1339.978195100219
 31
0.0000000001127424
  0
LINE
  5
FCD8
330
18
100
AcDbEntity
  8
0
  6
BYBLOCK
100
AcDbLine
 10
5127.03050935142
 20
1339.978195100219
 30
0.0000000001127424
 11
5126.33384145742
 21
1342.578195100219
 31
0.0000000001127424
  0
LINE
  5
FCD9
330
18
100
AcDbEntity
  8
0
  6
BYBLOCK
100
AcDbLine
 10
5127.03050935142
 20
1339.978195100219
 30
0.0000000001127424
 11
5127.03050935142
 21
1342.578195100219
 31
0.0000000001127424
  0
LINE
  5
FCDA
330
18
100
AcDbEntity
  8
0
  6
BYBLOCK
100
AcDbLine
 10
5126.33384145742
 20
1399.078195100219
 30
0.0000000001127424
 11
5127.03050935142
 21
1401.678195100219
 31
0.0000000001127424
  0
LINE
  5
FCDB
330
18
100
AcDbEntity
  8
0
  6
BYBLOCK
100
AcDbLine
 10
5127.03050935142
 20
1401.678195100219
 30
0.0000000001127424
 11
5127.72717724542
 21
1399.078195100219
 31
0.0000000001127424
  0
LINE
  5
FCDC
330
18
100
AcDbEntity
  8
0
  6
BYBLOCK
100
AcDbLine
 10
5127.03050935142
 20
1401.678195100219
 30
0.0000000001127424
 11
5127.03050935142
 21
1399.078195100219
 31
0.0000000001127424
  0
TEXT
  5
FCDD
330
18
100
AcDbEntity
  8
1DIM
  6
CONTINUOUS
100
AcDbText
 10
5126.12050935142
 20
1364.745729822443
 30
0.0000000001127424
 40
4.55
  1
61.5
 50
90.0
100
AcDbText
1001
ACAD
1000
DSTYLE
1002
{
1070
    40
1040
1.3
1070
    45
1040
0.5
1002
}
  0
LINE
  5
FCDE
330
18
100
AcDbEntity
  8
0
  6
BYBLOCK
100
AcDbLine
 10
5117.72717724542
 20
1147.779513413321
 30
0.0000000001127424
 11
5117.03050935142
 21
1145.179513413321
 31
0.0000000001127424
  0
LINE
  5
FCDF
330
18
100
AcDbEntity
  8
0
  6
BYBLOCK
100
AcDbLine
 10
5117.03050935142
 20
1145.179513413321
 30
0.0000000001127424
 11
5116.33384145742
 21
1147.779513413321
 31
0.0000000001127424
  0
LINE
  5
FCE0
330
18
100
AcDbEntity
  8
0
  6
BYBLOCK
100
AcDbLine
 10
5117.03050935142
 20
1145.179513413321
 30
0.0000000001127424
 11
5117.03050935142
 21
1147.779513413321
 31
0.0000000001127424
  0
LINE
  5
FCE1
330
18
100
AcDbEntity
  8
0
  6
BYBLOCK
100
AcDbLine
 10
5116.33384145742
 20
1155.579513413321
 30
0.0000000001127424
 11
5117.03050935142
 21
1158.179513413321
 31
0.0000000001127424
  0
LINE
  5
FCE2
330
18
100
AcDbEntity
  8
0
  6
BYBLOCK
100
AcDbLine
 10
5117.03050935142
 20
1158.179513413321
 30
0.0000000001127424
 11
5117.72717724542
 21
1155.579513413321
 31
0.0000000001127424
  0
LINE
  5
FCE3
330
18
100
AcDbEntity
  8
0
  6
BYBLOCK
100
AcDbLine
 10
5117.03050935142
 20
1158.179513413321
 30
0.0000000001127424
 11
5117.03050935142
 21
1155.579513413321
 31
0.0000000001127424
  0
TEXT
  5
FCE4
330
18
100
AcDbEntity
  8
1DIM
  6
CONTINUOUS
100
AcDbText
 10
5116.120509351419
 20
1148.646180079988
 30
0.0000000001127424
 40
4.55
  1
13
 50
90.0
100
AcDbText
1001
ACAD
1000
DSTYLE
1002
{
1070
    40
1040
1.3
1070
    45
1040
0.5
1002
}
  0
VIEWPORT
  5
57
330
15
100
AcDbEntity
 67
     1
  8
0
100
AcDbViewport
 68
     1
 10
0.0
 20
0.0
 30
0.0
 40
555.8298653610772
 41
297.0
 68
     1
 69
     1
1001
ACAD
1000
MVIEW
1002
{
1070
    16
1010
0.0
1020
0.0
1030
0.0
1010
0.0
1020
0.0
1030
1.0
1040
0.0
1040
297.0
1040
5.728000000000009
1040
25.339
1040
50.0
1040
0.0
1040
0.0
1070
    16
1070
   100
1070
     0
1070
     1
1070
     0
1070
     0
1070
     0
1070
     0
1040
0.0
1040
0.0
1040
0.0
1040
10.0
1040
10.0
1040
10.0
1040
10.0
1070
     0
1002
{
1002
}
1002
}
  0
ENDSEC
  0
SECTION
  2
OBJECTS
  0
DICTIONARY
  5
C
330
0
100
AcDbDictionary
  3
ACAD_CIP_PREVIOUS_PRODUCT_INFO
350
AEA8
  3
ACAD_COLOR
350
18D
  3
ACAD_GROUP
350
D
  3
ACAD_LAYOUT
350
18E
  3
ACAD_MATERIAL
350
18C
  3
ACAD_MLEADERSTYLE
350
9583
  3
ACAD_MLINESTYLE
350
1B
  3
ACAD_PLOTSETTINGS
350
18F
  3
ACAD_SCALELIST
350
9561
  3
ACAD_VISUALSTYLE
350
9550
  3
ACDBHEADERROUNDTRIPXREC
350
FCE5
  3
ACDBVARIABLEDICTIONARY
350
37
  3
CONTENTDICTIONARY
350
D8
  3
DRAWINGVARIABLESDICT
350
20
  3
DWGPROPS
350
FCE8
1001
ACAD
1000
TREAT_AS_HARD
1070
     0
  0
DICTIONARY
  5
96D9
330
2
100
AcDbDictionary
  3
ACAD_LAYERSTATES
360
96DA
1001
ACAD
1000
TREAT_AS_HARD
1070
     1
  0
DICTIONARY
  5
9593
330
E
100
AcDbDictionary
  3
ADSK_XREC_LAYER_RECONCILED
360
9594
1001
ACAD
1000
TREAT_AS_HARD
1070
     1
  0
DICTIONARY
  5
9595
330
29
100
AcDbDictionary
  3
ADSK_XREC_LAYER_RECONCILED
360
9596
1001
ACAD
1000
TREAT_AS_HARD
1070
     1
  0
DICTIONARY
  5
9597
330
31
100
AcDbDictionary
  3
ADSK_XREC_LAYER_RECONCILED
360
9598
1001
ACAD
1000
TREAT_AS_HARD
1070
     1
  0
DICTIONARY
  5
959D
330
243
100
AcDbDictionary
  3
ADSK_XREC_LAYER_RECONCILED
360
959E
1001
ACAD
1000
TREAT_AS_HARD
1070
     1
  0
DICTIONARY
  5
95A3
330
24E
100
AcDbDictionary
  3
ADSK_XREC_LAYER_RECONCILED
360
95A4
1001
ACAD
1000
TREAT_AS_HARD
1070
     1
  0
DICTIONARY
  5
88F
330
18
100
AcDbDictionary
  3
ACAD_SORTENTS
360
890
1001
ACAD
1000
TREAT_AS_HARD
1070
     1
  0
XRECORD
  5
AEA8
102
{ACAD_REACTORS
330
C
102
}
330
C
100
AcDbXrecord
300
ACDLT
300
2012
300
ACDLT_F_S
  0
DICTIONARY
  5
18D
102
{ACAD_REACTORS
330
C
102
}
330
C
100
AcDbDictionary
1001
ACAD
1000
TREAT_AS_HARD
1070
     0
  0
DICTIONARY
  5
D
102
{ACAD_REACTORS
330
C
102
}
330
C
100
AcDbDictionary
1001
ACAD
1000
TREAT_AS_HARD
1070
     0
  0
DICTIONARY
  5
18E
102
{ACAD_REACTORS
330
C
102
}
330
C
100
AcDbDictionary
1001
ACAD
1000
TREAT_AS_HARD
1070
     0
  0
DICTIONARY
  5
18C
102
{ACAD_REACTORS
330
C
102
}
330
C
100
AcDbDictionary
  3
BYBLOCK
350
9540
  3
BYLAYER
350
9538
  3
GLOBAL
350
9548
1001
ACAD
1000
TREAT_AS_HARD
1070
     0
  0
DICTIONARY
  5
9583
102
{ACAD_REACTORS
330
C
102
}
330
C
100
AcDbDictionary
  3
STANDARD
350
9584
1001
ACAD
1000
TREAT_AS_HARD
1070
     0
  0
DICTIONARY
  5
1B
102
{ACAD_REACTORS
330
C
102
}
330
C
100
AcDbDictionary
  3
STANDARD
350
1C
1001
ACAD
1000
TREAT_AS_HARD
1070
     0
  0
DICTIONARY
  5
18F
102
{ACAD_REACTORS
330
C
102
}
330
C
100
AcDbDictionary
1001
ACAD
1000
TREAT_AS_HARD
1070
     0
  0
DICTIONARY
  5
9561
102
{ACAD_REACTORS
330
C
102
}
330
C
100
AcDbDictionary
  3
A0
350
9562
  3
A1
350
9563
  3
A2
350
9564
  3
A3
350
9565
  3
A4
350
9566
  3
A5
350
9567
  3
A6
350
9568
  3
A7
350
9569
  3
A8
350
956A
  3
A9
350
956B
  3
B0
350
956C
  3
B1
350
956D
  3
B2
350
956E
  3
B3
350
956F
  3
B4
350
9570
  3
B5
350
9571
  3
B6
350
9572
  3
B7
350
9573
  3
B8
350
9574
  3
B9
350
9575
  3
C0
350
9576
  3
C1
350
9577
  3
C2
350
9578
  3
C3
350
9579
  3
C4
350
957A
  3
C5
350
957B
  3
C6
350
957C
  3
C7
350
957D
  3
C8
350
957E
  3
C9
350
957F
  3
D0
350
9580
  3
D1
350
9581
  3
D2
350
9582
1001
ACAD
1000
TREAT_AS_HARD
1070
     0
  0
DICTIONARY
  5
9550
102
{ACAD_REACTORS
330
C
102
}
330
C
100
AcDbDictionary
  3
2DWIREFRAME
350
9556
  3
3D_HIDDEN
350
9558
  3
3DWIREFRAME
350
9557
  3
BASIC
350
9555
  3
BRIGHTEN
350
955C
  3
COLORCHANGE
350
9560
  3
CONCEPTUAL
350
9559
  3
DIM
350
955B
  3
EDGECOLOROFF
350
A211
  3
FACEPATTERN
350
955F
  3
FLAT
350
9551
  3
FLATWITHEDGES
350
9552
  3
GOURAUD
350
9553
  3
GOURAUDWITHEDGES
350
9554
  3
HIDDEN
350
A260
  3
JITTEROFF
350
A20F
  3
LINEPATTERN
350
955E
  3
MODELING
350
A266
  3
OVERHANGOFF
350
A210
  3
REALISTIC
350
955A
  3
SHADED
350
A265
  3
SHADED_WITH_EDGES
350
A264
  3
SHADES_OF_GRAY
350
A261
  3
SKETCHY
350
A262
  3
THICKEN
350
955D
  3
WIREFRAME
350
A25F
  3
X-RAY
350
A263
1001
ACAD
1000
TREAT_AS_HARD
1070
     0
  0
DICTIONARY
  5
FCE5
102
{ACAD_REACTORS
330
C
102
}
330
C
100
AcDbDictionary
  3
COLORDICT
350
FCE6
  3
MATERIALDICT
350
FCE7
1001
ACAD
1000
TREAT_AS_HARD
1070
     0
  0
DICTIONARY
  5
37
102
{ACAD_REACTORS
330
C
102
}
330
C
100
AcDbDictionary
  3
CANNOSCALE
350
AAE0
  3
CMLEADERSTYLE
350
9627
  3
CTABLESTYLE
350
29E
  3
DIMADEC
350
38
  3
DIMASSOC
350
1CE
  3
HIDETEXT
350
704E
  3
INDEXCTL
350
962A
  3
INTERSECTIONCOLOR
350
7052
  3
INTERSECTIONDISPLAY
350
7051
  3
MSLTSCALE
350
AB30
  3
OBSCOLOR
350
704F
  3
OBSLTYPE
350
7050
  3
PROJECTNAME
350
1CF
  3
SORTENTS
350
9629
  3
XCLIPFRAME
350
FB8F
1001
ACAD
1000
TREAT_AS_HARD
1070
     0
  0
DICTIONARY
  5
D8
102
{ACAD_REACTORS
330
C
102
}
330
C
100
AcDbDictionary
1001
ACAD
1000
TREAT_AS_HARD
1070
     0
  0
DICTIONARY
  5
20
102
{ACAD_REACTORS
330
C
102
}
330
C
100
AcDbDictionary
1001
DRAWINGVARIABLESXDATA
1000
POLARANG
1000
0.261799387799149410000000
1000
POLARMODE
1000
1
1000
POLARSTYLE
1000
1
1001
ACAD
1000
TREAT_AS_HARD
1070
     0
  0
XRECORD
  5
FCE8
102
{ACAD_REACTORS
330
C
102
}
330
C
100
AcDbXrecord
  1
DWGPROPS COOKIE
  2

  3

  4

  6

  7

  8
3684
  9

300
=
301
=
302
=
303
=
304
=
305
=
306
=
307
=
308
=
309
=
 40
0.0
 41
2451318.246352917
 42
2458159.067836944
  1

 90
        0
  0
DICTIONARY
  5
96DA
102
{ACAD_REACTORS
330
96D9
102
}
330
96D9
100
AcDbDictionary
1001
ACAD
1000
TREAT_AS_HARD
1070
     0
  0
ACAD_PROXY_OBJECT
  5
9594
102
{ACAD_REACTORS
330
9593
102
}
330
9593
100
AcDbZombieObject
 90
      499
 91
      514
 93
       34
310
40C8804040
  0
ACAD_PROXY_OBJECT
  5
9596
102
{ACAD_REACTORS
330
9595
102
}
330
9595
100
AcDbZombieObject
 90
      499
 91
      514
 93
       34
310
40C8804040
  0
ACAD_PROXY_OBJECT
  5
9598
102
{ACAD_REACTORS
330
9597
102
}
330
9597
100
AcDbZombieObject
 90
      499
 91
      514
 93
       34
310
40C8804040
  0
ACAD_PROXY_OBJECT
  5
959E
102
{ACAD_REACTORS
330
959D
102
}
330
959D
100
AcDbZombieObject
 90
      499
 91
      514
 93
       34
310
40C8804040
  0
ACAD_PROXY_OBJECT
  5
95A4
102
{ACAD_REACTORS
330
95A3
102
}
330
95A3
100
AcDbZombieObject
 90
      499
 91
      514
 93
       34
310
40C8804040
  0
SORTENTSTABLE
  5
890
102
{ACAD_REACTORS
330
88F
102
}
330
88F
100
AcDbSortentsTable
330
18
331
0
  5
EE6F
331
EE6E
  5
EE8A
331
EE6F
  5
EE8B
331
EE71
  5
EE8C
331
EE75
  5
EEAE
331
EE77
  5
EEAF
331
EE78
  5
EEB0
331
EE79
  5
EEB1
331
EE7A
  5
EEB2
331
EE7B
  5
EEB3
331
EE7C
  5
EEB4
331
EE7D
  5
EEB5
331
EE7E
  5
EEB6
331
EE7F
  5
EEB7
331
EE80
  5
EEB8
331
EE81
  5
EEB9
331
EE82
  5
EEBA
331
EE83
  5
EEBB
331
EE84
  5
EEBC
331
EE85
  5
EEBD
331
EE86
  5
EEBE
331
EE87
  5
EEBF
331
EE88
  5
EEC0
331
EE89
  5
EEC1
331
EE8A
  5
EEC2
331
EE8B
  5
EEC3
331
EE8C
  5
EEC4
331
EE8D
  5
EEC5
331
EE8E
  5
EEC6
331
EE8F
  5
EEC7
331
EE90
  5
EEC8
331
EE91
  5
EEC9
331
EE92
  5
EECA
331
EE93
  5
EECB
331
EE94
  5
EECC
331
EE95
  5
EECD
331
EE96
  5
EECE
331
EE97
  5
EECF
331
EE98
  5
EED0
331
EE99
  5
EED1
331
EE9A
  5
EED2
331
EE9B
  5
EED3
331
EE9C
  5
EED4
331
EE9D
  5
EED5
331
EE9E
  5
EED6
331
EE9F
  5
EED7
331
EEA0
  5
EED8
331
EEA1
  5
EED9
331
EEA2
  5
EEDA
331
EEA3
  5
EEDB
331
EEA4
  5
EEDC
331
EEA5
  5
EEDD
331
EEA6
  5
EEDF
331
EEA7
  5
EEE0
331
EEA8
  5
EEE1
331
EEA9
  5
EEE2
331
EEAA
  5
EEE3
331
EEAB
  5
EEE4
331
EEAC
  5
EEE5
331
EEAD
  5
EEE6
331
EEAE
  5
EEE7
331
EEAF
  5
EEE8
331
EEB0
  5
EEE9
331
EEB1
  5
EEEA
331
EEB2
  5
EEEB
331
EEB3
  5
EEED
331
EEB4
  5
EEEE
331
0
  5
EEEC
331
EEB6
  5
EF06
331
EEB7
  5
EF07
331
EEB8
  5
EF08
331
EEB9
  5
EF09
331
EEBA
  5
EF0A
331
EEBB
  5
EF0B
331
EEBC
  5
EF0C
331
EEBD
  5
EF0D
331
EEBE
  5
EF0E
331
EEBF
  5
EF0F
331
EEC0
  5
EF10
331
EEC1
  5
EF11
331
EEC2
  5
EF12
331
EEC3
  5
EF13
331
EEC4
  5
EF14
331
EEC5
  5
EF15
331
EEC6
  5
EF16
331
EEC7
  5
EF17
331
EEC8
  5
EF18
331
EEC9
  5
EF19
331
EECA
  5
EF1A
331
EECB
  5
EF1B
331
EECC
  5
EF1C
331
EECD
  5
EF1D
331
EECE
  5
EF1E
331
EECF
  5
EF1F
331
EED0
  5
EF20
331
EED1
  5
EF21
331
EED2
  5
EF24
331
EED3
  5
EF26
331
EED4
  5
EF27
331
EED5
  5
EF28
331
EED6
  5
EF29
331
EED7
  5
EF2A
331
EED8
  5
EF2B
331
EED9
  5
EF2C
331
EEDA
  5
EF2D
331
EEDB
  5
EF2E
331
EEDC
  5
EF2F
331
EEDD
  5
EF30
331
EEDF
  5
EF3B
331
EEE0
  5
EF3C
331
EEE1
  5
EF3D
331
EEE2
  5
EF7B
331
EEE3
  5
EF7C
331
EEE4
  5
EF7D
331
EEE5
  5
EF7E
331
EEE6
  5
EF7F
331
EEE7
  5
EF80
331
EEE8
  5
EF81
331
EEE9
  5
EF82
331
EEEA
  5
EF83
331
EEEB
  5
EF84
331
EEEC
  5
EF88
331
EEED
  5
EF89
331
EEEE
  5
EF8A
331
EEEF
  5
EF8E
331
EEF0
  5
EF8F
331
EEF2
  5
EF90
331
EEF3
  5
EF91
331
EEFA
  5
EF92
331
EEFB
  5
EF93
331
EEFC
  5
EF94
331
EEFD
  5
EF95
331
EEFE
  5
EF96
331
EEFF
  5
EF97
331
EF00
  5
EF98
331
EF01
  5
EF99
331
EF02
  5
EF9A
331
EF03
  5
EF9B
331
EF04
  5
EF9C
331
EF05
  5
EF9D
331
EF06
  5
EF9E
331
EF07
  5
EF9F
331
EF08
  5
EFA0
331
EF09
  5
EFA1
331
EF0A
  5
EFA2
331
EF0B
  5
EFA3
331
EF0C
  5
EFA4
331
EF0D
  5
EFA5
331
EF0E
  5
EFA7
331
EF0F
  5
EFA8
331
EF10
  5
EFA9
331
EF11
  5
EFAA
331
EF12
  5
EFAE
331
EF13
  5
EFAF
331
EF14
  5
EFB0
331
EF15
  5
EFB1
331
EF16
  5
EFB2
331
EF17
  5
EFB3
331
EF18
  5
EFB4
331
EF19
  5
EFB5
331
EF1A
  5
EFB6
331
EF1B
  5
EFB7
331
EF1C
  5
EFB8
331
EF1D
  5
EFB9
331
EF1E
  5
EFBA
331
EF1F
  5
EFBB
331
EF20
  5
EFBC
331
EF21
  5
EFBD
331
EF24
  5
EFD2
331
EF26
  5
EFD3
331
EF27
  5
EFD4
331
EF28
  5
EFD5
331
EF29
  5
EFD6
331
EF2A
  5
EFD7
331
EF2B
  5
EFD8
331
EF2C
  5
EFD9
331
EF2D
  5
EFDA
331
EF2E
  5
EFDB
331
EF2F
  5
EFDC
331
EF30
  5
EFDD
331
EF31
  5
EFDE
331
EF32
  5
EFDF
331
EF33
  5
EFE0
331
EF34
  5
EFE1
331
EF35
  5
EFE2
331
EF36
  5
EFE3
331
EF37
  5
EFE4
331
EF38
  5
EFE5
331
EF39
  5
EFE6
331
EF3A
  5
EFE7
331
EF3B
  5
EFE8
331
EF3C
  5
EFEE
331
EF3D
  5
EFEF
331
EF7B
  5
FC30
331
EF7C
  5
FC31
331
EF7D
  5
FC35
331
0
  5
EFE9
331
0
  5
EFEA
331
0
  5
EFEB
331
0
  5
EFEC
331
0
  5
EFED
331
EF83
  5
FC71
331
EF84
  5
FC72
331
EF85
  5
FC73
331
EF86
  5
FC74
331
EF87
  5
FC75
331
EF88
  5
FC76
331
EF89
  5
FC77
331
EF8A
  5
FC78
331
EF8B
  5
FC79
331
EF8C
  5
FC7A
331
EF8D
  5
FC7B
331
EF8E
  5
FC7C
331
EF8F
  5
FC7D
331
EF90
  5
FC7E
331
EF91
  5
FC7F
331
EF92
  5
FC80
331
EF93
  5
FC81
331
EF94
  5
FC82
331
EF95
  5
FC83
331
EF96
  5
FC84
331
EF97
  5
FC85
331
EF98
  5
FC86
331
EF99
  5
FC87
331
EF9A
  5
FC88
331
EF9B
  5
FC89
331
EF9C
  5
FC8A
331
EF9D
  5
FC8B
331
EF9E
  5
FC8C
331
EF9F
  5
FC8D
331
EFA0
  5
FC8E
331
EFA1
  5
FC8F
331
EFA2
  5
FC90
331
EFA3
  5
FC91
331
EFA4
  5
FC92
331
EFA5
  5
FC93
331
EFA7
  5
FC94
331
EFA8
  5
FC95
331
EFA9
  5
FC96
331
EFAA
  5
FC97
331
EFAB
  5
FC98
331
EFAC
  5
FC99
331
EFAD
  5
FC9A
331
EFAE
  5
FC9B
331
EFAF
  5
FC9C
331
EFB0
  5
FC9D
331
EFB1
  5
FC9E
331
EFB2
  5
FC9F
331
EFB3
  5
FCA0
331
EFB4
  5
FCA1
331
EFB5
  5
FCA2
331
EFB6
  5
FCA3
331
EFB7
  5
FCA4
331
EFB8
  5
FCA5
331
EFB9
  5
FCA6
331
EFBA
  5
FCA7
331
EFBB
  5
FCA8
331
EFBC
  5
FCA9
331
EFBD
  5
FCAA
331
EFBE
  5
FCAB
331
EFBF
  5
FCAC
331
EFC0
  5
FCAD
331
EFC1
  5
FCAE
331
EFC2
  5
FCAF
331
EFC3
  5
FCB0
331
EFC4
  5
FCB1
331
EFC5
  5
FCB2
331
EFC6
  5
FCB3
331
EFC7
  5
FCB4
331
EFC8
  5
FCB5
331
EFC9
  5
FCB6
331
EFCA
  5
FCB7
331
EFCB
  5
FCB8
331
EFCC
  5
FCB9
331
EFCD
  5
FCBA
331
EFCE
  5
FCBB
331
EFCF
  5
FCBC
331
EFD0
  5
FCBD
331
EFD1
  5
FCBE
331
EFD2
  5
FCBF
331
EFD3
  5
FCC0
331
EFD4
  5
FCC1
331
EFD5
  5
FCC2
331
EFD6
  5
FCC3
331
EFD7
  5
FCC4
331
EFD8
  5
FCC5
331
EFD9
  5
FCC6
331
EFDA
  5
FCC7
331
EFDB
  5
FCC8
331
EFDC
  5
FCC9
331
EFDD
  5
FCCA
331
EFDE
  5
FCCB
331
EFDF
  5
FCCC
331
EFE0
  5
FCCD
331
EFE1
  5
FCCE
331
EFE2
  5
FCCF
331
EFE3
  5
FCD0
331
EFE4
  5
FCD1
331
EFE5
  5
FCD2
331
EFE6
  5
FCD3
331
EFE7
  5
FCD4
331
EFE8
  5
FCD5
331
EFE9
  5
FCD6
331
EFEA
  5
FCD7
331
EFEB
  5
FCD8
331
EFEC
  5
FCD9
331
EFED
  5
FCDA
331
EFEE
  5
FCDB
331
EFEF
  5
FCDC
331
EFF0
  5
FCDD
331
EFF1
  5
FCDE
331
EFF2
  5
FCDF
331
EFF3
  5
FCE0
331
EFF4
  5
FCE1
331
EFF5
  5
FCE2
331
EFF6
  5
FCE3
331
EFF7
  5
FCE4
331
FC2B
  5
ED3C
331
FC2C
  5
EE6E
331
FC2D
  5
EE77
331
FC2E
  5
EE7B
331
FC2F
  5
EE7C
331
0
  5
EE78
331
0
  5
EE79
331
0
  5
EE7A
331
FC33
  5
EE90
331
FC34
  5
EE91
331
FC35
  5
EE92
331
0
  5
EE81
331
0
  5
EE82
331
0
  5
EE83
331
FC39
  5
EE9A
331
FC3A
  5
EE9B
331
FC3B
  5
EE9C
331
0
  5
EE87
331
0
  5
EE88
331
0
  5
EE89
331
FC3F
  5
EEA4
331
FC40
  5
EEA5
331
FC41
  5
EEA6
331
0
  5
EE8D
331
0
  5
EE8E
331
0
  5
EE8F
331
FC45
  5
EF31
331
FC46
  5
EF32
331
FC47
  5
EF33
331
0
  5
EF03
331
0
  5
EF04
331
0
  5
EF05
331
FC4B
  5
EFBE
331
FC4C
  5
EFBF
331
FC4D
  5
EFC0
331
0
  5
EF85
331
0
  5
EF86
331
0
  5
EF87
331
FC51
  5
EFC8
331
FC52
  5
EFC9
331
FC53
  5
EFCA
331
0
  5
EF8B
331
0
  5
EF8C
331
0
  5
EF8D
331
FC57
  5
EFF0
331
FC58
  5
EFF1
331
FC59
  5
EFF2
331
0
  5
EFAB
331
0
  5
EFAC
331
0
  5
EFAD
331
FC5D
  5
EE7D
331
FC5E
  5
EE7E
331
FC5F
  5
EE7F
331
FC60
  5
EE80
331
FC61
  5
EE84
331
FC62
  5
EE85
331
FC63
  5
EE86
331
FC64
  5
EE93
331
FC65
  5
EE94
331
FC66
  5
EE95
331
FC67
  5
EE96
331
FC68
  5
EE97
331
FC69
  5
EE98
331
FC6A
  5
EE99
331
FC6B
  5
EE9D
331
FC6C
  5
EE9E
331
FC6D
  5
EE9F
331
FC6E
  5
EEA0
331
FC6F
  5
EEA1
331
FC70
  5
EEA2
331
FC71
  5
EEA3
331
FC72
  5
EEA7
331
FC73
  5
EEA8
331
FC74
  5
EEA9
331
FC75
  5
EEAA
331
FC76
  5
EEAB
331
FC77
  5
EEAC
331
FC78
  5
EEAD
331
FC79
  5
EF34
331
FC7A
  5
EF35
331
FC7B
  5
EF36
331
FC7C
  5
EF37
331
FC7D
  5
EF38
331
FC7E
  5
EF39
331
FC7F
  5
EF3A
331
FC80
  5
EFC1
331
FC81
  5
EFC2
331
FC82
  5
EFC3
331
FC83
  5
EFC4
331
FC84
  5
EFC5
331
FC85
  5
EFC6
331
FC86
  5
EFC7
331
FC87
  5
EFCB
331
FC88
  5
EFCC
331
FC89
  5
EFCD
331
FC8A
  5
EFCE
331
FC8B
  5
EFCF
331
FC8C
  5
EFD0
331
FC8D
  5
EFD1
331
FC8E
  5
EFF3
331
FC8F
  5
EFF4
331
FC90
  5
EFF5
331
FC91
  5
EFF6
331
FC92
  5
EFF7
331
FC93
  5
FC2B
331
FC94
  5
FC2F
331
FC95
  5
EE71
331
FC96
  5
EE75
331
FC97
  5
EEEF
331
FC98
  5
EEF0
331
FC99
  5
EEF2
331
0
  5
EEF3
331
0
  5
EEFA
331
0
  5
EEFB
331
FC9D
  5
FC36
331
FC9E
  5
FC37
331
FC9F
  5
FC3B
331
0
  5
FC2C
331
0
  5
FC2D
331
0
  5
FC2E
331
FCA3
  5
FC49
331
FCA4
  5
FC4A
331
FCA5
  5
FC4B
331
0
  5
FC32
331
0
  5
FC33
331
0
  5
FC34
331
FCA9
  5
FC53
331
FCAA
  5
FC54
331
FCAB
  5
FC55
331
0
  5
FC38
331
0
  5
FC39
331
0
  5
FC3A
331
FCAF
  5
FC5D
331
FCB0
  5
FC5E
331
FCB1
  5
FC5F
331
0
  5
FC3E
331
0
  5
FC3F
331
0
  5
FC40
331
FCB5
  5
FC67
331
FCB6
  5
FC68
331
FCB7
  5
FC69
331
0
  5
FC44
331
0
  5
FC45
331
0
  5
FC46
331
FCBB
  5
EEFC
331
FCBC
  5
EEFD
331
FCBD
  5
EEFE
331
FCBE
  5
EEFF
331
FCBF
  5
EF00
331
FCC0
  5
EF01
331
FCC1
  5
EF02
331
FCC2
  5
FC3C
331
FCC3
  5
FC3D
331
FCC4
  5
FC41
331
FCC5
  5
FC42
331
FCC6
  5
FC43
331
FCC7
  5
FC47
331
FCC8
  5
FC48
331
FCC9
  5
FC4C
331
FCCA
  5
FC4D
331
FCCB
  5
FC4E
331
FCCC
  5
FC4F
331
FCCD
  5
FC50
331
FCCE
  5
FC51
331
FCCF
  5
FC52
331
FCD0
  5
FC56
331
FCD1
  5
FC57
331
FCD2
  5
FC58
331
FCD3
  5
FC59
331
FCD4
  5
FC5A
331
FCD5
  5
FC5B
331
FCD6
  5
FC5C
331
FCD7
  5
FC60
331
FCD8
  5
FC61
331
FCD9
  5
FC62
331
FCDA
  5
FC63
331
FCDB
  5
FC64
331
FCDC
  5
FC65
331
FCDD
  5
FC66
331
FCDE
  5
FC6A
331
FCDF
  5
FC6B
331
FCE0
  5
FC6C
331
FCE1
  5
FC6D
331
FCE2
  5
FC6E
331
FCE3
  5
FC6F
331
FCE4
  5
FC70
  0
MATERIAL
  5
9540
102
{ACAD_REACTORS
330
18C
102
}
102
{ACAD_XDICTIONARY
360
FE83
102
}
330
18C
100
AcDbMaterial
  1
BYBLOCK
 72
     0
 73
     2
 43
0.0208333333333333
 43
0.0
 43
0.0
 43
0.0
 43
0.0
 43
0.0208333333333333
 43
0.0
 43
0.0
 43
0.0
 43
0.0
 43
1.0
 43
0.0
 43
0.0
 43
0.0
 43
0.0
 43
1.0
 77
     0
 78
     2
 47
0.0208333333333333
 47
0.0
 47
0.0
 47
0.0
 47
0.0
 47
0.0208333333333333
 47
0.0
 47
0.0
 47
0.0
 47
0.0
 47
1.0
 47
0.0
 47
0.0
 47
0.0
 47
0.0
 47
1.0
171
     0
172
     2
 49
0.0208333333333333
 49
0.0
 49
0.0
 49
0.0
 49
0.0
 49
0.0208333333333333
 49
0.0
 49
0.0
 49
0.0
 49
0.0
 49
1.0
 49
0.0
 49
0.0
 49
0.0
 49
0.0
 49
1.0
175
     0
176
     2
142
0.0208333333333333
142
0.0
142
0.0
142
0.0
142
0.0
142
0.0208333333333333
142
0.0
142
0.0
142
0.0
142
0.0
142
1.0
142
0.0
142
0.0
142
0.0
142
0.0
142
1.0
179
     0
270
     2
144
0.0208333333333333
144
0.0
144
0.0
144
0.0
144
0.0
144
0.0208333333333333
144
0.0
144
0.0
144
0.0
144
0.0
144
1.0
144
0.0
144
0.0
144
0.0
144
0.0
144
1.0
274
     2
147
0.0208333333333333
147
0.0
147
0.0
147
0.0
147
0.0
147
0.0208333333333333
147
0.0
147
0.0
147
0.0
147
0.0
147
1.0
147
0.0
147
0.0
147
0.0
147
0.0
147
1.0
  0
MATERIAL
  5
9538
102
{ACAD_REACTORS
330
18C
102
}
102
{ACAD_XDICTIONARY
360
FE85
102
}
330
18C
100
AcDbMaterial
  1
BYLAYER
 72
     0
 73
     2
 43
0.0208333333333333
 43
0.0
 43
0.0
 43
0.0
 43
0.0
 43
0.0208333333333333
 43
0.0
 43
0.0
 43
0.0
 43
0.0
 43
1.0
 43
0.0
 43
0.0
 43
0.0
 43
0.0
 43
1.0
 77
     0
 78
     2
 47
0.0208333333333333
 47
0.0
 47
0.0
 47
0.0
 47
0.0
 47
0.0208333333333333
 47
0.0
 47
0.0
 47
0.0
 47
0.0
 47
1.0
 47
0.0
 47
0.0
 47
0.0
 47
0.0
 47
1.0
171
     0
172
     2
 49
0.0208333333333333
 49
0.0
 49
0.0
 49
0.0
 49
0.0
 49
0.0208333333333333
 49
0.0
 49
0.0
 49
0.0
 49
0.0
 49
1.0
 49
0.0
 49
0.0
 49
0.0
 49
0.0
 49
1.0
175
     0
176
     2
142
0.0208333333333333
142
0.0
142
0.0
142
0.0
142
0.0
142
0.0208333333333333
142
0.0
142
0.0
142
0.0
142
0.0
142
1.0
142
0.0
142
0.0
142
0.0
142
0.0
142
1.0
179
     0
270
     2
144
0.0208333333333333
144
0.0
144
0.0
144
0.0
144
0.0
144
0.0208333333333333
144
0.0
144
0.0
144
0.0
144
0.0
144
1.0
144
0.0
144
0.0
144
0.0
144
0.0
144
1.0
274
     2
147
0.0208333333333333
147
0.0
147
0.0
147
0.0
147
0.0
147
0.0208333333333333
147
0.0
147
0.0
147
0.0
147
0.0
147
1.0
147
0.0
147
0.0
147
0.0
147
0.0
147
1.0
  0
MATERIAL
  5
9548
102
{ACAD_REACTORS
330
18C
102
}
102
{ACAD_XDICTIONARY
360
FE87
102
}
330
18C
100
AcDbMaterial
  1
GLOBAL
 72
     0
 73
     2
 43
0.0208333333333333
 43
0.0
 43
0.0
 43
0.0
 43
0.0
 43
0.0208333333333333
 43
0.0
 43
0.0
 43
0.0
 43
0.0
 43
1.0
 43
0.0
 43
0.0
 43
0.0
 43
0.0
 43
1.0
 77
     0
 78
     2
 47
0.0208333333333333
 47
0.0
 47
0.0
 47
0.0
 47
0.0
 47
0.0208333333333333
 47
0.0
 47
0.0
 47
0.0
 47
0.0
 47
1.0
 47
0.0
 47
0.0
 47
0.0
 47
0.0
 47
1.0
171
     0
172
     2
 49
0.0208333333333333
 49
0.0
 49
0.0
 49
0.0
 49
0.0
 49
0.0208333333333333
 49
0.0
 49
0.0
 49
0.0
 49
0.0
 49
1.0
 49
0.0
 49
0.0
 49
0.0
 49
0.0
 49
1.0
175
     0
176
     2
142
0.0208333333333333
142
0.0
142
0.0
142
0.0
142
0.0
142
0.0208333333333333
142
0.0
142
0.0
142
0.0
142
0.0
142
1.0
142
0.0
142
0.0
142
0.0
142
0.0
142
1.0
179
     0
270
     2
144
0.0208333333333333
144
0.0
144
0.0
144
0.0
144
0.0
144
0.0208333333333333
144
0.0
144
0.0
144
0.0
144
0.0
144
1.0
144
0.0
144
0.0
144
0.0
144
0.0
144
1.0
274
     2
147
0.0208333333333333
147
0.0
147
0.0
147
0.0
147
0.0
147
0.0208333333333333
147
0.0
147
0.0
147
0.0
147
0.0
147
1.0
147
0.0
147
0.0
147
0.0
147
0.0
147
1.0
  0
ACAD_PROXY_OBJECT
  5
9584
102
{ACAD_REACTORS
330
9583
102
}
330
9583
100
AcDbZombieObject
 90
      499
 91
      511
 93
      610
310
40901902A4063FBFFFFFE000000000000002040AD7A3703D0AD73F4214DD185B99185C990000000000000104090141901A00000000000004100000000000000041025764000000000000300FC0
340
12
340
0
340
F
340
0
 94
        0
1001
ACAD_MLEADERVER
1070
     2
  0
MLINESTYLE
  5
1C
102
{ACAD_REACTORS
330
1B
102
}
330
1B
100
AcDbMlineStyle
  2
STANDARD
 70
     0
  3

 62
   256
 51
90.0
 52
90.0
 71
     2
 49
0.5
 62
   256
  6
BYLAYER
 49
-0.5
 62
   256
  6
BYLAYER
  0
ACAD_PROXY_OBJECT
  5
9562
102
{ACAD_REACTORS
330
9561
102
}
330
9561
100
AcDbZombieObject
 90
      499
 91
      510
 93
       41
310
903313A31580
  0
ACAD_PROXY_OBJECT
  5
9563
102
{ACAD_REACTORS
330
9561
102
}
330
9561
100
AcDbZombieObject
 90
      499
 91
      510
 93
      105
310
903313A324000000000000004000
  0
ACAD_PROXY_OBJECT
  5
9564
102
{ACAD_REACTORS
330
9561
102
}
330
9561
100
AcDbZombieObject
 90
      499
 91
      510
 93
      105
310
903313A344000000000000104000
  0
ACAD_PROXY_OBJECT
  5
9565
102
{ACAD_REACTORS
330
9561
102
}
330
9561
100
AcDbZombieObject
 90
      499
 91
      510
 93
      105
310
903313A354000000000000144000
  0
ACAD_PROXY_OBJECT
  5
9566
102
{ACAD_REACTORS
330
9561
102
}
330
9561
100
AcDbZombieObject
 90
      499
 91
      510
 93
      105
310
903313A384000000000000204000
  0
ACAD_PROXY_OBJECT
  5
9567
102
{ACAD_REACTORS
330
9561
102
}
330
9561
100
AcDbZombieObject
 90
      499
 91
      510
 93
      113
310
904313A31304000000000000244000
  0
ACAD_PROXY_OBJECT
  5
9568
102
{ACAD_REACTORS
330
9561
102
}
330
9561
100
AcDbZombieObject
 90
      499
 91
      510
 93
      113
310
904313A31364000000000000304000
  0
ACAD_PROXY_OBJECT
  5
9569
102
{ACAD_REACTORS
330
9561
102
}
330
9561
100
AcDbZombieObject
 90
      499
 91
      510
 93
      113
310
904313A32304000000000000344000
  0
ACAD_PROXY_OBJECT
  5
956A
102
{ACAD_REACTORS
330
9561
102
}
330
9561
100
AcDbZombieObject
 90
      499
 91
      510
 93
      113
310
904313A333040000000000003E4000
  0
ACAD_PROXY_OBJECT
  5
956B
102
{ACAD_REACTORS
330
9561
102
}
330
9561
100
AcDbZombieObject
 90
      499
 91
      510
 93
      113
310
904313A34304000000000000444000
  0
ACAD_PROXY_OBJECT
  5
956C
102
{ACAD_REACTORS
330
9561
102
}
330
9561
100
AcDbZombieObject
 90
      499
 91
      510
 93
      113
310
904313A35304000000000000494000
  0
ACAD_PROXY_OBJECT
  5
956D
102
{ACAD_REACTORS
330
9561
102
}
330
9561
100
AcDbZombieObject
 90
      499
 91
      510
 93
      121
310
905313A3130304000000000000594000
  0
ACAD_PROXY_OBJECT
  5
956E
102
{ACAD_REACTORS
330
9561
102
}
330
9561
100
AcDbZombieObject
 90
      499
 91
      510
 93
      105
310
903323A310000000000000010100
  0
ACAD_PROXY_OBJECT
  5
956F
102
{ACAD_REACTORS
330
9561
102
}
330
9561
100
AcDbZombieObject
 90
      499
 91
      510
 93
      105
310
903343A310000000000000410100
  0
ACAD_PROXY_OBJECT
  5
9570
102
{ACAD_REACTORS
330
9561
102
}
330
9561
100
AcDbZombieObject
 90
      499
 91
      510
 93
      105
310
903383A310000000000000810100
  0
ACAD_PROXY_OBJECT
  5
9571
102
{ACAD_REACTORS
330
9561
102
}
330
9561
100
AcDbZombieObject
 90
      499
 91
      510
 93
      113
310
90431303A310000000000000910100
  0
ACAD_PROXY_OBJECT
  5
9572
102
{ACAD_REACTORS
330
9561
102
}
330
9561
100
AcDbZombieObject
 90
      499
 91
      510
 93
      121
310
9053130303A310000000000001650100
  0
ACAD_PROXY_OBJECT
  5
9573
102
{ACAD_REACTORS
330
9561
102
}
330
9561
100
AcDbZombieObject
 90
      499
 91
      510
 93
      257
310
90E312F31323822203D2031272D3022000000000000200FC000000000000284000
  0
ACAD_PROXY_OBJECT
  5
9574
102
{ACAD_REACTORS
330
9561
102
}
330
9561
100
AcDbZombieObject
 90
      499
 91
      510
 93
      249
310
90D312F363422203D2031272D3022000000000000240FC000000000000284000
  0
ACAD_PROXY_OBJECT
  5
9575
102
{ACAD_REACTORS
330
9561
102
}
330
9561
100
AcDbZombieObject
 90
      499
 91
      510
 93
      249
310
90D312F333222203D2031272D3022000000000000280FC000000000000284000
  0
ACAD_PROXY_OBJECT
  5
9576
102
{ACAD_REACTORS
330
9561
102
}
330
9561
100
AcDbZombieObject
 90
      499
 91
      510
 93
      249
310
90D312F313622203D2031272D30220000000000002C0FC000000000000284000
  0
ACAD_PROXY_OBJECT
  5
9577
102
{ACAD_REACTORS
330
9561
102
}
330
9561
100
AcDbZombieObject
 90
      499
 91
      510
 93
      249
310
90D332F333222203D2031272D30220000000000002E0FC000000000000284000
  0
ACAD_PROXY_OBJECT
  5
9578
102
{ACAD_REACTORS
330
9561
102
}
330
9561
100
AcDbZombieObject
 90
      499
 91
      510
 93
      241
310
90C312F3822203D2031272D3022000000000000300FC000000000000284000
  0
ACAD_PROXY_OBJECT
  5
9579
102
{ACAD_REACTORS
330
9561
102
}
330
9561
100
AcDbZombieObject
 90
      499
 91
      510
 93
      249
310
90D332F313622203D2031272D3022000000000000320FC000000000000284000
  0
ACAD_PROXY_OBJECT
  5
957A
102
{ACAD_REACTORS
330
9561
102
}
330
9561
100
AcDbZombieObject
 90
      499
 91
      510
 93
      241
310
90C312F3422203D2031272D3022000000000000340FC000000000000284000
  0
ACAD_PROXY_OBJECT
  5
957B
102
{ACAD_REACTORS
330
9561
102
}
330
9561
100
AcDbZombieObject
 90
      499
 91
      510
 93
      241
310
90C332F3822203D2031272D3022000000000000360FC000000000000284000
  0
ACAD_PROXY_OBJECT
  5
957C
102
{ACAD_REACTORS
330
9561
102
}
330
9561
100
AcDbZombieObject
 90
      499
 91
      510
 93
      241
310
90C312F3222203D2031272D3022000000000000380FC000000000000284000
  0
ACAD_PROXY_OBJECT
  5
957D
102
{ACAD_REACTORS
330
9561
102
}
330
9561
100
AcDbZombieObject
 90
      499
 91
      510
 93
      241
310
90C332F3422203D2031272D30220000000000003A0FC000000000000284000
  0
ACAD_PROXY_OBJECT
  5
957E
102
{ACAD_REACTORS
330
9561
102
}
330
9561
100
AcDbZombieObject
 90
      499
 91
      510
 93
      161
310
90A3122203D2031272D30224000000000000284000
  0
ACAD_PROXY_OBJECT
  5
957F
102
{ACAD_REACTORS
330
9561
102
}
330
9561
100
AcDbZombieObject
 90
      499
 91
      510
 93
      257
310
90E312D312F3222203D2031272D30220000000000003E0FC000000000000284000
  0
ACAD_PROXY_OBJECT
  5
9580
102
{ACAD_REACTORS
330
9561
102
}
330
9561
100
AcDbZombieObject
 90
      499
 91
      510
 93
      225
310
90A3322203D2031272D302200000000000002100000000000000284000
  0
ACAD_PROXY_OBJECT
  5
9581
102
{ACAD_REACTORS
330
9561
102
}
330
9561
100
AcDbZombieObject
 90
      499
 91
      510
 93
      225
310
90A3622203D2031272D302200000000000006100000000000000284000
  0
ACAD_PROXY_OBJECT
  5
9582
102
{ACAD_REACTORS
330
9561
102
}
330
9561
100
AcDbZombieObject
 90
      499
 91
      510
 93
      249
310
90D31272D3022203D2031272D30220000000000000A100000000000000284000
  0
ACAD_PROXY_OBJECT
  5
9556
102
{ACAD_REACTORS
330
9550
102
}
330
9550
100
AcDbZombieObject
 90
      499
 91
      509
 93
      436
310
42CC9915DA5C99599C985B595049028333333333333E3BF0000000000000FB0107901411070040501600405405064090741402480A0340
1001
ACAD
1000
AcDbSavedByObjectVersion
1070
     0
  0
ACAD_PROXY_OBJECT
  5
9558
102
{ACAD_REACTORS
330
9550
102
}
330
9550
100
AcDbZombieObject
 90
      499
 91
      509
 93
      500
310
424CD108121A5919195B90640502408333333333333E3BF0000000000000FB01079024090700405020000000000001110200405405064090740C02480A0340
1001
ACAD
1000
AcDbSavedByObjectVersion
1070
     0
  0
ACAD_PROXY_OBJECT
  5
9557
102
{ACAD_REACTORS
330
9550
102
}
330
9550
100
AcDbZombieObject
 90
      499
 91
      509
 93
      436
310
42CCD915DA5C99599C985B595059028333333333333E3BF0000000000000FB0107901411070040501600405405064090741402480A0340
1001
ACAD
1000
AcDbSavedByObjectVersion
1070
     0
  0
ACAD_PROXY_OBJECT
  5
9555
102
{ACAD_REACTORS
330
9550
102
}
330
9550
100
AcDbZombieObject
 90
      499
 91
      509
 93
      388
310
4150985CDA58D07406404333333333333E3BF0000000000000FB0107A41107004050150841D405064090741402480A0350
1001
ACAD
1000
AcDbSavedByObjectVersion
1070
     0
  0
ACAD_PROXY_OBJECT
  5
955C
102
{ACAD_REACTORS
330
9550
102
}
330
9550
100
AcDbZombieObject
 90
      499
 91
      509
 93
      428
310
42109C9A59DA1D195B90C409028333333333333E3BF0000000000000FB010790141107004050150841D405064090741402480A029950
1001
ACAD
1000
AcDbSavedByObjectVersion
1070
     0
  0
ACAD_PROXY_OBJECT
  5
9560
102
{ACAD_REACTORS
330
9550
102
}
330
9550
100
AcDbZombieObject
 90
      499
 91
      509
 93
      452
310
42D0DBDB1BDC90DA185B99D95104090240C333333333333E3BF0000000000000FB0108901411070040501508421405064090741402480A0350
1001
ACAD
1000
AcDbSavedByObjectVersion
1070
     0
  0
ACAD_PROXY_OBJECT
  5
9559
102
{ACAD_REACTORS
330
9550
102
}
330
9550
100
AcDbZombieObject
 90
      499
 91
      509
 93
      500
310
4290DBDB98D95C1D1D585B10940D028333333333333E3BF0000000000000FB0107902409070040501000000000000111010841D405064090740C02480A0340
1001
ACAD
1000
AcDbSavedByObjectVersion
1070
     0
  0
ACAD_PROXY_OBJECT
  5
955B
102
{ACAD_REACTORS
330
9550
102
}
330
9550
100
AcDbZombieObject
 90
      499
 91
      509
 93
      412
310
40D11A5B50B409028333333333333E3BF0000000000000FB010790141107004050150841D405064090741402480A02677FFFFFD0
1001
ACAD
1000
AcDbSavedByObjectVersion
1070
     0
  0
ACAD_PROXY_OBJECT
  5
A211
102
{ACAD_REACTORS
330
9550
102
}
330
9550
100
AcDbZombieObject
 90
      499
 91
      509
 93
      452
310
43115919D950DBDB1BDC93D999916409028333333333333E3BF0000000000000FB010790141107004050150841D405064090741402480A0350
1001
ACAD
1000
AcDbSavedByObjectVersion
1070
     0
  0
ACAD_PROXY_OBJECT
  5
955F
102
{ACAD_REACTORS
330
9550
102
}
330
9550
100
AcDbZombieObject
 90
      499
 91
      509
 93
      444
310
42D19858D95C185D1D195C9B90F409028333333333333E3BF0000000000000FB010790141107004050150841D405064090741402480A0350
1001
ACAD
1000
AcDbSavedByObjectVersion
1070
     0
  0
ACAD_PROXY_OBJECT
  5
9551
102
{ACAD_REACTORS
330
9550
102
}
330
9550
100
AcDbZombieObject
 90
      499
 91
      509
 93
      388
310
41119B185D240901404333333333333E3BF0000000000000F9010740A41107004050150841D405064090741402480A1B50
1001
ACAD
1000
AcDbSavedByObjectVersion
1070
     0
  0
ACAD_PROXY_OBJECT
  5
9552
102
{ACAD_REACTORS
330
9550
102
}
330
9550
100
AcDbZombieObject
 90
      499
 91
      509
 93
      476
310
43519B185D15DA5D1A115919D95CD0140901404333333333333E3BF0000000000000F9010740901411070040501600405405064090741402480A1B50
1001
ACAD
1000
AcDbSavedByObjectVersion
1070
     0
  0
ACAD_PROXY_OBJECT
  5
9553
102
{ACAD_REACTORS
330
9550
102
}
330
9550
100
AcDbZombieObject
 90
      499
 91
      509
 93
      412
310
41D1DBDD5C985D5910240902404333333333333E3BF0000000000000F9010740A411070040501641D405064090741402480A1B50
1001
ACAD
1000
AcDbSavedByObjectVersion
1070
     0
  0
ACAD_PROXY_OBJECT
  5
9554
102
{ACAD_REACTORS
330
9550
102
}
330
9550
100
AcDbZombieObject
 90
      499
 91
      509
 93
      500
310
4411DBDD5C985D5915DA5D1A115919D95CD0340902404333333333333E3BF0000000000000F9010740901411070040501600405405064090741402480A1B50
1001
ACAD
1000
AcDbSavedByObjectVersion
1070
     0
  0
ACAD_PROXY_OBJECT
  5
A260
102
{ACAD_REACTORS
330
9550
102
}
330
9550
100
AcDbZombieObject
 90
      499
 91
      509
 93
      476
310
41921A5919195B90640502408333333333333E3BF0000000000000FB01079024090700405020000000000001110200405405064090740C02480A0340
1001
ACAD
1000
AcDbSavedByObjectVersion
1070
     0
  0
ACAD_PROXY_OBJECT
  5
A20F
102
{ACAD_REACTORS
330
9550
102
}
330
9550
100
AcDbZombieObject
 90
      499
 91
      509
 93
      428
310
42529A5D1D195C93D999914409028333333333333E3BF0000000000000FB010790141107004050150A41D405064090741402480A0350
1001
ACAD
1000
AcDbSavedByObjectVersion
1070
     0
  0
ACAD_PROXY_OBJECT
  5
955E
102
{ACAD_REACTORS
330
9550
102
}
330
9550
100
AcDbZombieObject
 90
      499
 91
      509
 93
      444
310
42D31A5B995C185D1D195C9B90E409028333333333333E3BF0000000000000FB010790141107004050750841D405064090741402483A0350
1001
ACAD
1000
AcDbSavedByObjectVersion
1070
     0
  0
ACAD_PROXY_OBJECT
  5
A266
102
{ACAD_REACTORS
330
9550
102
}
330
9550
100
AcDbZombieObject
 90
      499
 91
      509
 93
      484
310
42135BD9195B1A5B99D0A409028333333333333E3BF0000000000000F901074090290700405010000000000201990108421405064090741402480A1B40
1001
ACAD
1000
AcDbSavedByObjectVersion
1070
     0
  0
ACAD_PROXY_OBJECT
  5
A210
102
{ACAD_REACTORS
330
9550
102
}
330
9550
100
AcDbZombieObject
 90
      499
 91
      509
 93
      444
310
42D3DD995C9A185B99D3D999915409028333333333333E3BF0000000000000FB010790141107004050150941D405064090741402480A0350
1001
ACAD
1000
AcDbSavedByObjectVersion
1070
     0
  0
ACAD_PROXY_OBJECT
  5
955A
102
{ACAD_REACTORS
330
9550
102
}
330
9550
100
AcDbZombieObject
 90
      499
 91
      509
 93
      420
310
425499585B1A5CDD1A58D08409028333333333333E3BF0000000000000FB01079019070040501508421405064090741402480A1B40
1001
ACAD
1000
AcDbSavedByObjectVersion
1070
     0
  0
ACAD_PROXY_OBJECT
  5
A265
102
{ACAD_REACTORS
330
9550
102
}
330
9550
100
AcDbZombieObject
 90
      499
 91
      509
 93
      420
310
4194DA1859195911B40902404333333333333E3BF0000000000000F9010740A41107004050150800405405064090840C02480A0B40
1001
ACAD
1000
AcDbSavedByObjectVersion
1070
     0
  0
ACAD_PROXY_OBJECT
  5
A264
102
{ACAD_REACTORS
330
9550
102
}
330
9550
100
AcDbZombieObject
 90
      499
 91
      509
 93
      516
310
4454DA18591959081DDA5D1A08195919D95CD1A40902404333333333333E3BF0000000000000F901074090142907004050250800405405064090740C02480A0B40
1001
ACAD
1000
AcDbSavedByObjectVersion
1070
     0
  0
ACAD_PROXY_OBJECT
  5
A261
102
{ACAD_REACTORS
330
9550
102
}
330
9550
100
AcDbZombieObject
 90
      499
 91
      509
 93
      532
310
4394DA1859195CC81BD98811DC985E5174090240C333333333333E3BF0000000000000FB01079024090741D01000000000000111010841D405064090740C02480A0340
1001
ACAD
1000
AcDbSavedByObjectVersion
1070
     0
  0
ACAD_PROXY_OBJECT
  5
A262
102
{ACAD_REACTORS
330
9550
102
}
330
9550
100
AcDbZombieObject
 90
      499
 91
      509
 93
      476
310
41D4DAD95D18DA1E51840502408333333333333E3BF0000000000000FB01079024090741D01000000000000111010B41D405064090741802480A0340
1001
ACAD
1000
AcDbSavedByObjectVersion
1070
     0
  0
ACAD_PROXY_OBJECT
  5
955D
102
{ACAD_REACTORS
330
9550
102
}
330
9550
100
AcDbZombieObject
 90
      499
 91
      509
 93
      412
310
41D51A1A58DAD95B90D409028333333333333E3BF0000000000000FB010790141107004050150C41D405064090741402480A0350
1001
ACAD
1000
AcDbSavedByObjectVersion
1070
     0
  0
ACAD_PROXY_OBJECT
  5
A25F
102
{ACAD_REACTORS
330
9550
102
}
330
9550
100
AcDbZombieObject
 90
      499
 91
      509
 93
      420
310
4255DA5C99599C985B595059028333333333333E3BF0000000000000FB0107901411070040501600405405064090740C02480A0340
1001
ACAD
1000
AcDbSavedByObjectVersion
1070
     0
  0
ACAD_PROXY_OBJECT
  5
A263
102
{ACAD_REACTORS
330
9550
102
}
330
9550
100
AcDbZombieObject
 90
      499
 91
      509
 93
      404
310
41560B54985E51940902404000000000000E03F0000000000000FB010740501907004050150841D405064090740C02480A1B40
1001
ACAD
1000
AcDbSavedByObjectVersion
1070
     0
  0
XRECORD
  5
FCE6
102
{ACAD_REACTORS
330
FCE5
102
}
330
FCE5
100
AcDbXrecord
340
18D
  0
XRECORD
  5
FCE7
102
{ACAD_REACTORS
330
FCE5
102
}
330
FCE5
100
AcDbXrecord
340
18C
  0
DICTIONARYVAR
  5
AAE0
102
{ACAD_REACTORS
330
37
102
}
330
37
100
DictionaryVariables
280
     0
  1
1:1
  0
DICTIONARYVAR
  5
9627
102
{ACAD_REACTORS
330
37
102
}
330
37
100
DictionaryVariables
280
     0
  1
Standard
  0
DICTIONARYVAR
  5
29E
102
{ACAD_REACTORS
330
37
102
}
330
37
100
DictionaryVariables
280
     0
  1
Standard
  0
DICTIONARYVAR
  5
38
102
{ACAD_REACTORS
330
37
102
}
330
37
100
DictionaryVariables
280
     0
  1
-1
  0
DICTIONARYVAR
  5
1CE
102
{ACAD_REACTORS
330
37
102
}
330
37
100
DictionaryVariables
280
     0
  1
2
  0
DICTIONARYVAR
  5
704E
102
{ACAD_REACTORS
330
37
102
}
330
37
100
DictionaryVariables
280
     0
  1
1
  0
DICTIONARYVAR
  5
962A
102
{ACAD_REACTORS
330
37
102
}
330
37
100
DictionaryVariables
280
     0
  1
0
  0
DICTIONARYVAR
  5
7052
102
{ACAD_REACTORS
330
37
102
}
330
37
100
DictionaryVariables
280
     0
  1
8
  0
DICTIONARYVAR
  5
7051
102
{ACAD_REACTORS
330
37
102
}
330
37
100
DictionaryVariables
280
     0
  1
1
  0
DICTIONARYVAR
  5
AB30
102
{ACAD_REACTORS
330
37
102
}
330
37
100
DictionaryVariables
280
     0
  1
0
  0
DICTIONARYVAR
  5
704F
102
{ACAD_REACTORS
330
37
102
}
330
37
100
DictionaryVariables
280
     0
  1
8
  0
DICTIONARYVAR
  5
7050
102
{ACAD_REACTORS
330
37
102
}
330
37
100
DictionaryVariables
280
     0
  1
2
  0
DICTIONARYVAR
  5
1CF
102
{ACAD_REACTORS
330
37
102
}
330
37
100
DictionaryVariables
280
     0
  1

  0
DICTIONARYVAR
  5
9629
102
{ACAD_REACTORS
330
37
102
}
330
37
100
DictionaryVariables
280
     0
  1
127
  0
DICTIONARYVAR
  5
FB8F
102
{ACAD_REACTORS
330
37
102
}
330
37
100
DictionaryVariables
280
     0
  1
2
  0
DICTIONARY
  5
FE83
330
9540
100
AcDbDictionary
  3
ACAD_XREC_ROUNDTRIP
360
FE84
1001
ACAD
1000
TREAT_AS_HARD
1070
     1
  0
DICTIONARY
  5
FE85
330
9538
100
AcDbDictionary
  3
ACAD_XREC_ROUNDTRIP
360
FE86
1001
ACAD
1000
TREAT_AS_HARD
1070
     1
  0
DICTIONARY
  5
FE87
330
9548
100
AcDbDictionary
  3
ACAD_XREC_ROUNDTRIP
360
FE88
1001
ACAD
1000
TREAT_AS_HARD
1070
     1
  0
XRECORD
  5
FE84
102
{ACAD_REACTORS
330
FE83
102
}
330
FE83
100
AcDbXrecord
102
MATERIAL
148
0.0
149
0.0
149
0.0
 93
        0
 94
      127
282
     0
 72
     0
 77
     0
171
     0
175
     0
179
     0
273
     0
  0
XRECORD
  5
FE86
102
{ACAD_REACTORS
330
FE85
102
}
330
FE85
100
AcDbXrecord
102
MATERIAL
148
0.0
149
0.0
149
0.0
 93
        0
 94
      127
282
     0
 72
     0
 77
     0
171
     0
175
     0
179
     0
273
     0
  0
XRECORD
  5
FE88
102
{ACAD_REACTORS
330
FE87
102
}
330
FE87
100
AcDbXrecord
102
MATERIAL
148
0.0
149
0.0
149
0.0
 93
        0
 94
      127
282
     0
 72
     0
 77
     0
171
     0
175
     0
179
     0
273
     0
  0
ENDSEC
  0
EOF
