  0
SECTION
  2
HEADER
  9
$ACADVER
  1
AC1012
  9
$DWGCODEPAGE
  3
ansi_932
  9
$INSBASE
 10
0.0
 20
0.0
 30
0.0
  9
$EXTMIN
 10
1935.257276110028
 20
-711.5599243609704
 30
0.0
  9
$EXTMAX
 10
2550.688636111599
 20
-288.5710979363351
 30
0.0000000001691137
  9
$LIMMIN
 10
0.0
 20
0.0
  9
$LIMMAX
 10
420.0
 20
297.0
  9
$ORTHOMODE
 70
     0
  9
$REGENMODE
 70
     1
  9
$FILLMODE
 70
     1
  9
$QTEXTMODE
 70
     0
  9
$MIRRTEXT
 70
     0
  9
$DRAGMODE
 70
     2
  9
$LTSCALE
 40
0.5
  9
$OSMODE
 70
 14463
  9
$ATTMODE
 70
     1
  9
$TEXTSIZE
 40
4.0
  9
$TRACEWID
 40
1.0
  9
$TEXTSTYLE
  7
STANDARD
  9
$CLAYER
  8
1TEXT
  9
$CELTYPE
  6
BYLAYER
  9
$CECOLOR
 62
   256
  9
$CELTSCALE
 40
1.0
  9
$DELOBJ
 70
     1
  9
$DISPSILH
 70
     0
  9
$DIMSCALE
 40
1.0
  9
$DIMASZ
 40
2.0
  9
$DIMEXO
 40
0.0
  9
$DIMDLI
 40
7.0
  9
$DIMRND
 40
0.0
  9
$DIMDLE
 40
0.0
  9
$DIMEXE
 40
1.0
  9
$DIMTP
 40
0.0
  9
$DIMTM
 40
0.0
  9
$DIMTXT
 40
3.5
  9
$DIMCEN
 40
0.0
  9
$DIMTSZ
 40
0.0
  9
$DIMTOL
 70
     0
  9
$DIMLIM
 70
     0
  9
$DIMTIH
 70
     0
  9
$DIMTOH
 70
     0
  9
$DIMSE1
 70
     0
  9
$DIMSE2
 70
     0
  9
$DIMTAD
 70
     1
  9
$DIMZIN
 70
     8
  9
$DIMBLK
  1

  9
$DIMASO
 70
     1
  9
$DIMSHO
 70
     1
  9
$DIMPOST
  1
 
  9
$DIMAPOST
  1

  9
$DIMALT
 70
     0
  9
$DIMALTD
 70
     2
  9
$DIMALTF
 40
25.4
  9
$DIMLFAC
 40
1.0
  9
$DIMTOFL
 70
     1
  9
$DIMTVP
 40
0.0
  9
$DIMTIX
 70
     0
  9
$DIMSOXD
 70
     0
  9
$DIMSAH
 70
     1
  9
$DIMBLK1
  1
OPEN30
  9
$DIMBLK2
  1
OPEN30
  9
$DIMSTYLE
  2
NEWX10
  9
$DIMCLRD
 70
   256
  9
$DIMCLRE
 70
   256
  9
$DIMCLRT
 70
   201
  9
$DIMTFAC
 40
0.7
  9
$DIMGAP
 40
0.7
  9
$DIMJUST
 70
     0
  9
$DIMSD1
 70
     0
  9
$DIMSD2
 70
     0
  9
$DIMTOLJ
 70
     1
  9
$DIMTZIN
 70
     8
  9
$DIMALTZ
 70
     0
  9
$DIMALTTZ
 70
     0
  9
$DIMFIT
 70
     2
  9
$DIMUPT
 70
     0
  9
$DIMUNIT
 70
     2
  9
$DIMDEC
 70
     2
  9
$DIMTDEC
 70
     4
  9
$DIMALTU
 70
     2
  9
$DIMALTTD
 70
     2
  9
$DIMTXSTY
  7
STANDARD
  9
$DIMAUNIT
 70
     0
  9
$LUNITS
 70
     2
  9
$LUPREC
 70
     4
  9
$SKETCHINC
 40
1.0
  9
$FILLETRAD
 40
0.0
  9
$AUNITS
 70
     0
  9
$AUPREC
 70
     2
  9
$MENU
  1
acad
  9
$ELEVATION
 40
0.0
  9
$PELEVATION
 40
0.0
  9
$THICKNESS
 40
0.0
  9
$LIMCHECK
 70
     0
  9
$CHAMFERA
 40
10.0
  9
$CHAMFERB
 40
10.0
  9
$CHAMFERC
 40
20.0
  9
$CHAMFERD
 40
0.0
  9
$SKPOLY
 70
     0
  9
$TDCREATE
 40
2451318.621352917
  9
$TDUPDATE
 40
2458159.549043345
  9
$TDINDWG
 40
1.6476590509
  9
$TDUSRTIMER
 40
1.6476590509
  9
$USRTIMER
 70
     1
  9
$ANGBASE
 50
0.0
  9
$ANGDIR
 70
     0
  9
$PDMODE
 70
     0
  9
$PDSIZE
 40
0.0
  9
$PLINEWID
 40
0.0
  9
$COORDS
 70
     2
  9
$SPLFRAME
 70
     0
  9
$SPLINETYPE
 70
     6
  9
$SPLINESEGS
 70
     8
  9
$ATTDIA
 70
     0
  9
$ATTREQ
 70
     1
  9
$HANDLING
 70
     1
  9
$HANDSEED
  5
1B1DA
  9
$SURFTAB1
 70
     6
  9
$SURFTAB2
 70
     6
  9
$SURFTYPE
 70
     6
  9
$SURFU
 70
     6
  9
$SURFV
 70
     6
  9
$UCSNAME
  2

  9
$UCSORG
 10
0.0
 20
0.0
 30
0.0
  9
$UCSXDIR
 10
1.0
 20
0.0
 30
0.0
  9
$UCSYDIR
 10
0.0
 20
1.0
 30
0.0
  9
$PUCSNAME
  2

  9
$PUCSORG
 10
0.0
 20
0.0
 30
0.0
  9
$PUCSXDIR
 10
1.0
 20
0.0
 30
0.0
  9
$PUCSYDIR
 10
0.0
 20
1.0
 30
0.0
  9
$USERI1
 70
     0
  9
$USERI2
 70
     0
  9
$USERI3
 70
     0
  9
$USERI4
 70
     0
  9
$USERI5
 70
     0
  9
$USERR1
 40
0.0
  9
$USERR2
 40
0.0
  9
$USERR3
 40
0.0
  9
$USERR4
 40
0.0
  9
$USERR5
 40
0.0
  9
$WORLDVIEW
 70
     1
  9
$SHADEDGE
 70
     3
  9
$SHADEDIF
 70
    70
  9
$TILEMODE
 70
     1
  9
$MAXACTVP
 70
    48
  9
$PINSBASE
 10
0.0
 20
0.0
 30
0.0
  9
$PLIMCHECK
 70
     0
  9
$PEXTMIN
 10
1.000000000000000E+20
 20
1.000000000000000E+20
 30
1.000000000000000E+20
  9
$PEXTMAX
 10
-1.000000000000000E+20
 20
-1.000000000000000E+20
 30
-1.000000000000000E+20
  9
$PLIMMIN
 10
0.0
 20
0.0
  9
$PLIMMAX
 10
420.0
 20
297.0
  9
$UNITMODE
 70
     0
  9
$VISRETAIN
 70
     1
  9
$PLINEGEN
 70
     0
  9
$PSLTSCALE
 70
     1
  9
$TREEDEPTH
 70
  3020
  9
$PICKSTYLE
 70
     1
  9
$CMLSTYLE
  2
STANDARD
  9
$CMLJUST
 70
     0
  9
$CMLSCALE
 40
20.0
  9
$SAVEIMAGES
 70
     1
  0
ENDSEC
  0
SECTION
  2
CLASSES
  0
CLASS
  1
DICTIONARYVAR
  2
AcDbDictionaryVar
  3
ObjectDBX Classes
 90
        0
280
     0
281
     0
  0
CLASS
  1
IDBUFFER
  2
AcDbIdBuffer
  3
ObjectDBX Classes
 90
    32768
280
     0
281
     0
  0
CLASS
  1
LWPOLYLINE
  2
AcDbPolyline
  3
ObjectDBX Classes
 90
    32768
280
     0
281
     1
  0
CLASS
  1
ACDBDICTIONARYWDFLT
  2
AcDbDictionaryWithDefault
  3
ObjectDBX Classes
 90
    32768
280
     0
281
     0
  0
CLASS
  1
ACDBPLACEHOLDER
  2
AcDbPlaceHolder
  3
ObjectDBX Classes
 90
        0
280
     0
281
     0
  0
CLASS
  1
LAYOUT
  2
AcDbLayout
  3
ObjectDBX Classes
 90
        0
280
     0
281
     0
  0
CLASS
  1
TABLESTYLE
  2
AcDbTableStyle
  3
ObjectDBX Classes
 90
     4095
280
     0
281
     0
  0
CLASS
  1
SORTENTSTABLE
  2
AcDbSortentsTable
  3
ObjectDBX Classes
 90
    32768
280
     0
281
     0
  0
CLASS
  1
MATERIAL
  2
AcDbMaterial
  3
ObjectDBX Classes
 90
     1153
280
     0
281
     0
  0
CLASS
  1
VISUALSTYLE
  2
AcDbVisualStyle
  3
ObjectDBX Classes
 90
     4095
280
     0
281
     0
  0
CLASS
  1
SCALE
  2
AcDbScale
  3
ObjectDBX Classes
 90
     1153
280
     0
281
     0
  0
CLASS
  1
MLEADERSTYLE
  2
AcDbMLeaderStyle
  3
ACDB_MLEADERSTYLE_CLASS
 90
     4095
280
     0
281
     0
  0
CLASS
  1
CELLSTYLEMAP
  2
AcDbCellStyleMap
  3
ObjectDBX Classes
 90
     1152
280
     0
281
     0
  0
CLASS
  1
SUN
  2
AcDbSun
  3
SCENEOE
 90
     1153
280
     0
281
     0
  0
CLASS
  1
XRECORD
  2
AcDbXrecord
  3
ObjectDBX Classes
 90
    32768
280
     0
281
     0
  0
CLASS
  1
HATCH
  2
AcDbHatch
  3
ObjectDBX Classes
 90
    32768
280
     0
281
     1
  0
ENDSEC
  0
SECTION
  2
TABLES
  0
TABLE
  2
VPORT
  5
8
330
0
100
AcDbSymbolTable
 70
     1
  0
VPORT
  5
D991
330
8
100
AcDbSymbolTableRecord
100
AcDbViewportTableRecord
  2
*ACTIVE
 70
     0
 10
0.0
 20
0.0
 11
1.0
 21
1.0
 12
2242.972956110814
 22
-500.0655111486527
 13
0.0
 23
0.0
 14
10.0
 24
10.0
 15
10.0
 25
10.0
 16
0.0
 26
0.0
 36
1.0
 17
0.0
 27
0.0
 37
0.0
 40
454.1564241611874
 41
1.871481028151775
 42
50.0
 43
0.0
 44
0.0
 50
0.0
 51
0.0
 71
    16
 72
   100
 73
     1
 74
     1
 75
     0
 76
     0
 77
     0
 78
     0
  0
ENDTAB
  0
TABLE
  2
LTYPE
  5
5
330
0
100
AcDbSymbolTable
 70
     2
  0
LTYPE
  5
12
330
5
100
AcDbSymbolTableRecord
100
AcDbLinetypeTableRecord
  2
BYBLOCK
 70
     0
  3

 72
    65
 73
     0
 40
0.0
  0
LTYPE
  5
13
330
5
100
AcDbSymbolTableRecord
100
AcDbLinetypeTableRecord
  2
BYLAYER
 70
     0
  3

 72
    65
 73
     0
 40
0.0
  0
LTYPE
  5
14
330
5
100
AcDbSymbolTableRecord
100
AcDbLinetypeTableRecord
  2
CONTINUOUS
 70
     0
  3
Solid line
 72
    65
 73
     0
 40
0.0
  0
LTYPE
  5
13839
330
5
100
AcDbSymbolTableRecord
100
AcDbLinetypeTableRecord
  2
CENTER2
 70
     0
  3
Center (.5x) ___ _ ___ _ ___ _ ___ _ ___ _ ___
 72
    65
 73
     4
 40
28.575
 49
19.05
 74
     0
 49
-3.175
 74
     0
 49
3.175
 74
     0
 49
-3.175
 74
     0
  0
ENDTAB
  0
TABLE
  2
LAYER
  5
2
102
{ACAD_XDICTIONARY
360
E6A6
102
}
330
0
100
AcDbSymbolTable
 70
     5
  0
LAYER
  5
E
102
{ACAD_XDICTIONARY
360
DA05
102
}
330
2
100
AcDbSymbolTableRecord
100
AcDbLayerTableRecord
  2
0
 70
     0
 62
     7
  6
CONTINUOUS
  0
LAYER
  5
29
102
{ACAD_XDICTIONARY
360
DA07
102
}
330
2
100
AcDbSymbolTableRecord
100
AcDbLayerTableRecord
  2
1CENTER
 70
     0
 62
     7
  6
CENTER2
  0
LAYER
  5
31
102
{ACAD_XDICTIONARY
360
DA09
102
}
330
2
100
AcDbSymbolTableRecord
100
AcDbLayerTableRecord
  2
1TEXT
 70
     0
 62
     7
  6
CONTINUOUS
  0
LAYER
  5
243
102
{ACAD_XDICTIONARY
360
DA0F
102
}
330
2
100
AcDbSymbolTableRecord
100
AcDbLayerTableRecord
  2
01
 70
     0
 62
     1
  6
CONTINUOUS
  0
LAYER
  5
24E
102
{ACAD_XDICTIONARY
360
DA15
102
}
330
2
100
AcDbSymbolTableRecord
100
AcDbLayerTableRecord
  2
1DIM
 70
     0
 62
     7
  6
CONTINUOUS
  0
ENDTAB
  0
TABLE
  2
STYLE
  5
3
330
0
100
AcDbSymbolTable
 70
     1
  0
STYLE
  5
F
330
3
100
AcDbSymbolTableRecord
100
AcDbTextStyleTableRecord
  2
STANDARD
 70
     0
 40
0.0
 41
1.0
 50
0.0
 71
     0
 42
4.0
  3
txt.shx
  4
extfont.shx
  0
ENDTAB
  0
TABLE
  2
VIEW
  5
6
330
0
100
AcDbSymbolTable
 70
     0
  0
ENDTAB
  0
TABLE
  2
UCS
  5
7
330
0
100
AcDbSymbolTable
 70
     0
  0
ENDTAB
  0
TABLE
  2
APPID
  5
9
330
0
100
AcDbSymbolTable
 70
    15
  0
APPID
  5
10
330
9
100
AcDbSymbolTableRecord
100
AcDbRegAppTableRecord
  2
ACAD
 70
     0
  0
APPID
  5
21
330
9
100
AcDbSymbolTableRecord
100
AcDbRegAppTableRecord
  2
DRAWINGVARIABLESXDATA
 70
     0
  0
APPID
  5
64
330
9
100
AcDbSymbolTableRecord
100
AcDbRegAppTableRecord
  2
CONTENTTABDATA
 70
     0
  0
APPID
  5
65
330
9
100
AcDbSymbolTableRecord
100
AcDbRegAppTableRecord
  2
CONTENTCURRENTTAB
 70
     0
  0
APPID
  5
66
330
9
100
AcDbSymbolTableRecord
100
AcDbRegAppTableRecord
  2
CONTENTBLOCKDESCRIPTION
 70
     0
  0
APPID
  5
67
330
9
100
AcDbSymbolTableRecord
100
AcDbRegAppTableRecord
  2
CONTENTBLOCKICON
 70
     0
  0
APPID
  5
68
330
9
100
AcDbSymbolTableRecord
100
AcDbRegAppTableRecord
  2
CONTENTLONGBLOCKNAME
 70
     0
  0
APPID
  5
2AE
330
9
100
AcDbSymbolTableRecord
100
AcDbRegAppTableRecord
  2
ACAD_PSEXT
 70
     0
  0
APPID
  5
D9E9
330
9
100
AcDbSymbolTableRecord
100
AcDbRegAppTableRecord
  2
ACAD_MLEADERVER
 70
     0
  0
APPID
  5
19CF0
330
9
100
AcDbSymbolTableRecord
100
AcDbRegAppTableRecord
  2
ACADANNOTATIVE
 70
     0
  0
APPID
  5
19CF1
330
9
100
AcDbSymbolTableRecord
100
AcDbRegAppTableRecord
  2
ACDBBLOCKREPETAG
 70
     0
  0
APPID
  5
19CF2
330
9
100
AcDbSymbolTableRecord
100
AcDbRegAppTableRecord
  2
ACLAYERTOOLS
 70
     0
  0
APPID
  5
19CF3
330
9
100
AcDbSymbolTableRecord
100
AcDbRegAppTableRecord
  2
ACAD_NAV_VCDISPLAY
 70
     0
  0
APPID
  5
1A86C
330
9
100
AcDbSymbolTableRecord
100
AcDbRegAppTableRecord
  2
ACAD_OBJECT_CHANGE_GUID
 70
     0
  0
APPID
  5
1AA0F
330
9
100
AcDbSymbolTableRecord
100
AcDbRegAppTableRecord
  2
ACAECLAYERSTANDARD
 70
     0
  0
ENDTAB
  0
TABLE
  2
DIMSTYLE
  5
A
330
0
100
AcDbSymbolTable
 70
     1
  0
DIMSTYLE
105
48
330
A
100
AcDbSymbolTableRecord
100
AcDbDimStyleTableRecord
  2
NEWX10
 70
     0
  3
 
  4

  5

  6
OPEN30
  7
OPEN30
 40
1.0
 41
2.0
 42
0.0
 43
7.0
 44
1.0
 45
0.0
 46
0.0
 47
0.0
 48
0.0
140
3.5
141
0.0
142
0.0
143
25.4
144
1.0
145
0.0
146
0.7
147
0.7
 71
     0
 72
     0
 73
     0
 74
     0
 75
     0
 76
     0
 77
     1
 78
     8
170
     0
171
     2
172
     1
173
     1
174
     0
175
     0
176
   256
177
   256
178
   201
179
     2
270
     2
271
     2
272
     4
273
     2
274
     2
340
F
275
     0
280
     0
281
     0
282
     0
283
     1
284
     8
285
     0
286
     0
287
     2
288
     0
  0
ENDTAB
  0
TABLE
  2
BLOCK_RECORD
  5
1
330
0
100
AcDbSymbolTable
 70
     8
  0
BLOCK_RECORD
  5
18
102
{ACAD_XDICTIONARY
360
88F
102
}
330
1
100
AcDbSymbolTableRecord
100
AcDbBlockTableRecord
  2
*MODEL_SPACE
  0
BLOCK_RECORD
  5
15
330
1
100
AcDbSymbolTableRecord
100
AcDbBlockTableRecord
  2
*PAPER_SPACE
  0
BLOCK_RECORD
  5
42
330
1
100
AcDbSymbolTableRecord
100
AcDbBlockTableRecord
  2
_OPEN30
  0
BLOCK_RECORD
  5
19D42
330
1
100
AcDbSymbolTableRecord
100
AcDbBlockTableRecord
  2
A3WAKUKAWAJUN2017_HYOUDAI_
  0
BLOCK_RECORD
  5
1B03A
330
1
100
AcDbSymbolTableRecord
100
AcDbBlockTableRecord
  2
*X144
  0
BLOCK_RECORD
  5
1B088
330
1
100
AcDbSymbolTableRecord
100
AcDbBlockTableRecord
  2
*X145
  0
BLOCK_RECORD
  5
1B0DA
330
1
100
AcDbSymbolTableRecord
100
AcDbBlockTableRecord
  2
*X146
  0
BLOCK_RECORD
  5
1B12B
330
1
100
AcDbSymbolTableRecord
100
AcDbBlockTableRecord
  2
*X147
  0
BLOCK_RECORD
  5
1B168
330
1
100
AcDbSymbolTableRecord
100
AcDbBlockTableRecord
  2
*X148
  0
BLOCK_RECORD
  5
1B1A8
330
1
100
AcDbSymbolTableRecord
100
AcDbBlockTableRecord
  2
*X149
  0
ENDTAB
  0
ENDSEC
  0
SECTION
  2
BLOCKS
  0
BLOCK
  5
19
330
18
100
AcDbEntity
  8
0
100
AcDbBlockBegin
  2
*MODEL_SPACE
 70
     0
 10
0.0
 20
0.0
 30
0.0
  3
*MODEL_SPACE
  1

  0
ENDBLK
  5
1A
330
18
100
AcDbEntity
  8
0
100
AcDbBlockEnd
  0
BLOCK
  5
16
330
15
100
AcDbEntity
 67
     1
  8
0
100
AcDbBlockBegin
  2
*PAPER_SPACE
 70
     0
 10
0.0
 20
0.0
 30
0.0
  3
*PAPER_SPACE
  1

  0
ENDBLK
  5
17
330
15
100
AcDbEntity
 67
     1
  8
0
100
AcDbBlockEnd
  0
BLOCK
  5
43
330
42
100
AcDbEntity
  8
0
100
AcDbBlockBegin
  2
_OPEN30
 70
     0
 10
0.0
 20
0.0
 30
0.0
  3
_OPEN30
  1

  0
LINE
  5
44
330
42
100
AcDbEntity
  8
0
  6
BYBLOCK
 62
     0
100
AcDbLine
 10
-1.0
 20
0.26794919
 30
0.0
 11
0.0
 21
0.0
 31
0.0
  0
LINE
  5
45
330
42
100
AcDbEntity
  8
0
  6
BYBLOCK
 62
     0
100
AcDbLine
 10
0.0
 20
0.0
 30
0.0
 11
-1.0
 21
-0.26794919
 31
0.0
  0
LINE
  5
46
330
42
100
AcDbEntity
  8
0
  6
BYBLOCK
 62
     0
100
AcDbLine
 10
0.0
 20
0.0
 30
0.0
 11
-1.0
 21
0.0
 31
0.0
  0
ENDBLK
  5
47
330
42
100
AcDbEntity
  8
0
100
AcDbBlockEnd
  0
BLOCK
  5
1A550
330
19D42
100
AcDbEntity
  8
0
100
AcDbBlockBegin
  2
A3WAKUKAWAJUN2017_HYOUDAI_
 70
     0
 10
0.0
 20
0.0
 30
0.0
  3
A3WAKUKAWAJUN2017_HYOUDAI_
  1

  0
LINE
  5
19D44
330
19D42
100
AcDbEntity
  8
0
100
AcDbLine
 10
13.26299999998673
 20
-0.0001000000000317
 30
0.0
 11
9.236999999990758
 21
8.999899999990987
 31
0.0
1001
ACAD
1000
ASC_BOUNDS
1002
{
1070
    19
1005
19D85
1002
}
  0
LINE
  5
19D45
330
19D42
100
AcDbEntity
  8
0
100
AcDbLine
 10
5.657999999994331
 20
0.9999999999989768
 30
0.0
 11
9.236999999990758
 21
8.999999999991019
 31
0.0
1001
ACAD
1000
ASC_BOUNDS
1002
{
1070
    19
1005
19D85
1002
}
  0
LINE
  5
19D46
330
19D42
100
AcDbEntity
  8
0
100
AcDbLine
 10
18.59199999998134
 20
-0.2368999999997641
 30
0.0
 11
16.46099999998353
 21
5.432899999994561
 31
0.0
1001
ACAD
1000
ASC_BOUNDS
1002
{
1070
    19
1005
19D86
1002
}
  0
LINE
  5
19D47
330
19D42
100
AcDbEntity
  8
0
100
AcDbLine
 10
18.59199999998134
 20
-0.2368999999997641
 30
0.0
 11
22.38199999997767
 21
8.763099999991255
 31
0.0
1001
ACAD
1000
ASC_BOUNDS
1002
{
1070
    19
1005
19D86
1002
}
  0
LINE
  5
19D48
330
19D42
100
AcDbEntity
  8
0
100
AcDbLine
 10
14.32899999998563
 20
-0.2368999999997641
 30
0.0
 11
16.46099999998353
 21
5.432899999994561
 31
0.0
1001
ACAD
1000
ASC_BOUNDS
1002
{
1070
    19
1005
19D86
1002
}
  0
LINE
  5
19D49
330
19D42
100
AcDbEntity
  8
0
100
AcDbLine
 10
14.32899999998563
 20
-0.2368999999997641
 30
0.0
 11
10.53899999998941
 21
8.763099999991255
 31
0.0
1001
ACAD
1000
ASC_BOUNDS
1002
{
1070
    19
1005
19D86
1002
}
  0
LINE
  5
19D4A
330
19D42
100
AcDbEntity
  8
0
100
AcDbLine
 10
19.53899999998043
 20
-0.0001000000000317
 30
0.0
 11
23.56599999997638
 21
8.999899999990987
 31
0.0
1001
ACAD
1000
ASC_BOUNDS
1002
{
1070
    19
1005
19D87
1002
}
  0
LINE
  5
19D4B
330
19D42
100
AcDbEntity
  8
0
100
AcDbLine
 10
26.97358892824991
 20
1.383099999991202
 30
0.0
 11
23.56599999997638
 21
8.999899999990987
 31
0.0
1001
ACAD
1000
ASC_BOUNDS
1002
{
1070
    19
1005
19D87
1002
}
  0
LINE
  5
19D4C
330
19D42
100
AcDbEntity
  8
0
100
AcDbLine
 10
5.657999999994331
 20
0.9999999999989768
 30
0.0
 11
3.181999999996833
 21
4.668599999995308
 31
0.0
1001
ACAD
1000
ASC_BOUNDS
1002
{
1070
    19
1005
19D85
1002
}
  0
LINE
  5
19D4D
330
19D42
100
AcDbEntity
  8
0
100
AcDbLine
 10
4.617999999995391
 20
-0.0001000000000317
 30
0.0
 11
1.420999999998571
 21
4.736799999995242
 31
0.0
1001
ACAD
1000
ASC_BOUNDS
1002
{
1070
    19
1005
19D85
1002
}
  0
LINE
  5
19D4E
330
19D42
100
AcDbEntity
  8
0
100
AcDbLine
 10
1.420999999998571
 20
8.763099999991255
 30
0.0
 11
1.420999999998571
 21
0.0
 31
0.0
1001
ACAD
1000
ASC_BOUNDS
1002
{
1070
    19
1005
19D8A
1002
}
  0
LINE
  5
19D4F
330
19D42
100
AcDbEntity
  8
0
100
AcDbLine
 10
0.0
 20
8.763099999991255
 30
0.0
 11
0.0
 21
0.0
 31
0.0
1001
ACAD
1000
ASC_BOUNDS
1002
{
1070
    19
1005
19D8A
1002
}
  0
LINE
  5
19D50
330
19D42
100
AcDbEntity
  8
0
100
AcDbLine
 10
6.766999999993232
 20
-0.0001000000000317
 30
0.0
 11
7.826999999992154
 21
2.368399999997621
 31
0.0
1001
ACAD
1000
ASC_BOUNDS
1002
{
1070
    19
1005
19D85
1002
}
  0
LINE
  5
19D51
330
19D42
100
AcDbEntity
  8
0
100
AcDbLine
 10
0.0
 20
0.0
 30
0.0
 11
1.420999999998571
 21
0.0
 31
0.0
1001
ACAD
1000
ASC_BOUNDS
1002
{
1070
    19
1005
19D8A
1002
}
  0
LINE
  5
19D52
330
19D42
100
AcDbEntity
  8
0
100
AcDbLine
 10
4.617999999995391
 20
0.0
 30
0.0
 11
6.766999999993232
 21
0.0
 31
0.0
1001
ACAD
1000
ASC_BOUNDS
1002
{
1070
    19
1005
19D85
1002
}
  0
LINE
  5
19D53
330
19D42
100
AcDbEntity
  8
0
100
AcDbLine
 10
11.70599999998831
 20
-0.0001000000000317
 30
0.0
 11
10.64699999998936
 21
2.368399999997621
 31
0.0
1001
ACAD
1000
ASC_BOUNDS
1002
{
1070
    19
1005
19D85
1002
}
  0
LINE
  5
19D54
330
19D42
100
AcDbEntity
  8
0
100
AcDbLine
 10
7.826999999992154
 20
2.368399999997621
 30
0.0
 11
10.64699999998936
 21
2.368399999997621
 31
0.0
1001
ACAD
1000
ASC_BOUNDS
1002
{
1070
    19
1005
19D85
1002
}
  0
LINE
  5
19D55
330
19D42
100
AcDbEntity
  8
0
100
AcDbLine
 10
11.70599999998831
 20
0.0
 30
0.0
 11
13.26299999998673
 21
0.0
 31
0.0
1001
ACAD
1000
ASC_BOUNDS
1002
{
1070
    19
1005
19D85
1002
}
  0
LINE
  5
19D56
330
19D42
100
AcDbEntity
  8
0
100
AcDbLine
 10
22.15599999997789
 20
2.368399999997621
 30
0.0
 11
24.97599999997499
 21
2.368399999997621
 31
0.0
1001
ACAD
1000
ASC_BOUNDS
1002
{
1070
    19
1005
19D87
1002
}
  0
LINE
  5
19D57
330
19D42
100
AcDbEntity
  8
0
100
AcDbLine
 10
19.53899999998043
 20
0.0
 30
0.0
 11
21.09599999997886
 21
0.0
 31
0.0
1001
ACAD
1000
ASC_BOUNDS
1002
{
1070
    19
1005
19D87
1002
}
  0
LINE
  5
19D58
330
19D42
100
AcDbEntity
  8
0
100
AcDbLine
 10
21.09599999997886
 20
-0.0001000000000317
 30
0.0
 11
22.15599999997789
 21
2.368399999997621
 31
0.0
1001
ACAD
1000
ASC_BOUNDS
1002
{
1070
    19
1005
19D87
1002
}
  0
LINE
  5
19D59
330
19D42
100
AcDbEntity
  8
0
100
AcDbLine
 10
26.02015566812236
 20
0.0330999999912365
 30
0.0
 11
24.97599999997499
 21
2.368399999997621
 31
0.0
1001
ACAD
1000
ASC_BOUNDS
1002
{
1070
    19
1005
19D87
1002
}
  0
LINE
  5
19D5A
330
19D42
100
AcDbEntity
  8
0
100
AcDbLine
 10
14.32399999998563
 20
3.315799999996671
 30
0.0
 11
16.46099999998353
 21
8.999899999990987
 31
0.0
1001
ACAD
1000
ASC_BOUNDS
1002
{
1070
    19
1005
19D86
1002
}
  0
LINE
  5
19D5B
330
19D42
100
AcDbEntity
  8
0
100
AcDbLine
 10
6.432999999993513
 20
8.763099999991255
 30
0.0
 11
3.181999999996833
 21
4.668599999995308
 31
0.0
1001
ACAD
1000
ASC_BOUNDS
1002
{
1070
    19
1005
19D85
1002
}
  0
LINE
  5
19D5C
330
19D42
100
AcDbEntity
  8
0
100
AcDbLine
 10
4.617999999995391
 20
8.763099999991255
 30
0.0
 11
1.420999999998571
 21
4.736799999995242
 31
0.0
1001
ACAD
1000
ASC_BOUNDS
1002
{
1070
    19
1005
19D85
1002
}
  0
LINE
  5
19D5D
330
19D42
100
AcDbEntity
  8
0
100
AcDbLine
 10
0.0
 20
8.763099999991255
 30
0.0
 11
1.420999999998571
 21
8.763099999991255
 31
0.0
1001
ACAD
1000
ASC_BOUNDS
1002
{
1070
    19
1005
19D8A
1002
}
  0
LINE
  5
19D5E
330
19D42
100
AcDbEntity
  8
0
100
AcDbLine
 10
4.617999999995391
 20
8.763099999991255
 30
0.0
 11
6.432999999993513
 21
8.763099999991255
 31
0.0
1001
ACAD
1000
ASC_BOUNDS
1002
{
1070
    19
1005
19D85
1002
}
  0
LINE
  5
19D5F
330
19D42
100
AcDbEntity
  8
0
100
AcDbLine
 10
14.32399999998563
 20
3.315799999996671
 30
0.0
 11
12.02999999998792
 21
8.763099999991255
 31
0.0
1001
ACAD
1000
ASC_BOUNDS
1002
{
1070
    19
1005
19D86
1002
}
  0
LINE
  5
19D60
330
19D42
100
AcDbEntity
  8
0
100
AcDbLine
 10
10.06399999998996
 20
3.670999999996297
 30
0.0
 11
9.236999999990758
 21
5.5200999999945
 31
0.0
1001
ACAD
1000
ASC_BOUNDS
1002
{
1070
    19
1005
19D85
1002
}
  0
LINE
  5
19D61
330
19D42
100
AcDbEntity
  8
0
100
AcDbLine
 10
8.409999999991555
 20
3.670999999996297
 30
0.0
 11
9.236999999990758
 21
5.5200999999945
 31
0.0
1001
ACAD
1000
ASC_BOUNDS
1002
{
1070
    19
1005
19D85
1002
}
  0
LINE
  5
19D62
330
19D42
100
AcDbEntity
  8
0
100
AcDbLine
 10
8.409999999991555
 20
3.670999999996297
 30
0.0
 11
10.06399999998996
 21
3.670999999996297
 31
0.0
1001
ACAD
1000
ASC_BOUNDS
1002
{
1070
    19
1005
19D85
1002
}
  0
LINE
  5
19D63
330
19D42
100
AcDbEntity
  8
0
100
AcDbLine
 10
10.53899999998941
 20
8.763099999991255
 30
0.0
 11
12.02999999998792
 21
8.763099999991255
 31
0.0
1001
ACAD
1000
ASC_BOUNDS
1002
{
1070
    19
1005
19D86
1002
}
  0
LINE
  5
19D64
330
19D42
100
AcDbEntity
  8
0
100
AcDbLine
 10
22.7389999999773
 20
3.670999999996297
 30
0.0
 11
23.56599999997638
 21
5.5200999999945
 31
0.0
1001
ACAD
1000
ASC_BOUNDS
1002
{
1070
    19
1005
19D87
1002
}
  0
LINE
  5
19D65
330
19D42
100
AcDbEntity
  8
0
100
AcDbLine
 10
22.7389999999773
 20
3.670999999996297
 30
0.0
 11
24.39299999997559
 21
3.670999999996297
 31
0.0
1001
ACAD
1000
ASC_BOUNDS
1002
{
1070
    19
1005
19D87
1002
}
  0
LINE
  5
19D66
330
19D42
100
AcDbEntity
  8
0
100
AcDbLine
 10
18.59799999998143
 20
3.315799999996671
 30
0.0
 11
20.89099999997916
 21
8.763099999991255
 31
0.0
1001
ACAD
1000
ASC_BOUNDS
1002
{
1070
    19
1005
19D86
1002
}
  0
LINE
  5
19D67
330
19D42
100
AcDbEntity
  8
0
100
AcDbLine
 10
18.59799999998143
 20
3.315799999996671
 30
0.0
 11
16.46099999998353
 21
8.999899999990987
 31
0.0
1001
ACAD
1000
ASC_BOUNDS
1002
{
1070
    19
1005
19D86
1002
}
  0
LINE
  5
19D68
330
19D42
100
AcDbEntity
  8
0
100
AcDbLine
 10
20.89099999997916
 20
8.763099999991255
 30
0.0
 11
22.38199999997767
 21
8.763099999991255
 31
0.0
1001
ACAD
1000
ASC_BOUNDS
1002
{
1070
    19
1005
19D86
1002
}
  0
LINE
  5
19D69
330
19D42
100
AcDbEntity
  8
0
100
AcDbLine
 10
24.39299999997559
 20
3.670999999996297
 30
0.0
 11
23.56599999997638
 21
5.5200999999945
 31
0.0
1001
ACAD
1000
ASC_BOUNDS
1002
{
1070
    19
1005
19D87
1002
}
  0
LINE
  5
19D6A
330
19D42
100
AcDbEntity
  8
0
100
AcDbLine
 10
44.99999999995498
 20
-0.2368999999997641
 30
0.0
 11
40.02599999995994
 21
5.341799999994635
 31
0.0
1001
ACAD
1000
ASC_BOUNDS
1002
{
1070
    19
1005
19D89
1002
}
  0
LINE
  5
19D6B
330
19D42
100
AcDbEntity
  8
0
100
AcDbLine
 10
40.02599999995994
 20
5.341799999994635
 30
0.0
 11
40.02599999995994
 21
0.0
 31
0.0
1001
ACAD
1000
ASC_BOUNDS
1002
{
1070
    19
1005
19D89
1002
}
  0
LINE
  5
19D6C
330
19D42
100
AcDbEntity
  8
0
100
AcDbLine
 10
38.60499999996136
 20
8.999999999991019
 30
0.0
 11
38.60499999996136
 21
0.0
 31
0.0
1001
ACAD
1000
ASC_BOUNDS
1002
{
1070
    19
1005
19D89
1002
}
  0
LINE
  5
19D6D
330
19D42
100
AcDbEntity
  8
0
100
AcDbLine
 10
44.99999999995498
 20
8.763099999991255
 30
0.0
 11
44.99999999995498
 21
-0.2368999999997641
 31
0.0
1001
ACAD
1000
ASC_BOUNDS
1002
{
1070
    19
1005
19D89
1002
}
  0
LINE
  5
19D6E
330
19D42
100
AcDbEntity
  8
0
100
AcDbLine
 10
38.60499999996136
 20
0.0
 30
0.0
 11
40.02599999995994
 21
0.0
 31
0.0
1001
ACAD
1000
ASC_BOUNDS
1002
{
1070
    19
1005
19D89
1002
}
  0
LINE
  5
19D6F
330
19D42
100
AcDbEntity
  8
0
100
AcDbLine
 10
43.57899999995641
 20
3.421199999996588
 30
0.0
 11
38.60499999996136
 21
8.999899999990987
 31
0.0
1001
ACAD
1000
ASC_BOUNDS
1002
{
1070
    19
1005
19D89
1002
}
  0
LINE
  5
19D70
330
19D42
100
AcDbEntity
  8
0
100
AcDbLine
 10
43.57899999995641
 20
8.763099999991255
 30
0.0
 11
43.57899999995641
 21
3.421199999996588
 31
0.0
1001
ACAD
1000
ASC_BOUNDS
1002
{
1070
    19
1005
19D89
1002
}
  0
LINE
  5
19D71
330
19D42
100
AcDbEntity
  8
0
100
AcDbLine
 10
43.57899999995641
 20
8.763099999991255
 30
0.0
 11
44.99999999995498
 21
8.763099999991255
 31
0.0
1001
ACAD
1000
ASC_BOUNDS
1002
{
1070
    19
1005
19D89
1002
}
  0
LINE
  5
19D72
330
19D42
100
AcDbEntity
  8
0
100
AcDbLine
 10
37.67199999996831
 20
8.763099999991255
 30
0.0
 11
36.23199999996837
 21
8.763099999991255
 31
0.0
  0
LINE
  5
19D73
330
19D42
100
AcDbEntity
  8
0
100
AcDbLine
 10
31.64199999996833
 20
8.763099999991255
 30
0.0
 11
31.64199999996833
 21
2.481619422925121
 31
0.0
  0
LINE
  5
19D74
330
19D42
100
AcDbEntity
  8
0
100
AcDbLine
 10
37.67199999996831
 20
8.763099999991255
 30
0.0
 11
37.67199999996831
 21
2.481619422925121
 31
0.0
  0
LINE
  5
19D75
330
19D42
100
AcDbEntity
  8
0
100
AcDbLine
 10
36.23199999996837
 20
8.763099999991255
 30
0.0
 11
36.23199999996837
 21
2.481619422925064
 31
0.0
  0
LINE
  5
19D76
330
19D42
100
AcDbEntity
  8
0
100
AcDbLine
 10
33.08199999996839
 20
8.763099999991255
 30
0.0
 11
33.08199999996839
 21
2.481619422925121
 31
0.0
  0
ARC
  5
19D77
330
19D42
100
AcDbEntity
  8
0
100
AcDbCircle
 10
34.65699999996832
 20
3.183099999991214
 30
0.0
 40
3.420000000000007
100
AcDbArc
 50
240.0000000000255
 51
299.9999999999766
  0
ARC
  5
19D78
330
19D42
100
AcDbEntity
  8
0
100
AcDbCircle
 10
34.65699999996832
 20
3.183099999991214
 30
0.0
 40
1.97999999999999
100
AcDbArc
 50
240.000000000026
 51
299.9999999999703
  0
LINE
  5
19D79
330
19D42
100
AcDbEntity
  8
0
100
AcDbLine
 10
33.08199999996828
 20
8.763099999991255
 30
0.0
 11
31.64199999996833
 21
8.763099999991255
 31
0.0
  0
ARC
  5
19D7A
330
19D42
100
AcDbEntity
  8
0
100
AcDbCircle
 10
35.06199999996829
 20
2.481619422925064
 30
0.0
 40
1.17
100
AcDbArc
 50
299.9999999999699
 51
0.0
  0
ARC
  5
19D7B
330
19D42
100
AcDbEntity
  8
0
100
AcDbCircle
 10
34.25199999996835
 20
2.481619422925121
 30
0.0
 40
1.17
100
AcDbArc
 50
180.0
 51
240.0000000000238
  0
ARC
  5
19D7C
330
19D42
100
AcDbEntity
  8
0
100
AcDbCircle
 10
35.06199999996841
 20
2.481619422925121
 30
0.0
 40
2.61
100
AcDbArc
 50
299.9999999999756
 51
0.0
  0
ARC
  5
19D7D
330
19D42
100
AcDbEntity
  8
0
100
AcDbCircle
 10
34.25199999996835
 20
2.481619422925121
 30
0.0
 40
2.61
100
AcDbArc
 50
180.0
 51
240.0000000000244
  0
LINE
  5
19D7E
330
19D42
100
AcDbEntity
  8
0
100
AcDbLine
 10
29.30199999996933
 20
8.763099999991255
 30
0.0
 11
30.74199999996927
 21
8.763099999991255
 31
0.0
1001
ACAD
1000
ASC_BOUNDS
1002
{
1070
    19
1005
19D87
1002
}
  0
LINE
  5
19D7F
330
19D42
100
AcDbEntity
  8
0
100
AcDbLine
 10
30.74199999996927
 20
8.763099999991255
 30
0.0
 11
30.74199999996927
 21
2.373099999991211
 31
0.0
1001
ACAD
1000
ASC_BOUNDS
1002
{
1070
    19
1005
19D87
1002
}
  0
LINE
  5
19D80
330
19D42
100
AcDbEntity
  8
0
100
AcDbLine
 10
26.02015566812236
 20
0.0330999999912365
 30
0.0
 11
28.40199999996923
 21
0.0330999999912365
 31
0.0
1001
ACAD
1000
ASC_BOUNDS
1002
{
1070
    19
1005
19D87
1002
}
  0
LINE
  5
19D81
330
19D42
100
AcDbEntity
  8
0
100
AcDbLine
 10
29.30199999996933
 20
8.763099999991255
 30
0.0
 11
29.30199999996933
 21
2.283099999991236
 31
0.0
1001
ACAD
1000
ASC_BOUNDS
1002
{
1070
    19
1005
19D87
1002
}
  0
LINE
  5
19D82
330
19D42
100
AcDbEntity
  8
0
100
AcDbLine
 10
26.97358892824991
 20
1.383099999991202
 30
0.0
 11
28.40199999996923
 21
1.383099999991202
 31
0.0
1001
ACAD
1000
ASC_BOUNDS
1002
{
1070
    19
1005
19D87
1002
}
  0
ARC
  5
19D83
330
19D42
100
AcDbEntity
  8
0
100
AcDbCircle
 10
28.40199999996923
 20
2.283099999991236
 30
0.0
 40
0.9
100
AcDbArc
 50
270.0
 51
0.0
1001
ACAD
1000
ASC_BOUNDS
1002
{
1070
    19
1005
19D87
1002
}
  0
ARC
  5
19D84
330
19D42
100
AcDbEntity
  8
0
100
AcDbCircle
 10
28.40199999996923
 20
2.373099999991211
 30
0.0
 40
2.34
100
AcDbArc
 50
270.0
 51
0.0
1001
ACAD
1000
ASC_BOUNDS
1002
{
1070
    19
1005
19D87
1002
}
  0
INSERT
  5
19D85
330
19D42
100
AcDbEntity
  8
0
100
AcDbBlockReference
  2
*X144
 10
0.0
 20
0.0
 30
0.0
1001
ACAD
1000
HATCH
1002
{
1070
    19
1000
ANSI37
1040
0.15
1040
0.0
1000
ASC_BOUNDS
1070
     2
1070
     2
1070
    12
1005
19D44
1005
19D45
1005
19D4C
1005
19D5B
1005
19D5E
1005
19D5C
1005
19D4D
1005
19D52
1005
19D50
1005
19D54
1005
19D53
1005
19D55
1070
     2
1070
     3
1005
19D60
1005
19D62
1005
19D61
1000
ASC_SEEDPOINT
1011
3.614004224891801
1021
2.996669441146025
1031
0.0
1000
R14_HATCH_DATA
1000
19D85
1011
1.0
1021
0.0
1031
0.0
1011
0.0
1021
1.0
1031
0.0
1011
0.0
1021
0.0
1031
1.0
1040
0.0
1010
0.0
1020
0.0
1030
1.0
1000
ANSI37
1070
     0
1070
     1
1071
        2
1071
        7
1070
     0
1070
     1
1071
       17
1040
13.26299999998673
1040
-0.0001000000000317
1040
9.236999999990758
1040
8.999899999990987
1040
9.236999999990758
1040
8.999999999991019
1040
5.657999999994331
1040
0.9999999999989768
1040
3.181999999996833
1040
4.668599999995308
1040
6.432999999993513
1040
8.763099999991255
1040
4.617999999995391
1040
8.763099999991255
1040
1.420999999998571
1040
4.736799999995242
1040
4.617999999995391
1040
-0.0001000000000317
1040
4.617999999995391
1040
0.0
1040
6.766999999993232
1040
0.0
1040
6.766999999993232
1040
-0.0001000000000317
1040
7.826999999992154
1040
2.368399999997621
1040
10.64699999998936
1040
2.368399999997621
1040
11.70599999998831
1040
-0.0001000000000317
1040
11.70599999998831
1040
0.0
1040
13.26299999998673
1040
0.0
1071
       12
1005
19D44
1005
19D45
1005
19D4C
1005
19D5B
1005
19D5E
1005
19D5C
1005
19D4D
1005
19D52
1005
19D50
1005
19D54
1005
19D53
1005
19D55
1071
       22
1070
     0
1070
     1
1071
        3
1040
9.236999999990758
1040
5.5200999999945
1040
10.06399999998996
1040
3.670999999996297
1040
8.409999999991555
1040
3.670999999996297
1071
        3
1005
19D60
1005
19D62
1005
19D61
1070
     0
1070
     1
1040
0.0
1040
0.15
1070
     0
1070
     2
1040
0.7853981633974483
1040
49.29960901727088
1040
-10.17736998311392
1040
-0.3367596045400932
1040
0.3367596045400932
1070
     0
1040
2.356194490192345
1040
49.29960901727088
1040
-10.17736998311392
1040
-0.3367596045400932
1040
-0.3367596045400932
1070
     0
1040
0.0110235143455945
1071
        2
1040
3.614004224891801
1040
2.996669441146025
1040
0.0
1040
3.614004224891801
1040
2.996669441146025
1040
0.0
1002
}
  0
INSERT
  5
19D86
330
19D42
100
AcDbEntity
  8
0
100
AcDbBlockReference
  2
*X145
 10
0.0
 20
0.0
 30
0.0
1001
ACAD
1000
HATCH
1002
{
1070
    19
1000
ANSI37
1040
0.15
1040
0.0
1000
ASC_BOUNDS
1070
     1
1070
     2
1070
    10
1005
19D46
1005
19D47
1005
19D68
1005
19D66
1005
19D67
1005
19D5A
1005
19D5F
1005
19D63
1005
19D49
1005
19D48
1000
ASC_SEEDPOINT
1011
14.73245321214324
1021
2.798246178283421
1031
0.0
1000
R14_HATCH_DATA
1000
19D86
1011
1.0
1021
0.0
1031
0.0
1011
0.0
1021
1.0
1031
0.0
1011
0.0
1021
0.0
1031
1.0
1040
0.0
1010
0.0
1020
0.0
1030
1.0
1000
ANSI37
1070
     0
1070
     1
1071
        1
1071
        7
1070
     0
1070
     1
1071
       10
1040
16.46099999998353
1040
5.432899999994561
1040
18.59199999998134
1040
-0.2368999999997641
1040
22.38199999997767
1040
8.763099999991255
1040
20.89099999997916
1040
8.763099999991255
1040
18.59799999998143
1040
3.315799999996671
1040
16.46099999998353
1040
8.999899999990987
1040
14.32399999998563
1040
3.315799999996671
1040
12.02999999998792
1040
8.763099999991255
1040
10.53899999998941
1040
8.763099999991255
1040
14.32899999998563
1040
-0.2368999999997641
1071
       10
1005
19D46
1005
19D47
1005
19D68
1005
19D66
1005
19D67
1005
19D5A
1005
19D5F
1005
19D63
1005
19D49
1005
19D48
1070
     0
1070
     1
1040
0.0
1040
0.15
1070
     0
1070
     2
1040
0.7853981633974483
1040
49.29960901727088
1040
-10.17736998311392
1040
-0.3367596045400932
1040
0.3367596045400932
1070
     0
1040
2.356194490192345
1040
49.29960901727088
1040
-10.17736998311392
1040
-0.3367596045400932
1040
-0.3367596045400932
1070
     0
1040
0.0110235143455945
1071
        1
1040
14.73245321214324
1040
2.798246178283421
1040
0.0
1002
}
  0
INSERT
  5
19D87
330
19D42
100
AcDbEntity
  8
0
100
AcDbBlockReference
  2
*X146
 10
0.0
 20
0.0
 30
0.0
1001
ACAD
1000
HATCH
1002
{
1070
    19
1000
ANSI37
1040
0.15
1040
0.0
1000
ASC_BOUNDS
1070
     2
1070
     2
1070
    13
1005
19D4A
1005
19D57
1005
19D58
1005
19D56
1005
19D59
1005
19D80
1005
19D84
1005
19D7F
1005
19D7E
1005
19D81
1005
19D83
1005
19D82
1005
19D4B
1070
     2
1070
     3
1005
19D64
1005
19D69
1005
19D65
1000
ASC_SEEDPOINT
1011
21.97929957367762
1021
3.294304244259308
1031
0.0
1000
R14_HATCH_DATA
1000
19D87
1011
1.0
1021
0.0
1031
0.0
1011
0.0
1021
1.0
1031
0.0
1011
0.0
1021
0.0
1031
1.0
1040
0.0
1010
0.0
1020
0.0
1030
1.0
1000
ANSI37
1070
     0
1070
     1
1071
        2
1071
        7
1070
     1
1070
     1
1071
       15
1040
23.56599999997638
1040
8.999899999990987
1040
0.0
1040
19.53899999998043
1040
-0.0001000000000317
1040
0.0
1040
19.53899999998043
1040
0.0
1040
0.0
1040
21.09599999997886
1040
0.0
1040
0.0
1040
21.09599999997886
1040
-0.0001000000000317
1040
0.0
1040
22.15599999997789
1040
2.368399999997621
1040
0.0
1040
24.97599999997499
1040
2.368399999997621
1040
0.0
1040
26.02015566812236
1040
0.0330999999912365
1040
0.0
1040
28.40199999996923
1040
0.0330999999912365
1040
0.414213562373095
1040
30.74199999996923
1040
2.373099999991211
1040
0.0
1040
30.74199999996927
1040
8.763099999991255
1040
0.0
1040
29.30199999996933
1040
8.763099999991255
1040
0.0
1040
29.30199999996933
1040
2.283099999991236
1040
-0.414213562373095
1040
28.40199999996923
1040
1.383099999991237
1040
0.0
1040
26.97358892824991
1040
1.383099999991202
1040
0.0
1071
       13
1005
19D4A
1005
19D57
1005
19D58
1005
19D56
1005
19D59
1005
19D80
1005
19D84
1005
19D7F
1005
19D7E
1005
19D81
1005
19D83
1005
19D82
1005
19D4B
1071
       22
1070
     0
1070
     1
1071
        3
1040
22.7389999999773
1040
3.670999999996297
1040
23.56599999997638
1040
5.5200999999945
1040
24.39299999997559
1040
3.670999999996297
1071
        3
1005
19D64
1005
19D69
1005
19D65
1070
     0
1070
     1
1040
0.0
1040
0.15
1070
     0
1070
     2
1040
0.7853981633974483
1040
49.29960901727088
1040
-10.17736998311392
1040
-0.3367596045400932
1040
0.3367596045400932
1070
     0
1040
2.356194490192345
1040
49.29960901727088
1040
-10.17736998311392
1040
-0.3367596045400932
1040
-0.3367596045400932
1070
     0
1040
0.0110235143455945
1071
        2
1040
21.97929957367762
1040
3.294304244259308
1040
0.0
1040
21.97929957367762
1040
3.294304244259308
1040
0.0
1002
}
  0
INSERT
  5
19D88
330
19D42
100
AcDbEntity
  8
0
100
AcDbBlockReference
  2
*X147
 10
0.0
 20
0.0
 30
0.0
1001
ACAD
1000
HATCH
1002
{
1070
    19
1000
ANSI37
1040
0.15
1040
0.0
1000
R14_HATCH_DATA
1000
19D88
1011
1.0
1021
0.0
1031
0.0
1011
0.0
1021
1.0
1031
0.0
1011
0.0
1021
0.0
1031
1.0
1040
0.0
1010
0.0
1020
0.0
1030
1.0
1000
ANSI37
1070
     0
1070
     1
1071
        1
1071
        7
1070
     1
1070
     1
1071
       12
1040
31.64199999996833
1040
2.481619422925121
1040
0.2679491924310942
1040
32.94699999997067
1040
0.2212931190493919
1040
0.2679491924301353
1040
36.36699999995983
1040
0.2212931190459813
1040
0.2679491924321411
1040
37.67199999996831
1040
2.481619422928361
1040
0.0
1040
37.67199999996831
1040
8.763099999991255
1040
0.0
1040
36.23199999996837
1040
8.763099999991255
1040
0.0
1040
36.23199999996837
1040
2.481619422925064
1040
-0.2679491924310291
1040
35.64699999996708
1040
1.468369700498386
1040
-0.267949192430519
1040
33.66699999997093
1040
1.468369700497703
1040
-0.267949192431809
1040
33.08199999996839
1040
2.481619422926997
1040
0.0
1040
33.08199999996839
1040
8.763099999991255
1040
0.0
1040
31.64199999996833
1040
8.763099999991255
1040
0.0
1071
        0
1070
     0
1070
     1
1040
0.0
1040
0.15
1070
     0
1070
     2
1040
0.7853981633974483
1040
49.29960901727088
1040
-10.17736998311392
1040
-0.3367596045400932
1040
0.3367596045400932
1070
     0
1040
2.356194490192345
1040
49.29960901727088
1040
-10.17736998311392
1040
-0.3367596045400932
1040
-0.3367596045400932
1070
     0
1040
0.0110235143455945
1071
        1
1040
32.30357378967278
1040
3.988785755459219
1040
0.0
1002
}
  0
INSERT
  5
19D89
330
19D42
100
AcDbEntity
  8
0
100
AcDbBlockReference
  2
*X148
 10
0.0
 20
0.0
 30
0.0
1001
ACAD
1000
HATCH
1002
{
1070
    19
1000
ANSI37
1040
0.15
1040
0.0
1000
ASC_BOUNDS
1070
     1
1070
     2
1070
     8
1005
19D6A
1005
19D6D
1005
19D71
1005
19D70
1005
19D6F
1005
19D6C
1005
19D6E
1005
19D6B
1000
ASC_SEEDPOINT
1011
39.74896370716704
1021
4.484843821435049
1031
0.0
1000
R14_HATCH_DATA
1000
19D89
1011
1.0
1021
0.0
1031
0.0
1011
0.0
1021
1.0
1031
0.0
1011
0.0
1021
0.0
1031
1.0
1040
0.0
1010
0.0
1020
0.0
1030
1.0
1000
ANSI37
1070
     0
1070
     1
1071
        1
1071
        7
1070
     0
1070
     1
1071
        9
1040
40.02599999995994
1040
5.341799999994635
1040
44.99999999995498
1040
-0.2368999999997641
1040
44.99999999995498
1040
8.763099999991255
1040
43.57899999995641
1040
8.763099999991255
1040
43.57899999995641
1040
3.421199999996588
1040
38.60499999996136
1040
8.999899999990987
1040
38.60499999996136
1040
8.999999999991019
1040
38.60499999996136
1040
0.0
1040
40.02599999995994
1040
0.0
1071
        8
1005
19D6A
1005
19D6D
1005
19D71
1005
19D70
1005
19D6F
1005
19D6C
1005
19D6E
1005
19D6B
1070
     0
1070
     1
1040
0.0
1040
0.15
1070
     0
1070
     2
1040
0.7853981633974483
1040
49.29960901727088
1040
-10.17736998311392
1040
-0.3367596045400932
1040
0.3367596045400932
1070
     0
1040
2.356194490192345
1040
49.29960901727088
1040
-10.17736998311392
1040
-0.3367596045400932
1040
-0.3367596045400932
1070
     0
1040
0.0110235143455945
1071
        1
1040
39.74896370716704
1040
4.484843821435049
1040
0.0
1002
}
  0
INSERT
  5
19D8A
330
19D42
100
AcDbEntity
  8
0
100
AcDbBlockReference
  2
*X149
 10
0.0
 20
0.0
 30
0.0
1001
ACAD
1000
HATCH
1002
{
1070
    19
1000
ANSI37
1040
0.15
1040
0.0
1000
ASC_BOUNDS
1070
     1
1070
     2
1070
     4
1005
19D4E
1005
19D5D
1005
19D4F
1005
19D51
1000
ASC_SEEDPOINT
1011
1.079051535452663
1021
4.148538732891836
1031
0.0
1000
R14_HATCH_DATA
1000
19D8A
1011
1.0
1021
0.0
1031
0.0
1011
0.0
1021
1.0
1031
0.0
1011
0.0
1021
0.0
1031
1.0
1040
0.0
1010
0.0
1020
0.0
1030
1.0
1000
ANSI37
1070
     0
1070
     1
1071
        1
1071
        7
1070
     0
1070
     1
1071
        4
1040
1.420999999998571
1040
0.0
1040
1.420999999998571
1040
8.763099999991255
1040
0.0
1040
8.763099999991255
1040
0.0
1040
0.0
1071
        4
1005
19D4E
1005
19D5D
1005
19D4F
1005
19D51
1070
     0
1070
     1
1040
0.0
1040
0.15
1070
     0
1070
     2
1040
0.7853981633974483
1040
49.29960901727088
1040
-10.17736998311392
1040
-0.3367596045400932
1040
0.3367596045400932
1070
     0
1040
2.356194490192345
1040
49.29960901727088
1040
-10.17736998311392
1040
-0.3367596045400932
1040
-0.3367596045400932
1070
     0
1040
0.0053004257112761
1071
        1
1040
1.079051535452663
1040
4.148538732891836
1040
0.0
1002
}
  0
ENDBLK
  5
1A551
330
19D42
100
AcDbEntity
  8
0
100
AcDbBlockEnd
  0
BLOCK
  5
1B1C8
330
1B03A
100
AcDbEntity
  8
0
100
AcDbBlockBegin
  2
*X144
 70
     1
 10
0.0
 20
0.0
 30
0.0
  3
*X144
  1

  0
LINE
  5
1B03B
330
1B03A
100
AcDbEntity
  8
0
  6
CONTINUOUS
100
AcDbLine
 10
3.418023043697893
 20
7.251849696850613
 30
0.0
 11
4.929273346838536
 21
8.763099999991255
 31
0.0
  0
LINE
  5
1B03C
330
1B03A
100
AcDbEntity
  8
0
  6
CONTINUOUS
100
AcDbLine
 10
1.483656411257782
 20
4.643963855330318
 30
0.0
 11
5.60279255591872
 21
8.763099999991255
 31
0.0
  0
LINE
  5
1B03D
330
1B03A
100
AcDbEntity
  8
0
  6
CONTINUOUS
100
AcDbLine
 10
1.755053947328235
 20
4.241842182320584
 30
0.0
 11
6.276311764998907
 21
8.763099999991255
 31
0.0
  0
LINE
  5
1B03E
330
1B03A
100
AcDbEntity
  8
0
  6
CONTINUOUS
100
AcDbLine
 10
2.026451483398688
 20
3.839720509310849
 30
0.0
 11
4.441040904851878
 21
6.254309930764039
 31
0.0
  0
LINE
  5
1B03F
330
1B03A
100
AcDbEntity
  8
0
  6
CONTINUOUS
100
AcDbLine
 10
2.297849019469139
 20
3.437598836301114
 30
0.0
 11
3.321765168359338
 21
4.461514985191313
 31
0.0
  0
LINE
  5
1B040
330
1B03A
100
AcDbEntity
  8
0
  6
CONTINUOUS
100
AcDbLine
 10
2.569246555539591
 20
3.03547716329138
 30
0.0
 11
3.593163397972743
 21
4.059394005724531
 31
0.0
  0
LINE
  5
1B041
330
1B03A
100
AcDbEntity
  8
0
  6
CONTINUOUS
100
AcDbLine
 10
2.840644091610043
 20
2.633355490281646
 30
0.0
 11
3.864561627586149
 21
3.657273026257751
 31
0.0
  0
LINE
  5
1B042
330
1B03A
100
AcDbEntity
  8
0
  6
CONTINUOUS
100
AcDbLine
 10
3.112041627680496
 20
2.231233817271911
 30
0.0
 11
4.135959857199554
 21
3.25515204679097
 31
0.0
  0
LINE
  5
1B043
330
1B03A
100
AcDbEntity
  8
0
  6
CONTINUOUS
100
AcDbLine
 10
3.383439163750948
 20
1.829112144262177
 30
0.0
 11
4.40735808681296
 21
2.853031067324189
 31
0.0
  0
LINE
  5
1B044
330
1B03A
100
AcDbEntity
  8
0
  6
CONTINUOUS
100
AcDbLine
 10
3.654836699821399
 20
1.426990471252442
 30
0.0
 11
4.678756316426365
 21
2.450910087857407
 31
0.0
  0
LINE
  5
1B045
330
1B03A
100
AcDbEntity
  8
0
  6
CONTINUOUS
100
AcDbLine
 10
3.926234235891853
 20
1.024868798242709
 30
0.0
 11
4.95015454603977
 21
2.048789108390626
 31
0.0
  0
LINE
  5
1B046
330
1B03A
100
AcDbEntity
  8
0
  6
CONTINUOUS
100
AcDbLine
 10
4.197631771962304
 20
0.6227471252329737
 30
0.0
 11
5.221552775653176
 21
1.646668128923846
 31
0.0
  0
LINE
  5
1B047
330
1B03A
100
AcDbEntity
  8
0
  6
CONTINUOUS
100
AcDbLine
 10
8.715877546767851
 20
7.835069736359266
 30
0.0
 11
9.435953450375058
 21
8.555145639966472
 31
0.0
  0
LINE
  5
1B048
330
1B03A
100
AcDbEntity
  8
0
  6
CONTINUOUS
100
AcDbLine
 10
8.170620868422267
 20
6.616293848933497
 30
0.0
 11
9.644120833743461
 21
8.08979381425469
 31
0.0
  0
LINE
  5
1B049
330
1B03A
100
AcDbEntity
  8
0
  6
CONTINUOUS
100
AcDbLine
 10
7.625364190076684
 20
5.397517961507727
 30
0.0
 11
9.852288217111864
 21
7.624441988542907
 31
0.0
  0
LINE
  5
1B04A
330
1B03A
100
AcDbEntity
  8
0
  6
CONTINUOUS
100
AcDbLine
 10
7.080107511731101
 20
4.178742074081957
 30
0.0
 11
10.06045560048027
 21
7.159090162831124
 31
0.0
  0
LINE
  5
1B04B
330
1B03A
100
AcDbEntity
  8
0
  6
CONTINUOUS
100
AcDbLine
 10
6.534850833385518
 20
2.959966186656187
 30
0.0
 11
10.26862298384867
 21
6.693738337119342
 31
0.0
  0
LINE
  5
1B04C
330
1B03A
100
AcDbEntity
  8
0
  6
CONTINUOUS
100
AcDbLine
 10
4.469029308032756
 20
0.2206254522232385
 30
0.0
 11
5.492951005266582
 21
1.244547149457064
 31
0.0
  0
LINE
  5
1B04D
330
1B03A
100
AcDbEntity
  8
0
  6
CONTINUOUS
100
AcDbLine
 10
5.989594155039935
 20
1.741190299230417
 30
0.0
 11
8.806950407233131
 21
4.558546551423613
 31
0.0
  0
LINE
  5
1B04E
330
1B03A
100
AcDbEntity
  8
0
  6
CONTINUOUS
100
AcDbLine
 10
9.401251593263643
 20
5.152847737454126
 30
0.0
 11
10.47679036721708
 21
6.228386511407559
 31
0.0
  0
LINE
  5
1B04F
330
1B03A
100
AcDbEntity
  8
0
  6
CONTINUOUS
100
AcDbLine
 10
4.921837203428691
 20
-0.0000858614610131
 30
0.0
 11
8.592923064886001
 21
3.670999999996297
 31
0.0
  0
LINE
  5
1B050
330
1B03A
100
AcDbEntity
  8
0
  6
CONTINUOUS
100
AcDbLine
 10
9.609390446785305
 20
4.6874673818956
 30
0.0
 11
10.68495775058548
 21
5.763034685695775
 31
0.0
  0
LINE
  5
1B051
330
1B03A
100
AcDbEntity
  8
0
  6
CONTINUOUS
100
AcDbLine
 10
5.595387755019432
 20
-0.0000545189504582
 30
0.0
 11
7.716137258923768
 21
2.120694984953879
 31
0.0
  0
LINE
  5
1B052
330
1B03A
100
AcDbEntity
  8
0
  6
CONTINUOUS
100
AcDbLine
 10
6.268938306610172
 20
-0.000023176439905
 30
0.0
 11
7.170485805526503
 21
0.9015243224764267
 31
0.0
  0
LINE
  5
1B053
330
1B03A
100
AcDbEntity
  8
0
  6
CONTINUOUS
100
AcDbLine
 10
7.963842273967511
 20
2.368399999997621
 30
0.0
 11
9.266442273966188
 21
3.670999999996297
 31
0.0
  0
LINE
  5
1B054
330
1B03A
100
AcDbEntity
  8
0
  6
CONTINUOUS
100
AcDbLine
 10
8.637361483047696
 20
2.368399999997621
 30
0.0
 11
9.939961483046375
 21
3.670999999996297
 31
0.0
  0
LINE
  5
1B055
330
1B03A
100
AcDbEntity
  8
0
  6
CONTINUOUS
100
AcDbLine
 10
9.817529300306965
 20
4.222087026337075
 30
0.0
 11
10.89312513395388
 21
5.297682859983993
 31
0.0
  0
LINE
  5
1B056
330
1B03A
100
AcDbEntity
  8
0
  6
CONTINUOUS
100
AcDbLine
 10
10.02566815382863
 20
3.756706670778549
 30
0.0
 11
11.10129251732229
 21
4.832331034272211
 31
0.0
  0
LINE
  5
1B057
330
1B03A
100
AcDbEntity
  8
0
  6
CONTINUOUS
100
AcDbLine
 10
9.310880692127883
 20
2.368399999997621
 30
0.0
 11
11.30945990069069
 21
4.366979208560428
 31
0.0
  0
LINE
  5
1B058
330
1B03A
100
AcDbEntity
  8
0
  6
CONTINUOUS
100
AcDbLine
 10
9.98439990120807
 20
2.36839999999762
 30
0.0
 11
11.5176272840591
 21
3.901627382848645
 31
0.0
  0
LINE
  5
1B059
330
1B03A
100
AcDbEntity
  8
0
  6
CONTINUOUS
100
AcDbLine
 10
10.65037369446246
 20
2.36085458417182
 30
0.0
 11
11.7257946674275
 21
3.436275557136862
 31
0.0
  0
LINE
  5
1B05A
330
1B03A
100
AcDbEntity
  8
0
  6
CONTINUOUS
100
AcDbLine
 10
10.85847197087848
 20
1.895433651507656
 30
0.0
 11
11.9339620507959
 21
2.97092373142508
 31
0.0
  0
LINE
  5
1B05B
330
1B03A
100
AcDbEntity
  8
0
  6
CONTINUOUS
100
AcDbLine
 10
11.0665702472945
 20
1.430012718843491
 30
0.0
 11
12.14212943416431
 21
2.505571905713296
 31
0.0
  0
LINE
  5
1B05C
330
1B03A
100
AcDbEntity
  8
0
  6
CONTINUOUS
100
AcDbLine
 10
11.27466852371052
 20
0.9645917861793256
 30
0.0
 11
12.35029681753271
 21
2.040220080001513
 31
0.0
  0
LINE
  5
1B05D
330
1B03A
100
AcDbEntity
  8
0
  6
CONTINUOUS
100
AcDbLine
 10
11.48276680012654
 20
0.4991708535151611
 30
0.0
 11
12.55846420090111
 21
1.57486825428973
 31
0.0
  0
LINE
  5
1B05E
330
1B03A
100
AcDbEntity
  8
0
  6
CONTINUOUS
100
AcDbLine
 10
11.69086507654257
 20
0.0337499208509957
 30
0.0
 11
12.76663158426952
 21
1.109516428577947
 31
0.0
  0
LINE
  5
1B05F
330
1B03A
100
AcDbEntity
  8
0
  6
CONTINUOUS
100
AcDbLine
 10
12.33057447873954
 20
-0.0000598860322123
 30
0.0
 11
12.97479896763792
 21
0.6441646028661663
 31
0.0
  0
LINE
  5
1B060
330
1B03A
100
AcDbEntity
  8
0
  6
CONTINUOUS
100
AcDbLine
 10
13.00413694809395
 20
-0.0000166257579952
 30
0.0
 11
13.18296635100632
 21
0.1788127771543824
 31
0.0
  0
LINE
  5
1B061
330
1B03A
100
AcDbEntity
  8
0
  6
CONTINUOUS
100
AcDbLine
 10
4.772852165289667
 20
-0.000092794222212
 30
0.0
 11
4.296495091028902
 21
0.4762642800385528
 31
0.0
  0
LINE
  5
1B062
330
1B03A
100
AcDbEntity
  8
0
  6
CONTINUOUS
100
AcDbLine
 10
5.446340034776103
 20
-0.0000614546284616
 30
0.0
 11
2.898195908335625
 21
2.548082671812017
 31
0.0
  0
LINE
  5
1B063
330
1B03A
100
AcDbEntity
  8
0
  6
CONTINUOUS
100
AcDbLine
 10
6.119827904262539
 20
-0.0000301150347113
 30
0.0
 11
1.499896725642348
 21
4.61990106358548
 31
0.0
  0
LINE
  5
1B064
330
1B03A
100
AcDbEntity
  8
0
  6
CONTINUOUS
100
AcDbLine
 10
6.775136745476159
 20
0.0181802528318542
 30
0.0
 11
5.699826040202669
 21
1.093490958105344
 31
0.0
  0
LINE
  5
1B065
330
1B03A
100
AcDbEntity
  8
0
  6
CONTINUOUS
100
AcDbLine
 10
6.983376846288489
 20
0.4834593610997118
 30
0.0
 11
5.908008617934405
 21
1.558827589453796
 31
0.0
  0
LINE
  5
1B066
330
1B03A
100
AcDbEntity
  8
0
  6
CONTINUOUS
100
AcDbLine
 10
5.377063484962296
 20
1.416253513345719
 30
0.0
 11
1.702276957014131
 21
5.091040041293883
 31
0.0
  0
LINE
  5
1B067
330
1B03A
100
AcDbEntity
  8
0
  6
CONTINUOUS
100
AcDbLine
 10
3.978745891735324
 20
3.488090315652877
 30
0.0
 11
2.000373521109399
 21
5.466462686278803
 31
0.0
  0
LINE
  5
1B068
330
1B03A
100
AcDbEntity
  8
0
  6
CONTINUOUS
100
AcDbLine
 10
7.191616947100819
 20
0.948738469367568
 30
0.0
 11
6.11619119566614
 21
2.024164220802247
 31
0.0
  0
LINE
  5
1B069
330
1B03A
100
AcDbEntity
  8
0
  6
CONTINUOUS
100
AcDbLine
 10
7.399857047913149
 20
1.414017577635424
 30
0.0
 11
6.324373773397875
 21
2.489500852150698
 31
0.0
  0
LINE
  5
1B06A
330
1B03A
100
AcDbEntity
  8
0
  6
CONTINUOUS
100
AcDbLine
 10
7.608097148725479
 20
1.879296685903281
 30
0.0
 11
6.53255635112961
 21
2.95483748349915
 31
0.0
  0
LINE
  5
1B06B
330
1B03A
100
AcDbEntity
  8
0
  6
CONTINUOUS
100
AcDbLine
 10
7.816337249537808
 20
2.344575794171138
 30
0.0
 11
6.740738928861345
 21
3.420174114847601
 31
0.0
  0
LINE
  5
1B06C
330
1B03A
100
AcDbEntity
  8
0
  6
CONTINUOUS
100
AcDbLine
 10
3.310241080789734
 20
4.830114335678653
 30
0.0
 11
2.298470085204666
 21
5.84188533126372
 31
0.0
  0
LINE
  5
1B06D
330
1B03A
100
AcDbEntity
  8
0
  6
CONTINUOUS
100
AcDbLine
 10
3.60832983563551
 20
5.205544789913063
 30
0.0
 11
2.596566649299935
 21
6.217307976248638
 31
0.0
  0
LINE
  5
1B06E
330
1B03A
100
AcDbEntity
  8
0
  6
CONTINUOUS
100
AcDbLine
 10
3.906418590481286
 20
5.580975244147473
 30
0.0
 11
2.894663213395203
 21
6.592730621233557
 31
0.0
  0
LINE
  5
1B06F
330
1B03A
100
AcDbEntity
  8
0
  6
CONTINUOUS
100
AcDbLine
 10
4.204507345327062
 20
5.956405698381884
 30
0.0
 11
3.192759777490472
 21
6.968153266218474
 31
0.0
  0
LINE
  5
1B070
330
1B03A
100
AcDbEntity
  8
0
  6
CONTINUOUS
100
AcDbLine
 10
8.466032252791512
 20
2.368399999997621
 30
0.0
 11
6.948921506593081
 21
3.885510746196053
 31
0.0
  0
LINE
  5
1B071
330
1B03A
100
AcDbEntity
  8
0
  6
CONTINUOUS
100
AcDbLine
 10
9.139551461871699
 20
2.36839999999762
 30
0.0
 11
7.157104084324816
 21
4.350847377544504
 31
0.0
  0
LINE
  5
1B072
330
1B03A
100
AcDbEntity
  8
0
  6
CONTINUOUS
100
AcDbLine
 10
4.502596100172839
 20
6.331836152616295
 30
0.0
 11
3.49085634158574
 21
7.343575911203393
 31
0.0
  0
LINE
  5
1B073
330
1B03A
100
AcDbEntity
  8
0
  6
CONTINUOUS
100
AcDbLine
 10
4.800684855018615
 20
6.707266606850705
 30
0.0
 11
3.788952905681008
 21
7.718998556188312
 31
0.0
  0
LINE
  5
1B074
330
1B03A
100
AcDbEntity
  8
0
  6
CONTINUOUS
100
AcDbLine
 10
12.18154012887317
 20
-0.0000694579236642
 30
0.0
 11
11.32140332908496
 21
0.8600673418645499
 31
0.0
  0
LINE
  5
1B075
330
1B03A
100
AcDbEntity
  8
0
  6
CONTINUOUS
100
AcDbLine
 10
12.85501608323566
 20
-0.0000262032059659
 30
0.0
 11
10.77672456435345
 21
2.078265315676246
 31
0.0
  0
LINE
  5
1B076
330
1B03A
100
AcDbEntity
  8
0
  6
CONTINUOUS
100
AcDbLine
 10
9.813070670951886
 20
2.36839999999762
 30
0.0
 11
8.51047067095321
 21
3.670999999996297
 31
0.0
  0
LINE
  5
1B077
330
1B03A
100
AcDbEntity
  8
0
  6
CONTINUOUS
100
AcDbLine
 10
10.48658988003207
 20
2.36839999999762
 30
0.0
 11
9.183989880033396
 21
3.670999999996297
 31
0.0
  0
LINE
  5
1B078
330
1B03A
100
AcDbEntity
  8
0
  6
CONTINUOUS
100
AcDbLine
 10
8.441048632286794
 20
3.740422038662712
 30
0.0
 11
7.365286662056551
 21
4.816184008892956
 31
0.0
  0
LINE
  5
1B079
330
1B03A
100
AcDbEntity
  8
0
  6
CONTINUOUS
100
AcDbLine
 10
8.649187485808454
 20
4.205802394221237
 30
0.0
 11
7.573469239788285
 21
5.281520640241407
 31
0.0
  0
LINE
  5
1B07A
330
1B03A
100
AcDbEntity
  8
0
  6
CONTINUOUS
100
AcDbLine
 10
5.098773609864391
 20
7.082697061085115
 30
0.0
 11
4.087049469776277
 21
8.09442120117323
 31
0.0
  0
LINE
  5
1B07B
330
1B03A
100
AcDbEntity
  8
0
  6
CONTINUOUS
100
AcDbLine
 10
5.396862364710167
 20
7.458127515319526
 30
0.0
 11
4.385146033871544
 21
8.469843846158149
 31
0.0
  0
LINE
  5
1B07C
330
1B03A
100
AcDbEntity
  8
0
  6
CONTINUOUS
100
AcDbLine
 10
13.04801363231285
 20
0.4804954567970334
 30
0.0
 11
9.85750908911358
 21
3.670999999996297
 31
0.0
  0
LINE
  5
1B07D
330
1B03A
100
AcDbEntity
  8
0
  6
CONTINUOUS
100
AcDbLine
 10
8.857326339330116
 20
4.671182749779763
 30
0.0
 11
7.781651817520021
 21
5.746857271589858
 31
0.0
  0
LINE
  5
1B07E
330
1B03A
100
AcDbEntity
  8
0
  6
CONTINUOUS
100
AcDbLine
 10
5.694951119555943
 20
7.833557969553937
 30
0.0
 11
4.765409089118624
 21
8.763099999991255
 31
0.0
  0
LINE
  5
1B07F
330
1B03A
100
AcDbEntity
  8
0
  6
CONTINUOUS
100
AcDbLine
 10
12.50286117236978
 20
1.699167125820288
 30
0.0
 11
9.68611877250287
 21
4.515909525687196
 31
0.0
  0
LINE
  5
1B080
330
1B03A
100
AcDbEntity
  8
0
  6
CONTINUOUS
100
AcDbLine
 10
9.065465192851777
 20
5.136563105338288
 30
0.0
 11
7.989834395251757
 21
6.21219390293831
 31
0.0
  0
LINE
  5
1B081
330
1B03A
100
AcDbEntity
  8
0
  6
CONTINUOUS
100
AcDbLine
 10
5.993039874401719
 20
8.208988423788346
 30
0.0
 11
5.43892829819881
 21
8.763099999991255
 31
0.0
  0
LINE
  5
1B082
330
1B03A
100
AcDbEntity
  8
0
  6
CONTINUOUS
100
AcDbLine
 10
11.95770871242671
 20
2.917838794843543
 30
0.0
 11
8.19801697298349
 21
6.677530534286761
 31
0.0
  0
LINE
  5
1B083
330
1B03A
100
AcDbEntity
  8
0
  6
CONTINUOUS
100
AcDbLine
 10
6.291128629247495
 20
8.584418878022756
 30
0.0
 11
6.112447507278997
 21
8.763099999991255
 31
0.0
  0
LINE
  5
1B084
330
1B03A
100
AcDbEntity
  8
0
  6
CONTINUOUS
100
AcDbLine
 10
11.41255625248364
 20
4.136510463866797
 30
0.0
 11
8.406199550715227
 21
7.142867165635211
 31
0.0
  0
LINE
  5
1B085
330
1B03A
100
AcDbEntity
  8
0
  6
CONTINUOUS
100
AcDbLine
 10
10.86740379254057
 20
5.355182132890051
 30
0.0
 11
8.614382128446962
 21
7.608203796983664
 31
0.0
  0
LINE
  5
1B086
330
1B03A
100
AcDbEntity
  8
0
  6
CONTINUOUS
100
AcDbLine
 10
10.3222513325975
 20
6.573853801913305
 30
0.0
 11
8.822564706178696
 21
8.073540428332114
 31
0.0
  0
LINE
  5
1B087
330
1B03A
100
AcDbEntity
  8
0
  6
CONTINUOUS
100
AcDbLine
 10
9.777098872654436
 20
7.792525470936562
 30
0.0
 11
9.030747283910433
 21
8.538877059680566
 31
0.0
  0
ENDBLK
  5
1B1C9
330
1B03A
100
AcDbEntity
  8
0
100
AcDbBlockEnd
  0
BLOCK
  5
1B1CA
330
1B088
100
AcDbEntity
  8
0
100
AcDbBlockBegin
  2
*X145
 70
     1
 10
0.0
 20
0.0
 30
0.0
  3
*X145
  1

  0
LINE
  5
1B089
330
1B088
100
AcDbEntity
  8
0
  6
CONTINUOUS
100
AcDbLine
 10
10.67292308101235
 20
8.445076852443387
 30
0.0
 11
10.99094622856022
 21
8.763099999991255
 31
0.0
  0
LINE
  5
1B08A
330
1B088
100
AcDbEntity
  8
0
  6
CONTINUOUS
100
AcDbLine
 10
10.87250383178748
 20
7.971138394138331
 30
0.0
 11
11.6644654376404
 21
8.763099999991255
 31
0.0
  0
LINE
  5
1B08B
330
1B088
100
AcDbEntity
  8
0
  6
CONTINUOUS
100
AcDbLine
 10
11.07208458256261
 20
7.497199935833273
 30
0.0
 11
12.12126590876355
 21
8.546381262034211
 31
0.0
  0
LINE
  5
1B08C
330
1B088
100
AcDbEntity
  8
0
  6
CONTINUOUS
100
AcDbLine
 10
11.27166533333774
 20
7.023261477528216
 30
0.0
 11
12.32085164573666
 21
8.072447789927136
 31
0.0
  0
LINE
  5
1B08D
330
1B088
100
AcDbEntity
  8
0
  6
CONTINUOUS
100
AcDbLine
 10
11.47124608411287
 20
6.549323019223158
 30
0.0
 11
12.52043738270977
 21
7.59851431782006
 31
0.0
  0
LINE
  5
1B08E
330
1B088
100
AcDbEntity
  8
0
  6
CONTINUOUS
100
AcDbLine
 10
11.670826834888
 20
6.075384560918101
 30
0.0
 11
12.72002311968288
 21
7.124580845712984
 31
0.0
  0
LINE
  5
1B08F
330
1B088
100
AcDbEntity
  8
0
  6
CONTINUOUS
100
AcDbLine
 10
11.87040758566313
 20
5.601446102613043
 30
0.0
 11
12.91960885665599
 21
6.650647373605907
 31
0.0
  0
LINE
  5
1B090
330
1B088
100
AcDbEntity
  8
0
  6
CONTINUOUS
100
AcDbLine
 10
12.06998833643825
 20
5.127507644307986
 30
0.0
 11
13.1191945936291
 21
6.176713901498832
 31
0.0
  0
LINE
  5
1B091
330
1B088
100
AcDbEntity
  8
0
  6
CONTINUOUS
100
AcDbLine
 10
12.26956908721338
 20
4.65356918600293
 30
0.0
 11
13.31878033060221
 21
5.702780429391757
 31
0.0
  0
LINE
  5
1B092
330
1B088
100
AcDbEntity
  8
0
  6
CONTINUOUS
100
AcDbLine
 10
12.46914983798851
 20
4.179630727697873
 30
0.0
 11
13.51836606757532
 21
5.228846957284683
 31
0.0
  0
LINE
  5
1B093
330
1B088
100
AcDbEntity
  8
0
  6
CONTINUOUS
100
AcDbLine
 10
12.66873058876364
 20
3.705692269392816
 30
0.0
 11
13.71795180454843
 21
4.754913485177607
 31
0.0
  0
LINE
  5
1B094
330
1B088
100
AcDbEntity
  8
0
  6
CONTINUOUS
100
AcDbLine
 10
12.86831133953877
 20
3.231753811087759
 30
0.0
 11
13.91753754152154
 21
4.280980013070531
 31
0.0
  0
LINE
  5
1B095
330
1B088
100
AcDbEntity
  8
0
  6
CONTINUOUS
100
AcDbLine
 10
13.0678920903139
 20
2.757815352782702
 30
0.0
 11
14.11712327849465
 21
3.807046540963456
 31
0.0
  0
LINE
  5
1B096
330
1B088
100
AcDbEntity
  8
0
  6
CONTINUOUS
100
AcDbLine
 10
13.26747284108903
 20
2.283876894477644
 30
0.0
 11
14.31670901546777
 21
3.333113068856379
 31
0.0
  0
LINE
  5
1B097
330
1B088
100
AcDbEntity
  8
0
  6
CONTINUOUS
100
AcDbLine
 10
16.36767838827179
 20
8.751678487061342
 30
0.0
 11
16.50332410898388
 21
8.887324207773432
 31
0.0
  0
LINE
  5
1B098
330
1B088
100
AcDbEntity
  8
0
  6
CONTINUOUS
100
AcDbLine
 10
15.96190732182191
 20
7.67238821153127
 30
0.0
 11
16.68735328004734
 21
8.397834169756699
 31
0.0
  0
LINE
  5
1B099
330
1B088
100
AcDbEntity
  8
0
  6
CONTINUOUS
100
AcDbLine
 10
15.55613625537202
 20
6.593097936001196
 30
0.0
 11
16.87138245111079
 21
7.908344131739965
 31
0.0
  0
LINE
  5
1B09A
330
1B088
100
AcDbEntity
  8
0
  6
CONTINUOUS
100
AcDbLine
 10
15.15036518892213
 20
5.513807660471122
 30
0.0
 11
17.05541162217424
 21
7.418854093723231
 31
0.0
  0
LINE
  5
1B09B
330
1B088
100
AcDbEntity
  8
0
  6
CONTINUOUS
100
AcDbLine
 10
14.74459412247225
 20
4.434517384941048
 30
0.0
 11
17.2394407932377
 21
6.929364055706499
 31
0.0
  0
LINE
  5
1B09C
330
1B088
100
AcDbEntity
  8
0
  6
CONTINUOUS
100
AcDbLine
 10
14.33882305602236
 20
3.355227109410975
 30
0.0
 11
17.42346996430115
 21
6.439874017689766
 31
0.0
  0
LINE
  5
1B09D
330
1B088
100
AcDbEntity
  8
0
  6
CONTINUOUS
100
AcDbLine
 10
13.46705359186416
 20
1.809938436172586
 30
0.0
 11
16.0819338255367
 21
4.424818669845129
 31
0.0
  0
LINE
  5
1B09E
330
1B088
100
AcDbEntity
  8
0
  6
CONTINUOUS
100
AcDbLine
 10
16.63283254238972
 20
4.975717386698149
 30
0.0
 11
17.60749913536461
 21
5.950383979673033
 31
0.0
  0
LINE
  5
1B09F
330
1B088
100
AcDbEntity
  8
0
  6
CONTINUOUS
100
AcDbLine
 10
13.66663434263929
 20
1.335999977867529
 30
0.0
 11
15.67604797733754
 21
3.345413612565779
 31
0.0
  0
LINE
  5
1B0A0
330
1B088
100
AcDbEntity
  8
0
  6
CONTINUOUS
100
AcDbLine
 10
13.86621509341442
 20
0.8620615195624723
 30
0.0
 11
15.27016212913838
 21
2.26600855528643
 31
0.0
  0
LINE
  5
1B0A1
330
1B088
100
AcDbEntity
  8
0
  6
CONTINUOUS
100
AcDbLine
 10
16.81682257348267
 20
4.486188208710908
 30
0.0
 11
17.79152830642806
 21
5.460893941656299
 31
0.0
  0
LINE
  5
1B0A2
330
1B088
100
AcDbEntity
  8
0
  6
CONTINUOUS
100
AcDbLine
 10
17.00081260457561
 20
3.996659030723667
 30
0.0
 11
17.97555747749151
 21
4.971403903639565
 31
0.0
  0
LINE
  5
1B0A3
330
1B088
100
AcDbEntity
  8
0
  6
CONTINUOUS
100
AcDbLine
 10
20.74362343514722
 20
8.412989070375462
 30
0.0
 11
21.09373436476302
 21
8.763099999991256
 31
0.0
  0
LINE
  5
1B0A4
330
1B088
100
AcDbEntity
  8
0
  6
CONTINUOUS
100
AcDbLine
 10
20.25401257174777
 20
7.249858997895826
 30
0.0
 11
21.7672535738432
 21
8.763099999991255
 31
0.0
  0
LINE
  5
1B0A5
330
1B088
100
AcDbEntity
  8
0
  6
CONTINUOUS
100
AcDbLine
 10
14.06579584418955
 20
0.3881230612574149
 30
0.0
 11
14.86427628093921
 21
1.186603498007082
 31
0.0
  0
LINE
  5
1B0A6
330
1B088
100
AcDbEntity
  8
0
  6
CONTINUOUS
100
AcDbLine
 10
14.26537659496467
 20
-0.0858153970476412
 30
0.0
 11
14.45839043274005
 21
0.1071984407277329
 31
0.0
  0
LINE
  5
1B0A7
330
1B088
100
AcDbEntity
  8
0
  6
CONTINUOUS
100
AcDbLine
 10
17.18480263566856
 20
3.507129852736426
 30
0.0
 11
18.15958664855496
 21
4.481913865622833
 31
0.0
  0
LINE
  5
1B0A8
330
1B088
100
AcDbEntity
  8
0
  6
CONTINUOUS
100
AcDbLine
 10
17.3687926667615
 20
3.017600674749186
 30
0.0
 11
18.34361581961842
 21
3.9924238276061
 31
0.0
  0
LINE
  5
1B0A9
330
1B088
100
AcDbEntity
  8
0
  6
CONTINUOUS
100
AcDbLine
 10
19.76440170834832
 20
6.086728925416191
 30
0.0
 11
22.33924590259489
 21
8.661573119662755
 31
0.0
  0
LINE
  5
1B0AA
330
1B088
100
AcDbEntity
  8
0
  6
CONTINUOUS
100
AcDbLine
 10
19.27479084494887
 20
4.923598852936555
 30
0.0
 11
21.84929622842713
 21
7.498104236414807
 31
0.0
  0
LINE
  5
1B0AB
330
1B088
100
AcDbEntity
  8
0
  6
CONTINUOUS
100
AcDbLine
 10
17.55278269785445
 20
2.528071496761945
 30
0.0
 11
18.52764499068187
 21
3.502933789589366
 31
0.0
  0
LINE
  5
1B0AC
330
1B088
100
AcDbEntity
  8
0
  6
CONTINUOUS
100
AcDbLine
 10
18.78517998154942
 20
3.760468780456919
 30
0.0
 11
21.35934655425936
 21
6.33463535316686
 31
0.0
  0
LINE
  5
1B0AD
330
1B088
100
AcDbEntity
  8
0
  6
CONTINUOUS
100
AcDbLine
 10
17.73677272894739
 20
2.038542318774704
 30
0.0
 11
20.8693968800916
 21
5.171166469918914
 31
0.0
  0
LINE
  5
1B0AE
330
1B088
100
AcDbEntity
  8
0
  6
CONTINUOUS
100
AcDbLine
 10
17.92076276004034
 20
1.549013140787464
 30
0.0
 11
20.37944720592384
 21
4.007697586670968
 31
0.0
  0
LINE
  5
1B0AF
330
1B088
100
AcDbEntity
  8
0
  6
CONTINUOUS
100
AcDbLine
 10
18.10475279113329
 20
1.059483962800223
 30
0.0
 11
19.88949753175608
 21
2.84422870342302
 31
0.0
  0
LINE
  5
1B0B0
330
1B088
100
AcDbEntity
  8
0
  6
CONTINUOUS
100
AcDbLine
 10
18.28874282222623
 20
0.5699547848129822
 30
0.0
 11
19.39954785758832
 21
1.680759820175074
 31
0.0
  0
LINE
  5
1B0B1
330
1B088
100
AcDbEntity
  8
0
  6
CONTINUOUS
100
AcDbLine
 10
18.47273285331918
 20
0.0804256068257416
 30
0.0
 11
18.90959818342056
 21
0.517290936927127
 31
0.0
  0
LINE
  5
1B0B2
330
1B088
100
AcDbEntity
  8
0
  6
CONTINUOUS
100
AcDbLine
 10
14.3590401358224
 20
-0.1570118376323384
 30
0.0
 11
14.24903296539946
 21
-0.0470046672093929
 31
0.0
  0
LINE
  5
1B0B3
330
1B088
100
AcDbEntity
  8
0
  6
CONTINUOUS
100
AcDbLine
 10
14.54309291258661
 20
0.332454594683643
 30
0.0
 11
13.75908329123172
 21
1.116464216038529
 31
0.0
  0
LINE
  5
1B0B4
330
1B088
100
AcDbEntity
  8
0
  6
CONTINUOUS
100
AcDbLine
 10
14.72714568935081
 20
0.8219210269996244
 30
0.0
 11
13.26913361706399
 21
2.27993309928645
 31
0.0
  0
LINE
  5
1B0B5
330
1B088
100
AcDbEntity
  8
0
  6
CONTINUOUS
100
AcDbLine
 10
14.91119846611502
 20
1.311387459315606
 30
0.0
 11
12.77918394289625
 21
3.443401982534371
 31
0.0
  0
LINE
  5
1B0B6
330
1B088
100
AcDbEntity
  8
0
  6
CONTINUOUS
100
AcDbLine
 10
15.09525124287922
 20
1.800853891631587
 30
0.0
 11
12.28923426872852
 21
4.606870865782293
 31
0.0
  0
LINE
  5
1B0B7
330
1B088
100
AcDbEntity
  8
0
  6
CONTINUOUS
100
AcDbLine
 10
15.27930401964343
 20
2.290320323947569
 30
0.0
 11
11.79928459456078
 21
5.770339749030213
 31
0.0
  0
LINE
  5
1B0B8
330
1B088
100
AcDbEntity
  8
0
  6
CONTINUOUS
100
AcDbLine
 10
15.46335679640763
 20
2.77978675626355
 30
0.0
 11
14.48885470994921
 21
3.754288842721972
 31
0.0
  0
LINE
  5
1B0B9
330
1B088
100
AcDbEntity
  8
0
  6
CONTINUOUS
100
AcDbLine
 10
13.88507249233704
 20
4.358071060334137
 30
0.0
 11
11.30933492039305
 21
6.933808632278135
 31
0.0
  0
LINE
  5
1B0BA
330
1B088
100
AcDbEntity
  8
0
  6
CONTINUOUS
100
AcDbLine
 10
18.75840522805855
 20
0.1582575336928151
 30
0.0
 11
18.25383727664818
 21
0.6628254851031863
 31
0.0
  0
LINE
  5
1B0BB
330
1B088
100
AcDbEntity
  8
0
  6
CONTINUOUS
100
AcDbLine
 10
15.64740957317184
 20
3.269253188579531
 30
0.0
 11
14.67288388101266
 21
4.243778880738705
 31
0.0
  0
LINE
  5
1B0BC
330
1B088
100
AcDbEntity
  8
0
  6
CONTINUOUS
100
AcDbLine
 10
13.39509276772158
 20
5.521569994029786
 30
0.0
 11
10.81938524622531
 21
8.097277515526056
 31
0.0
  0
LINE
  5
1B0BD
330
1B088
100
AcDbEntity
  8
0
  6
CONTINUOUS
100
AcDbLine
 10
18.95798597883369
 20
0.6321959919978686
 30
0.0
 11
17.84825644852853
 21
1.741925522303024
 31
0.0
  0
LINE
  5
1B0BE
330
1B088
100
AcDbEntity
  8
0
  6
CONTINUOUS
100
AcDbLine
 10
19.15756672960882
 20
1.106134450302922
 30
0.0
 11
17.44267562040888
 21
2.821025559502861
 31
0.0
  0
LINE
  5
1B0BF
330
1B088
100
AcDbEntity
  8
0
  6
CONTINUOUS
100
AcDbLine
 10
15.83146234993604
 20
3.758719620895513
 30
0.0
 11
14.85691305207612
 21
4.733268918755439
 31
0.0
  0
LINE
  5
1B0C0
330
1B088
100
AcDbEntity
  8
0
  6
CONTINUOUS
100
AcDbLine
 10
16.01551512670025
 20
4.248186053211494
 30
0.0
 11
15.04094222313957
 21
5.222758956772172
 31
0.0
  0
LINE
  5
1B0C1
330
1B088
100
AcDbEntity
  8
0
  6
CONTINUOUS
100
AcDbLine
 10
12.90511304310612
 20
6.685068927725435
 30
0.0
 11
10.8270819708403
 21
8.763099999991255
 31
0.0
  0
LINE
  5
1B0C2
330
1B088
100
AcDbEntity
  8
0
  6
CONTINUOUS
100
AcDbLine
 10
12.41513331849066
 20
7.848567861421083
 30
0.0
 11
11.50060117992049
 21
8.763099999991255
 31
0.0
  0
LINE
  5
1B0C3
330
1B088
100
AcDbEntity
  8
0
  6
CONTINUOUS
100
AcDbLine
 10
19.35714748038395
 20
1.580072908607975
 30
0.0
 11
17.03709479228923
 21
3.900125596702697
 31
0.0
  0
LINE
  5
1B0C4
330
1B088
100
AcDbEntity
  8
0
  6
CONTINUOUS
100
AcDbLine
 10
19.55672823115909
 20
2.054011366913028
 30
0.0
 11
16.63151396416958
 21
4.979225633902534
 31
0.0
  0
LINE
  5
1B0C5
330
1B088
100
AcDbEntity
  8
0
  6
CONTINUOUS
100
AcDbLine
 10
16.19956790346445
 20
4.737652485527476
 30
0.0
 11
15.22497139420302
 21
5.712248994788904
 31
0.0
  0
LINE
  5
1B0C6
330
1B088
100
AcDbEntity
  8
0
  6
CONTINUOUS
100
AcDbLine
 10
16.38362068022866
 20
5.227118917843457
 30
0.0
 11
15.40900056526648
 21
6.201739032805637
 31
0.0
  0
LINE
  5
1B0C7
330
1B088
100
AcDbEntity
  8
0
  6
CONTINUOUS
100
AcDbLine
 10
19.75630898193422
 20
2.527949825218081
 30
0.0
 11
18.70774536448286
 21
3.576513442669441
 31
0.0
  0
LINE
  5
1B0C8
330
1B088
100
AcDbEntity
  8
0
  6
CONTINUOUS
100
AcDbLine
 10
19.95588973270936
 20
3.001888283523134
 30
0.0
 11
18.90726987211446
 21
4.050508144118028
 31
0.0
  0
LINE
  5
1B0C9
330
1B088
100
AcDbEntity
  8
0
  6
CONTINUOUS
100
AcDbLine
 10
20.15547048348449
 20
3.475826741828186
 30
0.0
 11
19.10679437974606
 21
4.524502845566614
 31
0.0
  0
LINE
  5
1B0CA
330
1B088
100
AcDbEntity
  8
0
  6
CONTINUOUS
100
AcDbLine
 10
20.35505123425962
 20
3.94976520013324
 30
0.0
 11
19.30631888737766
 21
4.998497547015201
 31
0.0
  0
LINE
  5
1B0CB
330
1B088
100
AcDbEntity
  8
0
  6
CONTINUOUS
100
AcDbLine
 10
20.55463198503475
 20
4.423703658438292
 30
0.0
 11
19.50584339500926
 21
5.472492248463787
 31
0.0
  0
LINE
  5
1B0CC
330
1B088
100
AcDbEntity
  8
0
  6
CONTINUOUS
100
AcDbLine
 10
18.37481191085755
 20
3.909446896294752
 30
0.0
 11
15.59302973632993
 21
6.691229070822371
 31
0.0
  0
LINE
  5
1B0CD
330
1B088
100
AcDbEntity
  8
0
  6
CONTINUOUS
100
AcDbLine
 10
17.96904084440766
 20
4.988737171824825
 30
0.0
 11
15.77705890739338
 21
7.180719108839104
 31
0.0
  0
LINE
  5
1B0CE
330
1B088
100
AcDbEntity
  8
0
  6
CONTINUOUS
100
AcDbLine
 10
17.56326977795777
 20
6.068027447354899
 30
0.0
 11
15.96108807845684
 21
7.670209146855838
 31
0.0
  0
LINE
  5
1B0CF
330
1B088
100
AcDbEntity
  8
0
  6
CONTINUOUS
100
AcDbLine
 10
17.15749871150789
 20
7.147317722884972
 30
0.0
 11
16.14511724952029
 21
8.15969918487257
 31
0.0
  0
LINE
  5
1B0D0
330
1B088
100
AcDbEntity
  8
0
  6
CONTINUOUS
100
AcDbLine
 10
16.751727645058
 20
8.226607998415046
 30
0.0
 11
16.32914642058374
 21
8.649189222889303
 31
0.0
  0
LINE
  5
1B0D1
330
1B088
100
AcDbEntity
  8
0
  6
CONTINUOUS
100
AcDbLine
 10
20.75421273580989
 20
4.897642116743345
 30
0.0
 11
19.70536790264086
 21
5.946486949912374
 31
0.0
  0
LINE
  5
1B0D2
330
1B088
100
AcDbEntity
  8
0
  6
CONTINUOUS
100
AcDbLine
 10
20.95379348658502
 20
5.371580575048398
 30
0.0
 11
19.90489241027246
 21
6.42048165136096
 31
0.0
  0
LINE
  5
1B0D3
330
1B088
100
AcDbEntity
  8
0
  6
CONTINUOUS
100
AcDbLine
 10
21.15337423736015
 20
5.845519033353452
 30
0.0
 11
20.10441691790406
 21
6.894476352809547
 31
0.0
  0
LINE
  5
1B0D4
330
1B088
100
AcDbEntity
  8
0
  6
CONTINUOUS
100
AcDbLine
 10
21.35295498813529
 20
6.319457491658505
 30
0.0
 11
20.30394142553566
 21
7.368471054258134
 31
0.0
  0
LINE
  5
1B0D5
330
1B088
100
AcDbEntity
  8
0
  6
CONTINUOUS
100
AcDbLine
 10
21.55253573891042
 20
6.793395949963558
 30
0.0
 11
20.50346593316726
 21
7.842465755706721
 31
0.0
  0
LINE
  5
1B0D6
330
1B088
100
AcDbEntity
  8
0
  6
CONTINUOUS
100
AcDbLine
 10
21.75211648968556
 20
7.267334408268612
 30
0.0
 11
20.70299044079886
 21
8.316460457155308
 31
0.0
  0
LINE
  5
1B0D7
330
1B088
100
AcDbEntity
  8
0
  6
CONTINUOUS
100
AcDbLine
 10
21.95169724046069
 20
7.741272866573663
 30
0.0
 11
20.9298701070431
 21
8.763099999991256
 31
0.0
  0
LINE
  5
1B0D8
330
1B088
100
AcDbEntity
  8
0
  6
CONTINUOUS
100
AcDbLine
 10
22.15127799123582
 20
8.215211324878716
 30
0.0
 11
21.60338931612328
 21
8.763099999991256
 31
0.0
  0
LINE
  5
1B0D9
330
1B088
100
AcDbEntity
  8
0
  6
CONTINUOUS
100
AcDbLine
 10
22.35085874201096
 20
8.689149783183769
 30
0.0
 11
22.27690852520347
 21
8.763099999991255
 31
0.0
  0
ENDBLK
  5
1B1CB
330
1B088
100
AcDbEntity
  8
0
100
AcDbBlockEnd
  0
BLOCK
  5
1B1CC
330
1B0DA
100
AcDbEntity
  8
0
100
AcDbBlockBegin
  2
*X146
 70
     1
 10
0.0
 20
0.0
 30
0.0
  3
*X146
  1

  0
LINE
  5
1B0DB
330
1B0DA
100
AcDbEntity
  8
0
  6
CONTINUOUS
100
AcDbLine
 10
23.19462913593892
 20
8.169917934846424
 30
0.0
 11
23.70775465517246
 21
8.683043454079957
 31
0.0
  0
LINE
  5
1B0DC
330
1B0DA
100
AcDbEntity
  8
0
  6
CONTINUOUS
100
AcDbLine
 10
22.64923161835078
 20
6.951001208178088
 30
0.0
 11
23.9159364069932
 21
8.217705996820516
 31
0.0
  0
LINE
  5
1B0DD
330
1B0DA
100
AcDbEntity
  8
0
  6
CONTINUOUS
100
AcDbLine
 10
22.10383410076263
 20
5.732084481509751
 30
0.0
 11
24.12411815881395
 21
7.752368539561078
 31
0.0
  0
LINE
  5
1B0DE
330
1B0DA
100
AcDbEntity
  8
0
  6
CONTINUOUS
100
AcDbLine
 10
21.55843658317447
 20
4.513167754841414
 30
0.0
 11
24.3322999106347
 21
7.287031082301639
 31
0.0
  0
LINE
  5
1B0DF
330
1B0DA
100
AcDbEntity
  8
0
  6
CONTINUOUS
100
AcDbLine
 10
21.01303906558632
 20
3.294251028173077
 30
0.0
 11
24.54048166245544
 21
6.821693625042199
 31
0.0
  0
LINE
  5
1B0E0
330
1B0DA
100
AcDbEntity
  8
0
  6
CONTINUOUS
100
AcDbLine
 10
20.46764154799817
 20
2.075334301504738
 30
0.0
 11
23.28571549467848
 21
4.89340824818505
 31
0.0
  0
LINE
  5
1B0E1
330
1B0DA
100
AcDbEntity
  8
0
  6
CONTINUOUS
100
AcDbLine
 10
19.92224403041002
 20
0.8564175748364002
 30
0.0
 11
22.74075865492779
 21
3.674932199354171
 31
0.0
  0
LINE
  5
1B0E2
330
1B0DA
100
AcDbEntity
  8
0
  6
CONTINUOUS
100
AcDbLine
 10
23.67305085490148
 20
5.280743608408048
 30
0.0
 11
24.74866341427619
 21
6.356356167782759
 31
0.0
  0
LINE
  5
1B0E3
330
1B0DA
100
AcDbEntity
  8
0
  6
CONTINUOUS
100
AcDbLine
 10
23.88118970842314
 20
4.815363252849522
 30
0.0
 11
24.95684516609694
 21
5.89101871052332
 31
0.0
  0
LINE
  5
1B0E4
330
1B0DA
100
AcDbEntity
  8
0
  6
CONTINUOUS
100
AcDbLine
 10
19.73925852647308
 20
-0.0000871381807288
 30
0.0
 11
23.4103456646501
 21
3.670999999996297
 31
0.0
  0
LINE
  5
1B0E5
330
1B0DA
100
AcDbEntity
  8
0
  6
CONTINUOUS
100
AcDbLine
 10
24.0893285619448
 20
4.349982897290997
 30
0.0
 11
25.16502691791769
 21
5.42568125326388
 31
0.0
  0
LINE
  5
1B0E6
330
1B0DA
100
AcDbEntity
  8
0
  6
CONTINUOUS
100
AcDbLine
 10
20.41282099582748
 20
-0.0000438779065108
 30
0.0
 11
21.64944178675636
 21
1.236576913022366
 31
0.0
  0
LINE
  5
1B0E7
330
1B0DA
100
AcDbEntity
  8
0
  6
CONTINUOUS
100
AcDbLine
 10
22.78126487373161
 20
2.36839999999762
 30
0.0
 11
24.08386487373029
 21
3.670999999996297
 31
0.0
  0
LINE
  5
1B0E8
330
1B0DA
100
AcDbEntity
  8
0
  6
CONTINUOUS
100
AcDbLine
 10
24.29746741546646
 20
3.884602541732471
 30
0.0
 11
25.37320866973843
 21
4.960343796004441
 31
0.0
  0
LINE
  5
1B0E9
330
1B0DA
100
AcDbEntity
  8
0
  6
CONTINUOUS
100
AcDbLine
 10
21.08638346518189
 20
-0.0000006176322938
 30
0.0
 11
21.10379033335899
 21
0.0174062505448083
 31
0.0
  0
LINE
  5
1B0EA
330
1B0DA
100
AcDbEntity
  8
0
  6
CONTINUOUS
100
AcDbLine
 10
23.4547840828118
 20
2.36839999999762
 30
0.0
 11
25.58139042155918
 21
4.495006338745002
 31
0.0
  0
LINE
  5
1B0EB
330
1B0DA
100
AcDbEntity
  8
0
  6
CONTINUOUS
100
AcDbLine
 10
29.30199999996933
 20
8.215615917155148
 30
0.0
 11
29.84948408280543
 21
8.763099999991255
 31
0.0
  0
LINE
  5
1B0EC
330
1B0DA
100
AcDbEntity
  8
0
  6
CONTINUOUS
100
AcDbLine
 10
24.12830329189199
 20
2.36839999999762
 30
0.0
 11
25.78957217337993
 21
4.029668881485562
 31
0.0
  0
LINE
  5
1B0ED
330
1B0DA
100
AcDbEntity
  8
0
  6
CONTINUOUS
100
AcDbLine
 10
29.30199999996933
 20
7.54209670807496
 30
0.0
 11
30.52300329188562
 21
8.763099999991255
 31
0.0
  0
LINE
  5
1B0EE
330
1B0DA
100
AcDbEntity
  8
0
  6
CONTINUOUS
100
AcDbLine
 10
24.80182250097217
 20
2.36839999999762
 30
0.0
 11
25.99775392520067
 21
3.564331424226122
 31
0.0
  0
LINE
  5
1B0EF
330
1B0DA
100
AcDbEntity
  8
0
  6
CONTINUOUS
100
AcDbLine
 10
29.30199999996933
 20
6.868577498994774
 30
0.0
 11
30.74199999996926
 21
8.308577498994712
 31
0.0
  0
LINE
  5
1B0F0
330
1B0DA
100
AcDbEntity
  8
0
  6
CONTINUOUS
100
AcDbLine
 10
25.13028238392013
 20
2.023340673865392
 30
0.0
 11
26.20593567702142
 21
3.098993966966683
 31
0.0
  0
LINE
  5
1B0F1
330
1B0DA
100
AcDbEntity
  8
0
  6
CONTINUOUS
100
AcDbLine
 10
25.33838066033617
 20
1.557919741201244
 30
0.0
 11
26.41411742884217
 21
2.633656509707244
 31
0.0
  0
LINE
  5
1B0F2
330
1B0DA
100
AcDbEntity
  8
0
  6
CONTINUOUS
100
AcDbLine
 10
25.54647893675221
 20
1.092498808537098
 30
0.0
 11
26.62229918066291
 21
2.168319052447804
 31
0.0
  0
LINE
  5
1B0F3
330
1B0DA
100
AcDbEntity
  8
0
  6
CONTINUOUS
100
AcDbLine
 10
25.75457721316825
 20
0.62707787587295
 30
0.0
 11
26.83048093248366
 21
1.702981595188365
 31
0.0
  0
LINE
  5
1B0F4
330
1B0DA
100
AcDbEntity
  8
0
  6
CONTINUOUS
100
AcDbLine
 10
29.30199999996933
 20
6.195058289914587
 30
0.0
 11
30.74199999996926
 21
7.635058289914522
 31
0.0
  0
LINE
  5
1B0F5
330
1B0DA
100
AcDbEntity
  8
0
  6
CONTINUOUS
100
AcDbLine
 10
29.30199999996933
 20
5.521539080834401
 30
0.0
 11
30.74199999996926
 21
6.961539080834331
 31
0.0
  0
LINE
  5
1B0F6
330
1B0DA
100
AcDbEntity
  8
0
  6
CONTINUOUS
100
AcDbLine
 10
29.30199999996933
 20
4.848019871754214
 30
0.0
 11
30.74199999996925
 21
6.288019871754143
 31
0.0
  0
LINE
  5
1B0F7
330
1B0DA
100
AcDbEntity
  8
0
  6
CONTINUOUS
100
AcDbLine
 10
29.30199999996933
 20
4.174500662674028
 30
0.0
 11
30.74199999996925
 21
5.614500662673953
 31
0.0
  0
LINE
  5
1B0F8
330
1B0DA
100
AcDbEntity
  8
0
  6
CONTINUOUS
100
AcDbLine
 10
25.96267548958429
 20
0.1616569432088024
 30
0.0
 11
27.18411854636669
 21
1.383099999991207
 31
0.0
  0
LINE
  5
1B0F9
330
1B0DA
100
AcDbEntity
  8
0
  6
CONTINUOUS
100
AcDbLine
 10
29.30199999996933
 20
3.500981453593841
 30
0.0
 11
30.74199999996925
 21
4.940981453593762
 31
0.0
  0
LINE
  5
1B0FA
330
1B0DA
100
AcDbEntity
  8
0
  6
CONTINUOUS
100
AcDbLine
 10
26.50763775544691
 20
0.0330999999912356
 30
0.0
 11
27.85763775544689
 21
1.383099999991223
 31
0.0
  0
LINE
  5
1B0FB
330
1B0DA
100
AcDbEntity
  8
0
  6
CONTINUOUS
100
AcDbLine
 10
29.30199999996933
 20
2.827462244513656
 30
0.0
 11
30.74199999996925
 21
4.267462244513574
 31
0.0
  0
LINE
  5
1B0FC
330
1B0DA
100
AcDbEntity
  8
0
  6
CONTINUOUS
100
AcDbLine
 10
27.18115696452709
 20
0.0330999999912356
 30
0.0
 11
28.55073879889363
 21
1.402681834357775
 31
0.0
  0
LINE
  5
1B0FD
330
1B0DA
100
AcDbEntity
  8
0
  6
CONTINUOUS
100
AcDbLine
 10
29.28241816560272
 20
2.134361201066866
 30
0.0
 11
30.74199999996924
 21
3.593943035433383
 31
0.0
  0
LINE
  5
1B0FE
330
1B0DA
100
AcDbEntity
  8
0
  6
CONTINUOUS
100
AcDbLine
 10
27.85467617360728
 20
0.0330999999912356
 30
0.0
 11
30.74199999996924
 21
2.920423826353195
 31
0.0
  0
LINE
  5
1B0FF
330
1B0DA
100
AcDbEntity
  8
0
  6
CONTINUOUS
100
AcDbLine
 10
28.53897559587887
 20
0.0438802131826428
 30
0.0
 11
30.73121978677781
 21
2.236124404081585
 31
0.0
  0
LINE
  5
1B100
330
1B0DA
100
AcDbEntity
  8
0
  6
CONTINUOUS
100
AcDbLine
 10
29.45140055588722
 20
0.2827859641107988
 30
0.0
 11
30.49231403584965
 21
1.323699444073236
 31
0.0
  0
LINE
  5
1B101
330
1B0DA
100
AcDbEntity
  8
0
  6
CONTINUOUS
100
AcDbLine
 10
19.59027867740337
 20
-0.0000967065718083
 30
0.0
 11
19.55485265190471
 21
0.035329318926844
 31
0.0
  0
LINE
  5
1B102
330
1B0DA
100
AcDbEntity
  8
0
  6
CONTINUOUS
100
AcDbLine
 10
20.26375463176586
 20
-0.0000534518541091
 30
0.0
 11
19.76305575737534
 21
0.5006454225364014
 31
0.0
  0
LINE
  5
1B103
330
1B0DA
100
AcDbEntity
  8
0
  6
CONTINUOUS
100
AcDbLine
 10
20.93723058612834
 20
-0.0000101971364099
 30
0.0
 11
19.97125886284597
 21
0.965961526145958
 31
0.0
  0
LINE
  5
1B104
330
1B0DA
100
AcDbEntity
  8
0
  6
CONTINUOUS
100
AcDbLine
 10
21.25514828313686
 20
0.355591314935257
 30
0.0
 11
20.1794619683166
 21
1.431277629755512
 31
0.0
  0
LINE
  5
1B105
330
1B0DA
100
AcDbEntity
  8
0
  6
CONTINUOUS
100
AcDbLine
 10
21.46338838394921
 20
0.8208704232030986
 30
0.0
 11
20.38766507378723
 21
1.896593733365069
 31
0.0
  0
LINE
  5
1B106
330
1B0DA
100
AcDbEntity
  8
0
  6
CONTINUOUS
100
AcDbLine
 10
21.67162848476155
 20
1.28614953147094
 30
0.0
 11
20.59586817925786
 21
2.361909836974626
 31
0.0
  0
LINE
  5
1B107
330
1B0DA
100
AcDbEntity
  8
0
  6
CONTINUOUS
100
AcDbLine
 10
21.8798685855739
 20
1.751428639738782
 30
0.0
 11
20.80407128472849
 21
2.827225940584183
 31
0.0
  0
LINE
  5
1B108
330
1B0DA
100
AcDbEntity
  8
0
  6
CONTINUOUS
100
AcDbLine
 10
22.08810868638624
 20
2.216707748006623
 30
0.0
 11
21.01227439019912
 21
3.292542044193739
 31
0.0
  0
LINE
  5
1B109
330
1B0DA
100
AcDbEntity
  8
0
  6
CONTINUOUS
100
AcDbLine
 10
22.60993564347543
 20
2.36839999999762
 30
0.0
 11
21.22047749566975
 21
3.757858147803296
 31
0.0
  0
LINE
  5
1B10A
330
1B0DA
100
AcDbEntity
  8
0
  6
CONTINUOUS
100
AcDbLine
 10
23.28345485255561
 20
2.36839999999762
 30
0.0
 11
21.42868060114038
 21
4.223174251412853
 31
0.0
  0
LINE
  5
1B10B
330
1B0DA
100
AcDbEntity
  8
0
  6
CONTINUOUS
100
AcDbLine
 10
26.29227406164219
 20
0.0330999999912356
 30
0.0
 11
25.80009199592872
 21
0.5252820657046957
 31
0.0
  0
LINE
  5
1B10C
330
1B0DA
100
AcDbEntity
  8
0
  6
CONTINUOUS
100
AcDbLine
 10
23.9569740616358
 20
2.36839999999762
 30
0.0
 11
21.63688370661101
 21
4.688490355022409
 31
0.0
  0
LINE
  5
1B10D
330
1B0DA
100
AcDbEntity
  8
0
  6
CONTINUOUS
100
AcDbLine
 10
26.96579327072237
 20
0.0330999999912356
 30
0.0
 11
25.2554132311971
 21
1.743480039516508
 31
0.0
  0
LINE
  5
1B10E
330
1B0DA
100
AcDbEntity
  8
0
  6
CONTINUOUS
100
AcDbLine
 10
24.63049327071599
 20
2.36839999999762
 30
0.0
 11
23.32789327071731
 21
3.670999999996297
 31
0.0
  0
LINE
  5
1B10F
330
1B0DA
100
AcDbEntity
  8
0
  6
CONTINUOUS
100
AcDbLine
 10
22.92098674744635
 20
4.077906523267254
 30
0.0
 11
21.84508681208164
 21
5.153806458631966
 31
0.0
  0
LINE
  5
1B110
330
1B0DA
100
AcDbEntity
  8
0
  6
CONTINUOUS
100
AcDbLine
 10
27.63931247980256
 20
0.0330999999912356
 30
0.0
 11
24.0014124797975
 21
3.670999999996297
 31
0.0
  0
LINE
  5
1B111
330
1B0DA
100
AcDbEntity
  8
0
  6
CONTINUOUS
100
AcDbLine
 10
23.129125600968
 20
4.5432868788258
 30
0.0
 11
22.05328991755227
 21
5.619122562241522
 31
0.0
  0
LINE
  5
1B112
330
1B0DA
100
AcDbEntity
  8
0
  6
CONTINUOUS
100
AcDbLine
 10
28.31283168888275
 20
0.0330999999912356
 30
0.0
 11
24.16488385994816
 21
4.181047828925828
 31
0.0
  0
LINE
  5
1B113
330
1B0DA
100
AcDbEntity
  8
0
  6
CONTINUOUS
100
AcDbLine
 10
23.33726445448964
 20
5.008667234384345
 30
0.0
 11
22.2614930230229
 21
6.084438665851079
 31
0.0
  0
LINE
  5
1B114
330
1B0DA
100
AcDbEntity
  8
0
  6
CONTINUOUS
100
AcDbLine
 10
28.92085740005492
 20
0.0985934978992438
 30
0.0
 11
27.63635089796295
 21
1.383099999991217
 31
0.0
  0
LINE
  5
1B115
330
1B0DA
100
AcDbEntity
  8
0
  6
CONTINUOUS
100
AcDbLine
 10
26.43704649509776
 20
2.582404402856405
 30
0.0
 11
23.61992702019732
 21
5.399523877756844
 31
0.0
  0
LINE
  5
1B116
330
1B0DA
100
AcDbEntity
  8
0
  6
CONTINUOUS
100
AcDbLine
 10
23.54540330801128
 20
5.47404758994289
 30
0.0
 11
22.46969612849353
 21
6.549754769460635
 31
0.0
  0
LINE
  5
1B117
330
1B0DA
100
AcDbEntity
  8
0
  6
CONTINUOUS
100
AcDbLine
 10
29.42225615078443
 20
0.2707139562499279
 30
0.0
 11
28.30987010704312
 21
1.383099999991234
 31
0.0
  0
LINE
  5
1B118
330
1B0DA
100
AcDbEntity
  8
0
  6
CONTINUOUS
100
AcDbLine
 10
25.89179548232307
 20
3.801174624711282
 30
0.0
 11
22.67789923396416
 21
7.015070873070191
 31
0.0
  0
LINE
  5
1B119
330
1B0DA
100
AcDbEntity
  8
0
  6
CONTINUOUS
100
AcDbLine
 10
29.83624534690007
 20
0.5302439692144705
 30
0.0
 11
28.85811781497101
 21
1.508371501143527
 31
0.0
  0
LINE
  5
1B11A
330
1B0DA
100
AcDbEntity
  8
0
  6
CONTINUOUS
100
AcDbLine
 10
25.34654446954838
 20
5.01994484656616
 30
0.0
 11
22.88610233943479
 21
7.480386976679748
 31
0.0
  0
LINE
  5
1B11B
330
1B0DA
100
AcDbEntity
  8
0
  6
CONTINUOUS
100
AcDbLine
 10
30.17865975401872
 20
0.8613487711760022
 30
0.0
 11
29.18888744090175
 21
1.851121084292977
 31
0.0
  0
LINE
  5
1B11C
330
1B0DA
100
AcDbEntity
  8
0
  6
CONTINUOUS
100
AcDbLine
 10
24.80129345677369
 20
6.238715068421037
 30
0.0
 11
23.09430544490542
 21
7.945703080289305
 31
0.0
  0
LINE
  5
1B11D
330
1B0DA
100
AcDbEntity
  8
0
  6
CONTINUOUS
100
AcDbLine
 10
30.45496647202376
 20
1.258561262251155
 30
0.0
 11
29.30199999996933
 21
2.411527734305588
 31
0.0
  0
LINE
  5
1B11E
330
1B0DA
100
AcDbEntity
  8
0
  6
CONTINUOUS
100
AcDbLine
 10
24.256042443999
 20
7.457485290275915
 30
0.0
 11
23.30250855037605
 21
8.411019183898862
 31
0.0
  0
LINE
  5
1B11F
330
1B0DA
100
AcDbEntity
  8
0
  6
CONTINUOUS
100
AcDbLine
 10
30.64868582078271
 20
1.738361122572387
 30
0.0
 11
29.30199999996933
 21
3.085046943385775
 31
0.0
  0
LINE
  5
1B120
330
1B0DA
100
AcDbEntity
  8
0
  6
CONTINUOUS
100
AcDbLine
 10
23.71079143122431
 20
8.676255512130794
 30
0.0
 11
23.51071165584668
 21
8.876335287508416
 31
0.0
  0
LINE
  5
1B121
330
1B0DA
100
AcDbEntity
  8
0
  6
CONTINUOUS
100
AcDbLine
 10
30.73802122914428
 20
2.322544923291007
 30
0.0
 11
29.30199999996933
 21
3.758566152465961
 31
0.0
  0
LINE
  5
1B122
330
1B0DA
100
AcDbEntity
  8
0
  6
CONTINUOUS
100
AcDbLine
 10
30.74199999996924
 20
2.992085361546236
 30
0.0
 11
29.30199999996933
 21
4.432085361546148
 31
0.0
  0
LINE
  5
1B123
330
1B0DA
100
AcDbEntity
  8
0
  6
CONTINUOUS
100
AcDbLine
 10
30.74199999996924
 20
3.665604570626419
 30
0.0
 11
29.30199999996933
 21
5.105604570626333
 31
0.0
  0
LINE
  5
1B124
330
1B0DA
100
AcDbEntity
  8
0
  6
CONTINUOUS
100
AcDbLine
 10
30.74199999996925
 20
4.339123779706602
 30
0.0
 11
29.30199999996933
 21
5.77912377970652
 31
0.0
  0
LINE
  5
1B125
330
1B0DA
100
AcDbEntity
  8
0
  6
CONTINUOUS
100
AcDbLine
 10
30.74199999996925
 20
5.012642988786785
 30
0.0
 11
29.30199999996933
 21
6.452642988786707
 31
0.0
  0
LINE
  5
1B126
330
1B0DA
100
AcDbEntity
  8
0
  6
CONTINUOUS
100
AcDbLine
 10
30.74199999996925
 20
5.68616219786697
 30
0.0
 11
29.30199999996933
 21
7.126162197866894
 31
0.0
  0
LINE
  5
1B127
330
1B0DA
100
AcDbEntity
  8
0
  6
CONTINUOUS
100
AcDbLine
 10
30.74199999996925
 20
6.359681406947153
 30
0.0
 11
29.30199999996933
 21
7.799681406947081
 31
0.0
  0
LINE
  5
1B128
330
1B0DA
100
AcDbEntity
  8
0
  6
CONTINUOUS
100
AcDbLine
 10
30.74199999996926
 20
7.033200616027337
 30
0.0
 11
29.30199999996933
 21
8.473200616027269
 31
0.0
  0
LINE
  5
1B129
330
1B0DA
100
AcDbEntity
  8
0
  6
CONTINUOUS
100
AcDbLine
 10
30.74199999996926
 20
7.706719825107518
 30
0.0
 11
29.68561982508552
 21
8.763099999991255
 31
0.0
  0
LINE
  5
1B12A
330
1B0DA
100
AcDbEntity
  8
0
  6
CONTINUOUS
100
AcDbLine
 10
30.74199999996926
 20
8.380239034187703
 30
0.0
 11
30.35913903416571
 21
8.763099999991255
 31
0.0
  0
ENDBLK
  5
1B1CD
330
1B0DA
100
AcDbEntity
  8
0
100
AcDbBlockEnd
  0
BLOCK
  5
1B1CE
330
1B12B
100
AcDbEntity
  8
0
100
AcDbBlockBegin
  2
*X147
 70
     1
 10
0.0
 20
0.0
 30
0.0
  3
*X147
  1

  0
LINE
  5
1B12C
330
1B12B
100
AcDbEntity
  8
0
  6
CONTINUOUS
100
AcDbLine
 10
31.64199999996833
 20
8.535058289913598
 30
0.0
 11
31.87004171004599
 21
8.763099999991255
 31
0.0
  0
LINE
  5
1B12D
330
1B12B
100
AcDbEntity
  8
0
  6
CONTINUOUS
100
AcDbLine
 10
31.64199999996833
 20
7.861539080833412
 30
0.0
 11
32.54356091912618
 21
8.763099999991255
 31
0.0
  0
LINE
  5
1B12E
330
1B12B
100
AcDbEntity
  8
0
  6
CONTINUOUS
100
AcDbLine
 10
31.64199999996833
 20
7.188019871753226
 30
0.0
 11
33.08199999996839
 21
8.628019871753281
 31
0.0
  0
LINE
  5
1B12F
330
1B12B
100
AcDbEntity
  8
0
  6
CONTINUOUS
100
AcDbLine
 10
31.64199999996833
 20
6.51450066267304
 30
0.0
 11
33.08199999996839
 21
7.954500662673095
 31
0.0
  0
LINE
  5
1B130
330
1B12B
100
AcDbEntity
  8
0
  6
CONTINUOUS
100
AcDbLine
 10
31.64199999996833
 20
5.840981453592853
 30
0.0
 11
33.08199999996839
 21
7.280981453592908
 31
0.0
  0
LINE
  5
1B131
330
1B12B
100
AcDbEntity
  8
0
  6
CONTINUOUS
100
AcDbLine
 10
31.64199999996833
 20
5.167462244512667
 30
0.0
 11
33.08199999996839
 21
6.607462244512721
 31
0.0
  0
LINE
  5
1B132
330
1B12B
100
AcDbEntity
  8
0
  6
CONTINUOUS
100
AcDbLine
 10
31.64199999996833
 20
4.493943035432481
 30
0.0
 11
33.08199999996839
 21
5.933943035432535
 31
0.0
  0
LINE
  5
1B133
330
1B12B
100
AcDbEntity
  8
0
  6
CONTINUOUS
100
AcDbLine
 10
31.64199999996833
 20
3.820423826352293
 30
0.0
 11
33.08199999996839
 21
5.260423826352348
 31
0.0
  0
LINE
  5
1B134
330
1B12B
100
AcDbEntity
  8
0
  6
CONTINUOUS
100
AcDbLine
 10
31.64199999996833
 20
3.146904617272106
 30
0.0
 11
33.08199999996839
 21
4.586904617272161
 31
0.0
  0
LINE
  5
1B135
330
1B12B
100
AcDbEntity
  8
0
  6
CONTINUOUS
100
AcDbLine
 10
36.23199999996837
 20
8.410423826352325
 30
0.0
 11
36.5846761736073
 21
8.763099999991255
 31
0.0
  0
LINE
  5
1B136
330
1B12B
100
AcDbEntity
  8
0
  6
CONTINUOUS
100
AcDbLine
 10
36.23199999996837
 20
7.73690461727214
 30
0.0
 11
37.25819538268748
 21
8.763099999991255
 31
0.0
  0
LINE
  5
1B137
330
1B12B
100
AcDbEntity
  8
0
  6
CONTINUOUS
100
AcDbLine
 10
31.64257403601376
 20
2.473959444237348
 30
0.0
 11
33.08199999996839
 21
3.913385408191974
 31
0.0
  0
LINE
  5
1B138
330
1B12B
100
AcDbEntity
  8
0
  6
CONTINUOUS
100
AcDbLine
 10
36.23199999996837
 20
7.063385408191953
 30
0.0
 11
37.67199999996831
 21
8.503385408191894
 31
0.0
  0
LINE
  5
1B139
330
1B12B
100
AcDbEntity
  8
0
  6
CONTINUOUS
100
AcDbLine
 10
31.72013636841932
 20
1.87800256756272
 30
0.0
 11
33.08199999996839
 21
3.239866199111788
 31
0.0
  0
LINE
  5
1B13A
330
1B12B
100
AcDbEntity
  8
0
  6
CONTINUOUS
100
AcDbLine
 10
36.23199999996837
 20
6.389866199111767
 30
0.0
 11
37.67199999996831
 21
7.829866199111708
 31
0.0
  0
LINE
  5
1B13B
330
1B12B
100
AcDbEntity
  8
0
  6
CONTINUOUS
100
AcDbLine
 10
31.89042734314753
 20
1.374774333210744
 30
0.0
 11
33.08199999996839
 21
2.566346990031601
 31
0.0
  0
LINE
  5
1B13C
330
1B12B
100
AcDbEntity
  8
0
  6
CONTINUOUS
100
AcDbLine
 10
36.23199999996837
 20
5.71634699003158
 30
0.0
 11
37.67199999996831
 21
7.156346990031521
 31
0.0
  0
LINE
  5
1B13D
330
1B12B
100
AcDbEntity
  8
0
  6
CONTINUOUS
100
AcDbLine
 10
32.14210568064475
 20
0.952933461627778
 30
0.0
 11
33.18745552475986
 21
1.998283305742888
 31
0.0
  0
LINE
  5
1B13E
330
1B12B
100
AcDbEntity
  8
0
  6
CONTINUOUS
100
AcDbLine
 10
36.23199999996837
 20
5.042827780951393
 30
0.0
 11
37.67199999996831
 21
6.482827780951334
 31
0.0
  0
LINE
  5
1B13F
330
1B12B
100
AcDbEntity
  8
0
  6
CONTINUOUS
100
AcDbLine
 10
32.45820639400955
 20
0.5955149659123915
 30
0.0
 11
33.47242681921943
 21
1.60973539112227
 31
0.0
  0
LINE
  5
1B140
330
1B12B
100
AcDbEntity
  8
0
  6
CONTINUOUS
100
AcDbLine
 10
36.23199999996837
 20
4.369308571871207
 30
0.0
 11
37.67199999996831
 21
5.809308571871147
 31
0.0
  0
LINE
  5
1B141
330
1B12B
100
AcDbEntity
  8
0
  6
CONTINUOUS
100
AcDbLine
 10
32.83432456621412
 20
0.2981139290367771
 30
0.0
 11
33.89722476612215
 21
1.361014128944803
 31
0.0
  0
LINE
  5
1B142
330
1B12B
100
AcDbEntity
  8
0
  6
CONTINUOUS
100
AcDbLine
 10
36.23199999996837
 20
3.69578936279102
 30
0.0
 11
37.67199999996831
 21
5.135789362790962
 31
0.0
  0
LINE
  5
1B143
330
1B12B
100
AcDbEntity
  8
0
  6
CONTINUOUS
100
AcDbLine
 10
33.2711633111245
 20
0.0614334648669672
 30
0.0
 11
34.43247338014423
 21
1.222743533886696
 31
0.0
  0
LINE
  5
1B144
330
1B12B
100
AcDbEntity
  8
0
  6
CONTINUOUS
100
AcDbLine
 10
36.23199999996837
 20
3.022270153710834
 30
0.0
 11
37.67199999996831
 21
4.462270153710775
 31
0.0
  0
LINE
  5
1B145
330
1B12B
100
AcDbEntity
  8
0
  6
CONTINUOUS
100
AcDbLine
 10
33.76515245874577
 20
-0.1180965965919523
 30
0.0
 11
35.1587445516215
 21
1.27549549628378
 31
0.0
  0
LINE
  5
1B146
330
1B12B
100
AcDbEntity
  8
0
  6
CONTINUOUS
100
AcDbLine
 10
36.21639478609585
 20
2.333145730758136
 30
0.0
 11
37.67199999996831
 21
3.788750944630588
 31
0.0
  0
LINE
  5
1B147
330
1B12B
100
AcDbEntity
  8
0
  6
CONTINUOUS
100
AcDbLine
 10
34.34060583368432
 20
-0.2161624307335863
 30
0.0
 11
37.67199999996831
 21
3.115231735550401
 31
0.0
  0
LINE
  5
1B148
330
1B12B
100
AcDbEntity
  8
0
  6
CONTINUOUS
100
AcDbLine
 10
35.01698193613905
 20
-0.2133055373590427
 30
0.0
 11
37.66876712070525
 21
2.438479647207154
 31
0.0
  0
LINE
  5
1B149
330
1B12B
100
AcDbEntity
  8
0
  6
CONTINUOUS
100
AcDbLine
 10
35.90743367693304
 20
0.0036269943547609
 30
0.0
 11
37.51723902192366
 21
1.613432339345381
 31
0.0
  0
LINE
  5
1B14A
330
1B12B
100
AcDbEntity
  8
0
  6
CONTINUOUS
100
AcDbLine
 10
32.55309425579761
 20
0.5074718966376706
 30
0.0
 11
32.27784730925847
 21
0.7827188431768102
 31
0.0
  0
LINE
  5
1B14B
330
1B12B
100
AcDbEntity
  8
0
  6
CONTINUOUS
100
AcDbLine
 10
33.87496468909684
 20
-0.1408793275813673
 30
0.0
 11
31.67993083278052
 21
2.054154528734943
 31
0.0
  0
LINE
  5
1B14C
330
1B12B
100
AcDbEntity
  8
0
  6
CONTINUOUS
100
AcDbLine
 10
34.64362813207632
 20
-0.2360235614806649
 30
0.0
 11
31.64199999996833
 21
2.765604570627322
 31
0.0
  0
LINE
  5
1B14D
330
1B12B
100
AcDbEntity
  8
0
  6
CONTINUOUS
100
AcDbLine
 10
35.25801106796118
 20
-0.1768872882853429
 30
0.0
 11
31.64199999996833
 21
3.439123779707508
 31
0.0
  0
LINE
  5
1B14E
330
1B12B
100
AcDbEntity
  8
0
  6
CONTINUOUS
100
AcDbLine
 10
35.79065650332146
 20
-0.0360135145654361
 30
0.0
 11
34.54143210838231
 21
1.213210880373721
 31
0.0
  0
LINE
  5
1B14F
330
1B12B
100
AcDbEntity
  8
0
  6
CONTINUOUS
100
AcDbLine
 10
33.08199999996839
 20
2.67264298878764
 30
0.0
 11
31.64199999996833
 21
4.112642988787695
 31
0.0
  0
LINE
  5
1B150
330
1B12B
100
AcDbEntity
  8
0
  6
CONTINUOUS
100
AcDbLine
 10
36.25975597779143
 20
0.1684062200447833
 30
0.0
 11
35.15395110240023
 21
1.274211095435983
 31
0.0
  0
LINE
  5
1B151
330
1B12B
100
AcDbEntity
  8
0
  6
CONTINUOUS
100
AcDbLine
 10
33.08199999996839
 20
3.346162197867826
 30
0.0
 11
31.64199999996833
 21
4.786162197867881
 31
0.0
  0
LINE
  5
1B152
330
1B12B
100
AcDbEntity
  8
0
  6
CONTINUOUS
100
AcDbLine
 10
36.67226329638774
 20
0.4294181105286579
 30
0.0
 11
35.63766478748767
 21
1.464016619428737
 31
0.0
  0
LINE
  5
1B153
330
1B12B
100
AcDbEntity
  8
0
  6
CONTINUOUS
100
AcDbLine
 10
33.08199999996839
 20
4.019681406948012
 30
0.0
 11
31.64199999996833
 21
5.459681406948068
 31
0.0
  0
LINE
  5
1B154
330
1B12B
100
AcDbEntity
  8
0
  6
CONTINUOUS
100
AcDbLine
 10
37.01677749710036
 20
0.7584231188962329
 30
0.0
 11
35.99563422741351
 21
1.779566388583076
 31
0.0
  0
LINE
  5
1B155
330
1B12B
100
AcDbEntity
  8
0
  6
CONTINUOUS
100
AcDbLine
 10
33.08199999996839
 20
4.693200616028199
 30
0.0
 11
31.64199999996833
 21
6.133200616028255
 31
0.0
  0
LINE
  5
1B156
330
1B12B
100
AcDbEntity
  8
0
  6
CONTINUOUS
100
AcDbLine
 10
37.29859977568887
 20
1.1501200493879
 30
0.0
 11
36.20680593341555
 21
2.241913891661226
 31
0.0
  0
LINE
  5
1B157
330
1B12B
100
AcDbEntity
  8
0
  6
CONTINUOUS
100
AcDbLine
 10
33.08199999996839
 20
5.366719825108386
 30
0.0
 11
31.64199999996833
 21
6.80671982510844
 31
0.0
  0
LINE
  5
1B158
330
1B12B
100
AcDbEntity
  8
0
  6
CONTINUOUS
100
AcDbLine
 10
37.5148623517228
 20
1.607376682434161
 30
0.0
 11
36.23199999996837
 21
2.890239034188594
 31
0.0
  0
LINE
  5
1B159
330
1B12B
100
AcDbEntity
  8
0
  6
CONTINUOUS
100
AcDbLine
 10
33.08199999996839
 20
6.040239034188573
 30
0.0
 11
31.64199999996833
 21
7.480239034188627
 31
0.0
  0
LINE
  5
1B15A
330
1B12B
100
AcDbEntity
  8
0
  6
CONTINUOUS
100
AcDbLine
 10
37.64705163358367
 20
2.148706609653477
 30
0.0
 11
36.23199999996837
 21
3.56375824326878
 31
0.0
  0
LINE
  5
1B15B
330
1B12B
100
AcDbEntity
  8
0
  6
CONTINUOUS
100
AcDbLine
 10
33.08199999996839
 20
6.713758243268758
 30
0.0
 11
31.64199999996833
 21
8.153758243268815
 31
0.0
  0
LINE
  5
1B15C
330
1B12B
100
AcDbEntity
  8
0
  6
CONTINUOUS
100
AcDbLine
 10
37.67199999996831
 20
2.797277452349026
 30
0.0
 11
36.23199999996837
 21
4.237277452348967
 31
0.0
  0
LINE
  5
1B15D
330
1B12B
100
AcDbEntity
  8
0
  6
CONTINUOUS
100
AcDbLine
 10
37.67199999996831
 20
3.470796661429213
 30
0.0
 11
36.23199999996837
 21
4.910796661429154
 31
0.0
  0
LINE
  5
1B15E
330
1B12B
100
AcDbEntity
  8
0
  6
CONTINUOUS
100
AcDbLine
 10
37.67199999996831
 20
4.144315870509399
 30
0.0
 11
36.23199999996837
 21
5.58431587050934
 31
0.0
  0
LINE
  5
1B15F
330
1B12B
100
AcDbEntity
  8
0
  6
CONTINUOUS
100
AcDbLine
 10
33.08199999996839
 20
7.387277452348945
 30
0.0
 11
31.70617745232608
 21
8.763099999991255
 31
0.0
  0
LINE
  5
1B160
330
1B12B
100
AcDbEntity
  8
0
  6
CONTINUOUS
100
AcDbLine
 10
33.08199999996839
 20
8.060796661429132
 30
0.0
 11
32.37969666140626
 21
8.763099999991255
 31
0.0
  0
LINE
  5
1B161
330
1B12B
100
AcDbEntity
  8
0
  6
CONTINUOUS
100
AcDbLine
 10
33.08199999996839
 20
8.734315870509318
 30
0.0
 11
33.05321587048645
 21
8.763099999991255
 31
0.0
  0
LINE
  5
1B162
330
1B12B
100
AcDbEntity
  8
0
  6
CONTINUOUS
100
AcDbLine
 10
37.67199999996831
 20
4.817835079589585
 30
0.0
 11
36.23199999996837
 21
6.257835079589526
 31
0.0
  0
LINE
  5
1B163
330
1B12B
100
AcDbEntity
  8
0
  6
CONTINUOUS
100
AcDbLine
 10
37.67199999996831
 20
5.491354288669771
 30
0.0
 11
36.23199999996837
 21
6.931354288669713
 31
0.0
  0
LINE
  5
1B164
330
1B12B
100
AcDbEntity
  8
0
  6
CONTINUOUS
100
AcDbLine
 10
37.67199999996831
 20
6.164873497749958
 30
0.0
 11
36.23199999996837
 21
7.6048734977499
 31
0.0
  0
LINE
  5
1B165
330
1B12B
100
AcDbEntity
  8
0
  6
CONTINUOUS
100
AcDbLine
 10
37.67199999996831
 20
6.838392706830144
 30
0.0
 11
36.23199999996837
 21
8.278392706830086
 31
0.0
  0
LINE
  5
1B166
330
1B12B
100
AcDbEntity
  8
0
  6
CONTINUOUS
100
AcDbLine
 10
37.67199999996831
 20
7.511911915910332
 30
0.0
 11
36.42081191588738
 21
8.763099999991255
 31
0.0
  0
LINE
  5
1B167
330
1B12B
100
AcDbEntity
  8
0
  6
CONTINUOUS
100
AcDbLine
 10
37.67199999996831
 20
8.185431124990519
 30
0.0
 11
37.09433112496757
 21
8.763099999991255
 31
0.0
  0
ENDBLK
  5
1B1CF
330
1B12B
100
AcDbEntity
  8
0
100
AcDbBlockEnd
  0
BLOCK
  5
1B1D0
330
1B168
100
AcDbEntity
  8
0
100
AcDbBlockBegin
  2
*X148
 70
     1
 10
0.0
 20
0.0
 30
0.0
  3
*X148
  1

  0
LINE
  5
1B169
330
1B168
100
AcDbEntity
  8
0
  6
CONTINUOUS
100
AcDbLine
 10
38.60499999996136
 20
8.762866199104765
 30
0.0
 11
38.71672554182345
 21
8.874591740966855
 31
0.0
  0
LINE
  5
1B16A
330
1B168
100
AcDbEntity
  8
0
  6
CONTINUOUS
100
AcDbLine
 10
38.60499999996136
 20
8.089346990024577
 30
0.0
 11
39.03418785440363
 21
8.518534844466847
 31
0.0
  0
LINE
  5
1B16B
330
1B168
100
AcDbEntity
  8
0
  6
CONTINUOUS
100
AcDbLine
 10
38.60499999996136
 20
7.41582778094439
 30
0.0
 11
39.35165016698382
 21
8.16247794796684
 31
0.0
  0
LINE
  5
1B16C
330
1B168
100
AcDbEntity
  8
0
  6
CONTINUOUS
100
AcDbLine
 10
38.60499999996136
 20
6.742308571864204
 30
0.0
 11
39.66911247956399
 21
7.806421051466834
 31
0.0
  0
LINE
  5
1B16D
330
1B168
100
AcDbEntity
  8
0
  6
CONTINUOUS
100
AcDbLine
 10
38.60499999996136
 20
6.068789362784018
 30
0.0
 11
39.98657479214418
 21
7.450364154966827
 31
0.0
  0
LINE
  5
1B16E
330
1B168
100
AcDbEntity
  8
0
  6
CONTINUOUS
100
AcDbLine
 10
38.60499999996136
 20
5.395270153703832
 30
0.0
 11
40.30403710472435
 21
7.09430725846682
 31
0.0
  0
LINE
  5
1B16F
330
1B168
100
AcDbEntity
  8
0
  6
CONTINUOUS
100
AcDbLine
 10
38.60499999996136
 20
4.721750944623645
 30
0.0
 11
40.62149941730453
 21
6.738250361966813
 31
0.0
  0
LINE
  5
1B170
330
1B168
100
AcDbEntity
  8
0
  6
CONTINUOUS
100
AcDbLine
 10
38.60499999996136
 20
4.048231735543458
 30
0.0
 11
40.93896172988471
 21
6.382193465466806
 31
0.0
  0
LINE
  5
1B171
330
1B168
100
AcDbEntity
  8
0
  6
CONTINUOUS
100
AcDbLine
 10
38.60499999996136
 20
3.374712526463272
 30
0.0
 11
40.02599999995994
 21
4.795712526461843
 31
0.0
  0
LINE
  5
1B172
330
1B168
100
AcDbEntity
  8
0
  6
CONTINUOUS
100
AcDbLine
 10
38.60499999996136
 20
2.701193317383085
 30
0.0
 11
40.02599999995994
 21
4.122193317381657
 31
0.0
  0
LINE
  5
1B173
330
1B168
100
AcDbEntity
  8
0
  6
CONTINUOUS
100
AcDbLine
 10
40.28339754687704
 20
5.053110073378947
 30
0.0
 11
41.25642404246489
 21
6.026136568966799
 31
0.0
  0
LINE
  5
1B174
330
1B168
100
AcDbEntity
  8
0
  6
CONTINUOUS
100
AcDbLine
 10
40.60085985945722
 20
4.697053176878939
 30
0.0
 11
41.57388635504507
 21
5.670079672466793
 31
0.0
  0
LINE
  5
1B175
330
1B168
100
AcDbEntity
  8
0
  6
CONTINUOUS
100
AcDbLine
 10
43.57899999995641
 20
8.348712526458318
 30
0.0
 11
43.99338747348935
 21
8.763099999991255
 31
0.0
  0
LINE
  5
1B176
330
1B168
100
AcDbEntity
  8
0
  6
CONTINUOUS
100
AcDbLine
 10
43.57899999995641
 20
7.675193317378131
 30
0.0
 11
44.66690668256953
 21
8.763099999991255
 31
0.0
  0
LINE
  5
1B177
330
1B168
100
AcDbEntity
  8
0
  6
CONTINUOUS
100
AcDbLine
 10
38.60499999996136
 20
2.027674108302898
 30
0.0
 11
40.02599999995994
 21
3.44867410830147
 31
0.0
  0
LINE
  5
1B178
330
1B168
100
AcDbEntity
  8
0
  6
CONTINUOUS
100
AcDbLine
 10
38.60499999996136
 20
1.354154899222712
 30
0.0
 11
40.02599999995994
 21
2.775154899221284
 31
0.0
  0
LINE
  5
1B179
330
1B168
100
AcDbEntity
  8
0
  6
CONTINUOUS
100
AcDbLine
 10
38.60499999996136
 20
0.6806356901425255
 30
0.0
 11
40.02599999995994
 21
2.101635690141098
 31
0.0
  0
LINE
  5
1B17A
330
1B168
100
AcDbEntity
  8
0
  6
CONTINUOUS
100
AcDbLine
 10
38.60499999996136
 20
0.0071164810623383
 30
0.0
 11
40.02599999995994
 21
1.428116481060911
 31
0.0
  0
LINE
  5
1B17B
330
1B168
100
AcDbEntity
  8
0
  6
CONTINUOUS
100
AcDbLine
 10
40.9183221720374
 20
4.340996280378933
 30
0.0
 11
41.89134866762525
 21
5.314022775966786
 31
0.0
  0
LINE
  5
1B17C
330
1B168
100
AcDbEntity
  8
0
  6
CONTINUOUS
100
AcDbLine
 10
41.23578448461758
 20
3.984939383878926
 30
0.0
 11
42.20881098020543
 21
4.957965879466778
 31
0.0
  0
LINE
  5
1B17D
330
1B168
100
AcDbEntity
  8
0
  6
CONTINUOUS
100
AcDbLine
 10
41.55324679719776
 20
3.628882487378919
 30
0.0
 11
42.52627329278561
 21
4.601908982966772
 31
0.0
  0
LINE
  5
1B17E
330
1B168
100
AcDbEntity
  8
0
  6
CONTINUOUS
100
AcDbLine
 10
41.87070910977793
 20
3.272825590878912
 30
0.0
 11
42.84373560536579
 21
4.245852086466765
 31
0.0
  0
LINE
  5
1B17F
330
1B168
100
AcDbEntity
  8
0
  6
CONTINUOUS
100
AcDbLine
 10
43.57899999995641
 20
7.001674108297943
 30
0.0
 11
44.99999999995498
 21
8.422674108296516
 31
0.0
  0
LINE
  5
1B180
330
1B168
100
AcDbEntity
  8
0
  6
CONTINUOUS
100
AcDbLine
 10
43.57899999995641
 20
6.328154899217758
 30
0.0
 11
44.99999999995498
 21
7.749154899216329
 31
0.0
  0
LINE
  5
1B181
330
1B168
100
AcDbEntity
  8
0
  6
CONTINUOUS
100
AcDbLine
 10
43.57899999995641
 20
5.654635690137571
 30
0.0
 11
44.99999999995498
 21
7.075635690136142
 31
0.0
  0
LINE
  5
1B182
330
1B168
100
AcDbEntity
  8
0
  6
CONTINUOUS
100
AcDbLine
 10
43.57899999995641
 20
4.981116481057384
 30
0.0
 11
44.99999999995498
 21
6.402116481055955
 31
0.0
  0
LINE
  5
1B183
330
1B168
100
AcDbEntity
  8
0
  6
CONTINUOUS
100
AcDbLine
 10
39.27140272797921
 20
-0.0000000000000009
 30
0.0
 11
40.02599999995994
 21
0.7545972719807246
 31
0.0
  0
LINE
  5
1B184
330
1B168
100
AcDbEntity
  8
0
  6
CONTINUOUS
100
AcDbLine
 10
39.9449219370594
 20
-0.0000000000000009
 30
0.0
 11
40.02599999995994
 21
0.0810780629005379
 31
0.0
  0
LINE
  5
1B185
330
1B168
100
AcDbEntity
  8
0
  6
CONTINUOUS
100
AcDbLine
 10
42.18817142235812
 20
2.916768694378905
 30
0.0
 11
43.16119791794597
 21
3.889795189966758
 31
0.0
  0
LINE
  5
1B186
330
1B168
100
AcDbEntity
  8
0
  6
CONTINUOUS
100
AcDbLine
 10
42.50563373493829
 20
2.560711797878898
 30
0.0
 11
43.47866023052615
 21
3.533738293466751
 31
0.0
  0
LINE
  5
1B187
330
1B168
100
AcDbEntity
  8
0
  6
CONTINUOUS
100
AcDbLine
 10
43.57899999995641
 20
4.307597271977198
 30
0.0
 11
44.99999999995498
 21
5.728597271975769
 31
0.0
  0
LINE
  5
1B188
330
1B168
100
AcDbEntity
  8
0
  6
CONTINUOUS
100
AcDbLine
 10
43.57899999995641
 20
3.634078062897011
 30
0.0
 11
44.99999999995498
 21
5.055078062895582
 31
0.0
  0
LINE
  5
1B189
330
1B168
100
AcDbEntity
  8
0
  6
CONTINUOUS
100
AcDbLine
 10
42.82309604751848
 20
2.204654901378891
 30
0.0
 11
44.99999999995498
 21
4.381558853815395
 31
0.0
  0
LINE
  5
1B18A
330
1B168
100
AcDbEntity
  8
0
  6
CONTINUOUS
100
AcDbLine
 10
43.14055836009865
 20
1.848598004878885
 30
0.0
 11
44.99999999995498
 21
3.70803964473521
 31
0.0
  0
LINE
  5
1B18B
330
1B168
100
AcDbEntity
  8
0
  6
CONTINUOUS
100
AcDbLine
 10
43.45802067267883
 20
1.492541108378878
 30
0.0
 11
44.99999999995498
 21
3.034520435655023
 31
0.0
  0
LINE
  5
1B18C
330
1B168
100
AcDbEntity
  8
0
  6
CONTINUOUS
100
AcDbLine
 10
43.77548298525902
 20
1.136484211878871
 30
0.0
 11
44.99999999995498
 21
2.361001226574837
 31
0.0
  0
LINE
  5
1B18D
330
1B168
100
AcDbEntity
  8
0
  6
CONTINUOUS
100
AcDbLine
 10
44.09294529783919
 20
0.7804273153788639
 30
0.0
 11
44.99999999995498
 21
1.687482017494649
 31
0.0
  0
LINE
  5
1B18E
330
1B168
100
AcDbEntity
  8
0
  6
CONTINUOUS
100
AcDbLine
 10
44.41040761041938
 20
0.4243704188788566
 30
0.0
 11
44.99999999995498
 21
1.013962808414463
 31
0.0
  0
LINE
  5
1B18F
330
1B168
100
AcDbEntity
  8
0
  6
CONTINUOUS
100
AcDbLine
 10
44.72786992299955
 20
0.0683135223788494
 30
0.0
 11
44.99999999995498
 21
0.340443599334276
 31
0.0
  0
LINE
  5
1B190
330
1B168
100
AcDbEntity
  8
0
  6
CONTINUOUS
100
AcDbLine
 10
39.12223903415696
 20
-0.0000000000000009
 30
0.0
 11
38.60499999996136
 21
0.5172390341955961
 31
0.0
  0
LINE
  5
1B191
330
1B168
100
AcDbEntity
  8
0
  6
CONTINUOUS
100
AcDbLine
 10
39.79575824323715
 20
-0.0000000000000009
 30
0.0
 11
38.60499999996136
 21
1.190758243275783
 31
0.0
  0
LINE
  5
1B192
330
1B168
100
AcDbEntity
  8
0
  6
CONTINUOUS
100
AcDbLine
 10
40.02599999995994
 20
0.443277452357397
 30
0.0
 11
38.60499999996136
 21
1.864277452355969
 31
0.0
  0
LINE
  5
1B193
330
1B168
100
AcDbEntity
  8
0
  6
CONTINUOUS
100
AcDbLine
 10
40.02599999995994
 20
1.116796661437583
 30
0.0
 11
38.60499999996136
 21
2.537796661436155
 31
0.0
  0
LINE
  5
1B194
330
1B168
100
AcDbEntity
  8
0
  6
CONTINUOUS
100
AcDbLine
 10
40.02599999995994
 20
1.79031587051777
 30
0.0
 11
38.60499999996136
 21
3.211315870516341
 31
0.0
  0
LINE
  5
1B195
330
1B168
100
AcDbEntity
  8
0
  6
CONTINUOUS
100
AcDbLine
 10
40.02599999995994
 20
2.463835079597956
 30
0.0
 11
38.60499999996136
 21
3.884835079596527
 31
0.0
  0
LINE
  5
1B196
330
1B168
100
AcDbEntity
  8
0
  6
CONTINUOUS
100
AcDbLine
 10
40.02599999995994
 20
3.137354288678143
 30
0.0
 11
38.60499999996136
 21
4.558354288676714
 31
0.0
  0
LINE
  5
1B197
330
1B168
100
AcDbEntity
  8
0
  6
CONTINUOUS
100
AcDbLine
 10
40.02599999995994
 20
3.810873497758329
 30
0.0
 11
38.60499999996136
 21
5.2318734977569
 31
0.0
  0
LINE
  5
1B198
330
1B168
100
AcDbEntity
  8
0
  6
CONTINUOUS
100
AcDbLine
 10
40.02599999995994
 20
4.484392706838515
 30
0.0
 11
38.60499999996136
 21
5.905392706837086
 31
0.0
  0
LINE
  5
1B199
330
1B168
100
AcDbEntity
  8
0
  6
CONTINUOUS
100
AcDbLine
 10
44.99999999995498
 20
0.183911915923658
 30
0.0
 11
41.53858364506288
 21
3.64532827081576
 31
0.0
  0
LINE
  5
1B19A
330
1B168
100
AcDbEntity
  8
0
  6
CONTINUOUS
100
AcDbLine
 10
40.02599999995994
 20
5.157911915918703
 30
0.0
 11
38.60499999996136
 21
6.578911915917274
 31
0.0
  0
LINE
  5
1B19B
330
1B168
100
AcDbEntity
  8
0
  6
CONTINUOUS
100
AcDbLine
 10
44.99999999995498
 20
0.8574311250038447
 30
0.0
 11
38.60499999996136
 21
7.25243112499746
 31
0.0
  0
LINE
  5
1B19C
330
1B168
100
AcDbEntity
  8
0
  6
CONTINUOUS
100
AcDbLine
 10
44.99999999995498
 20
1.530950334084031
 30
0.0
 11
38.60499999996136
 21
7.925950334077647
 31
0.0
  0
LINE
  5
1B19D
330
1B168
100
AcDbEntity
  8
0
  6
CONTINUOUS
100
AcDbLine
 10
44.99999999995498
 20
2.204469543164218
 30
0.0
 11
43.57899999995641
 21
3.625469543162789
 31
0.0
  0
LINE
  5
1B19E
330
1B168
100
AcDbEntity
  8
0
  6
CONTINUOUS
100
AcDbLine
 10
41.89876730984767
 20
5.305702233271528
 30
0.0
 11
38.60499999996136
 21
8.599469543157834
 31
0.0
  0
LINE
  5
1B19F
330
1B168
100
AcDbEntity
  8
0
  6
CONTINUOUS
100
AcDbLine
 10
44.99999999995498
 20
2.877988752244405
 30
0.0
 11
43.57899999995641
 21
4.298988752242975
 31
0.0
  0
LINE
  5
1B1A0
330
1B168
100
AcDbEntity
  8
0
  6
CONTINUOUS
100
AcDbLine
 10
44.99999999995498
 20
3.551507961324591
 30
0.0
 11
43.57899999995641
 21
4.972507961323163
 31
0.0
  0
LINE
  5
1B1A1
330
1B168
100
AcDbEntity
  8
0
  6
CONTINUOUS
100
AcDbLine
 10
44.99999999995498
 20
4.225027170404777
 30
0.0
 11
43.57899999995641
 21
5.646027170403348
 31
0.0
  0
LINE
  5
1B1A2
330
1B168
100
AcDbEntity
  8
0
  6
CONTINUOUS
100
AcDbLine
 10
44.99999999995498
 20
4.898546379484964
 30
0.0
 11
43.57899999995641
 21
6.319546379483535
 31
0.0
  0
LINE
  5
1B1A3
330
1B168
100
AcDbEntity
  8
0
  6
CONTINUOUS
100
AcDbLine
 10
44.99999999995498
 20
5.572065588565151
 30
0.0
 11
43.57899999995641
 21
6.993065588563722
 31
0.0
  0
LINE
  5
1B1A4
330
1B168
100
AcDbEntity
  8
0
  6
CONTINUOUS
100
AcDbLine
 10
44.99999999995498
 20
6.245584797645336
 30
0.0
 11
43.57899999995641
 21
7.666584797643908
 31
0.0
  0
LINE
  5
1B1A5
330
1B168
100
AcDbEntity
  8
0
  6
CONTINUOUS
100
AcDbLine
 10
44.99999999995498
 20
6.919104006725522
 30
0.0
 11
43.57899999995641
 21
8.340104006724093
 31
0.0
  0
LINE
  5
1B1A6
330
1B168
100
AcDbEntity
  8
0
  6
CONTINUOUS
100
AcDbLine
 10
44.99999999995498
 20
7.592623215805709
 30
0.0
 11
43.82952321576943
 21
8.763099999991255
 31
0.0
  0
LINE
  5
1B1A7
330
1B168
100
AcDbEntity
  8
0
  6
CONTINUOUS
100
AcDbLine
 10
44.99999999995498
 20
8.266142424885896
 30
0.0
 11
44.50304242484962
 21
8.763099999991255
 31
0.0
  0
ENDBLK
  5
1B1D1
330
1B168
100
AcDbEntity
  8
0
100
AcDbBlockEnd
  0
BLOCK
  5
1B1D2
330
1B1A8
100
AcDbEntity
  8
0
100
AcDbBlockBegin
  2
*X149
 70
     1
 10
0.0
 20
0.0
 30
0.0
  3
*X149
  1

  0
LINE
  5
1B1A9
330
1B1A8
100
AcDbEntity
  8
0
  6
CONTINUOUS
100
AcDbLine
 10
0.0
 20
8.548461116714023
 30
0.0
 11
0.2146388832772324
 21
8.763099999991255
 31
0.0
  0
LINE
  5
1B1AA
330
1B1A8
100
AcDbEntity
  8
0
  6
CONTINUOUS
100
AcDbLine
 10
-0.0000000000000002
 20
7.874941907633837
 30
0.0
 11
0.8881580923574184
 21
8.763099999991255
 31
0.0
  0
LINE
  5
1B1AB
330
1B1A8
100
AcDbEntity
  8
0
  6
CONTINUOUS
100
AcDbLine
 10
0.0
 20
7.20142269855365
 30
0.0
 11
1.420999999998572
 21
8.622422698552223
 31
0.0
  0
LINE
  5
1B1AC
330
1B1A8
100
AcDbEntity
  8
0
  6
CONTINUOUS
100
AcDbLine
 10
-0.0000000000000001
 20
6.527903489473465
 30
0.0
 11
1.420999999998571
 21
7.948903489472036
 31
0.0
  0
LINE
  5
1B1AD
330
1B1A8
100
AcDbEntity
  8
0
  6
CONTINUOUS
100
AcDbLine
 10
-0.0000000000000002
 20
5.854384280393278
 30
0.0
 11
1.420999999998571
 21
7.275384280391849
 31
0.0
  0
LINE
  5
1B1AE
330
1B1A8
100
AcDbEntity
  8
0
  6
CONTINUOUS
100
AcDbLine
 10
-0.0000000000000002
 20
5.180865071313091
 30
0.0
 11
1.420999999998571
 21
6.601865071311663
 31
0.0
  0
LINE
  5
1B1AF
330
1B1A8
100
AcDbEntity
  8
0
  6
CONTINUOUS
100
AcDbLine
 10
0.0
 20
4.507345862232905
 30
0.0
 11
1.420999999998571
 21
5.928345862231477
 31
0.0
  0
LINE
  5
1B1B0
330
1B1A8
100
AcDbEntity
  8
0
  6
CONTINUOUS
100
AcDbLine
 10
-0.0000000000000003
 20
3.833826653152718
 30
0.0
 11
1.420999999998571
 21
5.25482665315129
 31
0.0
  0
LINE
  5
1B1B1
330
1B1A8
100
AcDbEntity
  8
0
  6
CONTINUOUS
100
AcDbLine
 10
-0.0000000000000002
 20
3.160307444072532
 30
0.0
 11
1.420999999998571
 21
4.581307444071103
 31
0.0
  0
LINE
  5
1B1B2
330
1B1A8
100
AcDbEntity
  8
0
  6
CONTINUOUS
100
AcDbLine
 10
-0.0000000000000001
 20
2.486788234992345
 30
0.0
 11
1.420999999998571
 21
3.907788234990917
 31
0.0
  0
LINE
  5
1B1B3
330
1B1A8
100
AcDbEntity
  8
0
  6
CONTINUOUS
100
AcDbLine
 10
-0.0000000000000006
 20
1.813269025912159
 30
0.0
 11
1.420999999998571
 21
3.234269025910731
 31
0.0
  0
LINE
  5
1B1B4
330
1B1A8
100
AcDbEntity
  8
0
  6
CONTINUOUS
100
AcDbLine
 10
0.0
 20
1.139749816831973
 30
0.0
 11
1.420999999998571
 21
2.560749816830544
 31
0.0
  0
LINE
  5
1B1B5
330
1B1A8
100
AcDbEntity
  8
0
  6
CONTINUOUS
100
AcDbLine
 10
0.0000000000000002
 20
0.466230607751787
 30
0.0
 11
1.420999999998571
 21
1.887230607750358
 31
0.0
  0
LINE
  5
1B1B6
330
1B1A8
100
AcDbEntity
  8
0
  6
CONTINUOUS
100
AcDbLine
 10
0.2072886013284003
 20
-0.0000000000000009
 30
0.0
 11
1.420999999998571
 21
1.213711398670171
 31
0.0
  0
LINE
  5
1B1B7
330
1B1A8
100
AcDbEntity
  8
0
  6
CONTINUOUS
100
AcDbLine
 10
0.8808078104085864
 20
-0.0000000000000009
 30
0.0
 11
1.420999999998571
 21
0.5401921895899839
 31
0.0
  0
LINE
  5
1B1B8
330
1B1A8
100
AcDbEntity
  8
0
  6
CONTINUOUS
100
AcDbLine
 10
0.0581249075061505
 20
-0.0000000000000009
 30
0.0
 11
-0.0000000000000002
 21
0.0581249075061496
 31
0.0
  0
LINE
  5
1B1B9
330
1B1A8
100
AcDbEntity
  8
0
  6
CONTINUOUS
100
AcDbLine
 10
0.7316441165863372
 20
-0.0000000000000009
 30
0.0
 11
-0.0000000000000002
 21
0.7316441165863363
 31
0.0
  0
LINE
  5
1B1BA
330
1B1A8
100
AcDbEntity
  8
0
  6
CONTINUOUS
100
AcDbLine
 10
1.405163325666523
 20
-0.0000000000000009
 30
0.0
 11
-0.0000000000000002
 21
1.405163325666523
 31
0.0
  0
LINE
  5
1B1BB
330
1B1A8
100
AcDbEntity
  8
0
  6
CONTINUOUS
100
AcDbLine
 10
1.420999999998572
 20
0.6576825347481381
 30
0.0
 11
-0.0000000000000001
 21
2.07868253474671
 31
0.0
  0
LINE
  5
1B1BC
330
1B1A8
100
AcDbEntity
  8
0
  6
CONTINUOUS
100
AcDbLine
 10
1.420999999998571
 20
1.331201743828324
 30
0.0
 11
-0.0000000000000001
 21
2.752201743826896
 31
0.0
  0
LINE
  5
1B1BD
330
1B1A8
100
AcDbEntity
  8
0
  6
CONTINUOUS
100
AcDbLine
 10
1.420999999998571
 20
2.004720952908511
 30
0.0
 11
-0.0000000000000002
 21
3.425720952907082
 31
0.0
  0
LINE
  5
1B1BE
330
1B1A8
100
AcDbEntity
  8
0
  6
CONTINUOUS
100
AcDbLine
 10
1.420999999998571
 20
2.678240161988697
 30
0.0
 11
-0.0000000000000001
 21
4.099240161987269
 31
0.0
  0
LINE
  5
1B1BF
330
1B1A8
100
AcDbEntity
  8
0
  6
CONTINUOUS
100
AcDbLine
 10
1.420999999998572
 20
3.351759371068884
 30
0.0
 11
0.0
 21
4.772759371067455
 31
0.0
  0
LINE
  5
1B1C0
330
1B1A8
100
AcDbEntity
  8
0
  6
CONTINUOUS
100
AcDbLine
 10
1.420999999998571
 20
4.02527858014907
 30
0.0
 11
-0.0000000000000003
 21
5.446278580147642
 31
0.0
  0
LINE
  5
1B1C1
330
1B1A8
100
AcDbEntity
  8
0
  6
CONTINUOUS
100
AcDbLine
 10
1.420999999998571
 20
4.698797789229257
 30
0.0
 11
0.0
 21
6.119797789227828
 31
0.0
  0
LINE
  5
1B1C2
330
1B1A8
100
AcDbEntity
  8
0
  6
CONTINUOUS
100
AcDbLine
 10
1.420999999998571
 20
5.372316998309444
 30
0.0
 11
-0.0000000000000001
 21
6.793316998308015
 31
0.0
  0
LINE
  5
1B1C3
330
1B1A8
100
AcDbEntity
  8
0
  6
CONTINUOUS
100
AcDbLine
 10
1.420999999998572
 20
6.045836207389629
 30
0.0
 11
-0.0000000000000004
 21
7.466836207388202
 31
0.0
  0
LINE
  5
1B1C4
330
1B1A8
100
AcDbEntity
  8
0
  6
CONTINUOUS
100
AcDbLine
 10
1.420999999998571
 20
6.719355416469816
 30
0.0
 11
0.0
 21
8.140355416468388
 31
0.0
  0
LINE
  5
1B1C5
330
1B1A8
100
AcDbEntity
  8
0
  6
CONTINUOUS
100
AcDbLine
 10
1.420999999998571
 20
7.392874625550003
 30
0.0
 11
0.0507746255573185
 21
8.763099999991255
 31
0.0
  0
LINE
  5
1B1C6
330
1B1A8
100
AcDbEntity
  8
0
  6
CONTINUOUS
100
AcDbLine
 10
1.420999999998571
 20
8.06639383463019
 30
0.0
 11
0.7242938346375052
 21
8.763099999991255
 31
0.0
  0
LINE
  5
1B1C7
330
1B1A8
100
AcDbEntity
  8
0
  6
CONTINUOUS
100
AcDbLine
 10
1.420999999998571
 20
8.739913043710375
 30
0.0
 11
1.397813043717691
 21
8.763099999991255
 31
0.0
  0
ENDBLK
  5
1B1D3
330
1B1A8
100
AcDbEntity
  8
0
100
AcDbBlockEnd
  0
ENDSEC
  0
SECTION
  2
ENTITIES
  0
LINE
  5
1AC5B
330
18
100
AcDbEntity
  8
01
100
AcDbLine
 10
2343.822839771068
 20
-563.55992436097
 30
0.0000000001127424
 11
2357.822839771068
 21
-563.55992436097
 31
0.0000000001127424
  0
LINE
  5
1AC5C
330
18
100
AcDbEntity
  8
01
100
AcDbLine
 10
2348.823723953128
 20
-351.5599243619986
 30
0.0000000001127424
 11
2502.578104108161
 21
-351.5599243619986
 31
0.0000000001127424
  0
LINE
  5
1AC5D
330
18
100
AcDbEntity
  8
01
  6
BYBLOCK
100
AcDbLine
 10
2348.823723953128
 20
-351.5599243619986
 30
0.0000000001127424
 11
2348.823723953128
 21
-391.5599243619986
 31
0.0000000001127424
  0
LINE
  5
1AC61
330
18
100
AcDbEntity
  8
01
100
AcDbLine
 10
2399.822839771066
 20
-356.5599243630272
 30
0.0000000001127424
 11
2399.822839771066
 21
-325.6418441737783
 31
0.0000000001127424
  0
LINE
  5
1AC62
330
18
100
AcDbEntity
  8
01
100
AcDbLine
 10
2374.822839771068
 20
-351.5599243619977
 30
0.0000000001127424
 11
2424.822839771068
 21
-351.5599243619999
 31
0.0000000001127424
  0
LINE
  5
1AC63
330
18
100
AcDbEntity
  8
01
100
AcDbLine
 10
2375.322839771065
 20
-343.0599243619977
 30
0.0000000001127424
 11
2424.322839771068
 21
-343.0599243620013
 31
0.0000000001127424
  0
LINE
  5
1AC64
330
18
100
AcDbEntity
  8
01
100
AcDbLine
 10
2424.822839771068
 20
-351.5599243619999
 30
0.0000000001127424
 11
2424.822839771068
 21
-343.5599243620013
 31
0.0000000001127424
  0
ARC
  5
1AC65
330
18
100
AcDbEntity
  8
01
100
AcDbCircle
 10
2424.322839771068
 20
-343.5599243620013
 30
0.0000000001127424
 40
0.5
100
AcDbArc
 50
0.0
 51
90.0
  0
LINE
  5
1AC66
330
18
100
AcDbEntity
  8
01
100
AcDbLine
 10
2374.822839771068
 20
-351.5599243619977
 30
0.0000000001127424
 11
2374.822839771065
 21
-343.5599243619981
 31
0.0000000001127424
  0
ARC
  5
1AC67
330
18
100
AcDbEntity
  8
01
100
AcDbCircle
 10
2375.322839771065
 20
-343.5599243619977
 30
0.0000000001127424
 40
0.5
100
AcDbArc
 50
90.0
 51
180.0
  0
LINE
  5
1AC68
330
18
100
AcDbEntity
  8
01
  6
BYBLOCK
100
AcDbLine
 10
2350.322839771068
 20
-555.6599243609699
 30
0.0000000001127424
 11
2350.322839771068
 21
-685.4599243609698
 31
0.0000000001127424
  0
LINE
  5
1AC69
330
18
100
AcDbEntity
  8
01
  6
BYBLOCK
100
AcDbLine
 10
2350.322839771068
 20
-684.55992436097
 30
0.0000000001127424
 11
2352.822839771068
 21
-684.55992436097
 31
0.0000000001127424
  0
LINE
  5
1AC6A
330
18
100
AcDbEntity
  8
01
  6
BYBLOCK
100
AcDbLine
 10
2352.822839771068
 20
-684.55992436097
 30
0.0000000001127424
 11
2352.822839771068
 21
-668.0569806358176
 31
0.0000000001127424
  0
LINE
  5
1AC6B
330
18
100
AcDbEntity
  8
01
  6
BYBLOCK
100
AcDbLine
 10
2348.822839771068
 20
-555.6599243609699
 30
0.0000000001127424
 11
2348.822839771068
 21
-685.4599243609698
 31
0.0000000001127424
  0
LINE
  5
1AC6C
330
18
100
AcDbEntity
  8
01
  6
BYBLOCK
100
AcDbLine
 10
2348.822839771068
 20
-685.4599243609698
 30
0.0000000001127424
 11
2350.322839771068
 21
-685.4599243609698
 31
0.0000000001127424
  0
LINE
  5
1AC6D
330
18
100
AcDbEntity
  8
01
  6
BYBLOCK
100
AcDbLine
 10
2350.322839771068
 20
-556.55992436097
 30
0.0000000001127424
 11
2352.822839771068
 21
-556.55992436097
 31
0.0000000001127424
  0
LINE
  5
1AC6E
330
18
100
AcDbEntity
  8
01
  6
BYBLOCK
100
AcDbLine
 10
2348.822839771068
 20
-555.6599243609699
 30
0.0000000001127424
 11
2350.322839771068
 21
-555.6599243609699
 31
0.0000000001127424
  0
LINE
  5
1AC6F
330
18
100
AcDbEntity
  8
01
  6
BYBLOCK
100
AcDbLine
 10
2350.322839771068
 20
-580.55992436097
 30
0.0000000001127424
 11
2351.522839771068
 21
-580.55992436097
 31
0.0000000001127424
  0
LINE
  5
1AC70
330
18
100
AcDbEntity
  8
01
  6
BYBLOCK
100
AcDbLine
 10
2351.522839771068
 20
-574.8599243609697
 30
0.0000000001127424
 11
2351.522839771068
 21
-666.2599243609698
 31
0.0000000001127424
  0
LINE
  5
1AC71
330
18
100
AcDbEntity
  8
01
  6
BYBLOCK
100
AcDbLine
 10
2351.622839771068
 20
-684.55992436097
 30
0.0000000001127424
 11
2351.622839771068
 21
-667.9599243609698
 31
0.0000000001127424
  0
LINE
  5
1AC72
330
18
100
AcDbEntity
  8
01
  6
BYBLOCK
100
AcDbLine
 10
2351.622839771068
 20
-667.9599243609698
 30
0.0000000001127424
 11
2350.674311633644
 21
-667.011396223546
 31
0.0000000001127424
  0
LINE
  5
1AC73
330
18
100
AcDbEntity
  8
01
  6
BYBLOCK
100
AcDbLine
 10
2352.471367908492
 20
-667.2084524983936
 30
0.0000000001127424
 11
2351.522839771068
 21
-666.2599243609698
 31
0.0000000001127424
  0
ARC
  5
1AC74
330
18
100
AcDbEntity
  8
01
  6
BYBLOCK
100
AcDbCircle
 10
2351.622839771068
 20
-668.0569806358176
 30
0.0000000001127424
 40
1.2
100
AcDbArc
 50
0.0
 51
45.00000000003838
  0
ARC
  5
1AC75
330
18
100
AcDbEntity
  8
01
  6
BYBLOCK
100
AcDbCircle
 10
2351.522839771068
 20
-666.162868086122
 30
0.0000000001127424
 40
1.2
100
AcDbArc
 50
180.0
 51
225.0000000000384
  0
LINE
  5
1AC76
330
18
100
AcDbEntity
  8
01
  6
BYBLOCK
100
AcDbLine
 10
2352.822839771068
 20
-556.55992436097
 30
0.0000000001127424
 11
2352.822839771068
 21
-573.0628680861221
 31
0.0000000001127424
  0
LINE
  5
1AC77
330
18
100
AcDbEntity
  8
01
  6
BYBLOCK
100
AcDbLine
 10
2351.622839771068
 20
-556.55992436097
 30
0.0000000001127424
 11
2351.622839771068
 21
-573.1599243609699
 31
0.0000000001127424
  0
LINE
  5
1AC78
330
18
100
AcDbEntity
  8
01
  6
BYBLOCK
100
AcDbLine
 10
2351.622839771068
 20
-573.1599243609699
 30
0.0000000001127424
 11
2350.674311633644
 21
-574.1084524983937
 31
0.0000000001127424
  0
LINE
  5
1AC79
330
18
100
AcDbEntity
  8
01
  6
BYBLOCK
100
AcDbLine
 10
2352.471367908492
 20
-573.911396223546
 30
0.0000000001127424
 11
2351.522839771068
 21
-574.8599243609699
 31
0.0000000001127424
  0
ARC
  5
1AC7A
330
18
100
AcDbEntity
  8
01
  6
BYBLOCK
100
AcDbCircle
 10
2351.622839771068
 20
-573.0628680861221
 30
0.0000000001127424
 40
1.2
100
AcDbArc
 50
314.9999999999616
 51
0.0
  0
ARC
  5
1AC7B
330
18
100
AcDbEntity
  8
01
  6
BYBLOCK
100
AcDbCircle
 10
2351.522839771068
 20
-574.9569806358177
 30
0.0000000001127424
 40
1.2
100
AcDbArc
 50
134.9999999999616
 51
180.0
  0
CIRCLE
  5
1AC7C
330
18
100
AcDbEntity
  8
01
  6
BYBLOCK
100
AcDbCircle
 10
2399.822839771068
 20
-591.55992436097
 30
0.0000000001127424
 40
4.75
  0
LINE
  5
1AC7D
330
18
100
AcDbEntity
  8
01
  6
BYBLOCK
100
AcDbLine
 10
2351.522839771068
 20
-657.5599243609702
 30
0.0000000001127424
 11
2380.613467058769
 21
-657.55992436097
 31
0.0000000001127424
  0
ARC
  5
1AC7E
330
18
100
AcDbEntity
  8
01
  6
BYBLOCK
100
AcDbCircle
 10
2351.923723953129
 20
-367.9986738189987
 30
0.0000000001127424
 40
1.6
100
AcDbArc
 50
115.9444797720007
 51
180.0
  0
ARC
  5
1AC7F
330
18
100
AcDbEntity
  8
01
  6
BYBLOCK
100
AcDbCircle
 10
2351.923723953129
 20
-375.1211749049985
 30
0.0000000001127424
 40
1.6
100
AcDbArc
 50
180.0
 51
244.0555202279993
  0
ARC
  5
1AC80
330
18
100
AcDbEntity
  8
01
  6
BYBLOCK
100
AcDbCircle
 10
2351.223723953128
 20
-376.3986738189985
 30
0.0000000001127424
 40
1.6
100
AcDbArc
 50
0.0
 51
64.05552022799934
  0
ARC
  5
1AC81
330
18
100
AcDbEntity
  8
01
  6
BYBLOCK
100
AcDbCircle
 10
2351.223723953128
 20
-366.7211749049986
 30
0.0000000001127424
 40
1.6
100
AcDbArc
 50
295.9444797720006
 51
0.0
  0
LINE
  5
1AC82
330
18
100
AcDbEntity
  8
01
  6
BYBLOCK
100
AcDbLine
 10
2352.823723953128
 20
-366.7211749049986
 30
0.0000000001127424
 11
2352.823723953128
 21
-359.3599243619985
 31
0.0000000001127424
  0
LINE
  5
1AC83
330
18
100
AcDbEntity
  8
01
  6
BYBLOCK
100
AcDbLine
 10
2351.923723953129
 20
-374.9599243619987
 30
0.0000000001127424
 11
2351.923723953129
 21
-368.1599243619985
 31
0.0000000001127424
  0
LINE
  5
1AC84
330
18
100
AcDbEntity
  8
01
  6
BYBLOCK
100
AcDbLine
 10
2352.823723953128
 20
-383.5599243619986
 30
0.0000000001127424
 11
2352.823723953128
 21
-376.3986738189985
 31
0.0000000001127424
  0
LINE
  5
1AC85
330
18
100
AcDbEntity
  8
01
  6
BYBLOCK
100
AcDbLine
 10
2351.223723953128
 20
-366.5599243619986
 30
0.0000000001127424
 11
2351.223723953129
 21
-359.3599243619985
 31
0.0000000001127424
  0
LINE
  5
1AC86
330
18
100
AcDbEntity
  8
01
  6
BYBLOCK
100
AcDbLine
 10
2351.223723953128
 20
-376.5599243619986
 30
0.0000000001127424
 11
2351.223723953128
 21
-383.6599243619985
 31
0.0000000001127424
  0
ARC
  5
1AC87
330
18
100
AcDbEntity
  8
01
  6
BYBLOCK
100
AcDbCircle
 10
2416.223723953128
 20
-363.6599243619985
 30
0.0000000001127424
 40
1.6
100
AcDbArc
 50
0.0
 51
90.0
  0
LINE
  5
1AC88
330
18
100
AcDbEntity
  8
01
  6
BYBLOCK
100
AcDbLine
 10
2350.323723953128
 20
-359.1599243619985
 30
0.0000000001127424
 11
2350.323723953128
 21
-383.9599243619984
 31
0.0000000001127424
  0
LINE
  5
1AC89
330
18
100
AcDbEntity
  8
01
  6
BYBLOCK
100
AcDbLine
 10
2416.223723953128
 20
-362.0599243619986
 30
0.0000000001127424
 11
2352.823723953128
 21
-362.0599243619986
 31
0.0000000001127424
  0
LINE
  5
1AC8A
330
18
100
AcDbEntity
  8
01
  6
BYBLOCK
100
AcDbLine
 10
2416.223723953128
 20
-379.2599243619986
 30
0.0000000001127424
 11
2416.223723953128
 21
-362.0599243619986
 31
0.0000000001127424
  0
LINE
  5
1AC8B
330
18
100
AcDbEntity
  8
01
  6
BYBLOCK
100
AcDbLine
 10
2417.823723953128
 20
-380.8599243619985
 30
0.0000000001127424
 11
2417.823723953128
 21
-363.6599243619985
 31
0.0000000001127424
  0
LINE
  5
1AC8C
330
18
100
AcDbEntity
  8
01
  6
BYBLOCK
100
AcDbLine
 10
2350.323723953128
 20
-359.3599243619985
 30
0.0000000001127424
 11
2352.823723953128
 21
-359.3599243619985
 31
0.0000000001127424
  0
LINE
  5
1AC8D
330
18
100
AcDbEntity
  8
01
  6
BYBLOCK
100
AcDbLine
 10
2352.823723953128
 20
-383.5599243619986
 30
0.0000000001127424
 11
2351.223723953128
 21
-383.5599243619986
 31
0.0000000001127424
  0
LINE
  5
1AC8E
330
18
100
AcDbEntity
  8
01
  6
BYBLOCK
100
AcDbLine
 10
2351.223723953128
 20
-383.6599243619985
 30
0.0000000001127424
 11
2350.323723953128
 21
-383.6599243619985
 31
0.0000000001127424
  0
ARC
  5
1AC8F
330
18
100
AcDbEntity
  8
01
  6
BYBLOCK
100
AcDbCircle
 10
2347.524318880527
 20
-377.2599243619979
 30
0.0000000001127424
 40
0.3000000000000051
100
AcDbArc
 50
232.8678058729264
 51
270.0
  0
LINE
  5
1AC90
330
18
100
AcDbEntity
  8
01
  6
BYBLOCK
100
AcDbLine
 10
2348.323723953128
 20
-377.5599243619979
 30
0.0000000001127424
 11
2347.524318880527
 21
-377.5599243619979
 31
0.0000000001127424
  0
LINE
  5
1AC91
330
18
100
AcDbEntity
  8
01
  6
BYBLOCK
100
AcDbLine
 10
2337.923723953129
 20
-367.8869354957938
 30
0.0000000001127424
 11
2337.923723953129
 21
-368.0575575513428
 31
0.0000000001127424
  0
ARC
  5
1AC92
330
18
100
AcDbEntity
  8
01
  6
BYBLOCK
100
AcDbCircle
 10
2338.223723953128
 20
-368.0575575513428
 30
0.0000000001127424
 40
0.3
100
AcDbArc
 50
180.0
 51
217.7405295629754
  0
ARC
  5
1AC93
330
18
100
AcDbEntity
  8
01
  6
BYBLOCK
100
AcDbCircle
 10
2377.526024552412
 20
-337.636854607402
 30
0.0000000001127424
 40
50.00000000000002
100
AcDbArc
 50
217.7405295629802
 51
232.8678058729729
  0
LINE
  5
1AC94
330
18
100
AcDbEntity
  8
01
  6
BYBLOCK
100
AcDbLine
 10
2337.723723953128
 20
-366.7599243619984
 30
0.0000000001127424
 11
2337.723723953128
 21
-366.0599243619986
 31
0.0000000001127424
  0
ARC
  5
1AC95
330
18
100
AcDbEntity
  8
01
  6
BYBLOCK
100
AcDbCircle
 10
2338.223723953128
 20
-366.0599243619986
 30
0.0000000001127424
 40
0.5000000000000142
100
AcDbArc
 50
90.0
 51
180.0
  0
LINE
  5
1AC96
330
18
100
AcDbEntity
  8
01
  6
BYBLOCK
100
AcDbLine
 10
2348.323723953128
 20
-365.5599243619986
 30
0.0000000001127424
 11
2338.223723953128
 21
-365.5599243619986
 31
0.0000000001127424
  0
LINE
  5
1AC97
330
18
100
AcDbEntity
  8
01
  6
BYBLOCK
100
AcDbLine
 10
2337.723723953128
 20
-367.1386040184389
 30
0.0000000001127424
 11
2337.723723953128
 21
-366.7599243619984
 31
0.0000000001127424
  0
SPLINE
  5
1AC98
330
18
100
AcDbEntity
  8
01
  6
BYBLOCK
100
AcDbSpline
210
0.0
220
0.0
230
1.0
 70
     8
 71
     3
 72
     8
 73
     4
 74
     0
 42
0.0000000001
 43
0.0000000001
 40
0.0
 40
0.0
 40
0.0
 40
0.0
 40
1.0
 40
1.0
 40
1.0
 40
1.0
 10
2337.749456494393
 20
-367.4152544478879
 30
0.0000000001127424
 10
2337.731988608281
 20
-367.3221682520075
 30
0.0000000001127424
 10
2337.723723953128
 20
-367.228902241116
 30
0.0000000001127424
 10
2337.723723953128
 20
-367.1386040184384
 30
0.0000000001127424
  0
ARC
  5
1AC99
330
18
100
AcDbEntity
  8
01
  6
BYBLOCK
100
AcDbCircle
 10
2339.223723953128
 20
-367.1386040184389
 30
0.0000000001127424
 40
1.499999999999998
100
AcDbArc
 50
190.628112987605
 51
225.0000000000384
  0
LINE
  5
1AC9A
330
18
100
AcDbEntity
  8
01
  6
BYBLOCK
100
AcDbLine
 10
2348.823723953128
 20
-364.7099243619984
 30
0.0000000001127424
 11
2348.323723953128
 21
-364.7099243619984
 31
0.0000000001127424
  0
LINE
  5
1AC9B
330
18
100
AcDbEntity
  8
01
  6
BYBLOCK
100
AcDbLine
 10
2348.323723953128
 20
-378.4099243619985
 30
0.0000000001127424
 11
2348.823723953128
 21
-378.4099243619985
 31
0.0000000001127424
  0
LINE
  5
1AC9C
330
18
100
AcDbEntity
  8
01
  6
BYBLOCK
100
AcDbLine
 10
2348.323723953128
 20
-378.4099243619985
 30
0.0000000001127424
 11
2348.323723953128
 21
-364.7099243619984
 31
0.0000000001127424
  0
LINE
  5
1AC9D
330
18
100
AcDbEntity
  8
01
  6
BYBLOCK
100
AcDbLine
 10
2348.823723953128
 20
-359.1599243619985
 30
0.0000000001127424
 11
2350.323723953128
 21
-359.1599243619985
 31
0.0000000001127424
  0
LINE
  5
1AC9E
330
18
100
AcDbEntity
  8
01
  6
BYBLOCK
100
AcDbLine
 10
2348.823723953128
 20
-383.9599243619984
 30
0.0000000001127424
 11
2350.323723953128
 21
-383.9599243619984
 31
0.0000000001127424
  0
LINE
  5
1AC9F
330
18
100
AcDbEntity
  8
01
  6
BYBLOCK
100
AcDbLine
 10
2348.823723953128
 20
-383.9599243619984
 30
0.0000000001127424
 11
2348.823723953128
 21
-359.1599243619985
 31
0.0000000001127424
  0
LINE
  5
1ACA0
330
18
100
AcDbEntity
  8
01
  6
BYBLOCK
100
AcDbLine
 10
2417.823723953128
 20
-379.2599243619986
 30
0.0000000001127424
 11
2352.823723953128
 21
-379.2599243619986
 31
0.0000000001127424
  0
LINE
  5
1ACA1
330
18
100
AcDbEntity
  8
01
  6
BYBLOCK
100
AcDbLine
 10
2417.823723953128
 20
-380.8599243619985
 30
0.0000000001127424
 11
2367.423723953129
 21
-380.8599243619985
 31
0.0000000001127424
  0
LINE
  5
1ACA2
330
18
100
AcDbEntity
  8
01
  6
BYBLOCK
100
AcDbLine
 10
2370.260982253331
 20
-380.8599243619985
 30
0.0000000001127424
 11
2352.823723953128
 21
-380.8599243619985
 31
0.0000000001127424
  0
LINE
  5
1ACA3
330
18
100
AcDbEntity
  8
01
  6
BYBLOCK
100
AcDbLine
 10
2347.377277343721
 20
-377.4134777525919
 30
0.0000000001127424
 11
2338.163063781348
 21
-368.1992641902189
 31
0.0000000001127424
  0
ARC
  5
1ACA4
330
18
100
AcDbEntity
  8
01
  6
BYBLOCK
100
AcDbCircle
 10
2347.730830734315
 20
-377.0599243619986
 30
0.0000000001127424
 40
0.5
100
AcDbArc
 50
224.9999999999954
 51
270.0
  0
LINE
  5
1ACA5
330
18
100
AcDbEntity
  8
01
  6
BYBLOCK
100
AcDbLine
 10
2348.323723953128
 20
-377.5599243619986
 30
0.0000000001127424
 11
2347.730830734315
 21
-377.5599243619986
 31
0.0000000001127424
  0
LINE
  5
1ACA7
330
18
100
AcDbEntity
  8
01
  6
BYBLOCK
100
AcDbLine
 10
2396.216595187017
 20
-591.55992436097
 30
0.0000000001127424
 11
2399.822839771068
 21
-587.9536797769185
 31
0.0000000001127424
  0
LINE
  5
1ACA8
330
18
100
AcDbEntity
  8
01
  6
BYBLOCK
100
AcDbLine
 10
2403.42908435512
 20
-591.55992436097
 30
0.0000000001127424
 11
2399.822839771068
 21
-587.9536797769185
 31
0.0000000001127424
  0
LINE
  5
1ACA9
330
18
100
AcDbEntity
  8
01
  6
BYBLOCK
100
AcDbLine
 10
2396.216595187017
 20
-591.55992436097
 30
0.0000000001127424
 11
2399.822839771068
 21
-595.1661689450211
 31
0.0000000001127424
  0
LINE
  5
1ACAA
330
18
100
AcDbEntity
  8
01
  6
BYBLOCK
100
AcDbLine
 10
2403.42908435512
 20
-591.55992436097
 30
0.0000000001127424
 11
2399.822839771068
 21
-595.1661689450211
 31
0.0000000001127424
  0
LINE
  5
1ACAB
330
18
100
AcDbEntity
  8
01
  6
BYBLOCK
100
AcDbLine
 10
2337.822839771068
 20
-610.5282540939538
 30
0.0000000001127424
 11
2337.822839771068
 21
-628.5915946279597
 31
0.0000000001127424
  0
LINE
  5
1ACAC
330
18
100
AcDbEntity
  8
01
  6
BYBLOCK
100
AcDbLine
 10
2342.115732989882
 20
-609.5599243609568
 30
0.0000000001127424
 11
2348.822839771068
 21
-609.5599243609568
 31
0.0000000001127424
  0
LINE
  5
1ACAD
330
18
100
AcDbEntity
  8
01
  6
BYBLOCK
100
AcDbLine
 10
2342.115732989882
 20
-629.5599243609568
 30
0.0000000001127424
 11
2348.822839771068
 21
-629.5599243609568
 31
0.0000000001127424
  0
LINE
  5
1ACAE
330
18
100
AcDbEntity
  8
01
  6
BYBLOCK
100
AcDbLine
 10
2347.615732989882
 20
-614.3099243609568
 30
0.0000000001127424
 11
2347.615732989882
 21
-624.8099243609568
 31
0.0000000001127424
  0
ARC
  5
1ACAF
330
18
100
AcDbEntity
  8
01
  6
BYBLOCK
100
AcDbCircle
 10
2342.115732989882
 20
-619.5599243609568
 30
0.0000000001127424
 40
10.00000000000009
100
AcDbArc
 50
53.13010235414986
 51
115.4224671781178
  0
ARC
  5
1ACB0
330
18
100
AcDbEntity
  8
01
  6
BYBLOCK
100
AcDbCircle
 10
2342.115732989882
 20
-619.5599243609565
 30
0.0000000001127424
 40
10.00000000000009
100
AcDbArc
 50
244.5775328218822
 51
306.8698976458437
  0
LINE
  5
1ACB1
330
18
100
AcDbEntity
  8
01
  6
BYBLOCK
100
AcDbLine
 10
2348.115732989882
 20
-611.5599243609568
 30
0.0000000001127424
 11
2348.115732989882
 21
-627.5599243609568
 31
0.0000000001127424
  0
LINE
  5
1ACB2
330
18
100
AcDbEntity
  8
01
  6
BYBLOCK
100
AcDbLine
 10
2337.822839771068
 20
-614.3099243609568
 30
0.0000000001127424
 11
2347.615732989882
 21
-614.3099243609568
 31
0.0000000001127424
  0
LINE
  5
1ACB3
330
18
100
AcDbEntity
  8
01
  6
BYBLOCK
100
AcDbLine
 10
2337.822839771068
 20
-624.8099243609568
 30
0.0000000001127424
 11
2347.615732989882
 21
-624.8099243609568
 31
0.0000000001127424
  0
LINE
  5
1ACB4
330
18
100
AcDbEntity
  8
01
  6
BYBLOCK
100
AcDbLine
 10
2223.422956110813
 20
-555.6599243609705
 30
0.0000000001127424
 11
2236.222956110812
 21
-555.6599243609705
 31
0.0000000001127424
  0
LINE
  5
1ACB5
330
18
100
AcDbEntity
  8
01
  6
BYBLOCK
100
AcDbLine
 10
2223.422956110813
 20
-685.4599243609705
 30
0.0000000001127424
 11
2236.222956110812
 21
-685.4599243609705
 31
0.0000000001127424
  0
LINE
  5
1ACB6
330
18
100
AcDbEntity
  8
01
  6
BYBLOCK
100
AcDbLine
 10
2217.422956110813
 20
-561.6599243609705
 30
0.0000000001127424
 11
2217.422956110813
 21
-679.4599243609705
 31
0.0000000001127424
  0
LINE
  5
1ACB7
330
18
100
AcDbEntity
  8
01
  6
BYBLOCK
100
AcDbLine
 10
2242.222956110812
 20
-561.6599243609705
 30
0.0000000001127424
 11
2242.222956110812
 21
-679.4599243609705
 31
0.0000000001127424
  0
ARC
  5
1ACB8
330
18
100
AcDbEntity
  8
01
  6
BYBLOCK
100
AcDbCircle
 10
2223.422956110813
 20
-679.4599243609705
 30
0.0000000001127424
 40
6.0
100
AcDbArc
 50
180.0
 51
270.0
  0
ARC
  5
1ACB9
330
18
100
AcDbEntity
  8
01
  6
BYBLOCK
100
AcDbCircle
 10
2236.222956110812
 20
-679.4599243609705
 30
0.0000000001127424
 40
6.0
100
AcDbArc
 50
270.0
 51
0.0
  0
ARC
  5
1ACBA
330
18
100
AcDbEntity
  8
01
  6
BYBLOCK
100
AcDbCircle
 10
2223.422956110813
 20
-561.6599243609705
 30
0.0000000001127424
 40
6.0
100
AcDbArc
 50
90.0
 51
180.0
  0
ARC
  5
1ACBB
330
18
100
AcDbEntity
  8
01
  6
BYBLOCK
100
AcDbCircle
 10
2236.222956110812
 20
-561.6599243609705
 30
0.0000000001127424
 40
6.0
100
AcDbArc
 50
0.0
 51
90.0
  0
CIRCLE
  5
1ACBC
330
18
100
AcDbEntity
  8
01
  6
BYBLOCK
100
AcDbCircle
 10
2229.822956110813
 20
-677.5599243609704
 30
0.0000000001127424
 40
2.75
  0
CIRCLE
  5
1ACBD
330
18
100
AcDbEntity
  8
01
  6
BYBLOCK
100
AcDbCircle
 10
2229.822956110813
 20
-677.5599243609704
 30
0.0000000001127424
 40
4.25
  0
CIRCLE
  5
1ACBE
330
18
100
AcDbEntity
  8
01
  6
BYBLOCK
100
AcDbCircle
 10
2229.822956110813
 20
-563.5599243609706
 30
0.0000000001127424
 40
2.75
  0
CIRCLE
  5
1ACBF
330
18
100
AcDbEntity
  8
01
  6
BYBLOCK
100
AcDbCircle
 10
2229.822956110813
 20
-563.5599243609706
 30
0.0000000001127424
 40
4.25
  0
LINE
  5
1ACC0
330
18
100
AcDbEntity
  8
1CENTER
100
AcDbLine
 10
2235.697981518719
 20
-677.5599243609706
 30
0.0000000001127424
 11
2223.947930702907
 21
-677.5599243609706
 31
0.0000000001127424
  0
LINE
  5
1ACC1
330
18
100
AcDbEntity
  8
1CENTER
100
AcDbLine
 10
2229.822956110813
 20
-671.6848989530642
 30
0.0000000001127424
 11
2229.822956110813
 21
-683.4349497688768
 31
0.0000000001127424
  0
LINE
  5
1ACC2
330
18
100
AcDbEntity
  8
1CENTER
100
AcDbLine
 10
2235.697981518719
 20
-563.5599243609706
 30
0.0000000001127424
 11
2223.947930702907
 21
-563.5599243609706
 31
0.0000000001127424
  0
LINE
  5
1ACC3
330
18
100
AcDbEntity
  8
1CENTER
100
AcDbLine
 10
2229.822956110813
 20
-557.6848989530642
 30
0.0000000001127424
 11
2229.822956110813
 21
-569.4349497688768
 31
0.0000000001127424
  0
ARC
  5
1ACC4
330
18
100
AcDbEntity
  8
01
  6
BYBLOCK
100
AcDbCircle
 10
2229.822956110813
 20
-619.5599243609704
 30
0.0000000001127424
 40
10.15
100
AcDbArc
 50
231.9925780701365
 51
308.0074219298635
  0
LINE
  5
1ACC5
330
18
100
AcDbEntity
  8
01
  6
BYBLOCK
100
AcDbLine
 10
2223.572956110813
 20
-611.5624247517176
 30
0.0000000001127424
 11
2223.572956110813
 21
-627.5574239702232
 31
0.0000000001127424
  0
LINE
  5
1ACC6
330
18
100
AcDbEntity
  8
01
  6
BYBLOCK
100
AcDbLine
 10
2236.072956110813
 20
-611.5624247517176
 30
0.0000000001127424
 11
2236.072956110813
 21
-627.5574239702232
 31
0.0000000001127424
  0
ARC
  5
1ACC7
330
18
100
AcDbEntity
  8
01
  6
BYBLOCK
100
AcDbCircle
 10
2229.822956110813
 20
-619.5599243609704
 30
0.0000000001127424
 40
10.15
100
AcDbArc
 50
51.99257807014251
 51
128.0074219298575
  0
LINE
  5
1ACC8
330
18
100
AcDbEntity
  8
01
  6
BYBLOCK
100
AcDbLine
 10
2225.322956110813
 20
-614.3099243609704
 30
0.0000000001127424
 11
2225.322956110813
 21
-624.8099243609704
 31
0.0000000001127424
  0
LINE
  5
1ACC9
330
18
100
AcDbEntity
  8
01
  6
BYBLOCK
100
AcDbLine
 10
2235.322956110813
 20
-614.3099243609704
 30
0.0000000001127424
 11
2235.322956110813
 21
-624.8099243609704
 31
0.0000000001127424
  0
LINE
  5
1ACCA
330
18
100
AcDbEntity
  8
01
  6
BYBLOCK
100
AcDbLine
 10
2225.822956110813
 20
-610.2313392592521
 30
0.0000000001127424
 11
2225.822956110813
 21
-614.3099243609706
 31
0.0000000001127424
  0
LINE
  5
1ACCB
330
18
100
AcDbEntity
  8
01
  6
BYBLOCK
100
AcDbLine
 10
2224.322956110813
 20
-614.3099243609706
 30
0.0000000001127424
 11
2224.322956110813
 21
-624.8099243609704
 31
0.0000000001127424
  0
LINE
  5
1ACCC
330
18
100
AcDbEntity
  8
01
  6
BYBLOCK
100
AcDbLine
 10
2225.822956110813
 20
-624.8099243609704
 30
0.0000000001127424
 11
2225.822956110813
 21
-628.8885094626887
 31
0.0000000001127424
  0
LINE
  5
1ACCD
330
18
100
AcDbEntity
  8
01
  6
BYBLOCK
100
AcDbLine
 10
2224.322956110813
 20
-614.3099243609704
 30
0.0000000001127424
 11
2235.322956110813
 21
-614.3099243609704
 31
0.0000000001127424
  0
LINE
  5
1ACCE
330
18
100
AcDbEntity
  8
01
  6
BYBLOCK
100
AcDbLine
 10
2224.322956110813
 20
-624.8099243609704
 30
0.0000000001127424
 11
2235.322956110813
 21
-624.8099243609704
 31
0.0000000001127424
  0
LINE
  5
1ACD0
330
18
100
AcDbEntity
  8
01
100
AcDbLine
 10
2209.823072450556
 20
-521.5599243609702
 30
0.0000000001127424
 11
2209.823072450556
 21
-711.5599243609704
 31
0.0000000001127424
  0
LINE
  5
1ACD1
330
18
100
AcDbEntity
  8
01
100
AcDbLine
 10
2209.823072450556
 20
-616.5599243609704
 30
0.0000000001127424
 11
2209.823072450556
 21
-666.5599243609704
 31
0.0000000001127424
  0
LINE
  5
1ACD2
330
18
100
AcDbEntity
  8
01
100
AcDbLine
 10
2201.323072450556
 20
-665.5599243609704
 30
0.0000000001127424
 11
2201.323072450556
 21
-617.5599243609704
 31
0.0000000001127424
  0
LINE
  5
1ACD3
330
18
100
AcDbEntity
  8
01
100
AcDbLine
 10
2209.823072450556
 20
-666.5599243609704
 30
0.0000000001127424
 11
2202.323072450556
 21
-666.5599243609704
 31
0.0000000001127424
  0
ARC
  5
1ACD4
330
18
100
AcDbEntity
  8
01
100
AcDbCircle
 10
2202.323072450556
 20
-665.5599243609704
 30
0.0000000001127424
 40
1.0
100
AcDbArc
 50
180.0
 51
270.0
  0
LINE
  5
1ACD5
330
18
100
AcDbEntity
  8
01
100
AcDbLine
 10
2209.823072450556
 20
-616.5599243609704
 30
0.0000000001127424
 11
2202.323072450556
 21
-616.5599243609704
 31
0.0000000001127424
  0
ARC
  5
1ACD6
330
18
100
AcDbEntity
  8
01
100
AcDbCircle
 10
2202.323072450556
 20
-617.5599243609704
 30
0.0000000001127424
 40
1.0
100
AcDbArc
 50
90.0
 51
180.0
  0
LINE
  5
1ACD7
330
18
100
AcDbEntity
  8
01
100
AcDbLine
 10
2211.951357832988
 20
-641.5599243609704
 30
0.0000000001127424
 11
2189.323072450556
 21
-641.5599243609704
 31
0.0000000001127424
  0
POINT
  5
1ACD8
330
18
100
AcDbEntity
  8
01
100
AcDbPoint
 10
2195.322956110813
 20
-641.5599243609704
 30
0.0000000001127424
 50
180.0
  0
CIRCLE
  5
1ACD9
330
18
100
AcDbEntity
  8
01
100
AcDbCircle
 10
2195.322956110813
 20
-641.5599243609704
 30
0.0000000001127424
 40
2.5
  0
CIRCLE
  5
1ACDA
330
18
100
AcDbEntity
  8
01
100
AcDbCircle
 10
2195.322956110813
 20
-641.5599243609704
 30
0.0000000001127424
 40
3.0
  0
LINE
  5
1ACDC
330
18
100
AcDbEntity
  8
1CENTER
100
AcDbLine
 10
2195.322956110813
 20
-647.5599243609704
 30
0.0000000001127424
 11
2195.322956110813
 21
-635.5599243609704
 31
0.0000000001127424
  0
LINE
  5
1ACDD
330
18
100
AcDbEntity
  8
01
100
AcDbLine
 10
2343.822839771356
 20
-677.5599243606812
 30
0.0000000001127424
 11
2357.822839771356
 21
-677.5599243606812
 31
0.0000000001127424
  0
LINE
  5
1ACDE
330
18
100
AcDbEntity
  8
01
100
AcDbLine
 10
2411.134728038609
 20
-591.55992436097
 30
0.0000000001127424
 11
2388.510951503526
 21
-591.55992436097
 31
0.0000000001127424
  0
LINE
  5
1ACDF
330
18
100
AcDbEntity
  8
01
100
AcDbLine
 10
2399.822839771068
 20
-580.2480360934283
 30
0.0000000001127424
 11
2399.822839771068
 21
-602.8718126285116
 31
0.0000000001127424
  0
LINE
  5
1ACE0
330
18
100
AcDbEntity
  8
01
  6
BYBLOCK
100
AcDbLine
 10
2121.823072450559
 20
-610.5282540939538
 30
0.0000000001127424
 11
2121.823072450559
 21
-628.5915946279597
 31
0.0000000001127424
  0
LINE
  5
1ACE1
330
18
100
AcDbEntity
  8
01
  6
BYBLOCK
100
AcDbLine
 10
2117.530179231746
 20
-609.5599243609568
 30
0.0000000001127424
 11
2110.823072450559
 21
-609.5599243609568
 31
0.0000000001127424
  0
LINE
  5
1ACE2
330
18
100
AcDbEntity
  8
01
  6
BYBLOCK
100
AcDbLine
 10
2117.530179231746
 20
-629.5599243609568
 30
0.0000000001127424
 11
2110.823072450559
 21
-629.5599243609568
 31
0.0000000001127424
  0
ARC
  5
1ACE3
330
18
100
AcDbEntity
  8
01
  6
BYBLOCK
100
AcDbCircle
 10
2117.530179231746
 20
-619.5599243609568
 30
0.0000000001127424
 40
10.00000000000009
100
AcDbArc
 50
64.57753282188216
 51
90.0
  0
LINE
  5
1ACE4
330
18
100
AcDbEntity
  8
01
  6
CONTINUOUS
100
AcDbLine
 10
2121.323072450559
 20
-627.8747185537875
 30
0.0000000001127424
 11
2110.823072450559
 21
-627.8747185537875
 31
0.0000000001127424
  0
ARC
  5
1ACE5
330
18
100
AcDbEntity
  8
01
  6
CONTINUOUS
100
AcDbCircle
 10
2121.361652697473
 20
-627.4125793229807
 30
0.0000000001127424
 40
0.4637468103423796
100
AcDbArc
 50
265.2279066161926
 51
354.2577450626241
  0
LINE
  5
1ACE6
330
18
100
AcDbEntity
  8
01
  6
CONTINUOUS
100
AcDbLine
 10
2121.823072450559
 20
-612.0766095874087
 30
0.0000000001127424
 11
2121.823072450559
 21
-627.0432391345046
 31
0.0000000001127424
  0
ARC
  5
1ACE7
330
18
100
AcDbEntity
  8
01
  6
CONTINUOUS
100
AcDbCircle
 10
2121.361652697473
 20
-611.7072693989323
 30
0.0000000001127424
 40
0.4637468103423387
100
AcDbArc
 50
5.742254937375924
 51
94.77209338380747
  0
ARC
  5
1ACE8
330
18
100
AcDbEntity
  8
01
  6
BYBLOCK
100
AcDbCircle
 10
2117.530179231746
 20
-619.5599243609565
 30
0.0000000001127424
 40
10.00000000000009
100
AcDbArc
 50
270.0
 51
295.4224671781178
  0
LINE
  5
1ACE9
330
18
100
AcDbEntity
  8
01
  6
CONTINUOUS
100
AcDbLine
 10
2110.823072450559
 20
-611.2451301681256
 30
0.0000000001127424
 11
2121.323072450559
 21
-611.2451301681256
 31
0.0000000001127424
  0
LINE
  5
1ACEA
330
18
100
AcDbEntity
  8
01
100
AcDbLine
 10
2417.822839771068
 20
-624.2105727880728
 30
0.0000000001127424
 11
2417.822839771068
 21
-656.3599243609699
 31
0.0000000001127424
  0
ARC
  5
1ACEB
330
18
100
AcDbEntity
  8
01
100
AcDbCircle
 10
2416.822839771068
 20
-656.55992436097
 30
0.0000000001127424
 40
1.0
100
AcDbArc
 50
270.0
 51
0.0
  0
LINE
  5
1ACEC
330
18
100
AcDbEntity
  8
01
100
AcDbLine
 10
2380.61346705877
 20
-657.55992436097
 30
0.0000000001127424
 11
2416.822839771068
 21
-657.5599243609697
 31
0.0000000001127424
  0
LINE
  5
1ACED
330
18
100
AcDbEntity
  8
01
100
AcDbLine
 10
2089.823072450559
 20
-641.55992436097
 30
0.0000000001127424
 11
2029.823072450559
 21
-641.55992436097
 31
0.0000000001127424
  0
LINE
  5
1ACEE
330
18
100
AcDbEntity
  8
01
100
AcDbLine
 10
2059.823072450559
 20
-611.55992436097
 30
0.0000000001127424
 11
2059.823072450559
 21
-671.55992436097
 31
0.0000000001127424
  0
LINE
  5
1ACEF
330
18
100
AcDbEntity
  8
01
  6
BYBLOCK
100
AcDbLine
 10
2417.822839771068
 20
-594.7778053933916
 30
0.0000000001128561
 11
2417.822839771068
 21
-624.2105727880728
 31
0.0000000001127424
  0
LINE
  5
1ACF0
330
18
100
AcDbEntity
  8
01
  6
BYBLOCK
100
AcDbLine
 10
2351.522839771068
 20
-583.55992436097
 30
0.0000000001127424
 11
2379.979736693085
 21
-583.55992436097
 31
0.0000000001128561
  0
ARC
  5
1ACF1
330
18
100
AcDbEntity
  8
01
  6
BYBLOCK
100
AcDbCircle
 10
2416.822839771068
 20
-584.55992436097
 30
0.0000000001127424
 40
1.0
100
AcDbArc
 50
0.0
 51
90.0
  0
LINE
  5
1ACF2
330
18
100
AcDbEntity
  8
01
  6
BYBLOCK
100
AcDbLine
 10
2379.979736693085
 20
-583.55992436097
 30
0.0000000001128561
 11
2416.822839771068
 21
-583.55992436097
 31
0.0000000001127424
  0
LINE
  5
1ACF3
330
18
100
AcDbEntity
  8
01
  6
BYBLOCK
100
AcDbLine
 10
2417.822839771068
 20
-584.55992436097
 30
0.0000000001127424
 11
2417.822839771068
 21
-594.7778053933916
 31
0.0000000001128561
  0
LINE
  5
1ACF4
330
18
100
AcDbEntity
  8
01
100
AcDbLine
 10
2115.823072450559
 20
-563.55992436097
 30
0.0000000001127424
 11
2101.823072450559
 21
-563.55992436097
 31
0.0000000001127424
  0
LINE
  5
1ACF5
330
18
100
AcDbEntity
  8
01
  6
BYBLOCK
100
AcDbLine
 10
2109.323072450559
 20
-555.6599243609699
 30
0.0000000001127424
 11
2109.323072450559
 21
-685.4599243609698
 31
0.0000000001127424
  0
LINE
  5
1ACF6
330
18
100
AcDbEntity
  8
01
  6
BYBLOCK
100
AcDbLine
 10
2109.323072450559
 20
-684.55992436097
 30
0.0000000001127424
 11
2106.823072450559
 21
-684.55992436097
 31
0.0000000001127424
  0
LINE
  5
1ACF7
330
18
100
AcDbEntity
  8
01
  6
BYBLOCK
100
AcDbLine
 10
2106.823072450559
 20
-684.55992436097
 30
0.0000000001127424
 11
2106.823072450559
 21
-668.0569806358176
 31
0.0000000001127424
  0
LINE
  5
1ACF8
330
18
100
AcDbEntity
  8
01
  6
BYBLOCK
100
AcDbLine
 10
2110.823072450559
 20
-555.6599243609699
 30
0.0000000001127424
 11
2110.823072450559
 21
-685.4599243609698
 31
0.0000000001127424
  0
LINE
  5
1ACF9
330
18
100
AcDbEntity
  8
01
  6
BYBLOCK
100
AcDbLine
 10
2110.823072450559
 20
-685.4599243609698
 30
0.0000000001127424
 11
2109.323072450559
 21
-685.4599243609698
 31
0.0000000001127424
  0
LINE
  5
1ACFA
330
18
100
AcDbEntity
  8
01
  6
BYBLOCK
100
AcDbLine
 10
2109.323072450559
 20
-556.55992436097
 30
0.0000000001127424
 11
2106.823072450559
 21
-556.55992436097
 31
0.0000000001127424
  0
LINE
  5
1ACFB
330
18
100
AcDbEntity
  8
01
  6
BYBLOCK
100
AcDbLine
 10
2110.823072450559
 20
-555.6599243609699
 30
0.0000000001127424
 11
2109.323072450559
 21
-555.6599243609699
 31
0.0000000001127424
  0
LINE
  5
1ACFC
330
18
100
AcDbEntity
  8
01
  6
BYBLOCK
100
AcDbLine
 10
2109.323072450559
 20
-580.55992436097
 30
0.0000000001127424
 11
2108.123072450559
 21
-580.55992436097
 31
0.0000000001127424
  0
LINE
  5
1ACFD
330
18
100
AcDbEntity
  8
01
  6
BYBLOCK
100
AcDbLine
 10
2108.123072450559
 20
-574.8599243609697
 30
0.0000000001127424
 11
2108.123072450559
 21
-666.2599243609698
 31
0.0000000001127424
  0
LINE
  5
1ACFE
330
18
100
AcDbEntity
  8
01
  6
BYBLOCK
100
AcDbLine
 10
2108.023072450559
 20
-684.55992436097
 30
0.0000000001127424
 11
2108.023072450559
 21
-667.9599243609698
 31
0.0000000001127424
  0
LINE
  5
1ACFF
330
18
100
AcDbEntity
  8
01
  6
BYBLOCK
100
AcDbLine
 10
2108.023072450559
 20
-667.9599243609698
 30
0.0000000001127424
 11
2108.971600587984
 21
-667.011396223546
 31
0.0000000001127424
  0
LINE
  5
1AD00
330
18
100
AcDbEntity
  8
01
  6
BYBLOCK
100
AcDbLine
 10
2107.174544313136
 20
-667.2084524983936
 30
0.0000000001127424
 11
2108.123072450559
 21
-666.2599243609698
 31
0.0000000001127424
  0
ARC
  5
1AD01
330
18
100
AcDbEntity
  8
01
  6
BYBLOCK
100
AcDbCircle
 10
2108.023072450559
 20
-668.0569806358176
 30
0.0000000001127424
 40
1.2
100
AcDbArc
 50
134.9999999999616
 51
180.0
  0
ARC
  5
1AD02
330
18
100
AcDbEntity
  8
01
  6
BYBLOCK
100
AcDbCircle
 10
2108.123072450559
 20
-666.162868086122
 30
0.0000000001127424
 40
1.2
100
AcDbArc
 50
314.9999999999616
 51
0.0
  0
LINE
  5
1AD03
330
18
100
AcDbEntity
  8
01
  6
BYBLOCK
100
AcDbLine
 10
2106.823072450559
 20
-556.55992436097
 30
0.0000000001127424
 11
2106.823072450559
 21
-573.0628680861221
 31
0.0000000001127424
  0
LINE
  5
1AD04
330
18
100
AcDbEntity
  8
01
  6
BYBLOCK
100
AcDbLine
 10
2108.023072450559
 20
-556.55992436097
 30
0.0000000001127424
 11
2108.023072450559
 21
-573.1599243609699
 31
0.0000000001127424
  0
LINE
  5
1AD05
330
18
100
AcDbEntity
  8
01
  6
BYBLOCK
100
AcDbLine
 10
2108.023072450559
 20
-573.1599243609699
 30
0.0000000001127424
 11
2108.971600587984
 21
-574.1084524983937
 31
0.0000000001127424
  0
LINE
  5
1AD06
330
18
100
AcDbEntity
  8
01
  6
BYBLOCK
100
AcDbLine
 10
2107.174544313136
 20
-573.911396223546
 30
0.0000000001127424
 11
2108.123072450559
 21
-574.8599243609699
 31
0.0000000001127424
  0
ARC
  5
1AD07
330
18
100
AcDbEntity
  8
01
  6
BYBLOCK
100
AcDbCircle
 10
2108.023072450559
 20
-573.0628680861221
 30
0.0000000001127424
 40
1.2
100
AcDbArc
 50
180.0
 51
225.0000000000384
  0
ARC
  5
1AD08
330
18
100
AcDbEntity
  8
01
  6
BYBLOCK
100
AcDbCircle
 10
2108.123072450559
 20
-574.9569806358177
 30
0.0000000001127424
 40
1.2
100
AcDbArc
 50
0.0
 51
45.00000000003838
  0
CIRCLE
  5
1AD09
330
18
100
AcDbEntity
  8
01
  6
BYBLOCK
100
AcDbCircle
 10
2059.823072450559
 20
-591.55992436097
 30
0.0000000001127424
 40
4.749999999999998
  0
LINE
  5
1AD0A
330
18
100
AcDbEntity
  8
01
  6
BYBLOCK
100
AcDbLine
 10
2108.123072450559
 20
-657.5599243609702
 30
0.0000000001127424
 11
2079.032445162858
 21
-657.55992436097
 31
0.0000000001127424
  0
LINE
  5
1AD0B
330
18
100
AcDbEntity
  8
01
  6
BYBLOCK
100
AcDbLine
 10
2063.429317034611
 20
-591.55992436097
 30
0.0000000001127424
 11
2059.823072450559
 21
-587.9536797769185
 31
0.0000000001127424
  0
LINE
  5
1AD0C
330
18
100
AcDbEntity
  8
01
  6
BYBLOCK
100
AcDbLine
 10
2056.216827866508
 20
-591.55992436097
 30
0.0000000001127424
 11
2059.823072450559
 21
-587.9536797769185
 31
0.0000000001127424
  0
LINE
  5
1AD0D
330
18
100
AcDbEntity
  8
01
  6
BYBLOCK
100
AcDbLine
 10
2063.429317034611
 20
-591.55992436097
 30
0.0000000001127424
 11
2059.823072450559
 21
-595.1661689450211
 31
0.0000000001127424
  0
LINE
  5
1AD0E
330
18
100
AcDbEntity
  8
01
  6
BYBLOCK
100
AcDbLine
 10
2056.216827866508
 20
-591.55992436097
 30
0.0000000001127424
 11
2059.823072450559
 21
-595.1661689450211
 31
0.0000000001127424
  0
LINE
  5
1AD0F
330
18
100
AcDbEntity
  8
01
  6
BYBLOCK
100
AcDbLine
 10
2117.530179231746
 20
-609.5599243609568
 30
0.0000000001127424
 11
2110.823072450559
 21
-609.5599243609568
 31
0.0000000001127424
  0
LINE
  5
1AD10
330
18
100
AcDbEntity
  8
01
  6
BYBLOCK
100
AcDbLine
 10
2117.530179231746
 20
-629.5599243609568
 30
0.0000000001127424
 11
2110.823072450559
 21
-629.5599243609568
 31
0.0000000001127424
  0
LINE
  5
1AD11
330
18
100
AcDbEntity
  8
01
100
AcDbLine
 10
2115.823072450272
 20
-677.5599243606812
 30
0.0000000001127424
 11
2101.823072450272
 21
-677.5599243606812
 31
0.0000000001127424
  0
LINE
  5
1AD12
330
18
100
AcDbEntity
  8
01
  6
BYBLOCK
100
AcDbLine
 10
2041.823072450559
 20
-594.7778053933916
 30
0.0000000001128561
 11
2041.823072450559
 21
-624.2105727880728
 31
0.0000000001127424
  0
LINE
  5
1AD13
330
18
100
AcDbEntity
  8
01
  6
BYBLOCK
100
AcDbLine
 10
2108.123072450559
 20
-583.55992436097
 30
0.0000000001127424
 11
2079.666175528542
 21
-583.55992436097
 31
0.0000000001128561
  0
ARC
  5
1AD14
330
18
100
AcDbEntity
  8
01
  6
BYBLOCK
100
AcDbCircle
 10
2042.823072450559
 20
-584.55992436097
 30
0.0000000001127424
 40
0.9999999999999996
100
AcDbArc
 50
90.0
 51
180.0
  0
LINE
  5
1AD15
330
18
100
AcDbEntity
  8
01
  6
BYBLOCK
100
AcDbLine
 10
2079.666175528542
 20
-583.55992436097
 30
0.0000000001128561
 11
2042.823072450559
 21
-583.55992436097
 31
0.0000000001127424
  0
LINE
  5
1AD16
330
18
100
AcDbEntity
  8
01
  6
BYBLOCK
100
AcDbLine
 10
2041.823072450559
 20
-584.55992436097
 30
0.0000000001127424
 11
2041.823072450559
 21
-594.7778053933916
 31
0.0000000001128561
  0
LINE
  5
1AD19
330
18
100
AcDbEntity
  8
01
100
AcDbLine
 10
2375.822839771068
 20
-400.0612426740727
 30
0.0000000001127424
 11
2423.822839771068
 21
-400.0612426740727
 31
0.0000000001127424
  0
LINE
  5
1AD1A
330
18
100
AcDbEntity
  8
01
100
AcDbLine
 10
2374.822839771068
 20
-391.5612426740727
 30
0.0000000001127424
 11
2374.822839771068
 21
-399.0612426740727
 31
0.0000000001127424
  0
ARC
  5
1AD1B
330
18
100
AcDbEntity
  8
01
100
AcDbCircle
 10
2375.822839771068
 20
-399.0612426740727
 30
0.0000000001127424
 40
1.0
100
AcDbArc
 50
180.0
 51
270.0
  0
LINE
  5
1AD1C
330
18
100
AcDbEntity
  8
01
100
AcDbLine
 10
2424.822839771068
 20
-391.5612426740727
 30
0.0000000001127424
 11
2424.822839771068
 21
-399.0612426740727
 31
0.0000000001127424
  0
ARC
  5
1AD1D
330
18
100
AcDbEntity
  8
01
100
AcDbCircle
 10
2423.822839771068
 20
-399.0612426740727
 30
0.0000000001127424
 40
1.0
100
AcDbArc
 50
270.0
 51
0.0
  0
ARC
  5
1AD1E
330
18
100
AcDbEntity
  8
01
100
AcDbCircle
 10
2399.822839771068
 20
-641.55992436097
 30
0.0000000001127424
 40
25.0
100
AcDbArc
 50
28.67005399888024
 51
339.5992847488153
  0
LINE
  5
1AD20
330
18
100
AcDbEntity
  8
01
100
AcDbLine
 10
2249.822839771068
 20
-616.55992436097
 30
0.0000000001127424
 11
2249.822839771068
 21
-666.55992436097
 31
0.0000000001127424
  0
LINE
  5
1AD21
330
18
100
AcDbEntity
  8
01
100
AcDbLine
 10
2258.322839771068
 20
-665.55992436097
 30
0.0000000001127424
 11
2258.322839771068
 21
-617.55992436097
 31
0.0000000001127424
  0
LINE
  5
1AD22
330
18
100
AcDbEntity
  8
01
100
AcDbLine
 10
2249.822839771068
 20
-666.55992436097
 30
0.0000000001127424
 11
2257.322839771068
 21
-666.55992436097
 31
0.0000000001127424
  0
ARC
  5
1AD23
330
18
100
AcDbEntity
  8
01
100
AcDbCircle
 10
2257.322839771068
 20
-665.55992436097
 30
0.0000000001127424
 40
1.0
100
AcDbArc
 50
270.0
 51
0.0
  0
LINE
  5
1AD24
330
18
100
AcDbEntity
  8
01
100
AcDbLine
 10
2249.822839771068
 20
-616.55992436097
 30
0.0000000001127424
 11
2257.322839771068
 21
-616.55992436097
 31
0.0000000001127424
  0
ARC
  5
1AD25
330
18
100
AcDbEntity
  8
01
100
AcDbCircle
 10
2257.322839771068
 20
-617.55992436097
 30
0.0000000001127424
 40
1.0
100
AcDbArc
 50
0.0
 51
90.0
  0
POINT
  5
1AD26
330
18
100
AcDbEntity
  8
01
100
AcDbPoint
 10
2264.322839771068
 20
-641.55992436097
 30
0.0000000001127424
  0
LINE
  5
1AD27
330
18
100
AcDbEntity
  8
01
100
AcDbLine
 10
2263.92283976107
 20
-643.30992436097
 30
0.0000000001127424
 11
2263.92283976107
 21
-642.4599243409698
 31
0.0000000001127424
  0
LINE
  5
1AD28
330
18
100
AcDbEntity
  8
01
100
AcDbLine
 10
2264.72283978107
 20
-643.30992436097
 30
0.0000000001127424
 11
2264.72283978107
 21
-642.4599243409698
 31
0.0000000001127424
  0
LINE
  5
1AD29
330
18
100
AcDbEntity
  8
01
100
AcDbLine
 10
2263.422839791068
 20
-641.9599243709704
 30
0.0000000001127424
 11
2262.572839771068
 21
-641.9599243709704
 31
0.0000000001127424
  0
LINE
  5
1AD2A
330
18
100
AcDbEntity
  8
01
100
AcDbLine
 10
2263.422839791068
 20
-641.1599243509704
 30
0.0000000001127424
 11
2262.572839771068
 21
-641.1599243509704
 31
0.0000000001127424
  0
LINE
  5
1AD2B
330
18
100
AcDbEntity
  8
01
100
AcDbLine
 10
2262.572839771068
 20
-641.9599243709704
 30
0.0000000001127424
 11
2262.572839771068
 21
-641.1599243509704
 31
0.0000000001127424
  0
LINE
  5
1AD2C
330
18
100
AcDbEntity
  8
01
100
AcDbLine
 10
2264.72283978107
 20
-643.30992436097
 30
0.0000000001127424
 11
2263.92283976107
 21
-643.30992436097
 31
0.0000000001127424
  0
LINE
  5
1AD2D
330
18
100
AcDbEntity
  8
01
100
AcDbLine
 10
2264.72283978107
 20
-639.80992436097
 30
0.0000000001127424
 11
2264.72283978107
 21
-640.6599243809701
 31
0.0000000001127424
  0
LINE
  5
1AD2E
330
18
100
AcDbEntity
  8
01
100
AcDbLine
 10
2263.92283976107
 20
-639.80992436097
 30
0.0000000001127424
 11
2263.92283976107
 21
-640.6599243809701
 31
0.0000000001127424
  0
LINE
  5
1AD2F
330
18
100
AcDbEntity
  8
01
100
AcDbLine
 10
2265.222839751068
 20
-641.1599243509704
 30
0.0000000001127424
 11
2266.072839771068
 21
-641.1599243509704
 31
0.0000000001127424
  0
LINE
  5
1AD30
330
18
100
AcDbEntity
  8
01
100
AcDbLine
 10
2265.222839751068
 20
-641.9599243709704
 30
0.0000000001127424
 11
2266.072839771068
 21
-641.9599243709704
 31
0.0000000001127424
  0
LINE
  5
1AD31
330
18
100
AcDbEntity
  8
01
100
AcDbLine
 10
2266.072839771068
 20
-641.1599243509704
 30
0.0000000001127424
 11
2266.072839771068
 21
-641.9599243709704
 31
0.0000000001127424
  0
LINE
  5
1AD32
330
18
100
AcDbEntity
  8
01
100
AcDbLine
 10
2263.92283976107
 20
-639.80992436097
 30
0.0000000001127424
 11
2264.72283978107
 21
-639.80992436097
 31
0.0000000001127424
  0
CIRCLE
  5
1AD33
330
18
100
AcDbEntity
  8
01
100
AcDbCircle
 10
2264.322839771068
 20
-641.55992436097
 30
0.0000000001127424
 40
2.5
  0
ARC
  5
1AD34
330
18
100
AcDbEntity
  8
01
100
AcDbCircle
 10
2265.222839751068
 20
-640.6599243809701
 30
0.0000000001127424
 40
0.5
100
AcDbArc
 50
179.999989999999
 51
270.0
  0
ARC
  5
1AD35
330
18
100
AcDbEntity
  8
01
100
AcDbCircle
 10
2265.222839751068
 20
-642.4599243409698
 30
0.0000000001127424
 40
0.5
100
AcDbArc
 50
90.00000299998466
 51
180.000010000001
  0
ARC
  5
1AD36
330
18
100
AcDbEntity
  8
01
100
AcDbCircle
 10
2263.422839791068
 20
-642.4599243409698
 30
0.0000000001127424
 40
0.5
100
AcDbArc
 50
0.0
 51
90.00000299998466
  0
ARC
  5
1AD37
330
18
100
AcDbEntity
  8
01
100
AcDbCircle
 10
2263.422839791068
 20
-640.6599243809701
 30
0.0000000001127424
 40
0.5
100
AcDbArc
 50
270.0
 51
0.0
  0
LINE
  5
1AD39
330
18
100
AcDbEntity
  8
1CENTER
100
AcDbLine
 10
2264.322839771068
 20
-647.55992436097
 30
0.0000000001127424
 11
2264.322839771068
 21
-635.55992436097
 31
0.0000000001127424
  0
LINE
  5
1AD3A
330
18
100
AcDbEntity
  8
01
100
AcDbLine
 10
2247.694554388638
 20
-641.55992436097
 30
0.0000000001127424
 11
2270.322839771068
 21
-641.55992436097
 31
0.0000000001127424
  0
LINE
  5
1AD3B
330
18
100
AcDbEntity
  8
01
100
AcDbLine
 10
2374.822839771068
 20
-391.5612426740727
 30
0.0000000001127424
 11
2424.822839771068
 21
-391.5612426740727
 31
0.0000000001127424
  0
LINE
  5
1AD3C
330
18
100
AcDbEntity
  8
01
  6
BYBLOCK
100
AcDbLine
 10
2348.823607613385
 20
-391.5612426740727
 30
0.0000000001127424
 11
2502.577987768416
 21
-391.5612426740727
 31
0.0000000001127424
  0
LINE
  5
1AD3D
330
18
100
AcDbEntity
  8
1CENTER
100
AcDbLine
 10
2383.739165007128
 20
-406.0612346408197
 30
0.0000000001127424
 11
2391.872837368976
 21
-406.0612426740699
 31
0.0000000001127424
  0
LINE
  5
1AD3E
330
18
100
AcDbEntity
  8
01
100
AcDbLine
 10
2399.822839771068
 20
-386.5612426740727
 30
0.0000000001127424
 11
2399.822839771068
 21
-413.0612426740727
 31
0.0000000001127424
  0
LINE
  5
1AD3F
330
18
100
AcDbEntity
  8
01
100
AcDbLine
 10
2249.822839771068
 20
-521.55992436097
 30
0.0000000001127424
 11
2249.822839771068
 21
-711.55992436097
 31
0.0000000001127424
  0
LINE
  5
1AD40
330
18
100
AcDbEntity
  8
01
100
AcDbLine
 10
2369.822839771068
 20
-641.55992436097
 30
0.0000000001127424
 11
2429.822839771068
 21
-641.55992436097
 31
0.0000000001127424
  0
LINE
  5
1AD41
330
18
100
AcDbEntity
  8
01
100
AcDbLine
 10
2399.822839771068
 20
-611.55992436097
 30
0.0000000001127424
 11
2399.822839771068
 21
-671.55992436097
 31
0.0000000001127424
  0
LINE
  5
1AD42
330
18
100
AcDbEntity
  8
01
100
AcDbLine
 10
2524.388636111598
 20
-428.5123968829625
 30
0.0000000001127424
 11
2524.388636114018
 21
-448.5220015731884
 31
0.0000000001127424
  0
SPLINE
  5
1AD43
330
18
100
AcDbEntity
  8
01
100
AcDbSpline
210
0.0
220
0.0
230
1.0
 70
     8
 71
     3
 72
     9
 73
     5
 74
     0
 42
0.0000000001
 43
0.0000000001
 40
0.0
 40
0.0
 40
0.0
 40
0.0
 40
4.181585763194067
 40
4.906987455372584
 40
4.906987455372584
 40
4.906987455372584
 40
4.906987455372584
 10
2413.322842111598
 20
-411.5599243609699
 30
0.0000000001127424
 10
2413.33082552252
 20
-413.2160126841886
 30
0.0000000001127424
 10
2413.407630795932
 20
-414.8532259813387
 30
0.0000000001127424
 10
2413.604426246174
 20
-416.478459092566
 30
0.0000000001127424
 10
2413.636389191534
 20
-416.7183377251463
 30
0.0000000001127424
  0
LINE
  5
1AD44
330
18
100
AcDbEntity
  8
01
100
AcDbLine
 10
2386.322842111599
 20
-400.5599243609699
 30
0.0000000001127424
 11
2413.322842111599
 21
-400.5599243609699
 31
0.0000000001127424
  0
LINE
  5
1AD45
330
18
100
AcDbEntity
  8
01
100
AcDbLine
 10
2413.322842111598
 20
-411.5599243609699
 30
0.0000000001127424
 11
2413.322842111599
 21
-400.5599243609699
 31
0.0000000001127424
  0
LINE
  5
1AD46
330
18
100
AcDbEntity
  8
01
100
AcDbLine
 10
2386.322842111598
 20
-420.5599243609699
 30
0.0000000001127424
 11
2386.322842111599
 21
-400.5599243609699
 31
0.0000000001127424
  0
ARC
  5
1AD47
330
18
100
AcDbEntity
  8
01
100
AcDbCircle
 10
2523.387090666091
 20
-428.5107284545879
 30
0.0000000001127424
 40
1.00154683518478
100
AcDbArc
 50
359.9045536912102
 51
90.79512633287318
  0
LINE
  5
1AD48
330
18
100
AcDbEntity
  8
01
100
AcDbLine
 10
2523.342138678564
 20
-427.5102183749327
 30
0.0000000001127424
 11
2523.37319207342
 21
-427.509278060315
 31
0.0000000001127424
  0
ARC
  5
1AD49
330
18
100
AcDbEntity
  8
01
100
AcDbCircle
 10
2523.387562275289
 20
-448.5228515335732
 30
0.0000000001127424
 40
1.001074199556652
100
AcDbArc
 50
273.8038238778075
 51
0.0486468921971252
  0
LINE
  5
1AD4A
330
18
100
AcDbEntity
  8
01
100
AcDbLine
 10
2523.368402862812
 20
-428.3787174166832
 30
0.0000000001127424
 11
2523.350865051018
 21
-428.3798365139878
 31
0.0000000001127424
  0
SPLINE
  5
1AD4B
330
18
100
AcDbEntity
  8
01
100
AcDbSpline
210
0.0
220
0.0
230
1.0
 70
  1064
 71
     3
 72
    10
 73
     6
 74
     4
 42
0.000000001
 43
0.0000000001
 44
0.000001
 12
0.9831784645781124
 22
0.1826474932481291
 32
0.0
 13
0.993718563209008
 23
0.1119080744800171
 33
0.0
 40
0.0
 40
0.0
 40
0.0
 40
0.0
 40
12.64947198872543
 40
25.29664324953094
 40
37.93871298170414
 40
37.93871298170414
 40
37.93871298170414
 40
37.93871298170414
 10
2485.860522470426
 20
-434.1473734211727
 30
0.0000000001127424
 10
2490.006085286293
 20
-433.3772419712883
 30
0.0000000001127424
 10
2498.307470716267
 20
-431.8948438036127
 30
0.0000000001127424
 10
2510.801439201928
 20
-429.9311985711272
 30
0.0000000001127424
 10
2519.163311927603
 20
-428.8514197410444
 30
0.0000000001127424
 10
2523.350865051018
 20
-428.3798365139878
 30
0.0000000001127424
 11
2485.860522470426
 21
-434.1473734211727
 31
0.0000000001127424
 11
2498.315551278674
 21
-431.9379874956589
 31
0.0000000001127424
 11
2510.811528407435
 21
-429.9882444891573
 31
0.0000000001127424
 11
2523.350865051018
 21
-428.3798365139878
 31
0.0000000001127424
  0
ARC
  5
1AD4C
330
18
100
AcDbEntity
  8
01
100
AcDbCircle
 10
2815.726760673174
 20
-2193.955974094776
 30
0.0000000001127424
 40
1790.457496315067
100
AcDbArc
 50
100.6165768773612
 51
101.2234178765605
  0
SPLINE
  5
1AD4D
330
18
100
AcDbEntity
  8
01
100
AcDbSpline
210
0.0
220
0.0
230
1.0
 70
  1064
 71
     3
 72
    25
 73
    21
 74
    19
 42
0.000000001
 43
0.0000000001
 44
0.000001
 12
-0.000871073338289442
 22
-0.9999996206155477
 32
0.0
 13
0.9812495806433168
 23
0.1927414342774154
 33
0.0
 40
0.0
 40
0.0
 40
0.0
 40
0.0
 40
3.441413671685528
 40
6.890117821913623
 40
10.34824228437181
 40
13.8158631664741
 40
17.2911699856967
 40
20.76838829436315
 40
24.24299418042837
 40
27.70617175107071
 40
31.15824156417356
 40
34.60459654871386
 40
41.47191728334263
 40
48.32507241181091
 40
55.16974723390396
 40
62.00886926276701
 40
68.84307992267435
 40
75.67437120356232
 40
82.50297694377416
 40
96.15803897753096
 40
96.15803897753096
 40
96.15803897753096
 40
96.15803897753096
 10
2386.322842111598
 20
-420.5599243609699
 30
0.0000000001127424
 10
2386.321842870366
 20
-421.7070618163255
 30
0.0000000001127424
 10
2386.4093901725
 20
-424.0052413914054
 30
0.0000000001127424
 10
2386.864478382858
 20
-427.4308072674668
 30
0.0000000001127424
 10
2387.733596101269
 20
-430.7890281451278
 30
0.0000000001127424
 10
2389.109314326014
 20
-433.9893691366507
 30
0.0000000001127424
 10
2391.053638730411
 20
-436.8945100207626
 30
0.0000000001127424
 10
2393.541239122208
 20
-439.3550987850454
 30
0.0000000001127424
 10
2396.442907863947
 20
-441.2945588419299
 30
0.0000000001127424
 10
2399.607105648471
 20
-442.7319513740643
 30
0.0000000001127424
 10
2402.915566019199
 20
-443.7488203828107
 30
0.0000000001127424
 10
2407.420378033082
 20
-444.6509367047204
 30
0.0000000001127424
 10
2413.139487087038
 20
-445.1265738240768
 30
0.0000000001127424
 10
2419.999224448483
 20
-445.04198287593
 30
0.0000000001127424
 10
2426.828981113501
 20
-444.5302623018459
 30
0.0000000001127424
 10
2433.622089895552
 20
-443.7250490096717
 30
0.0000000001127424
 10
2440.383461629287
 20
-442.7206925867716
 30
0.0000000001127424
 10
2447.118860187088
 20
-441.5777841531944
 30
0.0000000001127424
 10
2456.074239210608
 20
-439.9330738873702
 30
0.0000000001127424
 10
2462.774241077235
 20
-438.6170476446749
 30
0.0000000001127424
 10
2467.240582375329
 20
-437.7397488974971
 30
0.0000000001127424
 11
2386.322842111598
 21
-420.5599243609699
 31
0.0000000001127424
 11
2386.46304877405
 21
-423.9984817152276
 31
0.0000000001127424
 11
2386.932595170553
 21
-427.4150716359122
 31
0.0000000001127424
 11
2387.816531821664
 21
-430.7583157299073
 31
0.0000000001127424
 11
2389.202383764511
 21
-433.9369647120511
 31
0.0000000001127424
 11
2391.143575671465
 21
-436.8195905908742
 31
0.0000000001127424
 11
2393.611493625864
 21
-439.2691678443405
 31
0.0000000001127424
 11
2396.491235992641
 21
-441.2133824897039
 31
0.0000000001127424
 11
2399.636076509486
 21
-442.6637540300956
 31
0.0000000001127424
 11
2402.931121153582
 21
-443.6930583152568
 31
0.0000000001127424
 11
2406.307670285209
 21
-444.3831880699104
 31
0.0000000001127424
 11
2413.145624924071
 21
-445.0175946368126
 31
0.0000000001127424
 11
2419.998619104598
 21
-444.9706184918307
 31
0.0000000001127424
 11
2426.825764774194
 21
-444.4810718557758
 31
0.0000000001127424
 11
2433.619161481294
 21
-443.6915456625857
 31
0.0000000001127424
 11
2440.38067202101
 21
-442.6973571698281
 31
0.0000000001127424
 11
2447.11703028312
 21
-441.5624483391698
 31
0.0000000001127424
 11
2453.834399750338
 21
-440.33492893977
 31
0.0000000001127424
 11
2467.240582375329
 21
-437.7397488974971
 31
0.0000000001127424
  0
ARC
  5
1AD4E
330
18
100
AcDbEntity
  8
01
100
AcDbCircle
 10
2524.293307145264
 20
-428.5960082490842
 30
0.0000000001127424
 40
0.0979236131362861
100
AcDbArc
 50
13.21894139068428
 51
73.74740855216808
  0
LINE
  5
1AD4F
330
18
100
AcDbEntity
  8
01
100
AcDbLine
 10
2524.177856002016
 20
-428.4533297342446
 30
0.0000000001127424
 11
2524.320713265429
 21
-428.5019979380108
 31
0.0000000001127424
  0
ARC
  5
1AD50
330
18
100
AcDbEntity
  8
01
100
AcDbCircle
 10
2523.413710358269
 20
-432.3152845468808
 30
0.0000000001127424
 40
3.936827852433767
100
AcDbArc
 50
78.80773794350462
 51
90.65941048865872
  0
SPLINE
  5
1AD51
330
18
100
AcDbEntity
  8
01
100
AcDbSpline
210
0.0
220
0.0
230
1.0
 70
  1064
 71
     3
 72
    26
 73
    22
 74
    20
 42
0.000000001
 43
0.0000000001
 44
0.000001
 12
-0.997919909776306
 22
-0.06446591093011673
 32
0.0
 13
-0.02284695825456342
 23
0.9997389741820183
 33
0.0
 40
0.0
 40
0.0
 40
0.0
 40
0.0
 40
22.25672874204007
 40
33.34877084862566
 40
44.42939984479651
 40
55.49867241274673
 40
66.55665876077597
 40
77.60087402967454
 40
88.63018245892553
 40
94.13893639426067
 40
99.64443915907201
 40
105.1453874461797
 40
110.6428094101675
 40
116.1400221877812
 40
121.6412419545424
 40
127.1451797682248
 40
132.6646877645279
 40
138.2073494278444
 40
143.7750347604448
 40
149.3632114036933
 40
154.9621545292769
 40
154.9621545292769
 40
154.9621545292769
 40
154.9621545292769
 10
2523.453974030999
 20
-449.5217204097132
 30
0.0000000001127424
 10
2516.050496451609
 20
-449.9999871739399
 30
0.0000000001127424
 10
2504.964150571636
 20
-450.8200595112651
 30
0.0000000001127424
 10
2490.199417920609
 20
-451.9735861349262
 30
0.0000000001127424
 10
2479.151161869244
 20
-452.8208813261449
 30
0.0000000001127424
 10
2468.108513344349
 20
-453.5900624891286
 30
0.0000000001127424
 10
2457.068948662034
 20
-454.2238168841574
 30
0.0000000001127424
 10
2446.03093480098
 20
-454.6122085580993
 30
0.0000000001127424
 10
2436.833054655328
 20
-454.6179256462696
 30
0.0000000001127424
 10
2429.490806048227
 20
-454.3005027401433
 30
0.0000000001127424
 10
2424.001603744423
 20
-453.8626301862656
 30
0.0000000001127424
 10
2418.542103197944
 20
-453.1652917328112
 30
0.0000000001127424
 10
2413.136114107791
 20
-452.1362108678787
 30
0.0000000001127424
 10
2407.828426274378
 20
-450.6714556631803
 30
0.0000000001127424
 10
2402.696768039447
 20
-448.6512381189345
 30
0.0000000001127424
 10
2397.897259548289
 20
-445.8994225419753
 30
0.0000000001127424
 10
2393.653577302269
 20
-442.3066274541147
 30
0.0000000001127424
 10
2390.278778284551
 20
-437.8484093177767
 30
0.0000000001127424
 10
2387.966083815305
 20
-432.7394102758531
 30
0.0000000001127424
 10
2386.677762985455
 20
-427.2774277667439
 30
0.0000000001127424
 10
2386.377137047707
 20
-423.548233472663
 30
0.0000000001127424
 10
2386.334497441087
 20
-421.6824062537048
 30
0.0000000001127424
 11
2523.453974030999
 21
-449.5217204097132
 31
0.0000000001127424
 11
2501.254347553993
 21
-451.1149924801405
 31
0.0000000001127424
 11
2490.19540450083
 21
-451.9712497415514
 31
0.0000000001127424
 11
2479.146435081759
 21
-452.8082763661344
 31
0.0000000001127424
 11
2468.103254734385
 21
-453.567857056973
 31
0.0000000001127424
 11
2457.062404623763
 21
-454.1832355693648
 31
0.0000000001127424
 11
2446.024239493801
 21
-454.5487506259176
 31
0.0000000001127424
 11
2434.994993550344
 21
-454.5116275730227
 31
0.0000000001127424
 11
2429.491670300707
 21
-454.2670809038966
 31
0.0000000001127424
 11
2424.004418612757
 21
-453.8191640004134
 31
0.0000000001127424
 11
2418.54940563895
 21
-453.1097519441619
 31
0.0000000001127424
 11
2413.152441647343
 21
-452.0636028684476
 31
0.0000000001127424
 11
2407.859374080413
 21
-450.5794249678031
 31
0.0000000001127424
 11
2402.754042165043
 21
-448.5302775902264
 31
0.0000000001127424
 11
2397.995983010571
 21
-445.7636542708667
 31
0.0000000001127424
 11
2393.806104391701
 21
-442.1706213240584
 31
0.0000000001127424
 11
2390.46203717043
 21
-437.7504049490012
 31
0.0000000001127424
 11
2388.140103841318
 21
-432.6899953190209
 31
0.0000000001127424
 11
2386.818217090757
 21
-427.2604158098334
 31
0.0000000001127424
 11
2386.334497441087
 21
-421.6824062537048
 31
0.0000000001127424
  0
SPLINE
  5
1AD52
330
18
100
AcDbEntity
  8
01
100
AcDbSpline
210
0.0
220
0.0
230
1.0
 70
     8
 71
     3
 72
    27
 73
    23
 74
     0
 42
0.0000000001
 43
0.0000000001
 40
0.0
 40
0.0
 40
0.0
 40
0.0
 40
16.91059537614233
 40
25.36612715702854
 40
33.82144120212359
 40
42.27681849485995
 40
50.73232732391983
 40
59.18788171366092
 40
67.64342079382851
 40
76.09822210144672
 40
80.32547480342753
 40
84.55239661131972
 40
88.77906906159228
 40
93.00316601689825
 40
97.22721965277279
 40
101.4453053855404
 40
103.5555681067257
 40
105.6622199082372
 40
107.771868988524
 40
109.8818614491521
 40
114.0963887206748
 40
118.2484923739838
 40
118.2484923739838
 40
118.2484923739838
 40
118.2484923739838
 10
2523.342031667829
 20
-427.5101917679299
 30
0.0000000001127424
 10
2517.711280834635
 20
-427.7726674738738
 30
0.0000000001127424
 10
2509.269361309684
 20
-428.2651993622489
 30
0.0000000001127424
 10
2498.026150828963
 20
-429.0969188914682
 30
0.0000000001127424
 10
2489.600305340572
 20
-429.804780611978
 30
0.0000000001127424
 10
2481.179398294381
 20
-430.568064803173
 30
0.0000000001127424
 10
2472.760914107121
 20
-431.3579808482868
 30
0.0000000001127424
 10
2464.340797256354
 20
-432.1319794561896
 30
0.0000000001127424
 10
2455.911963052308
 20
-432.8036462291889
 30
0.0000000001127424
 10
2448.875310935263
 20
-433.1934484564104
 30
0.0000000001127424
 10
2443.239568335789
 20
-433.3145052171444
 30
0.0000000001127424
 10
2439.012026745285
 20
-433.268040975739
 30
0.0000000001127424
 10
2434.790059518263
 20
-433.0448781573914
 30
0.0000000001127424
 10
2430.590791566659
 20
-432.5461403382656
 30
0.0000000001127424
 10
2426.449837343757
 20
-431.6848665626189
 30
0.0000000001127424
 10
2423.125669184249
 20
-430.4716161444007
 30
0.0000000001127424
 10
2420.66332444764
 20
-429.1019137284516
 30
0.0000000001127424
 10
2418.961216094882
 20
-427.8452084312717
 30
0.0000000001127424
 10
2417.462230841747
 20
-426.3502270143968
 30
0.0000000001127424
 10
2415.791777321108
 20
-424.0758618813584
 30
0.0000000001127424
 10
2414.376131599752
 20
-420.8370555998949
 30
0.0000000001127424
 10
2413.815956232008
 20
-418.0907901842661
 30
0.0000000001127424
 10
2413.636389191535
 20
-416.7183377251463
 30
0.0000000001127424
  0
LINE
  5
1AD53
330
18
100
AcDbEntity
  8
01
100
AcDbLine
 10
2524.388636111598
 20
-631.1684445943695
 30
0.0000000001127424
 11
2524.388636111599
 21
-628.0820388622353
 31
0.0000000001127424
  0
LINE
  5
1AD54
330
18
100
AcDbEntity
  8
01
100
AcDbLine
 10
2524.388635832801
 20
-634.146510991048
 30
0.0000000001127424
 11
2524.388636111598
 21
-631.1684445943695
 31
0.0000000001127424
  0
LINE
  5
1AD55
330
18
100
AcDbEntity
  8
01
100
AcDbLine
 10
2523.480964057306
 20
-635.1434857247216
 30
0.0000000001127424
 11
2523.460491069034
 21
-635.1453867990849
 31
0.0000000001127424
  0
LINE
  5
1AD56
330
18
100
AcDbEntity
  8
01
100
AcDbLine
 10
2387.122842123519
 20
-652.5599220989156
 30
0.0000000001127424
 11
2412.523568086059
 21
-652.5599224690159
 31
0.0000000001127424
  0
LINE
  5
1AD57
330
18
100
AcDbEntity
  8
01
100
AcDbLine
 10
2412.582172687285
 20
-652.5495527610765
 30
0.0000000001127424
 11
2412.523568086059
 21
-652.5599224690159
 31
0.0000000001127424
  0
ARC
  5
1AD58
330
18
100
AcDbEntity
  8
01
100
AcDbCircle
 10
2523.387669178574
 20
-634.1468762516117
 30
0.0000000001127424
 40
1.000966720870227
100
AcDbArc
 50
275.3480025563511
 51
0.0209076773013226
  0
LINE
  5
1AD59
330
18
100
AcDbEntity
  8
01
100
AcDbLine
 10
2386.322842111598
 20
-651.7597476666429
 30
0.0000000001127424
 11
2386.322842111598
 21
-631.359896201126
 31
0.0000000001127424
  0
LINE
  5
1AD5A
330
18
100
AcDbEntity
  8
01
100
AcDbLine
 10
2523.368402862812
 20
-627.0811056958246
 30
0.0000000001127424
 11
2523.350865051018
 21
-627.0814666319588
 31
0.0000000001127424
  0
ARC
  5
1AD5B
330
18
100
AcDbEntity
  8
01
100
AcDbCircle
 10
2523.382237841844
 20
-628.0826459235864
 30
0.0000000001127424
 40
1.006398452845485
100
AcDbArc
 50
0.0345609190191402
 51
21.17066786855085
  0
ARC
  5
1AD5C
330
18
100
AcDbEntity
  8
01
100
AcDbCircle
 10
2523.382639821362
 20
-628.084333561957
 30
0.0000000001127424
 40
1.006634556911848
100
AcDbArc
 50
21.26850517991904
 51
37.81682041126567
  0
ARC
  5
1AD5D
330
18
100
AcDbEntity
  8
01
100
AcDbCircle
 10
2523.38856881823
 20
-628.0805070839731
 30
0.0000000001127424
 40
0.999604822112772
100
AcDbArc
 50
37.85192663692775
 51
91.15595933299288
  0
ARC
  5
1AD5E
330
18
100
AcDbEntity
  8
01
100
AcDbCircle
 10
2387.122841780892
 20
-651.7597473234423
 30
0.0000000001127424
 40
0.799999669293957
100
AcDbArc
 50
180.0000245799392
 51
270.0250322811478
  0
LINE
  5
1AD5F
330
18
100
AcDbEntity
  8
01
100
AcDbLine
 10
2412.523568086059
 20
-652.5599224690159
 30
0.0000000001127424
 11
2412.582780906167
 21
-652.5576902490398
 31
0.0000000001127424
  0
SPLINE
  5
1AD60
330
18
100
AcDbEntity
  8
01
100
AcDbSpline
210
0.0
220
0.0
230
1.0
 70
     8
 71
     3
 72
    11
 73
     7
 74
     0
 42
0.0000000001
 43
0.0000000001
 40
0.0
 40
0.0
 40
0.0
 40
0.0
 40
21.43372384846992
 40
42.74812160428417
 40
64.00497958002913
 40
71.06070238869576
 40
71.06070238869576
 40
71.06070238869576
 40
71.06070238869576
 10
2523.350473051784
 20
-627.0814627920347
 30
0.0000000001127424
 10
2516.207450250768
 20
-627.230364470932
 30
0.0000000001127424
 10
2501.961569794698
 20
-627.5464045562344
 30
0.0000000001127424
 10
2480.632504681654
 20
-628.0494575395858
 30
0.0000000001127424
 10
2464.09527595205
 20
-628.4602918860712
 30
0.0000000001127424
 10
2454.660843774436
 20
-628.7019686688316
 30
0.0000000001127424
 10
2452.309717127569
 20
-628.7625732230861
 30
0.0000000001127424
  0
SPLINE
  5
1AD61
330
18
100
AcDbEntity
  8
01
100
AcDbSpline
210
0.0
220
0.0
230
1.0
 70
     8
 71
     3
 72
    32
 73
    28
 74
     0
 42
0.0000000001
 43
0.0000000001
 40
0.0
 40
0.0
 40
0.0
 40
0.0
 40
0.3599301998348471
 40
0.7204576955008581
 40
1.078388999306343
 40
1.203188941373293
 40
1.256497440238248
 40
1.349899079695673
 40
1.501470349278231
 40
1.719093506751409
 40
2.008946379622365
 40
2.377953257068766
 40
2.833372290666866
 40
4.02961040316922
 40
5.628859930107992
 40
7.61937959175037
 40
9.930476612769016
 40
12.47953325127824
 40
15.18599668370276
 40
17.98461738332648
 40
20.83771850465741
 40
26.62046581402179
 40
32.43257263878778
 40
38.23851433232301
 40
44.02870797848659
 40
55.55219103227755
 40
66.45873402473153
 40
66.45873402473153
 40
66.45873402473153
 40
66.45873402473153
 10
2386.322826345257
 20
-631.3598900946106
 30
0.0000000001127424
 10
2386.322826382487
 20
-631.2399133613324
 30
0.0000000001127424
 10
2386.379437974589
 20
-630.9963768865462
 30
0.0000000001127424
 10
2386.612757706901
 20
-630.7079681966454
 30
0.0000000001127424
 10
2386.877465287688
 20
-630.5838004749703
 30
0.0000000001127424
 10
2387.055255883865
 20
-630.5619789875557
 30
0.0000000001127424
 10
2387.145688331738
 20
-630.5582408824787
 30
0.0000000001127424
 10
2387.24504877274
 20
-630.5546528293041
 30
0.0000000001127424
 10
2387.399160482146
 20
-630.5494413386275
 30
0.0000000001127424
 10
2387.618715871176
 20
-630.5419858621603
 30
0.0000000001127424
 10
2387.910715976713
 20
-630.5322852467418
 30
0.0000000001127424
 10
2388.281939817712
 20
-630.5200268800645
 30
0.0000000001127424
 10
2388.955134940156
 20
-630.4980200588438
 30
0.0000000001127424
 10
2390.038210837321
 20
-630.4631956456903
 30
0.0000000001127424
 10
2391.632754471634
 20
-630.4129241690746
 30
0.0000000001127424
 10
2393.598777141196
 20
-630.3523514400829
 30
0.0000000001127424
 10
2395.881298414136
 20
-630.2835505520711
 30
0.0000000001127424
 10
2398.40241146105
 20
-630.20931108419
 30
0.0000000001127424
 10
2401.08600796445
 20
-630.1318667836531
 30
0.0000000001127424
 10
2403.870953320419
 20
-630.0529994615936
 30
0.0000000001127424
 10
2407.680959988506
 20
-629.9466809853423
 30
0.0000000001127424
 10
2412.495138632588
 20
-629.8147756570045
 30
0.0000000001127424
 10
2418.293294397788
 20
-629.6583536092294
 30
0.0000000001127424
 10
2424.093969909313
 20
-629.503300820053
 30
0.0000000001127424
 10
2431.797793742406
 20
-629.2987300775253
 30
0.0000000001127424
 10
2441.201265733356
 20
-629.0507944823382
 30
0.0000000001127424
 10
2448.675410627454
 20
-628.8562787566691
 30
0.0000000001127424
 10
2452.309717127568
 20
-628.7625732230861
 30
0.0000000001127424
  0
SPLINE
  5
1AD62
330
18
100
AcDbEntity
  8
01
100
AcDbSpline
210
0.0
220
0.0
230
1.0
 70
  1064
 71
     3
 72
    29
 73
    25
 74
    23
 42
0.000000001
 43
0.0000000001
 44
0.000001
 12
-0.9957295571504321
 22
-0.09231819439852766
 32
0.0
 13
-0.9999999961407904
 23
-8.785453656356259E-5
 33
0.0
 40
0.0
 40
0.0
 40
0.0
 40
0.0
 40
18.72223237932955
 40
28.08380125047977
 40
37.44489731842073
 40
46.8045065589921
 40
56.157036497619
 40
65.49105784394362
 40
74.7753600986996
 40
83.93695746269857
 40
88.42253561022918
 40
92.79315031724524
 40
96.98478944101419
 40
100.8929762880916
 40
104.3856126466119
 40
107.309736113392
 40
108.5186045585991
 40
109.5470291062996
 40
110.3943897133712
 40
111.0646313142806
 40
111.5675614950663
 40
111.9161223033962
 40
112.123916147474
 40
112.3643818635918
 40
112.3643818635918
 40
112.3643818635918
 40
112.3643818635918
 10
2523.46043464339
 20
-635.1454086625931
 30
0.0000000001127424
 10
2517.246341258077
 20
-635.7215428920496
 30
0.0000000001127424
 10
2507.934625983024
 20
-636.6936972320649
 30
0.0000000001127424
 10
2495.543555356412
 20
-638.1958270786685
 30
0.0000000001127424
 10
2486.263279133533
 20
-639.4221434412821
 30
0.0000000001127424
 10
2476.999164320609
 20
-640.7436849686887
 30
0.0000000001127424
 10
2467.757606299416
 20
-642.156126455756
 30
0.0000000001127424
 10
2458.554914777138
 20
-643.6537881208424
 30
0.0000000001127424
 10
2449.429644134545
 20
-645.2282907642135
 30
0.0000000001127424
 10
2441.909678320455
 20
-646.5994761631991
 30
0.0000000001127424
 10
2436.009143347844
 20
-647.7197952599817
 30
0.0000000001127424
 10
2431.740147026431
 20
-648.5516858254484
 30
0.0000000001127424
 10
2427.664010652618
 20
-649.3667577695007
 30
0.0000000001127424
 10
2423.878439783175
 20
-650.1421623150297
 30
0.0000000001127424
 10
2420.509986745265
 20
-650.8482359630606
 30
0.0000000001127424
 10
2418.024271694823
 20
-651.3796461365789
 30
0.0000000001127424
 10
2416.342843942462
 20
-651.7440883541507
 30
0.0000000001127424
 10
2415.338252482296
 20
-651.963270616415
 30
0.0000000001127424
 10
2414.509334978276
 20
-652.1452538766617
 30
0.0000000001127424
 10
2413.851494249876
 20
-652.2898969590317
 30
0.0000000001127424
 10
2413.356401850323
 20
-652.3997693120693
 30
0.0000000001127424
 10
2413.010988778918
 20
-652.4741588225481
 30
0.0000000001127424
 10
2412.752538116287
 20
-652.5331550515698
 30
0.0000000001127424
 10
2412.604128443278
 20
-652.5599234776292
 30
0.0000000001127424
 10
2412.523973204881
 20
-652.5599305196306
 30
0.0000000001127424
 11
2523.46043464339
 21
-635.1454086625931
 31
0.0000000001127424
 11
2504.839085028409
 21
-637.0863682184579
 31
0.0000000001127424
 11
2495.545493000996
 21
-638.2124760938098
 31
0.0000000001127424
 11
2486.264984360684
 21
-639.4381509952443
 31
0.0000000001127424
 11
2476.999101924496
 21
-640.7594033596408
 31
0.0000000001127424
 11
2467.753858955064
 21
-642.1719537785398
 31
0.0000000001127424
 11
2458.541016292212
 21
-643.6711150645251
 31
0.0000000001127424
 11
2449.391918671031
 21
-645.2498110692623
 31
0.0000000001127424
 11
2440.379018300451
 21
-646.8937372144906
 31
0.0000000001127424
 11
2435.972183688365
 21
-647.7305287176091
 31
0.0000000001127424
 11
2431.682296038018
 21
-648.5666727632026
 31
0.0000000001127424
 11
2427.572031266713
 21
-649.3885985834006
 31
0.0000000001127424
 11
2423.743380398788
 21
-650.1730454987885
 31
0.0000000001127424
 11
2420.325036490094
 21
-650.889588347289
 31
0.0000000001127424
 11
2417.465565926732
 21
-651.5010833543929
 31
0.0000000001127424
 11
2416.284122705099
 21
-651.7571201306484
 31
0.0000000001127424
 11
2415.279341519078
 21
-651.9763729916119
 31
0.0000000001127424
 11
2414.45166737253
 21
-652.1579645759246
 31
0.0000000001127424
 11
2413.797109346064
 21
-652.3021089156746
 31
0.0000000001127424
 11
2413.305960104412
 21
-652.410327144205
 31
0.0000000001127424
 11
2412.965464754609
 21
-652.4848761054591
 31
0.0000000001127424
 11
2412.762487253832
 21
-652.5293553699487
 31
0.0000000001127424
 11
2412.523973204881
 21
-652.5599305196306
 31
0.0000000001127424
  0
SPLINE
  5
1AD63
330
18
100
AcDbEntity
  8
01
100
AcDbSpline
210
0.0
220
0.0
230
1.0
 70
     8
 71
     3
 72
    44
 73
    40
 74
     0
 42
0.0000000001
 43
0.0000000001
 40
0.0
 40
0.0
 40
0.0
 40
0.0
 40
27.07959778501141
 40
27.07959778501141
 40
54.60840902937863
 40
54.60840902937863
 40
82.13722027374585
 40
82.13722027374585
 40
109.6660315181131
 40
109.6660315181131
 40
112.1754562362065
 40
112.1754562362065
 40
117.1943056723934
 40
117.1943056723934
 40
127.2320045447672
 40
127.2320045447672
 40
133.9474354635729
 40
133.9474354635729
 40
134.5784087099583
 40
134.5784087099583
 40
135.8403552027291
 40
135.8403552027291
 40
137.719205311297
 40
137.719205311297
 40
137.8907550435536
 40
137.8907550435536
 40
138.2338545080668
 40
138.2338545080668
 40
138.3136935812727
 40
138.3136935812727
 40
138.3988995637888
 40
138.3988995637888
 40
138.4402043869496
 40
138.4402043869496
 40
138.4737052737331
 40
138.4737052737331
 40
138.4994240015327
 40
138.4994240015327
 40
138.5115311008119
 40
138.5115311008119
 40
138.5115311008119
 40
138.5115311008119
 10
2523.349955851239
 20
-627.5063497485057
 30
0.0000000001127424
 10
2514.39911494527
 20
-628.7025942868831
 30
0.0000000001127424
 10
2505.462707273079
 20
-630.0030661806338
 30
0.0000000001127424
 10
2487.46627493303
 20
-632.7735366990521
 30
0.0000000001127424
 10
2478.406194048084
 20
-634.2450314552541
 30
0.0000000001127424
 10
2460.305865627398
 20
-637.3044350399666
 30
0.0000000001127424
 10
2451.265533778546
 20
-638.8936710131929
 30
0.0000000001127424
 10
2433.212250323942
 20
-642.2267901596631
 30
0.0000000001127424
 10
2424.199690937856
 20
-643.9725804932552
 30
0.0000000001127424
 10
2414.387950133108
 20
-645.9897613329006
 30
0.0000000001127424
 10
2413.5684384019
 20
-646.1591419678148
 30
0.0000000001127424
 10
2411.110442804425
 20
-646.6699598829878
 30
0.0000000001127424
 10
2409.472500587754
 20
-647.0140697841343
 30
0.0000000001127424
 10
2404.561001418761
 20
-648.0576361469248
 30
0.0000000001127424
 10
2401.289641969733
 20
-648.7675847834023
 30
0.0000000001127424
 10
2395.836129438675
 20
-649.9858068837166
 30
0.0000000001127424
 10
2393.652066322738
 20
-650.4827127625863
 30
0.0000000001127424
 10
2391.265270865473
 20
-651.0412125959454
 30
0.0000000001127424
 10
2391.060292276034
 20
-651.089314068767
 30
0.0000000001127424
 10
2390.445426770963
 20
-651.2340552858236
 30
0.0000000001127424
 10
2390.035590298498
 20
-651.3311272843214
 30
0.0000000001127424
 10
2389.015808316112
 20
-651.5746393563863
 30
0.0000000001127424
 10
2388.406208871369
 20
-651.7217679429416
 30
0.0000000001127424
 10
2387.740448268079
 20
-651.8861202793778
 30
0.0000000001127424
 10
2387.684718934204
 20
-651.8999116052755
 30
0.0000000001127424
 10
2387.51745992454
 20
-651.9414433559248
 30
0.0000000001127424
 10
2387.406231610503
 20
-651.9692167681094
 30
0.0000000001127424
 10
2387.267881669281
 20
-652.0042176566317
 30
0.0000000001127424
 10
2387.241683268421
 20
-652.0108726069586
 30
0.0000000001127424
 10
2387.187368594487
 20
-652.0247582338877
 30
0.0000000001127424
 10
2387.159454136418
 20
-652.0319567292884
 30
0.0000000001127424
 10
2387.118515677041
 20
-652.0425135359797
 30
0.0000000001127424
 10
2387.10418327773
 20
-652.0462075649918
 30
0.0000000001127424
 10
2387.07655539242
 20
-652.0535131772597
 30
0.0000000001127424
 10
2387.064346579384
 20
-652.0568366844598
 30
0.0000000001127424
 10
2387.04961509946
 20
-652.0607514843082
 30
0.0000000001127424
 10
2387.048476207409
 20
-652.0609281086302
 30
0.0000000001127424
 10
2387.024233812771
 20
-652.0673182095918
 30
0.0000000001127424
 10
2387.013788010038
 20
-652.0701415845713
 30
0.0000000001127424
 10
2387.000583562522
 20
-652.0742100821201
 30
0.0000000001127424
  0
LINE
  5
1AD64
330
18
100
AcDbEntity
  8
01
  6
CONTINUOUS
100
AcDbLine
 10
2278.556172138777
 20
-630.5599227538473
 30
0.0000000001127424
 11
2258.822838809417
 21
-630.5599244789905
 31
0.0000000001127424
  0
LINE
  5
1AD65
330
18
100
AcDbEntity
  8
01
  6
CONTINUOUS
100
AcDbLine
 10
2258.82284073272
 20
-652.5599244789905
 30
0.0000000001127424
 11
2278.556174062078
 21
-652.5599227538473
 31
0.0000000001127424
  0
SPLINE
  5
1AD66
330
18
100
AcDbEntity
  8
01
  6
CONTINUOUS
100
AcDbSpline
210
0.0
220
0.0
230
1.0
 70
  1064
 71
     3
 72
    10
 73
     6
 74
     4
 42
0.000000001
 43
0.0000000001
 44
0.000001
 12
-0.9994601531828483
 22
-0.03285425694970674
 32
0.0
 13
-0.999999986028043
 23
-0.0001671643320593494
 33
0.0
 40
0.0
 40
0.0
 40
0.0
 40
0.0
 40
5.014443398443527
 40
11.01006145479278
 40
17.34126459784179
 40
17.34126459784179
 40
17.34126459784179
 40
17.34126459784179
 10
2296.162256000701
 20
-630.363079372622
 30
0.0000000001127424
 10
2294.491677211656
 20
-630.4179946432461
 30
0.0000000001127424
 10
2290.822232966488
 20
-630.4943244033949
 30
0.0000000001127424
 10
2285.042047481948
 20
-630.5494163388925
 30
0.0000000001127424
 10
2280.933084145111
 20
-630.5595440654557
 30
0.0000000001127424
 10
2278.822683126915
 20
-630.5598968492372
 30
0.0000000001127424
 11
2296.162256000701
 21
-630.363079372622
 31
0.0000000001127424
 11
2291.149151339827
 21
-630.4789437365866
 31
0.0000000001127424
 11
2285.153859442111
 21
-630.5414806154172
 31
0.0000000001127424
 11
2278.822683126915
 21
-630.5598968492372
 31
0.0000000001127424
  0
LINE
  5
1AD67
330
18
100
AcDbEntity
  8
01
  6
CONTINUOUS
100
AcDbLine
 10
2298.174500359186
 20
-630.2841207020624
 30
0.0000000001127424
 11
2296.162256000701
 21
-630.363079372622
 31
0.0000000001127424
  0
SPLINE
  5
1AD68
330
18
100
AcDbEntity
  8
01
  6
CONTINUOUS
100
AcDbSpline
210
0.0
220
0.0
230
1.0
 70
  1064
 71
     3
 72
    36
 73
    32
 74
    30
 42
0.000000001
 43
0.0000000001
 44
0.000001
 12
0.9938069772178694
 22
-0.1111201693351909
 32
0.0
 13
-0.9989015518246972
 23
-0.04685818778198592
 33
0.0
 40
0.0
 40
0.0
 40
0.0
 40
0.0
 40
2.42922784662992
 40
3.919355453223645
 40
5.550941175542857
 40
7.284555291724734
 40
9.071456982233972
 40
10.85917755497593
 40
11.73489586882123
 40
12.58682580795989
 40
13.40493229759228
 40
14.17691436774292
 40
14.88865081251399
 40
15.5225472362669
 40
15.80398645204095
 40
16.05801996152319
 40
16.28041886650327
 40
16.46689274434949
 40
16.61375640551638
 40
16.71870486785198
 40
16.78579178781782
 40
16.85368029962045
 40
16.90643972053334
 40
16.9766056514621
 40
17.1786149263348
 40
17.47849300648922
 40
17.89430820030068
 40
18.44687969626548
 40
19.15861543069466
 40
20.05339997840785
 40
21.15333389268996
 40
21.15333389268996
 40
21.15333389268996
 40
21.15333389268996
 10
2285.843035717324
 20
-627.8718818378852
 30
0.0000000001127424
 10
2286.647763578401
 20
-627.9618605744423
 30
0.0000000001127424
 10
2287.951102174341
 20
-628.0594996296174
 30
0.0000000001127424
 10
2289.797179044937
 20
-628.1826301811966
 30
0.0000000001127424
 10
2291.41209388317
 20
-628.2899833910578
 30
0.0000000001127424
 10
2293.124852070831
 20
-628.4158565101751
 30
0.0000000001127424
 10
2294.888290265203
 20
-628.5615388650751
 30
0.0000000001127424
 10
2296.36518890602
 20
-628.7012507721817
 30
0.0000000001127424
 10
2297.530589502073
 20
-628.823532705863
 30
0.0000000001127424
 10
2298.37384038045
 20
-628.9186205340889
 30
0.0000000001127424
 10
2299.181864011621
 20
-629.0172376566132
 30
0.0000000001127424
 10
2299.942387830983
 20
-629.1189800647452
 30
0.0000000001127424
 10
2300.64054923641
 20
-629.2232191057718
 30
0.0000000001127424
 10
2301.175200427049
 20
-629.3148001644804
 30
0.0000000001127424
 10
2301.557481846331
 20
-629.3911192039081
 30
0.0000000001127424
 10
2301.804023593051
 20
-629.4462369731264
 30
0.0000000001127424
 10
2302.018002116584
 20
-629.5019799730723
 30
0.0000000001127424
 10
2302.194758212127
 20
-629.5568175587425
 30
0.0000000001127424
 10
2302.330460063845
 20
-629.6141176783217
 30
0.0000000001127424
 10
2302.421754934711
 20
-629.6646977437223
 30
0.0000000001127424
 10
2302.47531863743
 20
-629.739475043112
 30
0.0000000001127424
 10
2302.433472560522
 20
-629.8002377962457
 30
0.0000000001127424
 10
2302.380398361179
 20
-629.8331125728965
 30
0.0000000001127424
 10
2302.281497762127
 20
-629.8793279548585
 30
0.0000000001127424
 10
2302.097713321655
 20
-629.9314953089629
 30
0.0000000001127424
 10
2301.797601505295
 20
-629.9916076350515
 30
0.0000000001127424
 10
2301.379010794725
 20
-630.05184995173
 30
0.0000000001127424
 10
2300.822217647595
 20
-630.1126451626818
 30
0.0000000001127424
 10
2300.105000140417
 20
-630.1730337303079
 30
0.0000000001127424
 10
2299.204774075358
 20
-630.2324519122784
 30
0.0000000001127424
 10
2298.540742257146
 20
-630.2669403987613
 30
0.0000000001127424
 10
2298.174500359186
 20
-630.2841207020624
 30
0.0000000001127424
 11
2285.843035717324
 21
-627.8718818378852
 31
0.0000000001127424
 11
2288.263435494251
 21
-628.0787835307706
 31
0.0000000001127424
 11
2289.750159514365
 21
-628.1794410809157
 31
0.0000000001127424
 11
2291.378024706139
 21
-628.2895631662063
 31
0.0000000001127424
 11
2293.106939251085
 21
-628.4171265205619
 31
0.0000000001127424
 11
2294.887708276352
 21
-628.5650433273718
 31
0.0000000001127424
 11
2296.667431659522
 21
-628.7339506739931
 31
0.0000000001127424
 11
2297.538351639144
 21
-628.8254988155281
 31
0.0000000001127424
 11
2298.384889299941
 21
-628.9212007419824
 31
0.0000000001127424
 11
2299.196922255368
 21
-629.0207061187998
 31
0.0000000001127424
 11
2299.962009036
 21
-629.1236600117186
 31
0.0000000001127424
 11
2300.665800983671
 21
-629.2297083104427
 31
0.0000000001127424
 11
2301.290278243209
 21
-629.3385799531802
 31
0.0000000001127424
 11
2301.566204723754
 21
-629.3940112910436
 31
0.0000000001127424
 11
2301.813974270936
 21
-629.4500763484143
 31
0.0000000001127424
 11
2302.029026957858
 21
-629.5067651918575
 31
0.0000000001127424
 11
2302.206477296302
 21
-629.564070441254
 31
0.0000000001127424
 11
2302.341439798057
 21
-629.621984716488
 31
0.0000000001127424
 11
2302.428559722028
 21
-629.6805022572321
 31
0.0000000001127424
 11
2302.460264043702
 21
-629.7396249603457
 31
0.0000000001127424
 11
2302.427990820345
 21
-629.7993517691443
 31
0.0000000001127424
 11
2302.384647087047
 21
-629.8294329563591
 31
0.0000000001127424
 11
2302.321322308109
 21
-629.859652663888
 31
0.0000000001127424
 11
2302.128688964447
 21
-629.9204814705349
 31
0.0000000001127424
 11
2301.835136792686
 21
-629.9817512576778
 31
0.0000000001127424
 11
2301.42390709372
 21
-630.0433338146308
 31
0.0000000001127424
 11
2300.874776277039
 21
-630.1049017074561
 31
0.0000000001127424
 11
2300.165669341093
 21
-630.1660172543502
 31
0.0000000001127424
 11
2299.272902656143
 21
-630.2260758425941
 31
0.0000000001127424
 11
2298.174500359186
 21
-630.2841207020624
 31
0.0000000001127424
  0
LINE
  5
1AD69
330
18
100
AcDbEntity
  8
01
100
AcDbLine
 10
2285.81087363301
 20
-630.5361044615433
 30
0.0000000001127424
 11
2285.843035717324
 21
-627.8718818378852
 31
0.0000000001127424
  0
LINE
  5
1AD6A
330
18
100
AcDbEntity
  8
01
  6
CONTINUOUS
100
AcDbLine
 10
2278.822683126915
 20
-630.5598968492372
 30
0.0000000001127424
 11
2278.556172138777
 21
-630.5599227538473
 31
0.0000000001127424
  0
LINE
  5
1AD6B
330
18
100
AcDbEntity
  8
01
100
AcDbLine
 10
2306.993244524528
 20
-627.2002736796208
 30
0.0000000001127424
 11
2286.641631561002
 21
-627.0811000418475
 31
0.0000000001127424
  0
ARC
  5
1AD6C
330
18
100
AcDbEntity
  8
01
100
AcDbCircle
 10
2306.997291069589
 20
-627.9916401689832
 30
0.0000000001127424
 40
0.7913768350239725
100
AcDbArc
 50
27.35913675198638
 51
90.2929716332685
  0
ARC
  5
1AD6D
330
18
100
AcDbEntity
  8
01
100
AcDbCircle
 10
2286.642660918258
 20
-627.8811397661837
 30
0.0000000001127424
 40
0.7996787925197018
100
AcDbArc
 50
89.9935702585521
 51
179.3366685809378
  0
LINE
  5
1AD6E
330
18
100
AcDbEntity
  8
01
  6
CONTINUOUS
100
AcDbLine
 10
2258.822838809417
 20
-630.5599244789905
 30
0.0000000001127424
 11
2258.82284073272
 21
-652.5599244789905
 31
0.0000000001127424
  0
LINE
  5
1AD6F
330
18
100
AcDbEntity
  8
01
  6
CONTINUOUS
100
AcDbLine
 10
2298.998736094614
 20
-630.241915639695
 30
0.0000000001127424
 11
2299.978433479621
 21
-630.1770118584577
 31
0.0000000001127424
  0
SPLINE
  5
1AD70
330
18
100
AcDbEntity
  8
01
  6
CONTINUOUS
100
AcDbSpline
210
0.0
220
0.0
230
1.0
 70
  1064
 71
     3
 72
    27
 73
    23
 74
    21
 42
0.000000001
 43
0.0000000001
 44
0.000001
 12
0.9999996557190713
 22
0.0008297962031457257
 32
0.0
 13
-0.4579738290174825
 23
0.8889656753413293
 33
0.0
 40
0.0
 40
0.0
 40
0.0
 40
0.0
 40
5.873293633215288
 40
11.36353689117744
 40
16.53955106604971
 40
21.14173461159522
 40
24.98310568734634
 40
28.06655579448034
 40
30.51817324520313
 40
32.50336731390501
 40
34.16067337673968
 40
35.59775548316256
 40
36.88559666201813
 40
38.07491547901009
 40
40.27457243626415
 40
41.32578564536498
 40
42.35657039433246
 40
44.37506806133698
 40
46.34835779444145
 40
50.10698163516924
 40
51.84875827563179
 40
53.46914539902231
 40
53.46914539902231
 40
53.46914539902231
 40
53.46914539902231
 10
2278.556174062078
 20
-652.5599227538473
 30
0.0000000001127424
 10
2280.513937932462
 20
-652.5582982082617
 30
0.0000000001127424
 10
2284.30215269202
 20
-652.5064433835555
 30
0.0000000001127424
 10
2289.809843825406
 20
-652.2288059848528
 30
0.0000000001127424
 10
2294.877770444967
 20
-651.7356652443417
 30
0.0000000001127424
 10
2299.364429952403
 20
-651.0173795266861
 30
0.0000000001127424
 10
2303.10143601932
 20
-650.102115650476
 30
0.0000000001127424
 10
2306.053342362043
 20
-649.054101633927
 30
0.0000000001127424
 10
2308.295436807755
 20
-647.9156197015329
 30
0.0000000001127424
 10
2309.958312177318
 20
-646.7335725025258
 30
0.0000000001127424
 10
2311.1541898516
 20
-645.522096013748
 30
0.0000000001127424
 10
2311.978516505921
 20
-644.3060290382855
 30
0.0000000001127424
 10
2312.50098286121
 20
-643.1025659655057
 30
0.0000000001127424
 10
2312.868814068446
 20
-641.5811573978906
 30
0.0000000001127424
 10
2312.887814267076
 20
-640.0816168781104
 30
0.0000000001127424
 10
2312.673889553294
 20
-638.669799687798
 30
0.0000000001127424
 10
2312.362283417059
 20
-637.3374612793903
 30
0.0000000001127424
 10
2311.816992619055
 20
-635.7507505230756
 30
0.0000000001127424
 10
2310.781535815221
 20
-633.3822203021772
 30
0.0000000001127424
 10
2309.611140766268
 20
-631.1807383372511
 30
0.0000000001127424
 10
2308.475803620132
 20
-629.096646071633
 30
0.0000000001127424
 10
2307.947512128962
 20
-628.1081060202057
 30
0.0000000001127424
 10
2307.700147163832
 20
-627.627949842386
 30
0.0000000001127424
 11
2278.556174062078
 21
-652.5599227538473
 31
0.0000000001127424
 11
2284.428741799464
 21
-652.467591800681
 31
0.0000000001127424
 11
2289.911431717075
 21
-652.1796960924571
 31
0.0000000001127424
 11
2295.061403515175
 21
-651.6611261114163
 31
0.0000000001127424
 11
2299.601939514751
 21
-650.9103747670711
 31
0.0000000001127424
 11
2303.327176030227
 21
-649.9729604254421
 31
0.0000000001127424
 11
2306.223604004369
 21
-648.9154301678323
 31
0.0000000001127424
 11
2308.400258022285
 21
-647.7873318172255
 31
0.0000000001127424
 11
2310.007277056166
 21
-646.6217908877393
 31
0.0000000001127424
 11
2311.164033582067
 21
-645.4349556069387
 31
0.0000000001127424
 11
2311.965187959296
 21
-644.2419104083688
 31
0.0000000001127424
 11
2312.47742500827
 21
-643.0603232270701
 31
0.0000000001127424
 11
2312.758311326263
 21
-641.9046492885541
 31
0.0000000001127424
 11
2312.811997139181
 21
-639.7056474841515
 31
0.0000000001127424
 11
2312.659054446039
 21
-638.6656196900772
 31
0.0000000001127424
 11
2312.425991990025
 21
-637.6615284844988
 31
0.0000000001127424
 11
2311.786535602841
 21
-635.7469975884392
 31
0.0000000001127424
 11
2311.004432002765
 21
-633.9353170190457
 31
0.0000000001127424
 11
2309.288010777236
 21
-630.59149408031
 31
0.0000000001127424
 11
2308.45853594271
 21
-629.0599074933648
 31
0.0000000001127424
 11
2307.700147163832
 21
-627.627949842386
 31
0.0000000001127424
  0
TEXT
  5
1AD75
330
18
100
AcDbEntity
  8
1TEXT
100
AcDbText
 10
2044.82308445056
 20
-356.5599243609699
 30
0.0000000001127424
 40
20.0
  1
1-AZC-X-LJ
100
AcDbText
  0
LINE
  5
1AD76
330
18
100
AcDbEntity
  8
1DIM
100
AcDbLine
 10
2044.82308445056
 20
-418.0599243609699
 30
0.0000000001127424
 11
2149.82308445056
 21
-418.0599243609699
 31
0.0000000001127424
  0
TEXT
  5
1AD77
330
18
100
AcDbEntity
  8
1TEXT
100
AcDbText
 10
2046.723084450559
 20
-426.0262947783262
 30
0.0000000001127424
 40
6.0
  1
パールブラック
 72
     1
 11
2070.923084450559
 21
-426.0262947783262
 31
0.0000000001127424
100
AcDbText
  0
TEXT
  5
1AD78
330
18
100
AcDbEntity
  8
1TEXT
100
AcDbText
 10
2057.023084450559
 20
-394.8099243609699
 30
0.0000000001127424
 40
6.0
  1
表面処理
 72
     1
 11
2070.923084450559
 21
-394.8099243609699
 31
0.0000000001127424
100
AcDbText
  0
TEXT
  5
1AD79
330
18
100
AcDbEntity
  8
1TEXT
100
AcDbText
 10
2056.723084450559
 20
-405.0628573502568
 30
0.0000000001127424
 40
6.0
  1
クローム
 72
     1
 11
2070.923084450559
 21
-405.0628573502568
 31
0.0000000001127424
100
AcDbText
  0
LINE
  5
1AD7A
330
18
100
AcDbEntity
  8
1DIM
100
AcDbLine
 10
2044.82308445056
 20
-386.5599243609699
 30
0.0000000001127424
 11
2149.82308445056
 21
-386.5599243609699
 31
0.0000000001127424
  0
LINE
  5
1AD7B
330
18
100
AcDbEntity
  8
1DIM
100
AcDbLine
 10
2044.82308445056
 20
-397.0599243609699
 30
0.0000000001127424
 11
2149.82308445056
 21
-397.0599243609699
 31
0.0000000001127424
  0
LINE
  5
1AD7C
330
18
100
AcDbEntity
  8
1DIM
100
AcDbLine
 10
2044.82308445056
 20
-407.5599243609699
 30
0.0000000001127424
 11
2149.82308445056
 21
-407.5599243609699
 31
0.0000000001127424
  0
LINE
  5
1AD7D
330
18
100
AcDbEntity
  8
1DIM
100
AcDbLine
 10
2044.82308445056
 20
-407.5599243609699
 30
0.0000000001127424
 11
2149.82308445056
 21
-407.5599243609699
 31
0.0000000001127424
  0
LINE
  5
1AD7E
330
18
100
AcDbEntity
  8
1DIM
100
AcDbLine
 10
2097.32308445056
 20
-386.5599243609699
 30
0.0000000001127424
 11
2097.32308445056
 21
-428.5599243609699
 31
0.0000000001127424
  0
TEXT
  5
1AD7F
330
18
100
AcDbEntity
  8
1TEXT
100
AcDbText
 10
2103.823084450561
 20
-405.6314598364443
 30
0.0000000001127424
 40
6.0
  1
1-AZC-C-LJ
 41
0.6999999999999998
 72
     1
 11
2123.423084450561
 21
-405.6314598364443
 31
0.0000000001127424
100
AcDbText
  0
TEXT
  5
1AD80
330
18
100
AcDbEntity
  8
1TEXT
100
AcDbText
 10
2113.123084450559
 20
-394.8099243609699
 30
0.0000000001127424
 40
6.0
  1
コード
 72
     1
 11
2123.423084450559
 21
-394.8099243609699
 31
0.0000000001127424
100
AcDbText
  0
LINE
  5
1AD81
330
18
100
AcDbEntity
  8
1DIM
100
AcDbLine
 10
2044.82308445056
 20
-428.5599243609699
 30
0.0000000001127424
 11
2149.82308445056
 21
-428.5599243609699
 31
0.0000000001127424
  0
TEXT
  5
1AD82
330
18
100
AcDbEntity
  8
1TEXT
100
AcDbText
 10
2046.123084450559
 20
-415.5262947783262
 30
0.0000000001127424
 40
6.0
  1
サテンニッケル
 72
     1
 11
2070.923084450559
 21
-415.5262947783262
 31
0.0000000001127424
100
AcDbText
  0
LINE
  5
1AD83
330
18
100
AcDbEntity
  8
1DIM
100
AcDbLine
 10
2044.82308445056
 20
-428.5599243609699
 30
0.0000000001127424
 11
2044.82308445056
 21
-386.5599243609699
 31
0.0000000001127424
  0
LINE
  5
1AD84
330
18
100
AcDbEntity
  8
1DIM
100
AcDbLine
 10
2149.82308445056
 20
-428.5599243609699
 30
0.0000000001127424
 11
2149.82308445056
 21
-386.5599243609699
 31
0.0000000001127424
  0
TEXT
  5
1AD85
330
18
100
AcDbEntity
  8
1TEXT
100
AcDbText
 10
2101.708501117228
 20
-426.6314598364443
 30
0.0000000001127424
 40
6.0
  1
1-AZC-GQ-LJ
 41
0.6999999999999998
 72
     1
 11
2123.423084450561
 21
-426.6314598364443
 31
0.0000000001127424
100
AcDbText
  0
TEXT
  5
1AD86
330
18
100
AcDbEntity
  8
1TEXT
100
AcDbText
 10
2103.823084450561
 20
-416.1314598364443
 30
0.0000000001127424
 40
6.0
  1
1-AZC-N-LJ
 41
0.6999999999999998
 72
     1
 11
2123.423084450561
 21
-416.1314598364443
 31
0.0000000001127424
100
AcDbText
  0
LINE
  5
1AD87
330
18
100
AcDbEntity
  8
1CENTER
100
AcDbLine
 10
2383.739165007128
 20
-337.0586140831774
 30
0.0000000001127424
 11
2391.872837368976
 21
-337.0586060499272
 31
0.0000000001127424
  0
LINE
  5
1AD88
330
18
100
AcDbEntity
  8
01
100
AcDbLine
 10
2524.388636111598
 20
-314.6074518410346
 30
0.0000000001127424
 11
2524.388636114018
 21
-294.5978471508088
 31
0.0000000001127424
  0
SPLINE
  5
1AD89
330
18
100
AcDbEntity
  8
01
100
AcDbSpline
210
0.0
220
0.0
230
1.0
 70
     8
 71
     3
 72
     9
 73
     5
 74
     0
 42
0.0000000001
 43
0.0000000001
 40
0.0
 40
0.0
 40
0.0
 40
0.0
 40
4.181585763194067
 40
4.906987455372584
 40
4.906987455372584
 40
4.906987455372584
 40
4.906987455372584
 10
2413.322842111598
 20
-331.5599243630272
 30
0.0000000001127424
 10
2413.33082552252
 20
-329.9038360398085
 30
0.0000000001127424
 10
2413.407630795932
 20
-328.2666227426585
 30
0.0000000001127424
 10
2413.604426246174
 20
-326.6413896314311
 30
0.0000000001127424
 10
2413.636389191534
 20
-326.4015109988509
 30
0.0000000001127424
  0
LINE
  5
1AD8A
330
18
100
AcDbEntity
  8
01
100
AcDbLine
 10
2386.322842111599
 20
-342.5599243630272
 30
0.0000000001127424
 11
2413.322842111599
 21
-342.5599243630272
 31
0.0000000001127424
  0
LINE
  5
1AD8B
330
18
100
AcDbEntity
  8
01
100
AcDbLine
 10
2413.322842111598
 20
-331.5599243630272
 30
0.0000000001127424
 11
2413.322842111599
 21
-342.5599243630272
 31
0.0000000001127424
  0
LINE
  5
1AD8C
330
18
100
AcDbEntity
  8
01
100
AcDbLine
 10
2386.322842111598
 20
-322.5599243630272
 30
0.0000000001127424
 11
2386.322842111599
 21
-342.5599243630272
 31
0.0000000001127424
  0
ARC
  5
1AD8D
330
18
100
AcDbEntity
  8
01
100
AcDbCircle
 10
2523.387090666091
 20
-314.6091202694092
 30
0.0000000001127424
 40
1.00154683518478
100
AcDbArc
 50
269.2048736671269
 51
0.0954463087897859
  0
LINE
  5
1AD8E
330
18
100
AcDbEntity
  8
01
100
AcDbLine
 10
2523.342138678564
 20
-315.6096303490644
 30
0.0000000001127424
 11
2523.37319207342
 21
-315.6105706636822
 31
0.0000000001127424
  0
ARC
  5
1AD8F
330
18
100
AcDbEntity
  8
01
100
AcDbCircle
 10
2523.387562275289
 20
-294.596997190424
 30
0.0000000001127424
 40
1.001074199556652
100
AcDbArc
 50
359.9513531078029
 51
86.19617612219248
  0
LINE
  5
1AD90
330
18
100
AcDbEntity
  8
01
100
AcDbLine
 10
2523.368402862812
 20
-314.7411313073139
 30
0.0000000001127424
 11
2523.350865051018
 21
-314.7400122100094
 31
0.0000000001127424
  0
SPLINE
  5
1AD91
330
18
100
AcDbEntity
  8
01
100
AcDbSpline
210
0.0
220
0.0
230
1.0
 70
  1064
 71
     3
 72
    10
 73
     6
 74
     4
 42
0.000000001
 43
0.0000000001
 44
0.000001
 12
0.9831784645781124
 22
-0.1826474932481291
 32
0.0
 13
0.993718563209008
 23
-0.1119080744800171
 33
0.0
 40
0.0
 40
0.0
 40
0.0
 40
0.0
 40
12.64947198872543
 40
25.29664324953094
 40
37.93871298170414
 40
37.93871298170414
 40
37.93871298170414
 40
37.93871298170414
 10
2485.860522470426
 20
-308.9724753028245
 30
0.0000000001127424
 10
2490.006085286293
 20
-309.7426067527089
 30
0.0000000001127424
 10
2498.307470716267
 20
-311.2250049203845
 30
0.0000000001127424
 10
2510.801439201928
 20
-313.1886501528701
 30
0.0000000001127424
 10
2519.163311927603
 20
-314.2684289829528
 30
0.0000000001127424
 10
2523.350865051018
 20
-314.7400122100094
 30
0.0000000001127424
 11
2485.860522470426
 21
-308.9724753028245
 31
0.0000000001127424
 11
2498.315551278674
 21
-311.1818612283382
 31
0.0000000001127424
 11
2510.811528407435
 21
-313.1316042348399
 31
0.0000000001127424
 11
2523.350865051018
 21
-314.7400122100094
 31
0.0000000001127424
  0
ARC
  5
1AD92
330
18
100
AcDbEntity
  8
01
100
AcDbCircle
 10
2815.726760673174
 20
1450.836125370779
 30
0.0000000001127424
 40
1790.457496315067
100
AcDbArc
 50
258.7765821234395
 51
259.3834231226387
  0
SPLINE
  5
1AD93
330
18
100
AcDbEntity
  8
01
100
AcDbSpline
210
0.0
220
0.0
230
1.0
 70
  1064
 71
     3
 72
    25
 73
    21
 74
    19
 42
0.000000001
 43
0.0000000001
 44
0.000001
 12
-0.000871073338289442
 22
0.9999996206155477
 32
0.0
 13
0.9812495806433168
 23
-0.1927414342774154
 33
0.0
 40
0.0
 40
0.0
 40
0.0
 40
0.0
 40
3.441413671685528
 40
6.890117821913623
 40
10.34824228437181
 40
13.8158631664741
 40
17.2911699856967
 40
20.76838829436315
 40
24.24299418042837
 40
27.70617175107071
 40
31.15824156417356
 40
34.60459654871386
 40
41.47191728334263
 40
48.32507241181091
 40
55.16974723390396
 40
62.00886926276701
 40
68.84307992267435
 40
75.67437120356232
 40
82.50297694377416
 40
96.15803897753096
 40
96.15803897753096
 40
96.15803897753096
 40
96.15803897753096
 10
2386.322842111598
 20
-322.5599243630272
 30
0.0000000001127424
 10
2386.321842870366
 20
-321.4127869076717
 30
0.0000000001127424
 10
2386.4093901725
 20
-319.1146073325915
 30
0.0000000001127424
 10
2386.864478382858
 20
-315.6890414565307
 30
0.0000000001127424
 10
2387.733596101269
 20
-312.330820578869
 30
0.0000000001127424
 10
2389.109314326014
 20
-309.1304795873464
 30
0.0000000001127424
 10
2391.053638730411
 20
-306.2253387032348
 30
0.0000000001127424
 10
2393.541239122208
 20
-303.7647499389516
 30
0.0000000001127424
 10
2396.442907863947
 20
-301.8252898820674
 30
0.0000000001127424
 10
2399.607105648471
 20
-300.3878973499328
 30
0.0000000001127424
 10
2402.915566019199
 20
-299.3710283411867
 30
0.0000000001127424
 10
2407.420378033082
 20
-298.4689120192765
 30
0.0000000001127424
 10
2413.139487087038
 20
-297.9932748999207
 30
0.0000000001127424
 10
2419.999224448483
 20
-298.0778658480669
 30
0.0000000001127424
 10
2426.828981113501
 20
-298.5895864221515
 30
0.0000000001127424
 10
2433.622089895552
 20
-299.3947997143252
 30
0.0000000001127424
 10
2440.383461629287
 20
-300.3991561372257
 30
0.0000000001127424
 10
2447.118860187088
 20
-301.5420645708027
 30
0.0000000001127424
 10
2456.074239210608
 20
-303.186774836627
 30
0.0000000001127424
 10
2462.774241077235
 20
-304.5028010793223
 30
0.0000000001127424
 10
2467.240582375329
 20
-305.3800998265001
 30
0.0000000001127424
 11
2386.322842111598
 21
-322.5599243630272
 31
0.0000000001127424
 11
2386.46304877405
 21
-319.1213670087695
 31
0.0000000001127424
 11
2386.932595170553
 21
-315.7047770880849
 31
0.0000000001127424
 11
2387.816531821664
 21
-312.3615329940899
 31
0.0000000001127424
 11
2389.202383764511
 21
-309.182884011946
 31
0.0000000001127424
 11
2391.143575671465
 21
-306.300258133123
 31
0.0000000001127424
 11
2393.611493625864
 21
-303.8506808796567
 31
0.0000000001127424
 11
2396.491235992641
 21
-301.9064662342932
 31
0.0000000001127424
 11
2399.636076509486
 21
-300.4560946939016
 31
0.0000000001127424
 11
2402.931121153582
 21
-299.4267904087403
 31
0.0000000001127424
 11
2406.307670285209
 21
-298.7366606540868
 31
0.0000000001127424
 11
2413.145624924071
 21
-298.1022540871845
 31
0.0000000001127424
 11
2419.998619104598
 21
-298.1492302321665
 31
0.0000000001127424
 11
2426.825764774194
 21
-298.6387768682214
 31
0.0000000001127424
 11
2433.619161481294
 21
-299.4283030614115
 31
0.0000000001127424
 11
2440.38067202101
 21
-300.422491554169
 31
0.0000000001127424
 11
2447.11703028312
 21
-301.5574003848274
 31
0.0000000001127424
 11
2453.834399750338
 21
-302.7849197842272
 31
0.0000000001127424
 11
2467.240582375329
 21
-305.3800998265001
 31
0.0000000001127424
  0
ARC
  5
1AD94
330
18
100
AcDbEntity
  8
01
100
AcDbCircle
 10
2524.293307145264
 20
-314.523840474913
 30
0.0000000001127424
 40
0.0979236131362861
100
AcDbArc
 50
286.2525914478319
 51
346.7810586093157
  0
LINE
  5
1AD95
330
18
100
AcDbEntity
  8
01
100
AcDbLine
 10
2524.177856002016
 20
-314.6665189897526
 30
0.0000000001127424
 11
2524.320713265429
 21
-314.6178507859863
 31
0.0000000001127424
  0
ARC
  5
1AD96
330
18
100
AcDbEntity
  8
01
100
AcDbCircle
 10
2523.413710358269
 20
-310.8045641771164
 30
0.0000000001127424
 40
3.936827852433767
100
AcDbArc
 50
269.3405895113413
 51
281.1922620564953
  0
SPLINE
  5
1AD97
330
18
100
AcDbEntity
  8
01
100
AcDbSpline
210
0.0
220
0.0
230
1.0
 70
  1064
 71
     3
 72
    26
 73
    22
 74
    20
 42
0.000000001
 43
0.0000000001
 44
0.000001
 12
-0.997919909776306
 22
0.06446591093011673
 32
0.0
 13
-0.02284695825456342
 23
-0.9997389741820183
 33
0.0
 40
0.0
 40
0.0
 40
0.0
 40
0.0
 40
22.25672874204007
 40
33.34877084862566
 40
44.42939984479651
 40
55.49867241274673
 40
66.55665876077597
 40
77.60087402967454
 40
88.63018245892553
 40
94.13893639426067
 40
99.64443915907201
 40
105.1453874461797
 40
110.6428094101675
 40
116.1400221877812
 40
121.6412419545424
 40
127.1451797682248
 40
132.6646877645279
 40
138.2073494278444
 40
143.7750347604448
 40
149.3632114036933
 40
154.9621545292769
 40
154.9621545292769
 40
154.9621545292769
 40
154.9621545292769
 10
2523.453974030999
 20
-293.5981283142839
 30
0.0000000001127424
 10
2516.050496451609
 20
-293.1198615500572
 30
0.0000000001127424
 10
2504.964150571636
 20
-292.299789212732
 30
0.0000000001127424
 10
2490.199417920609
 20
-291.1462625890711
 30
0.0000000001127424
 10
2479.151161869244
 20
-290.2989673978527
 30
0.0000000001127424
 10
2468.108513344349
 20
-289.5297862348684
 30
0.0000000001127424
 10
2457.068948662034
 20
-288.8960318398396
 30
0.0000000001127424
 10
2446.03093480098
 20
-288.507640165898
 30
0.0000000001127424
 10
2436.833054655328
 20
-288.5019230777275
 30
0.0000000001127424
 10
2429.490806048227
 20
-288.819345983854
 30
0.0000000001127424
 10
2424.001603744423
 20
-289.2572185377318
 30
0.0000000001127424
 10
2418.542103197944
 20
-289.9545569911858
 30
0.0000000001127424
 10
2413.136114107791
 20
-290.9836378561187
 30
0.0000000001127424
 10
2407.828426274378
 20
-292.4483930608168
 30
0.0000000001127424
 10
2402.696768039447
 20
-294.4686106050627
 30
0.0000000001127424
 10
2397.897259548289
 20
-297.2204261820218
 30
0.0000000001127424
 10
2393.653577302269
 20
-300.8132212698824
 30
0.0000000001127424
 10
2390.278778284551
 20
-305.2714394062203
 30
0.0000000001127424
 10
2387.966083815305
 20
-310.3804384481442
 30
0.0000000001127424
 10
2386.677762985455
 20
-315.8424209572533
 30
0.0000000001127424
 10
2386.377137047707
 20
-319.5716152513342
 30
0.0000000001127424
 10
2386.334497441087
 20
-321.4374424702924
 30
0.0000000001127424
 11
2523.453974030999
 21
-293.5981283142839
 31
0.0000000001127424
 11
2501.254347553993
 21
-292.0048562438567
 31
0.0000000001127424
 11
2490.19540450083
 21
-291.1485989824457
 31
0.0000000001127424
 11
2479.146435081759
 21
-290.3115723578628
 31
0.0000000001127424
 11
2468.103254734385
 21
-289.5519916670241
 31
0.0000000001127424
 11
2457.062404623763
 21
-288.9366131546324
 31
0.0000000001127424
 11
2446.024239493801
 21
-288.5710980980796
 31
0.0000000001127424
 11
2434.994993550344
 21
-288.6082211509745
 31
0.0000000001127424
 11
2429.491670300707
 21
-288.8527678201006
 31
0.0000000001127424
 11
2424.004418612757
 21
-289.3006847235838
 31
0.0000000001127424
 11
2418.54940563895
 21
-290.0100967798353
 31
0.0000000001127424
 11
2413.152441647343
 21
-291.0562458555496
 31
0.0000000001127424
 11
2407.859374080413
 21
-292.5404237561941
 31
0.0000000001127424
 11
2402.754042165043
 21
-294.5895711337707
 31
0.0000000001127424
 11
2397.995983010571
 21
-297.3561944531305
 31
0.0000000001127424
 11
2393.806104391701
 21
-300.9492273999388
 31
0.0000000001127424
 11
2390.46203717043
 21
-305.3694437749959
 31
0.0000000001127424
 11
2388.140103841318
 21
-310.4298534049763
 31
0.0000000001127424
 11
2386.818217090757
 21
-315.8594329141638
 31
0.0000000001127424
 11
2386.334497441087
 21
-321.4374424702924
 31
0.0000000001127424
  0
SPLINE
  5
1AD98
330
18
100
AcDbEntity
  8
01
100
AcDbSpline
210
0.0
220
0.0
230
1.0
 70
     8
 71
     3
 72
    27
 73
    23
 74
     0
 42
0.0000000001
 43
0.0000000001
 40
0.0
 40
0.0
 40
0.0
 40
0.0
 40
16.91059537614233
 40
25.36612715702854
 40
33.82144120212359
 40
42.27681849485995
 40
50.73232732391983
 40
59.18788171366092
 40
67.64342079382851
 40
76.09822210144672
 40
80.32547480342753
 40
84.55239661131972
 40
88.77906906159228
 40
93.00316601689825
 40
97.22721965277279
 40
101.4453053855404
 40
103.5555681067257
 40
105.6622199082372
 40
107.771868988524
 40
109.8818614491521
 40
114.0963887206748
 40
118.2484923739838
 40
118.2484923739838
 40
118.2484923739838
 40
118.2484923739838
 10
2523.342031667829
 20
-315.6096569560673
 30
0.0000000001127424
 10
2517.711280834635
 20
-315.3471812501234
 30
0.0000000001127424
 10
2509.269361309684
 20
-314.8546493617482
 30
0.0000000001127424
 10
2498.026150828963
 20
-314.0229298325289
 30
0.0000000001127424
 10
2489.600305340572
 20
-313.3150681120192
 30
0.0000000001127424
 10
2481.179398294381
 20
-312.5517839208242
 30
0.0000000001127424
 10
2472.760914107121
 20
-311.7618678757103
 30
0.0000000001127424
 10
2464.340797256354
 20
-310.9878692678076
 30
0.0000000001127424
 10
2455.911963052308
 20
-310.3162024948083
 30
0.0000000001127424
 10
2448.875310935263
 20
-309.9264002675868
 30
0.0000000001127424
 10
2443.239568335789
 20
-309.8053435068528
 30
0.0000000001127424
 10
2439.012026745285
 20
-309.8518077482581
 30
0.0000000001127424
 10
2434.790059518263
 20
-310.0749705666058
 30
0.0000000001127424
 10
2430.590791566659
 20
-310.5737083857316
 30
0.0000000001127424
 10
2426.449837343757
 20
-311.4349821613782
 30
0.0000000001127424
 10
2423.125669184249
 20
-312.6482325795964
 30
0.0000000001127424
 10
2420.66332444764
 20
-314.0179349955456
 30
0.0000000001127424
 10
2418.961216094882
 20
-315.2746402927255
 30
0.0000000001127424
 10
2417.462230841747
 20
-316.7696217096004
 30
0.0000000001127424
 10
2415.791777321108
 20
-319.0439868426388
 30
0.0000000001127424
 10
2414.376131599752
 20
-322.2827931241022
 30
0.0000000001127424
 10
2413.815956232008
 20
-325.0290585397311
 30
0.0000000001127424
 10
2413.636389191535
 20
-326.4015109988509
 30
0.0000000001127424
  0
LINE
  5
1AD99
330
18
100
AcDbEntity
  8
01
100
AcDbLine
 10
1935.257276110029
 20
-631.1684445943695
 30
0.0000000001127424
 11
1935.257276110028
 21
-628.0820388622353
 31
0.0000000001127424
  0
LINE
  5
1AD9A
330
18
100
AcDbEntity
  8
01
100
AcDbLine
 10
1935.257276388827
 20
-634.146510991048
 30
0.0000000001127424
 11
1935.257276110029
 21
-631.1684445943695
 31
0.0000000001127424
  0
LINE
  5
1AD9B
330
18
100
AcDbEntity
  8
01
100
AcDbLine
 10
1936.164948164322
 20
-635.1434857247216
 30
0.0000000001127424
 11
1936.185421152593
 21
-635.1453867990849
 31
0.0000000001127424
  0
LINE
  5
1AD9C
330
18
100
AcDbEntity
  8
01
100
AcDbLine
 10
2072.523070098108
 20
-652.5599220989156
 30
0.0000000001127424
 11
2047.122344135569
 21
-652.5599224690159
 31
0.0000000001127424
  0
LINE
  5
1AD9D
330
18
100
AcDbEntity
  8
01
100
AcDbLine
 10
2047.063739534342
 20
-652.5495527610765
 30
0.0000000001127424
 11
2047.122344135569
 21
-652.5599224690159
 31
0.0000000001127424
  0
ARC
  5
1AD9E
330
18
100
AcDbEntity
  8
01
100
AcDbCircle
 10
1936.258243043054
 20
-634.1468762516117
 30
0.0000000001127424
 40
1.000966720870227
100
AcDbArc
 50
179.9790923226987
 51
264.6519974436488
  0
LINE
  5
1AD9F
330
18
100
AcDbEntity
  8
01
100
AcDbLine
 10
2073.323070110029
 20
-651.7597476666429
 30
0.0000000001127424
 11
2073.323070110029
 21
-631.359896201126
 31
0.0000000001127424
  0
LINE
  5
1ADA0
330
18
100
AcDbEntity
  8
01
100
AcDbLine
 10
1936.277509358815
 20
-627.0811056958246
 30
0.0000000001127424
 11
1936.29504717061
 21
-627.0814666319588
 31
0.0000000001127424
  0
ARC
  5
1ADA1
330
18
100
AcDbEntity
  8
01
100
AcDbCircle
 10
1936.263674379784
 20
-628.0826459235864
 30
0.0000000001127424
 40
1.006398452845485
100
AcDbArc
 50
158.8293321314492
 51
179.9654390809809
  0
ARC
  5
1ADA2
330
18
100
AcDbEntity
  8
01
100
AcDbCircle
 10
1936.263272400265
 20
-628.084333561957
 30
0.0000000001127424
 40
1.006634556911847
100
AcDbArc
 50
142.1831795887343
 51
158.731494820081
  0
ARC
  5
1ADA3
330
18
100
AcDbEntity
  8
01
100
AcDbCircle
 10
1936.257343403397
 20
-628.0805070839731
 30
0.0000000001127424
 40
0.9996048221127716
100
AcDbArc
 50
88.8440406670071
 51
142.1480733630722
  0
ARC
  5
1ADA4
330
18
100
AcDbEntity
  8
01
100
AcDbCircle
 10
2072.523070440735
 20
-651.7597473234423
 30
0.0000000001127424
 40
0.7999996692939567
100
AcDbArc
 50
269.9749677188522
 51
359.9999754200607
  0
LINE
  5
1ADA5
330
18
100
AcDbEntity
  8
01
100
AcDbLine
 10
2047.122344135569
 20
-652.5599224690159
 30
0.0000000001127424
 11
2047.063131315461
 21
-652.5576902490398
 31
0.0000000001127424
  0
SPLINE
  5
1ADA6
330
18
100
AcDbEntity
  8
01
100
AcDbSpline
210
0.0
220
0.0
230
1.0
 70
     8
 71
     3
 72
    11
 73
     7
 74
     0
 42
0.0000000001
 43
0.0000000001
 40
0.0
 40
0.0
 40
0.0
 40
0.0
 40
21.43372384846992
 40
42.74812160428417
 40
64.00497958002913
 40
71.06070238869576
 40
71.06070238869576
 40
71.06070238869576
 40
71.06070238869576
 10
1936.295439169843
 20
-627.0814627920347
 30
0.0000000001127424
 10
1943.43846197086
 20
-627.230364470932
 30
0.0000000001127424
 10
1957.684342426929
 20
-627.5464045562344
 30
0.0000000001127424
 10
1979.013407539974
 20
-628.0494575395858
 30
0.0000000001127424
 10
1995.550636269578
 20
-628.4602918860712
 30
0.0000000001127424
 10
2004.985068447191
 20
-628.7019686688316
 30
0.0000000001127424
 10
2007.336195094059
 20
-628.7625732230861
 30
0.0000000001127424
  0
SPLINE
  5
1ADA7
330
18
100
AcDbEntity
  8
01
100
AcDbSpline
210
0.0
220
0.0
230
1.0
 70
     8
 71
     3
 72
    32
 73
    28
 74
     0
 42
0.0000000001
 43
0.0000000001
 40
0.0
 40
0.0
 40
0.0
 40
0.0
 40
0.3599301998348471
 40
0.7204576955008581
 40
1.078388999306343
 40
1.203188941373293
 40
1.256497440238248
 40
1.349899079695673
 40
1.501470349278231
 40
1.719093506751409
 40
2.008946379622365
 40
2.377953257068766
 40
2.833372290666866
 40
4.02961040316922
 40
5.628859930107992
 40
7.61937959175037
 40
9.930476612769016
 40
12.47953325127824
 40
15.18599668370276
 40
17.98461738332648
 40
20.83771850465741
 40
26.62046581402179
 40
32.43257263878778
 40
38.23851433232301
 40
44.02870797848659
 40
55.55219103227755
 40
66.45873402473153
 40
66.45873402473153
 40
66.45873402473153
 40
66.45873402473153
 10
2073.323085876371
 20
-631.3598900946106
 30
0.0000000001127424
 10
2073.323085839141
 20
-631.2399133613324
 30
0.0000000001127424
 10
2073.266474247039
 20
-630.9963768865462
 30
0.0000000001127424
 10
2073.033154514726
 20
-630.7079681966454
 30
0.0000000001127424
 10
2072.768446933939
 20
-630.5838004749703
 30
0.0000000001127424
 10
2072.590656337762
 20
-630.5619789875557
 30
0.0000000001127424
 10
2072.50022388989
 20
-630.5582408824787
 30
0.0000000001127424
 10
2072.400863448887
 20
-630.5546528293041
 30
0.0000000001127424
 10
2072.246751739482
 20
-630.5494413386275
 30
0.0000000001127424
 10
2072.027196350451
 20
-630.5419858621603
 30
0.0000000001127424
 10
2071.735196244915
 20
-630.5322852467418
 30
0.0000000001127424
 10
2071.363972403916
 20
-630.5200268800645
 30
0.0000000001127424
 10
2070.690777281471
 20
-630.4980200588438
 30
0.0000000001127424
 10
2069.607701384307
 20
-630.4631956456903
 30
0.0000000001127424
 10
2068.013157749993
 20
-630.4129241690746
 30
0.0000000001127424
 10
2066.047135080432
 20
-630.3523514400829
 30
0.0000000001127424
 10
2063.764613807492
 20
-630.2835505520711
 30
0.0000000001127424
 10
2061.243500760577
 20
-630.20931108419
 30
0.0000000001127424
 10
2058.559904257178
 20
-630.1318667836531
 30
0.0000000001127424
 10
2055.774958901208
 20
-630.0529994615936
 30
0.0000000001127424
 10
2051.964952233121
 20
-629.9466809853423
 30
0.0000000001127424
 10
2047.150773589039
 20
-629.8147756570045
 30
0.0000000001127424
 10
2041.35261782384
 20
-629.6583536092294
 30
0.0000000001127424
 10
2035.551942312314
 20
-629.503300820053
 30
0.0000000001127424
 10
2027.848118479222
 20
-629.2987300775253
 30
0.0000000001127424
 10
2018.444646488271
 20
-629.0507944823382
 30
0.0000000001127424
 10
2010.970501594174
 20
-628.8562787566691
 30
0.0000000001127424
 10
2007.33619509406
 20
-628.7625732230861
 30
0.0000000001127424
  0
SPLINE
  5
1ADA8
330
18
100
AcDbEntity
  8
01
100
AcDbSpline
210
0.0
220
0.0
230
1.0
 70
  1064
 71
     3
 72
    29
 73
    25
 74
    23
 42
0.000000001
 43
0.0000000001
 44
0.000001
 12
0.9957295571504321
 22
-0.0923181943985277
 32
0.0
 13
0.9999999961407906
 23
-8.785453656356264E-5
 33
0.0
 40
0.0
 40
0.0
 40
0.0
 40
0.0
 40
18.72223237932955
 40
28.08380125047977
 40
37.44489731842073
 40
46.80450655899232
 40
56.157036497619
 40
65.49105784394362
 40
74.77536009869938
 40
83.93695746269881
 40
88.42253561022942
 40
92.79315031724504
 40
96.98478944101399
 40
100.8929762880916
 40
104.385612646612
 40
107.3097361133918
 40
108.5186045585993
 40
109.5470291062994
 40
110.394389713371
 40
111.0646313142807
 40
111.5675614950663
 40
111.9161223033962
 40
112.1239161474738
 40
112.3643818635919
 40
112.3643818635919
 40
112.3643818635919
 40
112.3643818635919
 10
1936.185477578238
 20
-635.1454086625931
 30
0.0000000001127424
 10
1942.39957096355
 20
-635.7215428920496
 30
0.0000000001127424
 10
1951.711286238602
 20
-636.6936972320648
 30
0.0000000001127424
 10
1964.102356865216
 20
-638.1958270786686
 30
0.0000000001127424
 10
1973.382633088095
 20
-639.4221434412818
 30
0.0000000001127424
 10
1982.646747901018
 20
-640.7436849686887
 30
0.0000000001127424
 10
1991.888305922212
 20
-642.156126455756
 30
0.0000000001127424
 10
2001.090997444488
 20
-643.6537881208424
 30
0.0000000001127424
 10
2010.216268087082
 20
-645.2282907642134
 30
0.0000000001127424
 10
2017.736233901172
 20
-646.5994761631995
 30
0.0000000001127424
 10
2023.636768873784
 20
-647.7197952599814
 30
0.0000000001127424
 10
2027.905765195196
 20
-648.5516858254483
 30
0.0000000001127424
 10
2031.981901569008
 20
-649.3667577695012
 30
0.0000000001127424
 10
2035.767472438453
 20
-650.1421623150293
 30
0.0000000001127424
 10
2039.135925476362
 20
-650.8482359630605
 30
0.0000000001127424
 10
2041.621640526805
 20
-651.3796461365791
 30
0.0000000001127424
 10
2043.303068279166
 20
-651.7440883541507
 30
0.0000000001127424
 10
2044.307659739331
 20
-651.963270616415
 30
0.0000000001127424
 10
2045.136577243352
 20
-652.145253876662
 30
0.0000000001127424
 10
2045.794417971751
 20
-652.2898969590315
 30
0.0000000001127424
 10
2046.289510371304
 20
-652.3997693120696
 30
0.0000000001127424
 10
2046.634923442711
 20
-652.4741588225481
 30
0.0000000001127424
 10
2046.893374105339
 20
-652.5331550515698
 30
0.0000000001127424
 10
2047.04178377835
 20
-652.5599234776292
 30
0.0000000001127424
 10
2047.121939016746
 20
-652.5599305196306
 30
0.0000000001127424
 11
1936.185477578238
 21
-635.1454086625931
 31
0.0000000001127424
 11
1954.806827193218
 21
-637.0863682184579
 31
0.0000000001127424
 11
1964.100419220631
 21
-638.2124760938098
 31
0.0000000001127424
 11
1973.380927860943
 21
-639.4381509952443
 31
0.0000000001127424
 11
1982.646810297131
 21
-640.7594033596408
 31
0.0000000001127424
 11
1991.892053266563
 21
-642.1719537785398
 31
0.0000000001127424
 11
2001.104895929416
 21
-643.6711150645251
 31
0.0000000001127424
 11
2010.253993550597
 21
-645.2498110692623
 31
0.0000000001127424
 11
2019.266893921176
 21
-646.8937372144906
 31
0.0000000001127424
 11
2023.673728533263
 21
-647.7305287176091
 31
0.0000000001127424
 11
2027.96361618361
 21
-648.5666727632026
 31
0.0000000001127424
 11
2032.073880954915
 21
-649.3885985834006
 31
0.0000000001127424
 11
2035.90253182284
 21
-650.1730454987885
 31
0.0000000001127424
 11
2039.320875731533
 21
-650.889588347289
 31
0.0000000001127424
 11
2042.180346294896
 21
-651.5010833543929
 31
0.0000000001127424
 11
2043.361789516529
 21
-651.7571201306484
 31
0.0000000001127424
 11
2044.366570702549
 21
-651.9763729916119
 31
0.0000000001127424
 11
2045.194244849097
 21
-652.1579645759246
 31
0.0000000001127424
 11
2045.848802875564
 21
-652.3021089156746
 31
0.0000000001127424
 11
2046.339952117215
 21
-652.410327144205
 31
0.0000000001127424
 11
2046.680447467019
 21
-652.4848761054591
 31
0.0000000001127424
 11
2046.883424967796
 21
-652.5293553699487
 31
0.0000000001127424
 11
2047.121939016746
 21
-652.5599305196306
 31
0.0000000001127424
  0
SPLINE
  5
1ADA9
330
18
100
AcDbEntity
  8
01
100
AcDbSpline
210
0.0
220
0.0
230
1.0
 70
     8
 71
     3
 72
    44
 73
    40
 74
     0
 42
0.0000000001
 43
0.0000000001
 40
0.0
 40
0.0
 40
0.0
 40
0.0
 40
27.07959778501141
 40
27.07959778501141
 40
54.60840902937863
 40
54.60840902937863
 40
82.13722027374585
 40
82.13722027374585
 40
109.6660315181131
 40
109.6660315181131
 40
112.1754562362065
 40
112.1754562362065
 40
117.1943056723934
 40
117.1943056723934
 40
127.2320045447672
 40
127.2320045447672
 40
133.9474354635729
 40
133.9474354635729
 40
134.5784087099583
 40
134.5784087099583
 40
135.8403552027291
 40
135.8403552027291
 40
137.719205311297
 40
137.719205311297
 40
137.8907550435536
 40
137.8907550435536
 40
138.2338545080668
 40
138.2338545080668
 40
138.3136935812727
 40
138.3136935812727
 40
138.3988995637888
 40
138.3988995637888
 40
138.4402043869496
 40
138.4402043869496
 40
138.4737052737331
 40
138.4737052737331
 40
138.4994240015327
 40
138.4994240015327
 40
138.5115311008119
 40
138.5115311008119
 40
138.5115311008119
 40
138.5115311008119
 10
1936.295956370389
 20
-627.5063497485057
 30
0.0000000001127424
 10
1945.246797276358
 20
-628.7025942868831
 30
0.0000000001127424
 10
1954.183204948548
 20
-630.0030661806338
 30
0.0000000001127424
 10
1972.179637288597
 20
-632.7735366990521
 30
0.0000000001127424
 10
1981.239718173543
 20
-634.2450314552541
 30
0.0000000001127424
 10
1999.34004659423
 20
-637.3044350399666
 30
0.0000000001127424
 10
2008.380378443081
 20
-638.8936710131929
 30
0.0000000001127424
 10
2026.433661897686
 20
-642.2267901596631
 30
0.0000000001127424
 10
2035.446221283772
 20
-643.9725804932552
 30
0.0000000001127424
 10
2045.25796208852
 20
-645.9897613329006
 30
0.0000000001127424
 10
2046.077473819728
 20
-646.1591419678148
 30
0.0000000001127424
 10
2048.535469417203
 20
-646.6699598829878
 30
0.0000000001127424
 10
2050.173411633873
 20
-647.0140697841343
 30
0.0000000001127424
 10
2055.084910802866
 20
-648.0576361469248
 30
0.0000000001127424
 10
2058.356270251895
 20
-648.7675847834023
 30
0.0000000001127424
 10
2063.809782782952
 20
-649.9858068837166
 30
0.0000000001127424
 10
2065.993845898889
 20
-650.4827127625863
 30
0.0000000001127424
 10
2068.380641356154
 20
-651.0412125959454
 30
0.0000000001127424
 10
2068.585619945593
 20
-651.089314068767
 30
0.0000000001127424
 10
2069.200485450664
 20
-651.2340552858236
 30
0.0000000001127424
 10
2069.610321923129
 20
-651.3311272843214
 30
0.0000000001127424
 10
2070.630103905515
 20
-651.5746393563863
 30
0.0000000001127424
 10
2071.239703350258
 20
-651.7217679429416
 30
0.0000000001127424
 10
2071.905463953548
 20
-651.8861202793778
 30
0.0000000001127424
 10
2071.961193287423
 20
-651.8999116052755
 30
0.0000000001127424
 10
2072.128452297087
 20
-651.9414433559248
 30
0.0000000001127424
 10
2072.239680611125
 20
-651.9692167681094
 30
0.0000000001127424
 10
2072.378030552346
 20
-652.0042176566317
 30
0.0000000001127424
 10
2072.404228953206
 20
-652.0108726069586
 30
0.0000000001127424
 10
2072.458543627141
 20
-652.0247582338877
 30
0.0000000001127424
 10
2072.486458085209
 20
-652.0319567292884
 30
0.0000000001127424
 10
2072.527396544587
 20
-652.0425135359797
 30
0.0000000001127424
 10
2072.541728943897
 20
-652.0462075649918
 30
0.0000000001127424
 10
2072.569356829207
 20
-652.0535131772597
 30
0.0000000001127424
 10
2072.581565642244
 20
-652.0568366844598
 30
0.0000000001127424
 10
2072.596297122168
 20
-652.0607514843082
 30
0.0000000001127424
 10
2072.597436014218
 20
-652.0609281086302
 30
0.0000000001127424
 10
2072.621678408856
 20
-652.0673182095918
 30
0.0000000001127424
 10
2072.632124211589
 20
-652.0701415845713
 30
0.0000000001127424
 10
2072.645328659105
 20
-652.0742100821201
 30
0.0000000001127424
  0
LINE
  5
1ADAA
330
18
100
AcDbEntity
  8
01
  6
CONTINUOUS
100
AcDbLine
 10
2181.089740082851
 20
-630.5599227538473
 30
0.0000000001127424
 11
2200.823073412211
 21
-630.5599244789905
 31
0.0000000001127424
  0
LINE
  5
1ADAB
330
18
100
AcDbEntity
  8
01
  6
CONTINUOUS
100
AcDbLine
 10
2200.823071488908
 20
-652.5599244789905
 30
0.0000000001127424
 11
2181.08973815955
 21
-652.5599227538473
 31
0.0000000001127424
  0
SPLINE
  5
1ADAC
330
18
100
AcDbEntity
  8
01
  6
CONTINUOUS
100
AcDbSpline
210
0.0
220
0.0
230
1.0
 70
  1064
 71
     3
 72
    10
 73
     6
 74
     4
 42
0.000000001
 43
0.0000000001
 44
0.000001
 12
0.9994601531828483
 22
-0.03285425694970675
 32
0.0
 13
0.999999986028043
 23
-0.0001671643320593494
 33
0.0
 40
0.0
 40
0.0
 40
0.0
 40
0.0
 40
5.014443398443527
 40
11.01006145479278
 40
17.34126459784179
 40
17.34126459784179
 40
17.34126459784179
 40
17.34126459784179
 10
2163.483656220927
 20
-630.363079372622
 30
0.0000000001127424
 10
2165.154235009972
 20
-630.4179946432461
 30
0.0000000001127424
 10
2168.82367925514
 20
-630.4943244033949
 30
0.0000000001127424
 10
2174.603864739679
 20
-630.5494163388925
 30
0.0000000001127424
 10
2178.712828076516
 20
-630.5595440654557
 30
0.0000000001127424
 10
2180.823229094713
 20
-630.5598968492372
 30
0.0000000001127424
 11
2163.483656220927
 21
-630.363079372622
 31
0.0000000001127424
 11
2168.496760881801
 21
-630.4789437365866
 31
0.0000000001127424
 11
2174.492052779517
 21
-630.5414806154172
 31
0.0000000001127424
 11
2180.823229094713
 21
-630.5598968492372
 31
0.0000000001127424
  0
LINE
  5
1ADAD
330
18
100
AcDbEntity
  8
01
  6
CONTINUOUS
100
AcDbLine
 10
2161.471411862442
 20
-630.2841207020624
 30
0.0000000001127424
 11
2163.483656220927
 21
-630.363079372622
 31
0.0000000001127424
  0
SPLINE
  5
1ADAE
330
18
100
AcDbEntity
  8
01
  6
CONTINUOUS
100
AcDbSpline
210
0.0
220
0.0
230
1.0
 70
  1064
 71
     3
 72
    36
 73
    32
 74
    30
 42
0.000000001
 43
0.0000000001
 44
0.000001
 12
-0.9938069772178694
 22
-0.111120169335191
 32
0.0
 13
0.9989015518246972
 23
-0.04685818778198594
 33
0.0
 40
0.0
 40
0.0
 40
0.0
 40
0.0
 40
2.42922784662992
 40
3.919355453223645
 40
5.550941175542857
 40
7.284555291724734
 40
9.071456982233972
 40
10.85917755497593
 40
11.73489586882123
 40
12.58682580795989
 40
13.40493229759228
 40
14.17691436774292
 40
14.88865081251399
 40
15.5225472362669
 40
15.80398645204095
 40
16.05801996152319
 40
16.28041886650327
 40
16.46689274434949
 40
16.61375640551638
 40
16.71870486785198
 40
16.78579178781782
 40
16.85368029962045
 40
16.90643972053334
 40
16.9766056514621
 40
17.1786149263348
 40
17.47849300648922
 40
17.89430820030068
 40
18.44687969626548
 40
19.15861543069466
 40
20.05339997840785
 40
21.15333389268996
 40
21.15333389268996
 40
21.15333389268996
 40
21.15333389268996
 10
2173.802876504304
 20
-627.8718818378852
 30
0.0000000001127424
 10
2172.998148643226
 20
-627.9618605744423
 30
0.0000000001127424
 10
2171.694810047287
 20
-628.0594996296174
 30
0.0000000001127424
 10
2169.84873317669
 20
-628.1826301811966
 30
0.0000000001127424
 10
2168.233818338459
 20
-628.2899833910578
 30
0.0000000001127424
 10
2166.521060150797
 20
-628.4158565101751
 30
0.0000000001127424
 10
2164.757621956425
 20
-628.5615388650751
 30
0.0000000001127424
 10
2163.280723315608
 20
-628.7012507721817
 30
0.0000000001127424
 10
2162.115322719553
 20
-628.823532705863
 30
0.0000000001127424
 10
2161.27207184118
 20
-628.9186205340889
 30
0.0000000001127424
 10
2160.464048210005
 20
-629.0172376566132
 30
0.0000000001127424
 10
2159.703524390647
 20
-629.1189800647452
 30
0.0000000001127424
 10
2159.005362985216
 20
-629.2232191057718
 30
0.0000000001127424
 10
2158.470711794579
 20
-629.3148001644804
 30
0.0000000001127424
 10
2158.088430375296
 20
-629.3911192039081
 30
0.0000000001127424
 10
2157.841888628578
 20
-629.4462369731264
 30
0.0000000001127424
 10
2157.627910105043
 20
-629.5019799730723
 30
0.0000000001127424
 10
2157.451154009502
 20
-629.5568175587425
 30
0.0000000001127424
 10
2157.315452157781
 20
-629.6141176783217
 30
0.0000000001127424
 10
2157.224157286918
 20
-629.6646977437223
 30
0.0000000001127424
 10
2157.170593584196
 20
-629.739475043112
 30
0.0000000001127424
 10
2157.212439661106
 20
-629.8002377962457
 30
0.0000000001127424
 10
2157.265513860449
 20
-629.8331125728965
 30
0.0000000001127424
 10
2157.3644144595
 20
-629.8793279548585
 30
0.0000000001127424
 10
2157.548198899974
 20
-629.9314953089629
 30
0.0000000001127424
 10
2157.848310716333
 20
-629.9916076350515
 30
0.0000000001127424
 10
2158.266901426903
 20
-630.05184995173
 30
0.0000000001127424
 10
2158.823694574033
 20
-630.1126451626818
 30
0.0000000001127424
 10
2159.54091208121
 20
-630.1730337303079
 30
0.0000000001127424
 10
2160.441138146269
 20
-630.2324519122784
 30
0.0000000001127424
 10
2161.105169964481
 20
-630.2669403987613
 30
0.0000000001127424
 10
2161.471411862442
 20
-630.2841207020624
 30
0.0000000001127424
 11
2173.802876504304
 21
-627.8718818378852
 31
0.0000000001127424
 11
2171.382476727376
 21
-628.0787835307706
 31
0.0000000001127424
 11
2169.895752707263
 21
-628.1794410809157
 31
0.0000000001127424
 11
2168.267887515489
 21
-628.2895631662063
 31
0.0000000001127424
 11
2166.538972970542
 21
-628.4171265205619
 31
0.0000000001127424
 11
2164.758203945275
 21
-628.5650433273718
 31
0.0000000001127424
 11
2162.978480562106
 21
-628.7339506739931
 31
0.0000000001127424
 11
2162.107560582484
 21
-628.8254988155281
 31
0.0000000001127424
 11
2161.261022921686
 21
-628.9212007419824
 31
0.0000000001127424
 11
2160.448989966259
 21
-629.0207061187998
 31
0.0000000001127424
 11
2159.683903185627
 21
-629.1236600117186
 31
0.0000000001127424
 11
2158.980111237956
 21
-629.2297083104427
 31
0.0000000001127424
 11
2158.355633978418
 21
-629.3385799531802
 31
0.0000000001127424
 11
2158.079707497874
 21
-629.3940112910436
 31
0.0000000001127424
 11
2157.831937950691
 21
-629.4500763484143
 31
0.0000000001127424
 11
2157.616885263769
 21
-629.5067651918575
 31
0.0000000001127424
 11
2157.439434925325
 21
-629.564070441254
 31
0.0000000001127424
 11
2157.304472423571
 21
-629.621984716488
 31
0.0000000001127424
 11
2157.2173524996
 21
-629.6805022572321
 31
0.0000000001127424
 11
2157.185648177925
 21
-629.7396249603457
 31
0.0000000001127424
 11
2157.217921401282
 21
-629.7993517691443
 31
0.0000000001127424
 11
2157.261265134581
 21
-629.8294329563591
 31
0.0000000001127424
 11
2157.324589913518
 21
-629.859652663888
 31
0.0000000001127424
 11
2157.51722325718
 21
-629.9204814705349
 31
0.0000000001127424
 11
2157.810775428941
 21
-629.9817512576778
 31
0.0000000001127424
 11
2158.222005127907
 21
-630.0433338146308
 31
0.0000000001127424
 11
2158.771135944588
 21
-630.1049017074561
 31
0.0000000001127424
 11
2159.480242880534
 21
-630.1660172543502
 31
0.0000000001127424
 11
2160.373009565485
 21
-630.2260758425941
 31
0.0000000001127424
 11
2161.471411862442
 21
-630.2841207020624
 31
0.0000000001127424
  0
LINE
  5
1ADAF
330
18
100
AcDbEntity
  8
01
100
AcDbLine
 10
2173.835038588618
 20
-630.5361044615433
 30
0.0000000001127424
 11
2173.802876504304
 21
-627.8718818378852
 31
0.0000000001127424
  0
LINE
  5
1ADB0
330
18
100
AcDbEntity
  8
01
  6
CONTINUOUS
100
AcDbLine
 10
2180.823229094713
 20
-630.5598968492372
 30
0.0000000001127424
 11
2181.089740082851
 21
-630.5599227538473
 31
0.0000000001127424
  0
LINE
  5
1ADB1
330
18
100
AcDbEntity
  8
01
100
AcDbLine
 10
2152.6526676971
 20
-627.2002736796208
 30
0.0000000001127424
 11
2173.004280660625
 21
-627.0811000418475
 31
0.0000000001127424
  0
ARC
  5
1ADB2
330
18
100
AcDbEntity
  8
01
100
AcDbCircle
 10
2152.648621152039
 20
-627.9916401689832
 30
0.0000000001127424
 40
0.7913768350239722
100
AcDbArc
 50
89.7070283667315
 51
152.6408632480136
  0
ARC
  5
1ADB3
330
18
100
AcDbEntity
  8
01
100
AcDbCircle
 10
2173.003251303369
 20
-627.8811397661837
 30
0.0000000001127424
 40
0.7996787925197014
100
AcDbArc
 50
0.6633314190621856
 51
90.0064297414479
  0
LINE
  5
1ADB4
330
18
100
AcDbEntity
  8
01
  6
CONTINUOUS
100
AcDbLine
 10
2200.823073412211
 20
-630.5599244789905
 30
0.0000000001127424
 11
2200.823071488908
 21
-652.5599244789905
 31
0.0000000001127424
  0
LINE
  5
1ADB5
330
18
100
AcDbEntity
  8
01
  6
CONTINUOUS
100
AcDbLine
 10
2160.647176127013
 20
-630.241915639695
 30
0.0000000001127424
 11
2159.667478742006
 21
-630.1770118584577
 31
0.0000000001127424
  0
SPLINE
  5
1ADB6
330
18
100
AcDbEntity
  8
01
  6
CONTINUOUS
100
AcDbSpline
210
0.0
220
0.0
230
1.0
 70
  1064
 71
     3
 72
    27
 73
    23
 74
    21
 42
0.000000001
 43
0.0000000001
 44
0.000001
 12
-0.9999996557190713
 22
0.000829796203145726
 32
0.0
 13
0.4579738290174823
 23
0.8889656753413295
 33
0.0
 40
0.0
 40
0.0
 40
0.0
 40
0.0
 40
5.873293633215288
 40
11.36353689117744
 40
16.53955106604971
 40
21.14173461159522
 40
24.98310568734634
 40
28.06655579448034
 40
30.51817324520313
 40
32.50336731390501
 40
34.16067337673968
 40
35.59775548316256
 40
36.88559666201813
 40
38.07491547901009
 40
40.27457243626415
 40
41.32578564536498
 40
42.35657039433246
 40
44.37506806133698
 40
46.34835779444145
 40
50.10698163516924
 40
51.84875827563179
 40
53.46914539902231
 40
53.46914539902231
 40
53.46914539902231
 40
53.46914539902231
 10
2181.08973815955
 20
-652.5599227538473
 30
0.0000000001127424
 10
2179.131974289166
 20
-652.5582982082617
 30
0.0000000001127424
 10
2175.343759529608
 20
-652.5064433835555
 30
0.0000000001127424
 10
2169.836068396222
 20
-652.2288059848528
 30
0.0000000001127424
 10
2164.76814177666
 20
-651.7356652443417
 30
0.0000000001127424
 10
2160.281482269225
 20
-651.0173795266861
 30
0.0000000001127424
 10
2156.544476202307
 20
-650.102115650476
 30
0.0000000001127424
 10
2153.592569859584
 20
-649.054101633927
 30
0.0000000001127424
 10
2151.350475413873
 20
-647.9156197015329
 30
0.0000000001127424
 10
2149.687600044308
 20
-646.7335725025258
 30
0.0000000001127424
 10
2148.491722370029
 20
-645.522096013748
 30
0.0000000001127424
 10
2147.667395715705
 20
-644.3060290382855
 30
0.0000000001127424
 10
2147.144929360417
 20
-643.1025659655057
 30
0.0000000001127424
 10
2146.777098153182
 20
-641.5811573978906
 30
0.0000000001127424
 10
2146.758097954551
 20
-640.0816168781104
 30
0.0000000001127424
 10
2146.972022668333
 20
-638.669799687798
 30
0.0000000001127424
 10
2147.283628804569
 20
-637.3374612793903
 30
0.0000000001127424
 10
2147.828919602573
 20
-635.7507505230756
 30
0.0000000001127424
 10
2148.864376406407
 20
-633.3822203021772
 30
0.0000000001127424
 10
2150.03477145536
 20
-631.1807383372511
 30
0.0000000001127424
 10
2151.170108601495
 20
-629.096646071633
 30
0.0000000001127424
 10
2151.698400092665
 20
-628.1081060202057
 30
0.0000000001127424
 10
2151.945765057795
 20
-627.627949842386
 30
0.0000000001127424
 11
2181.08973815955
 21
-652.5599227538473
 31
0.0000000001127424
 11
2175.217170422164
 21
-652.467591800681
 31
0.0000000001127424
 11
2169.734480504552
 21
-652.1796960924571
 31
0.0000000001127424
 11
2164.584508706453
 21
-651.6611261114163
 31
0.0000000001127424
 11
2160.043972706876
 21
-650.9103747670711
 31
0.0000000001127424
 11
2156.318736191401
 21
-649.9729604254421
 31
0.0000000001127424
 11
2153.422308217258
 21
-648.9154301678323
 31
0.0000000001127424
 11
2151.245654199342
 21
-647.7873318172255
 31
0.0000000001127424
 11
2149.638635165462
 21
-646.6217908877393
 31
0.0000000001127424
 11
2148.481878639561
 21
-645.4349556069387
 31
0.0000000001127424
 11
2147.680724262332
 21
-644.2419104083688
 31
0.0000000001127424
 11
2147.168487213357
 21
-643.0603232270701
 31
0.0000000001127424
 11
2146.887600895365
 21
-641.9046492885541
 31
0.0000000001127424
 11
2146.833915082447
 21
-639.7056474841515
 31
0.0000000001127424
 11
2146.986857775589
 21
-638.6656196900772
 31
0.0000000001127424
 11
2147.219920231602
 21
-637.6615284844988
 31
0.0000000001127424
 11
2147.859376618786
 21
-635.7469975884392
 31
0.0000000001127424
 11
2148.641480218862
 21
-633.9353170190457
 31
0.0000000001127424
 11
2150.357901444391
 21
-630.59149408031
 31
0.0000000001127424
 11
2151.187376278917
 21
-629.0599074933648
 31
0.0000000001127424
 11
2151.945765057795
 21
-627.627949842386
 31
0.0000000001127424
  0
ARC
  5
1ADB7
330
18
100
AcDbEntity
  8
01
100
AcDbCircle
 10
2059.823072450557
 20
-641.55992436097
 30
0.0000000001127424
 40
25.0
100
AcDbArc
 50
200.4007152511846
 51
151.3299460011202
  0
TEXT
  5
1AF82
330
18
100
AcDbEntity
  8
01
  6
CONTINUOUS
100
AcDbText
 10
2310.826000864086
 20
-428.9765910286652
 30
0.0000000001127424
 40
4.55
  1
材質：亜鉛ダイキャスト
100
AcDbText
  0
TEXT
  5
1AF83
330
18
100
AcDbEntity
  8
01
  6
CONTINUOUS
100
AcDbText
 10
2321.139334197419
 20
-436.5599243619985
 30
0.0000000001127424
 40
4.55
  1
仕上げ：各種メッキ
100
AcDbText
  0
LINE
  5
1AF84
330
18
100
AcDbEntity
  8
01
100
AcDbLine
 10
2337.822839771068
 20
-613.5599250591013
 30
0.0000000001127424
 11
2337.822839771068
 21
-510.8384322762819
 31
0.0000000001127424
1001
ACAD
1000
DSTYLE
1002
{
1070
    40
1040
1.3
1070
    45
1040
0.5
1002
}
  0
LINE
  5
1AF85
330
18
100
AcDbEntity
  8
01
100
AcDbLine
 10
2348.822839771068
 20
-555.6886070098124
 30
0.0000000001127424
 11
2348.822839771068
 21
-510.8384322762819
 31
0.0000000001127424
1001
ACAD
1000
DSTYLE
1002
{
1070
    40
1040
1.3
1070
    45
1040
0.5
1002
}
  0
LINE
  5
1AF86
330
18
100
AcDbEntity
  8
01
100
AcDbLine
 10
2340.422839771068
 20
-512.138432276282
 30
0.0000000001127424
 11
2346.222839771068
 21
-512.138432276282
 31
0.0000000001127424
1001
ACAD
1000
DSTYLE
1002
{
1070
    40
1040
1.3
1070
    45
1040
0.5
1002
}
  0
LINE
  5
1AF8A
330
18
100
AcDbEntity
  8
01
100
AcDbLine
 10
2417.822839771068
 20
-583.55992436097
 30
0.0000000001127424
 11
2446.122839771068
 21
-583.55992436097
 31
0.0000000001127424
1001
ACAD
1000
DSTYLE
1002
{
1070
    40
1040
1.3
1070
    45
1040
0.5
1002
}
  0
LINE
  5
1AF8B
330
18
100
AcDbEntity
  8
01
100
AcDbLine
 10
2417.822839771068
 20
-657.5599243609704
 30
0.0000000001127424
 11
2446.122839771068
 21
-657.5599243609704
 31
0.0000000001127424
1001
ACAD
1000
DSTYLE
1002
{
1070
    40
1040
1.3
1070
    45
1040
0.5
1002
}
  0
LINE
  5
1AF8C
330
18
100
AcDbEntity
  8
01
100
AcDbLine
 10
2444.822839771068
 20
-586.15992436097
 30
0.0000000001127424
 11
2444.822839771068
 21
-654.9599243609704
 31
0.0000000001127424
1001
ACAD
1000
DSTYLE
1002
{
1070
    40
1040
1.3
1070
    45
1040
0.5
1002
}
  0
LINE
  5
1AF90
330
18
100
AcDbEntity
  8
01
100
AcDbLine
 10
2417.822839771068
 20
-583.55992436097
 30
0.0000000001127424
 11
2417.822839771068
 21
-500.7585648082338
 31
0.0000000001127424
1001
ACAD
1000
DSTYLE
1002
{
1070
    40
1040
1.3
1070
    45
1040
0.5
1002
}
  0
LINE
  5
1AF91
330
18
100
AcDbEntity
  8
01
100
AcDbLine
 10
2348.822839771068
 20
-555.6886070098124
 30
0.0000000001127424
 11
2348.822839771068
 21
-500.7585648082338
 31
0.0000000001127424
1001
ACAD
1000
DSTYLE
1002
{
1070
    40
1040
1.3
1070
    45
1040
0.5
1002
}
  0
LINE
  5
1AF92
330
18
100
AcDbEntity
  8
01
100
AcDbLine
 10
2415.222839771068
 20
-502.0585648082338
 30
0.0000000001127424
 11
2351.422839771068
 21
-502.0585648082338
 31
0.0000000001127424
1001
ACAD
1000
DSTYLE
1002
{
1070
    40
1040
1.3
1070
    45
1040
0.5
1002
}
  0
LINE
  5
1AF96
330
18
100
AcDbEntity
  8
01
100
AcDbLine
 10
2348.822839771068
 20
-555.6886070098124
 30
0.0000000001127424
 11
2348.822839771068
 21
-510.8384322762819
 31
0.0000000001127424
1001
ACAD
1000
DSTYLE
1002
{
1070
    40
1040
1.3
1070
    45
1040
0.5
1002
}
  0
LINE
  5
1AF97
330
18
100
AcDbEntity
  8
01
100
AcDbLine
 10
2399.822839771068
 20
-591.55992436097
 30
0.0000000001127424
 11
2399.822839771068
 21
-510.8384322762819
 31
0.0000000001127424
1001
ACAD
1000
DSTYLE
1002
{
1070
    40
1040
1.3
1070
    45
1040
0.5
1002
}
  0
LINE
  5
1AF98
330
18
100
AcDbEntity
  8
01
100
AcDbLine
 10
2351.422839771068
 20
-512.138432276282
 30
0.0000000001127424
 11
2397.222839771068
 21
-512.138432276282
 31
0.0000000001127424
1001
ACAD
1000
DSTYLE
1002
{
1070
    40
1040
1.3
1070
    45
1040
0.5
1002
}
  0
LINE
  5
1AF9C
330
18
100
AcDbEntity
  8
01
100
AcDbLine
 10
2217.322956110813
 20
-561.5599243609704
 30
0.0000000001127424
 11
2217.322956110813
 21
-510.8384322762822
 31
0.0000000001127424
1001
ACAD
1000
DSTYLE
1002
{
1070
    40
1040
1.3
1070
    45
1040
0.5
1002
}
  0
LINE
  5
1AF9D
330
18
100
AcDbEntity
  8
01
100
AcDbLine
 10
2242.322956110813
 20
-561.5599243609704
 30
0.0000000001127424
 11
2242.322956110813
 21
-510.8384322762822
 31
0.0000000001127424
1001
ACAD
1000
DSTYLE
1002
{
1070
    40
1040
1.3
1070
    45
1040
0.5
1002
}
  0
LINE
  5
1AF9E
330
18
100
AcDbEntity
  8
01
100
AcDbLine
 10
2219.922956110813
 20
-512.1384322762822
 30
0.0000000001127424
 11
2239.722956110813
 21
-512.1384322762822
 31
0.0000000001127424
1001
ACAD
1000
DSTYLE
1002
{
1070
    40
1040
1.3
1070
    45
1040
0.5
1002
}
  0
LINE
  5
1AFA2
330
18
100
AcDbEntity
  8
01
100
AcDbLine
 10
2196.62199421649
 20
-640.8099243609704
 30
0.0
 11
2195.322956110813
 21
-640.0599243609704
 31
0.0
  0
LINE
  5
1AFA3
330
18
100
AcDbEntity
  8
01
100
AcDbLine
 10
2195.322956110813
 20
-640.0599243609704
 30
0.0
 11
2194.023918005136
 21
-640.8099243609704
 31
0.0
  0
LINE
  5
1AFA4
330
18
100
AcDbEntity
  8
01
100
AcDbLine
 10
2194.023918005136
 20
-640.8099243609704
 30
0.0
 11
2194.023918005136
 21
-642.3099243609704
 31
0.0
  0
LINE
  5
1AFA5
330
18
100
AcDbEntity
  8
01
100
AcDbLine
 10
2194.023918005136
 20
-642.3099243609704
 30
0.0
 11
2195.322956110813
 21
-643.0599243609704
 31
0.0
  0
LINE
  5
1AFA6
330
18
100
AcDbEntity
  8
01
100
AcDbLine
 10
2195.322956110813
 20
-643.0599243609704
 30
0.0
 11
2196.62199421649
 21
-642.3099243609704
 31
0.0
  0
LINE
  5
1AFA7
330
18
100
AcDbEntity
  8
01
100
AcDbLine
 10
2196.62199421649
 20
-642.3099243609704
 30
0.0
 11
2196.62199421649
 21
-640.8099243609704
 31
0.0
  0
LINE
  5
1AFA8
330
18
100
AcDbEntity
  8
01
100
AcDbLine
 10
2235.624895714049
 20
-563.5594792165541
 30
0.0000000001691137
 11
2315.911026882257
 21
-563.5594792165541
 31
0.0000000001691137
1001
ACAD
1000
DSTYLE
1002
{
1070
    40
1040
1.3
1070
    45
1040
0.5
1002
}
  0
LINE
  5
1AFA9
330
18
100
AcDbEntity
  8
01
100
AcDbLine
 10
2235.624895714049
 20
-677.5594792165541
 30
0.0000000001691137
 11
2315.911026882257
 21
-677.5594792165541
 31
0.0000000001691137
1001
ACAD
1000
DSTYLE
1002
{
1070
    40
1040
1.3
1070
    45
1040
0.5
1002
}
  0
LINE
  5
1AFAA
330
18
100
AcDbEntity
  8
01
100
AcDbLine
 10
2314.611026882257
 20
-566.1594792165541
 30
0.0000000001691137
 11
2314.611026882257
 21
-674.9594792165541
 31
0.0000000001691137
1001
ACAD
1000
DSTYLE
1002
{
1070
    40
1040
1.3
1070
    45
1040
0.5
1002
}
  0
LINE
  5
1AFAE
330
18
100
AcDbEntity
  8
01
100
AcDbLine
 10
2236.222956110812
 20
-555.6599243609705
 30
0.0000000001691137
 11
2325.275361048481
 21
-555.6599243609705
 31
0.0000000001691137
1001
ACAD
1000
DSTYLE
1002
{
1070
    40
1040
1.3
1070
    45
1040
0.5
1002
}
  0
LINE
  5
1AFAF
330
18
100
AcDbEntity
  8
01
100
AcDbLine
 10
2236.149870306142
 20
-685.459479216554
 30
0.0000000001691137
 11
2325.275361048481
 21
-685.459479216554
 31
0.0000000001691137
1001
ACAD
1000
DSTYLE
1002
{
1070
    40
1040
1.3
1070
    45
1040
0.5
1002
}
  0
LINE
  5
1AFB0
330
18
100
AcDbEntity
  8
01
100
AcDbLine
 10
2323.975361048481
 20
-558.2599243609706
 30
0.0000000001691137
 11
2323.975361048481
 21
-682.859479216554
 31
0.0000000001691137
1001
ACAD
1000
DSTYLE
1002
{
1070
    40
1040
1.3
1070
    45
1040
0.5
1002
}
  0
LINE
  5
1AFB4
330
18
100
AcDbEntity
  8
01
100
AcDbLine
 10
2399.822839771068
 20
-616.55992436097
 30
0.0000000001127424
 11
2363.522839771068
 21
-616.55992436097
 31
0.0000000001127424
1001
ACAD
1000
DSTYLE
1002
{
1070
     3
1000
φ<>
1070
    40
1040
1.3
1070
    45
1040
0.5
1002
}
  0
LINE
  5
1AFB5
330
18
100
AcDbEntity
  8
01
100
AcDbLine
 10
2399.822839771068
 20
-666.559924360969
 30
0.0000000001127424
 11
2363.522839771068
 21
-666.559924360969
 31
0.0000000001127424
1001
ACAD
1000
DSTYLE
1002
{
1070
     3
1000
φ<>
1070
    40
1040
1.3
1070
    45
1040
0.5
1002
}
  0
LINE
  5
1AFB6
330
18
100
AcDbEntity
  8
01
100
AcDbLine
 10
2364.822839771068
 20
-619.15992436097
 30
0.0000000001127424
 11
2364.822839771068
 21
-663.959924360969
 31
0.0000000001127424
1001
ACAD
1000
DSTYLE
1002
{
1070
     3
1000
φ<>
1070
    40
1040
1.3
1070
    45
1040
0.5
1002
}
  0
CIRCLE
  5
1AFBA
330
18
100
AcDbEntity
  8
01
100
AcDbCircle
 10
2264.322839771068
 20
-641.55992436097
 30
0.0000000001127424
 40
3.0
  0
LINE
  5
1AFBB
330
18
100
AcDbEntity
  8
01
  6
BYBLOCK
100
AcDbLine
 10
2340.422839771068
 20
-512.835100170282
 30
0.0000000001127424
 11
2337.822839771068
 21
-512.138432276282
 31
0.0000000001127424
  0
LINE
  5
1AFBC
330
18
100
AcDbEntity
  8
01
  6
BYBLOCK
100
AcDbLine
 10
2337.822839771068
 20
-512.138432276282
 30
0.0000000001127424
 11
2340.422839771068
 21
-511.441764382282
 31
0.0000000001127424
  0
LINE
  5
1AFBD
330
18
100
AcDbEntity
  8
01
  6
BYBLOCK
100
AcDbLine
 10
2337.822839771068
 20
-512.138432276282
 30
0.0000000001127424
 11
2340.422839771068
 21
-512.138432276282
 31
0.0000000001127424
  0
LINE
  5
1AFBE
330
18
100
AcDbEntity
  8
01
  6
BYBLOCK
100
AcDbLine
 10
2346.222839771068
 20
-511.441764382282
 30
0.0000000001127424
 11
2348.822839771068
 21
-512.138432276282
 31
0.0000000001127424
  0
LINE
  5
1AFBF
330
18
100
AcDbEntity
  8
01
  6
BYBLOCK
100
AcDbLine
 10
2348.822839771068
 20
-512.138432276282
 30
0.0000000001127424
 11
2346.222839771068
 21
-512.835100170282
 31
0.0000000001127424
  0
LINE
  5
1AFC0
330
18
100
AcDbEntity
  8
01
  6
BYBLOCK
100
AcDbLine
 10
2348.822839771068
 20
-512.138432276282
 30
0.0000000001127424
 11
2346.222839771068
 21
-512.138432276282
 31
0.0000000001127424
  0
TEXT
  5
1AFC1
330
18
100
AcDbEntity
  8
01
  6
CONTINUOUS
100
AcDbText
 10
2341.047839771068
 20
-511.228432276282
 30
0.0000000001127424
 40
4.55
  1
11
100
AcDbText
1001
ACAD
1000
DSTYLE
1002
{
1070
    40
1040
1.3
1070
    45
1040
0.5
1002
}
  0
LINE
  5
1AFC2
330
18
100
AcDbEntity
  8
01
  6
BYBLOCK
100
AcDbLine
 10
2444.126171877068
 20
-586.15992436097
 30
0.0000000001127424
 11
2444.822839771068
 21
-583.55992436097
 31
0.0000000001127424
  0
LINE
  5
1AFC3
330
18
100
AcDbEntity
  8
01
  6
BYBLOCK
100
AcDbLine
 10
2444.822839771068
 20
-583.55992436097
 30
0.0000000001127424
 11
2445.519507665068
 21
-586.15992436097
 31
0.0000000001127424
  0
LINE
  5
1AFC4
330
18
100
AcDbEntity
  8
01
  6
BYBLOCK
100
AcDbLine
 10
2444.822839771068
 20
-583.55992436097
 30
0.0000000001127424
 11
2444.822839771068
 21
-586.15992436097
 31
0.0000000001127424
  0
LINE
  5
1AFC5
330
18
100
AcDbEntity
  8
01
  6
BYBLOCK
100
AcDbLine
 10
2445.519507665068
 20
-654.9599243609704
 30
0.0000000001127424
 11
2444.822839771068
 21
-657.5599243609704
 31
0.0000000001127424
  0
LINE
  5
1AFC6
330
18
100
AcDbEntity
  8
01
  6
BYBLOCK
100
AcDbLine
 10
2444.822839771068
 20
-657.5599243609704
 30
0.0000000001127424
 11
2444.126171877068
 21
-654.9599243609704
 31
0.0000000001127424
  0
LINE
  5
1AFC7
330
18
100
AcDbEntity
  8
01
  6
BYBLOCK
100
AcDbLine
 10
2444.822839771068
 20
-657.5599243609704
 30
0.0000000001127424
 11
2444.822839771068
 21
-654.9599243609704
 31
0.0000000001127424
  0
TEXT
  5
1AFC8
330
18
100
AcDbEntity
  8
01
  6
CONTINUOUS
100
AcDbText
 10
2443.912839771068
 20
-602.5885802749513
 30
0.0000000001127424
 40
4.55
  1
74
 50
90.0
100
AcDbText
1001
ACAD
1000
DSTYLE
1002
{
1070
    40
1040
1.3
1070
    45
1040
0.5
1002
}
  0
LINE
  5
1AFC9
330
18
100
AcDbEntity
  8
01
  6
BYBLOCK
100
AcDbLine
 10
2415.222839771068
 20
-501.3618969142338
 30
0.0000000001127424
 11
2417.822839771068
 21
-502.0585648082338
 31
0.0000000001127424
  0
LINE
  5
1AFCA
330
18
100
AcDbEntity
  8
01
  6
BYBLOCK
100
AcDbLine
 10
2417.822839771068
 20
-502.0585648082338
 30
0.0000000001127424
 11
2415.222839771068
 21
-502.7552327022337
 31
0.0000000001127424
  0
LINE
  5
1AFCB
330
18
100
AcDbEntity
  8
01
  6
BYBLOCK
100
AcDbLine
 10
2417.822839771068
 20
-502.0585648082338
 30
0.0000000001127424
 11
2415.222839771068
 21
-502.0585648082338
 31
0.0000000001127424
  0
LINE
  5
1AFCC
330
18
100
AcDbEntity
  8
01
  6
BYBLOCK
100
AcDbLine
 10
2351.422839771068
 20
-502.7552327022337
 30
0.0000000001127424
 11
2348.822839771068
 21
-502.0585648082338
 31
0.0000000001127424
  0
LINE
  5
1AFCD
330
18
100
AcDbEntity
  8
01
  6
BYBLOCK
100
AcDbLine
 10
2348.822839771068
 20
-502.0585648082338
 30
0.0000000001127424
 11
2351.422839771068
 21
-501.3618969142338
 31
0.0000000001127424
  0
LINE
  5
1AFCE
330
18
100
AcDbEntity
  8
01
  6
BYBLOCK
100
AcDbLine
 10
2348.822839771068
 20
-502.0585648082338
 30
0.0000000001127424
 11
2351.422839771068
 21
-502.0585648082338
 31
0.0000000001127424
  0
TEXT
  5
1AFCF
330
18
100
AcDbEntity
  8
01
  6
CONTINUOUS
100
AcDbText
 10
2379.51432125255
 20
-501.1485648082338
 30
0.0000000001127424
 40
4.55
  1
69
100
AcDbText
1001
ACAD
1000
DSTYLE
1002
{
1070
    40
1040
1.3
1070
    45
1040
0.5
1002
}
  0
LINE
  5
1AFD0
330
18
100
AcDbEntity
  8
01
  6
BYBLOCK
100
AcDbLine
 10
2351.422839771068
 20
-512.835100170282
 30
0.0000000001127424
 11
2348.822839771068
 21
-512.138432276282
 31
0.0000000001127424
  0
LINE
  5
1AFD1
330
18
100
AcDbEntity
  8
01
  6
BYBLOCK
100
AcDbLine
 10
2348.822839771068
 20
-512.138432276282
 30
0.0000000001127424
 11
2351.422839771068
 21
-511.441764382282
 31
0.0000000001127424
  0
LINE
  5
1AFD2
330
18
100
AcDbEntity
  8
01
  6
BYBLOCK
100
AcDbLine
 10
2348.822839771068
 20
-512.138432276282
 30
0.0000000001127424
 11
2351.422839771068
 21
-512.138432276282
 31
0.0000000001127424
  0
LINE
  5
1AFD3
330
18
100
AcDbEntity
  8
01
  6
BYBLOCK
100
AcDbLine
 10
2397.222839771068
 20
-511.441764382282
 30
0.0000000001127424
 11
2399.822839771068
 21
-512.138432276282
 31
0.0000000001127424
  0
LINE
  5
1AFD4
330
18
100
AcDbEntity
  8
01
  6
BYBLOCK
100
AcDbLine
 10
2399.822839771068
 20
-512.138432276282
 30
0.0000000001127424
 11
2397.222839771068
 21
-512.835100170282
 31
0.0000000001127424
  0
LINE
  5
1AFD5
330
18
100
AcDbEntity
  8
01
  6
BYBLOCK
100
AcDbLine
 10
2399.822839771068
 20
-512.138432276282
 30
0.0000000001127424
 11
2397.222839771068
 21
-512.138432276282
 31
0.0000000001127424
  0
TEXT
  5
1AFD6
330
18
100
AcDbEntity
  8
01
  6
CONTINUOUS
100
AcDbText
 10
2371.273707826624
 20
-511.228432276282
 30
0.0000000001127424
 40
4.55
  1
51
100
AcDbText
1001
ACAD
1000
DSTYLE
1002
{
1070
    40
1040
1.3
1070
    45
1040
0.5
1002
}
  0
LINE
  5
1AFD7
330
18
100
AcDbEntity
  8
01
  6
BYBLOCK
100
AcDbLine
 10
2219.922956110813
 20
-512.8351001702822
 30
0.0000000001127424
 11
2217.322956110813
 21
-512.1384322762822
 31
0.0000000001127424
  0
LINE
  5
1AFD8
330
18
100
AcDbEntity
  8
01
  6
BYBLOCK
100
AcDbLine
 10
2217.322956110813
 20
-512.1384322762822
 30
0.0000000001127424
 11
2219.922956110813
 21
-511.4417643822822
 31
0.0000000001127424
  0
LINE
  5
1AFD9
330
18
100
AcDbEntity
  8
01
  6
BYBLOCK
100
AcDbLine
 10
2217.322956110813
 20
-512.1384322762822
 30
0.0000000001127424
 11
2219.922956110813
 21
-512.1384322762822
 31
0.0000000001127424
  0
LINE
  5
1AFDA
330
18
100
AcDbEntity
  8
01
  6
BYBLOCK
100
AcDbLine
 10
2239.722956110813
 20
-511.4417643822822
 30
0.0000000001127424
 11
2242.322956110813
 21
-512.1384322762822
 31
0.0000000001127424
  0
LINE
  5
1AFDB
330
18
100
AcDbEntity
  8
01
  6
BYBLOCK
100
AcDbLine
 10
2242.322956110813
 20
-512.1384322762822
 30
0.0000000001127424
 11
2239.722956110813
 21
-512.8351001702822
 31
0.0000000001127424
  0
LINE
  5
1AFDC
330
18
100
AcDbEntity
  8
01
  6
BYBLOCK
100
AcDbLine
 10
2242.322956110813
 20
-512.1384322762822
 30
0.0000000001127424
 11
2239.722956110813
 21
-512.1384322762822
 31
0.0000000001127424
  0
TEXT
  5
1AFDD
330
18
100
AcDbEntity
  8
01
  6
CONTINUOUS
100
AcDbText
 10
2226.031289444146
 20
-511.2284322762822
 30
0.0000000001127424
 40
4.55
  1
25
100
AcDbText
1001
ACAD
1000
DSTYLE
1002
{
1070
    40
1040
1.3
1070
    45
1040
0.5
1002
}
  0
LINE
  5
1AFDE
330
18
100
AcDbEntity
  8
01
  6
BYBLOCK
100
AcDbLine
 10
2313.914358988257
 20
-566.1594792165541
 30
0.0000000001691137
 11
2314.611026882257
 21
-563.5594792165541
 31
0.0000000001691137
  0
LINE
  5
1AFDF
330
18
100
AcDbEntity
  8
01
  6
BYBLOCK
100
AcDbLine
 10
2314.611026882257
 20
-563.5594792165541
 30
0.0000000001691137
 11
2315.307694776257
 21
-566.1594792165541
 31
0.0000000001691137
  0
LINE
  5
1AFE0
330
18
100
AcDbEntity
  8
01
  6
BYBLOCK
100
AcDbLine
 10
2314.611026882257
 20
-563.5594792165541
 30
0.0000000001691137
 11
2314.611026882257
 21
-566.1594792165541
 31
0.0000000001691137
  0
LINE
  5
1AFE1
330
18
100
AcDbEntity
  8
01
  6
BYBLOCK
100
AcDbLine
 10
2315.307694776257
 20
-674.9594792165541
 30
0.0000000001691137
 11
2314.611026882257
 21
-677.5594792165541
 31
0.0000000001691137
  0
LINE
  5
1AFE2
330
18
100
AcDbEntity
  8
01
  6
BYBLOCK
100
AcDbLine
 10
2314.611026882257
 20
-677.5594792165541
 30
0.0000000001691137
 11
2313.914358988257
 21
-674.9594792165541
 31
0.0000000001691137
  0
LINE
  5
1AFE3
330
18
100
AcDbEntity
  8
01
  6
BYBLOCK
100
AcDbLine
 10
2314.611026882257
 20
-677.5594792165541
 30
0.0000000001691137
 11
2314.611026882257
 21
-674.9594792165541
 31
0.0000000001691137
  0
TEXT
  5
1AFE4
330
18
100
AcDbEntity
  8
01
  6
CONTINUOUS
100
AcDbText
 10
2313.701026882257
 20
-595.9764568686328
 30
0.0000000001691137
 40
4.55
  1
114
 50
90.0
100
AcDbText
1001
ACAD
1000
DSTYLE
1002
{
1070
    40
1040
1.3
1070
    45
1040
0.5
1002
}
  0
LINE
  5
1AFE5
330
18
100
AcDbEntity
  8
01
  6
BYBLOCK
100
AcDbLine
 10
2323.278693154482
 20
-558.2599243609706
 30
0.0000000001691137
 11
2323.975361048481
 21
-555.6599243609705
 31
0.0000000001691137
  0
LINE
  5
1AFE6
330
18
100
AcDbEntity
  8
01
  6
BYBLOCK
100
AcDbLine
 10
2323.975361048481
 20
-555.6599243609705
 30
0.0000000001691137
 11
2324.672028942481
 21
-558.2599243609706
 31
0.0000000001691137
  0
LINE
  5
1AFE7
330
18
100
AcDbEntity
  8
01
  6
BYBLOCK
100
AcDbLine
 10
2323.975361048481
 20
-555.6599243609705
 30
0.0000000001691137
 11
2323.975361048481
 21
-558.2599243609706
 31
0.0000000001691137
  0
LINE
  5
1AFE8
330
18
100
AcDbEntity
  8
01
  6
BYBLOCK
100
AcDbLine
 10
2324.672028942481
 20
-682.859479216554
 30
0.0000000001691137
 11
2323.975361048481
 21
-685.459479216554
 31
0.0000000001691137
  0
LINE
  5
1AFE9
330
18
100
AcDbEntity
  8
01
  6
BYBLOCK
100
AcDbLine
 10
2323.975361048481
 20
-685.459479216554
 30
0.0000000001691137
 11
2323.278693154482
 21
-682.859479216554
 31
0.0000000001691137
  0
LINE
  5
1AFEA
330
18
100
AcDbEntity
  8
01
  6
BYBLOCK
100
AcDbLine
 10
2323.975361048481
 20
-685.459479216554
 30
0.0000000001691137
 11
2323.975361048481
 21
-682.859479216554
 31
0.0000000001691137
  0
TEXT
  5
1AFEB
330
18
100
AcDbEntity
  8
01
  6
CONTINUOUS
100
AcDbText
 10
2323.065361048481
 20
-596.76102087144
 30
0.0000000001691137
 40
4.55
  1
130
 50
90.0
100
AcDbText
1001
ACAD
1000
DSTYLE
1002
{
1070
    40
1040
1.3
1070
    45
1040
0.5
1002
}
  0
LINE
  5
1AFEC
330
18
100
AcDbEntity
  8
01
  6
BYBLOCK
100
AcDbLine
 10
2364.126171877068
 20
-619.15992436097
 30
0.0000000001127424
 11
2364.822839771068
 21
-616.55992436097
 31
0.0000000001127424
  0
LINE
  5
1AFED
330
18
100
AcDbEntity
  8
01
  6
BYBLOCK
100
AcDbLine
 10
2364.822839771068
 20
-616.55992436097
 30
0.0000000001127424
 11
2365.519507665068
 21
-619.15992436097
 31
0.0000000001127424
  0
LINE
  5
1AFEE
330
18
100
AcDbEntity
  8
01
  6
BYBLOCK
100
AcDbLine
 10
2364.822839771068
 20
-616.55992436097
 30
0.0000000001127424
 11
2364.822839771068
 21
-619.15992436097
 31
0.0000000001127424
  0
LINE
  5
1AFEF
330
18
100
AcDbEntity
  8
01
  6
BYBLOCK
100
AcDbLine
 10
2365.519507665068
 20
-663.959924360969
 30
0.0000000001127424
 11
2364.822839771068
 21
-666.559924360969
 31
0.0000000001127424
  0
LINE
  5
1AFF0
330
18
100
AcDbEntity
  8
01
  6
BYBLOCK
100
AcDbLine
 10
2364.822839771068
 20
-666.559924360969
 30
0.0000000001127424
 11
2364.126171877068
 21
-663.959924360969
 31
0.0000000001127424
  0
LINE
  5
1AFF1
330
18
100
AcDbEntity
  8
01
  6
BYBLOCK
100
AcDbLine
 10
2364.822839771068
 20
-666.559924360969
 30
0.0000000001127424
 11
2364.822839771068
 21
-663.959924360969
 31
0.0000000001127424
  0
TEXT
  5
1AFF2
330
18
100
AcDbEntity
  8
01
  6
CONTINUOUS
100
AcDbText
 10
2363.912839771068
 20
-649.7594272675688
 30
0.0000000001127424
 40
4.55
  1
φ50
 50
90.0
100
AcDbText
1001
ACAD
1000
DSTYLE
1002
{
1070
     3
1000
φ<>
1070
    40
1040
1.3
1070
    45
1040
0.5
1002
}
  0
SOLID
  5
1AFF3
330
18
100
AcDbEntity
  8
1DIM
100
AcDbTrace
 10
2397.192689125814
 20
-417.6106814159138
 30
0.0000000001127424
 11
2399.563441011129
 21
-416.4585905878735
 31
0.0000000001127424
 12
2397.694488955736
 22
-418.317298739365
 32
0.0000000001127424
 13
2397.694488955736
 23
-418.317298739365
 33
0.0000000001127424
1001
ACAD
1000
DSTYLE
1002
{
1070
    40
1040
1.3
1070
    45
1040
0.5
1002
}
  0
LINE
  5
1AFF4
330
18
100
AcDbEntity
  8
1DIM
100
AcDbLine
 10
2397.443589040775
 20
-417.9639900776394
 30
0.0000000001127424
 11
2369.976000864086
 21
-437.4699243619986
 31
0.0000000001127424
1001
ACAD
1000
DSTYLE
1002
{
1070
    40
1040
1.3
1070
    45
1040
0.5
1002
}
  0
LINE
  5
1AFF5
330
18
100
AcDbEntity
  8
1DIM
100
AcDbLine
 10
2416.223723953128
 20
-362.0599243619986
 30
0.0000000001127424
 11
2436.784114712841
 21
-362.0599243619986
 31
0.0000000001127424
1001
ACAD
1000
DSTYLE
1002
{
1070
    45
1040
0.5
1070
    40
1040
1.3
1002
}
  0
LINE
  5
1AFF6
330
18
100
AcDbEntity
  8
1DIM
100
AcDbLine
 10
2417.823723953128
 20
-380.8599243619985
 30
0.0000000001127424
 11
2436.784114712841
 21
-380.8599243619985
 31
0.0000000001127424
1001
ACAD
1000
DSTYLE
1002
{
1070
    45
1040
0.5
1070
    40
1040
1.3
1002
}
  0
LINE
  5
1AFF7
330
18
100
AcDbEntity
  8
1DIM
100
AcDbLine
 10
2435.484114712841
 20
-364.6599243619986
 30
0.0000000001127424
 11
2435.484114712841
 21
-378.2599243619985
 31
0.0000000001127424
1001
ACAD
1000
DSTYLE
1002
{
1070
    45
1040
0.5
1070
    40
1040
1.3
1002
}
  0
LINE
  5
1AFFB
330
18
100
AcDbEntity
  8
1DIM
100
AcDbLine
 10
2502.577987768415
 20
-391.5599243609699
 30
0.0000000001127424
 11
2540.688636111599
 21
-391.5599243609699
 31
0.0000000001127424
1001
ACAD
1000
DSTYLE
1002
{
1070
    40
1040
1.3
1070
   271
1070
     0
1002
}
  0
LINE
  5
1AFFC
330
18
100
AcDbEntity
  8
1DIM
100
AcDbLine
 10
2523.387090666091
 20
-427.5091816194031
 30
0.0000000001127424
 11
2540.688636111599
 21
-427.5091816194031
 31
0.0000000001127424
1001
ACAD
1000
DSTYLE
1002
{
1070
    40
1040
1.3
1070
   271
1070
     0
1002
}
  0
LINE
  5
1AFFD
330
18
100
AcDbEntity
  8
1DIM
100
AcDbLine
 10
2539.388636111599
 20
-394.15992436097
 30
0.0000000001127424
 11
2539.388636111599
 21
-424.9091816194031
 31
0.0000000001127424
1001
ACAD
1000
DSTYLE
1002
{
1070
    40
1040
1.3
1070
   271
1070
     0
1002
}
  0
LINE
  5
1B001
330
18
100
AcDbEntity
  8
1DIM
100
AcDbLine
 10
2436.951078630513
 20
-454.5979830608248
 30
0.0000000001127424
 11
2550.688636111599
 21
-454.5979830608248
 31
0.0000000001127424
1001
ACAD
1000
DSTYLE
1002
{
1070
    40
1040
1.3
1070
   271
1070
     0
1002
}
  0
LINE
  5
1B002
330
18
100
AcDbEntity
  8
1DIM
100
AcDbLine
 10
2502.577987768415
 20
-391.5599243609699
 30
0.0000000001127424
 11
2550.688636111599
 21
-391.5599243609699
 31
0.0000000001127424
1001
ACAD
1000
DSTYLE
1002
{
1070
    40
1040
1.3
1070
   271
1070
     0
1002
}
  0
LINE
  5
1B003
330
18
100
AcDbEntity
  8
1DIM
100
AcDbLine
 10
2549.388636111599
 20
-451.9979830608248
 30
0.0000000001127424
 11
2549.388636111599
 21
-394.15992436097
 31
0.0000000001127424
1001
ACAD
1000
DSTYLE
1002
{
1070
    40
1040
1.3
1070
   271
1070
     0
1002
}
  0
LINE
  5
1B007
330
18
100
AcDbEntity
  8
1DIM
100
AcDbLine
 10
2399.822839771068
 20
-413.0599243609699
 30
0.0000000001127424
 11
2399.822839771068
 21
-470.8979830608249
 31
0.0000000001127424
1001
ACAD
1000
DSTYLE
1002
{
1070
    40
1040
1.3
1070
   271
1070
     0
1002
}
  0
LINE
  5
1B008
330
18
100
AcDbEntity
  8
1DIM
100
AcDbLine
 10
2524.388636114018
 20
-448.5220015731882
 30
0.0000000001127424
 11
2524.388636114018
 21
-470.8979830608249
 31
0.0000000001127424
1001
ACAD
1000
DSTYLE
1002
{
1070
    40
1040
1.3
1070
   271
1070
     0
1002
}
  0
LINE
  5
1B009
330
18
100
AcDbEntity
  8
1DIM
100
AcDbLine
 10
2402.422839771068
 20
-469.5979830608248
 30
0.0000000001127424
 11
2521.788636114018
 21
-469.5979830608248
 31
0.0000000001127424
1001
ACAD
1000
DSTYLE
1002
{
1070
    40
1040
1.3
1070
   271
1070
     0
1002
}
  0
LINE
  5
1B00D
330
18
100
AcDbEntity
  8
1DIM
100
AcDbLine
 10
2386.322842111598
 20
-420.5599243609699
 30
0.0000000001127424
 11
2386.322842111598
 21
-480.8979830608249
 31
0.0000000001127424
1001
ACAD
1000
DSTYLE
1002
{
1070
    40
1040
1.3
1070
   271
1070
     0
1002
}
  0
LINE
  5
1B00E
330
18
100
AcDbEntity
  8
1DIM
100
AcDbLine
 10
2524.388636114018
 20
-448.5220015731882
 30
0.0000000001127424
 11
2524.388636114018
 21
-480.8979830608249
 31
0.0000000001127424
1001
ACAD
1000
DSTYLE
1002
{
1070
    40
1040
1.3
1070
   271
1070
     0
1002
}
  0
LINE
  5
1B00F
330
18
100
AcDbEntity
  8
1DIM
100
AcDbLine
 10
2388.922842111598
 20
-479.5979830608248
 30
0.0000000001127424
 11
2521.788636114018
 21
-479.5979830608248
 31
0.0000000001127424
1001
ACAD
1000
DSTYLE
1002
{
1070
    40
1040
1.3
1070
   271
1070
     0
1002
}
  0
LINE
  5
1B013
330
18
100
AcDbEntity
  8
0
  6
BYBLOCK
100
AcDbLine
 10
2434.787446818841
 20
-364.6599243619986
 30
0.0000000001127424
 11
2435.484114712841
 21
-362.0599243619986
 31
0.0000000001127424
  0
LINE
  5
1B014
330
18
100
AcDbEntity
  8
0
  6
BYBLOCK
100
AcDbLine
 10
2435.484114712841
 20
-362.0599243619986
 30
0.0000000001127424
 11
2436.180782606841
 21
-364.6599243619986
 31
0.0000000001127424
  0
LINE
  5
1B015
330
18
100
AcDbEntity
  8
0
  6
BYBLOCK
100
AcDbLine
 10
2435.484114712841
 20
-362.0599243619986
 30
0.0000000001127424
 11
2435.484114712841
 21
-364.6599243619986
 31
0.0000000001127424
  0
LINE
  5
1B016
330
18
100
AcDbEntity
  8
0
  6
BYBLOCK
100
AcDbLine
 10
2436.180782606841
 20
-378.2599243619985
 30
0.0000000001127424
 11
2435.484114712841
 21
-380.8599243619985
 31
0.0000000001127424
  0
LINE
  5
1B017
330
18
100
AcDbEntity
  8
0
  6
BYBLOCK
100
AcDbLine
 10
2435.484114712841
 20
-380.8599243619985
 30
0.0000000001127424
 11
2434.787446818841
 21
-378.2599243619985
 31
0.0000000001127424
  0
LINE
  5
1B018
330
18
100
AcDbEntity
  8
0
  6
BYBLOCK
100
AcDbLine
 10
2435.484114712841
 20
-380.8599243619985
 30
0.0000000001127424
 11
2435.484114712841
 21
-378.2599243619985
 31
0.0000000001127424
  0
TEXT
  5
1B019
330
18
100
AcDbEntity
  8
1DIM
  6
CONTINUOUS
100
AcDbText
 10
2434.574114712841
 20
-374.4943109360729
 30
0.0000000001127424
 40
4.55
  1
19
 50
90.0
100
AcDbText
1001
ACAD
1000
DSTYLE
1002
{
1070
    45
1040
0.5
1070
    40
1040
1.3
1002
}
  0
LINE
  5
1B01A
330
18
100
AcDbEntity
  8
0
  6
BYBLOCK
100
AcDbLine
 10
2538.691968217599
 20
-394.15992436097
 30
0.0000000001127424
 11
2539.388636111599
 21
-391.5599243609699
 31
0.0000000001127424
  0
LINE
  5
1B01B
330
18
100
AcDbEntity
  8
0
  6
BYBLOCK
100
AcDbLine
 10
2539.388636111599
 20
-391.5599243609699
 30
0.0000000001127424
 11
2540.085304005599
 21
-394.15992436097
 31
0.0000000001127424
  0
LINE
  5
1B01C
330
18
100
AcDbEntity
  8
0
  6
BYBLOCK
100
AcDbLine
 10
2539.388636111599
 20
-391.5599243609699
 30
0.0000000001127424
 11
2539.388636111599
 21
-394.15992436097
 31
0.0000000001127424
  0
LINE
  5
1B01D
330
18
100
AcDbEntity
  8
0
  6
BYBLOCK
100
AcDbLine
 10
2540.085304005599
 20
-424.9091816194031
 30
0.0000000001127424
 11
2539.388636111599
 21
-427.5091816194031
 31
0.0000000001127424
  0
LINE
  5
1B01E
330
18
100
AcDbEntity
  8
0
  6
BYBLOCK
100
AcDbLine
 10
2539.388636111599
 20
-427.5091816194031
 30
0.0000000001127424
 11
2538.691968217599
 21
-424.9091816194031
 31
0.0000000001127424
  0
LINE
  5
1B01F
330
18
100
AcDbEntity
  8
0
  6
BYBLOCK
100
AcDbLine
 10
2539.388636111599
 20
-427.5091816194031
 30
0.0000000001127424
 11
2539.388636111599
 21
-424.9091816194031
 31
0.0000000001127424
  0
TEXT
  5
1B020
330
18
100
AcDbEntity
  8
1DIM
  6
CONTINUOUS
100
AcDbText
 10
2538.478636111599
 20
-413.326219656853
 30
0.0000000001127424
 40
4.55
  1
36
 50
90.0
100
AcDbText
1001
ACAD
1000
DSTYLE
1002
{
1070
    40
1040
1.3
1070
   271
1070
     0
1002
}
  0
LINE
  5
1B021
330
18
100
AcDbEntity
  8
0
  6
BYBLOCK
100
AcDbLine
 10
2550.085304005599
 20
-451.9979830608248
 30
0.0000000001127424
 11
2549.388636111599
 21
-454.5979830608248
 31
0.0000000001127424
  0
LINE
  5
1B022
330
18
100
AcDbEntity
  8
0
  6
BYBLOCK
100
AcDbLine
 10
2549.388636111599
 20
-454.5979830608248
 30
0.0000000001127424
 11
2548.691968217599
 21
-451.9979830608248
 31
0.0000000001127424
  0
LINE
  5
1B023
330
18
100
AcDbEntity
  8
0
  6
BYBLOCK
100
AcDbLine
 10
2549.388636111599
 20
-454.5979830608248
 30
0.0000000001127424
 11
2549.388636111599
 21
-451.9979830608248
 31
0.0000000001127424
  0
LINE
  5
1B024
330
18
100
AcDbEntity
  8
0
  6
BYBLOCK
100
AcDbLine
 10
2548.691968217599
 20
-394.15992436097
 30
0.0000000001127424
 11
2549.388636111599
 21
-391.5599243609699
 31
0.0000000001127424
  0
LINE
  5
1B025
330
18
100
AcDbEntity
  8
0
  6
BYBLOCK
100
AcDbLine
 10
2549.388636111599
 20
-391.5599243609699
 30
0.0000000001127424
 11
2550.085304005599
 21
-394.15992436097
 31
0.0000000001127424
  0
LINE
  5
1B026
330
18
100
AcDbEntity
  8
0
  6
BYBLOCK
100
AcDbLine
 10
2549.388636111599
 20
-391.5599243609699
 30
0.0000000001127424
 11
2549.388636111599
 21
-394.15992436097
 31
0.0000000001127424
  0
TEXT
  5
1B027
330
18
100
AcDbEntity
  8
1DIM
  6
CONTINUOUS
100
AcDbText
 10
2548.478636111599
 20
-426.8864189886749
 30
0.0000000001127424
 40
4.55
  1
63
 50
90.0
100
AcDbText
1001
ACAD
1000
DSTYLE
1002
{
1070
    40
1040
1.3
1070
   271
1070
     0
1002
}
  0
LINE
  5
1B028
330
18
100
AcDbEntity
  8
0
  6
BYBLOCK
100
AcDbLine
 10
2402.422839771068
 20
-470.2946509548248
 30
0.0000000001127424
 11
2399.822839771068
 21
-469.5979830608248
 31
0.0000000001127424
  0
LINE
  5
1B029
330
18
100
AcDbEntity
  8
0
  6
BYBLOCK
100
AcDbLine
 10
2399.822839771068
 20
-469.5979830608248
 30
0.0000000001127424
 11
2402.422839771068
 21
-468.9013151668249
 31
0.0000000001127424
  0
LINE
  5
1B02A
330
18
100
AcDbEntity
  8
0
  6
BYBLOCK
100
AcDbLine
 10
2399.822839771068
 20
-469.5979830608248
 30
0.0000000001127424
 11
2402.422839771068
 21
-469.5979830608248
 31
0.0000000001127424
  0
LINE
  5
1B02B
330
18
100
AcDbEntity
  8
0
  6
BYBLOCK
100
AcDbLine
 10
2521.788636114018
 20
-468.9013151668249
 30
0.0000000001127424
 11
2524.388636114018
 21
-469.5979830608248
 31
0.0000000001127424
  0
LINE
  5
1B02C
330
18
100
AcDbEntity
  8
0
  6
BYBLOCK
100
AcDbLine
 10
2524.388636114018
 20
-469.5979830608248
 30
0.0000000001127424
 11
2521.788636114018
 21
-470.2946509548248
 31
0.0000000001127424
  0
LINE
  5
1B02D
330
18
100
AcDbEntity
  8
0
  6
BYBLOCK
100
AcDbLine
 10
2524.388636114018
 20
-469.5979830608248
 30
0.0000000001127424
 11
2521.788636114018
 21
-469.5979830608248
 31
0.0000000001127424
  0
TEXT
  5
1B02E
330
18
100
AcDbEntity
  8
1DIM
  6
CONTINUOUS
100
AcDbText
 10
2456.797404609209
 20
-468.6879830608249
 30
0.0000000001127424
 40
4.55
  1
125
100
AcDbText
1001
ACAD
1000
DSTYLE
1002
{
1070
    40
1040
1.3
1070
   271
1070
     0
1002
}
  0
LINE
  5
1B02F
330
18
100
AcDbEntity
  8
0
  6
BYBLOCK
100
AcDbLine
 10
2388.922842111598
 20
-480.2946509548248
 30
0.0000000001127424
 11
2386.322842111598
 21
-479.5979830608248
 31
0.0000000001127424
  0
LINE
  5
1B030
330
18
100
AcDbEntity
  8
0
  6
BYBLOCK
100
AcDbLine
 10
2386.322842111598
 20
-479.5979830608248
 30
0.0000000001127424
 11
2388.922842111598
 21
-478.9013151668249
 31
0.0000000001127424
  0
LINE
  5
1B031
330
18
100
AcDbEntity
  8
0
  6
BYBLOCK
100
AcDbLine
 10
2386.322842111598
 20
-479.5979830608248
 30
0.0000000001127424
 11
2388.922842111598
 21
-479.5979830608248
 31
0.0000000001127424
  0
LINE
  5
1B032
330
18
100
AcDbEntity
  8
0
  6
BYBLOCK
100
AcDbLine
 10
2521.788636114018
 20
-478.9013151668249
 30
0.0000000001127424
 11
2524.388636114018
 21
-479.5979830608248
 31
0.0000000001127424
  0
LINE
  5
1B033
330
18
100
AcDbEntity
  8
0
  6
BYBLOCK
100
AcDbLine
 10
2524.388636114018
 20
-479.5979830608248
 30
0.0000000001127424
 11
2521.788636114018
 21
-480.2946509548248
 31
0.0000000001127424
  0
LINE
  5
1B034
330
18
100
AcDbEntity
  8
0
  6
BYBLOCK
100
AcDbLine
 10
2524.388636114018
 20
-479.5979830608248
 30
0.0000000001127424
 11
2521.788636114018
 21
-479.5979830608248
 31
0.0000000001127424
  0
TEXT
  5
1B035
330
18
100
AcDbEntity
  8
1DIM
  6
CONTINUOUS
100
AcDbText
 10
2450.047405779475
 20
-478.6879830608249
 30
0.0000000001127424
 40
4.55
  1
138
100
AcDbText
1001
ACAD
1000
DSTYLE
1002
{
1070
    40
1040
1.3
1070
   271
1070
     0
1002
}
  0
VIEWPORT
  5
57
330
15
100
AcDbEntity
 67
     1
  8
0
100
AcDbViewport
 68
     1
 10
0.0
 20
0.0
 30
0.0
 40
555.8298653610772
 41
297.0
 68
     1
 69
     1
1001
ACAD
1000
MVIEW
1002
{
1070
    16
1010
0.0
1020
0.0
1030
0.0
1010
0.0
1020
0.0
1030
1.0
1040
0.0
1040
297.0
1040
-4.171999999925333
1040
12.83903210976956
1040
50.0
1040
0.0
1040
0.0
1070
    16
1070
   100
1070
     0
1070
     1
1070
     0
1070
     0
1070
     0
1070
     0
1040
0.0
1040
0.0
1040
0.0
1040
10.0
1040
10.0
1040
10.0
1040
10.0
1070
     0
1002
{
1002
}
1002
}
  0
ENDSEC
  0
SECTION
  2
OBJECTS
  0
DICTIONARY
  5
C
330
0
100
AcDbDictionary
  3
ACAD_COLOR
350
18D
  3
ACAD_GROUP
350
D
  3
ACAD_LAYOUT
350
18E
  3
ACAD_MATERIAL
350
18C
  3
ACAD_MLEADERSTYLE
350
D9E7
  3
ACAD_MLINESTYLE
350
1B
  3
ACAD_PLOTSETTINGS
350
18F
  3
ACAD_SCALELIST
350
D9C5
  3
ACAD_VISUALSTYLE
350
D9B4
  3
ACDBHEADERROUNDTRIPXREC
350
1B036
  3
ACDBVARIABLEDICTIONARY
350
37
  3
CONTENTDICTIONARY
350
D8
  3
DRAWINGVARIABLESDICT
350
20
  3
DWGPROPS
350
1B039
1001
ACAD
1000
TREAT_AS_HARD
1070
     0
  0
DICTIONARY
  5
E6A6
330
2
100
AcDbDictionary
  3
ACAD_LAYERSTATES
360
E6A7
1001
ACAD
1000
TREAT_AS_HARD
1070
     1
  0
DICTIONARY
  5
DA05
330
E
100
AcDbDictionary
  3
ADSK_XREC_LAYER_RECONCILED
360
DA06
1001
ACAD
1000
TREAT_AS_HARD
1070
     1
  0
DICTIONARY
  5
DA07
330
29
100
AcDbDictionary
  3
ADSK_XREC_LAYER_RECONCILED
360
DA08
1001
ACAD
1000
TREAT_AS_HARD
1070
     1
  0
DICTIONARY
  5
DA09
330
31
100
AcDbDictionary
  3
ADSK_XREC_LAYER_RECONCILED
360
DA0A
1001
ACAD
1000
TREAT_AS_HARD
1070
     1
  0
DICTIONARY
  5
DA0F
330
243
100
AcDbDictionary
  3
ADSK_XREC_LAYER_RECONCILED
360
DA10
1001
ACAD
1000
TREAT_AS_HARD
1070
     1
  0
DICTIONARY
  5
DA15
330
24E
100
AcDbDictionary
  3
ADSK_XREC_LAYER_RECONCILED
360
DA16
1001
ACAD
1000
TREAT_AS_HARD
1070
     1
  0
DICTIONARY
  5
88F
330
18
100
AcDbDictionary
  3
ACAD_SORTENTS
360
890
1001
ACAD
1000
TREAT_AS_HARD
1070
     1
  0
DICTIONARY
  5
18D
102
{ACAD_REACTORS
330
C
102
}
330
C
100
AcDbDictionary
1001
ACAD
1000
TREAT_AS_HARD
1070
     0
  0
DICTIONARY
  5
D
102
{ACAD_REACTORS
330
C
102
}
330
C
100
AcDbDictionary
1001
ACAD
1000
TREAT_AS_HARD
1070
     0
  0
DICTIONARY
  5
18E
102
{ACAD_REACTORS
330
C
102
}
330
C
100
AcDbDictionary
1001
ACAD
1000
TREAT_AS_HARD
1070
     0
  0
DICTIONARY
  5
18C
102
{ACAD_REACTORS
330
C
102
}
330
C
100
AcDbDictionary
  3
BYBLOCK
350
D9A4
  3
BYLAYER
350
D99C
  3
GLOBAL
350
D9AC
1001
ACAD
1000
TREAT_AS_HARD
1070
     0
  0
DICTIONARY
  5
D9E7
102
{ACAD_REACTORS
330
C
102
}
330
C
100
AcDbDictionary
  3
STANDARD
350
D9E8
1001
ACAD
1000
TREAT_AS_HARD
1070
     0
  0
DICTIONARY
  5
1B
102
{ACAD_REACTORS
330
C
102
}
330
C
100
AcDbDictionary
  3
STANDARD
350
1C
1001
ACAD
1000
TREAT_AS_HARD
1070
     0
  0
DICTIONARY
  5
18F
102
{ACAD_REACTORS
330
C
102
}
330
C
100
AcDbDictionary
1001
ACAD
1000
TREAT_AS_HARD
1070
     0
  0
DICTIONARY
  5
D9C5
102
{ACAD_REACTORS
330
C
102
}
330
C
100
AcDbDictionary
  3
A0
350
D9C6
  3
A1
350
D9C7
  3
A2
350
D9C8
  3
A3
350
D9C9
  3
A4
350
D9CA
  3
A5
350
D9CB
  3
A6
350
D9CC
  3
A7
350
D9CD
  3
A8
350
D9CE
  3
A9
350
D9CF
  3
B0
350
D9D0
  3
B1
350
D9D1
  3
B2
350
D9D2
  3
B3
350
D9D3
  3
B4
350
D9D4
  3
B5
350
D9D5
  3
B6
350
D9D6
  3
B7
350
D9D7
  3
B8
350
D9D8
  3
B9
350
D9D9
  3
C0
350
D9DA
  3
C1
350
D9DB
  3
C2
350
D9DC
  3
C3
350
D9DD
  3
C4
350
D9DE
  3
C5
350
D9DF
  3
C6
350
D9E0
  3
C7
350
D9E1
  3
C8
350
D9E2
  3
C9
350
D9E3
  3
D0
350
D9E4
  3
D1
350
D9E5
  3
D2
350
D9E6
1001
ACAD
1000
TREAT_AS_HARD
1070
     0
  0
DICTIONARY
  5
D9B4
102
{ACAD_REACTORS
330
C
102
}
330
C
100
AcDbDictionary
  3
2DWIREFRAME
350
D9BA
  3
3D_HIDDEN
350
D9BC
  3
3DWIREFRAME
350
D9BB
  3
BASIC
350
D9B9
  3
BRIGHTEN
350
D9C0
  3
COLORCHANGE
350
D9C4
  3
CONCEPTUAL
350
D9BD
  3
DIM
350
D9BF
  3
EDGECOLOROFF
350
19C2F
  3
FACEPATTERN
350
D9C3
  3
FLAT
350
D9B5
  3
FLATWITHEDGES
350
D9B6
  3
GOURAUD
350
D9B7
  3
GOURAUDWITHEDGES
350
D9B8
  3
HIDDEN
350
19C7E
  3
JITTEROFF
350
19C2D
  3
LINEPATTERN
350
D9C2
  3
MODELING
350
19C84
  3
OVERHANGOFF
350
19C2E
  3
REALISTIC
350
D9BE
  3
SHADED
350
19C83
  3
SHADED_WITH_EDGES
350
19C82
  3
SHADES_OF_GRAY
350
19C7F
  3
SKETCHY
350
19C80
  3
THICKEN
350
D9C1
  3
WIREFRAME
350
19C7D
  3
X-RAY
350
19C81
1001
ACAD
1000
TREAT_AS_HARD
1070
     0
  0
DICTIONARY
  5
1B036
102
{ACAD_REACTORS
330
C
102
}
330
C
100
AcDbDictionary
  3
COLORDICT
350
1B037
  3
MATERIALDICT
350
1B038
1001
ACAD
1000
TREAT_AS_HARD
1070
     0
  0
DICTIONARY
  5
37
102
{ACAD_REACTORS
330
C
102
}
330
C
100
AcDbDictionary
  3
CANNOSCALE
350
1A68D
  3
CMLEADERSTYLE
350
DA6A
  3
CTABLESTYLE
350
29E
  3
DIMADEC
350
38
  3
DIMASSOC
350
1CE
  3
HIDETEXT
350
704E
  3
INDEXCTL
350
DA6D
  3
INTERSECTIONCOLOR
350
7052
  3
INTERSECTIONDISPLAY
350
7051
  3
MSLTSCALE
350
1A6DD
  3
OBSCOLOR
350
704F
  3
OBSLTYPE
350
7050
  3
PROJECTNAME
350
1CF
  3
SORTENTS
350
DA6C
  3
XCLIPFRAME
350
19C7C
1001
ACAD
1000
TREAT_AS_HARD
1070
     0
  0
DICTIONARY
  5
D8
102
{ACAD_REACTORS
330
C
102
}
330
C
100
AcDbDictionary
1001
ACAD
1000
TREAT_AS_HARD
1070
     0
  0
DICTIONARY
  5
20
102
{ACAD_REACTORS
330
C
102
}
330
C
100
AcDbDictionary
1001
DRAWINGVARIABLESXDATA
1000
POLARANG
1000
0.261799387799149410000000
1000
POLARMODE
1000
1
1000
POLARSTYLE
1000
1
1001
ACAD
1000
TREAT_AS_HARD
1070
     0
  0
XRECORD
  5
1B039
102
{ACAD_REACTORS
330
C
102
}
330
C
100
AcDbXrecord
  1
DWGPROPS COOKIE
  2

  3

  4

  6

  7

  8
3684
  9

300
=
301
=
302
=
303
=
304
=
305
=
306
=
307
=
308
=
309
=
 40
0.0
 41
2451318.246352917
 42
2458159.174043345
  1

 90
        0
  0
DICTIONARY
  5
E6A7
102
{ACAD_REACTORS
330
E6A6
102
}
330
E6A6
100
AcDbDictionary
1001
ACAD
1000
TREAT_AS_HARD
1070
     0
  0
ACAD_PROXY_OBJECT
  5
DA06
102
{ACAD_REACTORS
330
DA05
102
}
330
DA05
100
AcDbZombieObject
 90
      499
 91
      514
 93
       34
310
40C8804040
  0
ACAD_PROXY_OBJECT
  5
DA08
102
{ACAD_REACTORS
330
DA07
102
}
330
DA07
100
AcDbZombieObject
 90
      499
 91
      514
 93
       34
310
40C8804040
  0
ACAD_PROXY_OBJECT
  5
DA0A
102
{ACAD_REACTORS
330
DA09
102
}
330
DA09
100
AcDbZombieObject
 90
      499
 91
      514
 93
       34
310
40C8804040
  0
ACAD_PROXY_OBJECT
  5
DA10
102
{ACAD_REACTORS
330
DA0F
102
}
330
DA0F
100
AcDbZombieObject
 90
      499
 91
      514
 93
       34
310
40C8804040
  0
ACAD_PROXY_OBJECT
  5
DA16
102
{ACAD_REACTORS
330
DA15
102
}
330
DA15
100
AcDbZombieObject
 90
      499
 91
      514
 93
       34
310
40C8804040
  0
SORTENTSTABLE
  5
890
102
{ACAD_REACTORS
330
88F
102
}
330
88F
100
AcDbSortentsTable
330
18
331
0
  5
5BFF
331
0
  5
1AC5C
331
1AC5B
  5
1AC75
331
1AC5C
  5
1AC76
331
1AC5D
  5
1AC77
331
1AC61
  5
1AC99
331
1AC62
  5
1AC9A
331
1AC63
  5
1AC9B
331
1AC64
  5
1AC9C
331
1AC65
  5
1AC9D
331
1AC66
  5
1AC9E
331
1AC67
  5
1AC9F
331
1AC68
  5
1ACA0
331
1AC69
  5
1ACA1
331
1AC6A
  5
1ACA2
331
1AC6B
  5
1ACA3
331
1AC6C
  5
1ACA4
331
1AC6D
  5
1ACA5
331
1AC6E
  5
1ACA6
331
1AC6F
  5
1ACA7
331
1AC70
  5
1ACA8
331
1AC71
  5
1ACA9
331
1AC72
  5
1ACAA
331
1AC73
  5
1ACAB
331
1AC74
  5
1ACAC
331
1AC75
  5
1ACAD
331
1AC76
  5
1ACAE
331
1AC77
  5
1ACAF
331
1AC78
  5
1ACB0
331
1AC79
  5
1ACB1
331
1AC7A
  5
1ACB2
331
1AC7B
  5
1ACB3
331
1AC7C
  5
1ACB4
331
1AC7D
  5
1ACB5
331
1AC7E
  5
1ACB6
331
1AC7F
  5
1ACB7
331
1AC80
  5
1ACB8
331
1AC81
  5
1ACB9
331
1AC82
  5
1ACBA
331
1AC83
  5
1ACBB
331
1AC84
  5
1ACBC
331
1AC85
  5
1ACBD
331
1AC86
  5
1ACBE
331
1AC87
  5
1ACBF
331
1AC88
  5
1ACC0
331
1AC89
  5
1ACC1
331
1AC8A
  5
1ACC2
331
1AC8B
  5
1ACC3
331
1AC8C
  5
1ACC4
331
1AC8D
  5
1ACC5
331
1AC8E
  5
1ACC6
331
1AC8F
  5
1ACC7
331
1AC90
  5
1ACC8
331
1AC91
  5
1ACC9
331
1AC92
  5
1ACCA
331
1AC93
  5
1ACCB
331
1AC94
  5
1ACCC
331
1AC95
  5
1ACCD
331
1AC96
  5
1ACCE
331
1AC97
  5
1ACD0
331
1AC98
  5
1ACD1
331
1AC99
  5
1ACD2
331
1AC9A
  5
1ACD3
331
1AC9B
  5
1ACD4
331
1AC9C
  5
1ACD5
331
1AC9D
  5
1ACD6
331
1AC9E
  5
1ACD7
331
1AC9F
  5
1ACD8
331
1ACA0
  5
1ACD9
331
1ACA1
  5
1ACDA
331
1ACA2
  5
1ACDC
331
1ACA3
  5
1ACDD
331
1ACA4
  5
1ACDF
331
1ACA5
  5
1ACE0
331
0
  5
1ACDE
331
1ACA7
  5
1ACF1
331
1ACA8
  5
1ACF2
331
1ACA9
  5
1ACF3
331
1ACAA
  5
1ACF4
331
1ACAB
  5
1ACF5
331
1ACAC
  5
1ACF6
331
1ACAD
  5
1ACF7
331
1ACAE
  5
1ACF8
331
1ACAF
  5
1ACF9
331
1ACB0
  5
1ACFA
331
1ACB1
  5
1ACFB
331
1ACB2
  5
1ACFC
331
1ACB3
  5
1ACFD
331
1ACB4
  5
1ACFE
331
1ACB5
  5
1ACFF
331
1ACB6
  5
1AD00
331
1ACB7
  5
1AD01
331
1ACB8
  5
1AD02
331
1ACB9
  5
1AD03
331
1ACBA
  5
1AD04
331
1ACBB
  5
1AD05
331
1ACBC
  5
1AD06
331
1ACBD
  5
1AD07
331
1ACBE
  5
1AD08
331
1ACBF
  5
1AD09
331
1ACC0
  5
1AD0A
331
1ACC1
  5
1AD0B
331
1ACC2
  5
1AD0C
331
1ACC3
  5
1AD0D
331
1ACC4
  5
1AD0E
331
1ACC5
  5
1AD0F
331
1ACC6
  5
1AD10
331
1ACC7
  5
1AD11
331
1ACC8
  5
1AD12
331
1ACC9
  5
1AD13
331
1ACCA
  5
1AD14
331
1ACCB
  5
1AD15
331
1ACCC
  5
1AD16
331
1ACCD
  5
1AD19
331
1ACCE
  5
1AD1A
331
1ACD0
  5
1AD26
331
1ACD1
  5
1AD27
331
1ACD2
  5
1AD28
331
1ACD3
  5
1AD29
331
1ACD4
  5
1AD2A
331
1ACD5
  5
1AD2B
331
1ACD6
  5
1AD2C
331
1ACD7
  5
1AD2D
331
1ACD8
  5
1AD2E
331
1ACD9
  5
1AD2F
331
1ACDA
  5
1AD30
331
1ACDC
  5
1AD37
331
1ACDD
  5
1AD39
331
1ACDE
  5
1AD3A
331
1ACDF
  5
1AD3B
331
1ACE0
  5
1AD3C
331
1ACE1
  5
1AD3D
331
1ACE2
  5
1AD3E
331
1ACE3
  5
1AD3F
331
1ACE4
  5
1AD40
331
1ACE5
  5
1AD41
331
1ACE6
  5
1AD42
331
1ACE7
  5
1AD43
331
1ACE8
  5
1AD47
331
1ACE9
  5
1AD48
331
1ACEA
  5
1AD49
331
1ACEB
  5
1AD4D
331
1ACEC
  5
1AD4E
331
1ACED
  5
1AD4F
331
1ACEE
  5
1AD50
331
1ACEF
  5
1AD51
331
1ACF0
  5
1AD52
331
1ACF1
  5
1AD53
331
1ACF2
  5
1AD54
331
1ACF3
  5
1AD55
331
1ACF4
  5
1AD59
331
1ACF5
  5
1AD5A
331
1ACF6
  5
1AD5B
331
1ACF7
  5
1AD5C
331
1ACF8
  5
1AD5D
331
1ACF9
  5
1AD5E
331
1ACFA
  5
1AD5F
331
1ACFB
  5
1AD60
331
1ACFC
  5
1AD61
331
1ACFD
  5
1AD62
331
1ACFE
  5
1AD63
331
1ACFF
  5
1AD64
331
1AD00
  5
1AD65
331
1AD01
  5
1AD66
331
1AD02
  5
1AD67
331
1AD03
  5
1AD68
331
1AD04
  5
1AD69
331
1AD05
  5
1AD6A
331
1AD06
  5
1AD6B
331
1AD07
  5
1AD6C
331
1AD08
  5
1AD6D
331
1AD09
  5
1AD6E
331
1AD0A
  5
1AD6F
331
1AD0B
  5
1AD70
331
1AD0C
  5
1AD71
331
1AD0D
  5
1AD72
331
1AD0E
  5
1AD73
331
1AD0F
  5
1AD74
331
1AD10
  5
1AD75
331
1AD11
  5
1AD76
331
1AD12
  5
1AD77
331
1AD13
  5
1AD78
331
1AD14
  5
1AD79
331
1AD15
  5
1AD7A
331
1AD16
  5
1AD7B
331
1AD19
  5
1AD90
331
1AD1A
  5
1AD91
331
1AD1B
  5
1AD92
331
1AD1C
  5
1AD93
331
1AD1D
  5
1AD94
331
1AD1E
  5
1AD95
331
1AD20
  5
1ADA0
331
1AD21
  5
1ADA1
331
1AD22
  5
1ADA2
331
1AD23
  5
1ADA3
331
1AD24
  5
1ADA4
331
1AD25
  5
1ADA5
331
1AD26
  5
1ADA6
331
1AD27
  5
1ADA7
331
1AD28
  5
1ADA8
331
1AD29
  5
1ADA9
331
1AD2A
  5
1ADAA
331
1AD2B
  5
1ADAB
331
1AD2C
  5
1ADAC
331
1AD2D
  5
1ADAD
331
1AD2E
  5
1ADAE
331
1AD2F
  5
1ADAF
331
1AD30
  5
1ADB0
331
1AD31
  5
1ADB1
331
1AD32
  5
1ADB2
331
1AD33
  5
1ADB3
331
1AD34
  5
1ADB4
331
1AD35
  5
1ADB5
331
1AD36
  5
1ADB6
331
1AD37
  5
1ADB7
331
1AD39
  5
1AF83
331
1AD3A
  5
1AF84
331
1AD3B
  5
1AF85
331
1AD3C
  5
1AF86
331
1AD3D
  5
1AF87
331
1AD3E
  5
1AF88
331
1AD3F
  5
1AF89
331
1AD40
  5
1AF8A
331
1AD41
  5
1AF8B
331
1AD42
  5
1AF8C
331
1AD43
  5
1AF8D
331
1AD44
  5
1AF8E
331
1AD45
  5
1AF8F
331
1AD46
  5
1AF90
331
1AD47
  5
1AF91
331
1AD48
  5
1AF92
331
1AD49
  5
1AF93
331
1AD4A
  5
1AF94
331
1AD4B
  5
1AF95
331
1AD4C
  5
1AF96
331
1AD4D
  5
1AF97
331
1AD4E
  5
1AF98
331
1AD4F
  5
1AF99
331
1AD50
  5
1AF9A
331
1AD51
  5
1AF9B
331
1AD52
  5
1AF9C
331
1AD53
  5
1AF9D
331
1AD54
  5
1AF9E
331
1AD55
  5
1AF9F
331
1AD56
  5
1AFA0
331
1AD57
  5
1AFA1
331
1AD58
  5
1AFA2
331
1AD59
  5
1AFA3
331
1AD5A
  5
1AFA4
331
1AD5B
  5
1AFA5
331
1AD5C
  5
1AFA6
331
1AD5D
  5
1AFA7
331
1AD5E
  5
1AFA8
331
1AD5F
  5
1AFA9
331
1AD60
  5
1AFAA
331
1AD61
  5
1AFAB
331
1AD62
  5
1AFB0
331
1AD63
  5
1AFB1
331
1AD64
  5
1AFB2
331
1AD65
  5
1AFB3
331
1AD66
  5
1AFB4
331
1AD67
  5
1AFB5
331
1AD68
  5
1AFB6
331
1AD69
  5
1AFB7
331
1AD6A
  5
1AFB8
331
1AD6B
  5
1AFB9
331
1AD6C
  5
1AFBA
331
1AD6D
  5
1AFBE
331
1AD6E
  5
1AFBF
331
1AD6F
  5
1AFC0
331
1AD70
  5
1AFC4
331
0
  5
1AFAC
331
0
  5
1AFAD
331
0
  5
1AFAE
331
0
  5
1AFAF
331
1AD75
  5
1AFF3
331
1AD76
  5
1AFF4
331
1AD77
  5
1AFF5
331
1AD78
  5
1AFF6
331
1AD79
  5
1AFF7
331
1AD7A
  5
1AFF8
331
1AD7B
  5
1AFF9
331
1AD7C
  5
1AFFA
331
1AD7D
  5
1AFFB
331
1AD7E
  5
1AFFC
331
1AD7F
  5
1AFFD
331
1AD80
  5
1AFFE
331
1AD81
  5
1AFFF
331
1AD82
  5
1B000
331
1AD83
  5
1B001
331
1AD84
  5
1B002
331
1AD85
  5
1B003
331
1AD86
  5
1B004
331
1AD87
  5
1B005
331
1AD88
  5
1B006
331
1AD89
  5
1B007
331
1AD8A
  5
1B008
331
1AD8B
  5
1B009
331
1AD8C
  5
1B00A
331
1AD8D
  5
1B00B
331
1AD8E
  5
1B00C
331
1AD8F
  5
1B00D
331
1AD90
  5
1B00E
331
1AD91
  5
1B00F
331
1AD92
  5
1B010
331
1AD93
  5
1B011
331
1AD94
  5
1B012
331
1AD95
  5
1B013
331
1AD96
  5
1B014
331
1AD97
  5
1B015
331
1AD98
  5
1B016
331
1AD99
  5
1B017
331
1AD9A
  5
1B018
331
1AD9B
  5
1B019
331
1AD9C
  5
1B01A
331
1AD9D
  5
1B01B
331
1AD9E
  5
1B01C
331
1AD9F
  5
1B01D
331
1ADA0
  5
1B01E
331
1ADA1
  5
1B01F
331
1ADA2
  5
1B020
331
1ADA3
  5
1B021
331
1ADA4
  5
1B022
331
1ADA5
  5
1B023
331
1ADA6
  5
1B024
331
1ADA7
  5
1B025
331
1ADA8
  5
1B026
331
1ADA9
  5
1B027
331
1ADAA
  5
1B028
331
1ADAB
  5
1B029
331
1ADAC
  5
1B02A
331
1ADAD
  5
1B02B
331
1ADAE
  5
1B02C
331
1ADAF
  5
1B02D
331
1ADB0
  5
1B02E
331
1ADB1
  5
1B02F
331
1ADB2
  5
1B030
331
1ADB3
  5
1B031
331
1ADB4
  5
1B032
331
1ADB5
  5
1B033
331
1ADB6
  5
1B034
331
1ADB7
  5
1B035
331
1AF82
  5
1AC59
331
1AF83
  5
1AC5B
331
1AF84
  5
1AC62
331
1AF85
  5
1AC66
331
1AF86
  5
1AC67
331
0
  5
1AC63
331
0
  5
1AC64
331
0
  5
1AC65
331
1AF8A
  5
1AC7B
331
1AF8B
  5
1AC7C
331
1AF8C
  5
1AC7D
331
0
  5
1AC6C
331
0
  5
1AC6D
331
0
  5
1AC6E
331
1AF90
  5
1AC85
331
1AF91
  5
1AC86
331
1AF92
  5
1AC87
331
0
  5
1AC72
331
0
  5
1AC73
331
0
  5
1AC74
331
1AF96
  5
1AC8F
331
1AF97
  5
1AC90
331
1AF98
  5
1AC91
331
0
  5
1AC78
331
0
  5
1AC79
331
0
  5
1AC7A
331
1AF9C
  5
1AD1B
331
1AF9D
  5
1AD1C
331
1AF9E
  5
1AD1D
331
0
  5
1ACEE
331
0
  5
1ACEF
331
0
  5
1ACF0
331
1AFA2
  5
1AD31
331
1AFA3
  5
1AD32
331
1AFA4
  5
1AD33
331
1AFA5
  5
1AD34
331
1AFA6
  5
1AD35
331
1AFA7
  5
1AD36
331
1AFA8
  5
1AD7C
331
1AFA9
  5
1AD7D
331
1AFAA
  5
1AD7E
331
0
  5
1AD44
331
0
  5
1AD45
331
0
  5
1AD46
331
1AFAE
  5
1AD86
331
1AFAF
  5
1AD87
331
1AFB0
  5
1AD88
331
0
  5
1AD4A
331
0
  5
1AD4B
331
0
  5
1AD4C
331
1AFB4
  5
1AD96
331
1AFB5
  5
1AD97
331
1AFB6
  5
1AD98
331
0
  5
1AD56
331
0
  5
1AD57
331
0
  5
1AD58
331
1AFBA
  5
1AF82
331
1AFBB
  5
1AC68
331
1AFBC
  5
1AC69
331
1AFBD
  5
1AC6A
331
1AFBE
  5
1AC6B
331
1AFBF
  5
1AC6F
331
1AFC0
  5
1AC70
331
1AFC1
  5
1AC71
331
1AFC2
  5
1AC7E
331
1AFC3
  5
1AC7F
331
1AFC4
  5
1AC80
331
1AFC5
  5
1AC81
331
1AFC6
  5
1AC82
331
1AFC7
  5
1AC83
331
1AFC8
  5
1AC84
331
1AFC9
  5
1AC88
331
1AFCA
  5
1AC89
331
1AFCB
  5
1AC8A
331
1AFCC
  5
1AC8B
331
1AFCD
  5
1AC8C
331
1AFCE
  5
1AC8D
331
1AFCF
  5
1AC8E
331
1AFD0
  5
1AC92
331
1AFD1
  5
1AC93
331
1AFD2
  5
1AC94
331
1AFD3
  5
1AC95
331
1AFD4
  5
1AC96
331
1AFD5
  5
1AC97
331
1AFD6
  5
1AC98
331
1AFD7
  5
1AD1E
331
1AFD8
  5
1AD20
331
1AFD9
  5
1AD21
331
1AFDA
  5
1AD22
331
1AFDB
  5
1AD23
331
1AFDC
  5
1AD24
331
1AFDD
  5
1AD25
331
1AFDE
  5
1AD7F
331
1AFDF
  5
1AD80
331
1AFE0
  5
1AD81
331
1AFE1
  5
1AD82
331
1AFE2
  5
1AD83
331
1AFE3
  5
1AD84
331
1AFE4
  5
1AD85
331
1AFE5
  5
1AD89
331
1AFE6
  5
1AD8A
331
1AFE7
  5
1AD8B
331
1AFE8
  5
1AD8C
331
1AFE9
  5
1AD8D
331
1AFEA
  5
1AD8E
331
1AFEB
  5
1AD8F
331
1AFEC
  5
1AD99
331
1AFED
  5
1AD9A
331
1AFEE
  5
1AD9B
331
1AFEF
  5
1AD9C
331
1AFF0
  5
1AD9D
331
1AFF1
  5
1AD9E
331
1AFF2
  5
1AD9F
331
1AFF3
  5
1AC5D
331
1AFF4
  5
1AC61
331
1AFF5
  5
1ACE1
331
1AFF6
  5
1ACE2
331
1AFF7
  5
1ACE3
331
0
  5
1ACE4
331
0
  5
1ACE5
331
0
  5
1ACE6
331
1AFFB
  5
1AFC5
331
1AFFC
  5
1AFC6
331
1AFFD
  5
1AFCA
331
0
  5
1AFBB
331
0
  5
1AFBC
331
0
  5
1AFBD
331
1B001
  5
1AFD5
331
1B002
  5
1AFD6
331
1B003
  5
1AFD7
331
0
  5
1AFC1
331
0
  5
1AFC2
331
0
  5
1AFC3
331
1B007
  5
1AFDF
331
1B008
  5
1AFE0
331
1B009
  5
1AFE1
331
0
  5
1AFC7
331
0
  5
1AFC8
331
0
  5
1AFC9
331
1B00D
  5
1AFE9
331
1B00E
  5
1AFEA
331
1B00F
  5
1AFEB
331
0
  5
1AFCD
331
0
  5
1AFCE
331
0
  5
1AFCF
331
1B013
  5
1ACE7
331
1B014
  5
1ACE8
331
1B015
  5
1ACE9
331
1B016
  5
1ACEA
331
1B017
  5
1ACEB
331
1B018
  5
1ACEC
331
1B019
  5
1ACED
331
1B01A
  5
1AFCB
331
1B01B
  5
1AFCC
331
1B01C
  5
1AFD0
331
1B01D
  5
1AFD1
331
1B01E
  5
1AFD2
331
1B01F
  5
1AFD3
331
1B020
  5
1AFD4
331
1B021
  5
1AFD8
331
1B022
  5
1AFD9
331
1B023
  5
1AFDA
331
1B024
  5
1AFDB
331
1B025
  5
1AFDC
331
1B026
  5
1AFDD
331
1B027
  5
1AFDE
331
1B028
  5
1AFE2
331
1B029
  5
1AFE3
331
1B02A
  5
1AFE4
331
1B02B
  5
1AFE5
331
1B02C
  5
1AFE6
331
1B02D
  5
1AFE7
331
1B02E
  5
1AFE8
331
1B02F
  5
1AFEC
331
1B030
  5
1AFED
331
1B031
  5
1AFEE
331
1B032
  5
1AFEF
331
1B033
  5
1AFF0
331
1B034
  5
1AFF1
331
1B035
  5
1AFF2
  0
MATERIAL
  5
D9A4
102
{ACAD_REACTORS
330
18C
102
}
102
{ACAD_XDICTIONARY
360
1B1D4
102
}
330
18C
100
AcDbMaterial
  1
BYBLOCK
 72
     0
 73
     2
 43
0.0208333333333333
 43
0.0
 43
0.0
 43
0.0
 43
0.0
 43
0.0208333333333333
 43
0.0
 43
0.0
 43
0.0
 43
0.0
 43
1.0
 43
0.0
 43
0.0
 43
0.0
 43
0.0
 43
1.0
 77
     0
 78
     2
 47
0.0208333333333333
 47
0.0
 47
0.0
 47
0.0
 47
0.0
 47
0.0208333333333333
 47
0.0
 47
0.0
 47
0.0
 47
0.0
 47
1.0
 47
0.0
 47
0.0
 47
0.0
 47
0.0
 47
1.0
171
     0
172
     2
 49
0.0208333333333333
 49
0.0
 49
0.0
 49
0.0
 49
0.0
 49
0.0208333333333333
 49
0.0
 49
0.0
 49
0.0
 49
0.0
 49
1.0
 49
0.0
 49
0.0
 49
0.0
 49
0.0
 49
1.0
175
     0
176
     2
142
0.0208333333333333
142
0.0
142
0.0
142
0.0
142
0.0
142
0.0208333333333333
142
0.0
142
0.0
142
0.0
142
0.0
142
1.0
142
0.0
142
0.0
142
0.0
142
0.0
142
1.0
179
     0
270
     2
144
0.0208333333333333
144
0.0
144
0.0
144
0.0
144
0.0
144
0.0208333333333333
144
0.0
144
0.0
144
0.0
144
0.0
144
1.0
144
0.0
144
0.0
144
0.0
144
0.0
144
1.0
274
     2
147
0.0208333333333333
147
0.0
147
0.0
147
0.0
147
0.0
147
0.0208333333333333
147
0.0
147
0.0
147
0.0
147
0.0
147
1.0
147
0.0
147
0.0
147
0.0
147
0.0
147
1.0
  0
MATERIAL
  5
D99C
102
{ACAD_REACTORS
330
18C
102
}
102
{ACAD_XDICTIONARY
360
1B1D6
102
}
330
18C
100
AcDbMaterial
  1
BYLAYER
 72
     0
 73
     2
 43
0.0208333333333333
 43
0.0
 43
0.0
 43
0.0
 43
0.0
 43
0.0208333333333333
 43
0.0
 43
0.0
 43
0.0
 43
0.0
 43
1.0
 43
0.0
 43
0.0
 43
0.0
 43
0.0
 43
1.0
 77
     0
 78
     2
 47
0.0208333333333333
 47
0.0
 47
0.0
 47
0.0
 47
0.0
 47
0.0208333333333333
 47
0.0
 47
0.0
 47
0.0
 47
0.0
 47
1.0
 47
0.0
 47
0.0
 47
0.0
 47
0.0
 47
1.0
171
     0
172
     2
 49
0.0208333333333333
 49
0.0
 49
0.0
 49
0.0
 49
0.0
 49
0.0208333333333333
 49
0.0
 49
0.0
 49
0.0
 49
0.0
 49
1.0
 49
0.0
 49
0.0
 49
0.0
 49
0.0
 49
1.0
175
     0
176
     2
142
0.0208333333333333
142
0.0
142
0.0
142
0.0
142
0.0
142
0.0208333333333333
142
0.0
142
0.0
142
0.0
142
0.0
142
1.0
142
0.0
142
0.0
142
0.0
142
0.0
142
1.0
179
     0
270
     2
144
0.0208333333333333
144
0.0
144
0.0
144
0.0
144
0.0
144
0.0208333333333333
144
0.0
144
0.0
144
0.0
144
0.0
144
1.0
144
0.0
144
0.0
144
0.0
144
0.0
144
1.0
274
     2
147
0.0208333333333333
147
0.0
147
0.0
147
0.0
147
0.0
147
0.0208333333333333
147
0.0
147
0.0
147
0.0
147
0.0
147
1.0
147
0.0
147
0.0
147
0.0
147
0.0
147
1.0
  0
MATERIAL
  5
D9AC
102
{ACAD_REACTORS
330
18C
102
}
102
{ACAD_XDICTIONARY
360
1B1D8
102
}
330
18C
100
AcDbMaterial
  1
GLOBAL
 72
     0
 73
     2
 43
0.0208333333333333
 43
0.0
 43
0.0
 43
0.0
 43
0.0
 43
0.0208333333333333
 43
0.0
 43
0.0
 43
0.0
 43
0.0
 43
1.0
 43
0.0
 43
0.0
 43
0.0
 43
0.0
 43
1.0
 77
     0
 78
     2
 47
0.0208333333333333
 47
0.0
 47
0.0
 47
0.0
 47
0.0
 47
0.0208333333333333
 47
0.0
 47
0.0
 47
0.0
 47
0.0
 47
1.0
 47
0.0
 47
0.0
 47
0.0
 47
0.0
 47
1.0
171
     0
172
     2
 49
0.0208333333333333
 49
0.0
 49
0.0
 49
0.0
 49
0.0
 49
0.0208333333333333
 49
0.0
 49
0.0
 49
0.0
 49
0.0
 49
1.0
 49
0.0
 49
0.0
 49
0.0
 49
0.0
 49
1.0
175
     0
176
     2
142
0.0208333333333333
142
0.0
142
0.0
142
0.0
142
0.0
142
0.0208333333333333
142
0.0
142
0.0
142
0.0
142
0.0
142
1.0
142
0.0
142
0.0
142
0.0
142
0.0
142
1.0
179
     0
270
     2
144
0.0208333333333333
144
0.0
144
0.0
144
0.0
144
0.0
144
0.0208333333333333
144
0.0
144
0.0
144
0.0
144
0.0
144
1.0
144
0.0
144
0.0
144
0.0
144
0.0
144
1.0
274
     2
147
0.0208333333333333
147
0.0
147
0.0
147
0.0
147
0.0
147
0.0208333333333333
147
0.0
147
0.0
147
0.0
147
0.0
147
1.0
147
0.0
147
0.0
147
0.0
147
0.0
147
1.0
  0
ACAD_PROXY_OBJECT
  5
D9E8
102
{ACAD_REACTORS
330
D9E7
102
}
330
D9E7
100
AcDbZombieObject
 90
      499
 91
      511
 93
      610
310
40901902A4063FBFFFFFE000000000000002040AD7A3703D0AD73F4214DD185B99185C990000000000000104090141901A00000000000004100000000000000041025764000000000000300FC0
340
12
340
0
340
F
340
0
 94
        0
1001
ACAD_MLEADERVER
1070
     2
  0
MLINESTYLE
  5
1C
102
{ACAD_REACTORS
330
1B
102
}
330
1B
100
AcDbMlineStyle
  2
STANDARD
 70
     0
  3

 62
   256
 51
90.0
 52
90.0
 71
     2
 49
0.5
 62
   256
  6
BYLAYER
 49
-0.5
 62
   256
  6
BYLAYER
  0
ACAD_PROXY_OBJECT
  5
D9C6
102
{ACAD_REACTORS
330
D9C5
102
}
330
D9C5
100
AcDbZombieObject
 90
      499
 91
      510
 93
       41
310
903313A31580
  0
ACAD_PROXY_OBJECT
  5
D9C7
102
{ACAD_REACTORS
330
D9C5
102
}
330
D9C5
100
AcDbZombieObject
 90
      499
 91
      510
 93
      105
310
903313A324000000000000004000
  0
ACAD_PROXY_OBJECT
  5
D9C8
102
{ACAD_REACTORS
330
D9C5
102
}
330
D9C5
100
AcDbZombieObject
 90
      499
 91
      510
 93
      105
310
903313A344000000000000104000
  0
ACAD_PROXY_OBJECT
  5
D9C9
102
{ACAD_REACTORS
330
D9C5
102
}
330
D9C5
100
AcDbZombieObject
 90
      499
 91
      510
 93
      105
310
903313A354000000000000144000
  0
ACAD_PROXY_OBJECT
  5
D9CA
102
{ACAD_REACTORS
330
D9C5
102
}
330
D9C5
100
AcDbZombieObject
 90
      499
 91
      510
 93
      105
310
903313A384000000000000204000
  0
ACAD_PROXY_OBJECT
  5
D9CB
102
{ACAD_REACTORS
330
D9C5
102
}
330
D9C5
100
AcDbZombieObject
 90
      499
 91
      510
 93
      113
310
904313A31304000000000000244000
  0
ACAD_PROXY_OBJECT
  5
D9CC
102
{ACAD_REACTORS
330
D9C5
102
}
330
D9C5
100
AcDbZombieObject
 90
      499
 91
      510
 93
      113
310
904313A31364000000000000304000
  0
ACAD_PROXY_OBJECT
  5
D9CD
102
{ACAD_REACTORS
330
D9C5
102
}
330
D9C5
100
AcDbZombieObject
 90
      499
 91
      510
 93
      113
310
904313A32304000000000000344000
  0
ACAD_PROXY_OBJECT
  5
D9CE
102
{ACAD_REACTORS
330
D9C5
102
}
330
D9C5
100
AcDbZombieObject
 90
      499
 91
      510
 93
      113
310
904313A333040000000000003E4000
  0
ACAD_PROXY_OBJECT
  5
D9CF
102
{ACAD_REACTORS
330
D9C5
102
}
330
D9C5
100
AcDbZombieObject
 90
      499
 91
      510
 93
      113
310
904313A34304000000000000444000
  0
ACAD_PROXY_OBJECT
  5
D9D0
102
{ACAD_REACTORS
330
D9C5
102
}
330
D9C5
100
AcDbZombieObject
 90
      499
 91
      510
 93
      113
310
904313A35304000000000000494000
  0
ACAD_PROXY_OBJECT
  5
D9D1
102
{ACAD_REACTORS
330
D9C5
102
}
330
D9C5
100
AcDbZombieObject
 90
      499
 91
      510
 93
      121
310
905313A3130304000000000000594000
  0
ACAD_PROXY_OBJECT
  5
D9D2
102
{ACAD_REACTORS
330
D9C5
102
}
330
D9C5
100
AcDbZombieObject
 90
      499
 91
      510
 93
      105
310
903323A310000000000000010100
  0
ACAD_PROXY_OBJECT
  5
D9D3
102
{ACAD_REACTORS
330
D9C5
102
}
330
D9C5
100
AcDbZombieObject
 90
      499
 91
      510
 93
      105
310
903343A310000000000000410100
  0
ACAD_PROXY_OBJECT
  5
D9D4
102
{ACAD_REACTORS
330
D9C5
102
}
330
D9C5
100
AcDbZombieObject
 90
      499
 91
      510
 93
      105
310
903383A310000000000000810100
  0
ACAD_PROXY_OBJECT
  5
D9D5
102
{ACAD_REACTORS
330
D9C5
102
}
330
D9C5
100
AcDbZombieObject
 90
      499
 91
      510
 93
      113
310
90431303A310000000000000910100
  0
ACAD_PROXY_OBJECT
  5
D9D6
102
{ACAD_REACTORS
330
D9C5
102
}
330
D9C5
100
AcDbZombieObject
 90
      499
 91
      510
 93
      121
310
9053130303A310000000000001650100
  0
ACAD_PROXY_OBJECT
  5
D9D7
102
{ACAD_REACTORS
330
D9C5
102
}
330
D9C5
100
AcDbZombieObject
 90
      499
 91
      510
 93
      257
310
90E312F31323822203D2031272D3022000000000000200FC000000000000284000
  0
ACAD_PROXY_OBJECT
  5
D9D8
102
{ACAD_REACTORS
330
D9C5
102
}
330
D9C5
100
AcDbZombieObject
 90
      499
 91
      510
 93
      249
310
90D312F363422203D2031272D3022000000000000240FC000000000000284000
  0
ACAD_PROXY_OBJECT
  5
D9D9
102
{ACAD_REACTORS
330
D9C5
102
}
330
D9C5
100
AcDbZombieObject
 90
      499
 91
      510
 93
      249
310
90D312F333222203D2031272D3022000000000000280FC000000000000284000
  0
ACAD_PROXY_OBJECT
  5
D9DA
102
{ACAD_REACTORS
330
D9C5
102
}
330
D9C5
100
AcDbZombieObject
 90
      499
 91
      510
 93
      249
310
90D312F313622203D2031272D30220000000000002C0FC000000000000284000
  0
ACAD_PROXY_OBJECT
  5
D9DB
102
{ACAD_REACTORS
330
D9C5
102
}
330
D9C5
100
AcDbZombieObject
 90
      499
 91
      510
 93
      249
310
90D332F333222203D2031272D30220000000000002E0FC000000000000284000
  0
ACAD_PROXY_OBJECT
  5
D9DC
102
{ACAD_REACTORS
330
D9C5
102
}
330
D9C5
100
AcDbZombieObject
 90
      499
 91
      510
 93
      241
310
90C312F3822203D2031272D3022000000000000300FC000000000000284000
  0
ACAD_PROXY_OBJECT
  5
D9DD
102
{ACAD_REACTORS
330
D9C5
102
}
330
D9C5
100
AcDbZombieObject
 90
      499
 91
      510
 93
      249
310
90D332F313622203D2031272D3022000000000000320FC000000000000284000
  0
ACAD_PROXY_OBJECT
  5
D9DE
102
{ACAD_REACTORS
330
D9C5
102
}
330
D9C5
100
AcDbZombieObject
 90
      499
 91
      510
 93
      241
310
90C312F3422203D2031272D3022000000000000340FC000000000000284000
  0
ACAD_PROXY_OBJECT
  5
D9DF
102
{ACAD_REACTORS
330
D9C5
102
}
330
D9C5
100
AcDbZombieObject
 90
      499
 91
      510
 93
      241
310
90C332F3822203D2031272D3022000000000000360FC000000000000284000
  0
ACAD_PROXY_OBJECT
  5
D9E0
102
{ACAD_REACTORS
330
D9C5
102
}
330
D9C5
100
AcDbZombieObject
 90
      499
 91
      510
 93
      241
310
90C312F3222203D2031272D3022000000000000380FC000000000000284000
  0
ACAD_PROXY_OBJECT
  5
D9E1
102
{ACAD_REACTORS
330
D9C5
102
}
330
D9C5
100
AcDbZombieObject
 90
      499
 91
      510
 93
      241
310
90C332F3422203D2031272D30220000000000003A0FC000000000000284000
  0
ACAD_PROXY_OBJECT
  5
D9E2
102
{ACAD_REACTORS
330
D9C5
102
}
330
D9C5
100
AcDbZombieObject
 90
      499
 91
      510
 93
      161
310
90A3122203D2031272D30224000000000000284000
  0
ACAD_PROXY_OBJECT
  5
D9E3
102
{ACAD_REACTORS
330
D9C5
102
}
330
D9C5
100
AcDbZombieObject
 90
      499
 91
      510
 93
      257
310
90E312D312F3222203D2031272D30220000000000003E0FC000000000000284000
  0
ACAD_PROXY_OBJECT
  5
D9E4
102
{ACAD_REACTORS
330
D9C5
102
}
330
D9C5
100
AcDbZombieObject
 90
      499
 91
      510
 93
      225
310
90A3322203D2031272D302200000000000002100000000000000284000
  0
ACAD_PROXY_OBJECT
  5
D9E5
102
{ACAD_REACTORS
330
D9C5
102
}
330
D9C5
100
AcDbZombieObject
 90
      499
 91
      510
 93
      225
310
90A3622203D2031272D302200000000000006100000000000000284000
  0
ACAD_PROXY_OBJECT
  5
D9E6
102
{ACAD_REACTORS
330
D9C5
102
}
330
D9C5
100
AcDbZombieObject
 90
      499
 91
      510
 93
      249
310
90D31272D3022203D2031272D30220000000000000A100000000000000284000
  0
ACAD_PROXY_OBJECT
  5
D9BA
102
{ACAD_REACTORS
330
D9B4
102
}
330
D9B4
100
AcDbZombieObject
 90
      499
 91
      509
 93
      436
310
42CC9915DA5C99599C985B595049028333333333333E3BF0000000000000FB0107901411070040501600405405064090741402480A0340
1001
ACAD
1000
AcDbSavedByObjectVersion
1070
     0
  0
ACAD_PROXY_OBJECT
  5
D9BC
102
{ACAD_REACTORS
330
D9B4
102
}
330
D9B4
100
AcDbZombieObject
 90
      499
 91
      509
 93
      500
310
424CD108121A5919195B90640502408333333333333E3BF0000000000000FB01079024090700405020000000000001110200405405064090740C02480A0340
1001
ACAD
1000
AcDbSavedByObjectVersion
1070
     0
  0
ACAD_PROXY_OBJECT
  5
D9BB
102
{ACAD_REACTORS
330
D9B4
102
}
330
D9B4
100
AcDbZombieObject
 90
      499
 91
      509
 93
      436
310
42CCD915DA5C99599C985B595059028333333333333E3BF0000000000000FB0107901411070040501600405405064090741402480A0340
1001
ACAD
1000
AcDbSavedByObjectVersion
1070
     0
  0
ACAD_PROXY_OBJECT
  5
D9B9
102
{ACAD_REACTORS
330
D9B4
102
}
330
D9B4
100
AcDbZombieObject
 90
      499
 91
      509
 93
      388
310
4150985CDA58D07406404333333333333E3BF0000000000000FB0107A41107004050150841D405064090741402480A0350
1001
ACAD
1000
AcDbSavedByObjectVersion
1070
     0
  0
ACAD_PROXY_OBJECT
  5
D9C0
102
{ACAD_REACTORS
330
D9B4
102
}
330
D9B4
100
AcDbZombieObject
 90
      499
 91
      509
 93
      428
310
42109C9A59DA1D195B90C409028333333333333E3BF0000000000000FB010790141107004050150841D405064090741402480A029950
1001
ACAD
1000
AcDbSavedByObjectVersion
1070
     0
  0
ACAD_PROXY_OBJECT
  5
D9C4
102
{ACAD_REACTORS
330
D9B4
102
}
330
D9B4
100
AcDbZombieObject
 90
      499
 91
      509
 93
      452
310
42D0DBDB1BDC90DA185B99D95104090240C333333333333E3BF0000000000000FB0108901411070040501508421405064090741402480A0350
1001
ACAD
1000
AcDbSavedByObjectVersion
1070
     0
  0
ACAD_PROXY_OBJECT
  5
D9BD
102
{ACAD_REACTORS
330
D9B4
102
}
330
D9B4
100
AcDbZombieObject
 90
      499
 91
      509
 93
      500
310
4290DBDB98D95C1D1D585B10940D028333333333333E3BF0000000000000FB0107902409070040501000000000000111010841D405064090740C02480A0340
1001
ACAD
1000
AcDbSavedByObjectVersion
1070
     0
  0
ACAD_PROXY_OBJECT
  5
D9BF
102
{ACAD_REACTORS
330
D9B4
102
}
330
D9B4
100
AcDbZombieObject
 90
      499
 91
      509
 93
      412
310
40D11A5B50B409028333333333333E3BF0000000000000FB010790141107004050150841D405064090741402480A02677FFFFFD0
1001
ACAD
1000
AcDbSavedByObjectVersion
1070
     0
  0
ACAD_PROXY_OBJECT
  5
19C2F
102
{ACAD_REACTORS
330
D9B4
102
}
330
D9B4
100
AcDbZombieObject
 90
      499
 91
      509
 93
      452
310
43115919D950DBDB1BDC93D999916409028333333333333E3BF0000000000000FB010790141107004050150841D405064090741402480A0350
1001
ACAD
1000
AcDbSavedByObjectVersion
1070
     0
  0
ACAD_PROXY_OBJECT
  5
D9C3
102
{ACAD_REACTORS
330
D9B4
102
}
330
D9B4
100
AcDbZombieObject
 90
      499
 91
      509
 93
      444
310
42D19858D95C185D1D195C9B90F409028333333333333E3BF0000000000000FB010790141107004050150841D405064090741402480A0350
1001
ACAD
1000
AcDbSavedByObjectVersion
1070
     0
  0
ACAD_PROXY_OBJECT
  5
D9B5
102
{ACAD_REACTORS
330
D9B4
102
}
330
D9B4
100
AcDbZombieObject
 90
      499
 91
      509
 93
      388
310
41119B185D240901404333333333333E3BF0000000000000F9010740A41107004050150841D405064090741402480A1B50
1001
ACAD
1000
AcDbSavedByObjectVersion
1070
     0
  0
ACAD_PROXY_OBJECT
  5
D9B6
102
{ACAD_REACTORS
330
D9B4
102
}
330
D9B4
100
AcDbZombieObject
 90
      499
 91
      509
 93
      476
310
43519B185D15DA5D1A115919D95CD0140901404333333333333E3BF0000000000000F9010740901411070040501600405405064090741402480A1B50
1001
ACAD
1000
AcDbSavedByObjectVersion
1070
     0
  0
ACAD_PROXY_OBJECT
  5
D9B7
102
{ACAD_REACTORS
330
D9B4
102
}
330
D9B4
100
AcDbZombieObject
 90
      499
 91
      509
 93
      412
310
41D1DBDD5C985D5910240902404333333333333E3BF0000000000000F9010740A411070040501641D405064090741402480A1B50
1001
ACAD
1000
AcDbSavedByObjectVersion
1070
     0
  0
ACAD_PROXY_OBJECT
  5
D9B8
102
{ACAD_REACTORS
330
D9B4
102
}
330
D9B4
100
AcDbZombieObject
 90
      499
 91
      509
 93
      500
310
4411DBDD5C985D5915DA5D1A115919D95CD0340902404333333333333E3BF0000000000000F9010740901411070040501600405405064090741402480A1B50
1001
ACAD
1000
AcDbSavedByObjectVersion
1070
     0
  0
ACAD_PROXY_OBJECT
  5
19C7E
102
{ACAD_REACTORS
330
D9B4
102
}
330
D9B4
100
AcDbZombieObject
 90
      499
 91
      509
 93
      476
310
41921A5919195B90640502408333333333333E33F0000000000000F901079024090700405020000000000001110200405405064090740C02480A0340
1001
ACAD
1000
AcDbSavedByObjectVersion
1070
     0
  0
ACAD_PROXY_OBJECT
  5
19C2D
102
{ACAD_REACTORS
330
D9B4
102
}
330
D9B4
100
AcDbZombieObject
 90
      499
 91
      509
 93
      428
310
42529A5D1D195C93D999914409028333333333333E3BF0000000000000FB010790141107004050150A41D405064090741402480A0350
1001
ACAD
1000
AcDbSavedByObjectVersion
1070
     0
  0
ACAD_PROXY_OBJECT
  5
D9C2
102
{ACAD_REACTORS
330
D9B4
102
}
330
D9B4
100
AcDbZombieObject
 90
      499
 91
      509
 93
      444
310
42D31A5B995C185D1D195C9B90E409028333333333333E3BF0000000000000FB010790141107004050750841D405064090741402483A0350
1001
ACAD
1000
AcDbSavedByObjectVersion
1070
     0
  0
ACAD_PROXY_OBJECT
  5
19C84
102
{ACAD_REACTORS
330
D9B4
102
}
330
D9B4
100
AcDbZombieObject
 90
      499
 91
      509
 93
      484
310
42135BD9195B1A5B99D0A409038333333333333E33F0000000000000F901074090290700405010000000000201990108421405064090741402480A1B40
1001
ACAD
1000
AcDbSavedByObjectVersion
1070
     0
  0
ACAD_PROXY_OBJECT
  5
19C2E
102
{ACAD_REACTORS
330
D9B4
102
}
330
D9B4
100
AcDbZombieObject
 90
      499
 91
      509
 93
      444
310
42D3DD995C9A185B99D3D999915409028333333333333E3BF0000000000000FB010790141107004050150941D405064090741402480A0350
1001
ACAD
1000
AcDbSavedByObjectVersion
1070
     0
  0
ACAD_PROXY_OBJECT
  5
D9BE
102
{ACAD_REACTORS
330
D9B4
102
}
330
D9B4
100
AcDbZombieObject
 90
      499
 91
      509
 93
      420
310
425499585B1A5CDD1A58D08409028333333333333E3BF0000000000000FB01079019070040501508421405064090741402480A1B40
1001
ACAD
1000
AcDbSavedByObjectVersion
1070
     0
  0
ACAD_PROXY_OBJECT
  5
19C83
102
{ACAD_REACTORS
330
D9B4
102
}
330
D9B4
100
AcDbZombieObject
 90
      499
 91
      509
 93
      420
310
4194DA1859195911B40902404333333333333E33F0000000000000F9010740A41107004050150800405405064090840C02480A0B40
1001
ACAD
1000
AcDbSavedByObjectVersion
1070
     0
  0
ACAD_PROXY_OBJECT
  5
19C82
102
{ACAD_REACTORS
330
D9B4
102
}
330
D9B4
100
AcDbZombieObject
 90
      499
 91
      509
 93
      516
310
4454DA18591959081DDA5D1A08195919D95CD1A40902404333333333333E33F0000000000000F901074090142907004050250800405405064090740C02480A0B40
1001
ACAD
1000
AcDbSavedByObjectVersion
1070
     0
  0
ACAD_PROXY_OBJECT
  5
19C7F
102
{ACAD_REACTORS
330
D9B4
102
}
330
D9B4
100
AcDbZombieObject
 90
      499
 91
      509
 93
      532
310
4394DA1859195CC81BD98811DC985E5174090240C333333333333E33F0000000000000F901079024090741D01000000000000111010841D405064090740C02480A0340
1001
ACAD
1000
AcDbSavedByObjectVersion
1070
     0
  0
ACAD_PROXY_OBJECT
  5
19C80
102
{ACAD_REACTORS
330
D9B4
102
}
330
D9B4
100
AcDbZombieObject
 90
      499
 91
      509
 93
      476
310
41D4DAD95D18DA1E51840502408333333333333E33F0000000000000F901079024090741D01000000000000111010B41D405064090741802480A0340
1001
ACAD
1000
AcDbSavedByObjectVersion
1070
     0
  0
ACAD_PROXY_OBJECT
  5
D9C1
102
{ACAD_REACTORS
330
D9B4
102
}
330
D9B4
100
AcDbZombieObject
 90
      499
 91
      509
 93
      412
310
41D51A1A58DAD95B90D409028333333333333E3BF0000000000000FB010790141107004050150C41D405064090741402480A0350
1001
ACAD
1000
AcDbSavedByObjectVersion
1070
     0
  0
ACAD_PROXY_OBJECT
  5
19C7D
102
{ACAD_REACTORS
330
D9B4
102
}
330
D9B4
100
AcDbZombieObject
 90
      499
 91
      509
 93
      420
310
4255DA5C99599C985B595059028333333333333E33F0000000000000F90107901411070040501600405405064090740C02480A0340
1001
ACAD
1000
AcDbSavedByObjectVersion
1070
     0
  0
ACAD_PROXY_OBJECT
  5
19C81
102
{ACAD_REACTORS
330
D9B4
102
}
330
D9B4
100
AcDbZombieObject
 90
      499
 91
      509
 93
      404
310
41560B54985E51940902404000000000000E03F0000000000000F9010740501907004050150841D405064090740C02480A1B40
1001
ACAD
1000
AcDbSavedByObjectVersion
1070
     0
  0
XRECORD
  5
1B037
102
{ACAD_REACTORS
330
1B036
102
}
330
1B036
100
AcDbXrecord
340
18D
  0
XRECORD
  5
1B038
102
{ACAD_REACTORS
330
1B036
102
}
330
1B036
100
AcDbXrecord
340
18C
  0
DICTIONARYVAR
  5
1A68D
102
{ACAD_REACTORS
330
37
102
}
330
37
100
DictionaryVariables
280
     0
  1
1:1
  0
DICTIONARYVAR
  5
DA6A
102
{ACAD_REACTORS
330
37
102
}
330
37
100
DictionaryVariables
280
     0
  1
Standard
  0
DICTIONARYVAR
  5
29E
102
{ACAD_REACTORS
330
37
102
}
330
37
100
DictionaryVariables
280
     0
  1
Standard
  0
DICTIONARYVAR
  5
38
102
{ACAD_REACTORS
330
37
102
}
330
37
100
DictionaryVariables
280
     0
  1
-1
  0
DICTIONARYVAR
  5
1CE
102
{ACAD_REACTORS
330
37
102
}
330
37
100
DictionaryVariables
280
     0
  1
2
  0
DICTIONARYVAR
  5
704E
102
{ACAD_REACTORS
330
37
102
}
330
37
100
DictionaryVariables
280
     0
  1
1
  0
DICTIONARYVAR
  5
DA6D
102
{ACAD_REACTORS
330
37
102
}
330
37
100
DictionaryVariables
280
     0
  1
0
  0
DICTIONARYVAR
  5
7052
102
{ACAD_REACTORS
330
37
102
}
330
37
100
DictionaryVariables
280
     0
  1
8
  0
DICTIONARYVAR
  5
7051
102
{ACAD_REACTORS
330
37
102
}
330
37
100
DictionaryVariables
280
     0
  1
1
  0
DICTIONARYVAR
  5
1A6DD
102
{ACAD_REACTORS
330
37
102
}
330
37
100
DictionaryVariables
280
     0
  1
0
  0
DICTIONARYVAR
  5
704F
102
{ACAD_REACTORS
330
37
102
}
330
37
100
DictionaryVariables
280
     0
  1
8
  0
DICTIONARYVAR
  5
7050
102
{ACAD_REACTORS
330
37
102
}
330
37
100
DictionaryVariables
280
     0
  1
2
  0
DICTIONARYVAR
  5
1CF
102
{ACAD_REACTORS
330
37
102
}
330
37
100
DictionaryVariables
280
     0
  1

  0
DICTIONARYVAR
  5
DA6C
102
{ACAD_REACTORS
330
37
102
}
330
37
100
DictionaryVariables
280
     0
  1
127
  0
DICTIONARYVAR
  5
19C7C
102
{ACAD_REACTORS
330
37
102
}
330
37
100
DictionaryVariables
280
     0
  1
2
  0
DICTIONARY
  5
1B1D4
330
D9A4
100
AcDbDictionary
  3
ACAD_XREC_ROUNDTRIP
360
1B1D5
1001
ACAD
1000
TREAT_AS_HARD
1070
     1
  0
DICTIONARY
  5
1B1D6
330
D99C
100
AcDbDictionary
  3
ACAD_XREC_ROUNDTRIP
360
1B1D7
1001
ACAD
1000
TREAT_AS_HARD
1070
     1
  0
DICTIONARY
  5
1B1D8
330
D9AC
100
AcDbDictionary
  3
ACAD_XREC_ROUNDTRIP
360
1B1D9
1001
ACAD
1000
TREAT_AS_HARD
1070
     1
  0
XRECORD
  5
1B1D5
102
{ACAD_REACTORS
330
1B1D4
102
}
330
1B1D4
100
AcDbXrecord
102
MATERIAL
148
0.0
149
0.0
149
0.0
 93
        0
 94
      127
282
     0
 72
     0
 77
     0
171
     0
175
     0
179
     0
273
     0
  0
XRECORD
  5
1B1D7
102
{ACAD_REACTORS
330
1B1D6
102
}
330
1B1D6
100
AcDbXrecord
102
MATERIAL
148
0.0
149
0.0
149
0.0
 93
        0
 94
      127
282
     0
 72
     0
 77
     0
171
     0
175
     0
179
     0
273
     0
  0
XRECORD
  5
1B1D9
102
{ACAD_REACTORS
330
1B1D8
102
}
330
1B1D8
100
AcDbXrecord
102
MATERIAL
148
0.0
149
0.0
149
0.0
 93
        0
 94
      127
282
     0
 72
     0
 77
     0
171
     0
175
     0
179
     0
273
     0
  0
ENDSEC
  0
EOF
