  0
SECTION
  2
HEADER
  9
$ACADVER
  1
AC1012
  9
$DWGCODEPAGE
  3
ansi_932
  9
$INSBASE
 10
0.0
 20
0.0
 30
0.0
  9
$EXTMIN
 10
1946.305069536985
 20
-716.6589059426425
 30
0.0
  9
$EXTMAX
 10
2577.170633198027
 20
-293.6700795169796
 30
0.0
  9
$LIMMIN
 10
0.0
 20
0.0
  9
$LIMMAX
 10
420.0
 20
297.0
  9
$ORTHOMODE
 70
     0
  9
$REGENMODE
 70
     1
  9
$FILLMODE
 70
     1
  9
$QTEXTMODE
 70
     0
  9
$MIRRTEXT
 70
     0
  9
$DRAGMODE
 70
     2
  9
$LTSCALE
 40
0.5
  9
$OSMODE
 70
 14463
  9
$ATTMODE
 70
     1
  9
$TEXTSIZE
 40
4.0
  9
$TRACEWID
 40
1.0
  9
$TEXTSTYLE
  7
STANDARD
  9
$CLAYER
  8
1TEXT
  9
$CELTYPE
  6
BYLAYER
  9
$CECOLOR
 62
   256
  9
$CELTSCALE
 40
1.0
  9
$DELOBJ
 70
     1
  9
$DISPSILH
 70
     0
  9
$DIMSCALE
 40
1.0
  9
$DIMASZ
 40
2.0
  9
$DIMEXO
 40
0.0
  9
$DIMDLI
 40
7.0
  9
$DIMRND
 40
0.0
  9
$DIMDLE
 40
0.0
  9
$DIMEXE
 40
1.0
  9
$DIMTP
 40
0.0
  9
$DIMTM
 40
0.0
  9
$DIMTXT
 40
3.5
  9
$DIMCEN
 40
0.0
  9
$DIMTSZ
 40
0.0
  9
$DIMTOL
 70
     0
  9
$DIMLIM
 70
     0
  9
$DIMTIH
 70
     0
  9
$DIMTOH
 70
     0
  9
$DIMSE1
 70
     0
  9
$DIMSE2
 70
     0
  9
$DIMTAD
 70
     1
  9
$DIMZIN
 70
     8
  9
$DIMBLK
  1

  9
$DIMASO
 70
     1
  9
$DIMSHO
 70
     1
  9
$DIMPOST
  1
 
  9
$DIMAPOST
  1

  9
$DIMALT
 70
     0
  9
$DIMALTD
 70
     2
  9
$DIMALTF
 40
25.4
  9
$DIMLFAC
 40
1.0
  9
$DIMTOFL
 70
     1
  9
$DIMTVP
 40
0.0
  9
$DIMTIX
 70
     0
  9
$DIMSOXD
 70
     0
  9
$DIMSAH
 70
     1
  9
$DIMBLK1
  1
OPEN30
  9
$DIMBLK2
  1
OPEN30
  9
$DIMSTYLE
  2
NEWX10
  9
$DIMCLRD
 70
   256
  9
$DIMCLRE
 70
   256
  9
$DIMCLRT
 70
   201
  9
$DIMTFAC
 40
0.7
  9
$DIMGAP
 40
0.7
  9
$DIMJUST
 70
     0
  9
$DIMSD1
 70
     0
  9
$DIMSD2
 70
     0
  9
$DIMTOLJ
 70
     1
  9
$DIMTZIN
 70
     8
  9
$DIMALTZ
 70
     0
  9
$DIMALTTZ
 70
     0
  9
$DIMFIT
 70
     2
  9
$DIMUPT
 70
     0
  9
$DIMUNIT
 70
     2
  9
$DIMDEC
 70
     2
  9
$DIMTDEC
 70
     4
  9
$DIMALTU
 70
     2
  9
$DIMALTTD
 70
     2
  9
$DIMTXSTY
  7
STANDARD
  9
$DIMAUNIT
 70
     0
  9
$LUNITS
 70
     2
  9
$LUPREC
 70
     4
  9
$SKETCHINC
 40
1.0
  9
$FILLETRAD
 40
0.0
  9
$AUNITS
 70
     0
  9
$AUPREC
 70
     2
  9
$MENU
  1
acad
  9
$ELEVATION
 40
0.0
  9
$PELEVATION
 40
0.0
  9
$THICKNESS
 40
0.0
  9
$LIMCHECK
 70
     0
  9
$CHAMFERA
 40
10.0
  9
$CHAMFERB
 40
10.0
  9
$CHAMFERC
 40
20.0
  9
$CHAMFERD
 40
0.0
  9
$SKPOLY
 70
     0
  9
$TDCREATE
 40
2451318.621352917
  9
$TDUPDATE
 40
2458159.547994317
  9
$TDINDWG
 40
1.6463156366
  9
$TDUSRTIMER
 40
1.6463156366
  9
$USRTIMER
 70
     1
  9
$ANGBASE
 50
0.0
  9
$ANGDIR
 70
     0
  9
$PDMODE
 70
     0
  9
$PDSIZE
 40
0.0
  9
$PLINEWID
 40
0.0
  9
$COORDS
 70
     2
  9
$SPLFRAME
 70
     0
  9
$SPLINETYPE
 70
     6
  9
$SPLINESEGS
 70
     8
  9
$ATTDIA
 70
     0
  9
$ATTREQ
 70
     1
  9
$HANDLING
 70
     1
  9
$HANDSEED
  5
1B227
  9
$SURFTAB1
 70
     6
  9
$SURFTAB2
 70
     6
  9
$SURFTYPE
 70
     6
  9
$SURFU
 70
     6
  9
$SURFV
 70
     6
  9
$UCSNAME
  2

  9
$UCSORG
 10
0.0
 20
0.0
 30
0.0
  9
$UCSXDIR
 10
1.0
 20
0.0
 30
0.0
  9
$UCSYDIR
 10
0.0
 20
1.0
 30
0.0
  9
$PUCSNAME
  2

  9
$PUCSORG
 10
0.0
 20
0.0
 30
0.0
  9
$PUCSXDIR
 10
1.0
 20
0.0
 30
0.0
  9
$PUCSYDIR
 10
0.0
 20
1.0
 30
0.0
  9
$USERI1
 70
     0
  9
$USERI2
 70
     0
  9
$USERI3
 70
     0
  9
$USERI4
 70
     0
  9
$USERI5
 70
     0
  9
$USERR1
 40
0.0
  9
$USERR2
 40
0.0
  9
$USERR3
 40
0.0
  9
$USERR4
 40
0.0
  9
$USERR5
 40
0.0
  9
$WORLDVIEW
 70
     1
  9
$SHADEDGE
 70
     3
  9
$SHADEDIF
 70
    70
  9
$TILEMODE
 70
     1
  9
$MAXACTVP
 70
    48
  9
$PINSBASE
 10
0.0
 20
0.0
 30
0.0
  9
$PLIMCHECK
 70
     0
  9
$PEXTMIN
 10
1.000000000000000E+20
 20
1.000000000000000E+20
 30
1.000000000000000E+20
  9
$PEXTMAX
 10
-1.000000000000000E+20
 20
-1.000000000000000E+20
 30
-1.000000000000000E+20
  9
$PLIMMIN
 10
0.0
 20
0.0
  9
$PLIMMAX
 10
420.0
 20
297.0
  9
$UNITMODE
 70
     0
  9
$VISRETAIN
 70
     1
  9
$PLINEGEN
 70
     0
  9
$PSLTSCALE
 70
     1
  9
$TREEDEPTH
 70
  3020
  9
$PICKSTYLE
 70
     1
  9
$CMLSTYLE
  2
STANDARD
  9
$CMLJUST
 70
     0
  9
$CMLSCALE
 40
20.0
  9
$SAVEIMAGES
 70
     1
  0
ENDSEC
  0
SECTION
  2
CLASSES
  0
CLASS
  1
DICTIONARYVAR
  2
AcDbDictionaryVar
  3
ObjectDBX Classes
 90
        0
280
     0
281
     0
  0
CLASS
  1
IDBUFFER
  2
AcDbIdBuffer
  3
ObjectDBX Classes
 90
    32768
280
     0
281
     0
  0
CLASS
  1
LWPOLYLINE
  2
AcDbPolyline
  3
ObjectDBX Classes
 90
    32768
280
     0
281
     1
  0
CLASS
  1
ACDBDICTIONARYWDFLT
  2
AcDbDictionaryWithDefault
  3
ObjectDBX Classes
 90
    32768
280
     0
281
     0
  0
CLASS
  1
ACDBPLACEHOLDER
  2
AcDbPlaceHolder
  3
ObjectDBX Classes
 90
        0
280
     0
281
     0
  0
CLASS
  1
LAYOUT
  2
AcDbLayout
  3
ObjectDBX Classes
 90
        0
280
     0
281
     0
  0
CLASS
  1
TABLESTYLE
  2
AcDbTableStyle
  3
ObjectDBX Classes
 90
     4095
280
     0
281
     0
  0
CLASS
  1
SORTENTSTABLE
  2
AcDbSortentsTable
  3
ObjectDBX Classes
 90
    32768
280
     0
281
     0
  0
CLASS
  1
MATERIAL
  2
AcDbMaterial
  3
ObjectDBX Classes
 90
     1153
280
     0
281
     0
  0
CLASS
  1
VISUALSTYLE
  2
AcDbVisualStyle
  3
ObjectDBX Classes
 90
     4095
280
     0
281
     0
  0
CLASS
  1
SCALE
  2
AcDbScale
  3
ObjectDBX Classes
 90
     1153
280
     0
281
     0
  0
CLASS
  1
MLEADERSTYLE
  2
AcDbMLeaderStyle
  3
ACDB_MLEADERSTYLE_CLASS
 90
     4095
280
     0
281
     0
  0
CLASS
  1
CELLSTYLEMAP
  2
AcDbCellStyleMap
  3
ObjectDBX Classes
 90
     1152
280
     0
281
     0
  0
CLASS
  1
SUN
  2
AcDbSun
  3
SCENEOE
 90
     1153
280
     0
281
     0
  0
CLASS
  1
XRECORD
  2
AcDbXrecord
  3
ObjectDBX Classes
 90
    32768
280
     0
281
     0
  0
CLASS
  1
HATCH
  2
AcDbHatch
  3
ObjectDBX Classes
 90
    32768
280
     0
281
     1
  0
ENDSEC
  0
SECTION
  2
TABLES
  0
TABLE
  2
VPORT
  5
8
330
0
100
AcDbSymbolTable
 70
     1
  0
VPORT
  5
D991
330
8
100
AcDbSymbolTableRecord
100
AcDbViewportTableRecord
  2
*ACTIVE
 70
     0
 10
0.0
 20
0.0
 11
1.0
 21
1.0
 12
2261.737851367506
 22
-505.1644927298111
 13
0.0
 23
0.0
 14
10.0
 24
10.0
 15
10.0
 25
10.0
 16
0.0
 26
0.0
 36
1.0
 17
0.0
 27
0.0
 37
0.0
 40
454.1564241622908
 41
1.871481028151775
 42
50.0
 43
0.0
 44
0.0
 50
0.0
 51
0.0
 71
    16
 72
   100
 73
     1
 74
     1
 75
     0
 76
     0
 77
     0
 78
     0
  0
ENDTAB
  0
TABLE
  2
LTYPE
  5
5
330
0
100
AcDbSymbolTable
 70
     3
  0
LTYPE
  5
12
330
5
100
AcDbSymbolTableRecord
100
AcDbLinetypeTableRecord
  2
BYBLOCK
 70
     0
  3

 72
    65
 73
     0
 40
0.0
  0
LTYPE
  5
13
330
5
100
AcDbSymbolTableRecord
100
AcDbLinetypeTableRecord
  2
BYLAYER
 70
     0
  3

 72
    65
 73
     0
 40
0.0
  0
LTYPE
  5
14
330
5
100
AcDbSymbolTableRecord
100
AcDbLinetypeTableRecord
  2
CONTINUOUS
 70
     0
  3
Solid line
 72
    65
 73
     0
 40
0.0
  0
LTYPE
  5
2C03
330
5
100
AcDbSymbolTableRecord
100
AcDbLinetypeTableRecord
  2
HIDDEN
 70
     0
  3
Hidden __ __ __ __ __ __ __ __ __ __ __ __ __ _
 72
    65
 73
     2
 40
9.524999999999999
 49
6.35
 74
     0
 49
-3.175
 74
     0
  0
LTYPE
  5
13839
330
5
100
AcDbSymbolTableRecord
100
AcDbLinetypeTableRecord
  2
CENTER2
 70
     0
  3
Center (.5x) ___ _ ___ _ ___ _ ___ _ ___ _ ___
 72
    65
 73
     4
 40
28.575
 49
19.05
 74
     0
 49
-3.175
 74
     0
 49
3.175
 74
     0
 49
-3.175
 74
     0
  0
ENDTAB
  0
TABLE
  2
LAYER
  5
2
102
{ACAD_XDICTIONARY
360
E6A6
102
}
330
0
100
AcDbSymbolTable
 70
     6
  0
LAYER
  5
E
102
{ACAD_XDICTIONARY
360
DA05
102
}
330
2
100
AcDbSymbolTableRecord
100
AcDbLayerTableRecord
  2
0
 70
     0
 62
     7
  6
CONTINUOUS
  0
LAYER
  5
29
102
{ACAD_XDICTIONARY
360
DA07
102
}
330
2
100
AcDbSymbolTableRecord
100
AcDbLayerTableRecord
  2
1CENTER
 70
     0
 62
     7
  6
CENTER2
  0
LAYER
  5
31
102
{ACAD_XDICTIONARY
360
DA09
102
}
330
2
100
AcDbSymbolTableRecord
100
AcDbLayerTableRecord
  2
1TEXT
 70
     0
 62
     7
  6
CONTINUOUS
  0
LAYER
  5
243
102
{ACAD_XDICTIONARY
360
DA0F
102
}
330
2
100
AcDbSymbolTableRecord
100
AcDbLayerTableRecord
  2
01
 70
     0
 62
     1
  6
CONTINUOUS
  0
LAYER
  5
24E
102
{ACAD_XDICTIONARY
360
DA15
102
}
330
2
100
AcDbSymbolTableRecord
100
AcDbLayerTableRecord
  2
1DIM
 70
     0
 62
     7
  6
CONTINUOUS
  0
LAYER
  5
2C05
102
{ACAD_XDICTIONARY
360
DA23
102
}
330
2
100
AcDbSymbolTableRecord
100
AcDbLayerTableRecord
  2
1HIDDEN
 70
     0
 62
     7
  6
HIDDEN
  0
ENDTAB
  0
TABLE
  2
STYLE
  5
3
330
0
100
AcDbSymbolTable
 70
     1
  0
STYLE
  5
F
330
3
100
AcDbSymbolTableRecord
100
AcDbTextStyleTableRecord
  2
STANDARD
 70
     0
 40
0.0
 41
1.0
 50
0.0
 71
     0
 42
4.0
  3
txt.shx
  4
extfont.shx
  0
ENDTAB
  0
TABLE
  2
VIEW
  5
6
330
0
100
AcDbSymbolTable
 70
     0
  0
ENDTAB
  0
TABLE
  2
UCS
  5
7
330
0
100
AcDbSymbolTable
 70
     0
  0
ENDTAB
  0
TABLE
  2
APPID
  5
9
330
0
100
AcDbSymbolTable
 70
    15
  0
APPID
  5
10
330
9
100
AcDbSymbolTableRecord
100
AcDbRegAppTableRecord
  2
ACAD
 70
     0
  0
APPID
  5
21
330
9
100
AcDbSymbolTableRecord
100
AcDbRegAppTableRecord
  2
DRAWINGVARIABLESXDATA
 70
     0
  0
APPID
  5
64
330
9
100
AcDbSymbolTableRecord
100
AcDbRegAppTableRecord
  2
CONTENTTABDATA
 70
     0
  0
APPID
  5
65
330
9
100
AcDbSymbolTableRecord
100
AcDbRegAppTableRecord
  2
CONTENTCURRENTTAB
 70
     0
  0
APPID
  5
66
330
9
100
AcDbSymbolTableRecord
100
AcDbRegAppTableRecord
  2
CONTENTBLOCKDESCRIPTION
 70
     0
  0
APPID
  5
67
330
9
100
AcDbSymbolTableRecord
100
AcDbRegAppTableRecord
  2
CONTENTBLOCKICON
 70
     0
  0
APPID
  5
68
330
9
100
AcDbSymbolTableRecord
100
AcDbRegAppTableRecord
  2
CONTENTLONGBLOCKNAME
 70
     0
  0
APPID
  5
2AE
330
9
100
AcDbSymbolTableRecord
100
AcDbRegAppTableRecord
  2
ACAD_PSEXT
 70
     0
  0
APPID
  5
D9E9
330
9
100
AcDbSymbolTableRecord
100
AcDbRegAppTableRecord
  2
ACAD_MLEADERVER
 70
     0
  0
APPID
  5
19CF0
330
9
100
AcDbSymbolTableRecord
100
AcDbRegAppTableRecord
  2
ACADANNOTATIVE
 70
     0
  0
APPID
  5
19CF1
330
9
100
AcDbSymbolTableRecord
100
AcDbRegAppTableRecord
  2
ACDBBLOCKREPETAG
 70
     0
  0
APPID
  5
19CF2
330
9
100
AcDbSymbolTableRecord
100
AcDbRegAppTableRecord
  2
ACLAYERTOOLS
 70
     0
  0
APPID
  5
19CF3
330
9
100
AcDbSymbolTableRecord
100
AcDbRegAppTableRecord
  2
ACAD_NAV_VCDISPLAY
 70
     0
  0
APPID
  5
1A86C
330
9
100
AcDbSymbolTableRecord
100
AcDbRegAppTableRecord
  2
ACAD_OBJECT_CHANGE_GUID
 70
     0
  0
APPID
  5
1AA0C
330
9
100
AcDbSymbolTableRecord
100
AcDbRegAppTableRecord
  2
ACAECLAYERSTANDARD
 70
     0
  0
ENDTAB
  0
TABLE
  2
DIMSTYLE
  5
A
330
0
100
AcDbSymbolTable
 70
     1
  0
DIMSTYLE
105
48
330
A
100
AcDbSymbolTableRecord
100
AcDbDimStyleTableRecord
  2
NEWX10
 70
     0
  3
 
  4

  5

  6
OPEN30
  7
OPEN30
 40
1.0
 41
2.0
 42
0.0
 43
7.0
 44
1.0
 45
0.0
 46
0.0
 47
0.0
 48
0.0
140
3.5
141
0.0
142
0.0
143
25.4
144
1.0
145
0.0
146
0.7
147
0.7
 71
     0
 72
     0
 73
     0
 74
     0
 75
     0
 76
     0
 77
     1
 78
     8
170
     0
171
     2
172
     1
173
     1
174
     0
175
     0
176
   256
177
   256
178
   201
179
     2
270
     2
271
     2
272
     4
273
     2
274
     2
340
F
275
     0
280
     0
281
     0
282
     0
283
     1
284
     8
285
     0
286
     0
287
     2
288
     0
  0
ENDTAB
  0
TABLE
  2
BLOCK_RECORD
  5
1
330
0
100
AcDbSymbolTable
 70
     8
  0
BLOCK_RECORD
  5
18
102
{ACAD_XDICTIONARY
360
88F
102
}
330
1
100
AcDbSymbolTableRecord
100
AcDbBlockTableRecord
  2
*MODEL_SPACE
  0
BLOCK_RECORD
  5
15
330
1
100
AcDbSymbolTableRecord
100
AcDbBlockTableRecord
  2
*PAPER_SPACE
  0
BLOCK_RECORD
  5
42
330
1
100
AcDbSymbolTableRecord
100
AcDbBlockTableRecord
  2
_OPEN30
  0
BLOCK_RECORD
  5
19D42
330
1
100
AcDbSymbolTableRecord
100
AcDbBlockTableRecord
  2
A3WAKUKAWAJUN2017_HYOUDAI_
  0
BLOCK_RECORD
  5
1B087
330
1
100
AcDbSymbolTableRecord
100
AcDbBlockTableRecord
  2
*X148
  0
BLOCK_RECORD
  5
1B0D5
330
1
100
AcDbSymbolTableRecord
100
AcDbBlockTableRecord
  2
*X149
  0
BLOCK_RECORD
  5
1B127
330
1
100
AcDbSymbolTableRecord
100
AcDbBlockTableRecord
  2
*X150
  0
BLOCK_RECORD
  5
1B178
330
1
100
AcDbSymbolTableRecord
100
AcDbBlockTableRecord
  2
*X151
  0
BLOCK_RECORD
  5
1B1B5
330
1
100
AcDbSymbolTableRecord
100
AcDbBlockTableRecord
  2
*X152
  0
BLOCK_RECORD
  5
1B1F5
330
1
100
AcDbSymbolTableRecord
100
AcDbBlockTableRecord
  2
*X153
  0
ENDTAB
  0
ENDSEC
  0
SECTION
  2
BLOCKS
  0
BLOCK
  5
19
330
18
100
AcDbEntity
  8
0
100
AcDbBlockBegin
  2
*MODEL_SPACE
 70
     0
 10
0.0
 20
0.0
 30
0.0
  3
*MODEL_SPACE
  1

  0
ENDBLK
  5
1A
330
18
100
AcDbEntity
  8
0
100
AcDbBlockEnd
  0
BLOCK
  5
16
330
15
100
AcDbEntity
 67
     1
  8
0
100
AcDbBlockBegin
  2
*PAPER_SPACE
 70
     0
 10
0.0
 20
0.0
 30
0.0
  3
*PAPER_SPACE
  1

  0
ENDBLK
  5
17
330
15
100
AcDbEntity
 67
     1
  8
0
100
AcDbBlockEnd
  0
BLOCK
  5
43
330
42
100
AcDbEntity
  8
0
100
AcDbBlockBegin
  2
_OPEN30
 70
     0
 10
0.0
 20
0.0
 30
0.0
  3
_OPEN30
  1

  0
LINE
  5
44
330
42
100
AcDbEntity
  8
0
  6
BYBLOCK
 62
     0
100
AcDbLine
 10
-1.0
 20
0.26794919
 30
0.0
 11
0.0
 21
0.0
 31
0.0
  0
LINE
  5
45
330
42
100
AcDbEntity
  8
0
  6
BYBLOCK
 62
     0
100
AcDbLine
 10
0.0
 20
0.0
 30
0.0
 11
-1.0
 21
-0.26794919
 31
0.0
  0
LINE
  5
46
330
42
100
AcDbEntity
  8
0
  6
BYBLOCK
 62
     0
100
AcDbLine
 10
0.0
 20
0.0
 30
0.0
 11
-1.0
 21
0.0
 31
0.0
  0
ENDBLK
  5
47
330
42
100
AcDbEntity
  8
0
100
AcDbBlockEnd
  0
BLOCK
  5
1A550
330
19D42
100
AcDbEntity
  8
0
100
AcDbBlockBegin
  2
A3WAKUKAWAJUN2017_HYOUDAI_
 70
     0
 10
0.0
 20
0.0
 30
0.0
  3
A3WAKUKAWAJUN2017_HYOUDAI_
  1

  0
LINE
  5
19D44
330
19D42
100
AcDbEntity
  8
0
100
AcDbLine
 10
13.26299999998673
 20
-0.0001000000000317
 30
0.0
 11
9.236999999990758
 21
8.999899999990987
 31
0.0
1001
ACAD
1000
ASC_BOUNDS
1002
{
1070
    19
1005
19D85
1002
}
  0
LINE
  5
19D45
330
19D42
100
AcDbEntity
  8
0
100
AcDbLine
 10
5.657999999994331
 20
0.9999999999989768
 30
0.0
 11
9.236999999990758
 21
8.999999999991019
 31
0.0
1001
ACAD
1000
ASC_BOUNDS
1002
{
1070
    19
1005
19D85
1002
}
  0
LINE
  5
19D46
330
19D42
100
AcDbEntity
  8
0
100
AcDbLine
 10
18.59199999998134
 20
-0.2368999999997641
 30
0.0
 11
16.46099999998353
 21
5.432899999994561
 31
0.0
1001
ACAD
1000
ASC_BOUNDS
1002
{
1070
    19
1005
19D86
1002
}
  0
LINE
  5
19D47
330
19D42
100
AcDbEntity
  8
0
100
AcDbLine
 10
18.59199999998134
 20
-0.2368999999997641
 30
0.0
 11
22.38199999997767
 21
8.763099999991255
 31
0.0
1001
ACAD
1000
ASC_BOUNDS
1002
{
1070
    19
1005
19D86
1002
}
  0
LINE
  5
19D48
330
19D42
100
AcDbEntity
  8
0
100
AcDbLine
 10
14.32899999998563
 20
-0.2368999999997641
 30
0.0
 11
16.46099999998353
 21
5.432899999994561
 31
0.0
1001
ACAD
1000
ASC_BOUNDS
1002
{
1070
    19
1005
19D86
1002
}
  0
LINE
  5
19D49
330
19D42
100
AcDbEntity
  8
0
100
AcDbLine
 10
14.32899999998563
 20
-0.2368999999997641
 30
0.0
 11
10.53899999998941
 21
8.763099999991255
 31
0.0
1001
ACAD
1000
ASC_BOUNDS
1002
{
1070
    19
1005
19D86
1002
}
  0
LINE
  5
19D4A
330
19D42
100
AcDbEntity
  8
0
100
AcDbLine
 10
19.53899999998043
 20
-0.0001000000000317
 30
0.0
 11
23.56599999997638
 21
8.999899999990987
 31
0.0
1001
ACAD
1000
ASC_BOUNDS
1002
{
1070
    19
1005
19D87
1002
}
  0
LINE
  5
19D4B
330
19D42
100
AcDbEntity
  8
0
100
AcDbLine
 10
26.97358892824991
 20
1.383099999991202
 30
0.0
 11
23.56599999997638
 21
8.999899999990987
 31
0.0
1001
ACAD
1000
ASC_BOUNDS
1002
{
1070
    19
1005
19D87
1002
}
  0
LINE
  5
19D4C
330
19D42
100
AcDbEntity
  8
0
100
AcDbLine
 10
5.657999999994331
 20
0.9999999999989768
 30
0.0
 11
3.181999999996833
 21
4.668599999995308
 31
0.0
1001
ACAD
1000
ASC_BOUNDS
1002
{
1070
    19
1005
19D85
1002
}
  0
LINE
  5
19D4D
330
19D42
100
AcDbEntity
  8
0
100
AcDbLine
 10
4.617999999995391
 20
-0.0001000000000317
 30
0.0
 11
1.420999999998571
 21
4.736799999995242
 31
0.0
1001
ACAD
1000
ASC_BOUNDS
1002
{
1070
    19
1005
19D85
1002
}
  0
LINE
  5
19D4E
330
19D42
100
AcDbEntity
  8
0
100
AcDbLine
 10
1.420999999998571
 20
8.763099999991255
 30
0.0
 11
1.420999999998571
 21
0.0
 31
0.0
1001
ACAD
1000
ASC_BOUNDS
1002
{
1070
    19
1005
19D8A
1002
}
  0
LINE
  5
19D4F
330
19D42
100
AcDbEntity
  8
0
100
AcDbLine
 10
0.0
 20
8.763099999991255
 30
0.0
 11
0.0
 21
0.0
 31
0.0
1001
ACAD
1000
ASC_BOUNDS
1002
{
1070
    19
1005
19D8A
1002
}
  0
LINE
  5
19D50
330
19D42
100
AcDbEntity
  8
0
100
AcDbLine
 10
6.766999999993232
 20
-0.0001000000000317
 30
0.0
 11
7.826999999992154
 21
2.368399999997621
 31
0.0
1001
ACAD
1000
ASC_BOUNDS
1002
{
1070
    19
1005
19D85
1002
}
  0
LINE
  5
19D51
330
19D42
100
AcDbEntity
  8
0
100
AcDbLine
 10
0.0
 20
0.0
 30
0.0
 11
1.420999999998571
 21
0.0
 31
0.0
1001
ACAD
1000
ASC_BOUNDS
1002
{
1070
    19
1005
19D8A
1002
}
  0
LINE
  5
19D52
330
19D42
100
AcDbEntity
  8
0
100
AcDbLine
 10
4.617999999995391
 20
0.0
 30
0.0
 11
6.766999999993232
 21
0.0
 31
0.0
1001
ACAD
1000
ASC_BOUNDS
1002
{
1070
    19
1005
19D85
1002
}
  0
LINE
  5
19D53
330
19D42
100
AcDbEntity
  8
0
100
AcDbLine
 10
11.70599999998831
 20
-0.0001000000000317
 30
0.0
 11
10.64699999998936
 21
2.368399999997621
 31
0.0
1001
ACAD
1000
ASC_BOUNDS
1002
{
1070
    19
1005
19D85
1002
}
  0
LINE
  5
19D54
330
19D42
100
AcDbEntity
  8
0
100
AcDbLine
 10
7.826999999992154
 20
2.368399999997621
 30
0.0
 11
10.64699999998936
 21
2.368399999997621
 31
0.0
1001
ACAD
1000
ASC_BOUNDS
1002
{
1070
    19
1005
19D85
1002
}
  0
LINE
  5
19D55
330
19D42
100
AcDbEntity
  8
0
100
AcDbLine
 10
11.70599999998831
 20
0.0
 30
0.0
 11
13.26299999998673
 21
0.0
 31
0.0
1001
ACAD
1000
ASC_BOUNDS
1002
{
1070
    19
1005
19D85
1002
}
  0
LINE
  5
19D56
330
19D42
100
AcDbEntity
  8
0
100
AcDbLine
 10
22.15599999997789
 20
2.368399999997621
 30
0.0
 11
24.97599999997499
 21
2.368399999997621
 31
0.0
1001
ACAD
1000
ASC_BOUNDS
1002
{
1070
    19
1005
19D87
1002
}
  0
LINE
  5
19D57
330
19D42
100
AcDbEntity
  8
0
100
AcDbLine
 10
19.53899999998043
 20
0.0
 30
0.0
 11
21.09599999997886
 21
0.0
 31
0.0
1001
ACAD
1000
ASC_BOUNDS
1002
{
1070
    19
1005
19D87
1002
}
  0
LINE
  5
19D58
330
19D42
100
AcDbEntity
  8
0
100
AcDbLine
 10
21.09599999997886
 20
-0.0001000000000317
 30
0.0
 11
22.15599999997789
 21
2.368399999997621
 31
0.0
1001
ACAD
1000
ASC_BOUNDS
1002
{
1070
    19
1005
19D87
1002
}
  0
LINE
  5
19D59
330
19D42
100
AcDbEntity
  8
0
100
AcDbLine
 10
26.02015566812236
 20
0.0330999999912365
 30
0.0
 11
24.97599999997499
 21
2.368399999997621
 31
0.0
1001
ACAD
1000
ASC_BOUNDS
1002
{
1070
    19
1005
19D87
1002
}
  0
LINE
  5
19D5A
330
19D42
100
AcDbEntity
  8
0
100
AcDbLine
 10
14.32399999998563
 20
3.315799999996671
 30
0.0
 11
16.46099999998353
 21
8.999899999990987
 31
0.0
1001
ACAD
1000
ASC_BOUNDS
1002
{
1070
    19
1005
19D86
1002
}
  0
LINE
  5
19D5B
330
19D42
100
AcDbEntity
  8
0
100
AcDbLine
 10
6.432999999993513
 20
8.763099999991255
 30
0.0
 11
3.181999999996833
 21
4.668599999995308
 31
0.0
1001
ACAD
1000
ASC_BOUNDS
1002
{
1070
    19
1005
19D85
1002
}
  0
LINE
  5
19D5C
330
19D42
100
AcDbEntity
  8
0
100
AcDbLine
 10
4.617999999995391
 20
8.763099999991255
 30
0.0
 11
1.420999999998571
 21
4.736799999995242
 31
0.0
1001
ACAD
1000
ASC_BOUNDS
1002
{
1070
    19
1005
19D85
1002
}
  0
LINE
  5
19D5D
330
19D42
100
AcDbEntity
  8
0
100
AcDbLine
 10
0.0
 20
8.763099999991255
 30
0.0
 11
1.420999999998571
 21
8.763099999991255
 31
0.0
1001
ACAD
1000
ASC_BOUNDS
1002
{
1070
    19
1005
19D8A
1002
}
  0
LINE
  5
19D5E
330
19D42
100
AcDbEntity
  8
0
100
AcDbLine
 10
4.617999999995391
 20
8.763099999991255
 30
0.0
 11
6.432999999993513
 21
8.763099999991255
 31
0.0
1001
ACAD
1000
ASC_BOUNDS
1002
{
1070
    19
1005
19D85
1002
}
  0
LINE
  5
19D5F
330
19D42
100
AcDbEntity
  8
0
100
AcDbLine
 10
14.32399999998563
 20
3.315799999996671
 30
0.0
 11
12.02999999998792
 21
8.763099999991255
 31
0.0
1001
ACAD
1000
ASC_BOUNDS
1002
{
1070
    19
1005
19D86
1002
}
  0
LINE
  5
19D60
330
19D42
100
AcDbEntity
  8
0
100
AcDbLine
 10
10.06399999998996
 20
3.670999999996297
 30
0.0
 11
9.236999999990758
 21
5.5200999999945
 31
0.0
1001
ACAD
1000
ASC_BOUNDS
1002
{
1070
    19
1005
19D85
1002
}
  0
LINE
  5
19D61
330
19D42
100
AcDbEntity
  8
0
100
AcDbLine
 10
8.409999999991555
 20
3.670999999996297
 30
0.0
 11
9.236999999990758
 21
5.5200999999945
 31
0.0
1001
ACAD
1000
ASC_BOUNDS
1002
{
1070
    19
1005
19D85
1002
}
  0
LINE
  5
19D62
330
19D42
100
AcDbEntity
  8
0
100
AcDbLine
 10
8.409999999991555
 20
3.670999999996297
 30
0.0
 11
10.06399999998996
 21
3.670999999996297
 31
0.0
1001
ACAD
1000
ASC_BOUNDS
1002
{
1070
    19
1005
19D85
1002
}
  0
LINE
  5
19D63
330
19D42
100
AcDbEntity
  8
0
100
AcDbLine
 10
10.53899999998941
 20
8.763099999991255
 30
0.0
 11
12.02999999998792
 21
8.763099999991255
 31
0.0
1001
ACAD
1000
ASC_BOUNDS
1002
{
1070
    19
1005
19D86
1002
}
  0
LINE
  5
19D64
330
19D42
100
AcDbEntity
  8
0
100
AcDbLine
 10
22.7389999999773
 20
3.670999999996297
 30
0.0
 11
23.56599999997638
 21
5.5200999999945
 31
0.0
1001
ACAD
1000
ASC_BOUNDS
1002
{
1070
    19
1005
19D87
1002
}
  0
LINE
  5
19D65
330
19D42
100
AcDbEntity
  8
0
100
AcDbLine
 10
22.7389999999773
 20
3.670999999996297
 30
0.0
 11
24.39299999997559
 21
3.670999999996297
 31
0.0
1001
ACAD
1000
ASC_BOUNDS
1002
{
1070
    19
1005
19D87
1002
}
  0
LINE
  5
19D66
330
19D42
100
AcDbEntity
  8
0
100
AcDbLine
 10
18.59799999998143
 20
3.315799999996671
 30
0.0
 11
20.89099999997916
 21
8.763099999991255
 31
0.0
1001
ACAD
1000
ASC_BOUNDS
1002
{
1070
    19
1005
19D86
1002
}
  0
LINE
  5
19D67
330
19D42
100
AcDbEntity
  8
0
100
AcDbLine
 10
18.59799999998143
 20
3.315799999996671
 30
0.0
 11
16.46099999998353
 21
8.999899999990987
 31
0.0
1001
ACAD
1000
ASC_BOUNDS
1002
{
1070
    19
1005
19D86
1002
}
  0
LINE
  5
19D68
330
19D42
100
AcDbEntity
  8
0
100
AcDbLine
 10
20.89099999997916
 20
8.763099999991255
 30
0.0
 11
22.38199999997767
 21
8.763099999991255
 31
0.0
1001
ACAD
1000
ASC_BOUNDS
1002
{
1070
    19
1005
19D86
1002
}
  0
LINE
  5
19D69
330
19D42
100
AcDbEntity
  8
0
100
AcDbLine
 10
24.39299999997559
 20
3.670999999996297
 30
0.0
 11
23.56599999997638
 21
5.5200999999945
 31
0.0
1001
ACAD
1000
ASC_BOUNDS
1002
{
1070
    19
1005
19D87
1002
}
  0
LINE
  5
19D6A
330
19D42
100
AcDbEntity
  8
0
100
AcDbLine
 10
44.99999999995498
 20
-0.2368999999997641
 30
0.0
 11
40.02599999995994
 21
5.341799999994635
 31
0.0
1001
ACAD
1000
ASC_BOUNDS
1002
{
1070
    19
1005
19D89
1002
}
  0
LINE
  5
19D6B
330
19D42
100
AcDbEntity
  8
0
100
AcDbLine
 10
40.02599999995994
 20
5.341799999994635
 30
0.0
 11
40.02599999995994
 21
0.0
 31
0.0
1001
ACAD
1000
ASC_BOUNDS
1002
{
1070
    19
1005
19D89
1002
}
  0
LINE
  5
19D6C
330
19D42
100
AcDbEntity
  8
0
100
AcDbLine
 10
38.60499999996136
 20
8.999999999991019
 30
0.0
 11
38.60499999996136
 21
0.0
 31
0.0
1001
ACAD
1000
ASC_BOUNDS
1002
{
1070
    19
1005
19D89
1002
}
  0
LINE
  5
19D6D
330
19D42
100
AcDbEntity
  8
0
100
AcDbLine
 10
44.99999999995498
 20
8.763099999991255
 30
0.0
 11
44.99999999995498
 21
-0.2368999999997641
 31
0.0
1001
ACAD
1000
ASC_BOUNDS
1002
{
1070
    19
1005
19D89
1002
}
  0
LINE
  5
19D6E
330
19D42
100
AcDbEntity
  8
0
100
AcDbLine
 10
38.60499999996136
 20
0.0
 30
0.0
 11
40.02599999995994
 21
0.0
 31
0.0
1001
ACAD
1000
ASC_BOUNDS
1002
{
1070
    19
1005
19D89
1002
}
  0
LINE
  5
19D6F
330
19D42
100
AcDbEntity
  8
0
100
AcDbLine
 10
43.57899999995641
 20
3.421199999996588
 30
0.0
 11
38.60499999996136
 21
8.999899999990987
 31
0.0
1001
ACAD
1000
ASC_BOUNDS
1002
{
1070
    19
1005
19D89
1002
}
  0
LINE
  5
19D70
330
19D42
100
AcDbEntity
  8
0
100
AcDbLine
 10
43.57899999995641
 20
8.763099999991255
 30
0.0
 11
43.57899999995641
 21
3.421199999996588
 31
0.0
1001
ACAD
1000
ASC_BOUNDS
1002
{
1070
    19
1005
19D89
1002
}
  0
LINE
  5
19D71
330
19D42
100
AcDbEntity
  8
0
100
AcDbLine
 10
43.57899999995641
 20
8.763099999991255
 30
0.0
 11
44.99999999995498
 21
8.763099999991255
 31
0.0
1001
ACAD
1000
ASC_BOUNDS
1002
{
1070
    19
1005
19D89
1002
}
  0
LINE
  5
19D72
330
19D42
100
AcDbEntity
  8
0
100
AcDbLine
 10
37.67199999996831
 20
8.763099999991255
 30
0.0
 11
36.23199999996837
 21
8.763099999991255
 31
0.0
  0
LINE
  5
19D73
330
19D42
100
AcDbEntity
  8
0
100
AcDbLine
 10
31.64199999996833
 20
8.763099999991255
 30
0.0
 11
31.64199999996833
 21
2.481619422925121
 31
0.0
  0
LINE
  5
19D74
330
19D42
100
AcDbEntity
  8
0
100
AcDbLine
 10
37.67199999996831
 20
8.763099999991255
 30
0.0
 11
37.67199999996831
 21
2.481619422925121
 31
0.0
  0
LINE
  5
19D75
330
19D42
100
AcDbEntity
  8
0
100
AcDbLine
 10
36.23199999996837
 20
8.763099999991255
 30
0.0
 11
36.23199999996837
 21
2.481619422925064
 31
0.0
  0
LINE
  5
19D76
330
19D42
100
AcDbEntity
  8
0
100
AcDbLine
 10
33.08199999996839
 20
8.763099999991255
 30
0.0
 11
33.08199999996839
 21
2.481619422925121
 31
0.0
  0
ARC
  5
19D77
330
19D42
100
AcDbEntity
  8
0
100
AcDbCircle
 10
34.65699999996832
 20
3.183099999991214
 30
0.0
 40
3.420000000000007
100
AcDbArc
 50
240.0000000000255
 51
299.9999999999766
  0
ARC
  5
19D78
330
19D42
100
AcDbEntity
  8
0
100
AcDbCircle
 10
34.65699999996832
 20
3.183099999991214
 30
0.0
 40
1.97999999999999
100
AcDbArc
 50
240.000000000026
 51
299.9999999999703
  0
LINE
  5
19D79
330
19D42
100
AcDbEntity
  8
0
100
AcDbLine
 10
33.08199999996828
 20
8.763099999991255
 30
0.0
 11
31.64199999996833
 21
8.763099999991255
 31
0.0
  0
ARC
  5
19D7A
330
19D42
100
AcDbEntity
  8
0
100
AcDbCircle
 10
35.06199999996829
 20
2.481619422925064
 30
0.0
 40
1.17
100
AcDbArc
 50
299.9999999999699
 51
0.0
  0
ARC
  5
19D7B
330
19D42
100
AcDbEntity
  8
0
100
AcDbCircle
 10
34.25199999996835
 20
2.481619422925121
 30
0.0
 40
1.17
100
AcDbArc
 50
180.0
 51
240.0000000000238
  0
ARC
  5
19D7C
330
19D42
100
AcDbEntity
  8
0
100
AcDbCircle
 10
35.06199999996841
 20
2.481619422925121
 30
0.0
 40
2.61
100
AcDbArc
 50
299.9999999999756
 51
0.0
  0
ARC
  5
19D7D
330
19D42
100
AcDbEntity
  8
0
100
AcDbCircle
 10
34.25199999996835
 20
2.481619422925121
 30
0.0
 40
2.61
100
AcDbArc
 50
180.0
 51
240.0000000000244
  0
LINE
  5
19D7E
330
19D42
100
AcDbEntity
  8
0
100
AcDbLine
 10
29.30199999996933
 20
8.763099999991255
 30
0.0
 11
30.74199999996927
 21
8.763099999991255
 31
0.0
1001
ACAD
1000
ASC_BOUNDS
1002
{
1070
    19
1005
19D87
1002
}
  0
LINE
  5
19D7F
330
19D42
100
AcDbEntity
  8
0
100
AcDbLine
 10
30.74199999996927
 20
8.763099999991255
 30
0.0
 11
30.74199999996927
 21
2.373099999991211
 31
0.0
1001
ACAD
1000
ASC_BOUNDS
1002
{
1070
    19
1005
19D87
1002
}
  0
LINE
  5
19D80
330
19D42
100
AcDbEntity
  8
0
100
AcDbLine
 10
26.02015566812236
 20
0.0330999999912365
 30
0.0
 11
28.40199999996923
 21
0.0330999999912365
 31
0.0
1001
ACAD
1000
ASC_BOUNDS
1002
{
1070
    19
1005
19D87
1002
}
  0
LINE
  5
19D81
330
19D42
100
AcDbEntity
  8
0
100
AcDbLine
 10
29.30199999996933
 20
8.763099999991255
 30
0.0
 11
29.30199999996933
 21
2.283099999991236
 31
0.0
1001
ACAD
1000
ASC_BOUNDS
1002
{
1070
    19
1005
19D87
1002
}
  0
LINE
  5
19D82
330
19D42
100
AcDbEntity
  8
0
100
AcDbLine
 10
26.97358892824991
 20
1.383099999991202
 30
0.0
 11
28.40199999996923
 21
1.383099999991202
 31
0.0
1001
ACAD
1000
ASC_BOUNDS
1002
{
1070
    19
1005
19D87
1002
}
  0
ARC
  5
19D83
330
19D42
100
AcDbEntity
  8
0
100
AcDbCircle
 10
28.40199999996923
 20
2.283099999991236
 30
0.0
 40
0.9
100
AcDbArc
 50
270.0
 51
0.0
1001
ACAD
1000
ASC_BOUNDS
1002
{
1070
    19
1005
19D87
1002
}
  0
ARC
  5
19D84
330
19D42
100
AcDbEntity
  8
0
100
AcDbCircle
 10
28.40199999996923
 20
2.373099999991211
 30
0.0
 40
2.34
100
AcDbArc
 50
270.0
 51
0.0
1001
ACAD
1000
ASC_BOUNDS
1002
{
1070
    19
1005
19D87
1002
}
  0
INSERT
  5
19D85
330
19D42
100
AcDbEntity
  8
0
100
AcDbBlockReference
  2
*X148
 10
0.0
 20
0.0
 30
0.0
1001
ACAD
1000
HATCH
1002
{
1070
    19
1000
ANSI37
1040
0.15
1040
0.0
1000
ASC_BOUNDS
1070
     2
1070
     2
1070
    12
1005
19D44
1005
19D45
1005
19D4C
1005
19D5B
1005
19D5E
1005
19D5C
1005
19D4D
1005
19D52
1005
19D50
1005
19D54
1005
19D53
1005
19D55
1070
     2
1070
     3
1005
19D60
1005
19D62
1005
19D61
1000
ASC_SEEDPOINT
1011
3.614004224891801
1021
2.996669441146025
1031
0.0
1000
R14_HATCH_DATA
1000
19D85
1011
1.0
1021
0.0
1031
0.0
1011
0.0
1021
1.0
1031
0.0
1011
0.0
1021
0.0
1031
1.0
1040
0.0
1010
0.0
1020
0.0
1030
1.0
1000
ANSI37
1070
     0
1070
     1
1071
        2
1071
        7
1070
     0
1070
     1
1071
       17
1040
13.26299999998673
1040
-0.0001000000000317
1040
9.236999999990758
1040
8.999899999990987
1040
9.236999999990758
1040
8.999999999991019
1040
5.657999999994331
1040
0.9999999999989768
1040
3.181999999996833
1040
4.668599999995308
1040
6.432999999993513
1040
8.763099999991255
1040
4.617999999995391
1040
8.763099999991255
1040
1.420999999998571
1040
4.736799999995242
1040
4.617999999995391
1040
-0.0001000000000317
1040
4.617999999995391
1040
0.0
1040
6.766999999993232
1040
0.0
1040
6.766999999993232
1040
-0.0001000000000317
1040
7.826999999992154
1040
2.368399999997621
1040
10.64699999998936
1040
2.368399999997621
1040
11.70599999998831
1040
-0.0001000000000317
1040
11.70599999998831
1040
0.0
1040
13.26299999998673
1040
0.0
1071
       12
1005
19D44
1005
19D45
1005
19D4C
1005
19D5B
1005
19D5E
1005
19D5C
1005
19D4D
1005
19D52
1005
19D50
1005
19D54
1005
19D53
1005
19D55
1071
       22
1070
     0
1070
     1
1071
        3
1040
9.236999999990758
1040
5.5200999999945
1040
10.06399999998996
1040
3.670999999996297
1040
8.409999999991555
1040
3.670999999996297
1071
        3
1005
19D60
1005
19D62
1005
19D61
1070
     0
1070
     1
1040
0.0
1040
0.15
1070
     0
1070
     2
1040
0.7853981633974483
1040
49.29960901727088
1040
-10.17736998311392
1040
-0.3367596045400932
1040
0.3367596045400932
1070
     0
1040
2.356194490192345
1040
49.29960901727088
1040
-10.17736998311392
1040
-0.3367596045400932
1040
-0.3367596045400932
1070
     0
1040
0.0110235143455945
1071
        2
1040
3.614004224891801
1040
2.996669441146025
1040
0.0
1040
3.614004224891801
1040
2.996669441146025
1040
0.0
1002
}
  0
INSERT
  5
19D86
330
19D42
100
AcDbEntity
  8
0
100
AcDbBlockReference
  2
*X149
 10
0.0
 20
0.0
 30
0.0
1001
ACAD
1000
HATCH
1002
{
1070
    19
1000
ANSI37
1040
0.15
1040
0.0
1000
ASC_BOUNDS
1070
     1
1070
     2
1070
    10
1005
19D46
1005
19D47
1005
19D68
1005
19D66
1005
19D67
1005
19D5A
1005
19D5F
1005
19D63
1005
19D49
1005
19D48
1000
ASC_SEEDPOINT
1011
14.73245321214324
1021
2.798246178283421
1031
0.0
1000
R14_HATCH_DATA
1000
19D86
1011
1.0
1021
0.0
1031
0.0
1011
0.0
1021
1.0
1031
0.0
1011
0.0
1021
0.0
1031
1.0
1040
0.0
1010
0.0
1020
0.0
1030
1.0
1000
ANSI37
1070
     0
1070
     1
1071
        1
1071
        7
1070
     0
1070
     1
1071
       10
1040
16.46099999998353
1040
5.432899999994561
1040
18.59199999998134
1040
-0.2368999999997641
1040
22.38199999997767
1040
8.763099999991255
1040
20.89099999997916
1040
8.763099999991255
1040
18.59799999998143
1040
3.315799999996671
1040
16.46099999998353
1040
8.999899999990987
1040
14.32399999998563
1040
3.315799999996671
1040
12.02999999998792
1040
8.763099999991255
1040
10.53899999998941
1040
8.763099999991255
1040
14.32899999998563
1040
-0.2368999999997641
1071
       10
1005
19D46
1005
19D47
1005
19D68
1005
19D66
1005
19D67
1005
19D5A
1005
19D5F
1005
19D63
1005
19D49
1005
19D48
1070
     0
1070
     1
1040
0.0
1040
0.15
1070
     0
1070
     2
1040
0.7853981633974483
1040
49.29960901727088
1040
-10.17736998311392
1040
-0.3367596045400932
1040
0.3367596045400932
1070
     0
1040
2.356194490192345
1040
49.29960901727088
1040
-10.17736998311392
1040
-0.3367596045400932
1040
-0.3367596045400932
1070
     0
1040
0.0110235143455945
1071
        1
1040
14.73245321214324
1040
2.798246178283421
1040
0.0
1002
}
  0
INSERT
  5
19D87
330
19D42
100
AcDbEntity
  8
0
100
AcDbBlockReference
  2
*X150
 10
0.0
 20
0.0
 30
0.0
1001
ACAD
1000
HATCH
1002
{
1070
    19
1000
ANSI37
1040
0.15
1040
0.0
1000
ASC_BOUNDS
1070
     2
1070
     2
1070
    13
1005
19D4A
1005
19D57
1005
19D58
1005
19D56
1005
19D59
1005
19D80
1005
19D84
1005
19D7F
1005
19D7E
1005
19D81
1005
19D83
1005
19D82
1005
19D4B
1070
     2
1070
     3
1005
19D64
1005
19D69
1005
19D65
1000
ASC_SEEDPOINT
1011
21.97929957367762
1021
3.294304244259308
1031
0.0
1000
R14_HATCH_DATA
1000
19D87
1011
1.0
1021
0.0
1031
0.0
1011
0.0
1021
1.0
1031
0.0
1011
0.0
1021
0.0
1031
1.0
1040
0.0
1010
0.0
1020
0.0
1030
1.0
1000
ANSI37
1070
     0
1070
     1
1071
        2
1071
        7
1070
     1
1070
     1
1071
       15
1040
23.56599999997638
1040
8.999899999990987
1040
0.0
1040
19.53899999998043
1040
-0.0001000000000317
1040
0.0
1040
19.53899999998043
1040
0.0
1040
0.0
1040
21.09599999997886
1040
0.0
1040
0.0
1040
21.09599999997886
1040
-0.0001000000000317
1040
0.0
1040
22.15599999997789
1040
2.368399999997621
1040
0.0
1040
24.97599999997499
1040
2.368399999997621
1040
0.0
1040
26.02015566812236
1040
0.0330999999912365
1040
0.0
1040
28.40199999996923
1040
0.0330999999912365
1040
0.414213562373095
1040
30.74199999996923
1040
2.373099999991211
1040
0.0
1040
30.74199999996927
1040
8.763099999991255
1040
0.0
1040
29.30199999996933
1040
8.763099999991255
1040
0.0
1040
29.30199999996933
1040
2.283099999991236
1040
-0.414213562373095
1040
28.40199999996923
1040
1.383099999991237
1040
0.0
1040
26.97358892824991
1040
1.383099999991202
1040
0.0
1071
       13
1005
19D4A
1005
19D57
1005
19D58
1005
19D56
1005
19D59
1005
19D80
1005
19D84
1005
19D7F
1005
19D7E
1005
19D81
1005
19D83
1005
19D82
1005
19D4B
1071
       22
1070
     0
1070
     1
1071
        3
1040
22.7389999999773
1040
3.670999999996297
1040
23.56599999997638
1040
5.5200999999945
1040
24.39299999997559
1040
3.670999999996297
1071
        3
1005
19D64
1005
19D69
1005
19D65
1070
     0
1070
     1
1040
0.0
1040
0.15
1070
     0
1070
     2
1040
0.7853981633974483
1040
49.29960901727088
1040
-10.17736998311392
1040
-0.3367596045400932
1040
0.3367596045400932
1070
     0
1040
2.356194490192345
1040
49.29960901727088
1040
-10.17736998311392
1040
-0.3367596045400932
1040
-0.3367596045400932
1070
     0
1040
0.0110235143455945
1071
        2
1040
21.97929957367762
1040
3.294304244259308
1040
0.0
1040
21.97929957367762
1040
3.294304244259308
1040
0.0
1002
}
  0
INSERT
  5
19D88
330
19D42
100
AcDbEntity
  8
0
100
AcDbBlockReference
  2
*X151
 10
0.0
 20
0.0
 30
0.0
1001
ACAD
1000
HATCH
1002
{
1070
    19
1000
ANSI37
1040
0.15
1040
0.0
1000
R14_HATCH_DATA
1000
19D88
1011
1.0
1021
0.0
1031
0.0
1011
0.0
1021
1.0
1031
0.0
1011
0.0
1021
0.0
1031
1.0
1040
0.0
1010
0.0
1020
0.0
1030
1.0
1000
ANSI37
1070
     0
1070
     1
1071
        1
1071
        7
1070
     1
1070
     1
1071
       12
1040
31.64199999996833
1040
2.481619422925121
1040
0.2679491924310942
1040
32.94699999997067
1040
0.2212931190493919
1040
0.2679491924301353
1040
36.36699999995983
1040
0.2212931190459813
1040
0.2679491924321411
1040
37.67199999996831
1040
2.481619422928361
1040
0.0
1040
37.67199999996831
1040
8.763099999991255
1040
0.0
1040
36.23199999996837
1040
8.763099999991255
1040
0.0
1040
36.23199999996837
1040
2.481619422925064
1040
-0.2679491924310291
1040
35.64699999996708
1040
1.468369700498386
1040
-0.267949192430519
1040
33.66699999997093
1040
1.468369700497703
1040
-0.267949192431809
1040
33.08199999996839
1040
2.481619422926997
1040
0.0
1040
33.08199999996839
1040
8.763099999991255
1040
0.0
1040
31.64199999996833
1040
8.763099999991255
1040
0.0
1071
        0
1070
     0
1070
     1
1040
0.0
1040
0.15
1070
     0
1070
     2
1040
0.7853981633974483
1040
49.29960901727088
1040
-10.17736998311392
1040
-0.3367596045400932
1040
0.3367596045400932
1070
     0
1040
2.356194490192345
1040
49.29960901727088
1040
-10.17736998311392
1040
-0.3367596045400932
1040
-0.3367596045400932
1070
     0
1040
0.0110235143455945
1071
        1
1040
32.30357378967278
1040
3.988785755459219
1040
0.0
1002
}
  0
INSERT
  5
19D89
330
19D42
100
AcDbEntity
  8
0
100
AcDbBlockReference
  2
*X152
 10
0.0
 20
0.0
 30
0.0
1001
ACAD
1000
HATCH
1002
{
1070
    19
1000
ANSI37
1040
0.15
1040
0.0
1000
ASC_BOUNDS
1070
     1
1070
     2
1070
     8
1005
19D6A
1005
19D6D
1005
19D71
1005
19D70
1005
19D6F
1005
19D6C
1005
19D6E
1005
19D6B
1000
ASC_SEEDPOINT
1011
39.74896370716704
1021
4.484843821435049
1031
0.0
1000
R14_HATCH_DATA
1000
19D89
1011
1.0
1021
0.0
1031
0.0
1011
0.0
1021
1.0
1031
0.0
1011
0.0
1021
0.0
1031
1.0
1040
0.0
1010
0.0
1020
0.0
1030
1.0
1000
ANSI37
1070
     0
1070
     1
1071
        1
1071
        7
1070
     0
1070
     1
1071
        9
1040
40.02599999995994
1040
5.341799999994635
1040
44.99999999995498
1040
-0.2368999999997641
1040
44.99999999995498
1040
8.763099999991255
1040
43.57899999995641
1040
8.763099999991255
1040
43.57899999995641
1040
3.421199999996588
1040
38.60499999996136
1040
8.999899999990987
1040
38.60499999996136
1040
8.999999999991019
1040
38.60499999996136
1040
0.0
1040
40.02599999995994
1040
0.0
1071
        8
1005
19D6A
1005
19D6D
1005
19D71
1005
19D70
1005
19D6F
1005
19D6C
1005
19D6E
1005
19D6B
1070
     0
1070
     1
1040
0.0
1040
0.15
1070
     0
1070
     2
1040
0.7853981633974483
1040
49.29960901727088
1040
-10.17736998311392
1040
-0.3367596045400932
1040
0.3367596045400932
1070
     0
1040
2.356194490192345
1040
49.29960901727088
1040
-10.17736998311392
1040
-0.3367596045400932
1040
-0.3367596045400932
1070
     0
1040
0.0110235143455945
1071
        1
1040
39.74896370716704
1040
4.484843821435049
1040
0.0
1002
}
  0
INSERT
  5
19D8A
330
19D42
100
AcDbEntity
  8
0
100
AcDbBlockReference
  2
*X153
 10
0.0
 20
0.0
 30
0.0
1001
ACAD
1000
HATCH
1002
{
1070
    19
1000
ANSI37
1040
0.15
1040
0.0
1000
ASC_BOUNDS
1070
     1
1070
     2
1070
     4
1005
19D4E
1005
19D5D
1005
19D4F
1005
19D51
1000
ASC_SEEDPOINT
1011
1.079051535452663
1021
4.148538732891836
1031
0.0
1000
R14_HATCH_DATA
1000
19D8A
1011
1.0
1021
0.0
1031
0.0
1011
0.0
1021
1.0
1031
0.0
1011
0.0
1021
0.0
1031
1.0
1040
0.0
1010
0.0
1020
0.0
1030
1.0
1000
ANSI37
1070
     0
1070
     1
1071
        1
1071
        7
1070
     0
1070
     1
1071
        4
1040
1.420999999998571
1040
0.0
1040
1.420999999998571
1040
8.763099999991255
1040
0.0
1040
8.763099999991255
1040
0.0
1040
0.0
1071
        4
1005
19D4E
1005
19D5D
1005
19D4F
1005
19D51
1070
     0
1070
     1
1040
0.0
1040
0.15
1070
     0
1070
     2
1040
0.7853981633974483
1040
49.29960901727088
1040
-10.17736998311392
1040
-0.3367596045400932
1040
0.3367596045400932
1070
     0
1040
2.356194490192345
1040
49.29960901727088
1040
-10.17736998311392
1040
-0.3367596045400932
1040
-0.3367596045400932
1070
     0
1040
0.0053004257112761
1071
        1
1040
1.079051535452663
1040
4.148538732891836
1040
0.0
1002
}
  0
ENDBLK
  5
1A551
330
19D42
100
AcDbEntity
  8
0
100
AcDbBlockEnd
  0
BLOCK
  5
1B215
330
1B087
100
AcDbEntity
  8
0
100
AcDbBlockBegin
  2
*X148
 70
     1
 10
0.0
 20
0.0
 30
0.0
  3
*X148
  1

  0
LINE
  5
1B088
330
1B087
100
AcDbEntity
  8
0
  6
CONTINUOUS
100
AcDbLine
 10
3.418023043697893
 20
7.251849696850613
 30
0.0
 11
4.929273346838536
 21
8.763099999991255
 31
0.0
  0
LINE
  5
1B089
330
1B087
100
AcDbEntity
  8
0
  6
CONTINUOUS
100
AcDbLine
 10
1.483656411257782
 20
4.643963855330318
 30
0.0
 11
5.60279255591872
 21
8.763099999991255
 31
0.0
  0
LINE
  5
1B08A
330
1B087
100
AcDbEntity
  8
0
  6
CONTINUOUS
100
AcDbLine
 10
1.755053947328235
 20
4.241842182320584
 30
0.0
 11
6.276311764998907
 21
8.763099999991255
 31
0.0
  0
LINE
  5
1B08B
330
1B087
100
AcDbEntity
  8
0
  6
CONTINUOUS
100
AcDbLine
 10
2.026451483398688
 20
3.839720509310849
 30
0.0
 11
4.441040904851878
 21
6.254309930764039
 31
0.0
  0
LINE
  5
1B08C
330
1B087
100
AcDbEntity
  8
0
  6
CONTINUOUS
100
AcDbLine
 10
2.297849019469139
 20
3.437598836301114
 30
0.0
 11
3.321765168359338
 21
4.461514985191313
 31
0.0
  0
LINE
  5
1B08D
330
1B087
100
AcDbEntity
  8
0
  6
CONTINUOUS
100
AcDbLine
 10
2.569246555539591
 20
3.03547716329138
 30
0.0
 11
3.593163397972743
 21
4.059394005724531
 31
0.0
  0
LINE
  5
1B08E
330
1B087
100
AcDbEntity
  8
0
  6
CONTINUOUS
100
AcDbLine
 10
2.840644091610043
 20
2.633355490281646
 30
0.0
 11
3.864561627586149
 21
3.657273026257751
 31
0.0
  0
LINE
  5
1B08F
330
1B087
100
AcDbEntity
  8
0
  6
CONTINUOUS
100
AcDbLine
 10
3.112041627680496
 20
2.231233817271911
 30
0.0
 11
4.135959857199554
 21
3.25515204679097
 31
0.0
  0
LINE
  5
1B090
330
1B087
100
AcDbEntity
  8
0
  6
CONTINUOUS
100
AcDbLine
 10
3.383439163750948
 20
1.829112144262177
 30
0.0
 11
4.40735808681296
 21
2.853031067324189
 31
0.0
  0
LINE
  5
1B091
330
1B087
100
AcDbEntity
  8
0
  6
CONTINUOUS
100
AcDbLine
 10
3.654836699821399
 20
1.426990471252442
 30
0.0
 11
4.678756316426365
 21
2.450910087857407
 31
0.0
  0
LINE
  5
1B092
330
1B087
100
AcDbEntity
  8
0
  6
CONTINUOUS
100
AcDbLine
 10
3.926234235891853
 20
1.024868798242709
 30
0.0
 11
4.95015454603977
 21
2.048789108390626
 31
0.0
  0
LINE
  5
1B093
330
1B087
100
AcDbEntity
  8
0
  6
CONTINUOUS
100
AcDbLine
 10
4.197631771962304
 20
0.6227471252329737
 30
0.0
 11
5.221552775653176
 21
1.646668128923846
 31
0.0
  0
LINE
  5
1B094
330
1B087
100
AcDbEntity
  8
0
  6
CONTINUOUS
100
AcDbLine
 10
8.715877546767851
 20
7.835069736359266
 30
0.0
 11
9.435953450375058
 21
8.555145639966472
 31
0.0
  0
LINE
  5
1B095
330
1B087
100
AcDbEntity
  8
0
  6
CONTINUOUS
100
AcDbLine
 10
8.170620868422267
 20
6.616293848933497
 30
0.0
 11
9.644120833743461
 21
8.08979381425469
 31
0.0
  0
LINE
  5
1B096
330
1B087
100
AcDbEntity
  8
0
  6
CONTINUOUS
100
AcDbLine
 10
7.625364190076684
 20
5.397517961507727
 30
0.0
 11
9.852288217111864
 21
7.624441988542907
 31
0.0
  0
LINE
  5
1B097
330
1B087
100
AcDbEntity
  8
0
  6
CONTINUOUS
100
AcDbLine
 10
7.080107511731101
 20
4.178742074081957
 30
0.0
 11
10.06045560048027
 21
7.159090162831124
 31
0.0
  0
LINE
  5
1B098
330
1B087
100
AcDbEntity
  8
0
  6
CONTINUOUS
100
AcDbLine
 10
6.534850833385518
 20
2.959966186656187
 30
0.0
 11
10.26862298384867
 21
6.693738337119342
 31
0.0
  0
LINE
  5
1B099
330
1B087
100
AcDbEntity
  8
0
  6
CONTINUOUS
100
AcDbLine
 10
4.469029308032756
 20
0.2206254522232385
 30
0.0
 11
5.492951005266582
 21
1.244547149457064
 31
0.0
  0
LINE
  5
1B09A
330
1B087
100
AcDbEntity
  8
0
  6
CONTINUOUS
100
AcDbLine
 10
5.989594155039935
 20
1.741190299230417
 30
0.0
 11
8.806950407233131
 21
4.558546551423613
 31
0.0
  0
LINE
  5
1B09B
330
1B087
100
AcDbEntity
  8
0
  6
CONTINUOUS
100
AcDbLine
 10
9.401251593263643
 20
5.152847737454126
 30
0.0
 11
10.47679036721708
 21
6.228386511407559
 31
0.0
  0
LINE
  5
1B09C
330
1B087
100
AcDbEntity
  8
0
  6
CONTINUOUS
100
AcDbLine
 10
4.921837203428691
 20
-0.0000858614610131
 30
0.0
 11
8.592923064886001
 21
3.670999999996297
 31
0.0
  0
LINE
  5
1B09D
330
1B087
100
AcDbEntity
  8
0
  6
CONTINUOUS
100
AcDbLine
 10
9.609390446785305
 20
4.6874673818956
 30
0.0
 11
10.68495775058548
 21
5.763034685695775
 31
0.0
  0
LINE
  5
1B09E
330
1B087
100
AcDbEntity
  8
0
  6
CONTINUOUS
100
AcDbLine
 10
5.595387755019432
 20
-0.0000545189504582
 30
0.0
 11
7.716137258923768
 21
2.120694984953879
 31
0.0
  0
LINE
  5
1B09F
330
1B087
100
AcDbEntity
  8
0
  6
CONTINUOUS
100
AcDbLine
 10
6.268938306610172
 20
-0.000023176439905
 30
0.0
 11
7.170485805526503
 21
0.9015243224764267
 31
0.0
  0
LINE
  5
1B0A0
330
1B087
100
AcDbEntity
  8
0
  6
CONTINUOUS
100
AcDbLine
 10
7.963842273967511
 20
2.368399999997621
 30
0.0
 11
9.266442273966188
 21
3.670999999996297
 31
0.0
  0
LINE
  5
1B0A1
330
1B087
100
AcDbEntity
  8
0
  6
CONTINUOUS
100
AcDbLine
 10
8.637361483047696
 20
2.368399999997621
 30
0.0
 11
9.939961483046375
 21
3.670999999996297
 31
0.0
  0
LINE
  5
1B0A2
330
1B087
100
AcDbEntity
  8
0
  6
CONTINUOUS
100
AcDbLine
 10
9.817529300306965
 20
4.222087026337075
 30
0.0
 11
10.89312513395388
 21
5.297682859983993
 31
0.0
  0
LINE
  5
1B0A3
330
1B087
100
AcDbEntity
  8
0
  6
CONTINUOUS
100
AcDbLine
 10
10.02566815382863
 20
3.756706670778549
 30
0.0
 11
11.10129251732229
 21
4.832331034272211
 31
0.0
  0
LINE
  5
1B0A4
330
1B087
100
AcDbEntity
  8
0
  6
CONTINUOUS
100
AcDbLine
 10
9.310880692127883
 20
2.368399999997621
 30
0.0
 11
11.30945990069069
 21
4.366979208560428
 31
0.0
  0
LINE
  5
1B0A5
330
1B087
100
AcDbEntity
  8
0
  6
CONTINUOUS
100
AcDbLine
 10
9.98439990120807
 20
2.36839999999762
 30
0.0
 11
11.5176272840591
 21
3.901627382848645
 31
0.0
  0
LINE
  5
1B0A6
330
1B087
100
AcDbEntity
  8
0
  6
CONTINUOUS
100
AcDbLine
 10
10.65037369446246
 20
2.36085458417182
 30
0.0
 11
11.7257946674275
 21
3.436275557136862
 31
0.0
  0
LINE
  5
1B0A7
330
1B087
100
AcDbEntity
  8
0
  6
CONTINUOUS
100
AcDbLine
 10
10.85847197087848
 20
1.895433651507656
 30
0.0
 11
11.9339620507959
 21
2.97092373142508
 31
0.0
  0
LINE
  5
1B0A8
330
1B087
100
AcDbEntity
  8
0
  6
CONTINUOUS
100
AcDbLine
 10
11.0665702472945
 20
1.430012718843491
 30
0.0
 11
12.14212943416431
 21
2.505571905713296
 31
0.0
  0
LINE
  5
1B0A9
330
1B087
100
AcDbEntity
  8
0
  6
CONTINUOUS
100
AcDbLine
 10
11.27466852371052
 20
0.9645917861793256
 30
0.0
 11
12.35029681753271
 21
2.040220080001513
 31
0.0
  0
LINE
  5
1B0AA
330
1B087
100
AcDbEntity
  8
0
  6
CONTINUOUS
100
AcDbLine
 10
11.48276680012654
 20
0.4991708535151611
 30
0.0
 11
12.55846420090111
 21
1.57486825428973
 31
0.0
  0
LINE
  5
1B0AB
330
1B087
100
AcDbEntity
  8
0
  6
CONTINUOUS
100
AcDbLine
 10
11.69086507654257
 20
0.0337499208509957
 30
0.0
 11
12.76663158426952
 21
1.109516428577947
 31
0.0
  0
LINE
  5
1B0AC
330
1B087
100
AcDbEntity
  8
0
  6
CONTINUOUS
100
AcDbLine
 10
12.33057447873954
 20
-0.0000598860322123
 30
0.0
 11
12.97479896763792
 21
0.6441646028661663
 31
0.0
  0
LINE
  5
1B0AD
330
1B087
100
AcDbEntity
  8
0
  6
CONTINUOUS
100
AcDbLine
 10
13.00413694809395
 20
-0.0000166257579952
 30
0.0
 11
13.18296635100632
 21
0.1788127771543824
 31
0.0
  0
LINE
  5
1B0AE
330
1B087
100
AcDbEntity
  8
0
  6
CONTINUOUS
100
AcDbLine
 10
4.772852165289667
 20
-0.000092794222212
 30
0.0
 11
4.296495091028902
 21
0.4762642800385528
 31
0.0
  0
LINE
  5
1B0AF
330
1B087
100
AcDbEntity
  8
0
  6
CONTINUOUS
100
AcDbLine
 10
5.446340034776103
 20
-0.0000614546284616
 30
0.0
 11
2.898195908335625
 21
2.548082671812017
 31
0.0
  0
LINE
  5
1B0B0
330
1B087
100
AcDbEntity
  8
0
  6
CONTINUOUS
100
AcDbLine
 10
6.119827904262539
 20
-0.0000301150347113
 30
0.0
 11
1.499896725642348
 21
4.61990106358548
 31
0.0
  0
LINE
  5
1B0B1
330
1B087
100
AcDbEntity
  8
0
  6
CONTINUOUS
100
AcDbLine
 10
6.775136745476159
 20
0.0181802528318542
 30
0.0
 11
5.699826040202669
 21
1.093490958105344
 31
0.0
  0
LINE
  5
1B0B2
330
1B087
100
AcDbEntity
  8
0
  6
CONTINUOUS
100
AcDbLine
 10
6.983376846288489
 20
0.4834593610997118
 30
0.0
 11
5.908008617934405
 21
1.558827589453796
 31
0.0
  0
LINE
  5
1B0B3
330
1B087
100
AcDbEntity
  8
0
  6
CONTINUOUS
100
AcDbLine
 10
5.377063484962296
 20
1.416253513345719
 30
0.0
 11
1.702276957014131
 21
5.091040041293883
 31
0.0
  0
LINE
  5
1B0B4
330
1B087
100
AcDbEntity
  8
0
  6
CONTINUOUS
100
AcDbLine
 10
3.978745891735324
 20
3.488090315652877
 30
0.0
 11
2.000373521109399
 21
5.466462686278803
 31
0.0
  0
LINE
  5
1B0B5
330
1B087
100
AcDbEntity
  8
0
  6
CONTINUOUS
100
AcDbLine
 10
7.191616947100819
 20
0.948738469367568
 30
0.0
 11
6.11619119566614
 21
2.024164220802247
 31
0.0
  0
LINE
  5
1B0B6
330
1B087
100
AcDbEntity
  8
0
  6
CONTINUOUS
100
AcDbLine
 10
7.399857047913149
 20
1.414017577635424
 30
0.0
 11
6.324373773397875
 21
2.489500852150698
 31
0.0
  0
LINE
  5
1B0B7
330
1B087
100
AcDbEntity
  8
0
  6
CONTINUOUS
100
AcDbLine
 10
7.608097148725479
 20
1.879296685903281
 30
0.0
 11
6.53255635112961
 21
2.95483748349915
 31
0.0
  0
LINE
  5
1B0B8
330
1B087
100
AcDbEntity
  8
0
  6
CONTINUOUS
100
AcDbLine
 10
7.816337249537808
 20
2.344575794171138
 30
0.0
 11
6.740738928861345
 21
3.420174114847601
 31
0.0
  0
LINE
  5
1B0B9
330
1B087
100
AcDbEntity
  8
0
  6
CONTINUOUS
100
AcDbLine
 10
3.310241080789734
 20
4.830114335678653
 30
0.0
 11
2.298470085204666
 21
5.84188533126372
 31
0.0
  0
LINE
  5
1B0BA
330
1B087
100
AcDbEntity
  8
0
  6
CONTINUOUS
100
AcDbLine
 10
3.60832983563551
 20
5.205544789913063
 30
0.0
 11
2.596566649299935
 21
6.217307976248638
 31
0.0
  0
LINE
  5
1B0BB
330
1B087
100
AcDbEntity
  8
0
  6
CONTINUOUS
100
AcDbLine
 10
3.906418590481286
 20
5.580975244147473
 30
0.0
 11
2.894663213395203
 21
6.592730621233557
 31
0.0
  0
LINE
  5
1B0BC
330
1B087
100
AcDbEntity
  8
0
  6
CONTINUOUS
100
AcDbLine
 10
4.204507345327062
 20
5.956405698381884
 30
0.0
 11
3.192759777490472
 21
6.968153266218474
 31
0.0
  0
LINE
  5
1B0BD
330
1B087
100
AcDbEntity
  8
0
  6
CONTINUOUS
100
AcDbLine
 10
8.466032252791512
 20
2.368399999997621
 30
0.0
 11
6.948921506593081
 21
3.885510746196053
 31
0.0
  0
LINE
  5
1B0BE
330
1B087
100
AcDbEntity
  8
0
  6
CONTINUOUS
100
AcDbLine
 10
9.139551461871699
 20
2.36839999999762
 30
0.0
 11
7.157104084324816
 21
4.350847377544504
 31
0.0
  0
LINE
  5
1B0BF
330
1B087
100
AcDbEntity
  8
0
  6
CONTINUOUS
100
AcDbLine
 10
4.502596100172839
 20
6.331836152616295
 30
0.0
 11
3.49085634158574
 21
7.343575911203393
 31
0.0
  0
LINE
  5
1B0C0
330
1B087
100
AcDbEntity
  8
0
  6
CONTINUOUS
100
AcDbLine
 10
4.800684855018615
 20
6.707266606850705
 30
0.0
 11
3.788952905681008
 21
7.718998556188312
 31
0.0
  0
LINE
  5
1B0C1
330
1B087
100
AcDbEntity
  8
0
  6
CONTINUOUS
100
AcDbLine
 10
12.18154012887317
 20
-0.0000694579236642
 30
0.0
 11
11.32140332908496
 21
0.8600673418645499
 31
0.0
  0
LINE
  5
1B0C2
330
1B087
100
AcDbEntity
  8
0
  6
CONTINUOUS
100
AcDbLine
 10
12.85501608323566
 20
-0.0000262032059659
 30
0.0
 11
10.77672456435345
 21
2.078265315676246
 31
0.0
  0
LINE
  5
1B0C3
330
1B087
100
AcDbEntity
  8
0
  6
CONTINUOUS
100
AcDbLine
 10
9.813070670951886
 20
2.36839999999762
 30
0.0
 11
8.51047067095321
 21
3.670999999996297
 31
0.0
  0
LINE
  5
1B0C4
330
1B087
100
AcDbEntity
  8
0
  6
CONTINUOUS
100
AcDbLine
 10
10.48658988003207
 20
2.36839999999762
 30
0.0
 11
9.183989880033396
 21
3.670999999996297
 31
0.0
  0
LINE
  5
1B0C5
330
1B087
100
AcDbEntity
  8
0
  6
CONTINUOUS
100
AcDbLine
 10
8.441048632286794
 20
3.740422038662712
 30
0.0
 11
7.365286662056551
 21
4.816184008892956
 31
0.0
  0
LINE
  5
1B0C6
330
1B087
100
AcDbEntity
  8
0
  6
CONTINUOUS
100
AcDbLine
 10
8.649187485808454
 20
4.205802394221237
 30
0.0
 11
7.573469239788285
 21
5.281520640241407
 31
0.0
  0
LINE
  5
1B0C7
330
1B087
100
AcDbEntity
  8
0
  6
CONTINUOUS
100
AcDbLine
 10
5.098773609864391
 20
7.082697061085115
 30
0.0
 11
4.087049469776277
 21
8.09442120117323
 31
0.0
  0
LINE
  5
1B0C8
330
1B087
100
AcDbEntity
  8
0
  6
CONTINUOUS
100
AcDbLine
 10
5.396862364710167
 20
7.458127515319526
 30
0.0
 11
4.385146033871544
 21
8.469843846158149
 31
0.0
  0
LINE
  5
1B0C9
330
1B087
100
AcDbEntity
  8
0
  6
CONTINUOUS
100
AcDbLine
 10
13.04801363231285
 20
0.4804954567970334
 30
0.0
 11
9.85750908911358
 21
3.670999999996297
 31
0.0
  0
LINE
  5
1B0CA
330
1B087
100
AcDbEntity
  8
0
  6
CONTINUOUS
100
AcDbLine
 10
8.857326339330116
 20
4.671182749779763
 30
0.0
 11
7.781651817520021
 21
5.746857271589858
 31
0.0
  0
LINE
  5
1B0CB
330
1B087
100
AcDbEntity
  8
0
  6
CONTINUOUS
100
AcDbLine
 10
5.694951119555943
 20
7.833557969553937
 30
0.0
 11
4.765409089118624
 21
8.763099999991255
 31
0.0
  0
LINE
  5
1B0CC
330
1B087
100
AcDbEntity
  8
0
  6
CONTINUOUS
100
AcDbLine
 10
12.50286117236978
 20
1.699167125820288
 30
0.0
 11
9.68611877250287
 21
4.515909525687196
 31
0.0
  0
LINE
  5
1B0CD
330
1B087
100
AcDbEntity
  8
0
  6
CONTINUOUS
100
AcDbLine
 10
9.065465192851777
 20
5.136563105338288
 30
0.0
 11
7.989834395251757
 21
6.21219390293831
 31
0.0
  0
LINE
  5
1B0CE
330
1B087
100
AcDbEntity
  8
0
  6
CONTINUOUS
100
AcDbLine
 10
5.993039874401719
 20
8.208988423788346
 30
0.0
 11
5.43892829819881
 21
8.763099999991255
 31
0.0
  0
LINE
  5
1B0CF
330
1B087
100
AcDbEntity
  8
0
  6
CONTINUOUS
100
AcDbLine
 10
11.95770871242671
 20
2.917838794843543
 30
0.0
 11
8.19801697298349
 21
6.677530534286761
 31
0.0
  0
LINE
  5
1B0D0
330
1B087
100
AcDbEntity
  8
0
  6
CONTINUOUS
100
AcDbLine
 10
6.291128629247495
 20
8.584418878022756
 30
0.0
 11
6.112447507278997
 21
8.763099999991255
 31
0.0
  0
LINE
  5
1B0D1
330
1B087
100
AcDbEntity
  8
0
  6
CONTINUOUS
100
AcDbLine
 10
11.41255625248364
 20
4.136510463866797
 30
0.0
 11
8.406199550715227
 21
7.142867165635211
 31
0.0
  0
LINE
  5
1B0D2
330
1B087
100
AcDbEntity
  8
0
  6
CONTINUOUS
100
AcDbLine
 10
10.86740379254057
 20
5.355182132890051
 30
0.0
 11
8.614382128446962
 21
7.608203796983664
 31
0.0
  0
LINE
  5
1B0D3
330
1B087
100
AcDbEntity
  8
0
  6
CONTINUOUS
100
AcDbLine
 10
10.3222513325975
 20
6.573853801913305
 30
0.0
 11
8.822564706178696
 21
8.073540428332114
 31
0.0
  0
LINE
  5
1B0D4
330
1B087
100
AcDbEntity
  8
0
  6
CONTINUOUS
100
AcDbLine
 10
9.777098872654436
 20
7.792525470936562
 30
0.0
 11
9.030747283910433
 21
8.538877059680566
 31
0.0
  0
ENDBLK
  5
1B216
330
1B087
100
AcDbEntity
  8
0
100
AcDbBlockEnd
  0
BLOCK
  5
1B217
330
1B0D5
100
AcDbEntity
  8
0
100
AcDbBlockBegin
  2
*X149
 70
     1
 10
0.0
 20
0.0
 30
0.0
  3
*X149
  1

  0
LINE
  5
1B0D6
330
1B0D5
100
AcDbEntity
  8
0
  6
CONTINUOUS
100
AcDbLine
 10
10.67292308101235
 20
8.445076852443387
 30
0.0
 11
10.99094622856022
 21
8.763099999991255
 31
0.0
  0
LINE
  5
1B0D7
330
1B0D5
100
AcDbEntity
  8
0
  6
CONTINUOUS
100
AcDbLine
 10
10.87250383178748
 20
7.971138394138331
 30
0.0
 11
11.6644654376404
 21
8.763099999991255
 31
0.0
  0
LINE
  5
1B0D8
330
1B0D5
100
AcDbEntity
  8
0
  6
CONTINUOUS
100
AcDbLine
 10
11.07208458256261
 20
7.497199935833273
 30
0.0
 11
12.12126590876355
 21
8.546381262034211
 31
0.0
  0
LINE
  5
1B0D9
330
1B0D5
100
AcDbEntity
  8
0
  6
CONTINUOUS
100
AcDbLine
 10
11.27166533333774
 20
7.023261477528216
 30
0.0
 11
12.32085164573666
 21
8.072447789927136
 31
0.0
  0
LINE
  5
1B0DA
330
1B0D5
100
AcDbEntity
  8
0
  6
CONTINUOUS
100
AcDbLine
 10
11.47124608411287
 20
6.549323019223158
 30
0.0
 11
12.52043738270977
 21
7.59851431782006
 31
0.0
  0
LINE
  5
1B0DB
330
1B0D5
100
AcDbEntity
  8
0
  6
CONTINUOUS
100
AcDbLine
 10
11.670826834888
 20
6.075384560918101
 30
0.0
 11
12.72002311968288
 21
7.124580845712984
 31
0.0
  0
LINE
  5
1B0DC
330
1B0D5
100
AcDbEntity
  8
0
  6
CONTINUOUS
100
AcDbLine
 10
11.87040758566313
 20
5.601446102613043
 30
0.0
 11
12.91960885665599
 21
6.650647373605907
 31
0.0
  0
LINE
  5
1B0DD
330
1B0D5
100
AcDbEntity
  8
0
  6
CONTINUOUS
100
AcDbLine
 10
12.06998833643825
 20
5.127507644307986
 30
0.0
 11
13.1191945936291
 21
6.176713901498832
 31
0.0
  0
LINE
  5
1B0DE
330
1B0D5
100
AcDbEntity
  8
0
  6
CONTINUOUS
100
AcDbLine
 10
12.26956908721338
 20
4.65356918600293
 30
0.0
 11
13.31878033060221
 21
5.702780429391757
 31
0.0
  0
LINE
  5
1B0DF
330
1B0D5
100
AcDbEntity
  8
0
  6
CONTINUOUS
100
AcDbLine
 10
12.46914983798851
 20
4.179630727697873
 30
0.0
 11
13.51836606757532
 21
5.228846957284683
 31
0.0
  0
LINE
  5
1B0E0
330
1B0D5
100
AcDbEntity
  8
0
  6
CONTINUOUS
100
AcDbLine
 10
12.66873058876364
 20
3.705692269392816
 30
0.0
 11
13.71795180454843
 21
4.754913485177607
 31
0.0
  0
LINE
  5
1B0E1
330
1B0D5
100
AcDbEntity
  8
0
  6
CONTINUOUS
100
AcDbLine
 10
12.86831133953877
 20
3.231753811087759
 30
0.0
 11
13.91753754152154
 21
4.280980013070531
 31
0.0
  0
LINE
  5
1B0E2
330
1B0D5
100
AcDbEntity
  8
0
  6
CONTINUOUS
100
AcDbLine
 10
13.0678920903139
 20
2.757815352782702
 30
0.0
 11
14.11712327849465
 21
3.807046540963456
 31
0.0
  0
LINE
  5
1B0E3
330
1B0D5
100
AcDbEntity
  8
0
  6
CONTINUOUS
100
AcDbLine
 10
13.26747284108903
 20
2.283876894477644
 30
0.0
 11
14.31670901546777
 21
3.333113068856379
 31
0.0
  0
LINE
  5
1B0E4
330
1B0D5
100
AcDbEntity
  8
0
  6
CONTINUOUS
100
AcDbLine
 10
16.36767838827179
 20
8.751678487061342
 30
0.0
 11
16.50332410898388
 21
8.887324207773432
 31
0.0
  0
LINE
  5
1B0E5
330
1B0D5
100
AcDbEntity
  8
0
  6
CONTINUOUS
100
AcDbLine
 10
15.96190732182191
 20
7.67238821153127
 30
0.0
 11
16.68735328004734
 21
8.397834169756699
 31
0.0
  0
LINE
  5
1B0E6
330
1B0D5
100
AcDbEntity
  8
0
  6
CONTINUOUS
100
AcDbLine
 10
15.55613625537202
 20
6.593097936001196
 30
0.0
 11
16.87138245111079
 21
7.908344131739965
 31
0.0
  0
LINE
  5
1B0E7
330
1B0D5
100
AcDbEntity
  8
0
  6
CONTINUOUS
100
AcDbLine
 10
15.15036518892213
 20
5.513807660471122
 30
0.0
 11
17.05541162217424
 21
7.418854093723231
 31
0.0
  0
LINE
  5
1B0E8
330
1B0D5
100
AcDbEntity
  8
0
  6
CONTINUOUS
100
AcDbLine
 10
14.74459412247225
 20
4.434517384941048
 30
0.0
 11
17.2394407932377
 21
6.929364055706499
 31
0.0
  0
LINE
  5
1B0E9
330
1B0D5
100
AcDbEntity
  8
0
  6
CONTINUOUS
100
AcDbLine
 10
14.33882305602236
 20
3.355227109410975
 30
0.0
 11
17.42346996430115
 21
6.439874017689766
 31
0.0
  0
LINE
  5
1B0EA
330
1B0D5
100
AcDbEntity
  8
0
  6
CONTINUOUS
100
AcDbLine
 10
13.46705359186416
 20
1.809938436172586
 30
0.0
 11
16.0819338255367
 21
4.424818669845129
 31
0.0
  0
LINE
  5
1B0EB
330
1B0D5
100
AcDbEntity
  8
0
  6
CONTINUOUS
100
AcDbLine
 10
16.63283254238972
 20
4.975717386698149
 30
0.0
 11
17.60749913536461
 21
5.950383979673033
 31
0.0
  0
LINE
  5
1B0EC
330
1B0D5
100
AcDbEntity
  8
0
  6
CONTINUOUS
100
AcDbLine
 10
13.66663434263929
 20
1.335999977867529
 30
0.0
 11
15.67604797733754
 21
3.345413612565779
 31
0.0
  0
LINE
  5
1B0ED
330
1B0D5
100
AcDbEntity
  8
0
  6
CONTINUOUS
100
AcDbLine
 10
13.86621509341442
 20
0.8620615195624723
 30
0.0
 11
15.27016212913838
 21
2.26600855528643
 31
0.0
  0
LINE
  5
1B0EE
330
1B0D5
100
AcDbEntity
  8
0
  6
CONTINUOUS
100
AcDbLine
 10
16.81682257348267
 20
4.486188208710908
 30
0.0
 11
17.79152830642806
 21
5.460893941656299
 31
0.0
  0
LINE
  5
1B0EF
330
1B0D5
100
AcDbEntity
  8
0
  6
CONTINUOUS
100
AcDbLine
 10
17.00081260457561
 20
3.996659030723667
 30
0.0
 11
17.97555747749151
 21
4.971403903639565
 31
0.0
  0
LINE
  5
1B0F0
330
1B0D5
100
AcDbEntity
  8
0
  6
CONTINUOUS
100
AcDbLine
 10
20.74362343514722
 20
8.412989070375462
 30
0.0
 11
21.09373436476302
 21
8.763099999991256
 31
0.0
  0
LINE
  5
1B0F1
330
1B0D5
100
AcDbEntity
  8
0
  6
CONTINUOUS
100
AcDbLine
 10
20.25401257174777
 20
7.249858997895826
 30
0.0
 11
21.7672535738432
 21
8.763099999991255
 31
0.0
  0
LINE
  5
1B0F2
330
1B0D5
100
AcDbEntity
  8
0
  6
CONTINUOUS
100
AcDbLine
 10
14.06579584418955
 20
0.3881230612574149
 30
0.0
 11
14.86427628093921
 21
1.186603498007082
 31
0.0
  0
LINE
  5
1B0F3
330
1B0D5
100
AcDbEntity
  8
0
  6
CONTINUOUS
100
AcDbLine
 10
14.26537659496467
 20
-0.0858153970476412
 30
0.0
 11
14.45839043274005
 21
0.1071984407277329
 31
0.0
  0
LINE
  5
1B0F4
330
1B0D5
100
AcDbEntity
  8
0
  6
CONTINUOUS
100
AcDbLine
 10
17.18480263566856
 20
3.507129852736426
 30
0.0
 11
18.15958664855496
 21
4.481913865622833
 31
0.0
  0
LINE
  5
1B0F5
330
1B0D5
100
AcDbEntity
  8
0
  6
CONTINUOUS
100
AcDbLine
 10
17.3687926667615
 20
3.017600674749186
 30
0.0
 11
18.34361581961842
 21
3.9924238276061
 31
0.0
  0
LINE
  5
1B0F6
330
1B0D5
100
AcDbEntity
  8
0
  6
CONTINUOUS
100
AcDbLine
 10
19.76440170834832
 20
6.086728925416191
 30
0.0
 11
22.33924590259489
 21
8.661573119662755
 31
0.0
  0
LINE
  5
1B0F7
330
1B0D5
100
AcDbEntity
  8
0
  6
CONTINUOUS
100
AcDbLine
 10
19.27479084494887
 20
4.923598852936555
 30
0.0
 11
21.84929622842713
 21
7.498104236414807
 31
0.0
  0
LINE
  5
1B0F8
330
1B0D5
100
AcDbEntity
  8
0
  6
CONTINUOUS
100
AcDbLine
 10
17.55278269785445
 20
2.528071496761945
 30
0.0
 11
18.52764499068187
 21
3.502933789589366
 31
0.0
  0
LINE
  5
1B0F9
330
1B0D5
100
AcDbEntity
  8
0
  6
CONTINUOUS
100
AcDbLine
 10
18.78517998154942
 20
3.760468780456919
 30
0.0
 11
21.35934655425936
 21
6.33463535316686
 31
0.0
  0
LINE
  5
1B0FA
330
1B0D5
100
AcDbEntity
  8
0
  6
CONTINUOUS
100
AcDbLine
 10
17.73677272894739
 20
2.038542318774704
 30
0.0
 11
20.8693968800916
 21
5.171166469918914
 31
0.0
  0
LINE
  5
1B0FB
330
1B0D5
100
AcDbEntity
  8
0
  6
CONTINUOUS
100
AcDbLine
 10
17.92076276004034
 20
1.549013140787464
 30
0.0
 11
20.37944720592384
 21
4.007697586670968
 31
0.0
  0
LINE
  5
1B0FC
330
1B0D5
100
AcDbEntity
  8
0
  6
CONTINUOUS
100
AcDbLine
 10
18.10475279113329
 20
1.059483962800223
 30
0.0
 11
19.88949753175608
 21
2.84422870342302
 31
0.0
  0
LINE
  5
1B0FD
330
1B0D5
100
AcDbEntity
  8
0
  6
CONTINUOUS
100
AcDbLine
 10
18.28874282222623
 20
0.5699547848129822
 30
0.0
 11
19.39954785758832
 21
1.680759820175074
 31
0.0
  0
LINE
  5
1B0FE
330
1B0D5
100
AcDbEntity
  8
0
  6
CONTINUOUS
100
AcDbLine
 10
18.47273285331918
 20
0.0804256068257416
 30
0.0
 11
18.90959818342056
 21
0.517290936927127
 31
0.0
  0
LINE
  5
1B0FF
330
1B0D5
100
AcDbEntity
  8
0
  6
CONTINUOUS
100
AcDbLine
 10
14.3590401358224
 20
-0.1570118376323384
 30
0.0
 11
14.24903296539946
 21
-0.0470046672093929
 31
0.0
  0
LINE
  5
1B100
330
1B0D5
100
AcDbEntity
  8
0
  6
CONTINUOUS
100
AcDbLine
 10
14.54309291258661
 20
0.332454594683643
 30
0.0
 11
13.75908329123172
 21
1.116464216038529
 31
0.0
  0
LINE
  5
1B101
330
1B0D5
100
AcDbEntity
  8
0
  6
CONTINUOUS
100
AcDbLine
 10
14.72714568935081
 20
0.8219210269996244
 30
0.0
 11
13.26913361706399
 21
2.27993309928645
 31
0.0
  0
LINE
  5
1B102
330
1B0D5
100
AcDbEntity
  8
0
  6
CONTINUOUS
100
AcDbLine
 10
14.91119846611502
 20
1.311387459315606
 30
0.0
 11
12.77918394289625
 21
3.443401982534371
 31
0.0
  0
LINE
  5
1B103
330
1B0D5
100
AcDbEntity
  8
0
  6
CONTINUOUS
100
AcDbLine
 10
15.09525124287922
 20
1.800853891631587
 30
0.0
 11
12.28923426872852
 21
4.606870865782293
 31
0.0
  0
LINE
  5
1B104
330
1B0D5
100
AcDbEntity
  8
0
  6
CONTINUOUS
100
AcDbLine
 10
15.27930401964343
 20
2.290320323947569
 30
0.0
 11
11.79928459456078
 21
5.770339749030213
 31
0.0
  0
LINE
  5
1B105
330
1B0D5
100
AcDbEntity
  8
0
  6
CONTINUOUS
100
AcDbLine
 10
15.46335679640763
 20
2.77978675626355
 30
0.0
 11
14.48885470994921
 21
3.754288842721972
 31
0.0
  0
LINE
  5
1B106
330
1B0D5
100
AcDbEntity
  8
0
  6
CONTINUOUS
100
AcDbLine
 10
13.88507249233704
 20
4.358071060334137
 30
0.0
 11
11.30933492039305
 21
6.933808632278135
 31
0.0
  0
LINE
  5
1B107
330
1B0D5
100
AcDbEntity
  8
0
  6
CONTINUOUS
100
AcDbLine
 10
18.75840522805855
 20
0.1582575336928151
 30
0.0
 11
18.25383727664818
 21
0.6628254851031863
 31
0.0
  0
LINE
  5
1B108
330
1B0D5
100
AcDbEntity
  8
0
  6
CONTINUOUS
100
AcDbLine
 10
15.64740957317184
 20
3.269253188579531
 30
0.0
 11
14.67288388101266
 21
4.243778880738705
 31
0.0
  0
LINE
  5
1B109
330
1B0D5
100
AcDbEntity
  8
0
  6
CONTINUOUS
100
AcDbLine
 10
13.39509276772158
 20
5.521569994029786
 30
0.0
 11
10.81938524622531
 21
8.097277515526056
 31
0.0
  0
LINE
  5
1B10A
330
1B0D5
100
AcDbEntity
  8
0
  6
CONTINUOUS
100
AcDbLine
 10
18.95798597883369
 20
0.6321959919978686
 30
0.0
 11
17.84825644852853
 21
1.741925522303024
 31
0.0
  0
LINE
  5
1B10B
330
1B0D5
100
AcDbEntity
  8
0
  6
CONTINUOUS
100
AcDbLine
 10
19.15756672960882
 20
1.106134450302922
 30
0.0
 11
17.44267562040888
 21
2.821025559502861
 31
0.0
  0
LINE
  5
1B10C
330
1B0D5
100
AcDbEntity
  8
0
  6
CONTINUOUS
100
AcDbLine
 10
15.83146234993604
 20
3.758719620895513
 30
0.0
 11
14.85691305207612
 21
4.733268918755439
 31
0.0
  0
LINE
  5
1B10D
330
1B0D5
100
AcDbEntity
  8
0
  6
CONTINUOUS
100
AcDbLine
 10
16.01551512670025
 20
4.248186053211494
 30
0.0
 11
15.04094222313957
 21
5.222758956772172
 31
0.0
  0
LINE
  5
1B10E
330
1B0D5
100
AcDbEntity
  8
0
  6
CONTINUOUS
100
AcDbLine
 10
12.90511304310612
 20
6.685068927725435
 30
0.0
 11
10.8270819708403
 21
8.763099999991255
 31
0.0
  0
LINE
  5
1B10F
330
1B0D5
100
AcDbEntity
  8
0
  6
CONTINUOUS
100
AcDbLine
 10
12.41513331849066
 20
7.848567861421083
 30
0.0
 11
11.50060117992049
 21
8.763099999991255
 31
0.0
  0
LINE
  5
1B110
330
1B0D5
100
AcDbEntity
  8
0
  6
CONTINUOUS
100
AcDbLine
 10
19.35714748038395
 20
1.580072908607975
 30
0.0
 11
17.03709479228923
 21
3.900125596702697
 31
0.0
  0
LINE
  5
1B111
330
1B0D5
100
AcDbEntity
  8
0
  6
CONTINUOUS
100
AcDbLine
 10
19.55672823115909
 20
2.054011366913028
 30
0.0
 11
16.63151396416958
 21
4.979225633902534
 31
0.0
  0
LINE
  5
1B112
330
1B0D5
100
AcDbEntity
  8
0
  6
CONTINUOUS
100
AcDbLine
 10
16.19956790346445
 20
4.737652485527476
 30
0.0
 11
15.22497139420302
 21
5.712248994788904
 31
0.0
  0
LINE
  5
1B113
330
1B0D5
100
AcDbEntity
  8
0
  6
CONTINUOUS
100
AcDbLine
 10
16.38362068022866
 20
5.227118917843457
 30
0.0
 11
15.40900056526648
 21
6.201739032805637
 31
0.0
  0
LINE
  5
1B114
330
1B0D5
100
AcDbEntity
  8
0
  6
CONTINUOUS
100
AcDbLine
 10
19.75630898193422
 20
2.527949825218081
 30
0.0
 11
18.70774536448286
 21
3.576513442669441
 31
0.0
  0
LINE
  5
1B115
330
1B0D5
100
AcDbEntity
  8
0
  6
CONTINUOUS
100
AcDbLine
 10
19.95588973270936
 20
3.001888283523134
 30
0.0
 11
18.90726987211446
 21
4.050508144118028
 31
0.0
  0
LINE
  5
1B116
330
1B0D5
100
AcDbEntity
  8
0
  6
CONTINUOUS
100
AcDbLine
 10
20.15547048348449
 20
3.475826741828186
 30
0.0
 11
19.10679437974606
 21
4.524502845566614
 31
0.0
  0
LINE
  5
1B117
330
1B0D5
100
AcDbEntity
  8
0
  6
CONTINUOUS
100
AcDbLine
 10
20.35505123425962
 20
3.94976520013324
 30
0.0
 11
19.30631888737766
 21
4.998497547015201
 31
0.0
  0
LINE
  5
1B118
330
1B0D5
100
AcDbEntity
  8
0
  6
CONTINUOUS
100
AcDbLine
 10
20.55463198503475
 20
4.423703658438292
 30
0.0
 11
19.50584339500926
 21
5.472492248463787
 31
0.0
  0
LINE
  5
1B119
330
1B0D5
100
AcDbEntity
  8
0
  6
CONTINUOUS
100
AcDbLine
 10
18.37481191085755
 20
3.909446896294752
 30
0.0
 11
15.59302973632993
 21
6.691229070822371
 31
0.0
  0
LINE
  5
1B11A
330
1B0D5
100
AcDbEntity
  8
0
  6
CONTINUOUS
100
AcDbLine
 10
17.96904084440766
 20
4.988737171824825
 30
0.0
 11
15.77705890739338
 21
7.180719108839104
 31
0.0
  0
LINE
  5
1B11B
330
1B0D5
100
AcDbEntity
  8
0
  6
CONTINUOUS
100
AcDbLine
 10
17.56326977795777
 20
6.068027447354899
 30
0.0
 11
15.96108807845684
 21
7.670209146855838
 31
0.0
  0
LINE
  5
1B11C
330
1B0D5
100
AcDbEntity
  8
0
  6
CONTINUOUS
100
AcDbLine
 10
17.15749871150789
 20
7.147317722884972
 30
0.0
 11
16.14511724952029
 21
8.15969918487257
 31
0.0
  0
LINE
  5
1B11D
330
1B0D5
100
AcDbEntity
  8
0
  6
CONTINUOUS
100
AcDbLine
 10
16.751727645058
 20
8.226607998415046
 30
0.0
 11
16.32914642058374
 21
8.649189222889303
 31
0.0
  0
LINE
  5
1B11E
330
1B0D5
100
AcDbEntity
  8
0
  6
CONTINUOUS
100
AcDbLine
 10
20.75421273580989
 20
4.897642116743345
 30
0.0
 11
19.70536790264086
 21
5.946486949912374
 31
0.0
  0
LINE
  5
1B11F
330
1B0D5
100
AcDbEntity
  8
0
  6
CONTINUOUS
100
AcDbLine
 10
20.95379348658502
 20
5.371580575048398
 30
0.0
 11
19.90489241027246
 21
6.42048165136096
 31
0.0
  0
LINE
  5
1B120
330
1B0D5
100
AcDbEntity
  8
0
  6
CONTINUOUS
100
AcDbLine
 10
21.15337423736015
 20
5.845519033353452
 30
0.0
 11
20.10441691790406
 21
6.894476352809547
 31
0.0
  0
LINE
  5
1B121
330
1B0D5
100
AcDbEntity
  8
0
  6
CONTINUOUS
100
AcDbLine
 10
21.35295498813529
 20
6.319457491658505
 30
0.0
 11
20.30394142553566
 21
7.368471054258134
 31
0.0
  0
LINE
  5
1B122
330
1B0D5
100
AcDbEntity
  8
0
  6
CONTINUOUS
100
AcDbLine
 10
21.55253573891042
 20
6.793395949963558
 30
0.0
 11
20.50346593316726
 21
7.842465755706721
 31
0.0
  0
LINE
  5
1B123
330
1B0D5
100
AcDbEntity
  8
0
  6
CONTINUOUS
100
AcDbLine
 10
21.75211648968556
 20
7.267334408268612
 30
0.0
 11
20.70299044079886
 21
8.316460457155308
 31
0.0
  0
LINE
  5
1B124
330
1B0D5
100
AcDbEntity
  8
0
  6
CONTINUOUS
100
AcDbLine
 10
21.95169724046069
 20
7.741272866573663
 30
0.0
 11
20.9298701070431
 21
8.763099999991256
 31
0.0
  0
LINE
  5
1B125
330
1B0D5
100
AcDbEntity
  8
0
  6
CONTINUOUS
100
AcDbLine
 10
22.15127799123582
 20
8.215211324878716
 30
0.0
 11
21.60338931612328
 21
8.763099999991256
 31
0.0
  0
LINE
  5
1B126
330
1B0D5
100
AcDbEntity
  8
0
  6
CONTINUOUS
100
AcDbLine
 10
22.35085874201096
 20
8.689149783183769
 30
0.0
 11
22.27690852520347
 21
8.763099999991255
 31
0.0
  0
ENDBLK
  5
1B218
330
1B0D5
100
AcDbEntity
  8
0
100
AcDbBlockEnd
  0
BLOCK
  5
1B219
330
1B127
100
AcDbEntity
  8
0
100
AcDbBlockBegin
  2
*X150
 70
     1
 10
0.0
 20
0.0
 30
0.0
  3
*X150
  1

  0
LINE
  5
1B128
330
1B127
100
AcDbEntity
  8
0
  6
CONTINUOUS
100
AcDbLine
 10
23.19462913593892
 20
8.169917934846424
 30
0.0
 11
23.70775465517246
 21
8.683043454079957
 31
0.0
  0
LINE
  5
1B129
330
1B127
100
AcDbEntity
  8
0
  6
CONTINUOUS
100
AcDbLine
 10
22.64923161835078
 20
6.951001208178088
 30
0.0
 11
23.9159364069932
 21
8.217705996820516
 31
0.0
  0
LINE
  5
1B12A
330
1B127
100
AcDbEntity
  8
0
  6
CONTINUOUS
100
AcDbLine
 10
22.10383410076263
 20
5.732084481509751
 30
0.0
 11
24.12411815881395
 21
7.752368539561078
 31
0.0
  0
LINE
  5
1B12B
330
1B127
100
AcDbEntity
  8
0
  6
CONTINUOUS
100
AcDbLine
 10
21.55843658317447
 20
4.513167754841414
 30
0.0
 11
24.3322999106347
 21
7.287031082301639
 31
0.0
  0
LINE
  5
1B12C
330
1B127
100
AcDbEntity
  8
0
  6
CONTINUOUS
100
AcDbLine
 10
21.01303906558632
 20
3.294251028173077
 30
0.0
 11
24.54048166245544
 21
6.821693625042199
 31
0.0
  0
LINE
  5
1B12D
330
1B127
100
AcDbEntity
  8
0
  6
CONTINUOUS
100
AcDbLine
 10
20.46764154799817
 20
2.075334301504738
 30
0.0
 11
23.28571549467848
 21
4.89340824818505
 31
0.0
  0
LINE
  5
1B12E
330
1B127
100
AcDbEntity
  8
0
  6
CONTINUOUS
100
AcDbLine
 10
19.92224403041002
 20
0.8564175748364002
 30
0.0
 11
22.74075865492779
 21
3.674932199354171
 31
0.0
  0
LINE
  5
1B12F
330
1B127
100
AcDbEntity
  8
0
  6
CONTINUOUS
100
AcDbLine
 10
23.67305085490148
 20
5.280743608408048
 30
0.0
 11
24.74866341427619
 21
6.356356167782759
 31
0.0
  0
LINE
  5
1B130
330
1B127
100
AcDbEntity
  8
0
  6
CONTINUOUS
100
AcDbLine
 10
23.88118970842314
 20
4.815363252849522
 30
0.0
 11
24.95684516609694
 21
5.89101871052332
 31
0.0
  0
LINE
  5
1B131
330
1B127
100
AcDbEntity
  8
0
  6
CONTINUOUS
100
AcDbLine
 10
19.73925852647308
 20
-0.0000871381807288
 30
0.0
 11
23.4103456646501
 21
3.670999999996297
 31
0.0
  0
LINE
  5
1B132
330
1B127
100
AcDbEntity
  8
0
  6
CONTINUOUS
100
AcDbLine
 10
24.0893285619448
 20
4.349982897290997
 30
0.0
 11
25.16502691791769
 21
5.42568125326388
 31
0.0
  0
LINE
  5
1B133
330
1B127
100
AcDbEntity
  8
0
  6
CONTINUOUS
100
AcDbLine
 10
20.41282099582748
 20
-0.0000438779065108
 30
0.0
 11
21.64944178675636
 21
1.236576913022366
 31
0.0
  0
LINE
  5
1B134
330
1B127
100
AcDbEntity
  8
0
  6
CONTINUOUS
100
AcDbLine
 10
22.78126487373161
 20
2.36839999999762
 30
0.0
 11
24.08386487373029
 21
3.670999999996297
 31
0.0
  0
LINE
  5
1B135
330
1B127
100
AcDbEntity
  8
0
  6
CONTINUOUS
100
AcDbLine
 10
24.29746741546646
 20
3.884602541732471
 30
0.0
 11
25.37320866973843
 21
4.960343796004441
 31
0.0
  0
LINE
  5
1B136
330
1B127
100
AcDbEntity
  8
0
  6
CONTINUOUS
100
AcDbLine
 10
21.08638346518189
 20
-0.0000006176322938
 30
0.0
 11
21.10379033335899
 21
0.0174062505448083
 31
0.0
  0
LINE
  5
1B137
330
1B127
100
AcDbEntity
  8
0
  6
CONTINUOUS
100
AcDbLine
 10
23.4547840828118
 20
2.36839999999762
 30
0.0
 11
25.58139042155918
 21
4.495006338745002
 31
0.0
  0
LINE
  5
1B138
330
1B127
100
AcDbEntity
  8
0
  6
CONTINUOUS
100
AcDbLine
 10
29.30199999996933
 20
8.215615917155148
 30
0.0
 11
29.84948408280543
 21
8.763099999991255
 31
0.0
  0
LINE
  5
1B139
330
1B127
100
AcDbEntity
  8
0
  6
CONTINUOUS
100
AcDbLine
 10
24.12830329189199
 20
2.36839999999762
 30
0.0
 11
25.78957217337993
 21
4.029668881485562
 31
0.0
  0
LINE
  5
1B13A
330
1B127
100
AcDbEntity
  8
0
  6
CONTINUOUS
100
AcDbLine
 10
29.30199999996933
 20
7.54209670807496
 30
0.0
 11
30.52300329188562
 21
8.763099999991255
 31
0.0
  0
LINE
  5
1B13B
330
1B127
100
AcDbEntity
  8
0
  6
CONTINUOUS
100
AcDbLine
 10
24.80182250097217
 20
2.36839999999762
 30
0.0
 11
25.99775392520067
 21
3.564331424226122
 31
0.0
  0
LINE
  5
1B13C
330
1B127
100
AcDbEntity
  8
0
  6
CONTINUOUS
100
AcDbLine
 10
29.30199999996933
 20
6.868577498994774
 30
0.0
 11
30.74199999996926
 21
8.308577498994712
 31
0.0
  0
LINE
  5
1B13D
330
1B127
100
AcDbEntity
  8
0
  6
CONTINUOUS
100
AcDbLine
 10
25.13028238392013
 20
2.023340673865392
 30
0.0
 11
26.20593567702142
 21
3.098993966966683
 31
0.0
  0
LINE
  5
1B13E
330
1B127
100
AcDbEntity
  8
0
  6
CONTINUOUS
100
AcDbLine
 10
25.33838066033617
 20
1.557919741201244
 30
0.0
 11
26.41411742884217
 21
2.633656509707244
 31
0.0
  0
LINE
  5
1B13F
330
1B127
100
AcDbEntity
  8
0
  6
CONTINUOUS
100
AcDbLine
 10
25.54647893675221
 20
1.092498808537098
 30
0.0
 11
26.62229918066291
 21
2.168319052447804
 31
0.0
  0
LINE
  5
1B140
330
1B127
100
AcDbEntity
  8
0
  6
CONTINUOUS
100
AcDbLine
 10
25.75457721316825
 20
0.62707787587295
 30
0.0
 11
26.83048093248366
 21
1.702981595188365
 31
0.0
  0
LINE
  5
1B141
330
1B127
100
AcDbEntity
  8
0
  6
CONTINUOUS
100
AcDbLine
 10
29.30199999996933
 20
6.195058289914587
 30
0.0
 11
30.74199999996926
 21
7.635058289914522
 31
0.0
  0
LINE
  5
1B142
330
1B127
100
AcDbEntity
  8
0
  6
CONTINUOUS
100
AcDbLine
 10
29.30199999996933
 20
5.521539080834401
 30
0.0
 11
30.74199999996926
 21
6.961539080834331
 31
0.0
  0
LINE
  5
1B143
330
1B127
100
AcDbEntity
  8
0
  6
CONTINUOUS
100
AcDbLine
 10
29.30199999996933
 20
4.848019871754214
 30
0.0
 11
30.74199999996925
 21
6.288019871754143
 31
0.0
  0
LINE
  5
1B144
330
1B127
100
AcDbEntity
  8
0
  6
CONTINUOUS
100
AcDbLine
 10
29.30199999996933
 20
4.174500662674028
 30
0.0
 11
30.74199999996925
 21
5.614500662673953
 31
0.0
  0
LINE
  5
1B145
330
1B127
100
AcDbEntity
  8
0
  6
CONTINUOUS
100
AcDbLine
 10
25.96267548958429
 20
0.1616569432088024
 30
0.0
 11
27.18411854636669
 21
1.383099999991207
 31
0.0
  0
LINE
  5
1B146
330
1B127
100
AcDbEntity
  8
0
  6
CONTINUOUS
100
AcDbLine
 10
29.30199999996933
 20
3.500981453593841
 30
0.0
 11
30.74199999996925
 21
4.940981453593762
 31
0.0
  0
LINE
  5
1B147
330
1B127
100
AcDbEntity
  8
0
  6
CONTINUOUS
100
AcDbLine
 10
26.50763775544691
 20
0.0330999999912356
 30
0.0
 11
27.85763775544689
 21
1.383099999991223
 31
0.0
  0
LINE
  5
1B148
330
1B127
100
AcDbEntity
  8
0
  6
CONTINUOUS
100
AcDbLine
 10
29.30199999996933
 20
2.827462244513656
 30
0.0
 11
30.74199999996925
 21
4.267462244513574
 31
0.0
  0
LINE
  5
1B149
330
1B127
100
AcDbEntity
  8
0
  6
CONTINUOUS
100
AcDbLine
 10
27.18115696452709
 20
0.0330999999912356
 30
0.0
 11
28.55073879889363
 21
1.402681834357775
 31
0.0
  0
LINE
  5
1B14A
330
1B127
100
AcDbEntity
  8
0
  6
CONTINUOUS
100
AcDbLine
 10
29.28241816560272
 20
2.134361201066866
 30
0.0
 11
30.74199999996924
 21
3.593943035433383
 31
0.0
  0
LINE
  5
1B14B
330
1B127
100
AcDbEntity
  8
0
  6
CONTINUOUS
100
AcDbLine
 10
27.85467617360728
 20
0.0330999999912356
 30
0.0
 11
30.74199999996924
 21
2.920423826353195
 31
0.0
  0
LINE
  5
1B14C
330
1B127
100
AcDbEntity
  8
0
  6
CONTINUOUS
100
AcDbLine
 10
28.53897559587887
 20
0.0438802131826428
 30
0.0
 11
30.73121978677781
 21
2.236124404081585
 31
0.0
  0
LINE
  5
1B14D
330
1B127
100
AcDbEntity
  8
0
  6
CONTINUOUS
100
AcDbLine
 10
29.45140055588722
 20
0.2827859641107988
 30
0.0
 11
30.49231403584965
 21
1.323699444073236
 31
0.0
  0
LINE
  5
1B14E
330
1B127
100
AcDbEntity
  8
0
  6
CONTINUOUS
100
AcDbLine
 10
19.59027867740337
 20
-0.0000967065718083
 30
0.0
 11
19.55485265190471
 21
0.035329318926844
 31
0.0
  0
LINE
  5
1B14F
330
1B127
100
AcDbEntity
  8
0
  6
CONTINUOUS
100
AcDbLine
 10
20.26375463176586
 20
-0.0000534518541091
 30
0.0
 11
19.76305575737534
 21
0.5006454225364014
 31
0.0
  0
LINE
  5
1B150
330
1B127
100
AcDbEntity
  8
0
  6
CONTINUOUS
100
AcDbLine
 10
20.93723058612834
 20
-0.0000101971364099
 30
0.0
 11
19.97125886284597
 21
0.965961526145958
 31
0.0
  0
LINE
  5
1B151
330
1B127
100
AcDbEntity
  8
0
  6
CONTINUOUS
100
AcDbLine
 10
21.25514828313686
 20
0.355591314935257
 30
0.0
 11
20.1794619683166
 21
1.431277629755512
 31
0.0
  0
LINE
  5
1B152
330
1B127
100
AcDbEntity
  8
0
  6
CONTINUOUS
100
AcDbLine
 10
21.46338838394921
 20
0.8208704232030986
 30
0.0
 11
20.38766507378723
 21
1.896593733365069
 31
0.0
  0
LINE
  5
1B153
330
1B127
100
AcDbEntity
  8
0
  6
CONTINUOUS
100
AcDbLine
 10
21.67162848476155
 20
1.28614953147094
 30
0.0
 11
20.59586817925786
 21
2.361909836974626
 31
0.0
  0
LINE
  5
1B154
330
1B127
100
AcDbEntity
  8
0
  6
CONTINUOUS
100
AcDbLine
 10
21.8798685855739
 20
1.751428639738782
 30
0.0
 11
20.80407128472849
 21
2.827225940584183
 31
0.0
  0
LINE
  5
1B155
330
1B127
100
AcDbEntity
  8
0
  6
CONTINUOUS
100
AcDbLine
 10
22.08810868638624
 20
2.216707748006623
 30
0.0
 11
21.01227439019912
 21
3.292542044193739
 31
0.0
  0
LINE
  5
1B156
330
1B127
100
AcDbEntity
  8
0
  6
CONTINUOUS
100
AcDbLine
 10
22.60993564347543
 20
2.36839999999762
 30
0.0
 11
21.22047749566975
 21
3.757858147803296
 31
0.0
  0
LINE
  5
1B157
330
1B127
100
AcDbEntity
  8
0
  6
CONTINUOUS
100
AcDbLine
 10
23.28345485255561
 20
2.36839999999762
 30
0.0
 11
21.42868060114038
 21
4.223174251412853
 31
0.0
  0
LINE
  5
1B158
330
1B127
100
AcDbEntity
  8
0
  6
CONTINUOUS
100
AcDbLine
 10
26.29227406164219
 20
0.0330999999912356
 30
0.0
 11
25.80009199592872
 21
0.5252820657046957
 31
0.0
  0
LINE
  5
1B159
330
1B127
100
AcDbEntity
  8
0
  6
CONTINUOUS
100
AcDbLine
 10
23.9569740616358
 20
2.36839999999762
 30
0.0
 11
21.63688370661101
 21
4.688490355022409
 31
0.0
  0
LINE
  5
1B15A
330
1B127
100
AcDbEntity
  8
0
  6
CONTINUOUS
100
AcDbLine
 10
26.96579327072237
 20
0.0330999999912356
 30
0.0
 11
25.2554132311971
 21
1.743480039516508
 31
0.0
  0
LINE
  5
1B15B
330
1B127
100
AcDbEntity
  8
0
  6
CONTINUOUS
100
AcDbLine
 10
24.63049327071599
 20
2.36839999999762
 30
0.0
 11
23.32789327071731
 21
3.670999999996297
 31
0.0
  0
LINE
  5
1B15C
330
1B127
100
AcDbEntity
  8
0
  6
CONTINUOUS
100
AcDbLine
 10
22.92098674744635
 20
4.077906523267254
 30
0.0
 11
21.84508681208164
 21
5.153806458631966
 31
0.0
  0
LINE
  5
1B15D
330
1B127
100
AcDbEntity
  8
0
  6
CONTINUOUS
100
AcDbLine
 10
27.63931247980256
 20
0.0330999999912356
 30
0.0
 11
24.0014124797975
 21
3.670999999996297
 31
0.0
  0
LINE
  5
1B15E
330
1B127
100
AcDbEntity
  8
0
  6
CONTINUOUS
100
AcDbLine
 10
23.129125600968
 20
4.5432868788258
 30
0.0
 11
22.05328991755227
 21
5.619122562241522
 31
0.0
  0
LINE
  5
1B15F
330
1B127
100
AcDbEntity
  8
0
  6
CONTINUOUS
100
AcDbLine
 10
28.31283168888275
 20
0.0330999999912356
 30
0.0
 11
24.16488385994816
 21
4.181047828925828
 31
0.0
  0
LINE
  5
1B160
330
1B127
100
AcDbEntity
  8
0
  6
CONTINUOUS
100
AcDbLine
 10
23.33726445448964
 20
5.008667234384345
 30
0.0
 11
22.2614930230229
 21
6.084438665851079
 31
0.0
  0
LINE
  5
1B161
330
1B127
100
AcDbEntity
  8
0
  6
CONTINUOUS
100
AcDbLine
 10
28.92085740005492
 20
0.0985934978992438
 30
0.0
 11
27.63635089796295
 21
1.383099999991217
 31
0.0
  0
LINE
  5
1B162
330
1B127
100
AcDbEntity
  8
0
  6
CONTINUOUS
100
AcDbLine
 10
26.43704649509776
 20
2.582404402856405
 30
0.0
 11
23.61992702019732
 21
5.399523877756844
 31
0.0
  0
LINE
  5
1B163
330
1B127
100
AcDbEntity
  8
0
  6
CONTINUOUS
100
AcDbLine
 10
23.54540330801128
 20
5.47404758994289
 30
0.0
 11
22.46969612849353
 21
6.549754769460635
 31
0.0
  0
LINE
  5
1B164
330
1B127
100
AcDbEntity
  8
0
  6
CONTINUOUS
100
AcDbLine
 10
29.42225615078443
 20
0.2707139562499279
 30
0.0
 11
28.30987010704312
 21
1.383099999991234
 31
0.0
  0
LINE
  5
1B165
330
1B127
100
AcDbEntity
  8
0
  6
CONTINUOUS
100
AcDbLine
 10
25.89179548232307
 20
3.801174624711282
 30
0.0
 11
22.67789923396416
 21
7.015070873070191
 31
0.0
  0
LINE
  5
1B166
330
1B127
100
AcDbEntity
  8
0
  6
CONTINUOUS
100
AcDbLine
 10
29.83624534690007
 20
0.5302439692144705
 30
0.0
 11
28.85811781497101
 21
1.508371501143527
 31
0.0
  0
LINE
  5
1B167
330
1B127
100
AcDbEntity
  8
0
  6
CONTINUOUS
100
AcDbLine
 10
25.34654446954838
 20
5.01994484656616
 30
0.0
 11
22.88610233943479
 21
7.480386976679748
 31
0.0
  0
LINE
  5
1B168
330
1B127
100
AcDbEntity
  8
0
  6
CONTINUOUS
100
AcDbLine
 10
30.17865975401872
 20
0.8613487711760022
 30
0.0
 11
29.18888744090175
 21
1.851121084292977
 31
0.0
  0
LINE
  5
1B169
330
1B127
100
AcDbEntity
  8
0
  6
CONTINUOUS
100
AcDbLine
 10
24.80129345677369
 20
6.238715068421037
 30
0.0
 11
23.09430544490542
 21
7.945703080289305
 31
0.0
  0
LINE
  5
1B16A
330
1B127
100
AcDbEntity
  8
0
  6
CONTINUOUS
100
AcDbLine
 10
30.45496647202376
 20
1.258561262251155
 30
0.0
 11
29.30199999996933
 21
2.411527734305588
 31
0.0
  0
LINE
  5
1B16B
330
1B127
100
AcDbEntity
  8
0
  6
CONTINUOUS
100
AcDbLine
 10
24.256042443999
 20
7.457485290275915
 30
0.0
 11
23.30250855037605
 21
8.411019183898862
 31
0.0
  0
LINE
  5
1B16C
330
1B127
100
AcDbEntity
  8
0
  6
CONTINUOUS
100
AcDbLine
 10
30.64868582078271
 20
1.738361122572387
 30
0.0
 11
29.30199999996933
 21
3.085046943385775
 31
0.0
  0
LINE
  5
1B16D
330
1B127
100
AcDbEntity
  8
0
  6
CONTINUOUS
100
AcDbLine
 10
23.71079143122431
 20
8.676255512130794
 30
0.0
 11
23.51071165584668
 21
8.876335287508416
 31
0.0
  0
LINE
  5
1B16E
330
1B127
100
AcDbEntity
  8
0
  6
CONTINUOUS
100
AcDbLine
 10
30.73802122914428
 20
2.322544923291007
 30
0.0
 11
29.30199999996933
 21
3.758566152465961
 31
0.0
  0
LINE
  5
1B16F
330
1B127
100
AcDbEntity
  8
0
  6
CONTINUOUS
100
AcDbLine
 10
30.74199999996924
 20
2.992085361546236
 30
0.0
 11
29.30199999996933
 21
4.432085361546148
 31
0.0
  0
LINE
  5
1B170
330
1B127
100
AcDbEntity
  8
0
  6
CONTINUOUS
100
AcDbLine
 10
30.74199999996924
 20
3.665604570626419
 30
0.0
 11
29.30199999996933
 21
5.105604570626333
 31
0.0
  0
LINE
  5
1B171
330
1B127
100
AcDbEntity
  8
0
  6
CONTINUOUS
100
AcDbLine
 10
30.74199999996925
 20
4.339123779706602
 30
0.0
 11
29.30199999996933
 21
5.77912377970652
 31
0.0
  0
LINE
  5
1B172
330
1B127
100
AcDbEntity
  8
0
  6
CONTINUOUS
100
AcDbLine
 10
30.74199999996925
 20
5.012642988786785
 30
0.0
 11
29.30199999996933
 21
6.452642988786707
 31
0.0
  0
LINE
  5
1B173
330
1B127
100
AcDbEntity
  8
0
  6
CONTINUOUS
100
AcDbLine
 10
30.74199999996925
 20
5.68616219786697
 30
0.0
 11
29.30199999996933
 21
7.126162197866894
 31
0.0
  0
LINE
  5
1B174
330
1B127
100
AcDbEntity
  8
0
  6
CONTINUOUS
100
AcDbLine
 10
30.74199999996925
 20
6.359681406947153
 30
0.0
 11
29.30199999996933
 21
7.799681406947081
 31
0.0
  0
LINE
  5
1B175
330
1B127
100
AcDbEntity
  8
0
  6
CONTINUOUS
100
AcDbLine
 10
30.74199999996926
 20
7.033200616027337
 30
0.0
 11
29.30199999996933
 21
8.473200616027269
 31
0.0
  0
LINE
  5
1B176
330
1B127
100
AcDbEntity
  8
0
  6
CONTINUOUS
100
AcDbLine
 10
30.74199999996926
 20
7.706719825107518
 30
0.0
 11
29.68561982508552
 21
8.763099999991255
 31
0.0
  0
LINE
  5
1B177
330
1B127
100
AcDbEntity
  8
0
  6
CONTINUOUS
100
AcDbLine
 10
30.74199999996926
 20
8.380239034187703
 30
0.0
 11
30.35913903416571
 21
8.763099999991255
 31
0.0
  0
ENDBLK
  5
1B21A
330
1B127
100
AcDbEntity
  8
0
100
AcDbBlockEnd
  0
BLOCK
  5
1B21B
330
1B178
100
AcDbEntity
  8
0
100
AcDbBlockBegin
  2
*X151
 70
     1
 10
0.0
 20
0.0
 30
0.0
  3
*X151
  1

  0
LINE
  5
1B179
330
1B178
100
AcDbEntity
  8
0
  6
CONTINUOUS
100
AcDbLine
 10
31.64199999996833
 20
8.535058289913598
 30
0.0
 11
31.87004171004599
 21
8.763099999991255
 31
0.0
  0
LINE
  5
1B17A
330
1B178
100
AcDbEntity
  8
0
  6
CONTINUOUS
100
AcDbLine
 10
31.64199999996833
 20
7.861539080833412
 30
0.0
 11
32.54356091912618
 21
8.763099999991255
 31
0.0
  0
LINE
  5
1B17B
330
1B178
100
AcDbEntity
  8
0
  6
CONTINUOUS
100
AcDbLine
 10
31.64199999996833
 20
7.188019871753226
 30
0.0
 11
33.08199999996839
 21
8.628019871753281
 31
0.0
  0
LINE
  5
1B17C
330
1B178
100
AcDbEntity
  8
0
  6
CONTINUOUS
100
AcDbLine
 10
31.64199999996833
 20
6.51450066267304
 30
0.0
 11
33.08199999996839
 21
7.954500662673095
 31
0.0
  0
LINE
  5
1B17D
330
1B178
100
AcDbEntity
  8
0
  6
CONTINUOUS
100
AcDbLine
 10
31.64199999996833
 20
5.840981453592853
 30
0.0
 11
33.08199999996839
 21
7.280981453592908
 31
0.0
  0
LINE
  5
1B17E
330
1B178
100
AcDbEntity
  8
0
  6
CONTINUOUS
100
AcDbLine
 10
31.64199999996833
 20
5.167462244512667
 30
0.0
 11
33.08199999996839
 21
6.607462244512721
 31
0.0
  0
LINE
  5
1B17F
330
1B178
100
AcDbEntity
  8
0
  6
CONTINUOUS
100
AcDbLine
 10
31.64199999996833
 20
4.493943035432481
 30
0.0
 11
33.08199999996839
 21
5.933943035432535
 31
0.0
  0
LINE
  5
1B180
330
1B178
100
AcDbEntity
  8
0
  6
CONTINUOUS
100
AcDbLine
 10
31.64199999996833
 20
3.820423826352293
 30
0.0
 11
33.08199999996839
 21
5.260423826352348
 31
0.0
  0
LINE
  5
1B181
330
1B178
100
AcDbEntity
  8
0
  6
CONTINUOUS
100
AcDbLine
 10
31.64199999996833
 20
3.146904617272106
 30
0.0
 11
33.08199999996839
 21
4.586904617272161
 31
0.0
  0
LINE
  5
1B182
330
1B178
100
AcDbEntity
  8
0
  6
CONTINUOUS
100
AcDbLine
 10
36.23199999996837
 20
8.410423826352325
 30
0.0
 11
36.5846761736073
 21
8.763099999991255
 31
0.0
  0
LINE
  5
1B183
330
1B178
100
AcDbEntity
  8
0
  6
CONTINUOUS
100
AcDbLine
 10
36.23199999996837
 20
7.73690461727214
 30
0.0
 11
37.25819538268748
 21
8.763099999991255
 31
0.0
  0
LINE
  5
1B184
330
1B178
100
AcDbEntity
  8
0
  6
CONTINUOUS
100
AcDbLine
 10
31.64257403601376
 20
2.473959444237348
 30
0.0
 11
33.08199999996839
 21
3.913385408191974
 31
0.0
  0
LINE
  5
1B185
330
1B178
100
AcDbEntity
  8
0
  6
CONTINUOUS
100
AcDbLine
 10
36.23199999996837
 20
7.063385408191953
 30
0.0
 11
37.67199999996831
 21
8.503385408191894
 31
0.0
  0
LINE
  5
1B186
330
1B178
100
AcDbEntity
  8
0
  6
CONTINUOUS
100
AcDbLine
 10
31.72013636841932
 20
1.87800256756272
 30
0.0
 11
33.08199999996839
 21
3.239866199111788
 31
0.0
  0
LINE
  5
1B187
330
1B178
100
AcDbEntity
  8
0
  6
CONTINUOUS
100
AcDbLine
 10
36.23199999996837
 20
6.389866199111767
 30
0.0
 11
37.67199999996831
 21
7.829866199111708
 31
0.0
  0
LINE
  5
1B188
330
1B178
100
AcDbEntity
  8
0
  6
CONTINUOUS
100
AcDbLine
 10
31.89042734314753
 20
1.374774333210744
 30
0.0
 11
33.08199999996839
 21
2.566346990031601
 31
0.0
  0
LINE
  5
1B189
330
1B178
100
AcDbEntity
  8
0
  6
CONTINUOUS
100
AcDbLine
 10
36.23199999996837
 20
5.71634699003158
 30
0.0
 11
37.67199999996831
 21
7.156346990031521
 31
0.0
  0
LINE
  5
1B18A
330
1B178
100
AcDbEntity
  8
0
  6
CONTINUOUS
100
AcDbLine
 10
32.14210568064475
 20
0.952933461627778
 30
0.0
 11
33.18745552475986
 21
1.998283305742888
 31
0.0
  0
LINE
  5
1B18B
330
1B178
100
AcDbEntity
  8
0
  6
CONTINUOUS
100
AcDbLine
 10
36.23199999996837
 20
5.042827780951393
 30
0.0
 11
37.67199999996831
 21
6.482827780951334
 31
0.0
  0
LINE
  5
1B18C
330
1B178
100
AcDbEntity
  8
0
  6
CONTINUOUS
100
AcDbLine
 10
32.45820639400955
 20
0.5955149659123915
 30
0.0
 11
33.47242681921943
 21
1.60973539112227
 31
0.0
  0
LINE
  5
1B18D
330
1B178
100
AcDbEntity
  8
0
  6
CONTINUOUS
100
AcDbLine
 10
36.23199999996837
 20
4.369308571871207
 30
0.0
 11
37.67199999996831
 21
5.809308571871147
 31
0.0
  0
LINE
  5
1B18E
330
1B178
100
AcDbEntity
  8
0
  6
CONTINUOUS
100
AcDbLine
 10
32.83432456621412
 20
0.2981139290367771
 30
0.0
 11
33.89722476612215
 21
1.361014128944803
 31
0.0
  0
LINE
  5
1B18F
330
1B178
100
AcDbEntity
  8
0
  6
CONTINUOUS
100
AcDbLine
 10
36.23199999996837
 20
3.69578936279102
 30
0.0
 11
37.67199999996831
 21
5.135789362790962
 31
0.0
  0
LINE
  5
1B190
330
1B178
100
AcDbEntity
  8
0
  6
CONTINUOUS
100
AcDbLine
 10
33.2711633111245
 20
0.0614334648669672
 30
0.0
 11
34.43247338014423
 21
1.222743533886696
 31
0.0
  0
LINE
  5
1B191
330
1B178
100
AcDbEntity
  8
0
  6
CONTINUOUS
100
AcDbLine
 10
36.23199999996837
 20
3.022270153710834
 30
0.0
 11
37.67199999996831
 21
4.462270153710775
 31
0.0
  0
LINE
  5
1B192
330
1B178
100
AcDbEntity
  8
0
  6
CONTINUOUS
100
AcDbLine
 10
33.76515245874577
 20
-0.1180965965919523
 30
0.0
 11
35.1587445516215
 21
1.27549549628378
 31
0.0
  0
LINE
  5
1B193
330
1B178
100
AcDbEntity
  8
0
  6
CONTINUOUS
100
AcDbLine
 10
36.21639478609585
 20
2.333145730758136
 30
0.0
 11
37.67199999996831
 21
3.788750944630588
 31
0.0
  0
LINE
  5
1B194
330
1B178
100
AcDbEntity
  8
0
  6
CONTINUOUS
100
AcDbLine
 10
34.34060583368432
 20
-0.2161624307335863
 30
0.0
 11
37.67199999996831
 21
3.115231735550401
 31
0.0
  0
LINE
  5
1B195
330
1B178
100
AcDbEntity
  8
0
  6
CONTINUOUS
100
AcDbLine
 10
35.01698193613905
 20
-0.2133055373590427
 30
0.0
 11
37.66876712070525
 21
2.438479647207154
 31
0.0
  0
LINE
  5
1B196
330
1B178
100
AcDbEntity
  8
0
  6
CONTINUOUS
100
AcDbLine
 10
35.90743367693304
 20
0.0036269943547609
 30
0.0
 11
37.51723902192366
 21
1.613432339345381
 31
0.0
  0
LINE
  5
1B197
330
1B178
100
AcDbEntity
  8
0
  6
CONTINUOUS
100
AcDbLine
 10
32.55309425579761
 20
0.5074718966376706
 30
0.0
 11
32.27784730925847
 21
0.7827188431768102
 31
0.0
  0
LINE
  5
1B198
330
1B178
100
AcDbEntity
  8
0
  6
CONTINUOUS
100
AcDbLine
 10
33.87496468909684
 20
-0.1408793275813673
 30
0.0
 11
31.67993083278052
 21
2.054154528734943
 31
0.0
  0
LINE
  5
1B199
330
1B178
100
AcDbEntity
  8
0
  6
CONTINUOUS
100
AcDbLine
 10
34.64362813207632
 20
-0.2360235614806649
 30
0.0
 11
31.64199999996833
 21
2.765604570627322
 31
0.0
  0
LINE
  5
1B19A
330
1B178
100
AcDbEntity
  8
0
  6
CONTINUOUS
100
AcDbLine
 10
35.25801106796118
 20
-0.1768872882853429
 30
0.0
 11
31.64199999996833
 21
3.439123779707508
 31
0.0
  0
LINE
  5
1B19B
330
1B178
100
AcDbEntity
  8
0
  6
CONTINUOUS
100
AcDbLine
 10
35.79065650332146
 20
-0.0360135145654361
 30
0.0
 11
34.54143210838231
 21
1.213210880373721
 31
0.0
  0
LINE
  5
1B19C
330
1B178
100
AcDbEntity
  8
0
  6
CONTINUOUS
100
AcDbLine
 10
33.08199999996839
 20
2.67264298878764
 30
0.0
 11
31.64199999996833
 21
4.112642988787695
 31
0.0
  0
LINE
  5
1B19D
330
1B178
100
AcDbEntity
  8
0
  6
CONTINUOUS
100
AcDbLine
 10
36.25975597779143
 20
0.1684062200447833
 30
0.0
 11
35.15395110240023
 21
1.274211095435983
 31
0.0
  0
LINE
  5
1B19E
330
1B178
100
AcDbEntity
  8
0
  6
CONTINUOUS
100
AcDbLine
 10
33.08199999996839
 20
3.346162197867826
 30
0.0
 11
31.64199999996833
 21
4.786162197867881
 31
0.0
  0
LINE
  5
1B19F
330
1B178
100
AcDbEntity
  8
0
  6
CONTINUOUS
100
AcDbLine
 10
36.67226329638774
 20
0.4294181105286579
 30
0.0
 11
35.63766478748767
 21
1.464016619428737
 31
0.0
  0
LINE
  5
1B1A0
330
1B178
100
AcDbEntity
  8
0
  6
CONTINUOUS
100
AcDbLine
 10
33.08199999996839
 20
4.019681406948012
 30
0.0
 11
31.64199999996833
 21
5.459681406948068
 31
0.0
  0
LINE
  5
1B1A1
330
1B178
100
AcDbEntity
  8
0
  6
CONTINUOUS
100
AcDbLine
 10
37.01677749710036
 20
0.7584231188962329
 30
0.0
 11
35.99563422741351
 21
1.779566388583076
 31
0.0
  0
LINE
  5
1B1A2
330
1B178
100
AcDbEntity
  8
0
  6
CONTINUOUS
100
AcDbLine
 10
33.08199999996839
 20
4.693200616028199
 30
0.0
 11
31.64199999996833
 21
6.133200616028255
 31
0.0
  0
LINE
  5
1B1A3
330
1B178
100
AcDbEntity
  8
0
  6
CONTINUOUS
100
AcDbLine
 10
37.29859977568887
 20
1.1501200493879
 30
0.0
 11
36.20680593341555
 21
2.241913891661226
 31
0.0
  0
LINE
  5
1B1A4
330
1B178
100
AcDbEntity
  8
0
  6
CONTINUOUS
100
AcDbLine
 10
33.08199999996839
 20
5.366719825108386
 30
0.0
 11
31.64199999996833
 21
6.80671982510844
 31
0.0
  0
LINE
  5
1B1A5
330
1B178
100
AcDbEntity
  8
0
  6
CONTINUOUS
100
AcDbLine
 10
37.5148623517228
 20
1.607376682434161
 30
0.0
 11
36.23199999996837
 21
2.890239034188594
 31
0.0
  0
LINE
  5
1B1A6
330
1B178
100
AcDbEntity
  8
0
  6
CONTINUOUS
100
AcDbLine
 10
33.08199999996839
 20
6.040239034188573
 30
0.0
 11
31.64199999996833
 21
7.480239034188627
 31
0.0
  0
LINE
  5
1B1A7
330
1B178
100
AcDbEntity
  8
0
  6
CONTINUOUS
100
AcDbLine
 10
37.64705163358367
 20
2.148706609653477
 30
0.0
 11
36.23199999996837
 21
3.56375824326878
 31
0.0
  0
LINE
  5
1B1A8
330
1B178
100
AcDbEntity
  8
0
  6
CONTINUOUS
100
AcDbLine
 10
33.08199999996839
 20
6.713758243268758
 30
0.0
 11
31.64199999996833
 21
8.153758243268815
 31
0.0
  0
LINE
  5
1B1A9
330
1B178
100
AcDbEntity
  8
0
  6
CONTINUOUS
100
AcDbLine
 10
37.67199999996831
 20
2.797277452349026
 30
0.0
 11
36.23199999996837
 21
4.237277452348967
 31
0.0
  0
LINE
  5
1B1AA
330
1B178
100
AcDbEntity
  8
0
  6
CONTINUOUS
100
AcDbLine
 10
37.67199999996831
 20
3.470796661429213
 30
0.0
 11
36.23199999996837
 21
4.910796661429154
 31
0.0
  0
LINE
  5
1B1AB
330
1B178
100
AcDbEntity
  8
0
  6
CONTINUOUS
100
AcDbLine
 10
37.67199999996831
 20
4.144315870509399
 30
0.0
 11
36.23199999996837
 21
5.58431587050934
 31
0.0
  0
LINE
  5
1B1AC
330
1B178
100
AcDbEntity
  8
0
  6
CONTINUOUS
100
AcDbLine
 10
33.08199999996839
 20
7.387277452348945
 30
0.0
 11
31.70617745232608
 21
8.763099999991255
 31
0.0
  0
LINE
  5
1B1AD
330
1B178
100
AcDbEntity
  8
0
  6
CONTINUOUS
100
AcDbLine
 10
33.08199999996839
 20
8.060796661429132
 30
0.0
 11
32.37969666140626
 21
8.763099999991255
 31
0.0
  0
LINE
  5
1B1AE
330
1B178
100
AcDbEntity
  8
0
  6
CONTINUOUS
100
AcDbLine
 10
33.08199999996839
 20
8.734315870509318
 30
0.0
 11
33.05321587048645
 21
8.763099999991255
 31
0.0
  0
LINE
  5
1B1AF
330
1B178
100
AcDbEntity
  8
0
  6
CONTINUOUS
100
AcDbLine
 10
37.67199999996831
 20
4.817835079589585
 30
0.0
 11
36.23199999996837
 21
6.257835079589526
 31
0.0
  0
LINE
  5
1B1B0
330
1B178
100
AcDbEntity
  8
0
  6
CONTINUOUS
100
AcDbLine
 10
37.67199999996831
 20
5.491354288669771
 30
0.0
 11
36.23199999996837
 21
6.931354288669713
 31
0.0
  0
LINE
  5
1B1B1
330
1B178
100
AcDbEntity
  8
0
  6
CONTINUOUS
100
AcDbLine
 10
37.67199999996831
 20
6.164873497749958
 30
0.0
 11
36.23199999996837
 21
7.6048734977499
 31
0.0
  0
LINE
  5
1B1B2
330
1B178
100
AcDbEntity
  8
0
  6
CONTINUOUS
100
AcDbLine
 10
37.67199999996831
 20
6.838392706830144
 30
0.0
 11
36.23199999996837
 21
8.278392706830086
 31
0.0
  0
LINE
  5
1B1B3
330
1B178
100
AcDbEntity
  8
0
  6
CONTINUOUS
100
AcDbLine
 10
37.67199999996831
 20
7.511911915910332
 30
0.0
 11
36.42081191588738
 21
8.763099999991255
 31
0.0
  0
LINE
  5
1B1B4
330
1B178
100
AcDbEntity
  8
0
  6
CONTINUOUS
100
AcDbLine
 10
37.67199999996831
 20
8.185431124990519
 30
0.0
 11
37.09433112496757
 21
8.763099999991255
 31
0.0
  0
ENDBLK
  5
1B21C
330
1B178
100
AcDbEntity
  8
0
100
AcDbBlockEnd
  0
BLOCK
  5
1B21D
330
1B1B5
100
AcDbEntity
  8
0
100
AcDbBlockBegin
  2
*X152
 70
     1
 10
0.0
 20
0.0
 30
0.0
  3
*X152
  1

  0
LINE
  5
1B1B6
330
1B1B5
100
AcDbEntity
  8
0
  6
CONTINUOUS
100
AcDbLine
 10
38.60499999996136
 20
8.762866199104765
 30
0.0
 11
38.71672554182345
 21
8.874591740966855
 31
0.0
  0
LINE
  5
1B1B7
330
1B1B5
100
AcDbEntity
  8
0
  6
CONTINUOUS
100
AcDbLine
 10
38.60499999996136
 20
8.089346990024577
 30
0.0
 11
39.03418785440363
 21
8.518534844466847
 31
0.0
  0
LINE
  5
1B1B8
330
1B1B5
100
AcDbEntity
  8
0
  6
CONTINUOUS
100
AcDbLine
 10
38.60499999996136
 20
7.41582778094439
 30
0.0
 11
39.35165016698382
 21
8.16247794796684
 31
0.0
  0
LINE
  5
1B1B9
330
1B1B5
100
AcDbEntity
  8
0
  6
CONTINUOUS
100
AcDbLine
 10
38.60499999996136
 20
6.742308571864204
 30
0.0
 11
39.66911247956399
 21
7.806421051466834
 31
0.0
  0
LINE
  5
1B1BA
330
1B1B5
100
AcDbEntity
  8
0
  6
CONTINUOUS
100
AcDbLine
 10
38.60499999996136
 20
6.068789362784018
 30
0.0
 11
39.98657479214418
 21
7.450364154966827
 31
0.0
  0
LINE
  5
1B1BB
330
1B1B5
100
AcDbEntity
  8
0
  6
CONTINUOUS
100
AcDbLine
 10
38.60499999996136
 20
5.395270153703832
 30
0.0
 11
40.30403710472435
 21
7.09430725846682
 31
0.0
  0
LINE
  5
1B1BC
330
1B1B5
100
AcDbEntity
  8
0
  6
CONTINUOUS
100
AcDbLine
 10
38.60499999996136
 20
4.721750944623645
 30
0.0
 11
40.62149941730453
 21
6.738250361966813
 31
0.0
  0
LINE
  5
1B1BD
330
1B1B5
100
AcDbEntity
  8
0
  6
CONTINUOUS
100
AcDbLine
 10
38.60499999996136
 20
4.048231735543458
 30
0.0
 11
40.93896172988471
 21
6.382193465466806
 31
0.0
  0
LINE
  5
1B1BE
330
1B1B5
100
AcDbEntity
  8
0
  6
CONTINUOUS
100
AcDbLine
 10
38.60499999996136
 20
3.374712526463272
 30
0.0
 11
40.02599999995994
 21
4.795712526461843
 31
0.0
  0
LINE
  5
1B1BF
330
1B1B5
100
AcDbEntity
  8
0
  6
CONTINUOUS
100
AcDbLine
 10
38.60499999996136
 20
2.701193317383085
 30
0.0
 11
40.02599999995994
 21
4.122193317381657
 31
0.0
  0
LINE
  5
1B1C0
330
1B1B5
100
AcDbEntity
  8
0
  6
CONTINUOUS
100
AcDbLine
 10
40.28339754687704
 20
5.053110073378947
 30
0.0
 11
41.25642404246489
 21
6.026136568966799
 31
0.0
  0
LINE
  5
1B1C1
330
1B1B5
100
AcDbEntity
  8
0
  6
CONTINUOUS
100
AcDbLine
 10
40.60085985945722
 20
4.697053176878939
 30
0.0
 11
41.57388635504507
 21
5.670079672466793
 31
0.0
  0
LINE
  5
1B1C2
330
1B1B5
100
AcDbEntity
  8
0
  6
CONTINUOUS
100
AcDbLine
 10
43.57899999995641
 20
8.348712526458318
 30
0.0
 11
43.99338747348935
 21
8.763099999991255
 31
0.0
  0
LINE
  5
1B1C3
330
1B1B5
100
AcDbEntity
  8
0
  6
CONTINUOUS
100
AcDbLine
 10
43.57899999995641
 20
7.675193317378131
 30
0.0
 11
44.66690668256953
 21
8.763099999991255
 31
0.0
  0
LINE
  5
1B1C4
330
1B1B5
100
AcDbEntity
  8
0
  6
CONTINUOUS
100
AcDbLine
 10
38.60499999996136
 20
2.027674108302898
 30
0.0
 11
40.02599999995994
 21
3.44867410830147
 31
0.0
  0
LINE
  5
1B1C5
330
1B1B5
100
AcDbEntity
  8
0
  6
CONTINUOUS
100
AcDbLine
 10
38.60499999996136
 20
1.354154899222712
 30
0.0
 11
40.02599999995994
 21
2.775154899221284
 31
0.0
  0
LINE
  5
1B1C6
330
1B1B5
100
AcDbEntity
  8
0
  6
CONTINUOUS
100
AcDbLine
 10
38.60499999996136
 20
0.6806356901425255
 30
0.0
 11
40.02599999995994
 21
2.101635690141098
 31
0.0
  0
LINE
  5
1B1C7
330
1B1B5
100
AcDbEntity
  8
0
  6
CONTINUOUS
100
AcDbLine
 10
38.60499999996136
 20
0.0071164810623383
 30
0.0
 11
40.02599999995994
 21
1.428116481060911
 31
0.0
  0
LINE
  5
1B1C8
330
1B1B5
100
AcDbEntity
  8
0
  6
CONTINUOUS
100
AcDbLine
 10
40.9183221720374
 20
4.340996280378933
 30
0.0
 11
41.89134866762525
 21
5.314022775966786
 31
0.0
  0
LINE
  5
1B1C9
330
1B1B5
100
AcDbEntity
  8
0
  6
CONTINUOUS
100
AcDbLine
 10
41.23578448461758
 20
3.984939383878926
 30
0.0
 11
42.20881098020543
 21
4.957965879466778
 31
0.0
  0
LINE
  5
1B1CA
330
1B1B5
100
AcDbEntity
  8
0
  6
CONTINUOUS
100
AcDbLine
 10
41.55324679719776
 20
3.628882487378919
 30
0.0
 11
42.52627329278561
 21
4.601908982966772
 31
0.0
  0
LINE
  5
1B1CB
330
1B1B5
100
AcDbEntity
  8
0
  6
CONTINUOUS
100
AcDbLine
 10
41.87070910977793
 20
3.272825590878912
 30
0.0
 11
42.84373560536579
 21
4.245852086466765
 31
0.0
  0
LINE
  5
1B1CC
330
1B1B5
100
AcDbEntity
  8
0
  6
CONTINUOUS
100
AcDbLine
 10
43.57899999995641
 20
7.001674108297943
 30
0.0
 11
44.99999999995498
 21
8.422674108296516
 31
0.0
  0
LINE
  5
1B1CD
330
1B1B5
100
AcDbEntity
  8
0
  6
CONTINUOUS
100
AcDbLine
 10
43.57899999995641
 20
6.328154899217758
 30
0.0
 11
44.99999999995498
 21
7.749154899216329
 31
0.0
  0
LINE
  5
1B1CE
330
1B1B5
100
AcDbEntity
  8
0
  6
CONTINUOUS
100
AcDbLine
 10
43.57899999995641
 20
5.654635690137571
 30
0.0
 11
44.99999999995498
 21
7.075635690136142
 31
0.0
  0
LINE
  5
1B1CF
330
1B1B5
100
AcDbEntity
  8
0
  6
CONTINUOUS
100
AcDbLine
 10
43.57899999995641
 20
4.981116481057384
 30
0.0
 11
44.99999999995498
 21
6.402116481055955
 31
0.0
  0
LINE
  5
1B1D0
330
1B1B5
100
AcDbEntity
  8
0
  6
CONTINUOUS
100
AcDbLine
 10
39.27140272797921
 20
-0.0000000000000009
 30
0.0
 11
40.02599999995994
 21
0.7545972719807246
 31
0.0
  0
LINE
  5
1B1D1
330
1B1B5
100
AcDbEntity
  8
0
  6
CONTINUOUS
100
AcDbLine
 10
39.9449219370594
 20
-0.0000000000000009
 30
0.0
 11
40.02599999995994
 21
0.0810780629005379
 31
0.0
  0
LINE
  5
1B1D2
330
1B1B5
100
AcDbEntity
  8
0
  6
CONTINUOUS
100
AcDbLine
 10
42.18817142235812
 20
2.916768694378905
 30
0.0
 11
43.16119791794597
 21
3.889795189966758
 31
0.0
  0
LINE
  5
1B1D3
330
1B1B5
100
AcDbEntity
  8
0
  6
CONTINUOUS
100
AcDbLine
 10
42.50563373493829
 20
2.560711797878898
 30
0.0
 11
43.47866023052615
 21
3.533738293466751
 31
0.0
  0
LINE
  5
1B1D4
330
1B1B5
100
AcDbEntity
  8
0
  6
CONTINUOUS
100
AcDbLine
 10
43.57899999995641
 20
4.307597271977198
 30
0.0
 11
44.99999999995498
 21
5.728597271975769
 31
0.0
  0
LINE
  5
1B1D5
330
1B1B5
100
AcDbEntity
  8
0
  6
CONTINUOUS
100
AcDbLine
 10
43.57899999995641
 20
3.634078062897011
 30
0.0
 11
44.99999999995498
 21
5.055078062895582
 31
0.0
  0
LINE
  5
1B1D6
330
1B1B5
100
AcDbEntity
  8
0
  6
CONTINUOUS
100
AcDbLine
 10
42.82309604751848
 20
2.204654901378891
 30
0.0
 11
44.99999999995498
 21
4.381558853815395
 31
0.0
  0
LINE
  5
1B1D7
330
1B1B5
100
AcDbEntity
  8
0
  6
CONTINUOUS
100
AcDbLine
 10
43.14055836009865
 20
1.848598004878885
 30
0.0
 11
44.99999999995498
 21
3.70803964473521
 31
0.0
  0
LINE
  5
1B1D8
330
1B1B5
100
AcDbEntity
  8
0
  6
CONTINUOUS
100
AcDbLine
 10
43.45802067267883
 20
1.492541108378878
 30
0.0
 11
44.99999999995498
 21
3.034520435655023
 31
0.0
  0
LINE
  5
1B1D9
330
1B1B5
100
AcDbEntity
  8
0
  6
CONTINUOUS
100
AcDbLine
 10
43.77548298525902
 20
1.136484211878871
 30
0.0
 11
44.99999999995498
 21
2.361001226574837
 31
0.0
  0
LINE
  5
1B1DA
330
1B1B5
100
AcDbEntity
  8
0
  6
CONTINUOUS
100
AcDbLine
 10
44.09294529783919
 20
0.7804273153788639
 30
0.0
 11
44.99999999995498
 21
1.687482017494649
 31
0.0
  0
LINE
  5
1B1DB
330
1B1B5
100
AcDbEntity
  8
0
  6
CONTINUOUS
100
AcDbLine
 10
44.41040761041938
 20
0.4243704188788566
 30
0.0
 11
44.99999999995498
 21
1.013962808414463
 31
0.0
  0
LINE
  5
1B1DC
330
1B1B5
100
AcDbEntity
  8
0
  6
CONTINUOUS
100
AcDbLine
 10
44.72786992299955
 20
0.0683135223788494
 30
0.0
 11
44.99999999995498
 21
0.340443599334276
 31
0.0
  0
LINE
  5
1B1DD
330
1B1B5
100
AcDbEntity
  8
0
  6
CONTINUOUS
100
AcDbLine
 10
39.12223903415696
 20
-0.0000000000000009
 30
0.0
 11
38.60499999996136
 21
0.5172390341955961
 31
0.0
  0
LINE
  5
1B1DE
330
1B1B5
100
AcDbEntity
  8
0
  6
CONTINUOUS
100
AcDbLine
 10
39.79575824323715
 20
-0.0000000000000009
 30
0.0
 11
38.60499999996136
 21
1.190758243275783
 31
0.0
  0
LINE
  5
1B1DF
330
1B1B5
100
AcDbEntity
  8
0
  6
CONTINUOUS
100
AcDbLine
 10
40.02599999995994
 20
0.443277452357397
 30
0.0
 11
38.60499999996136
 21
1.864277452355969
 31
0.0
  0
LINE
  5
1B1E0
330
1B1B5
100
AcDbEntity
  8
0
  6
CONTINUOUS
100
AcDbLine
 10
40.02599999995994
 20
1.116796661437583
 30
0.0
 11
38.60499999996136
 21
2.537796661436155
 31
0.0
  0
LINE
  5
1B1E1
330
1B1B5
100
AcDbEntity
  8
0
  6
CONTINUOUS
100
AcDbLine
 10
40.02599999995994
 20
1.79031587051777
 30
0.0
 11
38.60499999996136
 21
3.211315870516341
 31
0.0
  0
LINE
  5
1B1E2
330
1B1B5
100
AcDbEntity
  8
0
  6
CONTINUOUS
100
AcDbLine
 10
40.02599999995994
 20
2.463835079597956
 30
0.0
 11
38.60499999996136
 21
3.884835079596527
 31
0.0
  0
LINE
  5
1B1E3
330
1B1B5
100
AcDbEntity
  8
0
  6
CONTINUOUS
100
AcDbLine
 10
40.02599999995994
 20
3.137354288678143
 30
0.0
 11
38.60499999996136
 21
4.558354288676714
 31
0.0
  0
LINE
  5
1B1E4
330
1B1B5
100
AcDbEntity
  8
0
  6
CONTINUOUS
100
AcDbLine
 10
40.02599999995994
 20
3.810873497758329
 30
0.0
 11
38.60499999996136
 21
5.2318734977569
 31
0.0
  0
LINE
  5
1B1E5
330
1B1B5
100
AcDbEntity
  8
0
  6
CONTINUOUS
100
AcDbLine
 10
40.02599999995994
 20
4.484392706838515
 30
0.0
 11
38.60499999996136
 21
5.905392706837086
 31
0.0
  0
LINE
  5
1B1E6
330
1B1B5
100
AcDbEntity
  8
0
  6
CONTINUOUS
100
AcDbLine
 10
44.99999999995498
 20
0.183911915923658
 30
0.0
 11
41.53858364506288
 21
3.64532827081576
 31
0.0
  0
LINE
  5
1B1E7
330
1B1B5
100
AcDbEntity
  8
0
  6
CONTINUOUS
100
AcDbLine
 10
40.02599999995994
 20
5.157911915918703
 30
0.0
 11
38.60499999996136
 21
6.578911915917274
 31
0.0
  0
LINE
  5
1B1E8
330
1B1B5
100
AcDbEntity
  8
0
  6
CONTINUOUS
100
AcDbLine
 10
44.99999999995498
 20
0.8574311250038447
 30
0.0
 11
38.60499999996136
 21
7.25243112499746
 31
0.0
  0
LINE
  5
1B1E9
330
1B1B5
100
AcDbEntity
  8
0
  6
CONTINUOUS
100
AcDbLine
 10
44.99999999995498
 20
1.530950334084031
 30
0.0
 11
38.60499999996136
 21
7.925950334077647
 31
0.0
  0
LINE
  5
1B1EA
330
1B1B5
100
AcDbEntity
  8
0
  6
CONTINUOUS
100
AcDbLine
 10
44.99999999995498
 20
2.204469543164218
 30
0.0
 11
43.57899999995641
 21
3.625469543162789
 31
0.0
  0
LINE
  5
1B1EB
330
1B1B5
100
AcDbEntity
  8
0
  6
CONTINUOUS
100
AcDbLine
 10
41.89876730984767
 20
5.305702233271528
 30
0.0
 11
38.60499999996136
 21
8.599469543157834
 31
0.0
  0
LINE
  5
1B1EC
330
1B1B5
100
AcDbEntity
  8
0
  6
CONTINUOUS
100
AcDbLine
 10
44.99999999995498
 20
2.877988752244405
 30
0.0
 11
43.57899999995641
 21
4.298988752242975
 31
0.0
  0
LINE
  5
1B1ED
330
1B1B5
100
AcDbEntity
  8
0
  6
CONTINUOUS
100
AcDbLine
 10
44.99999999995498
 20
3.551507961324591
 30
0.0
 11
43.57899999995641
 21
4.972507961323163
 31
0.0
  0
LINE
  5
1B1EE
330
1B1B5
100
AcDbEntity
  8
0
  6
CONTINUOUS
100
AcDbLine
 10
44.99999999995498
 20
4.225027170404777
 30
0.0
 11
43.57899999995641
 21
5.646027170403348
 31
0.0
  0
LINE
  5
1B1EF
330
1B1B5
100
AcDbEntity
  8
0
  6
CONTINUOUS
100
AcDbLine
 10
44.99999999995498
 20
4.898546379484964
 30
0.0
 11
43.57899999995641
 21
6.319546379483535
 31
0.0
  0
LINE
  5
1B1F0
330
1B1B5
100
AcDbEntity
  8
0
  6
CONTINUOUS
100
AcDbLine
 10
44.99999999995498
 20
5.572065588565151
 30
0.0
 11
43.57899999995641
 21
6.993065588563722
 31
0.0
  0
LINE
  5
1B1F1
330
1B1B5
100
AcDbEntity
  8
0
  6
CONTINUOUS
100
AcDbLine
 10
44.99999999995498
 20
6.245584797645336
 30
0.0
 11
43.57899999995641
 21
7.666584797643908
 31
0.0
  0
LINE
  5
1B1F2
330
1B1B5
100
AcDbEntity
  8
0
  6
CONTINUOUS
100
AcDbLine
 10
44.99999999995498
 20
6.919104006725522
 30
0.0
 11
43.57899999995641
 21
8.340104006724093
 31
0.0
  0
LINE
  5
1B1F3
330
1B1B5
100
AcDbEntity
  8
0
  6
CONTINUOUS
100
AcDbLine
 10
44.99999999995498
 20
7.592623215805709
 30
0.0
 11
43.82952321576943
 21
8.763099999991255
 31
0.0
  0
LINE
  5
1B1F4
330
1B1B5
100
AcDbEntity
  8
0
  6
CONTINUOUS
100
AcDbLine
 10
44.99999999995498
 20
8.266142424885896
 30
0.0
 11
44.50304242484962
 21
8.763099999991255
 31
0.0
  0
ENDBLK
  5
1B21E
330
1B1B5
100
AcDbEntity
  8
0
100
AcDbBlockEnd
  0
BLOCK
  5
1B21F
330
1B1F5
100
AcDbEntity
  8
0
100
AcDbBlockBegin
  2
*X153
 70
     1
 10
0.0
 20
0.0
 30
0.0
  3
*X153
  1

  0
LINE
  5
1B1F6
330
1B1F5
100
AcDbEntity
  8
0
  6
CONTINUOUS
100
AcDbLine
 10
0.0
 20
8.548461116714023
 30
0.0
 11
0.2146388832772324
 21
8.763099999991255
 31
0.0
  0
LINE
  5
1B1F7
330
1B1F5
100
AcDbEntity
  8
0
  6
CONTINUOUS
100
AcDbLine
 10
-0.0000000000000002
 20
7.874941907633837
 30
0.0
 11
0.8881580923574184
 21
8.763099999991255
 31
0.0
  0
LINE
  5
1B1F8
330
1B1F5
100
AcDbEntity
  8
0
  6
CONTINUOUS
100
AcDbLine
 10
0.0
 20
7.20142269855365
 30
0.0
 11
1.420999999998572
 21
8.622422698552223
 31
0.0
  0
LINE
  5
1B1F9
330
1B1F5
100
AcDbEntity
  8
0
  6
CONTINUOUS
100
AcDbLine
 10
-0.0000000000000001
 20
6.527903489473465
 30
0.0
 11
1.420999999998571
 21
7.948903489472036
 31
0.0
  0
LINE
  5
1B1FA
330
1B1F5
100
AcDbEntity
  8
0
  6
CONTINUOUS
100
AcDbLine
 10
-0.0000000000000002
 20
5.854384280393278
 30
0.0
 11
1.420999999998571
 21
7.275384280391849
 31
0.0
  0
LINE
  5
1B1FB
330
1B1F5
100
AcDbEntity
  8
0
  6
CONTINUOUS
100
AcDbLine
 10
-0.0000000000000002
 20
5.180865071313091
 30
0.0
 11
1.420999999998571
 21
6.601865071311663
 31
0.0
  0
LINE
  5
1B1FC
330
1B1F5
100
AcDbEntity
  8
0
  6
CONTINUOUS
100
AcDbLine
 10
0.0
 20
4.507345862232905
 30
0.0
 11
1.420999999998571
 21
5.928345862231477
 31
0.0
  0
LINE
  5
1B1FD
330
1B1F5
100
AcDbEntity
  8
0
  6
CONTINUOUS
100
AcDbLine
 10
-0.0000000000000003
 20
3.833826653152718
 30
0.0
 11
1.420999999998571
 21
5.25482665315129
 31
0.0
  0
LINE
  5
1B1FE
330
1B1F5
100
AcDbEntity
  8
0
  6
CONTINUOUS
100
AcDbLine
 10
-0.0000000000000002
 20
3.160307444072532
 30
0.0
 11
1.420999999998571
 21
4.581307444071103
 31
0.0
  0
LINE
  5
1B1FF
330
1B1F5
100
AcDbEntity
  8
0
  6
CONTINUOUS
100
AcDbLine
 10
-0.0000000000000001
 20
2.486788234992345
 30
0.0
 11
1.420999999998571
 21
3.907788234990917
 31
0.0
  0
LINE
  5
1B200
330
1B1F5
100
AcDbEntity
  8
0
  6
CONTINUOUS
100
AcDbLine
 10
-0.0000000000000006
 20
1.813269025912159
 30
0.0
 11
1.420999999998571
 21
3.234269025910731
 31
0.0
  0
LINE
  5
1B201
330
1B1F5
100
AcDbEntity
  8
0
  6
CONTINUOUS
100
AcDbLine
 10
0.0
 20
1.139749816831973
 30
0.0
 11
1.420999999998571
 21
2.560749816830544
 31
0.0
  0
LINE
  5
1B202
330
1B1F5
100
AcDbEntity
  8
0
  6
CONTINUOUS
100
AcDbLine
 10
0.0000000000000002
 20
0.466230607751787
 30
0.0
 11
1.420999999998571
 21
1.887230607750358
 31
0.0
  0
LINE
  5
1B203
330
1B1F5
100
AcDbEntity
  8
0
  6
CONTINUOUS
100
AcDbLine
 10
0.2072886013284003
 20
-0.0000000000000009
 30
0.0
 11
1.420999999998571
 21
1.213711398670171
 31
0.0
  0
LINE
  5
1B204
330
1B1F5
100
AcDbEntity
  8
0
  6
CONTINUOUS
100
AcDbLine
 10
0.8808078104085864
 20
-0.0000000000000009
 30
0.0
 11
1.420999999998571
 21
0.5401921895899839
 31
0.0
  0
LINE
  5
1B205
330
1B1F5
100
AcDbEntity
  8
0
  6
CONTINUOUS
100
AcDbLine
 10
0.0581249075061505
 20
-0.0000000000000009
 30
0.0
 11
-0.0000000000000002
 21
0.0581249075061496
 31
0.0
  0
LINE
  5
1B206
330
1B1F5
100
AcDbEntity
  8
0
  6
CONTINUOUS
100
AcDbLine
 10
0.7316441165863372
 20
-0.0000000000000009
 30
0.0
 11
-0.0000000000000002
 21
0.7316441165863363
 31
0.0
  0
LINE
  5
1B207
330
1B1F5
100
AcDbEntity
  8
0
  6
CONTINUOUS
100
AcDbLine
 10
1.405163325666523
 20
-0.0000000000000009
 30
0.0
 11
-0.0000000000000002
 21
1.405163325666523
 31
0.0
  0
LINE
  5
1B208
330
1B1F5
100
AcDbEntity
  8
0
  6
CONTINUOUS
100
AcDbLine
 10
1.420999999998572
 20
0.6576825347481381
 30
0.0
 11
-0.0000000000000001
 21
2.07868253474671
 31
0.0
  0
LINE
  5
1B209
330
1B1F5
100
AcDbEntity
  8
0
  6
CONTINUOUS
100
AcDbLine
 10
1.420999999998571
 20
1.331201743828324
 30
0.0
 11
-0.0000000000000001
 21
2.752201743826896
 31
0.0
  0
LINE
  5
1B20A
330
1B1F5
100
AcDbEntity
  8
0
  6
CONTINUOUS
100
AcDbLine
 10
1.420999999998571
 20
2.004720952908511
 30
0.0
 11
-0.0000000000000002
 21
3.425720952907082
 31
0.0
  0
LINE
  5
1B20B
330
1B1F5
100
AcDbEntity
  8
0
  6
CONTINUOUS
100
AcDbLine
 10
1.420999999998571
 20
2.678240161988697
 30
0.0
 11
-0.0000000000000001
 21
4.099240161987269
 31
0.0
  0
LINE
  5
1B20C
330
1B1F5
100
AcDbEntity
  8
0
  6
CONTINUOUS
100
AcDbLine
 10
1.420999999998572
 20
3.351759371068884
 30
0.0
 11
0.0
 21
4.772759371067455
 31
0.0
  0
LINE
  5
1B20D
330
1B1F5
100
AcDbEntity
  8
0
  6
CONTINUOUS
100
AcDbLine
 10
1.420999999998571
 20
4.02527858014907
 30
0.0
 11
-0.0000000000000003
 21
5.446278580147642
 31
0.0
  0
LINE
  5
1B20E
330
1B1F5
100
AcDbEntity
  8
0
  6
CONTINUOUS
100
AcDbLine
 10
1.420999999998571
 20
4.698797789229257
 30
0.0
 11
0.0
 21
6.119797789227828
 31
0.0
  0
LINE
  5
1B20F
330
1B1F5
100
AcDbEntity
  8
0
  6
CONTINUOUS
100
AcDbLine
 10
1.420999999998571
 20
5.372316998309444
 30
0.0
 11
-0.0000000000000001
 21
6.793316998308015
 31
0.0
  0
LINE
  5
1B210
330
1B1F5
100
AcDbEntity
  8
0
  6
CONTINUOUS
100
AcDbLine
 10
1.420999999998572
 20
6.045836207389629
 30
0.0
 11
-0.0000000000000004
 21
7.466836207388202
 31
0.0
  0
LINE
  5
1B211
330
1B1F5
100
AcDbEntity
  8
0
  6
CONTINUOUS
100
AcDbLine
 10
1.420999999998571
 20
6.719355416469816
 30
0.0
 11
0.0
 21
8.140355416468388
 31
0.0
  0
LINE
  5
1B212
330
1B1F5
100
AcDbEntity
  8
0
  6
CONTINUOUS
100
AcDbLine
 10
1.420999999998571
 20
7.392874625550003
 30
0.0
 11
0.0507746255573185
 21
8.763099999991255
 31
0.0
  0
LINE
  5
1B213
330
1B1F5
100
AcDbEntity
  8
0
  6
CONTINUOUS
100
AcDbLine
 10
1.420999999998571
 20
8.06639383463019
 30
0.0
 11
0.7242938346375052
 21
8.763099999991255
 31
0.0
  0
LINE
  5
1B214
330
1B1F5
100
AcDbEntity
  8
0
  6
CONTINUOUS
100
AcDbLine
 10
1.420999999998571
 20
8.739913043710375
 30
0.0
 11
1.397813043717691
 21
8.763099999991255
 31
0.0
  0
ENDBLK
  5
1B220
330
1B1F5
100
AcDbEntity
  8
0
100
AcDbBlockEnd
  0
ENDSEC
  0
SECTION
  2
ENTITIES
  0
LINE
  5
1AC76
330
18
100
AcDbEntity
  8
01
100
AcDbLine
 10
2354.870633198027
 20
-568.658905942642
 30
0.0
 11
2368.870633198027
 21
-568.658905942642
 31
0.0
  0
LINE
  5
1AC77
330
18
100
AcDbEntity
  8
01
100
AcDbLine
 10
2100.870753537771
 20
-646.6589059426425
 30
0.0
 11
2040.87075353777
 21
-646.6589059426425
 31
0.0
  0
LINE
  5
1AC78
330
18
100
AcDbEntity
  8
01
100
AcDbLine
 10
2070.870753537771
 20
-616.6589059426425
 30
0.0
 11
2070.870753537771
 21
-676.6589059426425
 31
0.0
  0
LINE
  5
1AC79
330
18
100
AcDbEntity
  8
01
100
AcDbLine
 10
2359.871517380087
 20
-356.6589059436707
 30
0.0
 11
2513.625897535119
 21
-356.6589059436707
 31
0.0
  0
LINE
  5
1AC7C
330
18
100
AcDbEntity
  8
01
  6
BYBLOCK
100
AcDbLine
 10
2359.871517380087
 20
-356.6589059436707
 30
0.0
 11
2359.871517380087
 21
-396.6589059436707
 31
0.0
  0
LINE
  5
1AC80
330
18
100
AcDbEntity
  8
01
100
AcDbLine
 10
2410.870633198025
 20
-361.6589059446993
 30
0.0
 11
2410.870633198025
 21
-330.7408257554504
 31
0.0
  0
LINE
  5
1AC81
330
18
100
AcDbEntity
  8
01
100
AcDbLine
 10
2385.870633198027
 20
-356.6589059436698
 30
0.0
 11
2435.870633198027
 21
-356.658905943672
 31
0.0
  0
LINE
  5
1AC82
330
18
100
AcDbEntity
  8
01
100
AcDbLine
 10
2386.370633198023
 20
-348.1589059436698
 30
0.0
 11
2435.370633198027
 21
-348.1589059436734
 31
0.0
  0
LINE
  5
1AC83
330
18
100
AcDbEntity
  8
01
100
AcDbLine
 10
2435.870633198027
 20
-356.658905943672
 30
0.0
 11
2435.870633198027
 21
-348.6589059436734
 31
0.0
  0
ARC
  5
1AC84
330
18
100
AcDbEntity
  8
01
100
AcDbCircle
 10
2435.370633198027
 20
-348.6589059436734
 30
0.0
 40
0.5
100
AcDbArc
 50
0.0
 51
90.0
  0
LINE
  5
1AC85
330
18
100
AcDbEntity
  8
01
100
AcDbLine
 10
2385.870633198027
 20
-356.6589059436698
 30
0.0
 11
2385.870633198023
 21
-348.6589059436702
 31
0.0
  0
ARC
  5
1AC86
330
18
100
AcDbEntity
  8
01
100
AcDbCircle
 10
2386.370633198023
 20
-348.6589059436698
 30
0.0
 40
0.5
100
AcDbArc
 50
90.0
 51
180.0
  0
LINE
  5
1AC87
330
18
100
AcDbEntity
  8
01
  6
BYBLOCK
100
AcDbLine
 10
2361.370633198027
 20
-560.758905942642
 30
0.0
 11
2361.370633198026
 21
-690.5589059426419
 31
0.0
  0
LINE
  5
1AC88
330
18
100
AcDbEntity
  8
01
  6
BYBLOCK
100
AcDbLine
 10
2361.370633198027
 20
-689.658905942642
 30
0.0
 11
2363.870633198027
 21
-689.658905942642
 31
0.0
  0
LINE
  5
1AC89
330
18
100
AcDbEntity
  8
01
  6
BYBLOCK
100
AcDbLine
 10
2362.570633198026
 20
-588.658905942642
 30
0.0
 11
2385.870633198027
 21
-588.658905942642
 31
0.0
  0
LINE
  5
1AC8A
330
18
100
AcDbEntity
  8
01
  6
BYBLOCK
100
AcDbLine
 10
2363.870633198027
 20
-689.658905942642
 30
0.0
 11
2363.870633198027
 21
-673.1559622174897
 31
0.0
  0
LINE
  5
1AC8B
330
18
100
AcDbEntity
  8
01
  6
BYBLOCK
100
AcDbLine
 10
2359.870633198027
 20
-560.758905942642
 30
0.0
 11
2359.870633198027
 21
-690.5589059426419
 31
0.0
  0
LINE
  5
1AC8C
330
18
100
AcDbEntity
  8
01
  6
BYBLOCK
100
AcDbLine
 10
2359.870633198027
 20
-690.5589059426419
 30
0.0
 11
2361.370633198027
 21
-690.5589059426419
 31
0.0
  0
LINE
  5
1AC8D
330
18
100
AcDbEntity
  8
01
  6
BYBLOCK
100
AcDbLine
 10
2361.370633198027
 20
-561.658905942642
 30
0.0
 11
2363.870633198027
 21
-561.658905942642
 31
0.0
  0
LINE
  5
1AC8E
330
18
100
AcDbEntity
  8
01
  6
BYBLOCK
100
AcDbLine
 10
2359.870633198027
 20
-560.758905942642
 30
0.0
 11
2361.370633198027
 21
-560.758905942642
 31
0.0
  0
LINE
  5
1AC8F
330
18
100
AcDbEntity
  8
01
  6
BYBLOCK
100
AcDbLine
 10
2361.370633198026
 20
-585.658905942642
 30
0.0
 11
2362.570633198026
 21
-585.658905942642
 31
0.0
  0
LINE
  5
1AC90
330
18
100
AcDbEntity
  8
01
  6
BYBLOCK
100
AcDbLine
 10
2377.770633198026
 20
-588.658905942642
 30
0.0
 11
2385.870633198027
 21
-588.658905942642
 31
0.0
  0
LINE
  5
1AC91
330
18
100
AcDbEntity
  8
01
  6
BYBLOCK
100
AcDbLine
 10
2362.570633198026
 20
-579.9589059426418
 30
0.0
 11
2362.570633198026
 21
-671.3589059426419
 31
0.0
  0
LINE
  5
1AC92
330
18
100
AcDbEntity
  8
01
  6
BYBLOCK
100
AcDbLine
 10
2362.670633198026
 20
-689.658905942642
 30
0.0
 11
2362.670633198026
 21
-673.0589059426419
 31
0.0
  0
LINE
  5
1AC93
330
18
100
AcDbEntity
  8
01
  6
BYBLOCK
100
AcDbLine
 10
2362.670633198026
 20
-673.0589059426419
 30
0.0
 11
2361.722105060602
 21
-672.110377805218
 31
0.0
  0
LINE
  5
1AC94
330
18
100
AcDbEntity
  8
01
  6
BYBLOCK
100
AcDbLine
 10
2363.51916133545
 20
-672.3074340800657
 30
0.0
 11
2362.570633198026
 21
-671.3589059426419
 31
0.0
  0
ARC
  5
1AC95
330
18
100
AcDbEntity
  8
01
  6
BYBLOCK
100
AcDbCircle
 10
2362.670633198026
 20
-673.1559622174897
 30
0.0
 40
1.2
100
AcDbArc
 50
0.0
 51
44.99999999998081
  0
ARC
  5
1AC96
330
18
100
AcDbEntity
  8
01
  6
BYBLOCK
100
AcDbCircle
 10
2362.570633198026
 20
-671.2618496677941
 30
0.0
 40
1.2
100
AcDbArc
 50
180.0
 51
224.9999999999962
  0
LINE
  5
1AC97
330
18
100
AcDbEntity
  8
01
  6
BYBLOCK
100
AcDbLine
 10
2363.870633198027
 20
-561.658905942642
 30
0.0
 11
2363.870633198027
 21
-578.1618496677942
 31
0.0
  0
LINE
  5
1AC98
330
18
100
AcDbEntity
  8
01
  6
BYBLOCK
100
AcDbLine
 10
2362.670633198026
 20
-561.658905942642
 30
0.0
 11
2362.670633198026
 21
-578.258905942642
 31
0.0
  0
LINE
  5
1AC99
330
18
100
AcDbEntity
  8
01
  6
BYBLOCK
100
AcDbLine
 10
2362.670633198026
 20
-578.258905942642
 30
0.0
 11
2361.722105060602
 21
-579.2074340800658
 31
0.0
  0
LINE
  5
1AC9A
330
18
100
AcDbEntity
  8
01
  6
BYBLOCK
100
AcDbLine
 10
2363.51916133545
 20
-579.0103778052181
 30
0.0
 11
2362.570633198026
 21
-579.958905942642
 31
0.0
  0
ARC
  5
1AC9B
330
18
100
AcDbEntity
  8
01
  6
BYBLOCK
100
AcDbCircle
 10
2362.670633198026
 20
-578.1618496677942
 30
0.0
 40
1.2
100
AcDbArc
 50
315.0000000000192
 51
0.0
  0
ARC
  5
1AC9C
330
18
100
AcDbEntity
  8
01
  6
BYBLOCK
100
AcDbCircle
 10
2362.570633198026
 20
-580.0559622174898
 30
0.0
 40
1.2
100
AcDbArc
 50
135.0000000000038
 51
180.0
  0
LINE
  5
1AC9D
330
18
100
AcDbEntity
  8
01
  6
BYBLOCK
100
AcDbLine
 10
2362.570633198026
 20
-662.6589059426423
 30
0.0
 11
2385.870633198027
 21
-662.658905942642
 31
0.0
  0
ARC
  5
1AC9E
330
18
100
AcDbEntity
  8
01
  6
BYBLOCK
100
AcDbCircle
 10
2362.971517380086
 20
-373.0976554006708
 30
0.0
 40
1.6
100
AcDbArc
 50
115.9444797720007
 51
180.0
  0
ARC
  5
1AC9F
330
18
100
AcDbEntity
  8
01
  6
BYBLOCK
100
AcDbCircle
 10
2362.971517380086
 20
-380.2201564866706
 30
0.0
 40
1.6
100
AcDbArc
 50
180.0
 51
244.0555202279993
  0
ARC
  5
1ACA0
330
18
100
AcDbEntity
  8
01
  6
BYBLOCK
100
AcDbCircle
 10
2362.271517380086
 20
-381.4976554006706
 30
0.0
 40
1.6
100
AcDbArc
 50
0.0
 51
64.05552022799934
  0
ARC
  5
1ACA1
330
18
100
AcDbEntity
  8
01
  6
BYBLOCK
100
AcDbCircle
 10
2362.271517380086
 20
-371.8201564866707
 30
0.0
 40
1.6
100
AcDbArc
 50
295.9444797720006
 51
0.0
  0
LINE
  5
1ACA2
330
18
100
AcDbEntity
  8
01
  6
BYBLOCK
100
AcDbLine
 10
2363.871517380087
 20
-371.8201564866707
 30
0.0
 11
2363.871517380087
 21
-364.4589059436706
 31
0.0
  0
LINE
  5
1ACA3
330
18
100
AcDbEntity
  8
01
  6
BYBLOCK
100
AcDbLine
 10
2362.971517380086
 20
-380.0589059436708
 30
0.0
 11
2362.971517380086
 21
-373.2589059436706
 31
0.0
  0
LINE
  5
1ACA4
330
18
100
AcDbEntity
  8
01
  6
BYBLOCK
100
AcDbLine
 10
2363.871517380087
 20
-388.6589059436707
 30
0.0
 11
2363.871517380087
 21
-381.4976554006706
 31
0.0
  0
LINE
  5
1ACA5
330
18
100
AcDbEntity
  8
01
  6
BYBLOCK
100
AcDbLine
 10
2362.271517380086
 20
-371.6589059436707
 30
0.0
 11
2362.271517380086
 21
-364.4589059436706
 31
0.0
  0
LINE
  5
1ACA6
330
18
100
AcDbEntity
  8
01
  6
BYBLOCK
100
AcDbLine
 10
2362.271517380086
 20
-381.6589059436707
 30
0.0
 11
2362.271517380086
 21
-388.7589059436706
 31
0.0
  0
ARC
  5
1ACA7
330
18
100
AcDbEntity
  8
01
  6
BYBLOCK
100
AcDbCircle
 10
2427.271517380086
 20
-368.7589059436706
 30
0.0
 40
1.6
100
AcDbArc
 50
0.0
 51
90.0
  0
LINE
  5
1ACA8
330
18
100
AcDbEntity
  8
01
  6
BYBLOCK
100
AcDbLine
 10
2361.371517380087
 20
-364.2589059436706
 30
0.0
 11
2361.371517380086
 21
-389.0589059436705
 31
0.0
  0
LINE
  5
1ACA9
330
18
100
AcDbEntity
  8
01
  6
BYBLOCK
100
AcDbLine
 10
2427.271517380086
 20
-367.1589059436707
 30
0.0
 11
2363.871517380087
 21
-367.1589059436707
 31
0.0
  0
LINE
  5
1ACAA
330
18
100
AcDbEntity
  8
01
  6
BYBLOCK
100
AcDbLine
 10
2427.271517380086
 20
-384.3589059436707
 30
0.0
 11
2427.271517380086
 21
-367.1589059436707
 31
0.0
  0
LINE
  5
1ACAB
330
18
100
AcDbEntity
  8
01
  6
BYBLOCK
100
AcDbLine
 10
2428.871517380087
 20
-385.9589059436706
 30
0.0
 11
2428.871517380087
 21
-368.7589059436706
 31
0.0
  0
LINE
  5
1ACAC
330
18
100
AcDbEntity
  8
01
  6
BYBLOCK
100
AcDbLine
 10
2361.371517380087
 20
-364.4589059436706
 30
0.0
 11
2363.871517380087
 21
-364.4589059436706
 31
0.0
  0
LINE
  5
1ACAD
330
18
100
AcDbEntity
  8
01
  6
BYBLOCK
100
AcDbLine
 10
2363.871517380087
 20
-388.6589059436707
 30
0.0
 11
2362.271517380086
 21
-388.6589059436707
 31
0.0
  0
LINE
  5
1ACAE
330
18
100
AcDbEntity
  8
01
  6
BYBLOCK
100
AcDbLine
 10
2362.271517380086
 20
-388.7589059436706
 30
0.0
 11
2361.371517380087
 21
-388.7589059436706
 31
0.0
  0
ARC
  5
1ACAF
330
18
100
AcDbEntity
  8
01
  6
BYBLOCK
100
AcDbCircle
 10
2358.572112307485
 20
-382.35890594367
 30
0.0
 40
0.3000000000000051
100
AcDbArc
 50
232.8678058729591
 51
270.0
  0
LINE
  5
1ACB0
330
18
100
AcDbEntity
  8
01
  6
BYBLOCK
100
AcDbLine
 10
2359.371517380087
 20
-382.65890594367
 30
0.0
 11
2358.572112307485
 21
-382.65890594367
 31
0.0
  0
LINE
  5
1ACB1
330
18
100
AcDbEntity
  8
01
  6
BYBLOCK
100
AcDbLine
 10
2348.971517380086
 20
-372.9859170774658
 30
0.0
 11
2348.971517380086
 21
-373.1565391330149
 31
0.0
  0
ARC
  5
1ACB2
330
18
100
AcDbEntity
  8
01
  6
BYBLOCK
100
AcDbCircle
 10
2349.271517380086
 20
-373.1565391330149
 30
0.0
 40
0.3
100
AcDbArc
 50
180.0
 51
217.7405295629754
  0
ARC
  5
1ACB3
330
18
100
AcDbEntity
  8
01
  6
BYBLOCK
100
AcDbCircle
 10
2388.573817979371
 20
-342.7358361890741
 30
0.0
 40
50.00000000000002
100
AcDbArc
 50
217.7405295629802
 51
232.8678058729731
  0
LINE
  5
1ACB4
330
18
100
AcDbEntity
  8
01
  6
BYBLOCK
100
AcDbLine
 10
2348.771517380086
 20
-371.8589059436705
 30
0.0
 11
2348.771517380086
 21
-371.1589059436707
 31
0.0
  0
ARC
  5
1ACB5
330
18
100
AcDbEntity
  8
01
  6
BYBLOCK
100
AcDbCircle
 10
2349.271517380086
 20
-371.1589059436707
 30
0.0
 40
0.5000000000000142
100
AcDbArc
 50
90.0
 51
180.0
  0
LINE
  5
1ACB6
330
18
100
AcDbEntity
  8
01
  6
BYBLOCK
100
AcDbLine
 10
2359.371517380087
 20
-370.6589059436707
 30
0.0
 11
2349.271517380086
 21
-370.6589059436707
 31
0.0
  0
LINE
  5
1ACB7
330
18
100
AcDbEntity
  8
01
  6
BYBLOCK
100
AcDbLine
 10
2348.771517380086
 20
-372.2375856001109
 30
0.0
 11
2348.771517380086
 21
-371.8589059436705
 31
0.0
  0
SPLINE
  5
1ACB8
330
18
100
AcDbEntity
  8
01
  6
BYBLOCK
100
AcDbSpline
210
0.0
220
0.0
230
1.0
 70
     8
 71
     3
 72
     8
 73
     4
 74
     0
 42
0.0000000001
 43
0.0000000001
 40
0.0
 40
0.0
 40
0.0
 40
0.0
 40
1.0
 40
1.0
 40
1.0
 40
1.0
 10
2348.797249921351
 20
-372.51423602956
 30
0.0
 10
2348.77978203524
 20
-372.4211498336796
 30
0.0
 10
2348.771517380086
 20
-372.3278838227881
 30
0.0
 10
2348.771517380086
 20
-372.2375856001105
 30
0.0
  0
ARC
  5
1ACB9
330
18
100
AcDbEntity
  8
01
  6
BYBLOCK
100
AcDbCircle
 10
2350.271517380086
 20
-372.2375856001109
 30
0.0
 40
1.499999999999998
100
AcDbArc
 50
190.628112987605
 51
225.0000000000046
  0
LINE
  5
1ACBA
330
18
100
AcDbEntity
  8
01
  6
BYBLOCK
100
AcDbLine
 10
2359.871517380087
 20
-369.8089059436705
 30
0.0
 11
2359.371517380087
 21
-369.8089059436705
 31
0.0
  0
LINE
  5
1ACBB
330
18
100
AcDbEntity
  8
01
  6
BYBLOCK
100
AcDbLine
 10
2359.371517380087
 20
-383.5089059436706
 30
0.0
 11
2359.871517380087
 21
-383.5089059436706
 31
0.0
  0
LINE
  5
1ACBC
330
18
100
AcDbEntity
  8
01
  6
BYBLOCK
100
AcDbLine
 10
2359.371517380087
 20
-383.5089059436706
 30
0.0
 11
2359.371517380087
 21
-369.8089059436705
 31
0.0
  0
LINE
  5
1ACBD
330
18
100
AcDbEntity
  8
01
  6
BYBLOCK
100
AcDbLine
 10
2359.871517380087
 20
-364.2589059436706
 30
0.0
 11
2361.371517380087
 21
-364.2589059436706
 31
0.0
  0
LINE
  5
1ACBE
330
18
100
AcDbEntity
  8
01
  6
BYBLOCK
100
AcDbLine
 10
2359.871517380087
 20
-389.0589059436705
 30
0.0
 11
2361.371517380086
 21
-389.0589059436705
 31
0.0
  0
LINE
  5
1ACBF
330
18
100
AcDbEntity
  8
01
  6
BYBLOCK
100
AcDbLine
 10
2359.871517380087
 20
-389.0589059436705
 30
0.0
 11
2359.871517380087
 21
-364.2589059436706
 31
0.0
  0
LINE
  5
1ACC0
330
18
100
AcDbEntity
  8
01
  6
BYBLOCK
100
AcDbLine
 10
2428.871517380087
 20
-384.3589059436707
 30
0.0
 11
2363.871517380087
 21
-384.3589059436707
 31
0.0
  0
LINE
  5
1ACC1
330
18
100
AcDbEntity
  8
01
  6
BYBLOCK
100
AcDbLine
 10
2428.871517380087
 20
-385.9589059436706
 30
0.0
 11
2378.471517380086
 21
-385.9589059436706
 31
0.0
  0
LINE
  5
1ACC2
330
18
100
AcDbEntity
  8
01
  6
BYBLOCK
100
AcDbLine
 10
2381.308775680289
 20
-385.9589059436706
 30
0.0
 11
2363.871517380086
 21
-385.9589059436706
 31
0.0
  0
LINE
  5
1ACC3
330
18
100
AcDbEntity
  8
01
  6
BYBLOCK
100
AcDbLine
 10
2358.425070770679
 20
-382.512459334264
 30
0.0
 11
2349.210857208306
 21
-373.2982457718909
 31
0.0
  0
ARC
  5
1ACC4
330
18
100
AcDbEntity
  8
01
  6
BYBLOCK
100
AcDbCircle
 10
2358.778624161272
 20
-382.1589059436707
 30
0.0
 40
0.5
100
AcDbArc
 50
225.0000000000323
 51
270.0
  0
LINE
  5
1ACC5
330
18
100
AcDbEntity
  8
01
  6
BYBLOCK
100
AcDbLine
 10
2359.371517380087
 20
-382.6589059436707
 30
0.0
 11
2358.778624161272
 21
-382.6589059436707
 31
0.0
  0
LINE
  5
1ACC7
330
18
100
AcDbEntity
  8
01
  6
BYBLOCK
100
AcDbLine
 10
2348.870633198027
 20
-615.6272356756259
 30
0.0
 11
2348.870633198027
 21
-633.6905762096318
 31
0.0
  0
LINE
  5
1ACC8
330
18
100
AcDbEntity
  8
01
  6
BYBLOCK
100
AcDbLine
 10
2353.16352641684
 20
-614.6589059426288
 30
0.0
 11
2359.870633198027
 21
-614.6589059426288
 31
0.0
  0
LINE
  5
1ACC9
330
18
100
AcDbEntity
  8
01
  6
BYBLOCK
100
AcDbLine
 10
2353.16352641684
 20
-634.6589059426288
 30
0.0
 11
2359.870633198027
 21
-634.6589059426288
 31
0.0
  0
LINE
  5
1ACCA
330
18
100
AcDbEntity
  8
01
  6
BYBLOCK
100
AcDbLine
 10
2358.66352641684
 20
-619.4089059426288
 30
0.0
 11
2358.66352641684
 21
-629.9089059426288
 31
0.0
  0
ARC
  5
1ACCB
330
18
100
AcDbEntity
  8
01
  6
BYBLOCK
100
AcDbCircle
 10
2353.16352641684
 20
-624.6589059426288
 30
0.0
 40
10.00000000000009
100
AcDbArc
 50
53.13010235414986
 51
115.4224671781178
  0
ARC
  5
1ACCC
330
18
100
AcDbEntity
  8
01
  6
BYBLOCK
100
AcDbCircle
 10
2353.16352641684
 20
-624.6589059426286
 30
0.0
 40
10.00000000000009
100
AcDbArc
 50
244.5775328218822
 51
306.8698976458437
  0
LINE
  5
1ACCD
330
18
100
AcDbEntity
  8
01
  6
BYBLOCK
100
AcDbLine
 10
2359.16352641684
 20
-616.6589059426288
 30
0.0
 11
2359.16352641684
 21
-632.6589059426288
 31
0.0
  0
LINE
  5
1ACCE
330
18
100
AcDbEntity
  8
01
  6
BYBLOCK
100
AcDbLine
 10
2348.870633198027
 20
-619.4089059426288
 30
0.0
 11
2358.66352641684
 21
-619.4089059426288
 31
0.0
  0
LINE
  5
1ACCF
330
18
100
AcDbEntity
  8
01
  6
BYBLOCK
100
AcDbLine
 10
2348.870633198027
 20
-629.9089059426288
 30
0.0
 11
2358.66352641684
 21
-629.9089059426288
 31
0.0
  0
LINE
  5
1ACD0
330
18
100
AcDbEntity
  8
01
  6
BYBLOCK
100
AcDbLine
 10
2234.470749537771
 20
-560.7589059426426
 30
0.0
 11
2247.270749537771
 21
-560.7589059426426
 31
0.0
  0
LINE
  5
1ACD1
330
18
100
AcDbEntity
  8
01
  6
BYBLOCK
100
AcDbLine
 10
2234.470749537771
 20
-690.5589059426426
 30
0.0
 11
2247.270749537771
 21
-690.5589059426426
 31
0.0
  0
LINE
  5
1ACD2
330
18
100
AcDbEntity
  8
01
  6
BYBLOCK
100
AcDbLine
 10
2228.470749537771
 20
-566.7589059426426
 30
0.0
 11
2228.470749537771
 21
-684.5589059426426
 31
0.0
  0
LINE
  5
1ACD3
330
18
100
AcDbEntity
  8
01
  6
BYBLOCK
100
AcDbLine
 10
2253.270749537771
 20
-566.7589059426426
 30
0.0
 11
2253.270749537771
 21
-684.5589059426426
 31
0.0
  0
ARC
  5
1ACD4
330
18
100
AcDbEntity
  8
01
  6
BYBLOCK
100
AcDbCircle
 10
2234.470749537771
 20
-684.5589059426426
 30
0.0
 40
6.0
100
AcDbArc
 50
180.0
 51
270.0
  0
ARC
  5
1ACD5
330
18
100
AcDbEntity
  8
01
  6
BYBLOCK
100
AcDbCircle
 10
2247.270749537771
 20
-684.5589059426426
 30
0.0
 40
6.0
100
AcDbArc
 50
270.0
 51
0.0
  0
ARC
  5
1ACD6
330
18
100
AcDbEntity
  8
01
  6
BYBLOCK
100
AcDbCircle
 10
2234.470749537771
 20
-566.7589059426426
 30
0.0
 40
6.0
100
AcDbArc
 50
90.0
 51
180.0
  0
ARC
  5
1ACD7
330
18
100
AcDbEntity
  8
01
  6
BYBLOCK
100
AcDbCircle
 10
2247.270749537771
 20
-566.7589059426426
 30
0.0
 40
6.0
100
AcDbArc
 50
0.0
 51
90.0
  0
CIRCLE
  5
1ACD8
330
18
100
AcDbEntity
  8
01
  6
BYBLOCK
100
AcDbCircle
 10
2240.870749537771
 20
-682.6589059426425
 30
0.0
 40
2.75
  0
CIRCLE
  5
1ACD9
330
18
100
AcDbEntity
  8
01
  6
BYBLOCK
100
AcDbCircle
 10
2240.870749537771
 20
-682.6589059426425
 30
0.0
 40
4.25
  0
CIRCLE
  5
1ACDA
330
18
100
AcDbEntity
  8
01
  6
BYBLOCK
100
AcDbCircle
 10
2240.870749537771
 20
-568.6589059426427
 30
0.0
 40
2.75
  0
CIRCLE
  5
1ACDB
330
18
100
AcDbEntity
  8
01
  6
BYBLOCK
100
AcDbCircle
 10
2240.870749537771
 20
-568.6589059426427
 30
0.0
 40
4.25
  0
LINE
  5
1ACDC
330
18
100
AcDbEntity
  8
1CENTER
100
AcDbLine
 10
2246.745774945677
 20
-682.6589059426427
 30
0.0
 11
2234.995724129864
 21
-682.6589059426427
 31
0.0
  0
LINE
  5
1ACDD
330
18
100
AcDbEntity
  8
1CENTER
100
AcDbLine
 10
2240.870749537771
 20
-676.7838805347363
 30
0.0
 11
2240.870749537771
 21
-688.5339313505489
 31
0.0
  0
LINE
  5
1ACDE
330
18
100
AcDbEntity
  8
1CENTER
100
AcDbLine
 10
2246.745774945677
 20
-568.6589059426427
 30
0.0
 11
2234.995724129864
 21
-568.6589059426427
 31
0.0
  0
LINE
  5
1ACDF
330
18
100
AcDbEntity
  8
1CENTER
100
AcDbLine
 10
2240.870749537771
 20
-562.7838805347363
 30
0.0
 11
2240.870749537771
 21
-574.5339313505489
 31
0.0
  0
ARC
  5
1ACE0
330
18
100
AcDbEntity
  8
01
  6
BYBLOCK
100
AcDbCircle
 10
2240.870749537771
 20
-624.6589059426425
 30
0.0
 40
10.15
100
AcDbArc
 50
231.9925780701373
 51
308.0074219298583
  0
LINE
  5
1ACE1
330
18
100
AcDbEntity
  8
01
  6
BYBLOCK
100
AcDbLine
 10
2234.620749537771
 20
-616.6614063333897
 30
0.0
 11
2234.620749537771
 21
-632.6564055518953
 31
0.0
  0
LINE
  5
1ACE2
330
18
100
AcDbEntity
  8
01
  6
BYBLOCK
100
AcDbLine
 10
2247.120749537771
 20
-616.6614063333897
 30
0.0
 11
2247.120749537771
 21
-632.6564055518953
 31
0.0
  0
ARC
  5
1ACE3
330
18
100
AcDbEntity
  8
01
  6
BYBLOCK
100
AcDbCircle
 10
2240.870749537771
 20
-624.6589059426425
 30
0.0
 40
10.15
100
AcDbArc
 50
51.9925780701429
 51
128.0074219298591
  0
LINE
  5
1ACE4
330
18
100
AcDbEntity
  8
01
  6
BYBLOCK
100
AcDbLine
 10
2236.370749537771
 20
-619.4089059426425
 30
0.0
 11
2236.370749537771
 21
-629.9089059426425
 31
0.0
  0
LINE
  5
1ACE5
330
18
100
AcDbEntity
  8
01
  6
BYBLOCK
100
AcDbLine
 10
2246.370749537771
 20
-619.4089059426425
 30
0.0
 11
2246.370749537771
 21
-629.9089059426425
 31
0.0
  0
LINE
  5
1ACE6
330
18
100
AcDbEntity
  8
01
  6
BYBLOCK
100
AcDbLine
 10
2236.870749537771
 20
-615.3303208409242
 30
0.0
 11
2236.870749537771
 21
-619.4089059426427
 31
0.0
  0
LINE
  5
1ACE7
330
18
100
AcDbEntity
  8
01
  6
BYBLOCK
100
AcDbLine
 10
2235.370749537771
 20
-619.4089059426427
 30
0.0
 11
2235.370749537771
 21
-629.9089059426425
 31
0.0
  0
LINE
  5
1ACE8
330
18
100
AcDbEntity
  8
01
  6
BYBLOCK
100
AcDbLine
 10
2236.870749537771
 20
-629.9089059426425
 30
0.0
 11
2236.870749537771
 21
-633.9874910443608
 31
0.0
  0
LINE
  5
1ACE9
330
18
100
AcDbEntity
  8
01
  6
BYBLOCK
100
AcDbLine
 10
2235.370749537771
 20
-619.4089059426425
 30
0.0
 11
2246.370749537771
 21
-619.4089059426425
 31
0.0
  0
LINE
  5
1ACEA
330
18
100
AcDbEntity
  8
01
  6
BYBLOCK
100
AcDbLine
 10
2235.370749537771
 20
-629.9089059426425
 30
0.0
 11
2246.370749537771
 21
-629.9089059426425
 31
0.0
  0
LINE
  5
1ACEC
330
18
100
AcDbEntity
  8
01
100
AcDbLine
 10
2220.870865877514
 20
-526.6589059426423
 30
0.0
 11
2220.870865877514
 21
-716.6589059426425
 31
0.0
  0
LINE
  5
1ACED
330
18
100
AcDbEntity
  8
01
100
AcDbLine
 10
2354.870633198314
 20
-682.6589059423533
 30
0.0
 11
2368.870633198314
 21
-682.6589059423533
 31
0.0
  0
LINE
  5
1ACEE
330
18
100
AcDbEntity
  8
01
100
AcDbLine
 10
2126.870865877516
 20
-568.658905942642
 30
0.0
 11
2112.870865877516
 21
-568.658905942642
 31
0.0
  0
LINE
  5
1ACEF
330
18
100
AcDbEntity
  8
01
  6
BYBLOCK
100
AcDbLine
 10
2120.370865877516
 20
-560.758905942642
 30
0.0
 11
2120.370865877516
 21
-690.5589059426419
 31
0.0
  0
LINE
  5
1ACF0
330
18
100
AcDbEntity
  8
01
  6
BYBLOCK
100
AcDbLine
 10
2120.370865877516
 20
-689.658905942642
 30
0.0
 11
2117.870865877516
 21
-689.658905942642
 31
0.0
  0
LINE
  5
1ACF1
330
18
100
AcDbEntity
  8
01
  6
BYBLOCK
100
AcDbLine
 10
2119.170865877515
 20
-588.658905942642
 30
0.0
 11
2095.870865877516
 21
-588.658905942642
 31
0.0
  0
LINE
  5
1ACF2
330
18
100
AcDbEntity
  8
01
  6
BYBLOCK
100
AcDbLine
 10
2117.870865877516
 20
-689.658905942642
 30
0.0
 11
2117.870865877516
 21
-673.1559622174897
 31
0.0
  0
LINE
  5
1ACF3
330
18
100
AcDbEntity
  8
01
  6
BYBLOCK
100
AcDbLine
 10
2121.870865877516
 20
-560.758905942642
 30
0.0
 11
2121.870865877516
 21
-690.5589059426419
 31
0.0
  0
LINE
  5
1ACF4
330
18
100
AcDbEntity
  8
01
  6
BYBLOCK
100
AcDbLine
 10
2121.870865877516
 20
-690.5589059426419
 30
0.0
 11
2120.370865877516
 21
-690.5589059426419
 31
0.0
  0
LINE
  5
1ACF5
330
18
100
AcDbEntity
  8
01
  6
BYBLOCK
100
AcDbLine
 10
2120.370865877516
 20
-561.658905942642
 30
0.0
 11
2117.870865877516
 21
-561.658905942642
 31
0.0
  0
LINE
  5
1ACF6
330
18
100
AcDbEntity
  8
01
  6
BYBLOCK
100
AcDbLine
 10
2121.870865877516
 20
-560.758905942642
 30
0.0
 11
2120.370865877516
 21
-560.758905942642
 31
0.0
  0
LINE
  5
1ACF7
330
18
100
AcDbEntity
  8
01
  6
BYBLOCK
100
AcDbLine
 10
2120.370865877516
 20
-585.658905942642
 30
0.0
 11
2119.170865877515
 21
-585.658905942642
 31
0.0
  0
LINE
  5
1ACF8
330
18
100
AcDbEntity
  8
01
  6
BYBLOCK
100
AcDbLine
 10
2103.970865877515
 20
-588.658905942642
 30
0.0
 11
2095.870865877516
 21
-588.658905942642
 31
0.0
  0
LINE
  5
1ACF9
330
18
100
AcDbEntity
  8
01
  6
BYBLOCK
100
AcDbLine
 10
2119.170865877515
 20
-579.9589059426418
 30
0.0
 11
2119.170865877516
 21
-671.3589059426419
 31
0.0
  0
LINE
  5
1ACFA
330
18
100
AcDbEntity
  8
01
  6
BYBLOCK
100
AcDbLine
 10
2119.070865877516
 20
-689.658905942642
 30
0.0
 11
2119.070865877516
 21
-673.0589059426419
 31
0.0
  0
LINE
  5
1ACFB
330
18
100
AcDbEntity
  8
01
  6
BYBLOCK
100
AcDbLine
 10
2119.070865877516
 20
-673.0589059426419
 30
0.0
 11
2120.019394014939
 21
-672.110377805218
 31
0.0
  0
LINE
  5
1ACFC
330
18
100
AcDbEntity
  8
01
  6
BYBLOCK
100
AcDbLine
 10
2118.222337740091
 20
-672.3074340800657
 30
0.0
 11
2119.170865877515
 21
-671.3589059426419
 31
0.0
  0
ARC
  5
1ACFD
330
18
100
AcDbEntity
  8
01
  6
BYBLOCK
100
AcDbCircle
 10
2119.070865877516
 20
-673.1559622174897
 30
0.0
 40
1.2
100
AcDbArc
 50
135.0000000000038
 51
180.0
  0
ARC
  5
1ACFE
330
18
100
AcDbEntity
  8
01
  6
BYBLOCK
100
AcDbCircle
 10
2119.170865877515
 20
-671.2618496677941
 30
0.0
 40
1.2
100
AcDbArc
 50
315.0000000000192
 51
0.0
  0
LINE
  5
1ACFF
330
18
100
AcDbEntity
  8
01
  6
BYBLOCK
100
AcDbLine
 10
2117.870865877516
 20
-561.658905942642
 30
0.0
 11
2117.870865877516
 21
-578.1618496677942
 31
0.0
  0
LINE
  5
1AD00
330
18
100
AcDbEntity
  8
01
  6
BYBLOCK
100
AcDbLine
 10
2119.070865877516
 20
-561.658905942642
 30
0.0
 11
2119.070865877516
 21
-578.258905942642
 31
0.0
  0
LINE
  5
1AD01
330
18
100
AcDbEntity
  8
01
  6
BYBLOCK
100
AcDbLine
 10
2119.070865877516
 20
-578.258905942642
 30
0.0
 11
2120.019394014939
 21
-579.2074340800658
 31
0.0
  0
LINE
  5
1AD02
330
18
100
AcDbEntity
  8
01
  6
BYBLOCK
100
AcDbLine
 10
2118.222337740091
 20
-579.0103778052181
 30
0.0
 11
2119.170865877515
 21
-579.958905942642
 31
0.0
  0
ARC
  5
1AD03
330
18
100
AcDbEntity
  8
01
  6
BYBLOCK
100
AcDbCircle
 10
2119.070865877516
 20
-578.1618496677942
 30
0.0
 40
1.2
100
AcDbArc
 50
180.0
 51
224.9999999999962
  0
ARC
  5
1AD04
330
18
100
AcDbEntity
  8
01
  6
BYBLOCK
100
AcDbCircle
 10
2119.170865877515
 20
-580.0559622174898
 30
0.0
 40
1.2
100
AcDbArc
 50
0.0
 51
44.99999999998081
  0
LINE
  5
1AD05
330
18
100
AcDbEntity
  8
01
  6
BYBLOCK
100
AcDbLine
 10
2119.170865877515
 20
-662.6589059426423
 30
0.0
 11
2095.870865877516
 21
-662.658905942642
 31
0.0
  0
LINE
  5
1AD06
330
18
100
AcDbEntity
  8
01
  6
BYBLOCK
100
AcDbLine
 10
2132.870865877515
 20
-615.6272356756259
 30
0.0
 11
2132.870865877515
 21
-633.6905762096318
 31
0.0
  0
LINE
  5
1AD07
330
18
100
AcDbEntity
  8
01
  6
BYBLOCK
100
AcDbLine
 10
2128.577972658702
 20
-614.6589059426288
 30
0.0
 11
2121.870865877515
 21
-614.6589059426288
 31
0.0
  0
LINE
  5
1AD08
330
18
100
AcDbEntity
  8
01
  6
BYBLOCK
100
AcDbLine
 10
2128.577972658702
 20
-634.6589059426288
 30
0.0
 11
2121.870865877515
 21
-634.6589059426288
 31
0.0
  0
ARC
  5
1AD09
330
18
100
AcDbEntity
  8
01
  6
BYBLOCK
100
AcDbCircle
 10
2128.577972658702
 20
-624.6589059426288
 30
0.0
 40
10.00000000000009
100
AcDbArc
 50
64.57753282188216
 51
90.0
  0
LINE
  5
1AD0A
330
18
100
AcDbEntity
  8
01
100
AcDbLine
 10
2126.870865877228
 20
-682.6589059423533
 30
0.0
 11
2112.870865877228
 21
-682.6589059423533
 31
0.0
  0
LINE
  5
1AD0B
330
18
100
AcDbEntity
  8
01
  6
CONTINUOUS
100
AcDbLine
 10
2132.370865877515
 20
-632.9737001354596
 30
0.0
 11
2121.870865877516
 21
-632.9737001354596
 31
0.0
  0
ARC
  5
1AD0C
330
18
100
AcDbEntity
  8
01
  6
CONTINUOUS
100
AcDbCircle
 10
2132.409446124429
 20
-632.5115609046528
 30
0.0
 40
0.4637468103423796
100
AcDbArc
 50
265.2279066161926
 51
354.2577450626297
  0
LINE
  5
1AD0D
330
18
100
AcDbEntity
  8
01
  6
CONTINUOUS
100
AcDbLine
 10
2132.870865877515
 20
-617.1755911690808
 30
0.0
 11
2132.870865877515
 21
-632.1422207161767
 31
0.0
  0
ARC
  5
1AD0E
330
18
100
AcDbEntity
  8
01
  6
CONTINUOUS
100
AcDbCircle
 10
2132.409446124429
 20
-616.8062509806044
 30
0.0
 40
0.4637468103423387
100
AcDbArc
 50
5.742254937370304
 51
94.77209338380747
  0
ARC
  5
1AD0F
330
18
100
AcDbEntity
  8
01
  6
BYBLOCK
100
AcDbCircle
 10
2128.577972658702
 20
-624.6589059426286
 30
0.0
 40
10.00000000000009
100
AcDbArc
 50
270.0
 51
295.4224671781178
  0
LINE
  5
1AD10
330
18
100
AcDbEntity
  8
01
  6
CONTINUOUS
100
AcDbLine
 10
2121.870865877516
 20
-616.3441117497977
 30
0.0
 11
2132.370865877515
 21
-616.3441117497977
 31
0.0
  0
LINE
  5
1AD11
330
18
100
AcDbEntity
  8
1HIDDEN
100
AcDbLine
 10
2428.870633198027
 20
-589.658905942642
 30
0.0
 11
2428.870633198027
 21
-661.658905942642
 31
0.0
  0
LINE
  5
1AD12
330
18
100
AcDbEntity
  8
1HIDDEN
100
AcDbLine
 10
2385.870633198027
 20
-588.658905942642
 30
0.0
 11
2427.870633198027
 21
-588.658905942642
 31
0.0
  0
ARC
  5
1AD13
330
18
100
AcDbEntity
  8
1HIDDEN
100
AcDbCircle
 10
2427.870633198027
 20
-589.658905942642
 30
0.0
 40
1.0
100
AcDbArc
 50
0.0
 51
90.0
  0
ARC
  5
1AD14
330
18
100
AcDbEntity
  8
1HIDDEN
100
AcDbCircle
 10
2427.870633198027
 20
-661.658905942642
 30
0.0
 40
1.0
100
AcDbArc
 50
270.0
 51
0.0
  0
CIRCLE
  5
1AD15
330
18
100
AcDbEntity
  8
1HIDDEN
100
AcDbCircle
 10
2410.870633198027
 20
-596.658905942642
 30
0.0
 40
4.75
  0
LINE
  5
1AD16
330
18
100
AcDbEntity
  8
1HIDDEN
100
AcDbLine
 10
2385.870633198027
 20
-662.658905942642
 30
0.0
 11
2427.870633198027
 21
-662.6589059426416
 31
0.0
  0
LINE
  5
1AD17
330
18
100
AcDbEntity
  8
1HIDDEN
100
AcDbLine
 10
2410.870633198029
 20
-588.658905942642
 30
0.0
 11
2427.870633198027
 21
-588.658905942642
 31
0.0
  0
LINE
  5
1AD18
330
18
100
AcDbEntity
  8
1HIDDEN
100
AcDbLine
 10
2407.264388613975
 20
-596.658905942642
 30
0.0
 11
2410.870633198027
 21
-593.0526613585909
 31
0.0
  0
LINE
  5
1AD19
330
18
100
AcDbEntity
  8
1HIDDEN
100
AcDbLine
 10
2414.476877782078
 20
-596.658905942642
 30
0.0
 11
2410.870633198027
 21
-593.0526613585909
 31
0.0
  0
LINE
  5
1AD1A
330
18
100
AcDbEntity
  8
1HIDDEN
100
AcDbLine
 10
2407.264388613975
 20
-596.658905942642
 30
0.0
 11
2410.870633198027
 21
-600.2651505266932
 31
0.0
  0
LINE
  5
1AD1B
330
18
100
AcDbEntity
  8
1HIDDEN
100
AcDbLine
 10
2414.476877782078
 20
-596.658905942642
 30
0.0
 11
2410.870633198027
 21
-600.2651505266932
 31
0.0
  0
LINE
  5
1AD1C
330
18
100
AcDbEntity
  8
01
100
AcDbLine
 10
2422.182521465567
 20
-596.658905942642
 30
0.0
 11
2399.558744930484
 21
-596.658905942642
 31
0.0
  0
LINE
  5
1AD1D
330
18
100
AcDbEntity
  8
01
100
AcDbLine
 10
2410.870633198027
 20
-585.3470176751003
 30
0.0
 11
2410.870633198027
 21
-607.9707942101837
 31
0.0
  0
LINE
  5
1AD1E
330
18
100
AcDbEntity
  8
01
100
AcDbLine
 10
2222.999151259944
 20
-646.6589059426425
 30
0.0
 11
2200.370865877514
 21
-646.6589059426425
 31
0.0
  0
POINT
  5
1AD1F
330
18
100
AcDbEntity
  8
01
100
AcDbPoint
 10
2206.370749537769
 20
-646.6589059426425
 30
0.0
 50
180.0
  0
CIRCLE
  5
1AD20
330
18
100
AcDbEntity
  8
01
100
AcDbCircle
 10
2206.370749537769
 20
-646.6589059426425
 30
0.0
 40
2.5
  0
CIRCLE
  5
1AD21
330
18
100
AcDbEntity
  8
01
100
AcDbCircle
 10
2206.370749537769
 20
-646.6589059426425
 30
0.0
 40
3.0
  0
LINE
  5
1AD23
330
18
100
AcDbEntity
  8
1CENTER
100
AcDbLine
 10
2206.370749537769
 20
-652.6589059426425
 30
0.0
 11
2206.370749537769
 21
-640.6589059426425
 31
0.0
  0
LINE
  5
1AD24
330
18
100
AcDbEntity
  8
01
100
AcDbLine
 10
2212.370865877514
 20
-533.1589059426423
 30
0.0
 11
2212.370865877514
 21
-710.1589059426425
 31
0.0
  0
ARC
  5
1AD25
330
18
100
AcDbEntity
  8
01
100
AcDbCircle
 10
2212.870865877514
 20
-710.1589059426425
 30
0.0
 40
0.5
100
AcDbArc
 50
180.0
 51
270.0
  0
LINE
  5
1AD26
330
18
100
AcDbEntity
  8
01
100
AcDbLine
 10
2220.870865877514
 20
-532.6589059426423
 30
0.0
 11
2220.870865877514
 21
-710.6589059426425
 31
0.0
  0
LINE
  5
1AD27
330
18
100
AcDbEntity
  8
01
100
AcDbLine
 10
2212.870865877514
 20
-532.6589059426423
 30
0.0
 11
2220.870865877514
 21
-532.6589059426423
 31
0.0
  0
ARC
  5
1AD28
330
18
100
AcDbEntity
  8
01
100
AcDbCircle
 10
2212.870865877514
 20
-533.1589059426423
 30
0.0
 40
0.5
100
AcDbArc
 50
90.0
 51
180.0
  0
LINE
  5
1AD29
330
18
100
AcDbEntity
  8
01
100
AcDbLine
 10
2212.870865877514
 20
-710.6589059426425
 30
0.0
 11
2220.870865877514
 21
-710.6589059426425
 31
0.0
  0
POINT
  5
1AD2D
330
18
100
AcDbEntity
  8
01
100
AcDbPoint
 10
2275.370633198027
 20
-646.658905942642
 30
0.0
  0
LINE
  5
1AD2E
330
18
100
AcDbEntity
  8
01
100
AcDbLine
 10
2274.970633188026
 20
-648.408905942642
 30
0.0
 11
2274.970633188026
 21
-647.5589059226419
 31
0.0
  0
LINE
  5
1AD2F
330
18
100
AcDbEntity
  8
01
100
AcDbLine
 10
2275.770633208027
 20
-648.408905942642
 30
0.0
 11
2275.770633208027
 21
-647.5589059226419
 31
0.0
  0
LINE
  5
1AD30
330
18
100
AcDbEntity
  8
01
100
AcDbLine
 10
2274.470633218027
 20
-647.0589059526425
 30
0.0
 11
2273.620633198027
 21
-647.0589059526425
 31
0.0
  0
LINE
  5
1AD31
330
18
100
AcDbEntity
  8
01
100
AcDbLine
 10
2274.470633218027
 20
-646.2589059326425
 30
0.0
 11
2273.620633198027
 21
-646.2589059326425
 31
0.0
  0
LINE
  5
1AD32
330
18
100
AcDbEntity
  8
01
100
AcDbLine
 10
2273.620633198027
 20
-647.0589059526425
 30
0.0
 11
2273.620633198027
 21
-646.2589059326425
 31
0.0
  0
LINE
  5
1AD33
330
18
100
AcDbEntity
  8
01
100
AcDbLine
 10
2275.770633208027
 20
-648.408905942642
 30
0.0
 11
2274.970633188026
 21
-648.408905942642
 31
0.0
  0
LINE
  5
1AD34
330
18
100
AcDbEntity
  8
01
100
AcDbLine
 10
2275.770633208027
 20
-644.908905942642
 30
0.0
 11
2275.770633208027
 21
-645.7589059626422
 31
0.0
  0
LINE
  5
1AD35
330
18
100
AcDbEntity
  8
01
100
AcDbLine
 10
2274.970633188026
 20
-644.908905942642
 30
0.0
 11
2274.970633188026
 21
-645.7589059626422
 31
0.0
  0
LINE
  5
1AD36
330
18
100
AcDbEntity
  8
01
100
AcDbLine
 10
2276.270633178026
 20
-646.2589059326425
 30
0.0
 11
2277.120633198027
 21
-646.2589059326425
 31
0.0
  0
LINE
  5
1AD37
330
18
100
AcDbEntity
  8
01
100
AcDbLine
 10
2276.270633178026
 20
-647.0589059526425
 30
0.0
 11
2277.120633198027
 21
-647.0589059526425
 31
0.0
  0
LINE
  5
1AD38
330
18
100
AcDbEntity
  8
01
100
AcDbLine
 10
2277.120633198027
 20
-646.2589059326425
 30
0.0
 11
2277.120633198027
 21
-647.0589059526425
 31
0.0
  0
LINE
  5
1AD39
330
18
100
AcDbEntity
  8
01
100
AcDbLine
 10
2274.970633188026
 20
-644.908905942642
 30
0.0
 11
2275.770633208027
 21
-644.908905942642
 31
0.0
  0
CIRCLE
  5
1AD3A
330
18
100
AcDbEntity
  8
01
100
AcDbCircle
 10
2275.370633198027
 20
-646.658905942642
 30
0.0
 40
2.5
  0
ARC
  5
1AD3B
330
18
100
AcDbEntity
  8
01
100
AcDbCircle
 10
2276.270633178026
 20
-645.7589059626422
 30
0.0
 40
0.5
100
AcDbArc
 50
179.999989999999
 51
270.0
  0
ARC
  5
1AD3C
330
18
100
AcDbEntity
  8
01
100
AcDbCircle
 10
2276.270633178026
 20
-647.5589059226419
 30
0.0
 40
0.5
100
AcDbArc
 50
90.00000299998466
 51
180.000010000001
  0
ARC
  5
1AD3D
330
18
100
AcDbEntity
  8
01
100
AcDbCircle
 10
2274.470633218027
 20
-647.5589059226419
 30
0.0
 40
0.5
100
AcDbArc
 50
0.0
 51
90.00000299998466
  0
ARC
  5
1AD3E
330
18
100
AcDbEntity
  8
01
100
AcDbCircle
 10
2274.470633218027
 20
-645.7589059626422
 30
0.0
 40
0.5
100
AcDbArc
 50
270.0
 51
0.0
  0
LINE
  5
1AD40
330
18
100
AcDbEntity
  8
1CENTER
100
AcDbLine
 10
2275.370633198027
 20
-652.658905942642
 30
0.0
 11
2275.370633198027
 21
-640.658905942642
 31
0.0
  0
LINE
  5
1AD41
330
18
100
AcDbEntity
  8
01
100
AcDbLine
 10
2258.742347815596
 20
-646.658905942642
 30
0.0
 11
2281.370633198027
 21
-646.658905942642
 31
0.0
  0
LINE
  5
1AD42
330
18
100
AcDbEntity
  8
1CENTER
100
AcDbLine
 10
2394.786958434084
 20
-411.1588979104168
 30
0.0
 11
2402.920630795932
 21
-411.158905943667
 31
0.0
  0
LINE
  5
1AD43
330
18
100
AcDbEntity
  8
01
100
AcDbLine
 10
2260.870633198027
 20
-526.658905942642
 30
0.0
 11
2260.870633198027
 21
-716.658905942642
 31
0.0
  0
LINE
  5
1AD44
330
18
100
AcDbEntity
  8
01
100
AcDbLine
 10
2380.870633198027
 20
-646.658905942642
 30
0.0
 11
2440.870633198027
 21
-646.658905942642
 31
0.0
  0
LINE
  5
1AD45
330
18
100
AcDbEntity
  8
01
100
AcDbLine
 10
2410.870633198027
 20
-616.658905942642
 30
0.0
 11
2410.870633198027
 21
-676.658905942642
 31
0.0
  0
LINE
  5
1AD46
330
18
100
AcDbEntity
  8
01
100
AcDbLine
 10
2385.870633198027
 20
-533.158905942642
 30
0.0
 11
2385.870633198027
 21
-710.158905942642
 31
0.0
  0
ARC
  5
1AD47
330
18
100
AcDbEntity
  8
01
100
AcDbCircle
 10
2386.370633198027
 20
-710.158905942642
 30
0.0
 40
0.5
100
AcDbArc
 50
180.0
 51
270.0
  0
LINE
  5
1AD48
330
18
100
AcDbEntity
  8
01
100
AcDbLine
 10
2435.870633198027
 20
-533.158905942642
 30
0.0
 11
2435.870633198027
 21
-634.5830412837969
 31
0.0
  0
ARC
  5
1AD49
330
18
100
AcDbEntity
  8
01
100
AcDbCircle
 10
2435.370633198027
 20
-533.158905942642
 30
0.0
 40
0.5
100
AcDbArc
 50
0.0
 51
90.0
  0
LINE
  5
1AD4A
330
18
100
AcDbEntity
  8
01
100
AcDbLine
 10
2435.370633198027
 20
-710.658905942642
 30
0.0
 11
2386.370633198027
 21
-710.658905942642
 31
0.0
  0
ARC
  5
1AD4B
330
18
100
AcDbEntity
  8
01
100
AcDbCircle
 10
2435.370633198027
 20
-710.158905942642
 30
0.0
 40
0.5
100
AcDbArc
 50
270.0
 51
0.0
  0
LINE
  5
1AD4C
330
18
100
AcDbEntity
  8
01
100
AcDbLine
 10
2386.370633198027
 20
-532.658905942642
 30
0.0
 11
2435.370633198027
 21
-532.658905942642
 31
0.0
  0
ARC
  5
1AD4D
330
18
100
AcDbEntity
  8
01
100
AcDbCircle
 10
2386.370633198027
 20
-533.158905942642
 30
0.0
 40
0.5
100
AcDbArc
 50
90.0
 51
180.0
  0
LINE
  5
1AD4E
330
18
100
AcDbEntity
  8
01
100
AcDbLine
 10
2269.370633198027
 20
-533.158905942642
 30
0.0
 11
2269.370633198027
 21
-710.158905942642
 31
0.0
  0
ARC
  5
1AD4F
330
18
100
AcDbEntity
  8
01
100
AcDbCircle
 10
2268.870633198027
 20
-710.158905942642
 30
0.0
 40
0.5
100
AcDbArc
 50
270.0
 51
0.0
  0
LINE
  5
1AD50
330
18
100
AcDbEntity
  8
01
100
AcDbLine
 10
2260.870633198027
 20
-532.658905942642
 30
0.0
 11
2260.870633198027
 21
-710.658905942642
 31
0.0
  0
LINE
  5
1AD51
330
18
100
AcDbEntity
  8
01
100
AcDbLine
 10
2268.870633198027
 20
-532.658905942642
 30
0.0
 11
2260.870633198027
 21
-532.658905942642
 31
0.0
  0
ARC
  5
1AD52
330
18
100
AcDbEntity
  8
01
100
AcDbCircle
 10
2268.870633198027
 20
-533.158905942642
 30
0.0
 40
0.5
100
AcDbArc
 50
0.0
 51
90.0
  0
LINE
  5
1AD53
330
18
100
AcDbEntity
  8
01
100
AcDbLine
 10
2268.870633198027
 20
-710.658905942642
 30
0.0
 11
2260.870633198027
 21
-710.658905942642
 31
0.0
  0
LINE
  5
1AD56
330
18
100
AcDbEntity
  8
01
100
AcDbLine
 10
2359.871517380087
 20
-396.6589059436707
 30
0.0
 11
2513.625897535119
 21
-396.6589059436707
 31
0.0
  0
LINE
  5
1AD57
330
18
100
AcDbEntity
  8
01
100
AcDbLine
 10
2385.870633198027
 20
-396.6589059436716
 30
0.0
 11
2435.870633198027
 21
-396.6589059436693
 31
0.0
  0
LINE
  5
1AD58
330
18
100
AcDbEntity
  8
01
100
AcDbLine
 10
2386.370633198023
 20
-405.1589059436716
 30
0.0
 11
2435.370633198027
 21
-405.1589059436679
 31
0.0
  0
LINE
  5
1AD59
330
18
100
AcDbEntity
  8
01
100
AcDbLine
 10
2435.870633198027
 20
-396.6589059436693
 30
0.0
 11
2435.870633198027
 21
-404.6589059436679
 31
0.0
  0
ARC
  5
1AD5A
330
18
100
AcDbEntity
  8
01
100
AcDbCircle
 10
2435.370633198027
 20
-404.6589059436679
 30
0.0
 40
0.5
100
AcDbArc
 50
270.0
 51
0.0
  0
LINE
  5
1AD5B
330
18
100
AcDbEntity
  8
01
100
AcDbLine
 10
2385.870633198027
 20
-396.6589059436716
 30
0.0
 11
2385.870633198023
 21
-404.6589059436711
 31
0.0
  0
ARC
  5
1AD5C
330
18
100
AcDbEntity
  8
01
100
AcDbCircle
 10
2386.370633198023
 20
-404.6589059436716
 30
0.0
 40
0.5
100
AcDbArc
 50
180.0
 51
270.0
  0
LINE
  5
1AD5D
330
18
100
AcDbEntity
  8
01
100
AcDbLine
 10
2410.870633198027
 20
-418.1589059436698
 30
0.0
 11
2410.870633198027
 21
-391.5930750235217
 31
0.0
  0
LINE
  5
1AD5E
330
18
100
AcDbEntity
  8
01
100
AcDbLine
 10
2535.436429538557
 20
-433.6113784656624
 30
0.0
 11
2535.436429540976
 21
-453.6209831558882
 31
0.0
  0
SPLINE
  5
1AD5F
330
18
100
AcDbEntity
  8
01
100
AcDbSpline
210
0.0
220
0.0
230
1.0
 70
     8
 71
     3
 72
     9
 73
     5
 74
     0
 42
0.0000000001
 43
0.0000000001
 40
0.0
 40
0.0
 40
0.0
 40
0.0
 40
4.181585763194067
 40
4.906987455372584
 40
4.906987455372584
 40
4.906987455372584
 40
4.906987455372584
 10
2424.370635538557
 20
-416.6589059436698
 30
0.0
 10
2424.378618949479
 20
-418.3149942668889
 30
0.0
 10
2424.455424222891
 20
-419.9522075640385
 30
0.0
 10
2424.652219673132
 20
-421.5774406752654
 30
0.0
 10
2424.684182618493
 20
-421.8173193078461
 30
0.0
  0
LINE
  5
1AD60
330
18
100
AcDbEntity
  8
01
100
AcDbLine
 10
2397.370635538558
 20
-405.6589059436698
 30
0.0
 11
2424.370635538558
 21
-405.6589059436698
 31
0.0
  0
LINE
  5
1AD61
330
18
100
AcDbEntity
  8
01
100
AcDbLine
 10
2424.370635538557
 20
-416.6589059436698
 30
0.0
 11
2424.370635538558
 21
-405.6589059436698
 31
0.0
  0
LINE
  5
1AD62
330
18
100
AcDbEntity
  8
01
100
AcDbLine
 10
2397.370635538557
 20
-425.6589059436698
 30
0.0
 11
2397.370635538558
 21
-405.6589059436698
 31
0.0
  0
ARC
  5
1AD63
330
18
100
AcDbEntity
  8
01
100
AcDbCircle
 10
2534.43488409305
 20
-433.6097100372882
 30
0.0
 40
1.00154683518478
100
AcDbArc
 50
359.9045536912362
 51
90.79512633287318
  0
LINE
  5
1AD64
330
18
100
AcDbEntity
  8
01
100
AcDbLine
 10
2534.389932105522
 20
-432.6091999576325
 30
0.0
 11
2534.420985500378
 21
-432.6082596430148
 31
0.0
  0
ARC
  5
1AD65
330
18
100
AcDbEntity
  8
01
100
AcDbCircle
 10
2534.435355702248
 20
-453.6218331162728
 30
0.0
 40
1.001074199556652
100
AcDbArc
 50
273.8038238778075
 51
0.0486468921710981
  0
LINE
  5
1AD66
330
18
100
AcDbEntity
  8
01
100
AcDbLine
 10
2534.416196289771
 20
-433.4776989993826
 30
0.0
 11
2534.398658477976
 21
-433.4788180966876
 31
0.0
  0
SPLINE
  5
1AD67
330
18
100
AcDbEntity
  8
01
100
AcDbSpline
210
0.0
220
0.0
230
1.0
 70
  1064
 71
     3
 72
    10
 73
     6
 74
     4
 42
0.000000001
 43
0.0000000001
 44
0.000001
 12
0.9831784645781124
 22
0.1826474932481291
 32
0.0
 13
0.993718563209008
 23
0.1119080744800171
 33
0.0
 40
0.0
 40
0.0
 40
0.0
 40
0.0
 40
12.64947198872543
 40
25.29664324953094
 40
37.93871298170414
 40
37.93871298170414
 40
37.93871298170414
 40
37.93871298170414
 10
2496.908315897384
 20
-439.2463550038725
 30
0.0
 10
2501.053878713251
 20
-438.4762235539881
 30
0.0
 10
2509.355264143226
 20
-436.9938253863127
 30
0.0
 10
2521.849232628886
 20
-435.030180153827
 30
0.0
 10
2530.211105354561
 20
-433.9504013237442
 30
0.0
 10
2534.398658477976
 20
-433.4788180966876
 30
0.0
 11
2496.908315897384
 21
-439.2463550038725
 31
0.0
 11
2509.363344705633
 21
-437.0369690783588
 31
0.0
 11
2521.859321834393
 21
-435.0872260718571
 31
0.0
 11
2534.398658477976
 21
-433.4788180966876
 31
0.0
  0
ARC
  5
1AD68
330
18
100
AcDbEntity
  8
01
100
AcDbCircle
 10
2826.774554100132
 20
-2199.054955677475
 30
0.0
 40
1790.457496315067
100
AcDbArc
 50
100.6165768773612
 51
101.2234178765612
  0
SPLINE
  5
1AD69
330
18
100
AcDbEntity
  8
01
100
AcDbSpline
210
0.0
220
0.0
230
1.0
 70
  1064
 71
     3
 72
    25
 73
    21
 74
    19
 42
0.000000001
 43
0.0000000001
 44
0.000001
 12
-0.000871073338289442
 22
-0.9999996206155477
 32
0.0
 13
0.9812495806433168
 23
0.1927414342774154
 33
0.0
 40
0.0
 40
0.0
 40
0.0
 40
0.0
 40
3.441413671685528
 40
6.890117821913623
 40
10.34824228437137
 40
13.81586316647407
 40
17.29116998569668
 40
20.76838829436296
 40
24.24299418042819
 40
27.70617175107052
 40
31.15824156417337
 40
34.60459654871372
 40
41.47191728334248
 40
48.32507241181077
 40
55.16974723390382
 40
62.00886926276685
 40
68.84307992267418
 40
75.67437120356215
 40
82.50297694377403
 40
96.1580389775308
 40
96.1580389775308
 40
96.1580389775308
 40
96.1580389775308
 10
2397.370635538557
 20
-425.6589059436698
 30
0.0
 10
2397.369636297325
 20
-426.8060433990253
 30
0.0
 10
2397.457183599458
 20
-429.1042229741053
 30
0.0
 10
2397.912271809816
 20
-432.5297888501663
 30
0.0
 10
2398.781389528228
 20
-435.8880097278277
 30
0.0
 10
2400.157107752972
 20
-439.0883507193505
 30
0.0
 10
2402.101432157369
 20
-441.9934916034622
 30
0.0
 10
2404.589032549167
 20
-444.4540803677451
 30
0.0
 10
2407.490701290905
 20
-446.3935404246296
 30
0.0
 10
2410.65489907543
 20
-447.8309329567639
 30
0.0
 10
2413.963359446157
 20
-448.8478019655102
 30
0.0
 10
2418.468171460041
 20
-449.7499182874204
 30
0.0
 10
2424.187280513996
 20
-450.2255554067768
 30
0.0
 10
2431.047017875442
 20
-450.1409644586296
 30
0.0
 10
2437.876774540458
 20
-449.6292438845453
 30
0.0
 10
2444.66988332251
 20
-448.8240305923717
 30
0.0
 10
2451.431255056244
 20
-447.8196741694714
 30
0.0
 10
2458.166653614046
 20
-446.6767657358943
 30
0.0
 10
2467.122032637566
 20
-445.0320554700695
 30
0.0
 10
2473.822034504193
 20
-443.7160292273747
 30
0.0
 10
2478.288375802287
 20
-442.8387304801969
 30
0.0
 11
2397.370635538557
 21
-425.6589059436698
 31
0.0
 11
2397.510842201008
 21
-429.0974632979274
 31
0.0
 11
2397.980388597512
 21
-432.514053218612
 31
0.0
 11
2398.864325248623
 21
-435.8572973126066
 31
0.0
 11
2400.250177191469
 21
-439.0359462947509
 31
0.0
 11
2402.191369098424
 21
-441.918572173574
 31
0.0
 11
2404.659287052822
 21
-444.3681494270401
 31
0.0
 11
2407.5390294196
 21
-446.3123640724035
 31
0.0
 11
2410.683869936444
 21
-447.7627356127952
 31
0.0
 11
2413.978914580541
 21
-448.7920398979564
 31
0.0
 11
2417.355463712167
 21
-449.4821696526102
 31
0.0
 11
2424.193418351029
 21
-450.1165762195125
 31
0.0
 11
2431.046412531557
 21
-450.0696000745303
 31
0.0
 11
2437.873558201152
 21
-449.5800534384754
 31
0.0
 11
2444.666954908253
 21
-448.7905272452855
 31
0.0
 11
2451.428465447969
 21
-447.796338752528
 31
0.0
 11
2458.164823710078
 21
-446.6614299218696
 31
0.0
 11
2464.882193177296
 21
-445.4339105224695
 31
0.0
 11
2478.288375802287
 21
-442.8387304801969
 31
0.0
  0
ARC
  5
1AD6A
330
18
100
AcDbEntity
  8
01
100
AcDbCircle
 10
2535.341100572223
 20
-433.6949898317836
 30
0.0
 40
0.0979236131362861
100
AcDbArc
 50
13.2189413901986
 51
73.74740855216808
  0
LINE
  5
1AD6B
330
18
100
AcDbEntity
  8
01
100
AcDbLine
 10
2535.225649428974
 20
-433.5523113169448
 30
0.0
 11
2535.368506692387
 21
-433.6009795207107
 31
0.0
  0
ARC
  5
1AD6C
330
18
100
AcDbEntity
  8
01
100
AcDbCircle
 10
2534.461503785227
 20
-437.4142661295806
 30
0.0
 40
3.936827852433767
100
AcDbArc
 50
78.80773794350462
 51
90.65941048865872
  0
SPLINE
  5
1AD6D
330
18
100
AcDbEntity
  8
01
100
AcDbSpline
210
0.0
220
0.0
230
1.0
 70
  1064
 71
     3
 72
    26
 73
    22
 74
    20
 42
0.000000001
 43
0.0000000001
 44
0.000001
 12
-0.9979199097763058
 22
-0.06446591093011672
 32
0.0
 13
-0.02284695825456342
 23
0.9997389741820183
 33
0.0
 40
0.0
 40
0.0
 40
0.0
 40
0.0
 40
22.25672874204004
 40
33.34877084862563
 40
44.42939984479647
 40
55.49867241274671
 40
66.55665876077595
 40
77.60087402967451
 40
88.6301824589255
 40
94.13893639426064
 40
99.64443915907196
 40
105.1453874461796
 40
110.6428094101675
 40
116.1400221877812
 40
121.6412419545424
 40
127.1451797682249
 40
132.664687764528
 40
138.2073494278443
 40
143.7750347604447
 40
149.3632114036928
 40
154.9621545292764
 40
154.9621545292764
 40
154.9621545292764
 40
154.9621545292764
 10
2534.501767457958
 20
-454.6207019924133
 30
0.0
 10
2527.098289878567
 20
-455.09896875664
 30
0.0
 10
2516.011943998595
 20
-455.9190410939645
 30
0.0
 10
2501.247211347568
 20
-457.0725677176259
 30
0.0
 10
2490.198955296201
 20
-457.9198629088439
 30
0.0
 10
2479.156306771309
 20
-458.6890440718289
 30
0.0
 10
2468.116742088992
 20
-459.3227984668567
 30
0.0
 10
2457.078728227938
 20
-459.7111901407991
 30
0.0
 10
2447.880848082287
 20
-459.7169072289694
 30
0.0
 10
2440.538599475184
 20
-459.3994843228427
 30
0.0
 10
2435.049397171381
 20
-458.9616117689653
 30
0.0
 10
2429.589896624903
 20
-458.264273315511
 30
0.0
 10
2424.18390753475
 20
-457.2351924505787
 30
0.0
 10
2418.876219701336
 20
-455.7704372458795
 30
0.0
 10
2413.744561466405
 20
-453.7502197016346
 30
0.0
 10
2408.945052975246
 20
-450.9984041246746
 30
0.0
 10
2404.701370729228
 20
-447.4056090368146
 30
0.0
 10
2401.326571711509
 20
-442.9473909004765
 30
0.0
 10
2399.013877242262
 20
-437.838391858553
 30
0.0
 10
2397.725556412413
 20
-432.376409349444
 30
0.0
 10
2397.424930474666
 20
-428.6472150553632
 30
0.0
 10
2397.382290868046
 20
-426.7813878364051
 30
0.0
 11
2534.501767457958
 21
-454.6207019924133
 31
0.0
 11
2512.302140980952
 21
-456.2139740628401
 31
0.0
 11
2501.243197927788
 21
-457.070231324251
 31
0.0
 11
2490.194228508717
 21
-457.9072579488339
 31
0.0
 11
2479.151048161343
 21
-458.6668386396728
 31
0.0
 11
2468.110198050721
 21
-459.2822171520644
 31
0.0
 11
2457.07203292076
 21
-459.6477322086172
 31
0.0
 11
2446.042786977302
 21
-459.6106091557223
 31
0.0
 11
2440.539463727665
 21
-459.3660624865962
 31
0.0
 11
2435.052212039715
 21
-458.9181455831132
 31
0.0
 11
2429.597199065908
 21
-458.2087335268617
 31
0.0
 11
2424.200235074301
 21
-457.1625844511474
 31
0.0
 11
2418.907167507371
 21
-455.6784065505027
 31
0.0
 11
2413.801835592001
 21
-453.6292591729263
 31
0.0
 11
2409.043776437529
 21
-450.8626358535663
 31
0.0
 11
2404.853897818659
 21
-447.269602906758
 31
0.0
 11
2401.509830597389
 21
-442.849386531701
 31
0.0
 11
2399.187897268276
 21
-437.7889769017207
 31
0.0
 11
2397.866010517715
 21
-432.3593973925337
 31
0.0
 11
2397.382290868046
 21
-426.7813878364051
 31
0.0
  0
SPLINE
  5
1AD6E
330
18
100
AcDbEntity
  8
01
100
AcDbSpline
210
0.0
220
0.0
230
1.0
 70
     8
 71
     3
 72
    27
 73
    23
 74
     0
 42
0.0000000001
 43
0.0000000001
 40
0.0
 40
0.0
 40
0.0
 40
0.0
 40
16.91059537614233
 40
25.36612715702854
 40
33.82144120212359
 40
42.27681849485995
 40
50.73232732391983
 40
59.18788171366092
 40
67.64342079382851
 40
76.09822210144672
 40
80.32547480342753
 40
84.55239661131972
 40
88.77906906159228
 40
93.00316601689825
 40
97.22721965277279
 40
101.4453053855404
 40
103.5555681067257
 40
105.6622199082372
 40
107.771868988524
 40
109.8818614491521
 40
114.0963887206748
 40
118.2484923739838
 40
118.2484923739838
 40
118.2484923739838
 40
118.2484923739838
 10
2534.389825094788
 20
-432.6091733506302
 30
0.0
 10
2528.759074261593
 20
-432.8716490565731
 30
0.0
 10
2520.317154736643
 20
-433.3641809449492
 30
0.0
 10
2509.073944255922
 20
-434.1959004741681
 30
0.0
 10
2500.64809876753
 20
-434.9037621946778
 30
0.0
 10
2492.227191721339
 20
-435.6670463858728
 30
0.0
 10
2483.808707534079
 20
-436.4569624309867
 30
0.0
 10
2475.388590683312
 20
-437.2309610388894
 30
0.0
 10
2466.959756479267
 20
-437.9026278118891
 30
0.0
 10
2459.923104362221
 20
-438.2924300391102
 30
0.0
 10
2454.287361762747
 20
-438.4134867998442
 30
0.0
 10
2450.059820172243
 20
-438.3670225584393
 30
0.0
 10
2445.837852945221
 20
-438.1438597400912
 30
0.0
 10
2441.638584993618
 20
-437.6451219209654
 30
0.0
 10
2437.497630770716
 20
-436.7838481453183
 30
0.0
 10
2434.173462611207
 20
-435.570597727101
 30
0.0
 10
2431.711117874598
 20
-434.2008953111514
 30
0.0
 10
2430.00900952184
 20
-432.944190013971
 30
0.0
 10
2428.510024268705
 20
-431.449208597097
 30
0.0
 10
2426.839570748067
 20
-429.1748434640577
 30
0.0
 10
2425.42392502671
 20
-425.9360371825948
 30
0.0
 10
2424.863749658966
 20
-423.1897717669655
 30
0.0
 10
2424.684182618494
 20
-421.8173193078457
 30
0.0
  0
LINE
  5
1AD6F
330
18
100
AcDbEntity
  8
01
100
AcDbLine
 10
2535.436429538557
 20
-636.2674261760418
 30
0.0
 11
2535.436429538558
 21
-633.1810204439076
 31
0.0
  0
LINE
  5
1AD70
330
18
100
AcDbEntity
  8
01
100
AcDbLine
 10
2535.436429259759
 20
-639.2454925727203
 30
0.0
 11
2535.436429538557
 21
-636.2674261760418
 31
0.0
  0
LINE
  5
1AD71
330
18
100
AcDbEntity
  8
01
100
AcDbLine
 10
2534.528757484264
 20
-640.2424673063939
 30
0.0
 11
2534.508284495992
 21
-640.2443683807572
 31
0.0
  0
LINE
  5
1AD72
330
18
100
AcDbEntity
  8
01
100
AcDbLine
 10
2398.170635550478
 20
-657.658903680588
 30
0.0
 11
2423.571361513017
 21
-657.6589040506882
 31
0.0
  0
LINE
  5
1AD73
330
18
100
AcDbEntity
  8
01
100
AcDbLine
 10
2423.629966114244
 20
-657.6485343427488
 30
0.0
 11
2423.571361513017
 21
-657.6589040506882
 31
0.0
  0
ARC
  5
1AD74
330
18
100
AcDbEntity
  8
01
100
AcDbCircle
 10
2534.435462605532
 20
-639.245857833284
 30
0.0
 40
1.000966720870227
100
AcDbArc
 50
275.3480025563511
 51
0.0209076773013226
  0
LINE
  5
1AD75
330
18
100
AcDbEntity
  8
01
100
AcDbLine
 10
2397.370635538557
 20
-656.8587292483152
 30
0.0
 11
2397.370635538557
 21
-636.4588777827984
 31
0.0
  0
LINE
  5
1AD76
330
18
100
AcDbEntity
  8
01
100
AcDbLine
 10
2534.416196289771
 20
-632.1800872774969
 30
0.0
 11
2534.398658477976
 21
-632.1804482136312
 31
0.0
  0
ARC
  5
1AD77
330
18
100
AcDbEntity
  8
01
100
AcDbCircle
 10
2534.430031268802
 20
-633.1816275052587
 30
0.0
 40
1.006398452845485
100
AcDbArc
 50
0.0345609190191558
 51
21.17066786855085
  0
ARC
  5
1AD78
330
18
100
AcDbEntity
  8
01
100
AcDbCircle
 10
2534.430433248321
 20
-633.1833151436293
 30
0.0
 40
1.006634556911848
100
AcDbArc
 50
21.26850517991904
 51
37.81682041126567
  0
ARC
  5
1AD79
330
18
100
AcDbEntity
  8
01
100
AcDbCircle
 10
2534.436362245188
 20
-633.1794886656454
 30
0.0
 40
0.999604822112772
100
AcDbArc
 50
37.8519266369226
 51
91.15595933299288
  0
ARC
  5
1AD7A
330
18
100
AcDbEntity
  8
01
100
AcDbCircle
 10
2398.170635207851
 20
-656.8587289051146
 30
0.0
 40
0.799999669293957
100
AcDbArc
 50
180.0000245799556
 51
270.0250322811478
  0
LINE
  5
1AD7B
330
18
100
AcDbEntity
  8
01
100
AcDbLine
 10
2423.571361513017
 20
-657.6589040506882
 30
0.0
 11
2423.630574333125
 21
-657.6566718307121
 31
0.0
  0
SPLINE
  5
1AD7C
330
18
100
AcDbEntity
  8
01
100
AcDbSpline
210
0.0
220
0.0
230
1.0
 70
     8
 71
     3
 72
    11
 73
     7
 74
     0
 42
0.0000000001
 43
0.0000000001
 40
0.0
 40
0.0
 40
0.0
 40
0.0
 40
21.43372384846992
 40
42.74812160428417
 40
64.00497958002913
 40
71.06070238869576
 40
71.06070238869576
 40
71.06070238869576
 40
71.06070238869576
 10
2534.398266478743
 20
-632.180444373707
 30
0.0
 10
2527.255243677726
 20
-632.3293460526046
 30
0.0
 10
2513.009363221657
 20
-632.6453861379067
 30
0.0
 10
2491.680298108612
 20
-633.1484391212581
 30
0.0
 10
2475.143069379008
 20
-633.5592734677438
 30
0.0
 10
2465.708637201395
 20
-633.8009502505041
 30
0.0
 10
2463.357510554527
 20
-633.8615548047584
 30
0.0
  0
SPLINE
  5
1AD7D
330
18
100
AcDbEntity
  8
01
100
AcDbSpline
210
0.0
220
0.0
230
1.0
 70
     8
 71
     3
 72
    32
 73
    28
 74
     0
 42
0.0000000001
 43
0.0000000001
 40
0.0
 40
0.0
 40
0.0
 40
0.0
 40
0.3599301998348471
 40
0.7204576955008581
 40
1.078388999306343
 40
1.203188941373293
 40
1.256497440238248
 40
1.349899079695673
 40
1.501470349278231
 40
1.719093506751409
 40
2.008946379622365
 40
2.377953257068766
 40
2.833372290666866
 40
4.02961040316922
 40
5.628859930107992
 40
7.61937959175037
 40
9.930476612769016
 40
12.47953325127824
 40
15.18599668370276
 40
17.98461738332648
 40
20.83771850465741
 40
26.62046581402179
 40
32.43257263878778
 40
38.23851433232301
 40
44.02870797848659
 40
55.55219103227755
 40
66.45873402473153
 40
66.45873402473153
 40
66.45873402473153
 40
66.45873402473153
 10
2397.370619772215
 20
-636.4588716762829
 30
0.0
 10
2397.370619809445
 20
-636.3388949430047
 30
0.0
 10
2397.427231401547
 20
-636.0953584682185
 30
0.0
 10
2397.660551133859
 20
-635.806949778318
 30
0.0
 10
2397.925258714647
 20
-635.6827820566426
 30
0.0
 10
2398.103049310824
 20
-635.6609605692282
 30
0.0
 10
2398.193481758696
 20
-635.657222464151
 30
0.0
 10
2398.292842199698
 20
-635.6536344109765
 30
0.0
 10
2398.446953909104
 20
-635.6484229202998
 30
0.0
 10
2398.666509298135
 20
-635.6409674438329
 30
0.0
 10
2398.958509403671
 20
-635.6312668284141
 30
0.0
 10
2399.32973324467
 20
-635.619008461737
 30
0.0
 10
2400.002928367115
 20
-635.5970016405162
 30
0.0
 10
2401.086004264279
 20
-635.5621772273627
 30
0.0
 10
2402.680547898593
 20
-635.5119057507469
 30
0.0
 10
2404.646570568154
 20
-635.4513330217554
 30
0.0
 10
2406.929091841094
 20
-635.3825321337434
 30
0.0
 10
2409.450204888009
 20
-635.3082926658625
 30
0.0
 10
2412.133801391408
 20
-635.2308483653256
 30
0.0
 10
2414.918746747378
 20
-635.1519810432659
 30
0.0
 10
2418.728753415465
 20
-635.0456625670148
 30
0.0
 10
2423.542932059547
 20
-634.913757238677
 30
0.0
 10
2429.341087824746
 20
-634.7573351909019
 30
0.0
 10
2435.141763336272
 20
-634.6022824017253
 30
0.0
 10
2442.845587169364
 20
-634.3977116591976
 30
0.0
 10
2452.249059160315
 20
-634.1497760640108
 30
0.0
 10
2459.723204054412
 20
-633.9552603383414
 30
0.0
 10
2463.357510554526
 20
-633.8615548047584
 30
0.0
  0
SPLINE
  5
1AD7E
330
18
100
AcDbEntity
  8
01
100
AcDbSpline
210
0.0
220
0.0
230
1.0
 70
  1064
 71
     3
 72
    29
 73
    25
 74
    23
 42
0.000000001
 43
0.0000000001
 44
0.000001
 12
-0.9957295571504321
 22
-0.09231819439852766
 32
0.0
 13
-0.9999999961407903
 23
-8.785453656356257E-5
 33
0.0
 40
0.0
 40
0.0
 40
0.0
 40
0.0
 40
18.72223237932955
 40
28.08380125047977
 40
37.44489731842073
 40
46.8045065589921
 40
56.157036497619
 40
65.49105784394362
 40
74.7753600986996
 40
83.93695746269857
 40
88.42253561022918
 40
92.79315031724524
 40
96.98478944101419
 40
100.8929762880916
 40
104.3856126466119
 40
107.309736113392
 40
108.5186045585991
 40
109.5470291062996
 40
110.3943897133712
 40
111.0646313142806
 40
111.5675614950663
 40
111.9161223033962
 40
112.123916147474
 40
112.3643818635918
 40
112.3643818635918
 40
112.3643818635918
 40
112.3643818635918
 10
2534.508228070348
 20
-640.2443902442654
 30
0.0
 10
2528.294134685036
 20
-640.8205244737219
 30
0.0
 10
2518.982419409983
 20
-641.7926788137372
 30
0.0
 10
2506.591348783371
 20
-643.2948086603408
 30
0.0
 10
2497.311072560491
 20
-644.5211250229545
 30
0.0
 10
2488.046957747568
 20
-645.8426665503611
 30
0.0
 10
2478.805399726374
 20
-647.2551080374283
 30
0.0
 10
2469.602708204096
 20
-648.7527697025145
 30
0.0
 10
2460.477437561503
 20
-650.3272723458858
 30
0.0
 10
2452.957471747414
 20
-651.6984577448717
 30
0.0
 10
2447.056936774801
 20
-652.8187768416539
 30
0.0
 10
2442.78794045339
 20
-653.6506674071209
 30
0.0
 10
2438.711804079577
 20
-654.465739351173
 30
0.0
 10
2434.926233210133
 20
-655.2411438967022
 30
0.0
 10
2431.557780172224
 20
-655.9472175447329
 30
0.0
 10
2429.072065121781
 20
-656.4786277182511
 30
0.0
 10
2427.39063736942
 20
-656.843069935823
 30
0.0
 10
2426.386045909254
 20
-657.0622521980873
 30
0.0
 10
2425.557128405234
 20
-657.2442354583343
 30
0.0
 10
2424.899287676834
 20
-657.3888785407039
 30
0.0
 10
2424.404195277282
 20
-657.4987508937415
 30
0.0
 10
2424.058782205876
 20
-657.5731404042206
 30
0.0
 10
2423.800331543245
 20
-657.6321366332419
 30
0.0
 10
2423.651921870236
 20
-657.6589050593016
 30
0.0
 10
2423.57176663184
 20
-657.6589121013029
 30
0.0
 11
2534.508228070348
 21
-640.2443902442654
 31
0.0
 11
2515.886878455368
 21
-642.1853498001302
 31
0.0
 11
2506.593286427955
 21
-643.3114576754821
 31
0.0
 11
2497.312777787643
 21
-644.5371325769166
 31
0.0
 11
2488.046895351455
 21
-645.8583849413131
 31
0.0
 11
2478.801652382022
 21
-647.2709353602121
 31
0.0
 11
2469.58880971917
 21
-648.7700966461974
 31
0.0
 11
2460.439712097989
 21
-650.3487926509346
 31
0.0
 11
2451.42681172741
 21
-651.9927187961629
 31
0.0
 11
2447.019977115323
 21
-652.8295102992814
 31
0.0
 11
2442.730089464976
 21
-653.665654344875
 31
0.0
 11
2438.619824693671
 21
-654.4875801650729
 31
0.0
 11
2434.791173825746
 21
-655.2720270804608
 31
0.0
 11
2431.372829917053
 21
-655.9885699289613
 31
0.0
 11
2428.51335935369
 21
-656.6000649360652
 31
0.0
 11
2427.331916132057
 21
-656.8561017123208
 31
0.0
 11
2426.327134946036
 21
-657.0753545732842
 31
0.0
 11
2425.499460799489
 21
-657.2569461575969
 31
0.0
 11
2424.844902773022
 21
-657.4010904973469
 31
0.0
 11
2424.353753531371
 21
-657.5093087258773
 31
0.0
 11
2424.013258181567
 21
-657.5838576871314
 31
0.0
 11
2423.81028068079
 21
-657.628336951621
 31
0.0
 11
2423.57176663184
 21
-657.6589121013029
 31
0.0
  0
SPLINE
  5
1AD7F
330
18
100
AcDbEntity
  8
01
100
AcDbSpline
210
0.0
220
0.0
230
1.0
 70
     8
 71
     3
 72
    44
 73
    40
 74
     0
 42
0.0000000001
 43
0.0000000001
 40
0.0
 40
0.0
 40
0.0
 40
0.0
 40
27.07959778501141
 40
27.07959778501141
 40
54.60840902937863
 40
54.60840902937863
 40
82.13722027374585
 40
82.13722027374585
 40
109.6660315181131
 40
109.6660315181131
 40
112.1754562362065
 40
112.1754562362065
 40
117.1943056723934
 40
117.1943056723934
 40
127.2320045447672
 40
127.2320045447672
 40
133.9474354635729
 40
133.9474354635729
 40
134.5784087099583
 40
134.5784087099583
 40
135.8403552027291
 40
135.8403552027291
 40
137.719205311297
 40
137.719205311297
 40
137.8907550435536
 40
137.8907550435536
 40
138.2338545080668
 40
138.2338545080668
 40
138.3136935812727
 40
138.3136935812727
 40
138.3988995637888
 40
138.3988995637888
 40
138.4402043869496
 40
138.4402043869496
 40
138.4737052737331
 40
138.4737052737331
 40
138.4994240015327
 40
138.4994240015327
 40
138.5115311008119
 40
138.5115311008119
 40
138.5115311008119
 40
138.5115311008119
 10
2534.397749278197
 20
-632.605331330178
 30
0.0
 10
2525.446908372228
 20
-633.8015758685555
 30
0.0
 10
2516.510500700037
 20
-635.1020477623061
 30
0.0
 10
2498.514068359988
 20
-637.8725182807244
 30
0.0
 10
2489.453987475043
 20
-639.3440130369264
 30
0.0
 10
2471.353659054356
 20
-642.4034166216389
 30
0.0
 10
2462.313327205505
 20
-643.9926525948653
 30
0.0
 10
2444.2600437509
 20
-647.3257717413354
 30
0.0
 10
2435.247484364814
 20
-649.0715620749276
 30
0.0
 10
2425.435743560066
 20
-651.0887429145729
 30
0.0
 10
2424.616231828858
 20
-651.2581235494871
 30
0.0
 10
2422.158236231383
 20
-651.7689414646601
 30
0.0
 10
2420.520294014713
 20
-652.1130513658067
 30
0.0
 10
2415.60879484572
 20
-653.1566177285971
 30
0.0
 10
2412.337435396691
 20
-653.8665663650746
 30
0.0
 10
2406.883922865633
 20
-655.0847884653889
 30
0.0
 10
2404.699859749697
 20
-655.5816943442586
 30
0.0
 10
2402.313064292432
 20
-656.1401941776177
 30
0.0
 10
2402.108085702993
 20
-656.1882956504393
 30
0.0
 10
2401.493220197922
 20
-656.3330368674959
 30
0.0
 10
2401.083383725457
 20
-656.4301088659937
 30
0.0
 10
2400.063601743071
 20
-656.6736209380587
 30
0.0
 10
2399.454002298327
 20
-656.8207495246139
 30
0.0
 10
2398.788241695038
 20
-656.9851018610501
 30
0.0
 10
2398.732512361163
 20
-656.9988931869478
 30
0.0
 10
2398.565253351499
 20
-657.0404249375971
 30
0.0
 10
2398.454025037461
 20
-657.0681983497817
 30
0.0
 10
2398.31567509624
 20
-657.103199238304
 30
0.0
 10
2398.28947669538
 20
-657.109854188631
 30
0.0
 10
2398.235162021445
 20
-657.12373981556
 30
0.0
 10
2398.207247563377
 20
-657.1309383109607
 30
0.0
 10
2398.166309103999
 20
-657.141495117652
 30
0.0
 10
2398.151976704688
 20
-657.1451891466642
 30
0.0
 10
2398.124348819379
 20
-657.152494758932
 30
0.0
 10
2398.112140006342
 20
-657.1558182661321
 30
0.0
 10
2398.097408526418
 20
-657.1597330659805
 30
0.0
 10
2398.096269634368
 20
-657.1599096903025
 30
0.0
 10
2398.072027239729
 20
-657.1662997912641
 30
0.0
 10
2398.061581436997
 20
-657.1691231662436
 30
0.0
 10
2398.048376989481
 20
-657.1731916637924
 30
0.0
  0
LINE
  5
1AD80
330
18
100
AcDbEntity
  8
01
  6
CONTINUOUS
100
AcDbLine
 10
2289.622228972594
 20
-635.6589043355194
 30
0.0
 11
2269.888895643234
 21
-635.6589060606626
 31
0.0
  0
LINE
  5
1AD81
330
18
100
AcDbEntity
  8
01
  6
CONTINUOUS
100
AcDbLine
 10
2269.888897566537
 20
-657.6589060606626
 30
0.0
 11
2289.622230895895
 21
-657.6589043355194
 31
0.0
  0
SPLINE
  5
1AD82
330
18
100
AcDbEntity
  8
01
  6
CONTINUOUS
100
AcDbSpline
210
0.0
220
0.0
230
1.0
 70
  1064
 71
     3
 72
    10
 73
     6
 74
     4
 42
0.000000001
 43
0.0000000001
 44
0.000001
 12
-0.9994601531828483
 22
-0.03285425694970674
 32
0.0
 13
-0.999999986028043
 23
-0.0001671643320593494
 33
0.0
 40
0.0
 40
0.0
 40
0.0
 40
0.0
 40
5.014443398443527
 40
11.01006145479278
 40
17.34126459784179
 40
17.34126459784179
 40
17.34126459784179
 40
17.34126459784179
 10
2307.228312834518
 20
-635.4620609542941
 30
0.0
 10
2305.557734045473
 20
-635.5169762249182
 30
0.0
 10
2301.888289800305
 20
-635.593305985067
 30
0.0
 10
2296.108104315765
 20
-635.6483979205647
 30
0.0
 10
2291.999140978929
 20
-635.6585256471278
 30
0.0
 10
2289.888739960732
 20
-635.6588784309093
 30
0.0
 11
2307.228312834518
 21
-635.4620609542941
 31
0.0
 11
2302.215208173644
 21
-635.5779253182587
 31
0.0
 11
2296.219916275928
 21
-635.6404621970893
 31
0.0
 11
2289.888739960732
 21
-635.6588784309093
 31
0.0
  0
LINE
  5
1AD83
330
18
100
AcDbEntity
  8
01
  6
CONTINUOUS
100
AcDbLine
 10
2309.240557193003
 20
-635.3831022837345
 30
0.0
 11
2307.228312834518
 21
-635.4620609542941
 31
0.0
  0
SPLINE
  5
1AD84
330
18
100
AcDbEntity
  8
01
  6
CONTINUOUS
100
AcDbSpline
210
0.0
220
0.0
230
1.0
 70
  1064
 71
     3
 72
    36
 73
    32
 74
    30
 42
0.000000001
 43
0.0000000001
 44
0.000001
 12
0.9938069772178694
 22
-0.1111201693351909
 32
0.0
 13
-0.9989015518246972
 23
-0.04685818778198592
 33
0.0
 40
0.0
 40
0.0
 40
0.0
 40
0.0
 40
2.42922784662992
 40
3.919355453223645
 40
5.550941175542857
 40
7.284555291724734
 40
9.071456982233972
 40
10.85917755497593
 40
11.73489586882123
 40
12.58682580795989
 40
13.40493229759228
 40
14.17691436774292
 40
14.88865081251399
 40
15.5225472362669
 40
15.80398645204095
 40
16.05801996152319
 40
16.28041886650327
 40
16.46689274434949
 40
16.61375640551638
 40
16.71870486785198
 40
16.78579178781782
 40
16.85368029962045
 40
16.90643972053334
 40
16.9766056514621
 40
17.1786149263348
 40
17.47849300648922
 40
17.89430820030068
 40
18.44687969626548
 40
19.15861543069466
 40
20.05339997840785
 40
21.15333389268996
 40
21.15333389268996
 40
21.15333389268996
 40
21.15333389268996
 10
2296.909092551141
 20
-632.9708634195573
 30
0.0
 10
2297.713820412218
 20
-633.0608421561144
 30
0.0
 10
2299.017159008158
 20
-633.1584812112895
 30
0.0
 10
2300.863235878755
 20
-633.2816117628686
 30
0.0
 10
2302.478150716987
 20
-633.38896497273
 30
0.0
 10
2304.190908904648
 20
-633.5148380918472
 30
0.0
 10
2305.954347099021
 20
-633.6605204467471
 30
0.0
 10
2307.431245739838
 20
-633.8002323538537
 30
0.0
 10
2308.59664633589
 20
-633.922514287535
 30
0.0
 10
2309.439897214267
 20
-634.0176021157611
 30
0.0
 10
2310.247920845439
 20
-634.1162192382855
 30
0.0
 10
2311.008444664799
 20
-634.2179616464172
 30
0.0
 10
2311.706606070228
 20
-634.3222006874439
 30
0.0
 10
2312.241257260865
 20
-634.4137817461524
 30
0.0
 10
2312.623538680149
 20
-634.4901007855804
 30
0.0
 10
2312.870080426868
 20
-634.5452185547985
 30
0.0
 10
2313.084058950401
 20
-634.6009615547443
 30
0.0
 10
2313.260815045944
 20
-634.6557991404146
 30
0.0
 10
2313.396516897662
 20
-634.7130992599937
 30
0.0
 10
2313.487811768528
 20
-634.7636793253944
 30
0.0
 10
2313.541375471247
 20
-634.8384566247839
 30
0.0
 10
2313.499529394339
 20
-634.8992193779178
 30
0.0
 10
2313.446455194996
 20
-634.9320941545686
 30
0.0
 10
2313.347554595945
 20
-634.9783095365304
 30
0.0
 10
2313.163770155471
 20
-635.0304768906351
 30
0.0
 10
2312.863658339111
 20
-635.0905892167235
 30
0.0
 10
2312.445067628542
 20
-635.1508315334022
 30
0.0
 10
2311.888274481412
 20
-635.2116267443538
 30
0.0
 10
2311.171056974234
 20
-635.2720153119802
 30
0.0
 10
2310.270830909175
 20
-635.3314334939504
 30
0.0
 10
2309.606799090963
 20
-635.3659219804334
 30
0.0
 10
2309.240557193003
 20
-635.3831022837345
 30
0.0
 11
2296.909092551141
 21
-632.9708634195573
 31
0.0
 11
2299.329492328068
 21
-633.1777651124427
 31
0.0
 11
2300.816216348182
 21
-633.2784226625878
 31
0.0
 11
2302.444081539956
 21
-633.3885447478784
 31
0.0
 11
2304.172996084902
 21
-633.5161081022339
 31
0.0
 11
2305.953765110169
 21
-633.6640249090439
 31
0.0
 11
2307.733488493339
 21
-633.8329322556652
 31
0.0
 11
2308.604408472961
 21
-633.9244803972002
 31
0.0
 11
2309.450946133758
 21
-634.0201823236545
 31
0.0
 11
2310.262979089185
 21
-634.1196877004719
 31
0.0
 11
2311.028065869818
 21
-634.2226415933907
 31
0.0
 11
2311.731857817488
 21
-634.3286898921148
 31
0.0
 11
2312.356335077026
 21
-634.4375615348523
 31
0.0
 11
2312.632261557571
 21
-634.4929928727157
 31
0.0
 11
2312.880031104753
 21
-634.5490579300864
 31
0.0
 11
2313.095083791675
 21
-634.6057467735296
 31
0.0
 11
2313.272534130119
 21
-634.6630520229261
 31
0.0
 11
2313.407496631874
 21
-634.7209662981601
 31
0.0
 11
2313.494616555845
 21
-634.7794838389042
 31
0.0
 11
2313.52632087752
 21
-634.8386065420178
 31
0.0
 11
2313.494047654162
 21
-634.8983333508164
 31
0.0
 11
2313.450703920864
 21
-634.9284145380312
 31
0.0
 11
2313.387379141926
 21
-634.9586342455601
 31
0.0
 11
2313.194745798264
 21
-635.019463052207
 31
0.0
 11
2312.901193626503
 21
-635.0807328393499
 31
0.0
 11
2312.489963927537
 21
-635.1423153963029
 31
0.0
 11
2311.940833110856
 21
-635.2038832891282
 31
0.0
 11
2311.23172617491
 21
-635.2649988360223
 31
0.0
 11
2310.33895948996
 21
-635.3250574242662
 31
0.0
 11
2309.240557193003
 21
-635.3831022837345
 31
0.0
  0
LINE
  5
1AD85
330
18
100
AcDbEntity
  8
01
100
AcDbLine
 10
2296.876930466827
 20
-635.6350860432154
 30
0.0
 11
2296.909092551141
 21
-632.9708634195573
 31
0.0
  0
LINE
  5
1AD86
330
18
100
AcDbEntity
  8
01
100
AcDbLine
 10
2318.059301358345
 20
-632.2992552612928
 30
0.0
 11
2297.707688394819
 21
-632.1800816235196
 31
0.0
  0
ARC
  5
1AD87
330
18
100
AcDbEntity
  8
01
100
AcDbCircle
 10
2318.063347903406
 20
-633.0906217506553
 30
0.0
 40
0.7913768350239725
100
AcDbArc
 50
27.35913675198638
 51
90.29297163333435
  0
ARC
  5
1AD88
330
18
100
AcDbEntity
  8
01
100
AcDbCircle
 10
2297.708717752075
 20
-632.9801213478557
 30
0.0
 40
0.7996787925197018
100
AcDbArc
 50
89.9935702585521
 51
179.3366685809382
  0
LINE
  5
1AD89
330
18
100
AcDbEntity
  8
01
  6
CONTINUOUS
100
AcDbLine
 10
2269.888895643234
 20
-635.6589060606626
 30
0.0
 11
2269.888897566537
 21
-657.6589060606626
 31
0.0
  0
LINE
  5
1AD8A
330
18
100
AcDbEntity
  8
01
  6
CONTINUOUS
100
AcDbLine
 10
2310.064792928431
 20
-635.3408972213671
 30
0.0
 11
2311.044490313438
 21
-635.2759934401298
 31
0.0
  0
SPLINE
  5
1AD8B
330
18
100
AcDbEntity
  8
01
  6
CONTINUOUS
100
AcDbSpline
210
0.0
220
0.0
230
1.0
 70
  1064
 71
     3
 72
    27
 73
    23
 74
    21
 42
0.000000001
 43
0.0000000001
 44
0.000001
 12
0.9999996557190713
 22
0.0008297962031457257
 32
0.0
 13
-0.4579738290174825
 23
0.8889656753413293
 33
0.0
 40
0.0
 40
0.0
 40
0.0
 40
0.0
 40
5.873293633215288
 40
11.36353689117744
 40
16.53955106604971
 40
21.14173461159522
 40
24.98310568734634
 40
28.06655579448034
 40
30.51817324520313
 40
32.50336731390501
 40
34.16067337673968
 40
35.59775548316256
 40
36.88559666201813
 40
38.07491547901009
 40
40.27457243626415
 40
41.32578564536498
 40
42.35657039433246
 40
44.37506806133698
 40
46.34835779444145
 40
50.10698163516924
 40
51.84875827563179
 40
53.46914539902231
 40
53.46914539902231
 40
53.46914539902231
 40
53.46914539902231
 10
2289.622230895895
 20
-657.6589043355194
 30
0.0
 10
2291.579994766279
 20
-657.6572797899338
 30
0.0
 10
2295.368209525836
 20
-657.6054249652275
 30
0.0
 10
2300.875900659223
 20
-657.3277875665251
 30
0.0
 10
2305.943827278784
 20
-656.8346468260139
 30
0.0
 10
2310.43048678622
 20
-656.1163611083582
 30
0.0
 10
2314.167492853137
 20
-655.201097232148
 30
0.0
 10
2317.11939919586
 20
-654.153083215599
 30
0.0
 10
2319.361493641572
 20
-653.014601283205
 30
0.0
 10
2321.024369011136
 20
-651.8325540841979
 30
0.0
 10
2322.220246685418
 20
-650.62107759542
 30
0.0
 10
2323.044573339738
 20
-649.4050106199576
 30
0.0
 10
2323.567039695027
 20
-648.2015475471778
 30
0.0
 10
2323.934870902263
 20
-646.6801389795628
 30
0.0
 10
2323.953871100894
 20
-645.1805984597825
 30
0.0
 10
2323.739946387112
 20
-643.7687812694702
 30
0.0
 10
2323.428340250876
 20
-642.4364428610625
 30
0.0
 10
2322.883049452872
 20
-640.8497321047477
 30
0.0
 10
2321.847592649038
 20
-638.4812018838493
 30
0.0
 10
2320.677197600085
 20
-636.2797199189231
 30
0.0
 10
2319.541860453949
 20
-634.195627653305
 30
0.0
 10
2319.01356896278
 20
-633.2070876018778
 30
0.0
 10
2318.766203997649
 20
-632.7269314240581
 30
0.0
 11
2289.622230895895
 21
-657.6589043355194
 31
0.0
 11
2295.494798633281
 21
-657.5665733823531
 31
0.0
 11
2300.977488550892
 21
-657.2786776741292
 31
0.0
 11
2306.127460348992
 21
-656.7601076930883
 31
0.0
 11
2310.667996348569
 21
-656.0093563487432
 31
0.0
 11
2314.393232864044
 21
-655.0719420071142
 31
0.0
 11
2317.289660838186
 21
-654.0144117495043
 31
0.0
 11
2319.466314856102
 21
-652.8863133988976
 31
0.0
 11
2321.073333889983
 21
-651.7207724694114
 31
0.0
 11
2322.230090415884
 21
-650.5339371886108
 31
0.0
 11
2323.031244793113
 21
-649.3408919900409
 31
0.0
 11
2323.543481842087
 21
-648.1593048087421
 31
0.0
 11
2323.82436816008
 21
-647.0036308702262
 31
0.0
 11
2323.878053972998
 21
-644.8046290658236
 31
0.0
 11
2323.725111279856
 21
-643.7646012717493
 31
0.0
 11
2323.492048823842
 21
-642.7605100661709
 31
0.0
 11
2322.852592436659
 21
-640.8459791701113
 31
0.0
 11
2322.070488836583
 21
-639.0342986007178
 31
0.0
 11
2320.354067611053
 21
-635.6904756619821
 31
0.0
 11
2319.524592776527
 21
-634.1588890750369
 31
0.0
 11
2318.766203997649
 21
-632.7269314240581
 31
0.0
  0
LINE
  5
1AD90
330
18
100
AcDbEntity
  8
01
100
AcDbLine
 10
2435.870633198027
 20
-655.0489598604833
 30
0.0
 11
2435.870633198027
 21
-710.158905942642
 31
0.0
  0
LINE
  5
1AD91
330
18
100
AcDbEntity
  8
1CENTER
100
AcDbLine
 10
2394.786958434084
 20
-342.1589139769245
 30
0.0
 11
2402.920630795932
 21
-342.1589059436743
 31
0.0
  0
LINE
  5
1AD92
330
18
100
AcDbEntity
  8
01
100
AcDbLine
 10
2535.436429538557
 20
-319.706433421679
 30
0.0
 11
2535.436429540976
 21
-299.6968287314531
 31
0.0
  0
SPLINE
  5
1AD93
330
18
100
AcDbEntity
  8
01
100
AcDbSpline
210
0.0
220
0.0
230
1.0
 70
     8
 71
     3
 72
     9
 73
     5
 74
     0
 42
0.0000000001
 43
0.0000000001
 40
0.0
 40
0.0
 40
0.0
 40
0.0
 40
4.181585763194067
 40
4.906987455372584
 40
4.906987455372584
 40
4.906987455372584
 40
4.906987455372584
 10
2424.370635538557
 20
-336.6589059436716
 30
0.0
 10
2424.378618949479
 20
-335.0028176204524
 30
0.0
 10
2424.455424222891
 20
-333.3656043233028
 30
0.0
 10
2424.652219673132
 20
-331.740371212076
 30
0.0
 10
2424.684182618493
 20
-331.5004925794952
 30
0.0
  0
LINE
  5
1AD94
330
18
100
AcDbEntity
  8
01
100
AcDbLine
 10
2397.370635538558
 20
-347.6589059436716
 30
0.0
 11
2424.370635538558
 21
-347.6589059436716
 31
0.0
  0
LINE
  5
1AD95
330
18
100
AcDbEntity
  8
01
100
AcDbLine
 10
2424.370635538557
 20
-336.6589059436716
 30
0.0
 11
2424.370635538558
 21
-347.6589059436716
 31
0.0
  0
LINE
  5
1AD96
330
18
100
AcDbEntity
  8
01
100
AcDbLine
 10
2397.370635538557
 20
-327.6589059436716
 30
0.0
 11
2397.370635538558
 21
-347.6589059436716
 31
0.0
  0
ARC
  5
1AD97
330
18
100
AcDbEntity
  8
01
100
AcDbCircle
 10
2534.43488409305
 20
-319.7081018500531
 30
0.0
 40
1.00154683518478
100
AcDbArc
 50
269.2048736671269
 51
0.0954463087638144
  0
LINE
  5
1AD98
330
18
100
AcDbEntity
  8
01
100
AcDbLine
 10
2534.389932105522
 20
-320.7086119297088
 30
0.0
 11
2534.420985500378
 21
-320.7095522443266
 31
0.0
  0
ARC
  5
1AD99
330
18
100
AcDbEntity
  8
01
100
AcDbCircle
 10
2534.435355702248
 20
-299.6959787710686
 30
0.0
 40
1.001074199556652
100
AcDbArc
 50
359.9513531078289
 51
86.19617612219248
  0
LINE
  5
1AD9A
330
18
100
AcDbEntity
  8
01
100
AcDbLine
 10
2534.416196289771
 20
-319.8401128879588
 30
0.0
 11
2534.398658477976
 21
-319.8389937906537
 31
0.0
  0
SPLINE
  5
1AD9B
330
18
100
AcDbEntity
  8
01
100
AcDbSpline
210
0.0
220
0.0
230
1.0
 70
  1064
 71
     3
 72
    10
 73
     6
 74
     4
 42
0.000000001
 43
0.0000000001
 44
0.000001
 12
0.9831784645781124
 22
-0.1826474932481291
 32
0.0
 13
0.993718563209008
 23
-0.1119080744800171
 33
0.0
 40
0.0
 40
0.0
 40
0.0
 40
0.0
 40
12.64947198872543
 40
25.29664324953094
 40
37.93871298170414
 40
37.93871298170414
 40
37.93871298170414
 40
37.93871298170414
 10
2496.908315897384
 20
-314.0714568834688
 30
0.0
 10
2501.053878713251
 20
-314.8415883333532
 30
0.0
 10
2509.355264143226
 20
-316.3239865010289
 30
0.0
 10
2521.849232628886
 20
-318.2876317335144
 30
0.0
 10
2530.211105354561
 20
-319.3674105635972
 30
0.0
 10
2534.398658477976
 20
-319.8389937906537
 30
0.0
 11
2496.908315897384
 21
-314.0714568834688
 31
0.0
 11
2509.363344705633
 21
-316.2808428089826
 31
0.0
 11
2521.859321834393
 21
-318.2305858154842
 31
0.0
 11
2534.398658477976
 21
-319.8389937906537
 31
0.0
  0
ARC
  5
1AD9C
330
18
100
AcDbEntity
  8
01
100
AcDbCircle
 10
2826.774554100132
 20
1445.737143790134
 30
0.0
 40
1790.457496315067
100
AcDbArc
 50
258.7765821234387
 51
259.3834231226387
  0
SPLINE
  5
1AD9D
330
18
100
AcDbEntity
  8
01
100
AcDbSpline
210
0.0
220
0.0
230
1.0
 70
  1064
 71
     3
 72
    25
 73
    21
 74
    19
 42
0.000000001
 43
0.0000000001
 44
0.000001
 12
-0.000871073338289442
 22
0.9999996206155477
 32
0.0
 13
0.9812495806433168
 23
-0.1927414342774154
 33
0.0
 40
0.0
 40
0.0
 40
0.0
 40
0.0
 40
3.441413671685528
 40
6.890117821913623
 40
10.34824228437137
 40
13.81586316647407
 40
17.29116998569668
 40
20.76838829436296
 40
24.24299418042819
 40
27.70617175107052
 40
31.15824156417337
 40
34.60459654871372
 40
41.47191728334248
 40
48.32507241181077
 40
55.16974723390382
 40
62.00886926276685
 40
68.84307992267418
 40
75.67437120356215
 40
82.50297694377403
 40
96.1580389775308
 40
96.1580389775308
 40
96.1580389775308
 40
96.1580389775308
 10
2397.370635538557
 20
-327.6589059436716
 30
0.0
 10
2397.369636297325
 20
-326.511768488316
 30
0.0
 10
2397.457183599458
 20
-324.213588913236
 30
0.0
 10
2397.912271809816
 20
-320.788023037175
 30
0.0
 10
2398.781389528228
 20
-317.4298021595138
 30
0.0
 10
2400.157107752972
 20
-314.2294611679909
 30
0.0
 10
2402.101432157369
 20
-311.324320283879
 30
0.0
 10
2404.589032549167
 20
-308.8637315195963
 30
0.0
 10
2407.490701290905
 20
-306.9242714627119
 30
0.0
 10
2410.65489907543
 20
-305.4868789305773
 30
0.0
 10
2413.963359446157
 20
-304.4700099218314
 30
0.0
 10
2418.468171460041
 20
-303.5678935999207
 30
0.0
 10
2424.187280513996
 20
-303.0922564805651
 30
0.0
 10
2431.047017875442
 20
-303.1768474287116
 30
0.0
 10
2437.876774540458
 20
-303.688568002796
 30
0.0
 10
2444.66988332251
 20
-304.4937812949696
 30
0.0
 10
2451.431255056244
 20
-305.4981377178701
 30
0.0
 10
2458.166653614046
 20
-306.641046151447
 30
0.0
 10
2467.122032637566
 20
-308.2857564172717
 30
0.0
 10
2473.822034504193
 20
-309.6017826599667
 30
0.0
 10
2478.288375802287
 20
-310.4790814071445
 30
0.0
 11
2397.370635538557
 21
-327.6589059436716
 31
0.0
 11
2397.510842201008
 21
-324.2203485894139
 31
0.0
 11
2397.980388597512
 21
-320.8037586687293
 31
0.0
 11
2398.864325248623
 21
-317.4605145747347
 31
0.0
 11
2400.250177191469
 21
-314.2818655925904
 31
0.0
 11
2402.191369098424
 21
-311.3992397137673
 31
0.0
 11
2404.659287052822
 21
-308.9496624603013
 31
0.0
 11
2407.5390294196
 21
-307.0054478149378
 31
0.0
 11
2410.683869936444
 21
-305.5550762745462
 31
0.0
 11
2413.978914580541
 21
-304.5257719893849
 31
0.0
 11
2417.355463712167
 21
-303.8356422347312
 31
0.0
 11
2424.193418351029
 21
-303.2012356678289
 31
0.0
 11
2431.046412531557
 21
-303.2482118128111
 31
0.0
 11
2437.873558201152
 21
-303.737758448866
 31
0.0
 11
2444.666954908253
 21
-304.5272846420559
 31
0.0
 11
2451.428465447969
 21
-305.5214731348134
 31
0.0
 11
2458.164823710078
 21
-306.6563819654717
 31
0.0
 11
2464.882193177296
 21
-307.8839013648718
 31
0.0
 11
2478.288375802287
 21
-310.4790814071445
 31
0.0
  0
ARC
  5
1AD9E
330
18
100
AcDbEntity
  8
01
100
AcDbCircle
 10
2535.341100572223
 20
-319.6228220555578
 30
0.0
 40
0.0979236131362861
100
AcDbArc
 50
286.2525914478319
 51
346.7810586098014
  0
LINE
  5
1AD9F
330
18
100
AcDbEntity
  8
01
100
AcDbLine
 10
2535.225649428974
 20
-319.7655005703965
 30
0.0
 11
2535.368506692387
 21
-319.7168323666307
 31
0.0
  0
ARC
  5
1ADA0
330
18
100
AcDbEntity
  8
01
100
AcDbCircle
 10
2534.461503785227
 20
-315.9035457577608
 30
0.0
 40
3.936827852433767
100
AcDbArc
 50
269.3405895113413
 51
281.1922620564953
  0
SPLINE
  5
1ADA1
330
18
100
AcDbEntity
  8
01
100
AcDbSpline
210
0.0
220
0.0
230
1.0
 70
  1064
 71
     3
 72
    26
 73
    22
 74
    20
 42
0.000000001
 43
0.0000000001
 44
0.000001
 12
-0.9979199097763058
 22
0.06446591093011672
 32
0.0
 13
-0.02284695825456342
 23
-0.9997389741820183
 33
0.0
 40
0.0
 40
0.0
 40
0.0
 40
0.0
 40
22.25672874204004
 40
33.34877084862563
 40
44.42939984479647
 40
55.49867241274671
 40
66.55665876077595
 40
77.60087402967451
 40
88.6301824589255
 40
94.13893639426064
 40
99.64443915907196
 40
105.1453874461796
 40
110.6428094101675
 40
116.1400221877812
 40
121.6412419545424
 40
127.1451797682249
 40
132.664687764528
 40
138.2073494278443
 40
143.7750347604447
 40
149.3632114036928
 40
154.9621545292764
 40
154.9621545292764
 40
154.9621545292764
 40
154.9621545292764
 10
2534.501767457958
 20
-298.6971098949281
 30
0.0
 10
2527.098289878567
 20
-298.2188431307014
 30
0.0
 10
2516.011943998595
 20
-297.3987707933768
 30
0.0
 10
2501.247211347568
 20
-296.2452441697155
 30
0.0
 10
2490.198955296201
 20
-295.3979489784972
 30
0.0
 10
2479.156306771309
 20
-294.6287678155128
 30
0.0
 10
2468.116742088992
 20
-293.9950134204842
 30
0.0
 10
2457.078728227938
 20
-293.6066217465425
 30
0.0
 10
2447.880848082287
 20
-293.600904658372
 30
0.0
 10
2440.538599475184
 20
-293.9183275644986
 30
0.0
 10
2435.049397171381
 20
-294.356200118376
 30
0.0
 10
2429.589896624903
 20
-295.0535385718302
 30
0.0
 10
2424.18390753475
 20
-296.0826194367629
 30
0.0
 10
2418.876219701336
 20
-297.5473746414614
 30
0.0
 10
2413.744561466405
 20
-299.567592185707
 30
0.0
 10
2408.945052975246
 20
-302.3194077626664
 30
0.0
 10
2404.701370729228
 20
-305.9122028505271
 30
0.0
 10
2401.326571711509
 20
-310.3704209868648
 30
0.0
 10
2399.013877242262
 20
-315.4794200287882
 30
0.0
 10
2397.725556412413
 20
-320.9414025378974
 30
0.0
 10
2397.424930474666
 20
-324.6705968319781
 30
0.0
 10
2397.382290868046
 20
-326.5364240509363
 30
0.0
 11
2534.501767457958
 21
-298.6971098949281
 31
0.0
 11
2512.302140980952
 21
-297.1038378245013
 31
0.0
 11
2501.243197927788
 21
-296.2475805630903
 31
0.0
 11
2490.194228508717
 21
-295.4105539385074
 31
0.0
 11
2479.151048161343
 21
-294.6509732476685
 31
0.0
 11
2468.110198050721
 21
-294.035594735277
 31
0.0
 11
2457.07203292076
 21
-293.6700796787242
 31
0.0
 11
2446.042786977302
 21
-293.7072027316191
 31
0.0
 11
2440.539463727665
 21
-293.9517494007451
 31
0.0
 11
2435.052212039715
 21
-294.3996663042282
 31
0.0
 11
2429.597199065908
 21
-295.1090783604797
 31
0.0
 11
2424.200235074301
 21
-296.155227436194
 31
0.0
 11
2418.907167507371
 21
-297.6394053368386
 31
0.0
 11
2413.801835592001
 21
-299.6885527144151
 31
0.0
 11
2409.043776437529
 21
-302.455176033775
 31
0.0
 11
2404.853897818659
 21
-306.0482089805834
 31
0.0
 11
2401.509830597389
 21
-310.4684253556403
 31
0.0
 11
2399.187897268276
 21
-315.5288349856206
 31
0.0
 11
2397.866010517715
 21
-320.9584144948077
 31
0.0
 11
2397.382290868046
 21
-326.5364240509363
 31
0.0
  0
SPLINE
  5
1ADA2
330
18
100
AcDbEntity
  8
01
100
AcDbSpline
210
0.0
220
0.0
230
1.0
 70
     8
 71
     3
 72
    27
 73
    23
 74
     0
 42
0.0000000001
 43
0.0000000001
 40
0.0
 40
0.0
 40
0.0
 40
0.0
 40
16.91059537614233
 40
25.36612715702854
 40
33.82144120212359
 40
42.27681849485995
 40
50.73232732391983
 40
59.18788171366092
 40
67.64342079382851
 40
76.09822210144672
 40
80.32547480342753
 40
84.55239661131972
 40
88.77906906159228
 40
93.00316601689825
 40
97.22721965277279
 40
101.4453053855404
 40
103.5555681067257
 40
105.6622199082372
 40
107.771868988524
 40
109.8818614491521
 40
114.0963887206748
 40
118.2484923739838
 40
118.2484923739838
 40
118.2484923739838
 40
118.2484923739838
 10
2534.389825094788
 20
-320.7086385367112
 30
0.0
 10
2528.759074261593
 20
-320.4461628307682
 30
0.0
 10
2520.317154736643
 20
-319.9536309423921
 30
0.0
 10
2509.073944255922
 20
-319.1219114131733
 30
0.0
 10
2500.64809876753
 20
-318.4140496926635
 30
0.0
 10
2492.227191721339
 20
-317.6507655014685
 30
0.0
 10
2483.808707534079
 20
-316.8608494563547
 30
0.0
 10
2475.388590683312
 20
-316.0868508484519
 30
0.0
 10
2466.959756479267
 20
-315.4151840754522
 30
0.0
 10
2459.923104362221
 20
-315.0253818482312
 30
0.0
 10
2454.287361762747
 20
-314.9043250874971
 30
0.0
 10
2450.059820172243
 20
-314.950789328902
 30
0.0
 10
2445.837852945221
 20
-315.1739521472501
 30
0.0
 10
2441.638584993618
 20
-315.672689966376
 30
0.0
 10
2437.497630770716
 20
-316.533963742023
 30
0.0
 10
2434.173462611207
 20
-317.7472141602403
 30
0.0
 10
2431.711117874598
 20
-319.11691657619
 30
0.0
 10
2430.00900952184
 20
-320.3736218733703
 30
0.0
 10
2428.510024268705
 20
-321.8686032902443
 30
0.0
 10
2426.839570748067
 20
-324.1429684232836
 30
0.0
 10
2425.42392502671
 20
-327.3817747047466
 30
0.0
 10
2424.863749658966
 20
-330.1280401203759
 30
0.0
 10
2424.684182618494
 20
-331.5004925794957
 30
0.0
  0
LINE
  5
1ADA3
330
18
100
AcDbEntity
  8
01
100
AcDbLine
 10
2095.870865877516
 20
-533.158905942642
 30
0.0
 11
2095.870865877516
 21
-710.158905942642
 31
0.0
  0
ARC
  5
1ADA4
330
18
100
AcDbEntity
  8
01
100
AcDbCircle
 10
2095.370865877516
 20
-710.158905942642
 30
0.0
 40
0.5
100
AcDbArc
 50
270.0
 51
0.0
  0
LINE
  5
1ADA5
330
18
100
AcDbEntity
  8
01
100
AcDbLine
 10
2045.870865877516
 20
-533.158905942642
 30
0.0
 11
2045.870865877516
 21
-634.5830412837969
 31
0.0
  0
ARC
  5
1ADA6
330
18
100
AcDbEntity
  8
01
100
AcDbCircle
 10
2046.370865877516
 20
-533.158905942642
 30
0.0
 40
0.5
100
AcDbArc
 50
90.0
 51
180.0
  0
LINE
  5
1ADA7
330
18
100
AcDbEntity
  8
01
100
AcDbLine
 10
2046.370865877516
 20
-710.658905942642
 30
0.0
 11
2095.370865877516
 21
-710.658905942642
 31
0.0
  0
ARC
  5
1ADA8
330
18
100
AcDbEntity
  8
01
100
AcDbCircle
 10
2046.370865877516
 20
-710.158905942642
 30
0.0
 40
0.5
100
AcDbArc
 50
180.0
 51
270.0
  0
LINE
  5
1ADA9
330
18
100
AcDbEntity
  8
01
100
AcDbLine
 10
2095.370865877516
 20
-532.658905942642
 30
0.0
 11
2046.370865877516
 21
-532.658905942642
 31
0.0
  0
ARC
  5
1ADAA
330
18
100
AcDbEntity
  8
01
100
AcDbCircle
 10
2095.370865877516
 20
-533.158905942642
 30
0.0
 40
0.5
100
AcDbArc
 50
0.0
 51
90.0
  0
LINE
  5
1ADAB
330
18
100
AcDbEntity
  8
01
100
AcDbLine
 10
1946.305069536985
 20
-636.2674261760418
 30
0.0
 11
1946.305069536985
 21
-633.1810204439076
 31
0.0
  0
LINE
  5
1ADAC
330
18
100
AcDbEntity
  8
01
100
AcDbLine
 10
1946.305069815783
 20
-639.2454925727203
 30
0.0
 11
1946.305069536985
 21
-636.2674261760418
 31
0.0
  0
LINE
  5
1ADAD
330
18
100
AcDbEntity
  8
01
100
AcDbLine
 10
1947.212741591278
 20
-640.2424673063939
 30
0.0
 11
1947.23321457955
 21
-640.2443683807572
 31
0.0
  0
LINE
  5
1ADAE
330
18
100
AcDbEntity
  8
01
100
AcDbLine
 10
2083.570863525065
 20
-657.658903680588
 30
0.0
 11
2058.170137562525
 21
-657.6589040506882
 31
0.0
  0
LINE
  5
1ADAF
330
18
100
AcDbEntity
  8
01
100
AcDbLine
 10
2058.111532961299
 20
-657.6485343427488
 30
0.0
 11
2058.170137562525
 21
-657.6589040506882
 31
0.0
  0
ARC
  5
1ADB0
330
18
100
AcDbEntity
  8
01
100
AcDbCircle
 10
1947.30603647001
 20
-639.245857833284
 30
0.0
 40
1.000966720870227
100
AcDbArc
 50
179.9790923226987
 51
264.6519974436488
  0
LINE
  5
1ADB1
330
18
100
AcDbEntity
  8
01
100
AcDbLine
 10
2084.370863536986
 20
-656.8587292483152
 30
0.0
 11
2084.370863536986
 21
-636.4588777827984
 31
0.0
  0
LINE
  5
1ADB2
330
18
100
AcDbEntity
  8
01
100
AcDbLine
 10
1947.325302785772
 20
-632.1800872774969
 30
0.0
 11
1947.342840597566
 21
-632.1804482136312
 31
0.0
  0
ARC
  5
1ADB3
330
18
100
AcDbEntity
  8
01
100
AcDbCircle
 10
1947.31146780674
 20
-633.1816275052587
 30
0.0
 40
1.006398452845485
100
AcDbArc
 50
158.8293321314492
 51
179.9654390809809
  0
ARC
  5
1ADB4
330
18
100
AcDbEntity
  8
01
100
AcDbCircle
 10
1947.311065827221
 20
-633.1833151436293
 30
0.0
 40
1.006634556911848
100
AcDbArc
 50
142.1831795887343
 51
158.731494820081
  0
ARC
  5
1ADB5
330
18
100
AcDbEntity
  8
01
100
AcDbCircle
 10
1947.305136830354
 20
-633.1794886656454
 30
0.0
 40
0.999604822112772
100
AcDbArc
 50
88.8440406670071
 51
142.1480733630774
  0
ARC
  5
1ADB6
330
18
100
AcDbEntity
  8
01
100
AcDbCircle
 10
2083.570863867692
 20
-656.8587289051146
 30
0.0
 40
0.799999669293957
100
AcDbArc
 50
269.9749677188522
 51
359.9999754200444
  0
LINE
  5
1ADB7
330
18
100
AcDbEntity
  8
01
100
AcDbLine
 10
2058.170137562525
 20
-657.6589040506882
 30
0.0
 11
2058.110924742417
 21
-657.6566718307121
 31
0.0
  0
SPLINE
  5
1ADB8
330
18
100
AcDbEntity
  8
01
100
AcDbSpline
210
0.0
220
0.0
230
1.0
 70
     8
 71
     3
 72
    11
 73
     7
 74
     0
 42
0.0000000001
 43
0.0000000001
 40
0.0
 40
0.0
 40
0.0
 40
0.0
 40
21.43372384846992
 40
42.74812160428417
 40
64.00497958002913
 40
71.06070238869576
 40
71.06070238869576
 40
71.06070238869576
 40
71.06070238869576
 10
1947.343232596799
 20
-632.180444373707
 30
0.0
 10
1954.486255397816
 20
-632.3293460526046
 30
0.0
 10
1968.732135853885
 20
-632.6453861379067
 30
0.0
 10
1990.06120096693
 20
-633.1484391212581
 30
0.0
 10
2006.598429696534
 20
-633.5592734677438
 30
0.0
 10
2016.032861874148
 20
-633.8009502505041
 30
0.0
 10
2018.383988521015
 20
-633.8615548047584
 30
0.0
  0
SPLINE
  5
1ADB9
330
18
100
AcDbEntity
  8
01
100
AcDbSpline
210
0.0
220
0.0
230
1.0
 70
     8
 71
     3
 72
    32
 73
    28
 74
     0
 42
0.0000000001
 43
0.0000000001
 40
0.0
 40
0.0
 40
0.0
 40
0.0
 40
0.3599301998348471
 40
0.7204576955008581
 40
1.078388999306343
 40
1.203188941373293
 40
1.256497440238248
 40
1.349899079695673
 40
1.501470349278231
 40
1.719093506751409
 40
2.008946379622365
 40
2.377953257068766
 40
2.833372290666866
 40
4.02961040316922
 40
5.628859930107992
 40
7.61937959175037
 40
9.930476612769016
 40
12.47953325127824
 40
15.18599668370276
 40
17.98461738332648
 40
20.83771850465741
 40
26.62046581402179
 40
32.43257263878778
 40
38.23851433232301
 40
44.02870797848659
 40
55.55219103227755
 40
66.45873402473153
 40
66.45873402473153
 40
66.45873402473153
 40
66.45873402473153
 10
2084.370879303327
 20
-636.4588716762829
 30
0.0
 10
2084.370879266097
 20
-636.3388949430047
 30
0.0
 10
2084.314267673995
 20
-636.0953584682185
 30
0.0
 10
2084.080947941683
 20
-635.806949778318
 30
0.0
 10
2083.816240360896
 20
-635.6827820566426
 30
0.0
 10
2083.638449764719
 20
-635.6609605692282
 30
0.0
 10
2083.548017316846
 20
-635.657222464151
 30
0.0
 10
2083.448656875844
 20
-635.6536344109765
 30
0.0
 10
2083.294545166438
 20
-635.6484229202998
 30
0.0
 10
2083.074989777408
 20
-635.6409674438329
 30
0.0
 10
2082.782989671871
 20
-635.6312668284141
 30
0.0
 10
2082.411765830872
 20
-635.619008461737
 30
0.0
 10
2081.738570708428
 20
-635.5970016405162
 30
0.0
 10
2080.655494811263
 20
-635.5621772273627
 30
0.0
 10
2079.06095117695
 20
-635.5119057507469
 30
0.0
 10
2077.094928507388
 20
-635.4513330217554
 30
0.0
 10
2074.812407234448
 20
-635.3825321337434
 30
0.0
 10
2072.291294187534
 20
-635.3082926658625
 30
0.0
 10
2069.607697684134
 20
-635.2308483653256
 30
0.0
 10
2066.822752328165
 20
-635.1519810432659
 30
0.0
 10
2063.012745660078
 20
-635.0456625670148
 30
0.0
 10
2058.198567015996
 20
-634.913757238677
 30
0.0
 10
2052.400411250796
 20
-634.7573351909019
 30
0.0
 10
2046.59973573927
 20
-634.6022824017253
 30
0.0
 10
2038.895911906178
 20
-634.3977116591976
 30
0.0
 10
2029.492439915228
 20
-634.1497760640108
 30
0.0
 10
2022.01829502113
 20
-633.9552603383414
 30
0.0
 10
2018.383988521016
 20
-633.8615548047584
 30
0.0
  0
SPLINE
  5
1ADBA
330
18
100
AcDbEntity
  8
01
100
AcDbSpline
210
0.0
220
0.0
230
1.0
 70
  1064
 71
     3
 72
    29
 73
    25
 74
    23
 42
0.000000001
 43
0.0000000001
 44
0.000001
 12
0.9957295571504321
 22
-0.09231819439852766
 32
0.0
 13
0.9999999961407903
 23
-8.785453656356257E-5
 33
0.0
 40
0.0
 40
0.0
 40
0.0
 40
0.0
 40
18.72223237932955
 40
28.08380125047977
 40
37.44489731842073
 40
46.80450655899232
 40
56.157036497619
 40
65.49105784394362
 40
74.77536009869938
 40
83.93695746269881
 40
88.42253561022942
 40
92.79315031724504
 40
96.98478944101399
 40
100.8929762880916
 40
104.3856126466122
 40
107.3097361133922
 40
108.5186045585993
 40
109.5470291062998
 40
110.3943897133715
 40
111.0646313142809
 40
111.5675614950665
 40
111.9161223033964
 40
112.1239161474742
 40
112.3643818635921
 40
112.3643818635921
 40
112.3643818635921
 40
112.3643818635921
 10
1947.233271005194
 20
-640.2443902442654
 30
0.0
 10
1953.447364390506
 20
-640.8205244737219
 30
0.0
 10
1962.75907966556
 20
-641.7926788137372
 30
0.0
 10
1975.150150292171
 20
-643.2948086603408
 30
0.0
 10
1984.430426515051
 20
-644.5211250229543
 30
0.0
 10
1993.694541327974
 20
-645.8426665503612
 30
0.0
 10
2002.936099349168
 20
-647.2551080374284
 30
0.0
 10
2012.138790871445
 20
-648.7527697025146
 30
0.0
 10
2021.264061514039
 20
-650.3272723458857
 30
0.0
 10
2028.784027328129
 20
-651.6984577448718
 30
0.0
 10
2034.684562300741
 20
-652.8187768416537
 30
0.0
 10
2038.953558622153
 20
-653.6506674071206
 30
0.0
 10
2043.029694995965
 20
-654.4657393511735
 30
0.0
 10
2046.815265865409
 20
-655.2411438967017
 30
0.0
 10
2050.183718903319
 20
-655.9472175447327
 30
0.0
 10
2052.669433953761
 20
-656.4786277182513
 30
0.0
 10
2054.350861706123
 20
-656.8430699358229
 30
0.0
 10
2055.355453166287
 20
-657.0622521980873
 30
0.0
 10
2056.184370670308
 20
-657.2442354583343
 30
0.0
 10
2056.842211398708
 20
-657.3888785407039
 30
0.0
 10
2057.337303798259
 20
-657.4987508937415
 30
0.0
 10
2057.682716869669
 20
-657.5731404042206
 30
0.0
 10
2057.941167532295
 20
-657.6321366332419
 30
0.0
 10
2058.089577205306
 20
-657.6589050593016
 30
0.0
 10
2058.169732443703
 20
-657.6589121013029
 30
0.0
 11
1947.233271005194
 21
-640.2443902442654
 31
0.0
 11
1965.854620620174
 21
-642.1853498001302
 31
0.0
 11
1975.148212647587
 21
-643.3114576754821
 31
0.0
 11
1984.4287212879
 21
-644.5371325769166
 31
0.0
 11
1993.694603724088
 21
-645.8583849413131
 31
0.0
 11
2002.93984669352
 21
-647.2709353602121
 31
0.0
 11
2012.152689356372
 21
-648.7700966461974
 31
0.0
 11
2021.301786977553
 21
-650.3487926509346
 31
0.0
 11
2030.314687348133
 21
-651.9927187961629
 31
0.0
 11
2034.721521960219
 21
-652.8295102992814
 31
0.0
 11
2039.011409610566
 21
-653.665654344875
 31
0.0
 11
2043.121674381871
 21
-654.4875801650729
 31
0.0
 11
2046.950325249796
 21
-655.2720270804608
 31
0.0
 11
2050.36866915849
 21
-655.9885699289613
 31
0.0
 11
2053.228139721852
 21
-656.6000649360652
 31
0.0
 11
2054.409582943485
 21
-656.8561017123208
 31
0.0
 11
2055.414364129506
 21
-657.0753545732842
 31
0.0
 11
2056.242038276054
 21
-657.2569461575969
 31
0.0
 11
2056.89659630252
 21
-657.4010904973469
 31
0.0
 11
2057.387745544172
 21
-657.5093087258773
 31
0.0
 11
2057.728240893975
 21
-657.5838576871314
 31
0.0
 11
2057.931218394752
 21
-657.628336951621
 31
0.0
 11
2058.169732443703
 21
-657.6589121013029
 31
0.0
  0
SPLINE
  5
1ADBB
330
18
100
AcDbEntity
  8
01
100
AcDbSpline
210
0.0
220
0.0
230
1.0
 70
     8
 71
     3
 72
    44
 73
    40
 74
     0
 42
0.0000000001
 43
0.0000000001
 40
0.0
 40
0.0
 40
0.0
 40
0.0
 40
27.07959778501141
 40
27.07959778501141
 40
54.60840902937863
 40
54.60840902937863
 40
82.13722027374585
 40
82.13722027374585
 40
109.6660315181131
 40
109.6660315181131
 40
112.1754562362065
 40
112.1754562362065
 40
117.1943056723934
 40
117.1943056723934
 40
127.2320045447672
 40
127.2320045447672
 40
133.9474354635729
 40
133.9474354635729
 40
134.5784087099583
 40
134.5784087099583
 40
135.8403552027291
 40
135.8403552027291
 40
137.719205311297
 40
137.719205311297
 40
137.8907550435536
 40
137.8907550435536
 40
138.2338545080668
 40
138.2338545080668
 40
138.3136935812727
 40
138.3136935812727
 40
138.3988995637888
 40
138.3988995637888
 40
138.4402043869496
 40
138.4402043869496
 40
138.4737052737331
 40
138.4737052737331
 40
138.4994240015327
 40
138.4994240015327
 40
138.5115311008119
 40
138.5115311008119
 40
138.5115311008119
 40
138.5115311008119
 10
1947.343749797345
 20
-632.605331330178
 30
0.0
 10
1956.294590703314
 20
-633.8015758685555
 30
0.0
 10
1965.230998375505
 20
-635.1020477623061
 30
0.0
 10
1983.227430715554
 20
-637.8725182807244
 30
0.0
 10
1992.2875116005
 20
-639.3440130369264
 30
0.0
 10
2010.387840021186
 20
-642.4034166216389
 30
0.0
 10
2019.428171870037
 20
-643.9926525948653
 30
0.0
 10
2037.481455324642
 20
-647.3257717413354
 30
0.0
 10
2046.494014710728
 20
-649.0715620749276
 30
0.0
 10
2056.305755515476
 20
-651.0887429145729
 30
0.0
 10
2057.125267246684
 20
-651.2581235494871
 30
0.0
 10
2059.583262844159
 20
-651.7689414646601
 30
0.0
 10
2061.22120506083
 20
-652.1130513658067
 30
0.0
 10
2066.132704229823
 20
-653.1566177285971
 30
0.0
 10
2069.404063678851
 20
-653.8665663650746
 30
0.0
 10
2074.857576209909
 20
-655.0847884653889
 30
0.0
 10
2077.041639325846
 20
-655.5816943442586
 30
0.0
 10
2079.428434783111
 20
-656.1401941776177
 30
0.0
 10
2079.63341337255
 20
-656.1882956504393
 30
0.0
 10
2080.248278877621
 20
-656.3330368674959
 30
0.0
 10
2080.658115350086
 20
-656.4301088659937
 30
0.0
 10
2081.677897332472
 20
-656.6736209380587
 30
0.0
 10
2082.287496777215
 20
-656.8207495246139
 30
0.0
 10
2082.953257380505
 20
-656.9851018610501
 30
0.0
 10
2083.00898671438
 20
-656.9988931869478
 30
0.0
 10
2083.176245724044
 20
-657.0404249375971
 30
0.0
 10
2083.287474038081
 20
-657.0681983497817
 30
0.0
 10
2083.425823979303
 20
-657.103199238304
 30
0.0
 10
2083.452022380163
 20
-657.109854188631
 30
0.0
 10
2083.506337054097
 20
-657.12373981556
 30
0.0
 10
2083.534251512166
 20
-657.1309383109607
 30
0.0
 10
2083.575189971543
 20
-657.141495117652
 30
0.0
 10
2083.589522370854
 20
-657.1451891466642
 30
0.0
 10
2083.617150256164
 20
-657.152494758932
 30
0.0
 10
2083.6293590692
 20
-657.1558182661321
 30
0.0
 10
2083.644090549124
 20
-657.1597330659805
 30
0.0
 10
2083.645229441175
 20
-657.1599096903025
 30
0.0
 10
2083.669471835813
 20
-657.1662997912641
 30
0.0
 10
2083.679917638546
 20
-657.1691231662436
 30
0.0
 10
2083.693122086062
 20
-657.1731916637924
 30
0.0
  0
LINE
  5
1ADBC
330
18
100
AcDbEntity
  8
01
  6
CONTINUOUS
100
AcDbLine
 10
2192.119270102949
 20
-635.6589043355194
 30
0.0
 11
2211.852603432309
 21
-635.6589060606626
 31
0.0
  0
LINE
  5
1ADBD
330
18
100
AcDbEntity
  8
01
  6
CONTINUOUS
100
AcDbLine
 10
2211.852601509006
 20
-657.6589060606626
 30
0.0
 11
2192.119268179647
 21
-657.6589043355194
 31
0.0
  0
SPLINE
  5
1ADBE
330
18
100
AcDbEntity
  8
01
  6
CONTINUOUS
100
AcDbSpline
210
0.0
220
0.0
230
1.0
 70
  1064
 71
     3
 72
    10
 73
     6
 74
     4
 42
0.000000001
 43
0.0000000001
 44
0.000001
 12
0.9994601531828483
 22
-0.03285425694970674
 32
0.0
 13
0.999999986028043
 23
-0.0001671643320593494
 33
0.0
 40
0.0
 40
0.0
 40
0.0
 40
0.0
 40
5.014443398443527
 40
11.01006145479278
 40
17.34126459784179
 40
17.34126459784179
 40
17.34126459784179
 40
17.34126459784179
 10
2174.513186241024
 20
-635.4620609542941
 30
0.0
 10
2176.183765030069
 20
-635.5169762249182
 30
0.0
 10
2179.853209275237
 20
-635.593305985067
 30
0.0
 10
2185.633394759777
 20
-635.6483979205647
 30
0.0
 10
2189.742358096614
 20
-635.6585256471278
 30
0.0
 10
2191.85275911481
 20
-635.6588784309093
 30
0.0
 11
2174.513186241024
 21
-635.4620609542941
 31
0.0
 11
2179.526290901898
 21
-635.5779253182587
 31
0.0
 11
2185.521582799614
 21
-635.6404621970893
 31
0.0
 11
2191.85275911481
 21
-635.6588784309093
 31
0.0
  0
LINE
  5
1ADBF
330
18
100
AcDbEntity
  8
01
  6
CONTINUOUS
100
AcDbLine
 10
2172.500941882539
 20
-635.3831022837345
 30
0.0
 11
2174.513186241024
 21
-635.4620609542941
 31
0.0
  0
SPLINE
  5
1ADC0
330
18
100
AcDbEntity
  8
01
  6
CONTINUOUS
100
AcDbSpline
210
0.0
220
0.0
230
1.0
 70
  1064
 71
     3
 72
    36
 73
    32
 74
    30
 42
0.000000001
 43
0.0000000001
 44
0.000001
 12
-0.9938069772178694
 22
-0.1111201693351909
 32
0.0
 13
0.9989015518246972
 23
-0.04685818778198592
 33
0.0
 40
0.0
 40
0.0
 40
0.0
 40
0.0
 40
2.42922784662992
 40
3.919355453223645
 40
5.550941175542857
 40
7.284555291724734
 40
9.071456982233972
 40
10.85917755497593
 40
11.73489586882123
 40
12.58682580795989
 40
13.40493229759228
 40
14.17691436774292
 40
14.88865081251399
 40
15.5225472362669
 40
15.80398645204095
 40
16.05801996152319
 40
16.28041886650327
 40
16.46689274434949
 40
16.61375640551638
 40
16.71870486785198
 40
16.78579178781782
 40
16.85368029962045
 40
16.90643972053334
 40
16.9766056514621
 40
17.1786149263348
 40
17.47849300648922
 40
17.89430820030068
 40
18.44687969626548
 40
19.15861543069466
 40
20.05339997840785
 40
21.15333389268996
 40
21.15333389268996
 40
21.15333389268996
 40
21.15333389268996
 10
2184.832406524401
 20
-632.9708634195573
 30
0.0
 10
2184.027678663324
 20
-633.0608421561144
 30
0.0
 10
2182.724340067384
 20
-633.1584812112895
 30
0.0
 10
2180.878263196788
 20
-633.2816117628686
 30
0.0
 10
2179.263348358556
 20
-633.38896497273
 30
0.0
 10
2177.550590170894
 20
-633.5148380918472
 30
0.0
 10
2175.787151976523
 20
-633.6605204467471
 30
0.0
 10
2174.310253335705
 20
-633.8002323538537
 30
0.0
 10
2173.144852739651
 20
-633.922514287535
 30
0.0
 10
2172.301601861277
 20
-634.0176021157611
 30
0.0
 10
2171.493578230104
 20
-634.1162192382855
 30
0.0
 10
2170.733054410744
 20
-634.2179616464172
 30
0.0
 10
2170.034893005314
 20
-634.3222006874439
 30
0.0
 10
2169.500241814677
 20
-634.4137817461524
 30
0.0
 10
2169.117960395393
 20
-634.4901007855804
 30
0.0
 10
2168.871418648676
 20
-634.5452185547985
 30
0.0
 10
2168.657440125141
 20
-634.6009615547443
 30
0.0
 10
2168.4806840296
 20
-634.6557991404146
 30
0.0
 10
2168.344982177878
 20
-634.7130992599937
 30
0.0
 10
2168.253687307016
 20
-634.7636793253944
 30
0.0
 10
2168.200123604294
 20
-634.8384566247839
 30
0.0
 10
2168.241969681204
 20
-634.8992193779178
 30
0.0
 10
2168.295043880547
 20
-634.9320941545686
 30
0.0
 10
2168.393944479598
 20
-634.9783095365304
 30
0.0
 10
2168.577728920071
 20
-635.0304768906351
 30
0.0
 10
2168.877840736431
 20
-635.0905892167235
 30
0.0
 10
2169.296431447001
 20
-635.1508315334022
 30
0.0
 10
2169.853224594131
 20
-635.2116267443538
 30
0.0
 10
2170.570442101307
 20
-635.2720153119802
 30
0.0
 10
2171.470668166366
 20
-635.3314334939504
 30
0.0
 10
2172.134699984579
 20
-635.3659219804334
 30
0.0
 10
2172.500941882539
 20
-635.3831022837345
 30
0.0
 11
2184.832406524401
 21
-632.9708634195573
 31
0.0
 11
2182.412006747474
 21
-633.1777651124427
 31
0.0
 11
2180.92528272736
 21
-633.2784226625878
 31
0.0
 11
2179.297417535587
 21
-633.3885447478784
 31
0.0
 11
2177.56850299064
 21
-633.5161081022339
 31
0.0
 11
2175.787733965373
 21
-633.6640249090439
 31
0.0
 11
2174.008010582203
 21
-633.8329322556652
 31
0.0
 11
2173.137090602581
 21
-633.9244803972002
 31
0.0
 11
2172.290552941784
 21
-634.0201823236545
 31
0.0
 11
2171.478519986357
 21
-634.1196877004719
 31
0.0
 11
2170.713433205725
 21
-634.2226415933907
 31
0.0
 11
2170.009641258054
 21
-634.3286898921148
 31
0.0
 11
2169.385163998516
 21
-634.4375615348523
 31
0.0
 11
2169.109237517971
 21
-634.4929928727157
 31
0.0
 11
2168.861467970789
 21
-634.5490579300864
 31
0.0
 11
2168.646415283867
 21
-634.6057467735296
 31
0.0
 11
2168.468964945423
 21
-634.6630520229261
 31
0.0
 11
2168.334002443668
 21
-634.7209662981601
 31
0.0
 11
2168.246882519697
 21
-634.7794838389042
 31
0.0
 11
2168.215178198023
 21
-634.8386065420178
 31
0.0
 11
2168.24745142138
 21
-634.8983333508164
 31
0.0
 11
2168.290795154679
 21
-634.9284145380312
 31
0.0
 11
2168.354119933616
 21
-634.9586342455601
 31
0.0
 11
2168.546753277278
 21
-635.019463052207
 31
0.0
 11
2168.840305449039
 21
-635.0807328393499
 31
0.0
 11
2169.251535148005
 21
-635.1423153963029
 31
0.0
 11
2169.800665964686
 21
-635.2038832891282
 31
0.0
 11
2170.509772900632
 21
-635.2649988360223
 31
0.0
 11
2171.402539585582
 21
-635.3250574242662
 31
0.0
 11
2172.500941882539
 21
-635.3831022837345
 31
0.0
  0
LINE
  5
1ADC1
330
18
100
AcDbEntity
  8
01
100
AcDbLine
 10
2184.864568608716
 20
-635.6350860432154
 30
0.0
 11
2184.832406524401
 21
-632.9708634195573
 31
0.0
  0
LINE
  5
1ADC2
330
18
100
AcDbEntity
  8
01
100
AcDbLine
 10
2163.682197717198
 20
-632.2992552612928
 30
0.0
 11
2184.033810680723
 21
-632.1800816235196
 31
0.0
  0
ARC
  5
1ADC3
330
18
100
AcDbEntity
  8
01
100
AcDbCircle
 10
2163.678151172136
 20
-633.0906217506553
 30
0.0
 40
0.7913768350239725
100
AcDbArc
 50
89.70702836666567
 51
152.6408632480288
  0
ARC
  5
1ADC4
330
18
100
AcDbEntity
  8
01
100
AcDbCircle
 10
2184.032781323467
 20
-632.9801213478557
 30
0.0
 40
0.7996787925197018
100
AcDbArc
 50
0.6633314190621856
 51
90.0064297414479
  0
LINE
  5
1ADC5
330
18
100
AcDbEntity
  8
01
  6
CONTINUOUS
100
AcDbLine
 10
2211.852603432309
 20
-635.6589060606626
 30
0.0
 11
2211.852601509006
 21
-657.6589060606626
 31
0.0
  0
LINE
  5
1ADC6
330
18
100
AcDbEntity
  8
01
  6
CONTINUOUS
100
AcDbLine
 10
2171.676706147111
 20
-635.3408972213671
 30
0.0
 11
2170.697008762104
 21
-635.2759934401298
 31
0.0
  0
SPLINE
  5
1ADC7
330
18
100
AcDbEntity
  8
01
  6
CONTINUOUS
100
AcDbSpline
210
0.0
220
0.0
230
1.0
 70
  1064
 71
     3
 72
    27
 73
    23
 74
    21
 42
0.000000001
 43
0.0000000001
 44
0.000001
 12
-0.9999996557190713
 22
0.0008297962031457257
 32
0.0
 13
0.4579738290174825
 23
0.8889656753413293
 33
0.0
 40
0.0
 40
0.0
 40
0.0
 40
0.0
 40
5.873293633215288
 40
11.36353689117744
 40
16.53955106604971
 40
21.14173461159522
 40
24.98310568734634
 40
28.06655579448034
 40
30.51817324520313
 40
32.50336731390501
 40
34.16067337673968
 40
35.59775548316256
 40
36.88559666201813
 40
38.07491547901009
 40
40.27457243626415
 40
41.32578564536498
 40
42.35657039433246
 40
44.37506806133698
 40
46.34835779444145
 40
50.10698163516924
 40
51.84875827563179
 40
53.46914539902231
 40
53.46914539902231
 40
53.46914539902231
 40
53.46914539902231
 10
2192.119268179647
 20
-657.6589043355194
 30
0.0
 10
2190.161504309263
 20
-657.6572797899338
 30
0.0
 10
2186.373289549706
 20
-657.6054249652275
 30
0.0
 10
2180.86559841632
 20
-657.3277875665251
 30
0.0
 10
2175.797671796758
 20
-656.8346468260139
 30
0.0
 10
2171.311012289323
 20
-656.1163611083582
 30
0.0
 10
2167.574006222405
 20
-655.201097232148
 30
0.0
 10
2164.622099879682
 20
-654.153083215599
 30
0.0
 10
2162.380005433971
 20
-653.014601283205
 30
0.0
 10
2160.717130064405
 20
-651.8325540841979
 30
0.0
 10
2159.521252390126
 20
-650.62107759542
 30
0.0
 10
2158.696925735803
 20
-649.4050106199576
 30
0.0
 10
2158.174459380515
 20
-648.2015475471778
 30
0.0
 10
2157.80662817328
 20
-646.6801389795628
 30
0.0
 10
2157.787627974649
 20
-645.1805984597825
 30
0.0
 10
2158.001552688431
 20
-643.7687812694702
 30
0.0
 10
2158.313158824666
 20
-642.4364428610625
 30
0.0
 10
2158.858449622671
 20
-640.8497321047477
 30
0.0
 10
2159.893906426505
 20
-638.4812018838493
 30
0.0
 10
2161.064301475457
 20
-636.2797199189231
 30
0.0
 10
2162.199638621593
 20
-634.195627653305
 30
0.0
 10
2162.727930112763
 20
-633.2070876018778
 30
0.0
 10
2162.975295077893
 20
-632.7269314240581
 30
0.0
 11
2192.119268179647
 21
-657.6589043355194
 31
0.0
 11
2186.246700442261
 21
-657.5665733823531
 31
0.0
 11
2180.76401052465
 21
-657.2786776741292
 31
0.0
 11
2175.61403872655
 21
-656.7601076930883
 31
0.0
 11
2171.073502726974
 21
-656.0093563487432
 31
0.0
 11
2167.348266211498
 21
-655.0719420071142
 31
0.0
 11
2164.451838237356
 21
-654.0144117495043
 31
0.0
 11
2162.27518421944
 21
-652.8863133988976
 31
0.0
 11
2160.66816518556
 21
-651.7207724694114
 31
0.0
 11
2159.511408659659
 21
-650.5339371886108
 31
0.0
 11
2158.71025428243
 21
-649.3408919900409
 31
0.0
 11
2158.198017233455
 21
-648.1593048087421
 31
0.0
 11
2157.917130915463
 21
-647.0036308702262
 31
0.0
 11
2157.863445102545
 21
-644.8046290658236
 31
0.0
 11
2158.016387795687
 21
-643.7646012717493
 31
0.0
 11
2158.2494502517
 21
-642.7605100661709
 31
0.0
 11
2158.888906638884
 21
-640.8459791701113
 31
0.0
 11
2159.67101023896
 21
-639.0342986007178
 31
0.0
 11
2161.387431464489
 21
-635.6904756619821
 31
0.0
 11
2162.216906299015
 21
-634.1588890750369
 31
0.0
 11
2162.975295077893
 21
-632.7269314240581
 31
0.0
  0
LINE
  5
1ADC8
330
18
100
AcDbEntity
  8
01
100
AcDbLine
 10
2045.870865877516
 20
-655.0489598604833
 30
0.0
 11
2045.870865877516
 21
-710.158905942642
 31
0.0
  0
TEXT
  5
1ADC9
330
18
100
AcDbEntity
  8
1TEXT
100
AcDbText
 10
2055.870765537771
 20
-361.6589059426425
 30
0.0
 40
20.0
  1
1-AZK-X-LJ
100
AcDbText
  0
LINE
  5
1ADCA
330
18
100
AcDbEntity
  8
1DIM
100
AcDbLine
 10
2055.870765537771
 20
-423.1589059426425
 30
0.0
 11
2160.870765537771
 21
-423.1589059426425
 31
0.0
  0
TEXT
  5
1ADCB
330
18
100
AcDbEntity
  8
1TEXT
100
AcDbText
 10
2057.770765537771
 20
-431.1252763599988
 30
0.0
 40
6.0
  1
パールブラック
 72
     1
 11
2081.970765537771
 21
-431.1252763599988
 31
0.0
100
AcDbText
  0
TEXT
  5
1ADCC
330
18
100
AcDbEntity
  8
1TEXT
100
AcDbText
 10
2068.070765537771
 20
-399.9089059426425
 30
0.0
 40
6.0
  1
表面処理
 72
     1
 11
2081.970765537771
 21
-399.9089059426425
 31
0.0
100
AcDbText
  0
TEXT
  5
1ADCD
330
18
100
AcDbEntity
  8
1TEXT
100
AcDbText
 10
2067.770765537771
 20
-410.1618389319293
 30
0.0
 40
6.0
  1
クローム
 72
     1
 11
2081.970765537771
 21
-410.1618389319293
 31
0.0
100
AcDbText
  0
LINE
  5
1ADCE
330
18
100
AcDbEntity
  8
1DIM
100
AcDbLine
 10
2055.870765537771
 20
-391.6589059426425
 30
0.0
 11
2160.870765537771
 21
-391.6589059426425
 31
0.0
  0
LINE
  5
1ADCF
330
18
100
AcDbEntity
  8
1DIM
100
AcDbLine
 10
2055.870765537771
 20
-402.1589059426425
 30
0.0
 11
2160.870765537771
 21
-402.1589059426425
 31
0.0
  0
LINE
  5
1ADD0
330
18
100
AcDbEntity
  8
1DIM
100
AcDbLine
 10
2055.870765537771
 20
-412.6589059426425
 30
0.0
 11
2160.870765537771
 21
-412.6589059426425
 31
0.0
  0
LINE
  5
1ADD1
330
18
100
AcDbEntity
  8
1DIM
100
AcDbLine
 10
2055.870765537771
 20
-412.6589059426425
 30
0.0
 11
2160.870765537771
 21
-412.6589059426425
 31
0.0
  0
LINE
  5
1ADD2
330
18
100
AcDbEntity
  8
1DIM
100
AcDbLine
 10
2108.370765537771
 20
-391.6589059426425
 30
0.0
 11
2108.370765537771
 21
-433.6589059426425
 31
0.0
  0
TEXT
  5
1ADD3
330
18
100
AcDbEntity
  8
1TEXT
100
AcDbText
 10
2114.870765537773
 20
-410.7304414181168
 30
0.0
 40
6.0
  1
1-AZK-C-LJ
 41
0.6999999999999998
 72
     1
 11
2134.470765537772
 21
-410.7304414181168
 31
0.0
100
AcDbText
  0
TEXT
  5
1ADD4
330
18
100
AcDbEntity
  8
1TEXT
100
AcDbText
 10
2124.17076553777
 20
-399.9089059426425
 30
0.0
 40
6.0
  1
コード
 72
     1
 11
2134.470765537771
 21
-399.9089059426425
 31
0.0
100
AcDbText
  0
LINE
  5
1ADD5
330
18
100
AcDbEntity
  8
1DIM
100
AcDbLine
 10
2055.870765537771
 20
-433.6589059426425
 30
0.0
 11
2160.870765537771
 21
-433.6589059426425
 31
0.0
  0
TEXT
  5
1ADD6
330
18
100
AcDbEntity
  8
1TEXT
100
AcDbText
 10
2057.17076553777
 20
-420.6252763599988
 30
0.0
 40
6.0
  1
サテンニッケル
 72
     1
 11
2081.970765537771
 21
-420.6252763599988
 31
0.0
100
AcDbText
  0
LINE
  5
1ADD7
330
18
100
AcDbEntity
  8
1DIM
100
AcDbLine
 10
2055.870765537771
 20
-433.6589059426425
 30
0.0
 11
2055.870765537771
 21
-391.6589059426425
 31
0.0
  0
LINE
  5
1ADD8
330
18
100
AcDbEntity
  8
1DIM
100
AcDbLine
 10
2160.870765537771
 20
-433.6589059426425
 30
0.0
 11
2160.870765537771
 21
-391.6589059426425
 31
0.0
  0
TEXT
  5
1ADD9
330
18
100
AcDbEntity
  8
1TEXT
100
AcDbText
 10
2112.756182204439
 20
-431.7304414181168
 30
0.0
 40
6.0
  1
1-AZK-GQ-LJ
 41
0.6999999999999998
 72
     1
 11
2134.470765537772
 21
-431.7304414181168
 31
0.0
100
AcDbText
  0
TEXT
  5
1ADDA
330
18
100
AcDbEntity
  8
1TEXT
100
AcDbText
 10
2114.870765537773
 20
-421.2304414181168
 30
0.0
 40
6.0
  1
1-AZK-N-LJ
 41
0.6999999999999998
 72
     1
 11
2134.470765537772
 21
-421.2304414181168
 31
0.0
100
AcDbText
  0
LINE
  5
1AFB5
330
18
100
AcDbEntity
  8
01
100
AcDbLine
 10
2348.870633198027
 20
-618.6589066407734
 30
0.0
 11
2348.870633198027
 21
-515.9374138579541
 31
0.0
1001
ACAD
1000
DSTYLE
1002
{
1070
    40
1040
1.3
1070
    45
1040
0.5
1002
}
  0
LINE
  5
1AFB6
330
18
100
AcDbEntity
  8
01
100
AcDbLine
 10
2359.870633198027
 20
-560.7875885914845
 30
0.0
 11
2359.870633198027
 21
-515.9374138579541
 31
0.0
1001
ACAD
1000
DSTYLE
1002
{
1070
    40
1040
1.3
1070
    45
1040
0.5
1002
}
  0
LINE
  5
1AFB7
330
18
100
AcDbEntity
  8
01
100
AcDbLine
 10
2351.470633198026
 20
-517.237413857954
 30
0.0
 11
2357.270633198027
 21
-517.237413857954
 31
0.0
1001
ACAD
1000
DSTYLE
1002
{
1070
    40
1040
1.3
1070
    45
1040
0.5
1002
}
  0
TEXT
  5
1AFBB
330
18
100
AcDbEntity
  8
01
  6
CONTINUOUS
100
AcDbText
 10
2321.873794291043
 20
-434.0755726103373
 30
0.0
 40
4.55
  1
材質：亜鉛ダイキャスト
100
AcDbText
  0
TEXT
  5
1AFBC
330
18
100
AcDbEntity
  8
01
  6
CONTINUOUS
100
AcDbText
 10
2332.187127624376
 20
-441.6589059436706
 30
0.0
 40
4.55
  1
仕上げ：各種メッキ
100
AcDbText
  0
LINE
  5
1AFBD
330
18
100
AcDbEntity
  8
01
100
AcDbLine
 10
2428.870633198027
 20
-588.658905942642
 30
0.0
 11
2457.170633198027
 21
-588.658905942642
 31
0.0
1001
ACAD
1000
DSTYLE
1002
{
1070
    40
1040
1.3
1070
    45
1040
0.5
1002
}
  0
LINE
  5
1AFBE
330
18
100
AcDbEntity
  8
01
100
AcDbLine
 10
2428.870633198027
 20
-662.6589059426425
 30
0.0
 11
2457.170633198027
 21
-662.6589059426425
 31
0.0
1001
ACAD
1000
DSTYLE
1002
{
1070
    40
1040
1.3
1070
    45
1040
0.5
1002
}
  0
LINE
  5
1AFBF
330
18
100
AcDbEntity
  8
01
100
AcDbLine
 10
2455.870633198027
 20
-591.2589059426421
 30
0.0
 11
2455.870633198027
 21
-660.0589059426425
 31
0.0
1001
ACAD
1000
DSTYLE
1002
{
1070
    40
1040
1.3
1070
    45
1040
0.5
1002
}
  0
LINE
  5
1AFC3
330
18
100
AcDbEntity
  8
01
100
AcDbLine
 10
2428.870633198027
 20
-588.658905942642
 30
0.0
 11
2428.870633198027
 21
-505.8575463899058
 31
0.0
1001
ACAD
1000
DSTYLE
1002
{
1070
    40
1040
1.3
1070
    45
1040
0.5
1002
}
  0
LINE
  5
1AFC4
330
18
100
AcDbEntity
  8
01
100
AcDbLine
 10
2359.870633198027
 20
-560.7875885914845
 30
0.0
 11
2359.870633198027
 21
-505.8575463899058
 31
0.0
1001
ACAD
1000
DSTYLE
1002
{
1070
    40
1040
1.3
1070
    45
1040
0.5
1002
}
  0
LINE
  5
1AFC5
330
18
100
AcDbEntity
  8
01
100
AcDbLine
 10
2426.270633198027
 20
-507.1575463899059
 30
0.0
 11
2362.470633198026
 21
-507.1575463899059
 31
0.0
1001
ACAD
1000
DSTYLE
1002
{
1070
    40
1040
1.3
1070
    45
1040
0.5
1002
}
  0
LINE
  5
1AFC9
330
18
100
AcDbEntity
  8
01
100
AcDbLine
 10
2359.870633198027
 20
-560.7875885914845
 30
0.0
 11
2359.870633198027
 21
-515.9374138579541
 31
0.0
1001
ACAD
1000
DSTYLE
1002
{
1070
    40
1040
1.3
1070
    45
1040
0.5
1002
}
  0
LINE
  5
1AFCA
330
18
100
AcDbEntity
  8
01
100
AcDbLine
 10
2410.870633198027
 20
-596.658905942642
 30
0.0
 11
2410.870633198027
 21
-515.9374138579541
 31
0.0
1001
ACAD
1000
DSTYLE
1002
{
1070
    40
1040
1.3
1070
    45
1040
0.5
1002
}
  0
LINE
  5
1AFCB
330
18
100
AcDbEntity
  8
01
100
AcDbLine
 10
2362.470633198026
 20
-517.237413857954
 30
0.0
 11
2408.270633198027
 21
-517.237413857954
 31
0.0
1001
ACAD
1000
DSTYLE
1002
{
1070
    40
1040
1.3
1070
    45
1040
0.5
1002
}
  0
LINE
  5
1AFCF
330
18
100
AcDbEntity
  8
01
100
AcDbLine
 10
2228.370749537771
 20
-566.6589059426425
 30
0.0
 11
2228.370749537771
 21
-515.9374138579543
 31
0.0
1001
ACAD
1000
DSTYLE
1002
{
1070
    40
1040
1.3
1070
    45
1040
0.5
1002
}
  0
LINE
  5
1AFD0
330
18
100
AcDbEntity
  8
01
100
AcDbLine
 10
2253.370749537771
 20
-566.6589059426425
 30
0.0
 11
2253.370749537771
 21
-515.9374138579543
 31
0.0
1001
ACAD
1000
DSTYLE
1002
{
1070
    40
1040
1.3
1070
    45
1040
0.5
1002
}
  0
LINE
  5
1AFD1
330
18
100
AcDbEntity
  8
01
100
AcDbLine
 10
2230.970749537771
 20
-517.2374138579543
 30
0.0
 11
2250.770749537771
 21
-517.2374138579543
 31
0.0
1001
ACAD
1000
DSTYLE
1002
{
1070
    40
1040
1.3
1070
    45
1040
0.5
1002
}
  0
LINE
  5
1AFD5
330
18
100
AcDbEntity
  8
01
100
AcDbLine
 10
2207.669787643446
 20
-645.9089059426425
 30
0.0
 11
2206.370749537769
 21
-645.1589059426425
 31
0.0
  0
LINE
  5
1AFD6
330
18
100
AcDbEntity
  8
01
100
AcDbLine
 10
2206.370749537769
 20
-645.1589059426425
 30
0.0
 11
2205.071711432092
 21
-645.9089059426425
 31
0.0
  0
LINE
  5
1AFD7
330
18
100
AcDbEntity
  8
01
100
AcDbLine
 10
2205.071711432092
 20
-645.9089059426425
 30
0.0
 11
2205.071711432092
 21
-647.4089059426425
 31
0.0
  0
LINE
  5
1AFD8
330
18
100
AcDbEntity
  8
01
100
AcDbLine
 10
2205.071711432092
 20
-647.4089059426425
 30
0.0
 11
2206.370749537769
 21
-648.1589059426425
 31
0.0
  0
LINE
  5
1AFD9
330
18
100
AcDbEntity
  8
01
100
AcDbLine
 10
2206.370749537769
 20
-648.1589059426425
 30
0.0
 11
2207.669787643446
 21
-647.4089059426425
 31
0.0
  0
LINE
  5
1AFDA
330
18
100
AcDbEntity
  8
01
100
AcDbLine
 10
2207.669787643446
 20
-647.4089059426425
 30
0.0
 11
2207.669787643446
 21
-645.9089059426425
 31
0.0
  0
LINE
  5
1AFDB
330
18
100
AcDbEntity
  8
01
100
AcDbLine
 10
2246.91723920471
 20
-568.6634465975472
 30
0.0
 11
2327.203370372918
 21
-568.6634465975472
 31
0.0
1001
ACAD
1000
DSTYLE
1002
{
1070
    40
1040
1.3
1070
    45
1040
0.5
1002
}
  0
LINE
  5
1AFDC
330
18
100
AcDbEntity
  8
01
100
AcDbLine
 10
2246.91723920471
 20
-682.6634465975472
 30
0.0
 11
2327.203370372918
 21
-682.6634465975472
 31
0.0
1001
ACAD
1000
DSTYLE
1002
{
1070
    40
1040
1.3
1070
    45
1040
0.5
1002
}
  0
LINE
  5
1AFDD
330
18
100
AcDbEntity
  8
01
100
AcDbLine
 10
2325.903370372918
 20
-571.2634465975473
 30
0.0
 11
2325.903370372918
 21
-680.0634465975472
 31
0.0
1001
ACAD
1000
DSTYLE
1002
{
1070
    40
1040
1.3
1070
    45
1040
0.5
1002
}
  0
LINE
  5
1AFE1
330
18
100
AcDbEntity
  8
01
100
AcDbLine
 10
2247.515299601474
 20
-560.7638917419637
 30
0.0
 11
2336.567704539143
 21
-560.7638917419637
 31
0.0
1001
ACAD
1000
DSTYLE
1002
{
1070
    40
1040
1.3
1070
    45
1040
0.5
1002
}
  0
LINE
  5
1AFE2
330
18
100
AcDbEntity
  8
01
100
AcDbLine
 10
2247.442213796804
 20
-690.5634465975471
 30
0.0
 11
2336.567704539143
 21
-690.5634465975471
 31
0.0
1001
ACAD
1000
DSTYLE
1002
{
1070
    40
1040
1.3
1070
    45
1040
0.5
1002
}
  0
LINE
  5
1AFE3
330
18
100
AcDbEntity
  8
01
100
AcDbLine
 10
2335.267704539143
 20
-563.3638917419637
 30
0.0
 11
2335.267704539143
 21
-687.9634465975471
 31
0.0
1001
ACAD
1000
DSTYLE
1002
{
1070
    40
1040
1.3
1070
    45
1040
0.5
1002
}
  0
CIRCLE
  5
1AFE7
330
18
100
AcDbEntity
  8
01
100
AcDbCircle
 10
2275.370633198026
 20
-646.6589059426419
 30
0.0
 40
3.0
  0
LINE
  5
1AFE8
330
18
100
AcDbEntity
  8
01
  6
BYBLOCK
100
AcDbLine
 10
2351.470633198026
 20
-517.9340817519541
 30
0.0
 11
2348.870633198027
 21
-517.237413857954
 31
0.0
  0
LINE
  5
1AFE9
330
18
100
AcDbEntity
  8
01
  6
BYBLOCK
100
AcDbLine
 10
2348.870633198027
 20
-517.237413857954
 30
0.0
 11
2351.470633198026
 21
-516.540745963954
 31
0.0
  0
LINE
  5
1AFEA
330
18
100
AcDbEntity
  8
01
  6
BYBLOCK
100
AcDbLine
 10
2348.870633198027
 20
-517.237413857954
 30
0.0
 11
2351.470633198026
 21
-517.237413857954
 31
0.0
  0
LINE
  5
1AFEB
330
18
100
AcDbEntity
  8
01
  6
BYBLOCK
100
AcDbLine
 10
2357.270633198027
 20
-516.540745963954
 30
0.0
 11
2359.870633198027
 21
-517.237413857954
 31
0.0
  0
LINE
  5
1AFEC
330
18
100
AcDbEntity
  8
01
  6
BYBLOCK
100
AcDbLine
 10
2359.870633198027
 20
-517.237413857954
 30
0.0
 11
2357.270633198027
 21
-517.9340817519541
 31
0.0
  0
LINE
  5
1AFED
330
18
100
AcDbEntity
  8
01
  6
BYBLOCK
100
AcDbLine
 10
2359.870633198027
 20
-517.237413857954
 30
0.0
 11
2357.270633198027
 21
-517.237413857954
 31
0.0
  0
TEXT
  5
1AFEE
330
18
100
AcDbEntity
  8
01
  6
CONTINUOUS
100
AcDbText
 10
2352.095633198026
 20
-516.3274138579541
 30
0.0
 40
4.55
  1
11
100
AcDbText
1001
ACAD
1000
DSTYLE
1002
{
1070
    40
1040
1.3
1070
    45
1040
0.5
1002
}
  0
LINE
  5
1AFEF
330
18
100
AcDbEntity
  8
01
  6
BYBLOCK
100
AcDbLine
 10
2455.173965304027
 20
-591.2589059426421
 30
0.0
 11
2455.870633198027
 21
-588.658905942642
 31
0.0
  0
LINE
  5
1AFF0
330
18
100
AcDbEntity
  8
01
  6
BYBLOCK
100
AcDbLine
 10
2455.870633198027
 20
-588.658905942642
 30
0.0
 11
2456.567301092026
 21
-591.2589059426421
 31
0.0
  0
LINE
  5
1AFF1
330
18
100
AcDbEntity
  8
01
  6
BYBLOCK
100
AcDbLine
 10
2455.870633198027
 20
-588.658905942642
 30
0.0
 11
2455.870633198027
 21
-591.2589059426421
 31
0.0
  0
LINE
  5
1AFF2
330
18
100
AcDbEntity
  8
01
  6
BYBLOCK
100
AcDbLine
 10
2456.567301092026
 20
-660.0589059426425
 30
0.0
 11
2455.870633198027
 21
-662.6589059426425
 31
0.0
  0
LINE
  5
1AFF3
330
18
100
AcDbEntity
  8
01
  6
BYBLOCK
100
AcDbLine
 10
2455.870633198027
 20
-662.6589059426425
 30
0.0
 11
2455.173965304027
 21
-660.0589059426425
 31
0.0
  0
LINE
  5
1AFF4
330
18
100
AcDbEntity
  8
01
  6
BYBLOCK
100
AcDbLine
 10
2455.870633198027
 20
-662.6589059426425
 30
0.0
 11
2455.870633198027
 21
-660.0589059426425
 31
0.0
  0
TEXT
  5
1AFF5
330
18
100
AcDbEntity
  8
01
  6
CONTINUOUS
100
AcDbText
 10
2454.960633198027
 20
-607.6875618566232
 30
0.0
 40
4.55
  1
74
 50
90.0
100
AcDbText
1001
ACAD
1000
DSTYLE
1002
{
1070
    40
1040
1.3
1070
    45
1040
0.5
1002
}
  0
LINE
  5
1AFF6
330
18
100
AcDbEntity
  8
01
  6
BYBLOCK
100
AcDbLine
 10
2426.270633198027
 20
-506.4608784959059
 30
0.0
 11
2428.870633198027
 21
-507.1575463899059
 31
0.0
  0
LINE
  5
1AFF7
330
18
100
AcDbEntity
  8
01
  6
BYBLOCK
100
AcDbLine
 10
2428.870633198027
 20
-507.1575463899059
 30
0.0
 11
2426.270633198027
 21
-507.8542142839058
 31
0.0
  0
LINE
  5
1AFF8
330
18
100
AcDbEntity
  8
01
  6
BYBLOCK
100
AcDbLine
 10
2428.870633198027
 20
-507.1575463899059
 30
0.0
 11
2426.270633198027
 21
-507.1575463899059
 31
0.0
  0
LINE
  5
1AFF9
330
18
100
AcDbEntity
  8
01
  6
BYBLOCK
100
AcDbLine
 10
2362.470633198026
 20
-507.8542142839058
 30
0.0
 11
2359.870633198027
 21
-507.1575463899059
 31
0.0
  0
LINE
  5
1AFFA
330
18
100
AcDbEntity
  8
01
  6
BYBLOCK
100
AcDbLine
 10
2359.870633198027
 20
-507.1575463899059
 30
0.0
 11
2362.470633198026
 21
-506.4608784959059
 31
0.0
  0
LINE
  5
1AFFB
330
18
100
AcDbEntity
  8
01
  6
BYBLOCK
100
AcDbLine
 10
2359.870633198027
 20
-507.1575463899059
 30
0.0
 11
2362.470633198026
 21
-507.1575463899059
 31
0.0
  0
TEXT
  5
1AFFC
330
18
100
AcDbEntity
  8
01
  6
CONTINUOUS
100
AcDbText
 10
2390.562114679508
 20
-506.2475463899059
 30
0.0
 40
4.55
  1
69
100
AcDbText
1001
ACAD
1000
DSTYLE
1002
{
1070
    40
1040
1.3
1070
    45
1040
0.5
1002
}
  0
LINE
  5
1AFFD
330
18
100
AcDbEntity
  8
01
  6
BYBLOCK
100
AcDbLine
 10
2362.470633198026
 20
-517.9340817519541
 30
0.0
 11
2359.870633198027
 21
-517.237413857954
 31
0.0
  0
LINE
  5
1AFFE
330
18
100
AcDbEntity
  8
01
  6
BYBLOCK
100
AcDbLine
 10
2359.870633198027
 20
-517.237413857954
 30
0.0
 11
2362.470633198026
 21
-516.540745963954
 31
0.0
  0
LINE
  5
1AFFF
330
18
100
AcDbEntity
  8
01
  6
BYBLOCK
100
AcDbLine
 10
2359.870633198027
 20
-517.237413857954
 30
0.0
 11
2362.470633198026
 21
-517.237413857954
 31
0.0
  0
LINE
  5
1B000
330
18
100
AcDbEntity
  8
01
  6
BYBLOCK
100
AcDbLine
 10
2408.270633198027
 20
-516.540745963954
 30
0.0
 11
2410.870633198027
 21
-517.237413857954
 31
0.0
  0
LINE
  5
1B001
330
18
100
AcDbEntity
  8
01
  6
BYBLOCK
100
AcDbLine
 10
2410.870633198027
 20
-517.237413857954
 30
0.0
 11
2408.270633198027
 21
-517.9340817519541
 31
0.0
  0
LINE
  5
1B002
330
18
100
AcDbEntity
  8
01
  6
BYBLOCK
100
AcDbLine
 10
2410.870633198027
 20
-517.237413857954
 30
0.0
 11
2408.270633198027
 21
-517.237413857954
 31
0.0
  0
TEXT
  5
1B003
330
18
100
AcDbEntity
  8
01
  6
CONTINUOUS
100
AcDbText
 10
2382.321501253582
 20
-516.3274138579541
 30
0.0
 40
4.55
  1
51
100
AcDbText
1001
ACAD
1000
DSTYLE
1002
{
1070
    40
1040
1.3
1070
    45
1040
0.5
1002
}
  0
LINE
  5
1B004
330
18
100
AcDbEntity
  8
01
  6
BYBLOCK
100
AcDbLine
 10
2230.970749537771
 20
-517.9340817519543
 30
0.0
 11
2228.370749537771
 21
-517.2374138579543
 31
0.0
  0
LINE
  5
1B005
330
18
100
AcDbEntity
  8
01
  6
BYBLOCK
100
AcDbLine
 10
2228.370749537771
 20
-517.2374138579543
 30
0.0
 11
2230.970749537771
 21
-516.5407459639542
 31
0.0
  0
LINE
  5
1B006
330
18
100
AcDbEntity
  8
01
  6
BYBLOCK
100
AcDbLine
 10
2228.370749537771
 20
-517.2374138579543
 30
0.0
 11
2230.970749537771
 21
-517.2374138579543
 31
0.0
  0
LINE
  5
1B007
330
18
100
AcDbEntity
  8
01
  6
BYBLOCK
100
AcDbLine
 10
2250.770749537771
 20
-516.5407459639542
 30
0.0
 11
2253.370749537771
 21
-517.2374138579543
 31
0.0
  0
LINE
  5
1B008
330
18
100
AcDbEntity
  8
01
  6
BYBLOCK
100
AcDbLine
 10
2253.370749537771
 20
-517.2374138579543
 30
0.0
 11
2250.770749537771
 21
-517.9340817519543
 31
0.0
  0
LINE
  5
1B009
330
18
100
AcDbEntity
  8
01
  6
BYBLOCK
100
AcDbLine
 10
2253.370749537771
 20
-517.2374138579543
 30
0.0
 11
2250.770749537771
 21
-517.2374138579543
 31
0.0
  0
TEXT
  5
1B00A
330
18
100
AcDbEntity
  8
01
  6
CONTINUOUS
100
AcDbText
 10
2237.079082871105
 20
-516.3274138579543
 30
0.0
 40
4.55
  1
25
100
AcDbText
1001
ACAD
1000
DSTYLE
1002
{
1070
    40
1040
1.3
1070
    45
1040
0.5
1002
}
  0
LINE
  5
1B00B
330
18
100
AcDbEntity
  8
01
  6
BYBLOCK
100
AcDbLine
 10
2325.206702478918
 20
-571.2634465975473
 30
0.0
 11
2325.903370372918
 21
-568.6634465975472
 31
0.0
  0
LINE
  5
1B00C
330
18
100
AcDbEntity
  8
01
  6
BYBLOCK
100
AcDbLine
 10
2325.903370372918
 20
-568.6634465975472
 30
0.0
 11
2326.600038266918
 21
-571.2634465975473
 31
0.0
  0
LINE
  5
1B00D
330
18
100
AcDbEntity
  8
01
  6
BYBLOCK
100
AcDbLine
 10
2325.903370372918
 20
-568.6634465975472
 30
0.0
 11
2325.903370372918
 21
-571.2634465975473
 31
0.0
  0
LINE
  5
1B00E
330
18
100
AcDbEntity
  8
01
  6
BYBLOCK
100
AcDbLine
 10
2326.600038266918
 20
-680.0634465975472
 30
0.0
 11
2325.903370372918
 21
-682.6634465975472
 31
0.0
  0
LINE
  5
1B00F
330
18
100
AcDbEntity
  8
01
  6
BYBLOCK
100
AcDbLine
 10
2325.903370372918
 20
-682.6634465975472
 30
0.0
 11
2325.206702478918
 21
-680.0634465975472
 31
0.0
  0
LINE
  5
1B010
330
18
100
AcDbEntity
  8
01
  6
BYBLOCK
100
AcDbLine
 10
2325.903370372918
 20
-682.6634465975472
 30
0.0
 11
2325.903370372918
 21
-680.0634465975472
 31
0.0
  0
TEXT
  5
1B011
330
18
100
AcDbEntity
  8
01
  6
CONTINUOUS
100
AcDbText
 10
2324.993370372918
 20
-601.0804242496256
 30
0.0
 40
4.55
  1
114
 50
90.0
100
AcDbText
1001
ACAD
1000
DSTYLE
1002
{
1070
    40
1040
1.3
1070
    45
1040
0.5
1002
}
  0
LINE
  5
1B012
330
18
100
AcDbEntity
  8
01
  6
BYBLOCK
100
AcDbLine
 10
2334.571036645143
 20
-563.3638917419637
 30
0.0
 11
2335.267704539143
 21
-560.7638917419637
 31
0.0
  0
LINE
  5
1B013
330
18
100
AcDbEntity
  8
01
  6
BYBLOCK
100
AcDbLine
 10
2335.267704539143
 20
-560.7638917419637
 30
0.0
 11
2335.964372433143
 21
-563.3638917419637
 31
0.0
  0
LINE
  5
1B014
330
18
100
AcDbEntity
  8
01
  6
BYBLOCK
100
AcDbLine
 10
2335.267704539143
 20
-560.7638917419637
 30
0.0
 11
2335.267704539143
 21
-563.3638917419637
 31
0.0
  0
LINE
  5
1B015
330
18
100
AcDbEntity
  8
01
  6
BYBLOCK
100
AcDbLine
 10
2335.964372433143
 20
-687.9634465975471
 30
0.0
 11
2335.267704539143
 21
-690.5634465975471
 31
0.0
  0
LINE
  5
1B016
330
18
100
AcDbEntity
  8
01
  6
BYBLOCK
100
AcDbLine
 10
2335.267704539143
 20
-690.5634465975471
 30
0.0
 11
2334.571036645143
 21
-687.9634465975471
 31
0.0
  0
LINE
  5
1B017
330
18
100
AcDbEntity
  8
01
  6
BYBLOCK
100
AcDbLine
 10
2335.267704539143
 20
-690.5634465975471
 30
0.0
 11
2335.267704539143
 21
-687.9634465975471
 31
0.0
  0
TEXT
  5
1B018
330
18
100
AcDbEntity
  8
01
  6
CONTINUOUS
100
AcDbText
 10
2334.357704539143
 20
-601.8649882524332
 30
0.0
 40
4.55
  1
130
 50
90.0
100
AcDbText
1001
ACAD
1000
DSTYLE
1002
{
1070
    40
1040
1.3
1070
    45
1040
0.5
1002
}
  0
SOLID
  5
1B019
330
18
100
AcDbEntity
  8
1DIM
100
AcDbTrace
 10
2408.240482552772
 20
-422.7096629975858
 30
0.0
 11
2410.611234438087
 21
-421.5575721695456
 31
0.0
 12
2408.742282382695
 22
-423.416280321037
 32
0.0
 13
2408.742282382695
 23
-423.416280321037
 33
0.0
1001
ACAD
1000
DSTYLE
1002
{
1070
    40
1040
1.3
1070
    45
1040
0.5
1002
}
  0
LINE
  5
1B01A
330
18
100
AcDbEntity
  8
1DIM
100
AcDbLine
 10
2408.491382467733
 20
-423.0629716593114
 30
0.0
 11
2381.023794291043
 21
-442.5689059436707
 31
0.0
1001
ACAD
1000
DSTYLE
1002
{
1070
    40
1040
1.3
1070
    45
1040
0.5
1002
}
  0
LINE
  5
1B01B
330
18
100
AcDbEntity
  8
1DIM
100
AcDbLine
 10
2427.271517380086
 20
-367.1589059436707
 30
0.0
 11
2447.831908139799
 21
-367.1589059436707
 31
0.0
1001
ACAD
1000
DSTYLE
1002
{
1070
    45
1040
0.5
1070
    40
1040
1.3
1002
}
  0
LINE
  5
1B01C
330
18
100
AcDbEntity
  8
1DIM
100
AcDbLine
 10
2428.871517380087
 20
-385.9589059436706
 30
0.0
 11
2447.831908139799
 21
-385.9589059436706
 31
0.0
1001
ACAD
1000
DSTYLE
1002
{
1070
    45
1040
0.5
1070
    40
1040
1.3
1002
}
  0
LINE
  5
1B01D
330
18
100
AcDbEntity
  8
1DIM
100
AcDbLine
 10
2446.531908139798
 20
-369.7589059436707
 30
0.0
 11
2446.531908139798
 21
-383.3589059436706
 31
0.0
1001
ACAD
1000
DSTYLE
1002
{
1070
    45
1040
0.5
1070
    40
1040
1.3
1002
}
  0
LINE
  5
1B021
330
18
100
AcDbEntity
  8
1DIM
100
AcDbLine
 10
2040.87075353777
 20
-646.6589059426425
 30
0.0
 11
2009.471559207228
 21
-646.6589059426425
 31
0.0
1001
ACAD
1000
DSTYLE
1002
{
1070
    40
1040
1.3
1002
}
  0
LINE
  5
1B022
330
18
100
AcDbEntity
  8
1DIM
100
AcDbLine
 10
2046.37075353777
 20
-710.6589059426425
 30
0.0
 11
2009.471559207228
 21
-710.6589059426425
 31
0.0
1001
ACAD
1000
DSTYLE
1002
{
1070
    40
1040
1.3
1002
}
  0
LINE
  5
1B023
330
18
100
AcDbEntity
  8
1DIM
100
AcDbLine
 10
2010.771559207228
 20
-649.2589059426425
 30
0.0
 11
2010.771559207228
 21
-708.0589059426425
 31
0.0
1001
ACAD
1000
DSTYLE
1002
{
1070
    40
1040
1.3
1002
}
  0
LINE
  5
1B027
330
18
100
AcDbEntity
  8
1DIM
100
AcDbLine
 10
2435.370633198027
 20
-710.658905942642
 30
0.0
 11
2577.170633198027
 21
-710.658905942642
 31
0.0
1001
ACAD
1000
DSTYLE
1002
{
1070
    40
1040
1.3
1070
    45
1040
0.5
1070
   341
1005
0
1002
}
  0
LINE
  5
1B028
330
18
100
AcDbEntity
  8
1DIM
100
AcDbLine
 10
2435.370633198027
 20
-532.658905942642
 30
0.0
 11
2577.170633198027
 21
-532.658905942642
 31
0.0
1001
ACAD
1000
DSTYLE
1002
{
1070
    40
1040
1.3
1070
    45
1040
0.5
1070
   341
1005
0
1002
}
  0
LINE
  5
1B029
330
18
100
AcDbEntity
  8
1DIM
100
AcDbLine
 10
2575.870633198027
 20
-708.058905942642
 30
0.0
 11
2575.870633198027
 21
-535.2589059426421
 31
0.0
1001
ACAD
1000
DSTYLE
1002
{
1070
    40
1040
1.3
1070
    45
1040
0.5
1070
   341
1005
0
1002
}
  0
LINE
  5
1B02D
330
18
100
AcDbEntity
  8
1DIM
100
AcDbLine
 10
2385.870633198027
 20
-533.158905942642
 30
0.0
 11
2385.870633198027
 21
-525.9589059426424
 31
0.0
1001
ACAD
1000
DSTYLE
1002
{
1070
    40
1040
1.3
1070
    45
1040
0.5
1070
   341
1005
0
1002
}
  0
LINE
  5
1B02E
330
18
100
AcDbEntity
  8
1DIM
100
AcDbLine
 10
2435.870633198027
 20
-533.158905942642
 30
0.0
 11
2435.870633198027
 21
-525.9589059426424
 31
0.0
1001
ACAD
1000
DSTYLE
1002
{
1070
    40
1040
1.3
1070
    45
1040
0.5
1070
   341
1005
0
1002
}
  0
LINE
  5
1B02F
330
18
100
AcDbEntity
  8
1DIM
100
AcDbLine
 10
2388.470633198026
 20
-527.2589059426424
 30
0.0
 11
2433.270633198027
 21
-527.2589059426424
 31
0.0
1001
ACAD
1000
DSTYLE
1002
{
1070
    40
1040
1.3
1070
    45
1040
0.5
1070
   341
1005
0
1002
}
  0
LINE
  5
1B033
330
18
100
AcDbEntity
  8
1DIM
100
AcDbLine
 10
2513.357832002942
 20
-396.6589059436698
 30
0.0
 11
2551.736429538558
 21
-396.6589059436698
 31
0.0
1001
ACAD
1000
DSTYLE
1002
{
1070
    40
1040
1.3
1070
   271
1070
     0
1002
}
  0
LINE
  5
1B034
330
18
100
AcDbEntity
  8
1DIM
100
AcDbLine
 10
2534.43488409305
 20
-432.6081632021034
 30
0.0
 11
2551.736429538558
 21
-432.6081632021034
 31
0.0
1001
ACAD
1000
DSTYLE
1002
{
1070
    40
1040
1.3
1070
   271
1070
     0
1002
}
  0
LINE
  5
1B035
330
18
100
AcDbEntity
  8
1DIM
100
AcDbLine
 10
2550.436429538558
 20
-399.2589059436698
 30
0.0
 11
2550.436429538558
 21
-430.0081632021033
 31
0.0
1001
ACAD
1000
DSTYLE
1002
{
1070
    40
1040
1.3
1070
   271
1070
     0
1002
}
  0
LINE
  5
1B039
330
18
100
AcDbEntity
  8
1DIM
100
AcDbLine
 10
2447.998872057471
 20
-459.6969646435247
 30
0.0
 11
2561.736429538558
 21
-459.6969646435247
 31
0.0
1001
ACAD
1000
DSTYLE
1002
{
1070
    40
1040
1.3
1070
   271
1070
     0
1002
}
  0
LINE
  5
1B03A
330
18
100
AcDbEntity
  8
1DIM
100
AcDbLine
 10
2513.357832002942
 20
-396.6589059436698
 30
0.0
 11
2561.736429538558
 21
-396.6589059436698
 31
0.0
1001
ACAD
1000
DSTYLE
1002
{
1070
    40
1040
1.3
1070
   271
1070
     0
1002
}
  0
LINE
  5
1B03B
330
18
100
AcDbEntity
  8
1DIM
100
AcDbLine
 10
2560.436429538558
 20
-457.0969646435246
 30
0.0
 11
2560.436429538558
 21
-399.2589059436698
 31
0.0
1001
ACAD
1000
DSTYLE
1002
{
1070
    40
1040
1.3
1070
   271
1070
     0
1002
}
  0
LINE
  5
1B03F
330
18
100
AcDbEntity
  8
1DIM
100
AcDbLine
 10
2410.870633198027
 20
-418.1589059436698
 30
0.0
 11
2410.870633198027
 21
-475.9969646435247
 31
0.0
1001
ACAD
1000
DSTYLE
1002
{
1070
    40
1040
1.3
1070
   271
1070
     0
1002
}
  0
LINE
  5
1B040
330
18
100
AcDbEntity
  8
1DIM
100
AcDbLine
 10
2535.436429540976
 20
-453.6209831558882
 30
0.0
 11
2535.436429540976
 21
-475.9969646435247
 31
0.0
1001
ACAD
1000
DSTYLE
1002
{
1070
    40
1040
1.3
1070
   271
1070
     0
1002
}
  0
LINE
  5
1B041
330
18
100
AcDbEntity
  8
1DIM
100
AcDbLine
 10
2413.470633198026
 20
-474.6969646435247
 30
0.0
 11
2532.836429540976
 21
-474.6969646435247
 31
0.0
1001
ACAD
1000
DSTYLE
1002
{
1070
    40
1040
1.3
1070
   271
1070
     0
1002
}
  0
LINE
  5
1B045
330
18
100
AcDbEntity
  8
1DIM
100
AcDbLine
 10
2397.370635538557
 20
-425.6589059436698
 30
0.0
 11
2397.370635538557
 21
-485.9969646435247
 31
0.0
1001
ACAD
1000
DSTYLE
1002
{
1070
    40
1040
1.3
1070
   271
1070
     0
1002
}
  0
LINE
  5
1B046
330
18
100
AcDbEntity
  8
1DIM
100
AcDbLine
 10
2535.436429540976
 20
-453.6209831558882
 30
0.0
 11
2535.436429540976
 21
-485.9969646435247
 31
0.0
1001
ACAD
1000
DSTYLE
1002
{
1070
    40
1040
1.3
1070
   271
1070
     0
1002
}
  0
LINE
  5
1B047
330
18
100
AcDbEntity
  8
1DIM
100
AcDbLine
 10
2399.970635538557
 20
-484.6969646435247
 30
0.0
 11
2532.836429540976
 21
-484.6969646435247
 31
0.0
1001
ACAD
1000
DSTYLE
1002
{
1070
    40
1040
1.3
1070
   271
1070
     0
1002
}
  0
LINE
  5
1B04B
330
18
100
AcDbEntity
  8
0
  6
BYBLOCK
100
AcDbLine
 10
2445.835240245799
 20
-369.7589059436707
 30
0.0
 11
2446.531908139798
 21
-367.1589059436707
 31
0.0
  0
LINE
  5
1B04C
330
18
100
AcDbEntity
  8
0
  6
BYBLOCK
100
AcDbLine
 10
2446.531908139798
 20
-367.1589059436707
 30
0.0
 11
2447.228576033798
 21
-369.7589059436707
 31
0.0
  0
LINE
  5
1B04D
330
18
100
AcDbEntity
  8
0
  6
BYBLOCK
100
AcDbLine
 10
2446.531908139798
 20
-367.1589059436707
 30
0.0
 11
2446.531908139798
 21
-369.7589059436707
 31
0.0
  0
LINE
  5
1B04E
330
18
100
AcDbEntity
  8
0
  6
BYBLOCK
100
AcDbLine
 10
2447.228576033798
 20
-383.3589059436706
 30
0.0
 11
2446.531908139798
 21
-385.9589059436706
 31
0.0
  0
LINE
  5
1B04F
330
18
100
AcDbEntity
  8
0
  6
BYBLOCK
100
AcDbLine
 10
2446.531908139798
 20
-385.9589059436706
 30
0.0
 11
2445.835240245799
 21
-383.3589059436706
 31
0.0
  0
LINE
  5
1B050
330
18
100
AcDbEntity
  8
0
  6
BYBLOCK
100
AcDbLine
 10
2446.531908139798
 20
-385.9589059436706
 30
0.0
 11
2446.531908139798
 21
-383.3589059436706
 31
0.0
  0
TEXT
  5
1B051
330
18
100
AcDbEntity
  8
1DIM
  6
CONTINUOUS
100
AcDbText
 10
2445.621908139799
 20
-379.5932925177449
 30
0.0
 40
4.55
  1
19
 50
90.0
100
AcDbText
1001
ACAD
1000
DSTYLE
1002
{
1070
    45
1040
0.5
1070
    40
1040
1.3
1002
}
  0
LINE
  5
1B052
330
18
100
AcDbEntity
  8
0
  6
BYBLOCK
100
AcDbLine
 10
2010.074891313228
 20
-649.2589059426425
 30
0.0
 11
2010.771559207228
 21
-646.6589059426425
 31
0.0
  0
LINE
  5
1B053
330
18
100
AcDbEntity
  8
0
  6
BYBLOCK
100
AcDbLine
 10
2010.771559207228
 20
-646.6589059426425
 30
0.0
 11
2011.468227101228
 21
-649.2589059426425
 31
0.0
  0
LINE
  5
1B054
330
18
100
AcDbEntity
  8
0
  6
BYBLOCK
100
AcDbLine
 10
2010.771559207228
 20
-646.6589059426425
 30
0.0
 11
2010.771559207228
 21
-649.2589059426425
 31
0.0
  0
LINE
  5
1B055
330
18
100
AcDbEntity
  8
0
  6
BYBLOCK
100
AcDbLine
 10
2011.468227101228
 20
-708.0589059426425
 30
0.0
 11
2010.771559207228
 21
-710.6589059426425
 31
0.0
  0
LINE
  5
1B056
330
18
100
AcDbEntity
  8
0
  6
BYBLOCK
100
AcDbLine
 10
2010.771559207228
 20
-710.6589059426425
 30
0.0
 11
2010.074891313228
 21
-708.0589059426425
 31
0.0
  0
LINE
  5
1B057
330
18
100
AcDbEntity
  8
0
  6
BYBLOCK
100
AcDbLine
 10
2010.771559207228
 20
-710.6589059426425
 30
0.0
 11
2010.771559207228
 21
-708.0589059426425
 31
0.0
  0
TEXT
  5
1B058
330
18
100
AcDbEntity
  8
1DIM
  6
CONTINUOUS
100
AcDbText
 10
2009.861559207228
 20
-682.4663712204203
 30
0.0
 40
4.55
  1
64
 50
90.0
100
AcDbText
1001
ACAD
1000
DSTYLE
1002
{
1070
    40
1040
1.3
1002
}
  0
LINE
  5
1B059
330
18
100
AcDbEntity
  8
0
  6
BYBLOCK
100
AcDbLine
 10
2576.567301092026
 20
-708.058905942642
 30
0.0
 11
2575.870633198027
 21
-710.658905942642
 31
0.0
  0
LINE
  5
1B05A
330
18
100
AcDbEntity
  8
0
  6
BYBLOCK
100
AcDbLine
 10
2575.870633198027
 20
-710.658905942642
 30
0.0
 11
2575.173965304027
 21
-708.058905942642
 31
0.0
  0
LINE
  5
1B05B
330
18
100
AcDbEntity
  8
0
  6
BYBLOCK
100
AcDbLine
 10
2575.870633198027
 20
-710.658905942642
 30
0.0
 11
2575.870633198027
 21
-708.058905942642
 31
0.0
  0
LINE
  5
1B05C
330
18
100
AcDbEntity
  8
0
  6
BYBLOCK
100
AcDbLine
 10
2575.173965304027
 20
-535.2589059426421
 30
0.0
 11
2575.870633198027
 21
-532.658905942642
 31
0.0
  0
LINE
  5
1B05D
330
18
100
AcDbEntity
  8
0
  6
BYBLOCK
100
AcDbLine
 10
2575.870633198027
 20
-532.658905942642
 30
0.0
 11
2576.567301092026
 21
-535.2589059426421
 31
0.0
  0
LINE
  5
1B05E
330
18
100
AcDbEntity
  8
0
  6
BYBLOCK
100
AcDbLine
 10
2575.870633198027
 20
-532.658905942642
 30
0.0
 11
2575.870633198027
 21
-535.2589059426421
 31
0.0
  0
TEXT
  5
1B05F
330
18
100
AcDbEntity
  8
1DIM
  6
CONTINUOUS
100
AcDbText
 10
2574.960633198027
 20
-626.9672392759753
 30
0.0
 40
4.55
  1
178
 50
90.0
100
AcDbText
1001
ACAD
1000
DSTYLE
1002
{
1070
    40
1040
1.3
1070
    45
1040
0.5
1070
   341
1005
0
1002
}
  0
LINE
  5
1B060
330
18
100
AcDbEntity
  8
0
  6
BYBLOCK
100
AcDbLine
 10
2388.470633198026
 20
-527.9555738366424
 30
0.0
 11
2385.870633198027
 21
-527.2589059426424
 31
0.0
  0
LINE
  5
1B061
330
18
100
AcDbEntity
  8
0
  6
BYBLOCK
100
AcDbLine
 10
2385.870633198027
 20
-527.2589059426424
 30
0.0
 11
2388.470633198026
 21
-526.5622380486424
 31
0.0
  0
LINE
  5
1B062
330
18
100
AcDbEntity
  8
0
  6
BYBLOCK
100
AcDbLine
 10
2385.870633198027
 20
-527.2589059426424
 30
0.0
 11
2388.470633198026
 21
-527.2589059426424
 31
0.0
  0
LINE
  5
1B063
330
18
100
AcDbEntity
  8
0
  6
BYBLOCK
100
AcDbLine
 10
2433.270633198027
 20
-526.5622380486424
 30
0.0
 11
2435.870633198027
 21
-527.2589059426424
 31
0.0
  0
LINE
  5
1B064
330
18
100
AcDbEntity
  8
0
  6
BYBLOCK
100
AcDbLine
 10
2435.870633198027
 20
-527.2589059426424
 30
0.0
 11
2433.270633198027
 21
-527.9555738366424
 31
0.0
  0
LINE
  5
1B065
330
18
100
AcDbEntity
  8
0
  6
BYBLOCK
100
AcDbLine
 10
2435.870633198027
 20
-527.2589059426424
 30
0.0
 11
2433.270633198027
 21
-527.2589059426424
 31
0.0
  0
TEXT
  5
1B066
330
18
100
AcDbEntity
  8
1DIM
  6
CONTINUOUS
100
AcDbText
 10
2407.347542920249
 20
-526.3489059426424
 30
0.0
 40
4.55
  1
50
100
AcDbText
1001
ACAD
1000
DSTYLE
1002
{
1070
    40
1040
1.3
1070
    45
1040
0.5
1070
   341
1005
0
1002
}
  0
LINE
  5
1B067
330
18
100
AcDbEntity
  8
0
  6
BYBLOCK
100
AcDbLine
 10
2549.739761644558
 20
-399.2589059436698
 30
0.0
 11
2550.436429538558
 21
-396.6589059436698
 31
0.0
  0
LINE
  5
1B068
330
18
100
AcDbEntity
  8
0
  6
BYBLOCK
100
AcDbLine
 10
2550.436429538558
 20
-396.6589059436698
 30
0.0
 11
2551.133097432557
 21
-399.2589059436698
 31
0.0
  0
LINE
  5
1B069
330
18
100
AcDbEntity
  8
0
  6
BYBLOCK
100
AcDbLine
 10
2550.436429538558
 20
-396.6589059436698
 30
0.0
 11
2550.436429538558
 21
-399.2589059436698
 31
0.0
  0
LINE
  5
1B06A
330
18
100
AcDbEntity
  8
0
  6
BYBLOCK
100
AcDbLine
 10
2551.133097432557
 20
-430.0081632021033
 30
0.0
 11
2550.436429538558
 21
-432.6081632021034
 31
0.0
  0
LINE
  5
1B06B
330
18
100
AcDbEntity
  8
0
  6
BYBLOCK
100
AcDbLine
 10
2550.436429538558
 20
-432.6081632021034
 30
0.0
 11
2549.739761644558
 21
-430.0081632021033
 31
0.0
  0
LINE
  5
1B06C
330
18
100
AcDbEntity
  8
0
  6
BYBLOCK
100
AcDbLine
 10
2550.436429538558
 20
-432.6081632021034
 30
0.0
 11
2550.436429538558
 21
-430.0081632021033
 31
0.0
  0
TEXT
  5
1B06D
330
18
100
AcDbEntity
  8
1DIM
  6
CONTINUOUS
100
AcDbText
 10
2549.526429538558
 20
-418.4252012395532
 30
0.0
 40
4.55
  1
36
 50
90.0
100
AcDbText
1001
ACAD
1000
DSTYLE
1002
{
1070
    40
1040
1.3
1070
   271
1070
     0
1002
}
  0
LINE
  5
1B06E
330
18
100
AcDbEntity
  8
0
  6
BYBLOCK
100
AcDbLine
 10
2561.133097432557
 20
-457.0969646435246
 30
0.0
 11
2560.436429538558
 21
-459.6969646435247
 31
0.0
  0
LINE
  5
1B06F
330
18
100
AcDbEntity
  8
0
  6
BYBLOCK
100
AcDbLine
 10
2560.436429538558
 20
-459.6969646435247
 30
0.0
 11
2559.739761644558
 21
-457.0969646435246
 31
0.0
  0
LINE
  5
1B070
330
18
100
AcDbEntity
  8
0
  6
BYBLOCK
100
AcDbLine
 10
2560.436429538558
 20
-459.6969646435247
 30
0.0
 11
2560.436429538558
 21
-457.0969646435246
 31
0.0
  0
LINE
  5
1B071
330
18
100
AcDbEntity
  8
0
  6
BYBLOCK
100
AcDbLine
 10
2559.739761644558
 20
-399.2589059436698
 30
0.0
 11
2560.436429538558
 21
-396.6589059436698
 31
0.0
  0
LINE
  5
1B072
330
18
100
AcDbEntity
  8
0
  6
BYBLOCK
100
AcDbLine
 10
2560.436429538558
 20
-396.6589059436698
 30
0.0
 11
2561.133097432557
 21
-399.2589059436698
 31
0.0
  0
LINE
  5
1B073
330
18
100
AcDbEntity
  8
0
  6
BYBLOCK
100
AcDbLine
 10
2560.436429538558
 20
-396.6589059436698
 30
0.0
 11
2560.436429538558
 21
-399.2589059436698
 31
0.0
  0
TEXT
  5
1B074
330
18
100
AcDbEntity
  8
1DIM
  6
CONTINUOUS
100
AcDbText
 10
2559.526429538558
 20
-431.9854005713751
 30
0.0
 40
4.55
  1
63
 50
90.0
100
AcDbText
1001
ACAD
1000
DSTYLE
1002
{
1070
    40
1040
1.3
1070
   271
1070
     0
1002
}
  0
LINE
  5
1B075
330
18
100
AcDbEntity
  8
0
  6
BYBLOCK
100
AcDbLine
 10
2413.470633198026
 20
-475.3936325375246
 30
0.0
 11
2410.870633198027
 21
-474.6969646435247
 31
0.0
  0
LINE
  5
1B076
330
18
100
AcDbEntity
  8
0
  6
BYBLOCK
100
AcDbLine
 10
2410.870633198027
 20
-474.6969646435247
 30
0.0
 11
2413.470633198026
 21
-474.0002967495247
 31
0.0
  0
LINE
  5
1B077
330
18
100
AcDbEntity
  8
0
  6
BYBLOCK
100
AcDbLine
 10
2410.870633198027
 20
-474.6969646435247
 30
0.0
 11
2413.470633198026
 21
-474.6969646435247
 31
0.0
  0
LINE
  5
1B078
330
18
100
AcDbEntity
  8
0
  6
BYBLOCK
100
AcDbLine
 10
2532.836429540976
 20
-474.0002967495247
 30
0.0
 11
2535.436429540976
 21
-474.6969646435247
 31
0.0
  0
LINE
  5
1B079
330
18
100
AcDbEntity
  8
0
  6
BYBLOCK
100
AcDbLine
 10
2535.436429540976
 20
-474.6969646435247
 30
0.0
 11
2532.836429540976
 21
-475.3936325375246
 31
0.0
  0
LINE
  5
1B07A
330
18
100
AcDbEntity
  8
0
  6
BYBLOCK
100
AcDbLine
 10
2535.436429540976
 20
-474.6969646435247
 30
0.0
 11
2532.836429540976
 21
-474.6969646435247
 31
0.0
  0
TEXT
  5
1B07B
330
18
100
AcDbEntity
  8
1DIM
  6
CONTINUOUS
100
AcDbText
 10
2467.845198036168
 20
-473.7869646435247
 30
0.0
 40
4.55
  1
125
100
AcDbText
1001
ACAD
1000
DSTYLE
1002
{
1070
    40
1040
1.3
1070
   271
1070
     0
1002
}
  0
LINE
  5
1B07C
330
18
100
AcDbEntity
  8
0
  6
BYBLOCK
100
AcDbLine
 10
2399.970635538557
 20
-485.3936325375246
 30
0.0
 11
2397.370635538557
 21
-484.6969646435247
 31
0.0
  0
LINE
  5
1B07D
330
18
100
AcDbEntity
  8
0
  6
BYBLOCK
100
AcDbLine
 10
2397.370635538557
 20
-484.6969646435247
 30
0.0
 11
2399.970635538557
 21
-484.0002967495247
 31
0.0
  0
LINE
  5
1B07E
330
18
100
AcDbEntity
  8
0
  6
BYBLOCK
100
AcDbLine
 10
2397.370635538557
 20
-484.6969646435247
 30
0.0
 11
2399.970635538557
 21
-484.6969646435247
 31
0.0
  0
LINE
  5
1B07F
330
18
100
AcDbEntity
  8
0
  6
BYBLOCK
100
AcDbLine
 10
2532.836429540976
 20
-484.0002967495247
 30
0.0
 11
2535.436429540976
 21
-484.6969646435247
 31
0.0
  0
LINE
  5
1B080
330
18
100
AcDbEntity
  8
0
  6
BYBLOCK
100
AcDbLine
 10
2535.436429540976
 20
-484.6969646435247
 30
0.0
 11
2532.836429540976
 21
-485.3936325375246
 31
0.0
  0
LINE
  5
1B081
330
18
100
AcDbEntity
  8
0
  6
BYBLOCK
100
AcDbLine
 10
2535.436429540976
 20
-484.6969646435247
 30
0.0
 11
2532.836429540976
 21
-484.6969646435247
 31
0.0
  0
TEXT
  5
1B082
330
18
100
AcDbEntity
  8
1DIM
  6
CONTINUOUS
100
AcDbText
 10
2461.095199206433
 20
-483.7869646435247
 30
0.0
 40
4.55
  1
138
100
AcDbText
1001
ACAD
1000
DSTYLE
1002
{
1070
    40
1040
1.3
1070
   271
1070
     0
1002
}
  0
VIEWPORT
  5
57
330
15
100
AcDbEntity
 67
     1
  8
0
100
AcDbViewport
 68
     1
 10
0.0
 20
0.0
 30
0.0
 40
555.8298653610772
 41
297.0
 68
     1
 69
     1
1001
ACAD
1000
MVIEW
1002
{
1070
    16
1010
0.0
1020
0.0
1030
0.0
1010
0.0
1020
0.0
1030
1.0
1040
0.0
1040
297.0
1040
-4.171999999925333
1040
12.83903210976956
1040
50.0
1040
0.0
1040
0.0
1070
    16
1070
   100
1070
     0
1070
     1
1070
     0
1070
     0
1070
     0
1070
     0
1040
0.0
1040
0.0
1040
0.0
1040
10.0
1040
10.0
1040
10.0
1040
10.0
1070
     0
1002
{
1002
}
1002
}
  0
ENDSEC
  0
SECTION
  2
OBJECTS
  0
DICTIONARY
  5
C
330
0
100
AcDbDictionary
  3
ACAD_COLOR
350
18D
  3
ACAD_GROUP
350
D
  3
ACAD_LAYOUT
350
18E
  3
ACAD_MATERIAL
350
18C
  3
ACAD_MLEADERSTYLE
350
D9E7
  3
ACAD_MLINESTYLE
350
1B
  3
ACAD_PLOTSETTINGS
350
18F
  3
ACAD_SCALELIST
350
D9C5
  3
ACAD_VISUALSTYLE
350
D9B4
  3
ACDBHEADERROUNDTRIPXREC
350
1B083
  3
ACDBVARIABLEDICTIONARY
350
37
  3
CONTENTDICTIONARY
350
D8
  3
DRAWINGVARIABLESDICT
350
20
  3
DWGPROPS
350
1B086
1001
ACAD
1000
TREAT_AS_HARD
1070
     0
  0
DICTIONARY
  5
E6A6
330
2
100
AcDbDictionary
  3
ACAD_LAYERSTATES
360
E6A7
1001
ACAD
1000
TREAT_AS_HARD
1070
     1
  0
DICTIONARY
  5
DA05
330
E
100
AcDbDictionary
  3
ADSK_XREC_LAYER_RECONCILED
360
DA06
1001
ACAD
1000
TREAT_AS_HARD
1070
     1
  0
DICTIONARY
  5
DA07
330
29
100
AcDbDictionary
  3
ADSK_XREC_LAYER_RECONCILED
360
DA08
1001
ACAD
1000
TREAT_AS_HARD
1070
     1
  0
DICTIONARY
  5
DA09
330
31
100
AcDbDictionary
  3
ADSK_XREC_LAYER_RECONCILED
360
DA0A
1001
ACAD
1000
TREAT_AS_HARD
1070
     1
  0
DICTIONARY
  5
DA0F
330
243
100
AcDbDictionary
  3
ADSK_XREC_LAYER_RECONCILED
360
DA10
1001
ACAD
1000
TREAT_AS_HARD
1070
     1
  0
DICTIONARY
  5
DA15
330
24E
100
AcDbDictionary
  3
ADSK_XREC_LAYER_RECONCILED
360
DA16
1001
ACAD
1000
TREAT_AS_HARD
1070
     1
  0
DICTIONARY
  5
DA23
330
2C05
100
AcDbDictionary
  3
ADSK_XREC_LAYER_RECONCILED
360
DA24
1001
ACAD
1000
TREAT_AS_HARD
1070
     1
  0
DICTIONARY
  5
88F
330
18
100
AcDbDictionary
  3
ACAD_SORTENTS
360
890
1001
ACAD
1000
TREAT_AS_HARD
1070
     1
  0
DICTIONARY
  5
18D
102
{ACAD_REACTORS
330
C
102
}
330
C
100
AcDbDictionary
1001
ACAD
1000
TREAT_AS_HARD
1070
     0
  0
DICTIONARY
  5
D
102
{ACAD_REACTORS
330
C
102
}
330
C
100
AcDbDictionary
1001
ACAD
1000
TREAT_AS_HARD
1070
     0
  0
DICTIONARY
  5
18E
102
{ACAD_REACTORS
330
C
102
}
330
C
100
AcDbDictionary
1001
ACAD
1000
TREAT_AS_HARD
1070
     0
  0
DICTIONARY
  5
18C
102
{ACAD_REACTORS
330
C
102
}
330
C
100
AcDbDictionary
  3
BYBLOCK
350
D9A4
  3
BYLAYER
350
D99C
  3
GLOBAL
350
D9AC
1001
ACAD
1000
TREAT_AS_HARD
1070
     0
  0
DICTIONARY
  5
D9E7
102
{ACAD_REACTORS
330
C
102
}
330
C
100
AcDbDictionary
  3
STANDARD
350
D9E8
1001
ACAD
1000
TREAT_AS_HARD
1070
     0
  0
DICTIONARY
  5
1B
102
{ACAD_REACTORS
330
C
102
}
330
C
100
AcDbDictionary
  3
STANDARD
350
1C
1001
ACAD
1000
TREAT_AS_HARD
1070
     0
  0
DICTIONARY
  5
18F
102
{ACAD_REACTORS
330
C
102
}
330
C
100
AcDbDictionary
1001
ACAD
1000
TREAT_AS_HARD
1070
     0
  0
DICTIONARY
  5
D9C5
102
{ACAD_REACTORS
330
C
102
}
330
C
100
AcDbDictionary
  3
A0
350
D9C6
  3
A1
350
D9C7
  3
A2
350
D9C8
  3
A3
350
D9C9
  3
A4
350
D9CA
  3
A5
350
D9CB
  3
A6
350
D9CC
  3
A7
350
D9CD
  3
A8
350
D9CE
  3
A9
350
D9CF
  3
B0
350
D9D0
  3
B1
350
D9D1
  3
B2
350
D9D2
  3
B3
350
D9D3
  3
B4
350
D9D4
  3
B5
350
D9D5
  3
B6
350
D9D6
  3
B7
350
D9D7
  3
B8
350
D9D8
  3
B9
350
D9D9
  3
C0
350
D9DA
  3
C1
350
D9DB
  3
C2
350
D9DC
  3
C3
350
D9DD
  3
C4
350
D9DE
  3
C5
350
D9DF
  3
C6
350
D9E0
  3
C7
350
D9E1
  3
C8
350
D9E2
  3
C9
350
D9E3
  3
D0
350
D9E4
  3
D1
350
D9E5
  3
D2
350
D9E6
1001
ACAD
1000
TREAT_AS_HARD
1070
     0
  0
DICTIONARY
  5
D9B4
102
{ACAD_REACTORS
330
C
102
}
330
C
100
AcDbDictionary
  3
2DWIREFRAME
350
D9BA
  3
3D_HIDDEN
350
D9BC
  3
3DWIREFRAME
350
D9BB
  3
BASIC
350
D9B9
  3
BRIGHTEN
350
D9C0
  3
COLORCHANGE
350
D9C4
  3
CONCEPTUAL
350
D9BD
  3
DIM
350
D9BF
  3
EDGECOLOROFF
350
19C2F
  3
FACEPATTERN
350
D9C3
  3
FLAT
350
D9B5
  3
FLATWITHEDGES
350
D9B6
  3
GOURAUD
350
D9B7
  3
GOURAUDWITHEDGES
350
D9B8
  3
HIDDEN
350
19C7E
  3
JITTEROFF
350
19C2D
  3
LINEPATTERN
350
D9C2
  3
MODELING
350
19C84
  3
OVERHANGOFF
350
19C2E
  3
REALISTIC
350
D9BE
  3
SHADED
350
19C83
  3
SHADED_WITH_EDGES
350
19C82
  3
SHADES_OF_GRAY
350
19C7F
  3
SKETCHY
350
19C80
  3
THICKEN
350
D9C1
  3
WIREFRAME
350
19C7D
  3
X-RAY
350
19C81
1001
ACAD
1000
TREAT_AS_HARD
1070
     0
  0
DICTIONARY
  5
1B083
102
{ACAD_REACTORS
330
C
102
}
330
C
100
AcDbDictionary
  3
COLORDICT
350
1B084
  3
MATERIALDICT
350
1B085
1001
ACAD
1000
TREAT_AS_HARD
1070
     0
  0
DICTIONARY
  5
37
102
{ACAD_REACTORS
330
C
102
}
330
C
100
AcDbDictionary
  3
CANNOSCALE
350
1A68D
  3
CMLEADERSTYLE
350
DA6A
  3
CTABLESTYLE
350
29E
  3
DIMADEC
350
38
  3
DIMASSOC
350
1CE
  3
HIDETEXT
350
704E
  3
INDEXCTL
350
DA6D
  3
INTERSECTIONCOLOR
350
7052
  3
INTERSECTIONDISPLAY
350
7051
  3
MSLTSCALE
350
1A6DD
  3
OBSCOLOR
350
704F
  3
OBSLTYPE
350
7050
  3
PROJECTNAME
350
1CF
  3
SORTENTS
350
DA6C
  3
XCLIPFRAME
350
19C7C
1001
ACAD
1000
TREAT_AS_HARD
1070
     0
  0
DICTIONARY
  5
D8
102
{ACAD_REACTORS
330
C
102
}
330
C
100
AcDbDictionary
1001
ACAD
1000
TREAT_AS_HARD
1070
     0
  0
DICTIONARY
  5
20
102
{ACAD_REACTORS
330
C
102
}
330
C
100
AcDbDictionary
1001
DRAWINGVARIABLESXDATA
1000
POLARANG
1000
0.261799387799149410000000
1000
POLARMODE
1000
1
1000
POLARSTYLE
1000
1
1001
ACAD
1000
TREAT_AS_HARD
1070
     0
  0
XRECORD
  5
1B086
102
{ACAD_REACTORS
330
C
102
}
330
C
100
AcDbXrecord
  1
DWGPROPS COOKIE
  2

  3

  4

  6

  7

  8
3684
  9

300
=
301
=
302
=
303
=
304
=
305
=
306
=
307
=
308
=
309
=
 40
0.0
 41
2451318.246352917
 42
2458159.172994317
  1

 90
        0
  0
DICTIONARY
  5
E6A7
102
{ACAD_REACTORS
330
E6A6
102
}
330
E6A6
100
AcDbDictionary
1001
ACAD
1000
TREAT_AS_HARD
1070
     0
  0
ACAD_PROXY_OBJECT
  5
DA06
102
{ACAD_REACTORS
330
DA05
102
}
330
DA05
100
AcDbZombieObject
 90
      499
 91
      514
 93
       34
310
40C8804040
  0
ACAD_PROXY_OBJECT
  5
DA08
102
{ACAD_REACTORS
330
DA07
102
}
330
DA07
100
AcDbZombieObject
 90
      499
 91
      514
 93
       34
310
40C8804040
  0
ACAD_PROXY_OBJECT
  5
DA0A
102
{ACAD_REACTORS
330
DA09
102
}
330
DA09
100
AcDbZombieObject
 90
      499
 91
      514
 93
       34
310
40C8804040
  0
ACAD_PROXY_OBJECT
  5
DA10
102
{ACAD_REACTORS
330
DA0F
102
}
330
DA0F
100
AcDbZombieObject
 90
      499
 91
      514
 93
       34
310
40C8804040
  0
ACAD_PROXY_OBJECT
  5
DA16
102
{ACAD_REACTORS
330
DA15
102
}
330
DA15
100
AcDbZombieObject
 90
      499
 91
      514
 93
       34
310
40C8804040
  0
ACAD_PROXY_OBJECT
  5
DA24
102
{ACAD_REACTORS
330
DA23
102
}
330
DA23
100
AcDbZombieObject
 90
      499
 91
      514
 93
       34
310
40C8804040
  0
SORTENTSTABLE
  5
890
102
{ACAD_REACTORS
330
88F
102
}
330
88F
100
AcDbSortentsTable
330
18
331
0
  5
5BFF
331
1AC76
  5
1AC87
331
1AC77
  5
1AC88
331
1AC78
  5
1AC89
331
1AC79
  5
1AC8A
331
0
  5
1AC90
331
1AC7C
  5
1AC96
331
1AC80
  5
1ACB8
331
1AC81
  5
1ACB9
331
1AC82
  5
1ACBA
331
1AC83
  5
1ACBB
331
1AC84
  5
1ACBC
331
1AC85
  5
1ACBD
331
1AC86
  5
1ACBE
331
1AC87
  5
1ACBF
331
1AC88
  5
1ACC0
331
1AC89
  5
1ACC1
331
1AC8A
  5
1ACC2
331
1AC8B
  5
1ACC3
331
1AC8C
  5
1ACC4
331
1AC8D
  5
1ACC5
331
1AC8E
  5
1ACC6
331
1AC8F
  5
1ACC7
331
1AC90
  5
1ACC8
331
1AC91
  5
1ACC9
331
1AC92
  5
1ACCA
331
1AC93
  5
1ACCB
331
1AC94
  5
1ACCC
331
1AC95
  5
1ACCD
331
1AC96
  5
1ACCE
331
1AC97
  5
1ACCF
331
1AC98
  5
1ACD0
331
1AC99
  5
1ACD1
331
1AC9A
  5
1ACD2
331
1AC9B
  5
1ACD3
331
1AC9C
  5
1ACD4
331
1AC9D
  5
1ACD5
331
1AC9E
  5
1ACD6
331
1AC9F
  5
1ACD7
331
1ACA0
  5
1ACD8
331
1ACA1
  5
1ACD9
331
1ACA2
  5
1ACDA
331
1ACA3
  5
1ACDB
331
1ACA4
  5
1ACDC
331
1ACA5
  5
1ACDD
331
1ACA6
  5
1ACDE
331
1ACA7
  5
1ACDF
331
1ACA8
  5
1ACE0
331
1ACA9
  5
1ACE1
331
1ACAA
  5
1ACE2
331
1ACAB
  5
1ACE3
331
1ACAC
  5
1ACE4
331
1ACAD
  5
1ACE5
331
1ACAE
  5
1ACE6
331
1ACAF
  5
1ACE7
331
1ACB0
  5
1ACE8
331
1ACB1
  5
1ACE9
331
1ACB2
  5
1ACEA
331
1ACB3
  5
1ACEC
331
1ACB4
  5
1ACED
331
1ACB5
  5
1ACEE
331
1ACB6
  5
1ACEF
331
1ACB7
  5
1ACF0
331
1ACB8
  5
1ACF1
331
1ACB9
  5
1ACF2
331
1ACBA
  5
1ACF3
331
1ACBB
  5
1ACF4
331
1ACBC
  5
1ACF5
331
1ACBD
  5
1ACF6
331
1ACBE
  5
1ACF7
331
1ACBF
  5
1ACF8
331
1ACC0
  5
1ACF9
331
1ACC1
  5
1ACFA
331
1ACC2
  5
1ACFB
331
1ACC3
  5
1ACFC
331
1ACC4
  5
1ACFE
331
1ACC5
  5
1ACFF
331
0
  5
1ACFD
331
1ACC7
  5
1AD10
331
1ACC8
  5
1AD11
331
1ACC9
  5
1AD12
331
1ACCA
  5
1AD13
331
1ACCB
  5
1AD14
331
1ACCC
  5
1AD15
331
1ACCD
  5
1AD16
331
1ACCE
  5
1AD17
331
1ACCF
  5
1AD18
331
1ACD0
  5
1AD19
331
1ACD1
  5
1AD1A
331
1ACD2
  5
1AD1B
331
1ACD3
  5
1AD1C
331
1ACD4
  5
1AD1D
331
1ACD5
  5
1AD1E
331
1ACD6
  5
1AD1F
331
1ACD7
  5
1AD20
331
1ACD8
  5
1AD21
331
1ACD9
  5
1AD23
331
1ACDA
  5
1AD24
331
1ACDB
  5
1AD25
331
1ACDC
  5
1AD26
331
1ACDD
  5
1AD27
331
1ACDE
  5
1AD28
331
1ACDF
  5
1AD29
331
1ACE0
  5
1AD2C
331
1ACE1
  5
1AD2D
331
1ACE2
  5
1AD2E
331
1ACE3
  5
1AD2F
331
1ACE4
  5
1AD30
331
1ACE5
  5
1AD31
331
1ACE6
  5
1AD32
331
1ACE7
  5
1AD33
331
1ACE8
  5
1AD34
331
1ACE9
  5
1AD35
331
1ACEA
  5
1AD36
331
1ACEC
  5
1AD42
331
1ACED
  5
1AD43
331
1ACEE
  5
1AD44
331
1ACEF
  5
1AD45
331
1ACF0
  5
1AD46
331
1ACF1
  5
1AD47
331
1ACF2
  5
1AD48
331
1ACF3
  5
1AD49
331
1ACF4
  5
1AD4A
331
1ACF5
  5
1AD4B
331
1ACF6
  5
1AD4C
331
1ACF7
  5
1AD4D
331
1ACF8
  5
1AD4E
331
1ACF9
  5
1AD4F
331
1ACFA
  5
1AD50
331
1ACFB
  5
1AD51
331
1ACFC
  5
1AD52
331
1ACFD
  5
1AD53
331
1ACFE
  5
1AD54
331
1ACFF
  5
1AD55
331
1AD00
  5
1AD59
331
1AD01
  5
1AD5A
331
1AD02
  5
1AD5B
331
1AD03
  5
1AD5F
331
1AD04
  5
1AD60
331
1AD05
  5
1AD61
331
1AD06
  5
1AD62
331
1AD07
  5
1AD63
331
1AD08
  5
1AD64
331
1AD09
  5
1AD65
331
1AD0A
  5
1AD66
331
1AD0B
  5
1AD67
331
1AD0C
  5
1AD68
331
1AD0D
  5
1AD69
331
1AD0E
  5
1AD6A
331
1AD0F
  5
1AD6B
331
1AD10
  5
1AD6C
331
1AD11
  5
1AD6D
331
1AD12
  5
1AD6E
331
1AD13
  5
1AD6F
331
1AD14
  5
1AD70
331
1AD15
  5
1AD71
331
1AD16
  5
1AD72
331
1AD17
  5
1AD73
331
1AD18
  5
1AD74
331
1AD19
  5
1AD75
331
1AD1A
  5
1AD76
331
1AD1B
  5
1AD77
331
1AD1C
  5
1AD78
331
1AD1D
  5
1AD79
331
1AD1E
  5
1AD7A
331
1AD1F
  5
1AD7B
331
1AD20
  5
1AD7C
331
1AD21
  5
1AD7D
331
1AD23
  5
1AD84
331
1AD24
  5
1AD85
331
1AD25
  5
1AD86
331
1AD26
  5
1AD87
331
1AD27
  5
1AD88
331
1AD28
  5
1AD89
331
1AD29
  5
1AD8A
331
0
  5
1AD90
331
1AD2D
  5
1ADAD
331
1AD2E
  5
1ADAE
331
1AD2F
  5
1ADAF
331
1AD30
  5
1ADB0
331
1AD31
  5
1ADB1
331
1AD32
  5
1ADB2
331
1AD33
  5
1ADB3
331
1AD34
  5
1ADB4
331
1AD35
  5
1ADB5
331
1AD36
  5
1ADB6
331
1AD37
  5
1ADB7
331
1AD38
  5
1ADBA
331
1AD39
  5
1ADBB
331
1AD3A
  5
1ADBC
331
1AD3B
  5
1ADBD
331
1AD3C
  5
1ADBE
331
1AD3D
  5
1ADBF
331
1AD3E
  5
1ADC0
331
1AD40
  5
1ADC2
331
1AD41
  5
1ADC3
331
1AD42
  5
1ADC4
331
1AD43
  5
1ADC5
331
1AD44
  5
1ADC6
331
1AD45
  5
1ADC7
331
1AD46
  5
1ADC8
331
1AD47
  5
1ADC9
331
1AD48
  5
1ADCA
331
1AD49
  5
1ADCE
331
1AD4A
  5
1ADCF
331
1AD4B
  5
1ADD0
331
1AD4C
  5
1ADD4
331
1AD4D
  5
1ADD5
331
1AD4E
  5
1ADD6
331
1AD4F
  5
1ADD7
331
1AD50
  5
1ADD8
331
1AD51
  5
1ADD9
331
1AD52
  5
1ADDA
331
1AD53
  5
1AFB5
331
0
  5
1ADB8
331
0
  5
1ADB9
331
1AD56
  5
1AFCE
331
1AD57
  5
1AFCF
331
1AD58
  5
1AFD0
331
1AD59
  5
1AFD1
331
1AD5A
  5
1AFD2
331
1AD5B
  5
1AFD3
331
1AD5C
  5
1AFD4
331
1AD5D
  5
1AFD5
331
1AD5E
  5
1AFD6
331
1AD5F
  5
1AFD7
331
1AD60
  5
1AFD8
331
1AD61
  5
1AFD9
331
1AD62
  5
1AFDA
331
1AD63
  5
1AFDB
331
1AD64
  5
1AFDC
331
1AD65
  5
1AFDD
331
1AD66
  5
1AFDE
331
1AD67
  5
1AFDF
331
1AD68
  5
1AFE0
331
1AD69
  5
1AFE1
331
1AD6A
  5
1AFE2
331
1AD6B
  5
1AFE3
331
1AD6C
  5
1AFE4
331
1AD6D
  5
1AFE5
331
1AD6E
  5
1AFE6
331
1AD6F
  5
1AFE7
331
1AD70
  5
1AFE8
331
1AD71
  5
1AFE9
331
1AD72
  5
1AFEA
331
1AD73
  5
1AFEE
331
1AD74
  5
1AFEF
331
1AD75
  5
1AFF0
331
1AD76
  5
1AFF4
331
1AD77
  5
1AFF5
331
1AD78
  5
1AFF6
331
1AD79
  5
1AFFA
331
1AD7A
  5
1AFFB
331
1AD7B
  5
1AFFC
331
1AD7C
  5
1B000
331
1AD7D
  5
1B001
331
1AD7E
  5
1B002
331
1AD7F
  5
1B003
331
1AD80
  5
1B004
331
1AD81
  5
1B005
331
1AD82
  5
1B006
331
1AD83
  5
1B007
331
1AD84
  5
1B008
331
1AD85
  5
1B009
331
1AD86
  5
1B00A
331
1AD87
  5
1B00B
331
1AD88
  5
1B00C
331
1AD89
  5
1B00D
331
1AD8A
  5
1B00E
331
1AD8B
  5
1B00F
331
0
  5
1AFCA
331
0
  5
1AFCB
331
0
  5
1AFCC
331
0
  5
1AFCD
331
1AD90
  5
1B038
331
1AD91
  5
1B039
331
1AD92
  5
1B03A
331
1AD93
  5
1B03B
331
1AD94
  5
1B03C
331
1AD95
  5
1B03D
331
1AD96
  5
1B03E
331
1AD97
  5
1B03F
331
1AD98
  5
1B040
331
1AD99
  5
1B041
331
1AD9A
  5
1B042
331
1AD9B
  5
1B043
331
1AD9C
  5
1B044
331
1AD9D
  5
1B045
331
1AD9E
  5
1B046
331
1AD9F
  5
1B047
331
1ADA0
  5
1B048
331
1ADA1
  5
1B049
331
1ADA2
  5
1B04A
331
1ADA3
  5
1B04B
331
1ADA4
  5
1B04C
331
1ADA5
  5
1B04D
331
1ADA6
  5
1B04E
331
1ADA7
  5
1B04F
331
1ADA8
  5
1B050
331
1ADA9
  5
1B051
331
1ADAA
  5
1B052
331
1ADAB
  5
1B053
331
1ADAC
  5
1B054
331
1ADAD
  5
1B055
331
1ADAE
  5
1B056
331
1ADAF
  5
1B057
331
1ADB0
  5
1B058
331
1ADB1
  5
1B059
331
1ADB2
  5
1B05A
331
1ADB3
  5
1B05B
331
1ADB4
  5
1B05C
331
1ADB5
  5
1B05D
331
1ADB6
  5
1B05E
331
1ADB7
  5
1B05F
331
1ADB8
  5
1B060
331
1ADB9
  5
1B061
331
1ADBA
  5
1B062
331
1ADBB
  5
1B063
331
1ADBC
  5
1B064
331
1ADBD
  5
1B065
331
1ADBE
  5
1B066
331
1ADBF
  5
1B067
331
1ADC0
  5
1B068
331
1ADC1
  5
1B069
331
1ADC2
  5
1B06A
331
1ADC3
  5
1B06B
331
1ADC4
  5
1B06C
331
1ADC5
  5
1B06D
331
1ADC6
  5
1B06E
331
1ADC7
  5
1B06F
331
1ADC8
  5
1B070
331
1ADC9
  5
1B071
331
1ADCA
  5
1B072
331
1ADCB
  5
1B073
331
1ADCC
  5
1B074
331
1ADCD
  5
1B075
331
1ADCE
  5
1B076
331
1ADCF
  5
1B077
331
1ADD0
  5
1B078
331
1ADD1
  5
1B079
331
1ADD2
  5
1B07A
331
1ADD3
  5
1B07B
331
1ADD4
  5
1B07C
331
1ADD5
  5
1B07D
331
1ADD6
  5
1B07E
331
1ADD7
  5
1B07F
331
1ADD8
  5
1B080
331
1ADD9
  5
1B081
331
1ADDA
  5
1B082
331
1AFB5
  5
1AC76
331
1AFB6
  5
1AC77
331
1AFB7
  5
1AC78
331
0
  5
1AC79
331
0
  5
1AC7B
331
0
  5
1AC7C
331
1AFBB
  5
1AC8E
331
1AFBC
  5
1AC8F
331
1AFBD
  5
1AC9A
331
1AFBE
  5
1AC9B
331
1AFBF
  5
1AC9C
331
0
  5
1AC8B
331
0
  5
1AC8C
331
0
  5
1AC8D
331
1AFC3
  5
1ACA4
331
1AFC4
  5
1ACA5
331
1AFC5
  5
1ACA6
331
0
  5
1AC91
331
0
  5
1AC92
331
0
  5
1AC93
331
1AFC9
  5
1ACAE
331
1AFCA
  5
1ACAF
331
1AFCB
  5
1ACB0
331
0
  5
1AC97
331
0
  5
1AC98
331
0
  5
1AC99
331
1AFCF
  5
1AD37
331
1AFD0
  5
1AD38
331
1AFD1
  5
1AD39
331
0
  5
1AD09
331
0
  5
1AD0A
331
0
  5
1AD0B
331
1AFD5
  5
1AD7E
331
1AFD6
  5
1AD7F
331
1AFD7
  5
1AD80
331
1AFD8
  5
1AD81
331
1AFD9
  5
1AD82
331
1AFDA
  5
1AD83
331
1AFDB
  5
1AD8B
331
1AFDC
  5
1AD8C
331
1AFDD
  5
1AD8D
331
0
  5
1AD56
331
0
  5
1AD57
331
0
  5
1AD58
331
1AFE1
  5
1AD96
331
1AFE2
  5
1AD97
331
1AFE3
  5
1AD98
331
0
  5
1AD5C
331
0
  5
1AD5D
331
0
  5
1AD5E
331
1AFE7
  5
1ADC1
331
1AFE8
  5
1AC80
331
1AFE9
  5
1AC81
331
1AFEA
  5
1AC82
331
1AFEB
  5
1AC83
331
1AFEC
  5
1AC84
331
1AFED
  5
1AC85
331
1AFEE
  5
1AC86
331
1AFEF
  5
1AC9D
331
1AFF0
  5
1AC9E
331
1AFF1
  5
1AC9F
331
1AFF2
  5
1ACA0
331
1AFF3
  5
1ACA1
331
1AFF4
  5
1ACA2
331
1AFF5
  5
1ACA3
331
1AFF6
  5
1ACA7
331
1AFF7
  5
1ACA8
331
1AFF8
  5
1ACA9
331
1AFF9
  5
1ACAA
331
1AFFA
  5
1ACAB
331
1AFFB
  5
1ACAC
331
1AFFC
  5
1ACAD
331
1AFFD
  5
1ACB1
331
1AFFE
  5
1ACB2
331
1AFFF
  5
1ACB3
331
1B000
  5
1ACB4
331
1B001
  5
1ACB5
331
1B002
  5
1ACB6
331
1B003
  5
1ACB7
331
1B004
  5
1AD3A
331
1B005
  5
1AD3B
331
1B006
  5
1AD3C
331
1B007
  5
1AD3D
331
1B008
  5
1AD3E
331
1B009
  5
1AD40
331
1B00A
  5
1AD41
331
1B00B
  5
1AD8E
331
1B00C
  5
1AD8F
331
1B00D
  5
1AD91
331
1B00E
  5
1AD92
331
1B00F
  5
1AD93
331
1B010
  5
1AD94
331
1B011
  5
1AD95
331
1B012
  5
1AD99
331
1B013
  5
1AD9A
331
1B014
  5
1AD9B
331
1B015
  5
1AD9F
331
1B016
  5
1ADA0
331
1B017
  5
1ADA1
331
1B018
  5
1ADA2
331
1B019
  5
1AC94
331
1B01A
  5
1AC95
331
1B01B
  5
1AD00
331
1B01C
  5
1AD01
331
1B01D
  5
1AD02
331
0
  5
1AD03
331
0
  5
1AD04
331
0
  5
1AD05
331
1B021
  5
1ADA3
331
1B022
  5
1ADA4
331
1B023
  5
1ADA5
331
0
  5
1AD9C
331
0
  5
1AD9D
331
0
  5
1AD9E
331
1B027
  5
1AFB6
331
1B028
  5
1AFB7
331
1B029
  5
1AFB8
331
0
  5
1ADCB
331
0
  5
1ADCC
331
0
  5
1ADCD
331
1B02D
  5
1AFC0
331
1B02E
  5
1AFC1
331
1B02F
  5
1AFC2
331
0
  5
1ADD1
331
0
  5
1ADD2
331
0
  5
1ADD3
331
1B033
  5
1B010
331
1B034
  5
1B011
331
1B035
  5
1B012
331
0
  5
1AFEB
331
0
  5
1AFEC
331
0
  5
1AFED
331
1B039
  5
1B01A
331
1B03A
  5
1B01B
331
1B03B
  5
1B01C
331
0
  5
1AFF1
331
0
  5
1AFF2
331
0
  5
1AFF3
331
1B03F
  5
1B024
331
1B040
  5
1B025
331
1B041
  5
1B026
331
0
  5
1AFF7
331
0
  5
1AFF8
331
0
  5
1AFF9
331
1B045
  5
1B02E
331
1B046
  5
1B02F
331
1B047
  5
1B030
331
0
  5
1AFFD
331
0
  5
1AFFE
331
0
  5
1AFFF
331
1B04B
  5
1AD06
331
1B04C
  5
1AD07
331
1B04D
  5
1AD08
331
1B04E
  5
1AD0C
331
1B04F
  5
1AD0D
331
1B050
  5
1AD0E
331
1B051
  5
1AD0F
331
1B052
  5
1ADA6
331
1B053
  5
1ADA7
331
1B054
  5
1ADA8
331
1B055
  5
1ADA9
331
1B056
  5
1ADAA
331
1B057
  5
1ADAB
331
1B058
  5
1ADAC
331
1B059
  5
1AFB9
331
1B05A
  5
1AFBA
331
1B05B
  5
1AFBB
331
1B05C
  5
1AFBC
331
1B05D
  5
1AFBD
331
1B05E
  5
1AFBE
331
1B05F
  5
1AFBF
331
1B060
  5
1AFC3
331
1B061
  5
1AFC4
331
1B062
  5
1AFC5
331
1B063
  5
1AFC6
331
1B064
  5
1AFC7
331
1B065
  5
1AFC8
331
1B066
  5
1AFC9
331
1B067
  5
1B013
331
1B068
  5
1B014
331
1B069
  5
1B015
331
1B06A
  5
1B016
331
1B06B
  5
1B017
331
1B06C
  5
1B018
331
1B06D
  5
1B019
331
1B06E
  5
1B01D
331
1B06F
  5
1B01E
331
1B070
  5
1B01F
331
1B071
  5
1B020
331
1B072
  5
1B021
331
1B073
  5
1B022
331
1B074
  5
1B023
331
1B075
  5
1B027
331
1B076
  5
1B028
331
1B077
  5
1B029
331
1B078
  5
1B02A
331
1B079
  5
1B02B
331
1B07A
  5
1B02C
331
1B07B
  5
1B02D
331
1B07C
  5
1B031
331
1B07D
  5
1B032
331
1B07E
  5
1B033
331
1B07F
  5
1B034
331
1B080
  5
1B035
331
1B081
  5
1B036
331
1B082
  5
1B037
  0
MATERIAL
  5
D9A4
102
{ACAD_REACTORS
330
18C
102
}
102
{ACAD_XDICTIONARY
360
1B221
102
}
330
18C
100
AcDbMaterial
  1
BYBLOCK
 72
     0
 73
     2
 43
0.0208333333333333
 43
0.0
 43
0.0
 43
0.0
 43
0.0
 43
0.0208333333333333
 43
0.0
 43
0.0
 43
0.0
 43
0.0
 43
1.0
 43
0.0
 43
0.0
 43
0.0
 43
0.0
 43
1.0
 77
     0
 78
     2
 47
0.0208333333333333
 47
0.0
 47
0.0
 47
0.0
 47
0.0
 47
0.0208333333333333
 47
0.0
 47
0.0
 47
0.0
 47
0.0
 47
1.0
 47
0.0
 47
0.0
 47
0.0
 47
0.0
 47
1.0
171
     0
172
     2
 49
0.0208333333333333
 49
0.0
 49
0.0
 49
0.0
 49
0.0
 49
0.0208333333333333
 49
0.0
 49
0.0
 49
0.0
 49
0.0
 49
1.0
 49
0.0
 49
0.0
 49
0.0
 49
0.0
 49
1.0
175
     0
176
     2
142
0.0208333333333333
142
0.0
142
0.0
142
0.0
142
0.0
142
0.0208333333333333
142
0.0
142
0.0
142
0.0
142
0.0
142
1.0
142
0.0
142
0.0
142
0.0
142
0.0
142
1.0
179
     0
270
     2
144
0.0208333333333333
144
0.0
144
0.0
144
0.0
144
0.0
144
0.0208333333333333
144
0.0
144
0.0
144
0.0
144
0.0
144
1.0
144
0.0
144
0.0
144
0.0
144
0.0
144
1.0
274
     2
147
0.0208333333333333
147
0.0
147
0.0
147
0.0
147
0.0
147
0.0208333333333333
147
0.0
147
0.0
147
0.0
147
0.0
147
1.0
147
0.0
147
0.0
147
0.0
147
0.0
147
1.0
  0
MATERIAL
  5
D99C
102
{ACAD_REACTORS
330
18C
102
}
102
{ACAD_XDICTIONARY
360
1B223
102
}
330
18C
100
AcDbMaterial
  1
BYLAYER
 72
     0
 73
     2
 43
0.0208333333333333
 43
0.0
 43
0.0
 43
0.0
 43
0.0
 43
0.0208333333333333
 43
0.0
 43
0.0
 43
0.0
 43
0.0
 43
1.0
 43
0.0
 43
0.0
 43
0.0
 43
0.0
 43
1.0
 77
     0
 78
     2
 47
0.0208333333333333
 47
0.0
 47
0.0
 47
0.0
 47
0.0
 47
0.0208333333333333
 47
0.0
 47
0.0
 47
0.0
 47
0.0
 47
1.0
 47
0.0
 47
0.0
 47
0.0
 47
0.0
 47
1.0
171
     0
172
     2
 49
0.0208333333333333
 49
0.0
 49
0.0
 49
0.0
 49
0.0
 49
0.0208333333333333
 49
0.0
 49
0.0
 49
0.0
 49
0.0
 49
1.0
 49
0.0
 49
0.0
 49
0.0
 49
0.0
 49
1.0
175
     0
176
     2
142
0.0208333333333333
142
0.0
142
0.0
142
0.0
142
0.0
142
0.0208333333333333
142
0.0
142
0.0
142
0.0
142
0.0
142
1.0
142
0.0
142
0.0
142
0.0
142
0.0
142
1.0
179
     0
270
     2
144
0.0208333333333333
144
0.0
144
0.0
144
0.0
144
0.0
144
0.0208333333333333
144
0.0
144
0.0
144
0.0
144
0.0
144
1.0
144
0.0
144
0.0
144
0.0
144
0.0
144
1.0
274
     2
147
0.0208333333333333
147
0.0
147
0.0
147
0.0
147
0.0
147
0.0208333333333333
147
0.0
147
0.0
147
0.0
147
0.0
147
1.0
147
0.0
147
0.0
147
0.0
147
0.0
147
1.0
  0
MATERIAL
  5
D9AC
102
{ACAD_REACTORS
330
18C
102
}
102
{ACAD_XDICTIONARY
360
1B225
102
}
330
18C
100
AcDbMaterial
  1
GLOBAL
 72
     0
 73
     2
 43
0.0208333333333333
 43
0.0
 43
0.0
 43
0.0
 43
0.0
 43
0.0208333333333333
 43
0.0
 43
0.0
 43
0.0
 43
0.0
 43
1.0
 43
0.0
 43
0.0
 43
0.0
 43
0.0
 43
1.0
 77
     0
 78
     2
 47
0.0208333333333333
 47
0.0
 47
0.0
 47
0.0
 47
0.0
 47
0.0208333333333333
 47
0.0
 47
0.0
 47
0.0
 47
0.0
 47
1.0
 47
0.0
 47
0.0
 47
0.0
 47
0.0
 47
1.0
171
     0
172
     2
 49
0.0208333333333333
 49
0.0
 49
0.0
 49
0.0
 49
0.0
 49
0.0208333333333333
 49
0.0
 49
0.0
 49
0.0
 49
0.0
 49
1.0
 49
0.0
 49
0.0
 49
0.0
 49
0.0
 49
1.0
175
     0
176
     2
142
0.0208333333333333
142
0.0
142
0.0
142
0.0
142
0.0
142
0.0208333333333333
142
0.0
142
0.0
142
0.0
142
0.0
142
1.0
142
0.0
142
0.0
142
0.0
142
0.0
142
1.0
179
     0
270
     2
144
0.0208333333333333
144
0.0
144
0.0
144
0.0
144
0.0
144
0.0208333333333333
144
0.0
144
0.0
144
0.0
144
0.0
144
1.0
144
0.0
144
0.0
144
0.0
144
0.0
144
1.0
274
     2
147
0.0208333333333333
147
0.0
147
0.0
147
0.0
147
0.0
147
0.0208333333333333
147
0.0
147
0.0
147
0.0
147
0.0
147
1.0
147
0.0
147
0.0
147
0.0
147
0.0
147
1.0
  0
ACAD_PROXY_OBJECT
  5
D9E8
102
{ACAD_REACTORS
330
D9E7
102
}
330
D9E7
100
AcDbZombieObject
 90
      499
 91
      511
 93
      610
310
40901902A4063FBFFFFFE000000000000002040AD7A3703D0AD73F4214DD185B99185C990000000000000104090141901A00000000000004100000000000000041025764000000000000300FC0
340
12
340
0
340
F
340
0
 94
        0
1001
ACAD_MLEADERVER
1070
     2
  0
MLINESTYLE
  5
1C
102
{ACAD_REACTORS
330
1B
102
}
330
1B
100
AcDbMlineStyle
  2
STANDARD
 70
     0
  3

 62
   256
 51
90.0
 52
90.0
 71
     2
 49
0.5
 62
   256
  6
BYLAYER
 49
-0.5
 62
   256
  6
BYLAYER
  0
ACAD_PROXY_OBJECT
  5
D9C6
102
{ACAD_REACTORS
330
D9C5
102
}
330
D9C5
100
AcDbZombieObject
 90
      499
 91
      510
 93
       41
310
903313A31580
  0
ACAD_PROXY_OBJECT
  5
D9C7
102
{ACAD_REACTORS
330
D9C5
102
}
330
D9C5
100
AcDbZombieObject
 90
      499
 91
      510
 93
      105
310
903313A324000000000000004000
  0
ACAD_PROXY_OBJECT
  5
D9C8
102
{ACAD_REACTORS
330
D9C5
102
}
330
D9C5
100
AcDbZombieObject
 90
      499
 91
      510
 93
      105
310
903313A344000000000000104000
  0
ACAD_PROXY_OBJECT
  5
D9C9
102
{ACAD_REACTORS
330
D9C5
102
}
330
D9C5
100
AcDbZombieObject
 90
      499
 91
      510
 93
      105
310
903313A354000000000000144000
  0
ACAD_PROXY_OBJECT
  5
D9CA
102
{ACAD_REACTORS
330
D9C5
102
}
330
D9C5
100
AcDbZombieObject
 90
      499
 91
      510
 93
      105
310
903313A384000000000000204000
  0
ACAD_PROXY_OBJECT
  5
D9CB
102
{ACAD_REACTORS
330
D9C5
102
}
330
D9C5
100
AcDbZombieObject
 90
      499
 91
      510
 93
      113
310
904313A31304000000000000244000
  0
ACAD_PROXY_OBJECT
  5
D9CC
102
{ACAD_REACTORS
330
D9C5
102
}
330
D9C5
100
AcDbZombieObject
 90
      499
 91
      510
 93
      113
310
904313A31364000000000000304000
  0
ACAD_PROXY_OBJECT
  5
D9CD
102
{ACAD_REACTORS
330
D9C5
102
}
330
D9C5
100
AcDbZombieObject
 90
      499
 91
      510
 93
      113
310
904313A32304000000000000344000
  0
ACAD_PROXY_OBJECT
  5
D9CE
102
{ACAD_REACTORS
330
D9C5
102
}
330
D9C5
100
AcDbZombieObject
 90
      499
 91
      510
 93
      113
310
904313A333040000000000003E4000
  0
ACAD_PROXY_OBJECT
  5
D9CF
102
{ACAD_REACTORS
330
D9C5
102
}
330
D9C5
100
AcDbZombieObject
 90
      499
 91
      510
 93
      113
310
904313A34304000000000000444000
  0
ACAD_PROXY_OBJECT
  5
D9D0
102
{ACAD_REACTORS
330
D9C5
102
}
330
D9C5
100
AcDbZombieObject
 90
      499
 91
      510
 93
      113
310
904313A35304000000000000494000
  0
ACAD_PROXY_OBJECT
  5
D9D1
102
{ACAD_REACTORS
330
D9C5
102
}
330
D9C5
100
AcDbZombieObject
 90
      499
 91
      510
 93
      121
310
905313A3130304000000000000594000
  0
ACAD_PROXY_OBJECT
  5
D9D2
102
{ACAD_REACTORS
330
D9C5
102
}
330
D9C5
100
AcDbZombieObject
 90
      499
 91
      510
 93
      105
310
903323A310000000000000010100
  0
ACAD_PROXY_OBJECT
  5
D9D3
102
{ACAD_REACTORS
330
D9C5
102
}
330
D9C5
100
AcDbZombieObject
 90
      499
 91
      510
 93
      105
310
903343A310000000000000410100
  0
ACAD_PROXY_OBJECT
  5
D9D4
102
{ACAD_REACTORS
330
D9C5
102
}
330
D9C5
100
AcDbZombieObject
 90
      499
 91
      510
 93
      105
310
903383A310000000000000810100
  0
ACAD_PROXY_OBJECT
  5
D9D5
102
{ACAD_REACTORS
330
D9C5
102
}
330
D9C5
100
AcDbZombieObject
 90
      499
 91
      510
 93
      113
310
90431303A310000000000000910100
  0
ACAD_PROXY_OBJECT
  5
D9D6
102
{ACAD_REACTORS
330
D9C5
102
}
330
D9C5
100
AcDbZombieObject
 90
      499
 91
      510
 93
      121
310
9053130303A310000000000001650100
  0
ACAD_PROXY_OBJECT
  5
D9D7
102
{ACAD_REACTORS
330
D9C5
102
}
330
D9C5
100
AcDbZombieObject
 90
      499
 91
      510
 93
      257
310
90E312F31323822203D2031272D3022000000000000200FC000000000000284000
  0
ACAD_PROXY_OBJECT
  5
D9D8
102
{ACAD_REACTORS
330
D9C5
102
}
330
D9C5
100
AcDbZombieObject
 90
      499
 91
      510
 93
      249
310
90D312F363422203D2031272D3022000000000000240FC000000000000284000
  0
ACAD_PROXY_OBJECT
  5
D9D9
102
{ACAD_REACTORS
330
D9C5
102
}
330
D9C5
100
AcDbZombieObject
 90
      499
 91
      510
 93
      249
310
90D312F333222203D2031272D3022000000000000280FC000000000000284000
  0
ACAD_PROXY_OBJECT
  5
D9DA
102
{ACAD_REACTORS
330
D9C5
102
}
330
D9C5
100
AcDbZombieObject
 90
      499
 91
      510
 93
      249
310
90D312F313622203D2031272D30220000000000002C0FC000000000000284000
  0
ACAD_PROXY_OBJECT
  5
D9DB
102
{ACAD_REACTORS
330
D9C5
102
}
330
D9C5
100
AcDbZombieObject
 90
      499
 91
      510
 93
      249
310
90D332F333222203D2031272D30220000000000002E0FC000000000000284000
  0
ACAD_PROXY_OBJECT
  5
D9DC
102
{ACAD_REACTORS
330
D9C5
102
}
330
D9C5
100
AcDbZombieObject
 90
      499
 91
      510
 93
      241
310
90C312F3822203D2031272D3022000000000000300FC000000000000284000
  0
ACAD_PROXY_OBJECT
  5
D9DD
102
{ACAD_REACTORS
330
D9C5
102
}
330
D9C5
100
AcDbZombieObject
 90
      499
 91
      510
 93
      249
310
90D332F313622203D2031272D3022000000000000320FC000000000000284000
  0
ACAD_PROXY_OBJECT
  5
D9DE
102
{ACAD_REACTORS
330
D9C5
102
}
330
D9C5
100
AcDbZombieObject
 90
      499
 91
      510
 93
      241
310
90C312F3422203D2031272D3022000000000000340FC000000000000284000
  0
ACAD_PROXY_OBJECT
  5
D9DF
102
{ACAD_REACTORS
330
D9C5
102
}
330
D9C5
100
AcDbZombieObject
 90
      499
 91
      510
 93
      241
310
90C332F3822203D2031272D3022000000000000360FC000000000000284000
  0
ACAD_PROXY_OBJECT
  5
D9E0
102
{ACAD_REACTORS
330
D9C5
102
}
330
D9C5
100
AcDbZombieObject
 90
      499
 91
      510
 93
      241
310
90C312F3222203D2031272D3022000000000000380FC000000000000284000
  0
ACAD_PROXY_OBJECT
  5
D9E1
102
{ACAD_REACTORS
330
D9C5
102
}
330
D9C5
100
AcDbZombieObject
 90
      499
 91
      510
 93
      241
310
90C332F3422203D2031272D30220000000000003A0FC000000000000284000
  0
ACAD_PROXY_OBJECT
  5
D9E2
102
{ACAD_REACTORS
330
D9C5
102
}
330
D9C5
100
AcDbZombieObject
 90
      499
 91
      510
 93
      161
310
90A3122203D2031272D30224000000000000284000
  0
ACAD_PROXY_OBJECT
  5
D9E3
102
{ACAD_REACTORS
330
D9C5
102
}
330
D9C5
100
AcDbZombieObject
 90
      499
 91
      510
 93
      257
310
90E312D312F3222203D2031272D30220000000000003E0FC000000000000284000
  0
ACAD_PROXY_OBJECT
  5
D9E4
102
{ACAD_REACTORS
330
D9C5
102
}
330
D9C5
100
AcDbZombieObject
 90
      499
 91
      510
 93
      225
310
90A3322203D2031272D302200000000000002100000000000000284000
  0
ACAD_PROXY_OBJECT
  5
D9E5
102
{ACAD_REACTORS
330
D9C5
102
}
330
D9C5
100
AcDbZombieObject
 90
      499
 91
      510
 93
      225
310
90A3622203D2031272D302200000000000006100000000000000284000
  0
ACAD_PROXY_OBJECT
  5
D9E6
102
{ACAD_REACTORS
330
D9C5
102
}
330
D9C5
100
AcDbZombieObject
 90
      499
 91
      510
 93
      249
310
90D31272D3022203D2031272D30220000000000000A100000000000000284000
  0
ACAD_PROXY_OBJECT
  5
D9BA
102
{ACAD_REACTORS
330
D9B4
102
}
330
D9B4
100
AcDbZombieObject
 90
      499
 91
      509
 93
      436
310
42CC9915DA5C99599C985B595049028333333333333E3BF0000000000000FB0107901411070040501600405405064090741402480A0340
1001
ACAD
1000
AcDbSavedByObjectVersion
1070
     0
  0
ACAD_PROXY_OBJECT
  5
D9BC
102
{ACAD_REACTORS
330
D9B4
102
}
330
D9B4
100
AcDbZombieObject
 90
      499
 91
      509
 93
      500
310
424CD108121A5919195B90640502408333333333333E3BF0000000000000FB01079024090700405020000000000001110200405405064090740C02480A0340
1001
ACAD
1000
AcDbSavedByObjectVersion
1070
     0
  0
ACAD_PROXY_OBJECT
  5
D9BB
102
{ACAD_REACTORS
330
D9B4
102
}
330
D9B4
100
AcDbZombieObject
 90
      499
 91
      509
 93
      436
310
42CCD915DA5C99599C985B595059028333333333333E3BF0000000000000FB0107901411070040501600405405064090741402480A0340
1001
ACAD
1000
AcDbSavedByObjectVersion
1070
     0
  0
ACAD_PROXY_OBJECT
  5
D9B9
102
{ACAD_REACTORS
330
D9B4
102
}
330
D9B4
100
AcDbZombieObject
 90
      499
 91
      509
 93
      388
310
4150985CDA58D07406404333333333333E3BF0000000000000FB0107A41107004050150841D405064090741402480A0350
1001
ACAD
1000
AcDbSavedByObjectVersion
1070
     0
  0
ACAD_PROXY_OBJECT
  5
D9C0
102
{ACAD_REACTORS
330
D9B4
102
}
330
D9B4
100
AcDbZombieObject
 90
      499
 91
      509
 93
      428
310
42109C9A59DA1D195B90C409028333333333333E3BF0000000000000FB010790141107004050150841D405064090741402480A029950
1001
ACAD
1000
AcDbSavedByObjectVersion
1070
     0
  0
ACAD_PROXY_OBJECT
  5
D9C4
102
{ACAD_REACTORS
330
D9B4
102
}
330
D9B4
100
AcDbZombieObject
 90
      499
 91
      509
 93
      452
310
42D0DBDB1BDC90DA185B99D95104090240C333333333333E3BF0000000000000FB0108901411070040501508421405064090741402480A0350
1001
ACAD
1000
AcDbSavedByObjectVersion
1070
     0
  0
ACAD_PROXY_OBJECT
  5
D9BD
102
{ACAD_REACTORS
330
D9B4
102
}
330
D9B4
100
AcDbZombieObject
 90
      499
 91
      509
 93
      500
310
4290DBDB98D95C1D1D585B10940D028333333333333E3BF0000000000000FB0107902409070040501000000000000111010841D405064090740C02480A0340
1001
ACAD
1000
AcDbSavedByObjectVersion
1070
     0
  0
ACAD_PROXY_OBJECT
  5
D9BF
102
{ACAD_REACTORS
330
D9B4
102
}
330
D9B4
100
AcDbZombieObject
 90
      499
 91
      509
 93
      412
310
40D11A5B50B409028333333333333E3BF0000000000000FB010790141107004050150841D405064090741402480A02677FFFFFD0
1001
ACAD
1000
AcDbSavedByObjectVersion
1070
     0
  0
ACAD_PROXY_OBJECT
  5
19C2F
102
{ACAD_REACTORS
330
D9B4
102
}
330
D9B4
100
AcDbZombieObject
 90
      499
 91
      509
 93
      452
310
43115919D950DBDB1BDC93D999916409028333333333333E3BF0000000000000FB010790141107004050150841D405064090741402480A0350
1001
ACAD
1000
AcDbSavedByObjectVersion
1070
     0
  0
ACAD_PROXY_OBJECT
  5
D9C3
102
{ACAD_REACTORS
330
D9B4
102
}
330
D9B4
100
AcDbZombieObject
 90
      499
 91
      509
 93
      444
310
42D19858D95C185D1D195C9B90F409028333333333333E3BF0000000000000FB010790141107004050150841D405064090741402480A0350
1001
ACAD
1000
AcDbSavedByObjectVersion
1070
     0
  0
ACAD_PROXY_OBJECT
  5
D9B5
102
{ACAD_REACTORS
330
D9B4
102
}
330
D9B4
100
AcDbZombieObject
 90
      499
 91
      509
 93
      388
310
41119B185D240901404333333333333E3BF0000000000000F9010740A41107004050150841D405064090741402480A1B50
1001
ACAD
1000
AcDbSavedByObjectVersion
1070
     0
  0
ACAD_PROXY_OBJECT
  5
D9B6
102
{ACAD_REACTORS
330
D9B4
102
}
330
D9B4
100
AcDbZombieObject
 90
      499
 91
      509
 93
      476
310
43519B185D15DA5D1A115919D95CD0140901404333333333333E3BF0000000000000F9010740901411070040501600405405064090741402480A1B50
1001
ACAD
1000
AcDbSavedByObjectVersion
1070
     0
  0
ACAD_PROXY_OBJECT
  5
D9B7
102
{ACAD_REACTORS
330
D9B4
102
}
330
D9B4
100
AcDbZombieObject
 90
      499
 91
      509
 93
      412
310
41D1DBDD5C985D5910240902404333333333333E3BF0000000000000F9010740A411070040501641D405064090741402480A1B50
1001
ACAD
1000
AcDbSavedByObjectVersion
1070
     0
  0
ACAD_PROXY_OBJECT
  5
D9B8
102
{ACAD_REACTORS
330
D9B4
102
}
330
D9B4
100
AcDbZombieObject
 90
      499
 91
      509
 93
      500
310
4411DBDD5C985D5915DA5D1A115919D95CD0340902404333333333333E3BF0000000000000F9010740901411070040501600405405064090741402480A1B50
1001
ACAD
1000
AcDbSavedByObjectVersion
1070
     0
  0
ACAD_PROXY_OBJECT
  5
19C7E
102
{ACAD_REACTORS
330
D9B4
102
}
330
D9B4
100
AcDbZombieObject
 90
      499
 91
      509
 93
      476
310
41921A5919195B90640502408333333333333E33F0000000000000F901079024090700405020000000000001110200405405064090740C02480A0340
1001
ACAD
1000
AcDbSavedByObjectVersion
1070
     0
  0
ACAD_PROXY_OBJECT
  5
19C2D
102
{ACAD_REACTORS
330
D9B4
102
}
330
D9B4
100
AcDbZombieObject
 90
      499
 91
      509
 93
      428
310
42529A5D1D195C93D999914409028333333333333E3BF0000000000000FB010790141107004050150A41D405064090741402480A0350
1001
ACAD
1000
AcDbSavedByObjectVersion
1070
     0
  0
ACAD_PROXY_OBJECT
  5
D9C2
102
{ACAD_REACTORS
330
D9B4
102
}
330
D9B4
100
AcDbZombieObject
 90
      499
 91
      509
 93
      444
310
42D31A5B995C185D1D195C9B90E409028333333333333E3BF0000000000000FB010790141107004050750841D405064090741402483A0350
1001
ACAD
1000
AcDbSavedByObjectVersion
1070
     0
  0
ACAD_PROXY_OBJECT
  5
19C84
102
{ACAD_REACTORS
330
D9B4
102
}
330
D9B4
100
AcDbZombieObject
 90
      499
 91
      509
 93
      484
310
42135BD9195B1A5B99D0A409038333333333333E33F0000000000000F901074090290700405010000000000201990108421405064090741402480A1B40
1001
ACAD
1000
AcDbSavedByObjectVersion
1070
     0
  0
ACAD_PROXY_OBJECT
  5
19C2E
102
{ACAD_REACTORS
330
D9B4
102
}
330
D9B4
100
AcDbZombieObject
 90
      499
 91
      509
 93
      444
310
42D3DD995C9A185B99D3D999915409028333333333333E3BF0000000000000FB010790141107004050150941D405064090741402480A0350
1001
ACAD
1000
AcDbSavedByObjectVersion
1070
     0
  0
ACAD_PROXY_OBJECT
  5
D9BE
102
{ACAD_REACTORS
330
D9B4
102
}
330
D9B4
100
AcDbZombieObject
 90
      499
 91
      509
 93
      420
310
425499585B1A5CDD1A58D08409028333333333333E3BF0000000000000FB01079019070040501508421405064090741402480A1B40
1001
ACAD
1000
AcDbSavedByObjectVersion
1070
     0
  0
ACAD_PROXY_OBJECT
  5
19C83
102
{ACAD_REACTORS
330
D9B4
102
}
330
D9B4
100
AcDbZombieObject
 90
      499
 91
      509
 93
      420
310
4194DA1859195911B40902404333333333333E33F0000000000000F9010740A41107004050150800405405064090840C02480A0B40
1001
ACAD
1000
AcDbSavedByObjectVersion
1070
     0
  0
ACAD_PROXY_OBJECT
  5
19C82
102
{ACAD_REACTORS
330
D9B4
102
}
330
D9B4
100
AcDbZombieObject
 90
      499
 91
      509
 93
      516
310
4454DA18591959081DDA5D1A08195919D95CD1A40902404333333333333E33F0000000000000F901074090142907004050250800405405064090740C02480A0B40
1001
ACAD
1000
AcDbSavedByObjectVersion
1070
     0
  0
ACAD_PROXY_OBJECT
  5
19C7F
102
{ACAD_REACTORS
330
D9B4
102
}
330
D9B4
100
AcDbZombieObject
 90
      499
 91
      509
 93
      532
310
4394DA1859195CC81BD98811DC985E5174090240C333333333333E33F0000000000000F901079024090741D01000000000000111010841D405064090740C02480A0340
1001
ACAD
1000
AcDbSavedByObjectVersion
1070
     0
  0
ACAD_PROXY_OBJECT
  5
19C80
102
{ACAD_REACTORS
330
D9B4
102
}
330
D9B4
100
AcDbZombieObject
 90
      499
 91
      509
 93
      476
310
41D4DAD95D18DA1E51840502408333333333333E33F0000000000000F901079024090741D01000000000000111010B41D405064090741802480A0340
1001
ACAD
1000
AcDbSavedByObjectVersion
1070
     0
  0
ACAD_PROXY_OBJECT
  5
D9C1
102
{ACAD_REACTORS
330
D9B4
102
}
330
D9B4
100
AcDbZombieObject
 90
      499
 91
      509
 93
      412
310
41D51A1A58DAD95B90D409028333333333333E3BF0000000000000FB010790141107004050150C41D405064090741402480A0350
1001
ACAD
1000
AcDbSavedByObjectVersion
1070
     0
  0
ACAD_PROXY_OBJECT
  5
19C7D
102
{ACAD_REACTORS
330
D9B4
102
}
330
D9B4
100
AcDbZombieObject
 90
      499
 91
      509
 93
      420
310
4255DA5C99599C985B595059028333333333333E33F0000000000000F90107901411070040501600405405064090740C02480A0340
1001
ACAD
1000
AcDbSavedByObjectVersion
1070
     0
  0
ACAD_PROXY_OBJECT
  5
19C81
102
{ACAD_REACTORS
330
D9B4
102
}
330
D9B4
100
AcDbZombieObject
 90
      499
 91
      509
 93
      404
310
41560B54985E51940902404000000000000E03F0000000000000F9010740501907004050150841D405064090740C02480A1B40
1001
ACAD
1000
AcDbSavedByObjectVersion
1070
     0
  0
XRECORD
  5
1B084
102
{ACAD_REACTORS
330
1B083
102
}
330
1B083
100
AcDbXrecord
340
18D
  0
XRECORD
  5
1B085
102
{ACAD_REACTORS
330
1B083
102
}
330
1B083
100
AcDbXrecord
340
18C
  0
DICTIONARYVAR
  5
1A68D
102
{ACAD_REACTORS
330
37
102
}
330
37
100
DictionaryVariables
280
     0
  1
1:1
  0
DICTIONARYVAR
  5
DA6A
102
{ACAD_REACTORS
330
37
102
}
330
37
100
DictionaryVariables
280
     0
  1
Standard
  0
DICTIONARYVAR
  5
29E
102
{ACAD_REACTORS
330
37
102
}
330
37
100
DictionaryVariables
280
     0
  1
Standard
  0
DICTIONARYVAR
  5
38
102
{ACAD_REACTORS
330
37
102
}
330
37
100
DictionaryVariables
280
     0
  1
-1
  0
DICTIONARYVAR
  5
1CE
102
{ACAD_REACTORS
330
37
102
}
330
37
100
DictionaryVariables
280
     0
  1
2
  0
DICTIONARYVAR
  5
704E
102
{ACAD_REACTORS
330
37
102
}
330
37
100
DictionaryVariables
280
     0
  1
1
  0
DICTIONARYVAR
  5
DA6D
102
{ACAD_REACTORS
330
37
102
}
330
37
100
DictionaryVariables
280
     0
  1
0
  0
DICTIONARYVAR
  5
7052
102
{ACAD_REACTORS
330
37
102
}
330
37
100
DictionaryVariables
280
     0
  1
8
  0
DICTIONARYVAR
  5
7051
102
{ACAD_REACTORS
330
37
102
}
330
37
100
DictionaryVariables
280
     0
  1
1
  0
DICTIONARYVAR
  5
1A6DD
102
{ACAD_REACTORS
330
37
102
}
330
37
100
DictionaryVariables
280
     0
  1
0
  0
DICTIONARYVAR
  5
704F
102
{ACAD_REACTORS
330
37
102
}
330
37
100
DictionaryVariables
280
     0
  1
8
  0
DICTIONARYVAR
  5
7050
102
{ACAD_REACTORS
330
37
102
}
330
37
100
DictionaryVariables
280
     0
  1
2
  0
DICTIONARYVAR
  5
1CF
102
{ACAD_REACTORS
330
37
102
}
330
37
100
DictionaryVariables
280
     0
  1

  0
DICTIONARYVAR
  5
DA6C
102
{ACAD_REACTORS
330
37
102
}
330
37
100
DictionaryVariables
280
     0
  1
127
  0
DICTIONARYVAR
  5
19C7C
102
{ACAD_REACTORS
330
37
102
}
330
37
100
DictionaryVariables
280
     0
  1
2
  0
DICTIONARY
  5
1B221
330
D9A4
100
AcDbDictionary
  3
ACAD_XREC_ROUNDTRIP
360
1B222
1001
ACAD
1000
TREAT_AS_HARD
1070
     1
  0
DICTIONARY
  5
1B223
330
D99C
100
AcDbDictionary
  3
ACAD_XREC_ROUNDTRIP
360
1B224
1001
ACAD
1000
TREAT_AS_HARD
1070
     1
  0
DICTIONARY
  5
1B225
330
D9AC
100
AcDbDictionary
  3
ACAD_XREC_ROUNDTRIP
360
1B226
1001
ACAD
1000
TREAT_AS_HARD
1070
     1
  0
XRECORD
  5
1B222
102
{ACAD_REACTORS
330
1B221
102
}
330
1B221
100
AcDbXrecord
102
MATERIAL
148
0.0
149
0.0
149
0.0
 93
        0
 94
      127
282
     0
 72
     0
 77
     0
171
     0
175
     0
179
     0
273
     0
  0
XRECORD
  5
1B224
102
{ACAD_REACTORS
330
1B223
102
}
330
1B223
100
AcDbXrecord
102
MATERIAL
148
0.0
149
0.0
149
0.0
 93
        0
 94
      127
282
     0
 72
     0
 77
     0
171
     0
175
     0
179
     0
273
     0
  0
XRECORD
  5
1B226
102
{ACAD_REACTORS
330
1B225
102
}
330
1B225
100
AcDbXrecord
102
MATERIAL
148
0.0
149
0.0
149
0.0
 93
        0
 94
      127
282
     0
 72
     0
 77
     0
171
     0
175
     0
179
     0
273
     0
  0
ENDSEC
  0
EOF
