  0
SECTION
  2
HEADER
  9
$ACADVER
  1
AC1009
  9
$INSBASE
 10
0.0
 20
0.0
 30
0.0
  9
$EXTMIN
 10
-471.96973301402642
 20
-5458.4862964329204
 30
0.0
  9
$EXTMAX
 10
149.1851876864244
 20
-4993.492869508902
 30
0.0
  9
$LIMMIN
 10
0.0
 20
0.0
  9
$LIMMAX
 10
420.0
 20
297.0
  9
$ORTHOMODE
 70
     0
  9
$REGENMODE
 70
     1
  9
$FILLMODE
 70
     1
  9
$QTEXTMODE
 70
     0
  9
$MIRRTEXT
 70
     0
  9
$DRAGMODE
 70
     2
  9
$LTSCALE
 40
0.5
  9
$OSMODE
 70
    63
  9
$ATTMODE
 70
     1
  9
$TEXTSIZE
 40
4.0
  9
$TRACEWID
 40
1.0
  9
$TEXTSTYLE
  7
STANDARD
  9
$CLAYER
  8
1TEXT
  9
$CELTYPE
  6
BYLAYER
  9
$CECOLOR
 62
   256
  9
$DIMSCALE
 40
1.0
  9
$DIMASZ
 40
2.0
  9
$DIMEXO
 40
0.0
  9
$DIMDLI
 40
7.0
  9
$DIMRND
 40
0.0
  9
$DIMDLE
 40
0.0
  9
$DIMEXE
 40
1.0
  9
$DIMTP
 40
0.0
  9
$DIMTM
 40
0.0
  9
$DIMTXT
 40
3.5
  9
$DIMCEN
 40
0.0
  9
$DIMTSZ
 40
0.0
  9
$DIMTOL
 70
     0
  9
$DIMLIM
 70
     0
  9
$DIMTIH
 70
     0
  9
$DIMTOH
 70
     0
  9
$DIMSE1
 70
     0
  9
$DIMSE2
 70
     0
  9
$DIMTAD
 70
     1
  9
$DIMZIN
 70
     8
  9
$DIMBLK
  1

  9
$DIMASO
 70
     1
  9
$DIMSHO
 70
     1
  9
$DIMPOST
  1
 
  9
$DIMAPOST
  1

  9
$DIMALT
 70
     0
  9
$DIMALTD
 70
     2
  9
$DIMALTF
 40
25.399999999999999
  9
$DIMLFAC
 40
1.0
  9
$DIMTOFL
 70
     1
  9
$DIMTVP
 40
0.0
  9
$DIMTIX
 70
     0
  9
$DIMSOXD
 70
     0
  9
$DIMSAH
 70
     1
  9
$DIMBLK1
  1
OPEN30
  9
$DIMBLK2
  1
OPEN30
  9
$DIMSTYLE
  2
NEWX10
  9
$DIMCLRD
 70
   256
  9
$DIMCLRE
 70
   256
  9
$DIMCLRT
 70
   201
  9
$DIMTFAC
 40
0.7
  9
$DIMGAP
 40
0.7
  9
$LUNITS
 70
     2
  9
$LUPREC
 70
     4
  9
$SKETCHINC
 40
1.0
  9
$FILLETRAD
 40
0.0
  9
$AUNITS
 70
     0
  9
$AUPREC
 70
     2
  9
$MENU
  1
acad
  9
$ELEVATION
 40
0.0
  9
$PELEVATION
 40
0.0
  9
$THICKNESS
 40
0.0
  9
$LIMCHECK
 70
     0
  9
$BLIPMODE
 70
     0
  9
$CHAMFERA
 40
10.0
  9
$CHAMFERB
 40
10.0
  9
$SKPOLY
 70
     0
  9
$TDCREATE
 40
2451318.621352917
  9
$TDUPDATE
 40
2456911.3803023729
  9
$TDINDWG
 40
1.2375254630000001
  9
$TDUSRTIMER
 40
1.2375254630000001
  9
$USRTIMER
 70
     1
  9
$ANGBASE
 50
0.0
  9
$ANGDIR
 70
     0
  9
$PDMODE
 70
     0
  9
$PDSIZE
 40
0.0
  9
$PLINEWID
 40
0.0
  9
$COORDS
 70
     0
  9
$SPLFRAME
 70
     0
  9
$SPLINETYPE
 70
     6
  9
$SPLINESEGS
 70
     8
  9
$ATTDIA
 70
     0
  9
$ATTREQ
 70
     1
  9
$HANDLING
 70
     1
  9
$HANDSEED
  5
16F0F
  9
$SURFTAB1
 70
     6
  9
$SURFTAB2
 70
     6
  9
$SURFTYPE
 70
     6
  9
$SURFU
 70
     6
  9
$SURFV
 70
     6
  9
$UCSNAME
  2

  9
$UCSORG
 10
0.0
 20
0.0
 30
0.0
  9
$UCSXDIR
 10
1.0
 20
0.0
 30
0.0
  9
$UCSYDIR
 10
0.0
 20
1.0
 30
0.0
  9
$PUCSNAME
  2

  9
$PUCSORG
 10
0.0
 20
0.0
 30
0.0
  9
$PUCSXDIR
 10
1.0
 20
0.0
 30
0.0
  9
$PUCSYDIR
 10
0.0
 20
1.0
 30
0.0
  9
$USERI1
 70
     0
  9
$USERI2
 70
     0
  9
$USERI3
 70
     0
  9
$USERI4
 70
     0
  9
$USERI5
 70
     0
  9
$USERR1
 40
0.0
  9
$USERR2
 40
0.0
  9
$USERR3
 40
0.0
  9
$USERR4
 40
0.0
  9
$USERR5
 40
0.0
  9
$WORLDVIEW
 70
     1
  9
$SHADEDGE
 70
     3
  9
$SHADEDIF
 70
    70
  9
$TILEMODE
 70
     1
  9
$MAXACTVP
 70
    48
  9
$PLIMCHECK
 70
     0
  9
$PEXTMIN
 10
1.0000000000000000E+020
 20
1.0000000000000000E+020
 30
1.0000000000000000E+020
  9
$PEXTMAX
 10
-1.0000000000000000E+020
 20
-1.0000000000000000E+020
 30
-1.0000000000000000E+020
  9
$PLIMMIN
 10
0.0
 20
0.0
  9
$PLIMMAX
 10
420.0
 20
297.0
  9
$UNITMODE
 70
     0
  9
$VISRETAIN
 70
     1
  9
$PLINEGEN
 70
     0
  9
$PSLTSCALE
 70
     1
  0
ENDSEC
  0
SECTION
  2
TABLES
  0
TABLE
  2
VPORT
 70
     1
  0
VPORT
  2
*ACTIVE
 70
     0
 10
0.0
 20
0.0
 11
1.0
 21
1.0
 12
-161.37409980447791
 22
-5225.9342885386341
 13
0.0
 23
0.0
 14
10.0
 24
10.0
 15
10.0
 25
10.0
 16
0.0
 26
0.0
 36
1.0
 17
0.0
 27
0.0
 37
0.0
 40
493.56436869844691
 41
2.1771217712177111
 42
50.0
 43
0.0
 44
0.0
 50
0.0
 51
0.0
 71
     0
 72
   100
 73
     1
 74
     1
 75
     0
 76
     0
 77
     0
 78
     0
  0
ENDTAB
  0
TABLE
  2
LTYPE
 70
    13
  0
LTYPE
  2
CONTINUOUS
 70
     0
  3
Solid line
 72
    65
 73
     0
 40
0.0
  0
LTYPE
  2
XREF1|CENTER2
 70
    48
  3
Center (.5x) ___ _ ___ _ ___ _ ___ _ ___ _ ___
 72
    65
 73
     4
 40
28.574999999999999
 49
19.050000000000001
 49
-3.1749999999999989
 49
3.1749999999999989
 49
-3.1749999999999989
  0
LTYPE
  2
A3WAKUDAKE|CENTER2
 70
    48
  3
Center (.5x) ___ _ ___ _ ___ _ ___ _ ___ _ ___
 72
    65
 73
     4
 40
28.574999999999999
 49
19.050000000000001
 49
-3.1749999999999989
 49
3.1749999999999989
 49
-3.1749999999999989
  0
ENDTAB
  0
TABLE
  2
LAYER
 70
    40
  0
LAYER
  2
0
 70
     0
 62
     7
  6
CONTINUOUS
  0
LAYER
  2
1TEXT
 70
     0
 62
     7
  6
CONTINUOUS
  0
LAYER
  2
01
 70
     0
 62
     1
  6
CONTINUOUS
  0
LAYER
  2
A3WAKUDAKE|THICK
 70
    48
 62
     7
  6
CONTINUOUS
  0
LAYER
  2
A3WAKUDAKE|POINT
 70
    48
 62
     7
  6
CONTINUOUS
  0
LAYER
  2
A3WAKUDAKE|1CENTER
 70
    48
 62
     7
  6
A3WAKUDAKE|CENTER2
  0
LAYER
  2
A3WAKUDAKE|0-6
 70
    48
 62
     7
  6
CONTINUOUS
  0
LAYER
  2
A3WAKUDAKE|1DIM
 70
    48
 62
     7
  6
CONTINUOUS
  0
LAYER
  2
XREF1|1CENTER
 70
    48
 62
     7
  6
XREF1|CENTER2
  0
ENDTAB
  0
TABLE
  2
STYLE
 70
     6
  0
STYLE
  2
STANDARD
 70
     0
 40
0.0
 41
1.0
 50
0.0
 71
     0
 42
4.0
  3
romans.shx
  4
extfont2.shx
  0
ENDTAB
  0
TABLE
  2
VIEW
 70
     5
  0
ENDTAB
  0
TABLE
  2
UCS
 70
     0
  0
ENDTAB
  0
TABLE
  2
APPID
 70
    10
  0
APPID
  2
ACAD
 70
     0
  0
APPID
  2
DRAWINGVARIABLESXDATA
 70
     0
  0
APPID
  2
CONTENTTABDATA
 70
     0
  0
APPID
  2
CONTENTCURRENTTAB
 70
     0
  0
APPID
  2
CONTENTBLOCKDESCRIPTION
 70
     0
  0
APPID
  2
CONTENTBLOCKICON
 70
     0
  0
APPID
  2
CONTENTLONGBLOCKNAME
 70
     0
  0
APPID
  2
ACAD_PSEXT
 70
     0
  0
APPID
  2
ACAD_MLEADERVER
 70
     0
  0
APPID
  2
ACAD_EXEMPT_FROM_CAD_STANDARDS
 70
     0
  0
ENDTAB
  0
TABLE
  2
DIMSTYLE
 70
     6
  0
DIMSTYLE
  2
NEWX10
 70
     0
  3
 
  4

  5

  6
OPEN30
  7
OPEN30
 40
1.0
 41
2.0
 42
0.0
 43
7.0
 44
1.0
 45
0.0
 46
0.0
 47
0.0
 48
0.0
140
3.5
141
0.0
142
0.0
143
25.399999999999999
144
1.0
145
0.0
146
0.7
147
0.7
 71
     0
 72
     0
 73
     0
 74
     0
 75
     0
 76
     0
 77
     1
 78
     8
170
     0
171
     2
172
     1
173
     1
174
     0
175
     0
176
   256
177
   256
178
   201
  0
ENDTAB
  0
ENDSEC
  0
SECTION
  2
BLOCKS
  0
BLOCK
  8
0
  2
$MODEL_SPACE
 70
     0
 10
0.0
 20
0.0
 30
0.0
  3
$MODEL_SPACE
  1

  0
ENDBLK
  5
1A
  8
0
  0
BLOCK
 67
     1
  8
0
  2
$PAPER_SPACE
 70
     0
 10
0.0
 20
0.0
 30
0.0
  3
$PAPER_SPACE
  1

  0
ENDBLK
  5
17
 67
     1
  8
0
  0
BLOCK
  8
0
  2
_OPEN30
 70
     0
 10
0.0
 20
0.0
 30
0.0
  3
_OPEN30
  1

  0
LINE
  5
44
  8
0
  6
BYBLOCK
 62
     0
 10
-1.0
 20
0.26794919
 30
0.0
 11
0.0
 21
0.0
 31
0.0
  0
LINE
  5
45
  8
0
  6
BYBLOCK
 62
     0
 10
0.0
 20
0.0
 30
0.0
 11
-1.0
 21
-0.26794919
 31
0.0
  0
LINE
  5
46
  8
0
  6
BYBLOCK
 62
     0
 10
0.0
 20
0.0
 30
0.0
 11
-1.0
 21
0.0
 31
0.0
  0
ENDBLK
  5
47
  8
0
  0
BLOCK
  8
0
  2
XREF1
 70
    36
 10
0.0
 20
0.0
 30
0.0
  3
XREF1
  1
D:\ACLT\FORMAT\KAWAJUN(9)図面用.dwg
  0
ENDBLK
  5
5D
  8
0
  0
BLOCK
  8
0
  2
A3WAKUDAKE
 70
    36
 10
0.0
 20
0.0
 30
0.0
  3
A3WAKUDAKE
  1
D:\ACLT\FORMAT\A3WAKUdake.dwg
  0
ENDBLK
  5
6A0
  8
0
  0
BLOCK
  8
0
  2
*U62
 70
     1
 10
0.0
 20
0.0
 30
0.0
  3
*U62
  1

  0
TEXT
  5
16C7E
  8
1TEXT
 62
   201
 10
136.97507134667521
 20
-5310.5262028412008
 30
0.0
 40
4.5499999999999989
  1
25
 50
90.0
  0
ENDBLK
  5
16C80
  8
0
  0
BLOCK
  8
0
  2
*U63
 70
     1
 10
0.0
 20
0.0
 30
0.0
  3
*U63
  1

  0
TEXT
  5
16C82
  8
1TEXT
 62
   201
 10
-467.41973301402652
 20
-5310.5262028412008
 30
0.0
 40
4.5499999999999989
  1
25
 50
90.0
  0
ENDBLK
  5
16C84
  8
0
  0
BLOCK
  8
0
  2
*U64
 70
     1
 10
0.0
 20
0.0
 30
0.0
  3
*U64
  1

  0
TEXT
  5
16C86
  8
1TEXT
 62
   201
 10
136.9751876864197
 20
-5126.6152456516811
 30
0.0
 40
4.5499999999999989
  1
32.5
 50
90.0
  0
ENDBLK
  5
16C88
  8
0
  0
BLOCK
  8
0
  2
*U65
 70
     1
 10
0.0
 20
0.0
 30
0.0
  3
*U65
  1

  0
TEXT
  5
16C8A
  8
1TEXT
 62
   201
 10
146.9751876864197
 20
-5139.6702274100298
 30
0.0
 40
4.5499999999999989
  1
58.5
 50
90.0
  0
ENDBLK
  5
16C8C
  8
0
  0
BLOCK
  8
0
  2
*U66
 70
     1
 10
0.0
 20
0.0
 30
0.0
  3
*U66
  1

  0
TEXT
  5
16C8E
  8
1TEXT
 62
   201
 10
53.461484596243793
 20
-5170.5759994180689
 30
0.0
 40
4.5499999999999989
  1
118.5
  0
ENDBLK
  5
16C90
  8
0
  0
BLOCK
  8
0
  2
*U67
 70
     1
 10
0.0
 20
0.0
 30
0.0
  3
*U67
  1

  0
TEXT
  5
16C92
  8
1TEXT
 62
   201
 10
46.132039747699821
 20
-5180.5759994180689
 30
0.0
 40
4.5499999999999989
  1
133.5
  0
ENDBLK
  5
16C94
  8
0
  0
BLOCK
  8
0
  2
*U68
 70
     1
 10
0.0
 20
0.0
 30
0.0
  3
*U68
  1

  0
TEXT
  5
16C96
  8
1TEXT
 62
   201
 10
55.777665166324716
 20
-5884.6046440699984
 30
0.0
 40
4.5499999999999989
  1
132
 50
90.0
  0
ENDBLK
  5
16C98
  8
0
  0
BLOCK
  8
0
  2
*U69
 70
     1
 10
0.0
 20
0.0
 30
0.0
  3
*U69
  1

  0
TEXT
  5
16C9A
  8
1TEXT
 62
   201
 10
-68.412650764815311
 20
-5767.8696440699987
 30
0.0
 40
4.5499999999999989
  1
11
  0
ENDBLK
  5
16C9C
  8
0
  0
BLOCK
  8
0
  2
*U70
 70
     1
 10
0.0
 20
0.0
 30
0.0
  3
*U70
  1

  0
TEXT
  5
16C9E
  8
1TEXT
 62
   201
 10
-16.145668167009511
 20
-5757.8696440699978
 30
0.0
 40
4.5499999999999989
  1
76.5
  0
ENDBLK
  5
16CA0
  8
0
  0
BLOCK
  8
0
  2
*U71
 70
     1
 10
0.0
 20
0.0
 30
0.0
  3
*U71
  1

  0
TEXT
  5
16CA2
  8
1TEXT
 62
   201
 10
-24.995668167009448
 20
-5767.8696440699987
 30
0.0
 40
4.5499999999999989
  1
51
  0
ENDBLK
  5
16CA4
  8
0
  0
BLOCK
  8
0
  2
*U72
 70
     1
 10
0.0
 20
0.0
 30
0.0
  3
*U72
  1

  0
TEXT
  5
16CA6
  8
1TEXT
 62
   201
 10
-167.8956641670099
 20
-5768.0796440699987
 30
0.0
 40
3.5
  1
18
  0
ENDBLK
  5
16CA8
  8
0
  0
BLOCK
  8
0
  2
*U73
 70
     1
 10
0.0
 20
0.0
 30
0.0
  3
*U73
  1

  0
TEXT
  5
16CAA
  8
1TEXT
 62
   201
 10
-120.71873979711999
 20
-5882.9092506923917
 30
0.0
 40
4.5499999999999989
  1
174
 50
90.0
  0
ENDBLK
  5
16CAC
  8
0
  0
BLOCK
  8
0
  2
*U74
 70
     1
 10
0.0
 20
0.0
 30
0.0
  3
*U74
  1

  0
TEXT
  5
16CAE
  8
1TEXT
 62
   201
 10
-105.22233083367659
 20
-5883.7516495924747
 30
0.0
 40
4.5499999999999989
  1
196
 50
90.0
  0
ENDBLK
  5
16CB0
  8
0
  0
BLOCK
  8
0
  2
*U75
 70
     1
 10
0.0
 20
0.0
 30
0.0
  3
*U75
  1

  0
TEXT
  5
16CB2
  8
1TEXT
 62
   201
 10
42.874263462767729
 20
-5646.9879501476071
 30
0.0
 40
4.5499999999999989
  1
14.2
 50
90.0
  0
ENDBLK
  5
16CB4
  8
0
  0
BLOCK
  8
0
  2
*U76
 70
     1
 10
0.0
 20
0.0
 30
0.0
  3
*U76
  1

  0
TEXT
  5
16CB6
  8
1TEXT
 62
   201
 10
-31.722334833676111
 20
-5841.3127233654859
 30
0.0
 40
4.5499999999999989
  1
\U+03C650
 50
90.0
  0
ENDBLK
  5
16CB8
  8
0
  0
BLOCK
  8
0
  2
*U77
 70
     1
 10
0.0
 20
0.0
 30
0.0
  3
*U77
  1

  0
TEXT
  5
16CBA
  8
1TEXT
 62
   201
 10
136.97507134667509
 20
-5837.1129774033307
 30
0.0
 40
4.5499999999999989
  1
25
 50
90.0
  0
ENDBLK
  5
16CBC
  8
0
  0
BLOCK
  8
0
  2
*U78
 70
     1
 10
0.0
 20
0.0
 30
0.0
  3
*U78
  1

  0
TEXT
  5
16CBE
  8
1TEXT
 62
   201
 10
136.9751876864197
 20
-5653.202020213811
 30
0.0
 40
4.5499999999999989
  1
32.5
 50
90.0
  0
ENDBLK
  5
16CC0
  8
0
  0
BLOCK
  8
0
  2
*U79
 70
     1
 10
0.0
 20
0.0
 30
0.0
  3
*U79
  1

  0
TEXT
  5
16CC2
  8
1TEXT
 62
   201
 10
146.9751876864197
 20
-5666.2570019721597
 30
0.0
 40
4.5499999999999989
  1
58.5
 50
90.0
  0
ENDBLK
  5
16CC4
  8
0
  0
BLOCK
  8
0
  2
*U80
 70
     1
 10
0.0
 20
0.0
 30
0.0
  3
*U80
  1

  0
TEXT
  5
16CC6
  8
1TEXT
 62
   201
 10
53.461484596243679
 20
-5697.1627739801988
 30
0.0
 40
4.5499999999999989
  1
118.5
  0
ENDBLK
  5
16CC8
  8
0
  0
BLOCK
  8
0
  2
*U81
 70
     1
 10
0.0
 20
0.0
 30
0.0
  3
*U81
  1

  0
TEXT
  5
16CCA
  8
1TEXT
 62
   201
 10
46.1320397476997
 20
-5707.1627739801997
 30
0.0
 40
4.5499999999999989
  1
133.5
  0
ENDBLK
  5
16CCC
  8
0
  0
BLOCK
  8
0
  2
*U82
 70
     1
 10
0.0
 20
0.0
 30
0.0
  3
*U82
  1

  0
TEXT
  5
16CCE
  8
1TEXT
 62
   201
 10
-467.41973301402652
 20
-5837.1129774033307
 30
0.0
 40
4.5499999999999989
  1
25
 50
90.0
  0
ENDBLK
  5
16CD0
  8
0
  0
BLOCK
  8
0
  2
*U83
 70
     1
 10
0.0
 20
0.0
 30
0.0
  3
*U83
  1

  0
TEXT
  5
16CD2
  8
1TEXT
 62
   201
 10
5432.054677597358
 20
-336.82295688669888
 30
0.0
 40
4.5499999999999989
  1
\U+03C650
 50
90.0
  0
ENDBLK
  5
16CD4
  8
0
  0
BLOCK
  8
0
  2
*U84
 70
     1
 10
0.0
 20
0.0
 30
0.0
  3
*U84
  1

  0
TEXT
  5
16CD6
  8
1TEXT
 62
   201
 10
5600.7520837777092
 20
-206.97321092454331
 30
0.0
 40
4.5499999999999989
  1
32.5
 50
90.0
  0
ENDBLK
  5
16CD8
  8
0
  0
BLOCK
  8
0
  2
*U85
 70
     1
 10
0.0
 20
0.0
 30
0.0
  3
*U85
  1

  0
TEXT
  5
16CDA
  8
1TEXT
 62
   201
 10
5610.7520837777083
 20
-220.47321092454339
 30
0.0
 40
4.5499999999999989
  1
58.5
 50
90.0
  0
ENDBLK
  5
16CDC
  8
0
  0
BLOCK
  8
0
  2
*U86
 70
     1
 10
0.0
 20
0.0
 30
0.0
  3
*U86
  1

  0
TEXT
  5
16CDE
  8
1TEXT
 62
   201
 10
5600.7520837777092
 20
-328.6388431947085
 30
0.0
 40
4.5499999999999989
  1
30
 50
90.0
  0
ENDBLK
  5
16CE0
  8
0
  0
BLOCK
  8
0
  2
*U87
 70
     1
 10
0.0
 20
0.0
 30
0.0
  3
*U87
  1

  0
TEXT
  5
16CE2
  8
1TEXT
 62
   201
 10
5515.4914795994964
 20
-269.77481552345228
 30
0.0
 40
4.5499999999999989
  1
140
  0
ENDBLK
  5
16CE4
  8
0
  0
BLOCK
  8
0
  2
*U88
 70
     1
 10
0.0
 20
0.0
 30
0.0
  3
*U88
  1

  0
TEXT
  5
16CE6
  8
1TEXT
 62
   201
 10
5520.0636378272884
 20
-259.57143621427798
 30
0.0
 40
4.5499999999999989
  1
124.5
  0
ENDBLK
  5
16CE8
  8
0
  0
BLOCK
  8
0
  2
*U89
 70
     1
 10
0.0
 20
0.0
 30
0.0
  3
*U89
  1

  0
TEXT
  5
16CEA
  8
1TEXT
 62
   201
 10
374.47552488080129
 20
-5178.3452665247924
 30
0.0
 40
4.5499999999999989
  1
\U+03C650
 50
90.0
  0
ENDBLK
  5
16CEC
  8
0
  0
BLOCK
  8
0
  2
*U90
 70
     1
 10
0.0
 20
0.0
 30
0.0
  3
*U90
  1

  0
TEXT
  5
16CEE
  8
1TEXT
 62
   201
 10
543.17293106115244
 20
-5048.4955205626356
 30
0.0
 40
4.5499999999999989
  1
32.5
 50
90.0
  0
ENDBLK
  5
16CF0
  8
0
  0
BLOCK
  8
0
  2
*U91
 70
     1
 10
0.0
 20
0.0
 30
0.0
  3
*U91
  1

  0
TEXT
  5
16CF2
  8
1TEXT
 62
   201
 10
553.17293106115244
 20
-5061.9955205626366
 30
0.0
 40
4.5499999999999989
  1
58.5
 50
90.0
  0
ENDBLK
  5
16CF4
  8
0
  0
BLOCK
  8
0
  2
*U92
 70
     1
 10
0.0
 20
0.0
 30
0.0
  3
*U92
  1

  0
TEXT
  5
16CF6
  8
1TEXT
 62
   201
 10
543.17293106115244
 20
-5170.1611528328021
 30
0.0
 40
4.5499999999999989
  1
30
 50
90.0
  0
ENDBLK
  5
16CF8
  8
0
  0
BLOCK
  8
0
  2
*U93
 70
     1
 10
0.0
 20
0.0
 30
0.0
  3
*U93
  1

  0
TEXT
  5
16CFA
  8
1TEXT
 62
   201
 10
457.91232688293923
 20
-5111.2971251615454
 30
0.0
 40
4.5499999999999989
  1
140
  0
ENDBLK
  5
16CFC
  8
0
  0
BLOCK
  8
0
  2
*U94
 70
     1
 10
0.0
 20
0.0
 30
0.0
  3
*U94
  1

  0
TEXT
  5
16CFE
  8
1TEXT
 62
   201
 10
462.48448511073161
 20
-5101.0937458523713
 30
0.0
 40
4.5499999999999989
  1
124.5
  0
ENDBLK
  5
16D00
  8
0
  0
ENDSEC
  0
SECTION
  2
ENTITIES
  0
TEXT
  5
14236
  8
01
 10
-350.81231483367651
 20
-5091.1928695078741
 30
0.0
 40
20.0
  1
1-C4C-X-LM
  0
LINE
  5
14237
  8
01
 10
-46.811450651616042
 20
-5062.6928695089036
 30
0.0
 11
-46.811450651616042
 21
-5102.6928695089036
 31
0.0
  0
TEXT
  5
1424F
  8
01
 10
-329.49533958903839
 20
-5115.5438281283914
 30
0.0
 40
6.0
  1
材質：真鍮
 72
     1
 11
-312.29533958903829
 21
-5115.5438281283914
 31
0.0
  0
LINE
  5
14250
  8
01
 10
-350.81231483367651
 20
-5152.692869507875
 30
0.0
 11
-240.81231483367651
 21
-5152.692869507875
 31
0.0
  0
TEXT
  5
14252
  8
01
 10
-341.91231483367699
 20
-5129.442869507875
 30
0.0
 40
6.0
  1
表面処理：
 72
     1
 11
-324.71231483367711
 21
-5129.442869507875
 31
0.0
  0
TEXT
  5
14253
  8
01
 10
-338.31231483367708
 20
-5139.6958024971609
 30
0.0
 40
6.0
  1
クローム
 72
     1
 11
-324.71231483367711
 21
-5139.6958024971609
 31
0.0
  0
LINE
  5
14254
  8
01
 10
-350.81231483367651
 20
-5121.1928695078759
 30
0.0
 11
-240.81231483367651
 21
-5121.1928695078759
 31
0.0
  0
LINE
  5
14255
  8
01
 10
-350.81231483367651
 20
-5131.692869507875
 30
0.0
 11
-240.81231483367651
 21
-5131.692869507875
 31
0.0
  0
LINE
  5
14256
  8
01
 10
-350.81231483367651
 20
-5142.192869507875
 30
0.0
 11
-240.81231483367651
 21
-5142.192869507875
 31
0.0
  0
LINE
  5
14257
  8
01
 10
-350.81231483367651
 20
-5142.192869507875
 30
0.0
 11
-240.81231483367651
 21
-5142.192869507875
 31
0.0
  0
LINE
  5
14258
  8
01
 10
-298.31231483367651
 20
-5121.1928695078759
 30
0.0
 11
-298.31231483367651
 21
-5173.692869507875
 31
0.0
  0
TEXT
  5
14259
  8
01
 10
-292.11231483367573
 20
-5140.2644049833489
 30
0.0
 40
6.0
  1
1-C4C-C-LM
 41
0.7
 72
     1
 11
-269.71231483367569
 21
-5140.2644049833489
 31
0.0
  0
TEXT
  5
1425A
  8
01
 10
-279.712314833677
 20
-5129.442869507875
 30
0.0
 40
6.0
  1
コード
 72
     1
 11
-269.71231483367711
 21
-5129.442869507875
 31
0.0
  0
LINE
  5
1425B
  8
01
 10
-350.81231483367651
 20
-5163.192869507875
 30
0.0
 11
-240.81231483367651
 21
-5163.192869507875
 31
0.0
  0
TEXT
  5
1425C
  8
01
 10
-349.11231483367698
 20
-5160.6592399252313
 30
0.0
 40
6.0
  1
パールブラック
 72
     1
 11
-324.71231483367711
 21
-5160.6592399252313
 31
0.0
  0
LINE
  5
1425D
  8
01
 10
-350.81231483367651
 20
-5173.692869507875
 30
0.0
 11
-350.81231483367651
 21
-5121.1928695078759
 31
0.0
  0
LINE
  5
1425E
  8
01
 10
-240.81231483367651
 20
-5173.692869507875
 30
0.0
 11
-240.81231483367651
 21
-5121.1928695078759
 31
0.0
  0
TEXT
  5
14260
  8
01
 10
-294.31231483367571
 20
-5161.2644049833489
 30
0.0
 40
6.0
  1
1-C4C-GQ-LM
 41
0.7
 72
     1
 11
-269.71231483367569
 21
-5161.2644049833489
 31
0.0
  0
LINE
  5
14261
  8
01
 10
4.1877815060686308
 20
-5032.6928695089027
 30
0.0
 11
4.1877815060686308
 21
-5067.6928695089027
 31
0.0
  0
LINE
  5
14262
  8
01
 10
-214.3123308336765
 20
-5306.1928695078668
 30
0.0
 11
-179.3123308336765
 21
-5306.1928695078668
 31
0.0
  0
LINE
  5
14263
  8
01
 10
-149.31233083367641
 20
-5306.1928695078668
 30
0.0
 11
-114.3123308336764
 21
-5306.1928695078668
 31
0.0
  0
LINE
  5
14269
  8
01
 10
-46.811450651616042
 20
-5102.6928695089036
 30
0.0
 11
106.942929503416
 21
-5102.6928695089036
 31
0.0
  0
LINE
  5
1426A
  8
01
 10
-46.811450651616042
 20
-5062.6928695089036
 30
0.0
 11
106.942929503416
 21
-5062.6928695089036
 31
0.0
  0
LINE
  5
1426B
  8
01
 10
4.1877815060686308
 20
-5097.6928695089036
 30
0.0
 11
4.1877815060686308
 21
-5124.1928695089027
 31
0.0
  0
LINE
  5
1426C
  8
01
  6
BYBLOCK
 10
-43.612334833675959
 20
-5270.2813809832896
 30
0.0
 11
-43.612334833675959
 21
-5432.1043580324467
 31
0.0
  0
LINE
  5
1426D
  8
01
  6
BYBLOCK
 10
-43.112334833676179
 20
-5254.1928695078677
 30
0.0
 11
-43.112334833676179
 21
-5269.1928695078677
 31
0.0
  0
ARC
  5
1426E
  8
01
  6
BYBLOCK
 10
-44.312334833675997
 20
-5269.1928695078677
 30
0.0
 40
1.1999999999999991
 50
324.73561031723261
 51
0.0
  0
LINE
  5
1426F
  8
01
  6
BYBLOCK
 10
-44.812334833675997
 20
-5254.1928695078677
 30
0.0
 11
-44.812334833675997
 21
-5339.6928695078668
 31
0.0
  0
ARC
  5
14270
  8
01
  6
BYBLOCK
 10
-43.612334833676186
 20
-5270.2813809832896
 30
0.0
 40
1.1999999999999991
 50
144.7356103172765
 51
180.0
  0
LINE
  5
14271
  8
01
  6
BYBLOCK
 10
-44.312334833675997
 20
-5254.1928695078677
 30
0.0
 11
-44.312334833675997
 21
-5269.1928695078677
 31
0.0
  0
LINE
  5
14272
  8
01
  6
BYBLOCK
 10
-43.485984098148492
 20
-5417.1928695078677
 30
0.0
 11
29.687665166323988
 21
-5417.1928695078677
 31
0.0
  0
LINE
  5
14273
  8
01
  6
BYBLOCK
 10
-43.485984098148492
 20
-5285.1928695078668
 30
0.0
 11
-9.3769947999265426
 21
-5285.1928695078668
 31
0.0
  0
LINE
  5
14274
  8
01
  6
BYBLOCK
 10
-57.185984098148538
 20
-5362.1928695078677
 30
0.0
 11
-46.685984098148538
 21
-5362.1928695078677
 31
0.0
  0
ARC
  5
14275
  8
01
  6
BYBLOCK
 10
-57.185984098148538
 20
-5361.1928695078677
 30
0.0
 40
1.0
 50
180.0
 51
270.0
  0
LINE
  5
14276
  8
01
  6
BYBLOCK
 10
-57.185984098148538
 20
-5340.1928695078677
 30
0.0
 11
-46.685984098148538
 21
-5340.1928695078677
 31
0.0
  0
ARC
  5
14277
  8
01
  6
BYBLOCK
 10
-57.185984098148538
 20
-5341.1928695078668
 30
0.0
 40
1.0
 50
90.0
 51
180.0
  0
LINE
  5
14278
  8
01
  6
BYBLOCK
 10
-44.812334833676452
 20
-5448.1928695078677
 30
0.0
 11
-43.112334833676179
 21
-5448.1928695078677
 31
0.0
  0
LINE
  5
14279
  8
01
  6
BYBLOCK
 10
-44.812334833676452
 20
-5254.1928695078677
 30
0.0
 11
-43.112334833676179
 21
-5254.1928695078677
 31
0.0
  0
LINE
  5
1427A
  8
01
  6
BYBLOCK
 10
-44.592130730789442
 20
-5269.5885606602624
 30
0.0
 11
-44.312334833675997
 21
-5269.1928695078677
 31
0.0
  0
LINE
  5
1427B
  8
01
  6
BYBLOCK
 10
-43.612334833675959
 20
-5270.2813809832896
 30
0.0
 11
-43.332538936562742
 21
-5269.8856898308959
 31
0.0
  0
LINE
  5
1427C
  8
01
  6
BYBLOCK
 10
-43.112334833676179
 20
-5448.1928695078677
 30
0.0
 11
-43.112334833676179
 21
-5433.1928695078677
 31
0.0
  0
ARC
  5
1427D
  8
01
  6
BYBLOCK
 10
-44.312334833675997
 20
-5433.1928695078677
 30
0.0
 40
1.1999999999999991
 50
0.0
 51
35.264389682767408
  0
ARC
  5
1427E
  8
01
  6
BYBLOCK
 10
-43.612334833676186
 20
-5432.1043580324467
 30
0.0
 40
1.1999999999999991
 50
180.0
 51
234.31466528736189
  0
LINE
  5
1427F
  8
01
  6
BYBLOCK
 10
-44.312334833675997
 20
-5448.1928695078677
 30
0.0
 11
-44.312334833676232
 21
-5433.0790374669277
 31
0.0
  0
LINE
  5
14280
  8
01
  6
BYBLOCK
 10
-43.612334833676186
 20
-5432.1043580324467
 30
0.0
 11
-43.332538936562742
 21
-5432.5000491848414
 31
0.0
  0
LINE
  5
14281
  8
01
  6
BYBLOCK
 10
-58.185984098148531
 20
-5341.1928695078668
 30
0.0
 11
-58.185984098148531
 21
-5361.1928695078677
 31
0.0
  0
LINE
  5
14282
  8
01
  6
BYBLOCK
 10
-46.812334833675997
 20
-5449.1928695078677
 30
0.0
 11
-46.812334833675997
 21
-5253.1928695078668
 31
0.0
  0
LINE
  5
14283
  8
01
  6
BYBLOCK
 10
-44.812334833675997
 20
-5449.1928695078677
 30
0.0
 11
-44.812334833675997
 21
-5253.1928695078668
 31
0.0
  0
LINE
  5
14284
  8
01
  6
BYBLOCK
 10
29.687665166323988
 20
-5417.1928695078677
 30
0.0
 11
29.687665166323988
 21
-5301.3056242980274
 31
0.0
  0
LINE
  5
14285
  8
01
  6
BYBLOCK
 10
-44.812334833675997
 20
-5253.1928695078668
 30
0.0
 11
-46.812334833675997
 21
-5253.1928695078668
 31
0.0
  0
LINE
  5
14286
  8
01
  6
BYBLOCK
 10
-44.812334833675997
 20
-5449.1928695078677
 30
0.0
 11
-46.812334833675997
 21
-5449.1928695078677
 31
0.0
  0
LINE
  5
14287
  8
01
 10
-36.286388520283943
 20
-5264.1928695078668
 30
0.0
 11
-50.138844205069972
 21
-5264.1928695078668
 31
0.0
  0
LINE
  5
14288
  8
01
 10
-49.583236286148569
 20
-5438.1928695078677
 30
0.0
 11
-40.583236286148569
 21
-5438.1928695078677
 31
0.0
  0
LINE
  5
14289
  8
01
 10
-25.812334833676012
 20
-5306.1928695078668
 30
0.0
 11
34.187665166324003
 21
-5306.1928695078668
 31
0.0
  0
LINE
  5
1428A
  8
01
 10
4.1876651663239954
 20
-5276.1928695078677
 30
0.0
 11
4.1876651663239954
 21
-5336.1928695078677
 31
0.0
  0
LINE
  5
1428B
  8
01
  6
BYBLOCK
 10
-173.31233083367621
 20
-5262.1928695078677
 30
0.0
 11
-173.31233083367621
 21
-5440.1928695078677
 31
0.0
  0
LINE
  5
1428C
  8
01
  6
BYBLOCK
 10
-155.3123308336767
 20
-5262.1928695078677
 30
0.0
 11
-155.3123308336767
 21
-5440.1928695078677
 31
0.0
  0
ARC
  5
1428D
  8
01
  6
BYBLOCK
 10
-164.31233083367641
 20
-5262.1928695078677
 30
0.0
 40
8.9999999999997051
 50
0.0
 51
180.0
  0
ARC
  5
1428E
  8
01
  6
BYBLOCK
 10
-164.31233083367641
 20
-5440.1928695078677
 30
0.0
 40
8.9999999999997051
 50
180.0
 51
0.0
  0
LINE
  5
1428F
  8
01
  6
BYBLOCK
 10
-158.9623308336765
 20
-5362.2928695078681
 30
0.0
 11
-169.66233083367609
 21
-5362.2928695078681
 31
0.0
  0
LINE
  5
14290
  8
01
  6
BYBLOCK
 10
-158.96233083367679
 20
-5340.0928695078683
 30
0.0
 11
-169.66233083367609
 21
-5340.0928695078683
 31
0.0
  0
LINE
  5
14291
  8
01
  6
BYBLOCK
 10
-158.96233083367679
 20
-5340.0928695078683
 30
0.0
 11
-158.9623308336765
 21
-5362.2928695078681
 31
0.0
  0
LINE
  5
14292
  8
01
  6
BYBLOCK
 10
-169.66233083367609
 20
-5340.0928695078683
 30
0.0
 11
-169.66233083367609
 21
-5362.2928695078681
 31
0.0
  0
CIRCLE
  5
14293
  8
01
  6
BYBLOCK
 10
-164.31233083367641
 20
-5438.1928695078677
 30
0.0
 40
4.25
  0
CIRCLE
  5
14294
  8
01
  6
BYBLOCK
 10
-164.31233083367641
 20
-5438.1928695078677
 30
0.0
 40
2.7499999999996021
  0
CIRCLE
  5
14295
  8
01
  6
BYBLOCK
 10
-164.31233083367641
 20
-5264.1928695078668
 30
0.0
 40
4.25
  0
CIRCLE
  5
14296
  8
01
  6
BYBLOCK
 10
-164.31233083367641
 20
-5264.1928695078668
 30
0.0
 40
2.7499999999996021
  0
LINE
  5
14297
  8
01
 10
-171.43835829570389
 20
-5264.1928695078668
 30
0.0
 11
-157.0263910440994
 21
-5264.1928695078668
 31
0.0
  0
LINE
  5
14298
  8
01
 10
-171.07156850053701
 20
-5438.1928695078686
 30
0.0
 11
-156.90720057843691
 21
-5438.1928695078686
 31
0.0
  0
LINE
  5
14299
  8
01
  6
BYBLOCK
 10
-285.01232683367698
 20
-5270.2813809832896
 30
0.0
 11
-285.01232683367698
 21
-5432.1043580324467
 31
0.0
  0
LINE
  5
1429A
  8
01
  6
BYBLOCK
 10
-285.51232683367681
 20
-5254.1928695078677
 30
0.0
 11
-285.51232683367681
 21
-5269.1928695078677
 31
0.0
  0
ARC
  5
1429B
  8
01
  6
BYBLOCK
 10
-284.31232683367688
 20
-5269.1928695078677
 30
0.0
 40
1.1999999999999991
 50
180.0
 51
215.26438968277591
  0
LINE
  5
1429C
  8
01
  6
BYBLOCK
 10
-283.81232683367688
 20
-5254.1928695078677
 30
0.0
 11
-283.81232683367688
 21
-5339.6928695078668
 31
0.0
  0
ARC
  5
1429D
  8
01
  6
BYBLOCK
 10
-285.0123268336767
 20
-5270.2813809832896
 30
0.0
 40
1.1999999999999991
 50
0.0
 51
35.264389682731533
  0
LINE
  5
1429E
  8
01
  6
BYBLOCK
 10
-284.31232683367688
 20
-5254.1928695078677
 30
0.0
 11
-284.31232683367688
 21
-5269.1928695078677
 31
0.0
  0
LINE
  5
1429F
  8
01
  6
BYBLOCK
 10
-285.1386775692045
 20
-5417.1928695078677
 30
0.0
 11
-358.31232683367688
 21
-5417.1928695078677
 31
0.0
  0
LINE
  5
142A0
  8
01
  6
BYBLOCK
 10
-285.1386775692045
 20
-5285.1928695078668
 30
0.0
 11
-319.24766686742657
 21
-5285.1928695078668
 31
0.0
  0
LINE
  5
142A1
  8
01
  6
BYBLOCK
 10
-271.4386775692044
 20
-5362.1928695078677
 30
0.0
 11
-281.9386775692044
 21
-5362.1928695078677
 31
0.0
  0
ARC
  5
142A2
  8
01
  6
BYBLOCK
 10
-271.4386775692044
 20
-5361.1928695078677
 30
0.0
 40
1.0
 50
270.0
 51
0.0
  0
LINE
  5
142A3
  8
01
  6
BYBLOCK
 10
-271.4386775692044
 20
-5340.1928695078677
 30
0.0
 11
-281.9386775692044
 21
-5340.1928695078677
 31
0.0
  0
ARC
  5
142A4
  8
01
  6
BYBLOCK
 10
-271.4386775692044
 20
-5341.1928695078668
 30
0.0
 40
1.0
 50
0.0
 51
90.0
  0
LINE
  5
142A5
  8
01
  6
BYBLOCK
 10
-283.81232683367648
 20
-5448.1928695078677
 30
0.0
 11
-285.51232683367681
 21
-5448.1928695078677
 31
0.0
  0
LINE
  5
142A6
  8
01
  6
BYBLOCK
 10
-283.81232683367648
 20
-5254.1928695078677
 30
0.0
 11
-285.51232683367681
 21
-5254.1928695078677
 31
0.0
  0
LINE
  5
142A7
  8
01
  6
BYBLOCK
 10
-284.03253093656349
 20
-5269.5885606602624
 30
0.0
 11
-284.31232683367688
 21
-5269.1928695078677
 31
0.0
  0
LINE
  5
142A8
  8
01
  6
BYBLOCK
 10
-285.01232683367698
 20
-5270.2813809832896
 30
0.0
 11
-285.2921227307902
 21
-5269.8856898308959
 31
0.0
  0
LINE
  5
142A9
  8
01
  6
BYBLOCK
 10
-285.51232683367681
 20
-5448.1928695078677
 30
0.0
 11
-285.51232683367681
 21
-5433.1928695078677
 31
0.0
  0
ARC
  5
142AA
  8
01
  6
BYBLOCK
 10
-284.31232683367688
 20
-5433.1928695078677
 30
0.0
 40
1.1999999999999991
 50
144.73561031722409
 51
180.0
  0
ARC
  5
142AB
  8
01
  6
BYBLOCK
 10
-285.0123268336767
 20
-5432.1043580324467
 30
0.0
 40
1.1999999999999991
 50
305.6853347126314
 51
0.0
  0
LINE
  5
142AC
  8
01
  6
BYBLOCK
 10
-284.31232683367688
 20
-5448.1928695078677
 30
0.0
 11
-284.31232683367671
 21
-5433.0790374669277
 31
0.0
  0
LINE
  5
142AD
  8
01
  6
BYBLOCK
 10
-285.0123268336767
 20
-5432.1043580324467
 30
0.0
 11
-285.2921227307902
 21
-5432.5000491848414
 31
0.0
  0
LINE
  5
142AE
  8
01
  6
BYBLOCK
 10
-270.4386775692044
 20
-5341.1928695078668
 30
0.0
 11
-270.4386775692044
 21
-5361.1928695078677
 31
0.0
  0
LINE
  5
142AF
  8
01
  6
BYBLOCK
 10
-281.81232683367688
 20
-5449.1928695078677
 30
0.0
 11
-281.81232683367688
 21
-5253.1928695078668
 31
0.0
  0
LINE
  5
142B0
  8
01
  6
BYBLOCK
 10
-283.81232683367688
 20
-5449.1928695078677
 30
0.0
 11
-283.81232683367688
 21
-5253.1928695078668
 31
0.0
  0
LINE
  5
142B1
  8
01
  6
BYBLOCK
 10
-358.31232683367688
 20
-5417.1928695078677
 30
0.0
 11
-358.31232683367688
 21
-5301.3056242980274
 31
0.0
  0
LINE
  5
142B2
  8
01
  6
BYBLOCK
 10
-283.81232683367688
 20
-5253.1928695078668
 30
0.0
 11
-281.81232683367688
 21
-5253.1928695078668
 31
0.0
  0
LINE
  5
142B3
  8
01
  6
BYBLOCK
 10
-283.81232683367688
 20
-5449.1928695078677
 30
0.0
 11
-281.81232683367688
 21
-5449.1928695078677
 31
0.0
  0
LINE
  5
142B4
  8
01
 10
-292.338273147069
 20
-5264.1928695078668
 30
0.0
 11
-278.48581746228302
 21
-5264.1928695078668
 31
0.0
  0
LINE
  5
142B5
  8
01
 10
-279.04142538120431
 20
-5438.1928695078677
 30
0.0
 11
-288.04142538120442
 21
-5438.1928695078677
 31
0.0
  0
LINE
  5
142B6
  8
01
 10
-302.81232683367699
 20
-5306.1928695078668
 30
0.0
 11
-362.81232683367688
 21
-5306.1928695078668
 31
0.0
  0
LINE
  5
142B7
  8
01
 10
-332.81232683367688
 20
-5276.1928695078677
 30
0.0
 11
-332.81232683367688
 21
-5336.1928695078677
 31
0.0
  0
LINE
  5
142BC
  8
01
 10
-144.31233083367641
 20
-5247.4588594220959
 30
0.0
 11
-144.31233083367641
 21
-5458.4862964329204
 31
0.0
  0
LINE
  5
142BD
  8
01
 10
-184.31233083367641
 20
-5247.4588594220959
 30
0.0
 11
-184.31233083367641
 21
-5458.4862964329204
 31
0.0
  0
LINE
  5
142C1
  8
01
 10
-43.111450651615989
 20
-5075.5928695089033
 30
0.0
 11
29.688549348384178
 21
-5075.5928695089033
 31
0.0
  0
LINE
  5
142C2
  8
01
 10
-44.811450651616042
 20
-5074.5928695089033
 30
0.0
 11
-43.611450651615307
 21
-5074.5928695089033
 31
0.0
  0
LINE
  5
142C3
  8
01
 10
-43.111450651615989
 20
-5089.792869508904
 30
0.0
 11
29.688549348384178
 21
-5089.792869508904
 31
0.0
  0
LINE
  5
142C4
  8
01
 10
-44.811450651616042
 20
-5090.7928695089031
 30
0.0
 11
-43.111450651615989
 21
-5090.7928695089031
 31
0.0
  0
LINE
  5
142C5
  8
01
 10
-43.611450651615527
 20
-5085.7958132340573
 30
0.0
 11
-43.611450651615307
 21
-5079.5899257837509
 31
0.0
  0
LINE
  5
142C6
  8
01
 10
-44.811450651616042
 20
-5090.7928695089031
 30
0.0
 11
-44.811450651616042
 21
-5074.5928695089033
 31
0.0
  0
ARC
  5
142C7
  8
01
 10
-43.611450651616003
 20
-5077.5899257837509
 30
0.0
 40
1.1999999999999991
 50
134.99999999999091
 51
180.0
  0
ARC
  5
142C8
  8
01
 10
-43.611450651616003
 20
-5079.5899257837509
 30
0.0
 40
1.1999999999999991
 50
134.99999999999091
 51
180.0
  0
ARC
  5
142C9
  8
01
 10
-43.611450651616003
 20
-5087.7958132340545
 30
0.0
 40
1.1999999999999991
 50
180.0
 51
225.00000000000909
  0
LINE
  5
142CA
  8
01
 10
-44.311450651616042
 20
-5090.7928695089031
 30
0.0
 11
-44.311450651616042
 21
-5086.7928695089031
 31
0.0
  0
LINE
  5
142CB
  8
01
 10
-43.111450651615989
 20
-5090.7928695089031
 30
0.0
 11
-43.111450651615989
 21
-5086.7928695089031
 31
0.0
  0
ARC
  5
142CC
  8
01
 10
-44.311450651616042
 20
-5086.7928695089031
 30
0.0
 40
1.1999999999999991
 50
0.0
 51
45.000000000006828
  0
LINE
  5
142CD
  8
01
 10
-44.311450651616042
 20
-5088.7928695089031
 30
0.0
 11
-44.459978789039717
 21
-5088.6443413714796
 31
0.0
  0
LINE
  5
142CE
  8
01
 10
-44.311450651616042
 20
-5074.5928695089033
 30
0.0
 11
-44.311450651616042
 21
-5078.5928695089033
 31
0.0
  0
LINE
  5
142CF
  8
01
 10
-43.111450651615989
 20
-5074.5928695089033
 30
0.0
 11
-43.111450651615989
 21
-5078.5928695089033
 31
0.0
  0
ARC
  5
142D0
  8
01
 10
-44.311450651616042
 20
-5078.5928695089033
 30
0.0
 40
1.1999999999999991
 50
314.99999999999091
 51
0.0
  0
LINE
  5
142D1
  8
01
 10
-43.111450651615989
 20
-5074.5928695089033
 30
0.0
 11
-44.311450651616042
 21
-5074.5928695089033
 31
0.0
  0
LINE
  5
142D2
  8
01
 10
-44.311450651616042
 20
-5076.5928695089033
 30
0.0
 11
-44.459978789039717
 21
-5076.7413976463267
 31
0.0
  0
LINE
  5
142D3
  8
01
 10
-44.311450651616042
 20
-5086.7928695089031
 30
0.0
 11
-44.459978789039717
 21
-5086.6443413714796
 31
0.0
  0
ARC
  5
142D4
  8
01
 10
-43.611450651616003
 20
-5085.7958132340564
 30
0.0
 40
1.1999999999999991
 50
180.0
 51
225.00000000000909
  0
LINE
  5
142D5
  8
01
 10
-43.462922514192087
 20
-5085.9443413714789
 30
0.0
 11
-43.611450651616003
 21
-5085.7958132340564
 31
0.0
  0
LINE
  5
142D6
  8
01
 10
-44.311450651616042
 20
-5078.5928695089033
 30
0.0
 11
-44.459978789039717
 21
-5078.7413976463276
 31
0.0
  0
LINE
  5
142D7
  8
01
 10
-43.462922514192087
 20
-5079.4413976463265
 30
0.0
 11
-43.611450651616003
 21
-5079.5899257837509
 31
0.0
  0
LINE
  5
142D8
  8
01
 10
29.688549348384178
 20
-5089.792869508904
 30
0.0
 11
29.688549348384178
 21
-5075.5928695089033
 31
0.0
  0
LINE
  5
142D9
  8
01
 10
-44.811450651616042
 20
-5073.6928695089027
 30
0.0
 11
-44.811450651616042
 21
-5091.6928695089036
 31
0.0
  0
LINE
  5
142DA
  8
01
 10
-46.811450651616042
 20
-5073.6928695089027
 30
0.0
 11
-46.811450651616042
 21
-5091.6928695089036
 31
0.0
  0
LINE
  5
142DB
  8
01
 10
-44.811450651616042
 20
-5073.6928695089027
 30
0.0
 11
-46.811450651616042
 21
-5073.6928695089027
 31
0.0
  0
LINE
  5
142DC
  8
01
 10
-44.811450651616042
 20
-5091.6928695089036
 30
0.0
 11
-46.811450651616042
 21
-5091.6928695089036
 31
0.0
  0
LINE
  5
142DD
  8
01
 10
-46.811450651615807
 20
-5088.0428695089031
 30
0.0
 11
-58.18509991608834
 21
-5088.0428695089031
 31
0.0
  0
LINE
  5
142DE
  8
01
 10
-46.811450651615807
 20
-5077.3428695089033
 30
0.0
 11
-47.68509991608834
 21
-5077.3428695089033
 31
0.0
  0
LINE
  5
142DF
  8
01
 10
-58.18509991608834
 20
-5088.0428695089031
 30
0.0
 11
-58.18509991608834
 21
-5086.0428695089031
 31
0.0
  0
LINE
  5
142E0
  8
01
 10
-58.18509991608834
 20
-5086.0428695089031
 30
0.0
 11
-47.68509991608834
 21
-5077.3428695089033
 31
0.0
  0
ARC
  5
15BE1
  8
01
 10
4.1876651663239954
 20
-5306.1928695078668
 30
0.0
 40
25.0
 50
39.921996490715422
 51
10.94445162578231
  0
LINE
  5
15BE3
  8
01
 10
4.1876651663239954
 20
-5312.1928695078668
 30
0.0
 11
4.1876651663239954
 21
-5300.1928695078668
 31
0.0
  0
LINE
  5
15BE4
  8
01
 10
-1.8123348336760039
 20
-5306.1928695078668
 30
0.0
 11
10.18766516632399
 21
-5306.1928695078668
 31
0.0
  0
LINE
  5
15C92
  8
01
 10
-19.812218493931368
 20
-5111.1928695089027
 30
0.0
 11
28.187781506068632
 21
-5111.1928695089027
 31
0.0
  0
LINE
  5
15C93
  8
01
 10
-20.812218493931368
 20
-5102.6928695089036
 30
0.0
 11
-20.812218493931368
 21
-5110.1928695089027
 31
0.0
  0
ARC
  5
15C94
  8
01
 10
-19.812218493931368
 20
-5110.1928695089027
 30
0.0
 40
1.0
 50
180.0
 51
270.0
  0
LINE
  5
15C95
  8
01
 10
29.187781506068632
 20
-5102.6928695089036
 30
0.0
 11
29.187781506068632
 21
-5110.1928695089027
 31
0.0
  0
ARC
  5
15C96
  8
01
 10
28.187781506068632
 20
-5110.1928695089027
 30
0.0
 40
1.0
 50
270.0
 51
0.0
  0
LINE
  5
15C97
  8
01
 10
-20.812218493931368
 20
-5102.6928695089036
 30
0.0
 11
29.187781506068632
 21
-5102.6928695089036
 31
0.0
  0
LINE
  5
15C99
  8
01
 10
4.1877815060686308
 20
-5097.6928695089036
 30
0.0
 11
4.1877815060686308
 21
-5124.1928695089027
 31
0.0
  0
LINE
  5
15DEB
  8
01
 10
-144.31233083367641
 20
-5281.1928695078677
 30
0.0
 11
-144.31233083367641
 21
-5331.1928695078677
 31
0.0
  0
LINE
  5
15DEC
  8
01
 10
-135.81233083367641
 20
-5330.1928695078677
 30
0.0
 11
-135.81233083367641
 21
-5282.1928695078668
 31
0.0
  0
LINE
  5
15DED
  8
01
 10
-144.31233083367641
 20
-5331.1928695078677
 30
0.0
 11
-136.81233083367641
 21
-5331.1928695078677
 31
0.0
  0
ARC
  5
15DEE
  8
01
 10
-136.81233083367641
 20
-5330.1928695078677
 30
0.0
 40
1.0
 50
270.0
 51
0.0
  0
LINE
  5
15DEF
  8
01
 10
-144.31233083367641
 20
-5281.1928695078677
 30
0.0
 11
-136.81233083367641
 21
-5281.1928695078677
 31
0.0
  0
ARC
  5
15DF0
  8
01
 10
-136.81233083367641
 20
-5282.1928695078668
 30
0.0
 40
1.0
 50
0.0
 51
90.0
  0
LINE
  5
15DF1
  8
01
 10
-146.4406162161078
 20
-5306.1928695078668
 30
0.0
 11
-123.8123308336764
 21
-5306.1928695078668
 31
0.0
  0
LINE
  5
15DF9
  8
01
 10
-129.61233083367659
 20
-5320.3910977863234
 30
0.0
 11
-129.61233083367659
 21
-5310.7987458915504
 31
0.0
  0
LINE
  5
1614C
  8
01
 10
4.1877815060686308
 20
-5067.6928695089036
 30
0.0
 11
4.1877815060686308
 21
-5041.1928695089036
 31
0.0
  0
LINE
  5
1614D
  8
01
 10
-19.812218493931368
 20
-5054.1928695089036
 30
0.0
 11
28.187781506068632
 21
-5054.1928695089036
 31
0.0
  0
LINE
  5
1614E
  8
01
 10
-20.812218493931368
 20
-5062.6928695089036
 30
0.0
 11
-20.812218493931368
 21
-5055.1928695089027
 31
0.0
  0
ARC
  5
1614F
  8
01
 10
-19.812218493931368
 20
-5055.1928695089027
 30
0.0
 40
1.0
 50
90.000000000000028
 51
180.0
  0
LINE
  5
16150
  8
01
 10
29.187781506068632
 20
-5062.6928695089036
 30
0.0
 11
29.187781506068632
 21
-5055.1928695089027
 31
0.0
  0
ARC
  5
16151
  8
01
 10
28.187781506068632
 20
-5055.1928695089027
 30
0.0
 40
1.0
 50
0.0
 51
90.000000000000028
  0
LINE
  5
16152
  8
01
 10
-20.812218493931368
 20
-5062.6928695089036
 30
0.0
 11
29.187781506068632
 21
-5062.6928695089036
 31
0.0
  0
LINE
  5
16153
  8
01
 10
4.1877815060686308
 20
-5067.6928695089036
 30
0.0
 11
4.1877815060686308
 21
-5041.1928695089036
 31
0.0
  0
LINE
  5
16167
  8
01
 10
-179.3123308336767
 20
-5306.1928695078668
 30
0.0
 11
-214.3123308336767
 21
-5306.1928695078668
 31
0.0
  0
LINE
  5
16168
  8
01
 10
-332.81232683367722
 20
-5276.1928695078677
 30
0.0
 11
-332.81232683367722
 21
-5336.1928695078677
 31
0.0
  0
ARC
  5
16169
  8
01
 10
-332.81232683367722
 20
-5306.1928695078668
 30
0.0
 40
25.0
 50
169.05554837421769
 51
140.07800350928451
  0
LINE
  5
1616B
  8
01
 10
-332.81232683367722
 20
-5312.1928695078668
 30
0.0
 11
-332.81232683367722
 21
-5300.1928695078668
 31
0.0
  0
LINE
  5
1616C
  8
01
 10
-326.81232683367722
 20
-5306.1928695078668
 30
0.0
 11
-338.81232683367722
 21
-5306.1928695078668
 31
0.0
  0
LINE
  5
1617A
  8
01
 10
-184.3123308336767
 20
-5281.1928695078677
 30
0.0
 11
-184.3123308336767
 21
-5331.1928695078677
 31
0.0
  0
LINE
  5
1617B
  8
01
 10
-192.8123308336767
 20
-5330.1928695078677
 30
0.0
 11
-192.8123308336767
 21
-5282.1928695078668
 31
0.0
  0
LINE
  5
1617C
  8
01
 10
-184.3123308336767
 20
-5331.1928695078677
 30
0.0
 11
-191.8123308336767
 21
-5331.1928695078677
 31
0.0
  0
ARC
  5
1617D
  8
01
 10
-191.8123308336767
 20
-5330.1928695078677
 30
0.0
 40
1.0
 50
180.0
 51
270.0
  0
LINE
  5
1617E
  8
01
 10
-184.3123308336767
 20
-5281.1928695078677
 30
0.0
 11
-191.8123308336767
 21
-5281.1928695078677
 31
0.0
  0
ARC
  5
1617F
  8
01
 10
-191.8123308336767
 20
-5282.1928695078668
 30
0.0
 40
1.0
 50
90.0
 51
180.0
  0
LINE
  5
16180
  8
01
 10
-182.18404545124531
 20
-5306.1928695078668
 30
0.0
 11
-204.8123308336767
 21
-5306.1928695078668
 31
0.0
  0
LINE
  5
16188
  8
01
 10
-199.01233083367649
 20
-5320.3910977863234
 30
0.0
 11
-199.01233083367649
 21
-5310.7987458915504
 31
0.0
  0
LINE
  5
164E6
  8
01
  6
BYBLOCK
 10
17.75232513257453
 20
-5285.1928695078668
 30
0.0
 11
29.687665166323988
 21
-5285.1928695078668
 31
0.0
  0
LINE
  5
164E8
  8
01
  6
BYBLOCK
 10
29.687665166323988
 20
-5289.1872331961677
 30
0.0
 11
29.687665166323988
 21
-5285.1928695078668
 31
0.0
  0
LINE
  5
164E9
  8
01
 10
29.687665166323988
 20
-5289.1872331961677
 30
0.0
 11
29.687665166323988
 21
-5301.3056242980274
 31
0.0
  0
LINE
  5
164EA
  8
01
 10
-9.3769947999265426
 20
-5285.1928695078668
 30
0.0
 11
17.752325132574349
 21
-5285.1928695078668
 31
0.0
  0
LINE
  5
164FF
  8
01
  6
BYBLOCK
 10
-346.37698679992769
 20
-5285.1928695078668
 30
0.0
 11
-358.31232683367688
 21
-5285.1928695078668
 31
0.0
  0
LINE
  5
16500
  8
01
  6
BYBLOCK
 10
-358.31232683367688
 20
-5289.1872331961677
 30
0.0
 11
-358.31232683367688
 21
-5285.1928695078668
 31
0.0
  0
TEXT
  5
165FC
  8
01
 10
-349.11231483367698
 20
-5150.1592399252322
 30
0.0
 40
6.0
  1
サテンニッケル
 72
     1
 11
-324.71231483367711
 21
-5150.1592399252322
 31
0.0
  0
TEXT
  5
165FD
  8
01
 10
-292.21231483367569
 20
-5150.764404983348
 30
0.0
 40
6.0
  1
1-C4C-N-LM
 41
0.7
 72
     1
 11
-269.71231483367569
 21
-5150.764404983348
 31
0.0
  0
LINE
  5
165FE
  8
01
 10
-350.81231483367651
 20
-5173.692869507875
 30
0.0
 11
-240.81231483367651
 21
-5173.692869507875
 31
0.0
  0
TEXT
  5
165FF
  8
01
 10
-345.91231483367699
 20
-5171.1592399252313
 30
0.0
 40
6.0
  1
サテンクローム＋クローム
 41
0.5
 72
     1
 11
-324.71231483367711
 21
-5171.1592399252313
 31
0.0
  0
TEXT
  5
16600
  8
01
 10
-293.71231483367569
 20
-5171.764404983348
 30
0.0
 40
6.0
  1
1-C4C-JC-LM
 41
0.7
 72
     1
 11
-269.71231483367569
 21
-5171.764404983348
 31
0.0
  0
ARC
  5
16913
  8
01
 10
58.539467168466899
 20
-5500.2241340481978
 30
0.0
 40
201.0
 50
97.928353901882645
 51
98.667635963171904
  0
LINE
  5
169B3
  8
01
 10
14.18778150606863
 20
-5111.6928695089027
 30
0.0
 11
14.18778150606863
 21
-5111.8928695089044
 31
0.0
  0
LINE
  5
169B4
  8
01
 10
-5.8122184939313684
 20
-5111.6928695089027
 30
0.0
 11
-5.8122184939313684
 21
-5111.8928695089044
 31
0.0
  0
LINE
  5
169B5
  8
01
 10
-11.46041649179028
 20
-5111.8928695089044
 30
0.0
 11
16.067761503975589
 21
-5111.8928695089044
 31
0.0
  0
LINE
  5
169B6
  8
01
 10
-5.8122184939313684
 20
-5111.6928695089027
 30
0.0
 11
14.18778150606863
 21
-5111.6928695089027
 31
0.0
  0
LINE
  5
169B9
  8
01
 10
-11.460416491792101
 20
-5156.8928695089044
 30
0.0
 11
-11.46041649179028
 21
-5111.8928695089044
 31
0.0
  0
ARC
  5
169BA
  8
01
 10
3.539583508207897
 20
-5156.8928695089044
 30
0.0
 40
15.0
 50
180.0
 51
270.0
  0
LINE
  5
169BB
  8
01
 10
16.067761503977412
 20
-5139.8928695089025
 30
0.0
 11
16.067761503975589
 21
-5111.8928695089044
 31
0.0
  0
ARC
  5
169BC
  8
01
 10
21.067761503977412
 20
-5139.8928695089025
 30
0.0
 40
5.0
 50
180.0
 51
270.0
  0
LINE
  5
169BD
  8
01
 10
3.539583508207897
 20
-5171.8928695089025
 30
0.0
 11
124.9696099522541
 21
-5171.8928695089053
 31
0.0
  0
LINE
  5
169BE
  8
01
 10
21.067761503977412
 20
-5144.8928695089044
 30
0.0
 11
124.9696099522541
 21
-5144.8928695089044
 31
0.0
  0
ARC
  5
169BF
  8
01
 10
28.539583508205169
 20
-5158.3928695089044
 30
0.0
 40
100.0
 50
353.78570299282239
 51
6.2142970071776178
  0
ARC
  5
169C0
  8
01
 10
124.9696099522541
 20
-5168.8928695089025
 30
0.0
 40
3.0
 50
270.0
 51
353.78570299282239
  0
ARC
  5
169C1
  8
01
 10
124.9696099522541
 20
-5147.8928695089044
 30
0.0
 40
3.0
 50
6.2142970071776178
 51
90.0
  0
LINE
  5
16A18
  8
01
 10
-5.8122184939313684
 20
-5053.6928695089018
 30
0.0
 11
-5.8122184939313684
 21
-5053.492869508902
 31
0.0
  0
LINE
  5
16A19
  8
01
 10
-11.46041649179028
 20
-5053.492869508902
 30
0.0
 11
16.067761503975589
 21
-5053.492869508902
 31
0.0
  0
LINE
  5
16A1A
  8
01
 10
-5.8122184939313684
 20
-5053.6928695089018
 30
0.0
 11
14.18778150606863
 21
-5053.6928695089018
 31
0.0
  0
LINE
  5
16A1B
  8
01
 10
-11.460416491792101
 20
-5008.492869508902
 30
0.0
 11
-11.46041649179028
 21
-5053.492869508902
 31
0.0
  0
ARC
  5
16A1C
  8
01
 10
3.539583508207897
 20
-5008.492869508902
 30
0.0
 40
15.0
 50
90.000000000000028
 51
180.0
  0
LINE
  5
16A1D
  8
01
 10
16.067761503977412
 20
-5025.492869508902
 30
0.0
 11
16.067761503975589
 21
-5053.492869508902
 31
0.0
  0
ARC
  5
16A1E
  8
01
 10
21.067761503977412
 20
-5025.492869508902
 30
0.0
 40
5.0
 50
90.000000000000028
 51
180.0
  0
LINE
  5
16A1F
  8
01
 10
3.539583508207897
 20
-4993.492869508902
 30
0.0
 11
124.9696099522541
 21
-4993.492869508902
 31
0.0
  0
LINE
  5
16A20
  8
01
 10
21.067761503977412
 20
-5020.4928695089029
 30
0.0
 11
124.9696099522541
 21
-5020.4928695089029
 31
0.0
  0
ARC
  5
16A21
  8
01
 10
28.539583508205169
 20
-5006.992869508902
 30
0.0
 40
100.0
 50
353.78570299282251
 51
6.2142970071775121
  0
ARC
  5
16A22
  8
01
 10
124.9696099522541
 20
-4996.492869508902
 30
0.0
 40
3.0
 50
6.2142970071775121
 51
90.000000000000028
  0
ARC
  5
16A23
  8
01
 10
124.9696099522541
 20
-5017.492869508902
 30
0.0
 40
3.0
 50
270.0
 51
353.78570299282251
  0
ARC
  5
16A24
  8
01
 10
58.539467168461442
 20
-5500.2241340481978
 30
0.0
 40
210.0
 50
70.778347764464982
 51
109.4013400615533
  0
ARC
  5
16A25
  8
01
 10
58.539467168461442
 20
-5500.2241340481978
 30
0.0
 40
213.0
 50
74.351442667692794
 51
105.64855733230721
  0
ARC
  5
16A26
  8
01
 10
9.1777809828943191
 20
-5324.0071543416007
 30
0.0
 40
30.0
 50
105.64855733230721
 51
132.157576421708
  0
ARC
  5
16A27
  8
01
 10
-10.28620384054943
 20
-5302.5094034175472
 30
0.0
 40
1.0
 50
132.157576421708
 51
201.4672383343748
  0
ARC
  5
16A28
  8
01
 10
109.13461723522479
 20
-5256.1533086860754
 30
0.0
 40
50.0
 50
278.3923823611795
 51
290.97756203470749
  0
ARC
  5
16A29
  8
01
 10
4.1876651663185376
 20
-5306.1928695078668
 30
0.0
 40
11.0
 50
228.80315131162141
 51
330.85337355122601
  0
ARC
  5
16A2A
  8
01
 10
31.262326166351841
 20
-5321.2913042523469
 30
0.0
 40
20.0
 50
98.667635963171904
 51
150.85337355122601
  0
ARC
  5
16A2B
  8
01
 10
107.90115335402849
 20
-5324.0071543416007
 30
0.0
 40
30.0
 50
49.651607607929371
 51
74.351442667692794
  0
ARC
  5
16A2C
  8
01
 10
126.67673075327519
 20
-5301.9056228714771
 30
0.0
 40
1.0
 50
290.97756203470749
 51
49.651607607929371
  0
ARC
  5
16A2D
  8
01
 10
94.539467168461456
 20
-5157.2241340481987
 30
0.0
 40
150.0
 50
255.7726447760011
 51
278.3923823611795
  0
ARC
  5
16A2E
  8
01
 10
40.470021264235349
 20
-5370.4763204839064
 30
0.0
 40
70.0
 50
75.772644776001101
 51
97.928353901882645
  0
ARC
  5
16A2F
  8
01
 10
16.701978604952039
 20
-5291.8962979206481
 30
0.0
 40
30.0
 50
201.4672383343748
 51
228.80315131162141
  0
LINE
  5
16A47
  8
01
 10
-135.31233083367641
 20
-5316.1928695078677
 30
0.0
 11
-135.31233083367641
 21
-5296.1928695078668
 31
0.0
  0
LINE
  5
16A48
  8
01
 10
-135.31233083367641
 20
-5296.1928695078668
 30
0.0
 11
-135.11233083367659
 21
-5296.1928695078668
 31
0.0
  0
LINE
  5
16A49
  8
01
 10
-135.31233083367641
 20
-5316.1928695078677
 30
0.0
 11
-135.11233083367659
 21
-5316.1928695078677
 31
0.0
  0
LINE
  5
16A4A
  8
01
 10
-102.1123308336748
 20
-5290.2241340481978
 30
0.0
 11
-102.1123308336748
 21
-5294.0071543416016
 31
0.0
  0
LINE
  5
16A4B
  8
01
 10
-75.112330833674832
 20
-5290.2241340481978
 30
0.0
 11
-75.112330833674832
 21
-5301.0080413582664
 31
0.0
  0
ARC
  5
16A4C
  8
01
 10
-88.612330833674832
 20
-5319.0991340481951
 30
0.0
 40
31.874999999997939
 50
64.942384581718173
 51
115.0576154182818
  0
POLYLINE
  5
16A4D
  8
01
 10
-75.112330833674832
 20
-5301.0080413582664
 30
0.0
 66
     1
 70
     8
  0
VERTEX
  8
01
  5
16D07
 10
-75.1123
 20
-5301.01
 30
0.000000
  70
    32
  0
VERTEX
  8
01
  5
16D08
 10
-75.1127
 20
-5301.06
 30
0.000000
  70
    32
  0
VERTEX
  8
01
  5
16D09
 10
-75.1139
 20
-5301.10
 30
0.000000
  70
    32
  0
VERTEX
  8
01
  5
16D0A
 10
-75.1159
 20
-5301.15
 30
0.000000
  70
    32
  0
VERTEX
  8
01
  5
16D0B
 10
-75.1186
 20
-5301.20
 30
0.000000
  70
    32
  0
VERTEX
  8
01
  5
16D0C
 10
-75.1222
 20
-5301.25
 30
0.000000
  70
    32
  0
VERTEX
  8
01
  5
16D0D
 10
-75.1265
 20
-5301.29
 30
0.000000
  70
    32
  0
VERTEX
  8
01
  5
16D0E
 10
-75.1316
 20
-5301.34
 30
0.000000
  70
    32
  0
VERTEX
  8
01
  5
16D0F
 10
-75.1375
 20
-5301.39
 30
0.000000
  70
    32
  0
VERTEX
  8
01
  5
16D10
 10
-75.1441
 20
-5301.43
 30
0.000000
  70
    32
  0
VERTEX
  8
01
  5
16D11
 10
-75.1516
 20
-5301.48
 30
0.000000
  70
    32
  0
VERTEX
  8
01
  5
16D12
 10
-75.1598
 20
-5301.53
 30
0.000000
  70
    32
  0
VERTEX
  8
01
  5
16D13
 10
-75.1689
 20
-5301.58
 30
0.000000
  70
    32
  0
VERTEX
  8
01
  5
16D14
 10
-75.1787
 20
-5301.62
 30
0.000000
  70
    32
  0
VERTEX
  8
01
  5
16D15
 10
-75.1893
 20
-5301.67
 30
0.000000
  70
    32
  0
VERTEX
  8
01
  5
16D16
 10
-75.2006
 20
-5301.72
 30
0.000000
  70
    32
  0
VERTEX
  8
01
  5
16D17
 10
-75.2128
 20
-5301.76
 30
0.000000
  70
    32
  0
VERTEX
  8
01
  5
16D18
 10
-75.2257
 20
-5301.81
 30
0.000000
  70
    32
  0
VERTEX
  8
01
  5
16D19
 10
-75.2394
 20
-5301.86
 30
0.000000
  70
    32
  0
VERTEX
  8
01
  5
16D1A
 10
-75.2539
 20
-5301.91
 30
0.000000
  70
    32
  0
VERTEX
  8
01
  5
16D1B
 10
-75.2692
 20
-5301.95
 30
0.000000
  70
    32
  0
VERTEX
  8
01
  5
16D1C
 10
-75.2852
 20
-5302.00
 30
0.000000
  70
    32
  0
VERTEX
  8
01
  5
16D1D
 10
-75.3020
 20
-5302.05
 30
0.000000
  70
    32
  0
VERTEX
  8
01
  5
16D1E
 10
-75.3196
 20
-5302.09
 30
0.000000
  70
    32
  0
VERTEX
  8
01
  5
16D1F
 10
-75.3380
 20
-5302.14
 30
0.000000
  70
    32
  0
VERTEX
  8
01
  5
16D20
 10
-75.3571
 20
-5302.19
 30
0.000000
  70
    32
  0
VERTEX
  8
01
  5
16D21
 10
-75.3770
 20
-5302.23
 30
0.000000
  70
    32
  0
VERTEX
  8
01
  5
16D22
 10
-75.3977
 20
-5302.28
 30
0.000000
  70
    32
  0
VERTEX
  8
01
  5
16D23
 10
-75.4191
 20
-5302.33
 30
0.000000
  70
    32
  0
VERTEX
  8
01
  5
16D24
 10
-75.4414
 20
-5302.37
 30
0.000000
  70
    32
  0
VERTEX
  8
01
  5
16D25
 10
-75.4643
 20
-5302.42
 30
0.000000
  70
    32
  0
VERTEX
  8
01
  5
16D26
 10
-75.4881
 20
-5302.46
 30
0.000000
  70
    32
  0
VERTEX
  8
01
  5
16D27
 10
-75.5126
 20
-5302.51
 30
0.000000
  70
    32
  0
VERTEX
  8
01
  5
16D28
 10
-75.5379
 20
-5302.56
 30
0.000000
  70
    32
  0
VERTEX
  8
01
  5
16D29
 10
-75.5639
 20
-5302.60
 30
0.000000
  70
    32
  0
VERTEX
  8
01
  5
16D2A
 10
-75.5907
 20
-5302.65
 30
0.000000
  70
    32
  0
VERTEX
  8
01
  5
16D2B
 10
-75.6182
 20
-5302.69
 30
0.000000
  70
    32
  0
VERTEX
  8
01
  5
16D2C
 10
-75.6465
 20
-5302.74
 30
0.000000
  70
    32
  0
VERTEX
  8
01
  5
16D2D
 10
-75.6756
 20
-5302.78
 30
0.000000
  70
    32
  0
VERTEX
  8
01
  5
16D2E
 10
-75.7054
 20
-5302.83
 30
0.000000
  70
    32
  0
VERTEX
  8
01
  5
16D2F
 10
-75.7360
 20
-5302.88
 30
0.000000
  70
    32
  0
VERTEX
  8
01
  5
16D30
 10
-75.7673
 20
-5302.92
 30
0.000000
  70
    32
  0
VERTEX
  8
01
  5
16D31
 10
-75.7994
 20
-5302.97
 30
0.000000
  70
    32
  0
VERTEX
  8
01
  5
16D32
 10
-75.8322
 20
-5303.01
 30
0.000000
  70
    32
  0
VERTEX
  8
01
  5
16D33
 10
-75.8657
 20
-5303.06
 30
0.000000
  70
    32
  0
VERTEX
  8
01
  5
16D34
 10
-75.9000
 20
-5303.10
 30
0.000000
  70
    32
  0
VERTEX
  8
01
  5
16D35
 10
-75.9351
 20
-5303.14
 30
0.000000
  70
    32
  0
VERTEX
  8
01
  5
16D36
 10
-75.9708
 20
-5303.19
 30
0.000000
  70
    32
  0
VERTEX
  8
01
  5
16D37
 10
-76.0073
 20
-5303.23
 30
0.000000
  70
    32
  0
VERTEX
  8
01
  5
16D38
 10
-76.0446
 20
-5303.28
 30
0.000000
  70
    32
  0
VERTEX
  8
01
  5
16D39
 10
-76.0825
 20
-5303.32
 30
0.000000
  70
    32
  0
VERTEX
  8
01
  5
16D3A
 10
-76.1212
 20
-5303.37
 30
0.000000
  70
    32
  0
VERTEX
  8
01
  5
16D3B
 10
-76.1607
 20
-5303.41
 30
0.000000
  70
    32
  0
VERTEX
  8
01
  5
16D3C
 10
-76.2008
 20
-5303.45
 30
0.000000
  70
    32
  0
VERTEX
  8
01
  5
16D3D
 10
-76.2417
 20
-5303.50
 30
0.000000
  70
    32
  0
VERTEX
  8
01
  5
16D3E
 10
-76.2833
 20
-5303.54
 30
0.000000
  70
    32
  0
VERTEX
  8
01
  5
16D3F
 10
-76.3256
 20
-5303.58
 30
0.000000
  70
    32
  0
VERTEX
  8
01
  5
16D40
 10
-76.3686
 20
-5303.63
 30
0.000000
  70
    32
  0
VERTEX
  8
01
  5
16D41
 10
-76.4124
 20
-5303.67
 30
0.000000
  70
    32
  0
VERTEX
  8
01
  5
16D42
 10
-76.4568
 20
-5303.71
 30
0.000000
  70
    32
  0
VERTEX
  8
01
  5
16D43
 10
-76.5020
 20
-5303.75
 30
0.000000
  70
    32
  0
VERTEX
  8
01
  5
16D44
 10
-76.5478
 20
-5303.80
 30
0.000000
  70
    32
  0
VERTEX
  8
01
  5
16D45
 10
-76.5944
 20
-5303.84
 30
0.000000
  70
    32
  0
VERTEX
  8
01
  5
16D46
 10
-76.6417
 20
-5303.88
 30
0.000000
  70
    32
  0
VERTEX
  8
01
  5
16D47
 10
-76.6896
 20
-5303.92
 30
0.000000
  70
    32
  0
VERTEX
  8
01
  5
16D48
 10
-76.7383
 20
-5303.97
 30
0.000000
  70
    32
  0
VERTEX
  8
01
  5
16D49
 10
-76.7876
 20
-5304.01
 30
0.000000
  70
    32
  0
VERTEX
  8
01
  5
16D4A
 10
-76.8377
 20
-5304.05
 30
0.000000
  70
    32
  0
VERTEX
  8
01
  5
16D4B
 10
-76.8884
 20
-5304.09
 30
0.000000
  70
    32
  0
VERTEX
  8
01
  5
16D4C
 10
-76.9398
 20
-5304.13
 30
0.000000
  70
    32
  0
VERTEX
  8
01
  5
16D4D
 10
-76.9919
 20
-5304.17
 30
0.000000
  70
    32
  0
VERTEX
  8
01
  5
16D4E
 10
-77.0446
 20
-5304.21
 30
0.000000
  70
    32
  0
VERTEX
  8
01
  5
16D4F
 10
-77.0981
 20
-5304.25
 30
0.000000
  70
    32
  0
VERTEX
  8
01
  5
16D50
 10
-77.1522
 20
-5304.29
 30
0.000000
  70
    32
  0
VERTEX
  8
01
  5
16D51
 10
-77.2069
 20
-5304.33
 30
0.000000
  70
    32
  0
VERTEX
  8
01
  5
16D52
 10
-77.2624
 20
-5304.37
 30
0.000000
  70
    32
  0
VERTEX
  8
01
  5
16D53
 10
-77.3184
 20
-5304.41
 30
0.000000
  70
    32
  0
VERTEX
  8
01
  5
16D54
 10
-77.3752
 20
-5304.45
 30
0.000000
  70
    32
  0
VERTEX
  8
01
  5
16D55
 10
-77.4326
 20
-5304.49
 30
0.000000
  70
    32
  0
VERTEX
  8
01
  5
16D56
 10
-77.4906
 20
-5304.53
 30
0.000000
  70
    32
  0
VERTEX
  8
01
  5
16D57
 10
-77.5493
 20
-5304.57
 30
0.000000
  70
    32
  0
VERTEX
  8
01
  5
16D58
 10
-77.6087
 20
-5304.61
 30
0.000000
  70
    32
  0
VERTEX
  8
01
  5
16D59
 10
-77.6687
 20
-5304.65
 30
0.000000
  70
    32
  0
VERTEX
  8
01
  5
16D5A
 10
-77.7293
 20
-5304.69
 30
0.000000
  70
    32
  0
VERTEX
  8
01
  5
16D5B
 10
-77.7906
 20
-5304.72
 30
0.000000
  70
    32
  0
VERTEX
  8
01
  5
16D5C
 10
-77.8524
 20
-5304.76
 30
0.000000
  70
    32
  0
VERTEX
  8
01
  5
16D5D
 10
-77.9149
 20
-5304.80
 30
0.000000
  70
    32
  0
VERTEX
  8
01
  5
16D5E
 10
-77.9781
 20
-5304.84
 30
0.000000
  70
    32
  0
VERTEX
  8
01
  5
16D5F
 10
-78.0418
 20
-5304.87
 30
0.000000
  70
    32
  0
VERTEX
  8
01
  5
16D60
 10
-78.1062
 20
-5304.91
 30
0.000000
  70
    32
  0
VERTEX
  8
01
  5
16D61
 10
-78.1712
 20
-5304.95
 30
0.000000
  70
    32
  0
VERTEX
  8
01
  5
16D62
 10
-78.2368
 20
-5304.98
 30
0.000000
  70
    32
  0
VERTEX
  8
01
  5
16D63
 10
-78.3030
 20
-5305.02
 30
0.000000
  70
    32
  0
VERTEX
  8
01
  5
16D64
 10
-78.3697
 20
-5305.06
 30
0.000000
  70
    32
  0
VERTEX
  8
01
  5
16D65
 10
-78.4371
 20
-5305.09
 30
0.000000
  70
    32
  0
VERTEX
  8
01
  5
16D66
 10
-78.5051
 20
-5305.13
 30
0.000000
  70
    32
  0
VERTEX
  8
01
  5
16D67
 10
-78.5737
 20
-5305.16
 30
0.000000
  70
    32
  0
VERTEX
  8
01
  5
16D68
 10
-78.6428
 20
-5305.20
 30
0.000000
  70
    32
  0
VERTEX
  8
01
  5
16D69
 10
-78.7126
 20
-5305.23
 30
0.000000
  70
    32
  0
VERTEX
  8
01
  5
16D6A
 10
-78.7829
 20
-5305.27
 30
0.000000
  70
    32
  0
VERTEX
  8
01
  5
16D6B
 10
-78.8537
 20
-5305.30
 30
0.000000
  70
    32
  0
VERTEX
  8
01
  5
16D6C
 10
-78.9252
 20
-5305.34
 30
0.000000
  70
    32
  0
VERTEX
  8
01
  5
16D6D
 10
-78.9972
 20
-5305.37
 30
0.000000
  70
    32
  0
VERTEX
  8
01
  5
16D6E
 10
-79.0698
 20
-5305.41
 30
0.000000
  70
    32
  0
VERTEX
  8
01
  5
16D6F
 10
-79.1429
 20
-5305.44
 30
0.000000
  70
    32
  0
VERTEX
  8
01
  5
16D70
 10
-79.2166
 20
-5305.47
 30
0.000000
  70
    32
  0
VERTEX
  8
01
  5
16D71
 10
-79.2908
 20
-5305.50
 30
0.000000
  70
    32
  0
VERTEX
  8
01
  5
16D72
 10
-79.3656
 20
-5305.54
 30
0.000000
  70
    32
  0
VERTEX
  8
01
  5
16D73
 10
-79.4409
 20
-5305.57
 30
0.000000
  70
    32
  0
VERTEX
  8
01
  5
16D74
 10
-79.5167
 20
-5305.60
 30
0.000000
  70
    32
  0
VERTEX
  8
01
  5
16D75
 10
-79.5931
 20
-5305.63
 30
0.000000
  70
    32
  0
VERTEX
  8
01
  5
16D76
 10
-79.6700
 20
-5305.66
 30
0.000000
  70
    32
  0
VERTEX
  8
01
  5
16D77
 10
-79.7474
 20
-5305.70
 30
0.000000
  70
    32
  0
VERTEX
  8
01
  5
16D78
 10
-79.8253
 20
-5305.73
 30
0.000000
  70
    32
  0
VERTEX
  8
01
  5
16D79
 10
-79.9037
 20
-5305.76
 30
0.000000
  70
    32
  0
VERTEX
  8
01
  5
16D7A
 10
-79.9827
 20
-5305.79
 30
0.000000
  70
    32
  0
VERTEX
  8
01
  5
16D7B
 10
-80.0621
 20
-5305.82
 30
0.000000
  70
    32
  0
VERTEX
  8
01
  5
16D7C
 10
-80.1421
 20
-5305.85
 30
0.000000
  70
    32
  0
VERTEX
  8
01
  5
16D7D
 10
-80.2225
 20
-5305.88
 30
0.000000
  70
    32
  0
VERTEX
  8
01
  5
16D7E
 10
-80.3034
 20
-5305.91
 30
0.000000
  70
    32
  0
VERTEX
  8
01
  5
16D7F
 10
-80.3849
 20
-5305.94
 30
0.000000
  70
    32
  0
VERTEX
  8
01
  5
16D80
 10
-80.4667
 20
-5305.97
 30
0.000000
  70
    32
  0
VERTEX
  8
01
  5
16D81
 10
-80.5491
 20
-5305.99
 30
0.000000
  70
    32
  0
VERTEX
  8
01
  5
16D82
 10
-80.6319
 20
-5306.02
 30
0.000000
  70
    32
  0
VERTEX
  8
01
  5
16D83
 10
-80.7152
 20
-5306.05
 30
0.000000
  70
    32
  0
VERTEX
  8
01
  5
16D84
 10
-80.7990
 20
-5306.08
 30
0.000000
  70
    32
  0
VERTEX
  8
01
  5
16D85
 10
-80.8832
 20
-5306.10
 30
0.000000
  70
    32
  0
VERTEX
  8
01
  5
16D86
 10
-80.9679
 20
-5306.13
 30
0.000000
  70
    32
  0
VERTEX
  8
01
  5
16D87
 10
-81.0530
 20
-5306.16
 30
0.000000
  70
    32
  0
SEQEND
  8
01
  5
16D88
  0
LINE
  5
16A4E
  8
01
 10
-135.11233083367571
 20
-5294.0071543416016
 30
0.0
 11
-135.11233083367571
 21
-5317.1928695078668
 31
0.0
  0
LINE
  5
16A4F
  8
01
 10
-106.5610475277865
 20
-5317.1928695078668
 30
0.0
 11
-135.11233083367571
 21
-5317.1928695078668
 31
0.0
  0
ARC
  5
16A50
  8
01
 10
-106.5610475277865
 20
-5282.1928695078668
 30
0.0
 40
35.0
 50
270.0
 51
330.94004259484649
  0
LINE
  5
16A51
  8
01
 10
-102.1123308336757
 20
-5294.0071543416016
 30
0.0
 11
-135.11233083367571
 21
-5294.0071543416016
 31
0.0
  0
LINE
  5
16A52
  8
01
 10
-135.11233083367571
 20
-5302.2342353159638
 30
0.0
 11
-86.605286444579406
 21
-5302.2342353159638
 31
0.0
  0
POLYLINE
  5
16A53
  8
01
 10
-88.612330833674847
 20
-5302.2342353159638
 30
0.0
 66
     1
 70
     8
  0
VERTEX
  8
01
  5
16D89
 10
-88.6123
 20
-5302.23
 30
0.000000
  70
    32
  0
VERTEX
  8
01
  5
16D8A
 10
-88.4467
 20
-5302.23
 30
0.000000
  70
    32
  0
VERTEX
  8
01
  5
16D8B
 10
-88.2810
 20
-5302.23
 30
0.000000
  70
    32
  0
VERTEX
  8
01
  5
16D8C
 10
-88.1154
 20
-5302.23
 30
0.000000
  70
    32
  0
VERTEX
  8
01
  5
16D8D
 10
-87.9499
 20
-5302.23
 30
0.000000
  70
    32
  0
VERTEX
  8
01
  5
16D8E
 10
-87.7845
 20
-5302.23
 30
0.000000
  70
    32
  0
VERTEX
  8
01
  5
16D8F
 10
-87.6192
 20
-5302.22
 30
0.000000
  70
    32
  0
VERTEX
  8
01
  5
16D90
 10
-87.4541
 20
-5302.22
 30
0.000000
  70
    32
  0
VERTEX
  8
01
  5
16D91
 10
-87.2891
 20
-5302.21
 30
0.000000
  70
    32
  0
VERTEX
  8
01
  5
16D92
 10
-87.1243
 20
-5302.21
 30
0.000000
  70
    32
  0
VERTEX
  8
01
  5
16D93
 10
-86.9598
 20
-5302.20
 30
0.000000
  70
    32
  0
VERTEX
  8
01
  5
16D94
 10
-86.7955
 20
-5302.19
 30
0.000000
  70
    32
  0
VERTEX
  8
01
  5
16D95
 10
-86.6315
 20
-5302.18
 30
0.000000
  70
    32
  0
VERTEX
  8
01
  5
16D96
 10
-86.4677
 20
-5302.17
 30
0.000000
  70
    32
  0
VERTEX
  8
01
  5
16D97
 10
-86.3043
 20
-5302.17
 30
0.000000
  70
    32
  0
VERTEX
  8
01
  5
16D98
 10
-86.1413
 20
-5302.16
 30
0.000000
  70
    32
  0
VERTEX
  8
01
  5
16D99
 10
-85.9786
 20
-5302.14
 30
0.000000
  70
    32
  0
VERTEX
  8
01
  5
16D9A
 10
-85.8163
 20
-5302.13
 30
0.000000
  70
    32
  0
VERTEX
  8
01
  5
16D9B
 10
-85.6545
 20
-5302.12
 30
0.000000
  70
    32
  0
VERTEX
  8
01
  5
16D9C
 10
-85.4930
 20
-5302.11
 30
0.000000
  70
    32
  0
VERTEX
  8
01
  5
16D9D
 10
-85.3321
 20
-5302.09
 30
0.000000
  70
    32
  0
VERTEX
  8
01
  5
16D9E
 10
-85.1716
 20
-5302.08
 30
0.000000
  70
    32
  0
VERTEX
  8
01
  5
16D9F
 10
-85.0117
 20
-5302.06
 30
0.000000
  70
    32
  0
VERTEX
  8
01
  5
16DA0
 10
-84.8523
 20
-5302.05
 30
0.000000
  70
    32
  0
VERTEX
  8
01
  5
16DA1
 10
-84.6935
 20
-5302.03
 30
0.000000
  70
    32
  0
VERTEX
  8
01
  5
16DA2
 10
-84.5353
 20
-5302.02
 30
0.000000
  70
    32
  0
VERTEX
  8
01
  5
16DA3
 10
-84.3776
 20
-5302.00
 30
0.000000
  70
    32
  0
VERTEX
  8
01
  5
16DA4
 10
-84.2206
 20
-5301.98
 30
0.000000
  70
    32
  0
VERTEX
  8
01
  5
16DA5
 10
-84.0643
 20
-5301.96
 30
0.000000
  70
    32
  0
VERTEX
  8
01
  5
16DA6
 10
-83.9087
 20
-5301.94
 30
0.000000
  70
    32
  0
VERTEX
  8
01
  5
16DA7
 10
-83.7537
 20
-5301.92
 30
0.000000
  70
    32
  0
VERTEX
  8
01
  5
16DA8
 10
-83.5995
 20
-5301.90
 30
0.000000
  70
    32
  0
VERTEX
  8
01
  5
16DA9
 10
-83.4461
 20
-5301.88
 30
0.000000
  70
    32
  0
VERTEX
  8
01
  5
16DAA
 10
-83.2934
 20
-5301.86
 30
0.000000
  70
    32
  0
VERTEX
  8
01
  5
16DAB
 10
-83.1416
 20
-5301.83
 30
0.000000
  70
    32
  0
VERTEX
  8
01
  5
16DAC
 10
-82.9905
 20
-5301.81
 30
0.000000
  70
    32
  0
VERTEX
  8
01
  5
16DAD
 10
-82.8403
 20
-5301.78
 30
0.000000
  70
    32
  0
VERTEX
  8
01
  5
16DAE
 10
-82.6910
 20
-5301.76
 30
0.000000
  70
    32
  0
VERTEX
  8
01
  5
16DAF
 10
-82.5426
 20
-5301.73
 30
0.000000
  70
    32
  0
VERTEX
  8
01
  5
16DB0
 10
-82.3951
 20
-5301.71
 30
0.000000
  70
    32
  0
VERTEX
  8
01
  5
16DB1
 10
-82.2485
 20
-5301.68
 30
0.000000
  70
    32
  0
VERTEX
  8
01
  5
16DB2
 10
-82.1028
 20
-5301.65
 30
0.000000
  70
    32
  0
VERTEX
  8
01
  5
16DB3
 10
-81.9582
 20
-5301.63
 30
0.000000
  70
    32
  0
VERTEX
  8
01
  5
16DB4
 10
-81.8146
 20
-5301.60
 30
0.000000
  70
    32
  0
VERTEX
  8
01
  5
16DB5
 10
-81.6719
 20
-5301.57
 30
0.000000
  70
    32
  0
VERTEX
  8
01
  5
16DB6
 10
-81.5304
 20
-5301.54
 30
0.000000
  70
    32
  0
VERTEX
  8
01
  5
16DB7
 10
-81.3899
 20
-5301.51
 30
0.000000
  70
    32
  0
VERTEX
  8
01
  5
16DB8
 10
-81.2504
 20
-5301.48
 30
0.000000
  70
    32
  0
VERTEX
  8
01
  5
16DB9
 10
-81.1121
 20
-5301.45
 30
0.000000
  70
    32
  0
VERTEX
  8
01
  5
16DBA
 10
-80.9750
 20
-5301.41
 30
0.000000
  70
    32
  0
VERTEX
  8
01
  5
16DBB
 10
-80.8389
 20
-5301.38
 30
0.000000
  70
    32
  0
VERTEX
  8
01
  5
16DBC
 10
-80.7041
 20
-5301.35
 30
0.000000
  70
    32
  0
VERTEX
  8
01
  5
16DBD
 10
-80.5704
 20
-5301.31
 30
0.000000
  70
    32
  0
VERTEX
  8
01
  5
16DBE
 10
-80.4379
 20
-5301.28
 30
0.000000
  70
    32
  0
VERTEX
  8
01
  5
16DBF
 10
-80.3067
 20
-5301.24
 30
0.000000
  70
    32
  0
VERTEX
  8
01
  5
16DC0
 10
-80.1767
 20
-5301.21
 30
0.000000
  70
    32
  0
VERTEX
  8
01
  5
16DC1
 10
-80.0480
 20
-5301.17
 30
0.000000
  70
    32
  0
VERTEX
  8
01
  5
16DC2
 10
-79.9206
 20
-5301.14
 30
0.000000
  70
    32
  0
VERTEX
  8
01
  5
16DC3
 10
-79.7945
 20
-5301.10
 30
0.000000
  70
    32
  0
VERTEX
  8
01
  5
16DC4
 10
-79.6697
 20
-5301.06
 30
0.000000
  70
    32
  0
VERTEX
  8
01
  5
16DC5
 10
-79.5463
 20
-5301.02
 30
0.000000
  70
    32
  0
VERTEX
  8
01
  5
16DC6
 10
-79.4242
 20
-5300.98
 30
0.000000
  70
    32
  0
VERTEX
  8
01
  5
16DC7
 10
-79.3035
 20
-5300.94
 30
0.000000
  70
    32
  0
VERTEX
  8
01
  5
16DC8
 10
-79.1843
 20
-5300.90
 30
0.000000
  70
    32
  0
VERTEX
  8
01
  5
16DC9
 10
-79.0664
 20
-5300.86
 30
0.000000
  70
    32
  0
VERTEX
  8
01
  5
16DCA
 10
-78.9500
 20
-5300.82
 30
0.000000
  70
    32
  0
VERTEX
  8
01
  5
16DCB
 10
-78.8350
 20
-5300.78
 30
0.000000
  70
    32
  0
VERTEX
  8
01
  5
16DCC
 10
-78.7215
 20
-5300.74
 30
0.000000
  70
    32
  0
VERTEX
  8
01
  5
16DCD
 10
-78.6095
 20
-5300.70
 30
0.000000
  70
    32
  0
VERTEX
  8
01
  5
16DCE
 10
-78.4990
 20
-5300.65
 30
0.000000
  70
    32
  0
VERTEX
  8
01
  5
16DCF
 10
-78.3900
 20
-5300.61
 30
0.000000
  70
    32
  0
VERTEX
  8
01
  5
16DD0
 10
-78.2826
 20
-5300.57
 30
0.000000
  70
    32
  0
VERTEX
  8
01
  5
16DD1
 10
-78.1767
 20
-5300.52
 30
0.000000
  70
    32
  0
VERTEX
  8
01
  5
16DD2
 10
-78.0724
 20
-5300.48
 30
0.000000
  70
    32
  0
VERTEX
  8
01
  5
16DD3
 10
-77.9697
 20
-5300.43
 30
0.000000
  70
    32
  0
VERTEX
  8
01
  5
16DD4
 10
-77.8685
 20
-5300.39
 30
0.000000
  70
    32
  0
VERTEX
  8
01
  5
16DD5
 10
-77.7690
 20
-5300.34
 30
0.000000
  70
    32
  0
VERTEX
  8
01
  5
16DD6
 10
-77.6712
 20
-5300.30
 30
0.000000
  70
    32
  0
VERTEX
  8
01
  5
16DD7
 10
-77.5749
 20
-5300.25
 30
0.000000
  70
    32
  0
VERTEX
  8
01
  5
16DD8
 10
-77.4804
 20
-5300.20
 30
0.000000
  70
    32
  0
VERTEX
  8
01
  5
16DD9
 10
-77.3875
 20
-5300.15
 30
0.000000
  70
    32
  0
VERTEX
  8
01
  5
16DDA
 10
-77.2963
 20
-5300.11
 30
0.000000
  70
    32
  0
VERTEX
  8
01
  5
16DDB
 10
-77.2068
 20
-5300.06
 30
0.000000
  70
    32
  0
VERTEX
  8
01
  5
16DDC
 10
-77.1190
 20
-5300.01
 30
0.000000
  70
    32
  0
VERTEX
  8
01
  5
16DDD
 10
-77.0330
 20
-5299.96
 30
0.000000
  70
    32
  0
VERTEX
  8
01
  5
16DDE
 10
-76.9487
 20
-5299.91
 30
0.000000
  70
    32
  0
VERTEX
  8
01
  5
16DDF
 10
-76.8662
 20
-5299.86
 30
0.000000
  70
    32
  0
VERTEX
  8
01
  5
16DE0
 10
-76.7854
 20
-5299.81
 30
0.000000
  70
    32
  0
VERTEX
  8
01
  5
16DE1
 10
-76.7064
 20
-5299.76
 30
0.000000
  70
    32
  0
VERTEX
  8
01
  5
16DE2
 10
-76.6292
 20
-5299.71
 30
0.000000
  70
    32
  0
VERTEX
  8
01
  5
16DE3
 10
-76.5538
 20
-5299.66
 30
0.000000
  70
    32
  0
VERTEX
  8
01
  5
16DE4
 10
-76.4802
 20
-5299.61
 30
0.000000
  70
    32
  0
VERTEX
  8
01
  5
16DE5
 10
-76.4085
 20
-5299.56
 30
0.000000
  70
    32
  0
VERTEX
  8
01
  5
16DE6
 10
-76.3386
 20
-5299.50
 30
0.000000
  70
    32
  0
VERTEX
  8
01
  5
16DE7
 10
-76.2705
 20
-5299.45
 30
0.000000
  70
    32
  0
VERTEX
  8
01
  5
16DE8
 10
-76.2043
 20
-5299.40
 30
0.000000
  70
    32
  0
VERTEX
  8
01
  5
16DE9
 10
-76.1400
 20
-5299.35
 30
0.000000
  70
    32
  0
VERTEX
  8
01
  5
16DEA
 10
-76.0775
 20
-5299.29
 30
0.000000
  70
    32
  0
VERTEX
  8
01
  5
16DEB
 10
-76.0169
 20
-5299.24
 30
0.000000
  70
    32
  0
VERTEX
  8
01
  5
16DEC
 10
-75.9583
 20
-5299.18
 30
0.000000
  70
    32
  0
VERTEX
  8
01
  5
16DED
 10
-75.9015
 20
-5299.13
 30
0.000000
  70
    32
  0
VERTEX
  8
01
  5
16DEE
 10
-75.8466
 20
-5299.08
 30
0.000000
  70
    32
  0
VERTEX
  8
01
  5
16DEF
 10
-75.7937
 20
-5299.02
 30
0.000000
  70
    32
  0
VERTEX
  8
01
  5
16DF0
 10
-75.7427
 20
-5298.97
 30
0.000000
  70
    32
  0
VERTEX
  8
01
  5
16DF1
 10
-75.6936
 20
-5298.91
 30
0.000000
  70
    32
  0
VERTEX
  8
01
  5
16DF2
 10
-75.6465
 20
-5298.86
 30
0.000000
  70
    32
  0
VERTEX
  8
01
  5
16DF3
 10
-75.6014
 20
-5298.80
 30
0.000000
  70
    32
  0
VERTEX
  8
01
  5
16DF4
 10
-75.5581
 20
-5298.75
 30
0.000000
  70
    32
  0
VERTEX
  8
01
  5
16DF5
 10
-75.5169
 20
-5298.69
 30
0.000000
  70
    32
  0
VERTEX
  8
01
  5
16DF6
 10
-75.4776
 20
-5298.64
 30
0.000000
  70
    32
  0
VERTEX
  8
01
  5
16DF7
 10
-75.4404
 20
-5298.58
 30
0.000000
  70
    32
  0
VERTEX
  8
01
  5
16DF8
 10
-75.4050
 20
-5298.52
 30
0.000000
  70
    32
  0
VERTEX
  8
01
  5
16DF9
 10
-75.3717
 20
-5298.47
 30
0.000000
  70
    32
  0
VERTEX
  8
01
  5
16DFA
 10
-75.3404
 20
-5298.41
 30
0.000000
  70
    32
  0
VERTEX
  8
01
  5
16DFB
 10
-75.3111
 20
-5298.35
 30
0.000000
  70
    32
  0
VERTEX
  8
01
  5
16DFC
 10
-75.2838
 20
-5298.30
 30
0.000000
  70
    32
  0
VERTEX
  8
01
  5
16DFD
 10
-75.2584
 20
-5298.24
 30
0.000000
  70
    32
  0
VERTEX
  8
01
  5
16DFE
 10
-75.2351
 20
-5298.18
 30
0.000000
  70
    32
  0
VERTEX
  8
01
  5
16DFF
 10
-75.2139
 20
-5298.13
 30
0.000000
  70
    32
  0
VERTEX
  8
01
  5
16E00
 10
-75.1946
 20
-5298.07
 30
0.000000
  70
    32
  0
VERTEX
  8
01
  5
16E01
 10
-75.1773
 20
-5298.01
 30
0.000000
  70
    32
  0
VERTEX
  8
01
  5
16E02
 10
-75.1621
 20
-5297.96
 30
0.000000
  70
    32
  0
VERTEX
  8
01
  5
16E03
 10
-75.1489
 20
-5297.90
 30
0.000000
  70
    32
  0
VERTEX
  8
01
  5
16E04
 10
-75.1377
 20
-5297.84
 30
0.000000
  70
    32
  0
VERTEX
  8
01
  5
16E05
 10
-75.1286
 20
-5297.78
 30
0.000000
  70
    32
  0
VERTEX
  8
01
  5
16E06
 10
-75.1215
 20
-5297.73
 30
0.000000
  70
    32
  0
VERTEX
  8
01
  5
16E07
 10
-75.1164
 20
-5297.67
 30
0.000000
  70
    32
  0
VERTEX
  8
01
  5
16E08
 10
-75.1133
 20
-5297.61
 30
0.000000
  70
    32
  0
VERTEX
  8
01
  5
16E09
 10
-75.1123
 20
-5297.55
 30
0.000000
  70
    32
  0
SEQEND
  8
01
  5
16E0A
  0
ARC
  5
16A55
  8
01
 10
-387.16412883581978
 20
-5500.2241340481978
 30
0.0
 40
201.0
 50
81.332364036828054
 51
82.071646098117384
  0
ARC
  5
16A56
  8
01
 10
-387.16412883581438
 20
-5500.2241340481978
 30
0.0
 40
210.0
 50
70.598659938446588
 51
109.2216522355352
  0
ARC
  5
16A57
  8
01
 10
-387.16412883581438
 20
-5500.2241340481978
 30
0.0
 40
213.0
 50
74.351442667692794
 51
105.64855733230721
  0
ARC
  5
16A58
  8
01
 10
-337.80244265024731
 20
-5324.0071543416007
 30
0.0
 40
30.0
 50
47.842423578292248
 51
74.351442667692794
  0
ARC
  5
16A59
  8
01
 10
-318.33845782680351
 20
-5302.5094034175472
 30
0.0
 40
1.0
 50
338.53276166562478
 51
47.842423578292248
  0
ARC
  5
16A5A
  8
01
 10
-437.75927890257771
 20
-5256.1533086860754
 30
0.0
 40
50.0
 50
249.0224379652922
 51
261.6076176388205
  0
ARC
  5
16A5B
  8
01
 10
-332.81232683367148
 20
-5306.1928695078668
 30
0.0
 40
11.0
 50
209.1466264487745
 51
311.19684868837862
  0
ARC
  5
16A5C
  8
01
 10
-359.88698783370478
 20
-5321.2913042523469
 30
0.0
 40
20.0
 50
29.146626448774459
 51
81.332364036828054
  0
ARC
  5
16A5D
  8
01
 10
-436.5258150213815
 20
-5324.0071543416007
 30
0.0
 40
30.0
 50
105.64855733230721
 51
130.34839239207039
  0
ARC
  5
16A5E
  8
01
 10
-455.30139242062819
 20
-5301.9056228714771
 30
0.0
 40
1.0
 50
130.34839239207039
 51
249.0224379652922
  0
ARC
  5
16A5F
  8
01
 10
-423.16412883581438
 20
-5157.2241340481987
 30
0.0
 40
150.0
 50
261.6076176388205
 51
284.22735522399893
  0
ARC
  5
16A60
  8
01
 10
-369.0946829315883
 20
-5370.4763204839064
 30
0.0
 40
70.0
 50
82.071646098117384
 51
104.2273552239988
  0
ARC
  5
16A61
  8
01
 10
-345.32664027230499
 20
-5291.8962979206481
 30
0.0
 40
30.0
 50
311.19684868837862
 51
338.53276166562478
  0
LINE
  5
16A63
  8
01
 10
-193.31233083367641
 20
-5316.1928695078677
 30
0.0
 11
-193.31233083367641
 21
-5296.1928695078668
 31
0.0
  0
LINE
  5
16A64
  8
01
 10
-193.31233083367641
 20
-5296.1928695078668
 30
0.0
 11
-193.51233083367629
 21
-5296.1928695078668
 31
0.0
  0
LINE
  5
16A65
  8
01
 10
-193.31233083367641
 20
-5316.1928695078677
 30
0.0
 11
-193.51233083367629
 21
-5316.1928695078677
 31
0.0
  0
LINE
  5
16A66
  8
01
 10
-226.51233083367811
 20
-5290.2241340481978
 30
0.0
 11
-226.51233083367811
 21
-5294.0071543416016
 31
0.0
  0
LINE
  5
16A67
  8
01
 10
-253.51233083367811
 20
-5290.2241340481978
 30
0.0
 11
-253.51233083367811
 21
-5301.0080413582664
 31
0.0
  0
ARC
  5
16A68
  8
01
 10
-240.01233083367811
 20
-5319.0991340481951
 30
0.0
 40
31.874999999997939
 50
64.942384581717832
 51
115.0576154182822
  0
POLYLINE
  5
16A69
  8
01
 10
-253.51233083367811
 20
-5301.0080413582664
 30
0.0
 66
     1
 70
     8
  0
VERTEX
  8
01
  5
16E0B
 10
-253.512
 20
-5301.01
 30
0.000000
  70
    32
  0
VERTEX
  8
01
  5
16E0C
 10
-253.512
 20
-5301.06
 30
0.000000
  70
    32
  0
VERTEX
  8
01
  5
16E0D
 10
-253.511
 20
-5301.10
 30
0.000000
  70
    32
  0
VERTEX
  8
01
  5
16E0E
 10
-253.509
 20
-5301.15
 30
0.000000
  70
    32
  0
VERTEX
  8
01
  5
16E0F
 10
-253.506
 20
-5301.20
 30
0.000000
  70
    32
  0
VERTEX
  8
01
  5
16E10
 10
-253.503
 20
-5301.25
 30
0.000000
  70
    32
  0
VERTEX
  8
01
  5
16E11
 10
-253.498
 20
-5301.29
 30
0.000000
  70
    32
  0
VERTEX
  8
01
  5
16E12
 10
-253.493
 20
-5301.34
 30
0.000000
  70
    32
  0
VERTEX
  8
01
  5
16E13
 10
-253.487
 20
-5301.39
 30
0.000000
  70
    32
  0
VERTEX
  8
01
  5
16E14
 10
-253.481
 20
-5301.43
 30
0.000000
  70
    32
  0
VERTEX
  8
01
  5
16E15
 10
-253.473
 20
-5301.48
 30
0.000000
  70
    32
  0
VERTEX
  8
01
  5
16E16
 10
-253.465
 20
-5301.53
 30
0.000000
  70
    32
  0
VERTEX
  8
01
  5
16E17
 10
-253.456
 20
-5301.58
 30
0.000000
  70
    32
  0
VERTEX
  8
01
  5
16E18
 10
-253.446
 20
-5301.62
 30
0.000000
  70
    32
  0
VERTEX
  8
01
  5
16E19
 10
-253.435
 20
-5301.67
 30
0.000000
  70
    32
  0
VERTEX
  8
01
  5
16E1A
 10
-253.424
 20
-5301.72
 30
0.000000
  70
    32
  0
VERTEX
  8
01
  5
16E1B
 10
-253.412
 20
-5301.76
 30
0.000000
  70
    32
  0
VERTEX
  8
01
  5
16E1C
 10
-253.399
 20
-5301.81
 30
0.000000
  70
    32
  0
VERTEX
  8
01
  5
16E1D
 10
-253.385
 20
-5301.86
 30
0.000000
  70
    32
  0
VERTEX
  8
01
  5
16E1E
 10
-253.371
 20
-5301.91
 30
0.000000
  70
    32
  0
VERTEX
  8
01
  5
16E1F
 10
-253.356
 20
-5301.95
 30
0.000000
  70
    32
  0
VERTEX
  8
01
  5
16E20
 10
-253.339
 20
-5302.00
 30
0.000000
  70
    32
  0
VERTEX
  8
01
  5
16E21
 10
-253.323
 20
-5302.05
 30
0.000000
  70
    32
  0
VERTEX
  8
01
  5
16E22
 10
-253.305
 20
-5302.09
 30
0.000000
  70
    32
  0
VERTEX
  8
01
  5
16E23
 10
-253.287
 20
-5302.14
 30
0.000000
  70
    32
  0
VERTEX
  8
01
  5
16E24
 10
-253.268
 20
-5302.19
 30
0.000000
  70
    32
  0
VERTEX
  8
01
  5
16E25
 10
-253.248
 20
-5302.23
 30
0.000000
  70
    32
  0
VERTEX
  8
01
  5
16E26
 10
-253.227
 20
-5302.28
 30
0.000000
  70
    32
  0
VERTEX
  8
01
  5
16E27
 10
-253.206
 20
-5302.33
 30
0.000000
  70
    32
  0
VERTEX
  8
01
  5
16E28
 10
-253.183
 20
-5302.37
 30
0.000000
  70
    32
  0
VERTEX
  8
01
  5
16E29
 10
-253.160
 20
-5302.42
 30
0.000000
  70
    32
  0
VERTEX
  8
01
  5
16E2A
 10
-253.137
 20
-5302.46
 30
0.000000
  70
    32
  0
VERTEX
  8
01
  5
16E2B
 10
-253.112
 20
-5302.51
 30
0.000000
  70
    32
  0
VERTEX
  8
01
  5
16E2C
 10
-253.087
 20
-5302.56
 30
0.000000
  70
    32
  0
VERTEX
  8
01
  5
16E2D
 10
-253.061
 20
-5302.60
 30
0.000000
  70
    32
  0
VERTEX
  8
01
  5
16E2E
 10
-253.034
 20
-5302.65
 30
0.000000
  70
    32
  0
VERTEX
  8
01
  5
16E2F
 10
-253.006
 20
-5302.69
 30
0.000000
  70
    32
  0
VERTEX
  8
01
  5
16E30
 10
-252.978
 20
-5302.74
 30
0.000000
  70
    32
  0
VERTEX
  8
01
  5
16E31
 10
-252.949
 20
-5302.78
 30
0.000000
  70
    32
  0
VERTEX
  8
01
  5
16E32
 10
-252.919
 20
-5302.83
 30
0.000000
  70
    32
  0
VERTEX
  8
01
  5
16E33
 10
-252.889
 20
-5302.88
 30
0.000000
  70
    32
  0
VERTEX
  8
01
  5
16E34
 10
-252.857
 20
-5302.92
 30
0.000000
  70
    32
  0
VERTEX
  8
01
  5
16E35
 10
-252.825
 20
-5302.97
 30
0.000000
  70
    32
  0
VERTEX
  8
01
  5
16E36
 10
-252.792
 20
-5303.01
 30
0.000000
  70
    32
  0
VERTEX
  8
01
  5
16E37
 10
-252.759
 20
-5303.06
 30
0.000000
  70
    32
  0
VERTEX
  8
01
  5
16E38
 10
-252.725
 20
-5303.10
 30
0.000000
  70
    32
  0
VERTEX
  8
01
  5
16E39
 10
-252.690
 20
-5303.14
 30
0.000000
  70
    32
  0
VERTEX
  8
01
  5
16E3A
 10
-252.654
 20
-5303.19
 30
0.000000
  70
    32
  0
VERTEX
  8
01
  5
16E3B
 10
-252.617
 20
-5303.23
 30
0.000000
  70
    32
  0
VERTEX
  8
01
  5
16E3C
 10
-252.580
 20
-5303.28
 30
0.000000
  70
    32
  0
VERTEX
  8
01
  5
16E3D
 10
-252.542
 20
-5303.32
 30
0.000000
  70
    32
  0
VERTEX
  8
01
  5
16E3E
 10
-252.503
 20
-5303.37
 30
0.000000
  70
    32
  0
VERTEX
  8
01
  5
16E3F
 10
-252.464
 20
-5303.41
 30
0.000000
  70
    32
  0
VERTEX
  8
01
  5
16E40
 10
-252.424
 20
-5303.45
 30
0.000000
  70
    32
  0
VERTEX
  8
01
  5
16E41
 10
-252.383
 20
-5303.50
 30
0.000000
  70
    32
  0
VERTEX
  8
01
  5
16E42
 10
-252.341
 20
-5303.54
 30
0.000000
  70
    32
  0
VERTEX
  8
01
  5
16E43
 10
-252.299
 20
-5303.58
 30
0.000000
  70
    32
  0
VERTEX
  8
01
  5
16E44
 10
-252.256
 20
-5303.63
 30
0.000000
  70
    32
  0
VERTEX
  8
01
  5
16E45
 10
-252.212
 20
-5303.67
 30
0.000000
  70
    32
  0
VERTEX
  8
01
  5
16E46
 10
-252.168
 20
-5303.71
 30
0.000000
  70
    32
  0
VERTEX
  8
01
  5
16E47
 10
-252.123
 20
-5303.75
 30
0.000000
  70
    32
  0
VERTEX
  8
01
  5
16E48
 10
-252.077
 20
-5303.80
 30
0.000000
  70
    32
  0
VERTEX
  8
01
  5
16E49
 10
-252.030
 20
-5303.84
 30
0.000000
  70
    32
  0
VERTEX
  8
01
  5
16E4A
 10
-251.983
 20
-5303.88
 30
0.000000
  70
    32
  0
VERTEX
  8
01
  5
16E4B
 10
-251.935
 20
-5303.92
 30
0.000000
  70
    32
  0
VERTEX
  8
01
  5
16E4C
 10
-251.886
 20
-5303.97
 30
0.000000
  70
    32
  0
VERTEX
  8
01
  5
16E4D
 10
-251.837
 20
-5304.01
 30
0.000000
  70
    32
  0
VERTEX
  8
01
  5
16E4E
 10
-251.787
 20
-5304.05
 30
0.000000
  70
    32
  0
VERTEX
  8
01
  5
16E4F
 10
-251.736
 20
-5304.09
 30
0.000000
  70
    32
  0
VERTEX
  8
01
  5
16E50
 10
-251.685
 20
-5304.13
 30
0.000000
  70
    32
  0
VERTEX
  8
01
  5
16E51
 10
-251.633
 20
-5304.17
 30
0.000000
  70
    32
  0
VERTEX
  8
01
  5
16E52
 10
-251.580
 20
-5304.21
 30
0.000000
  70
    32
  0
VERTEX
  8
01
  5
16E53
 10
-251.527
 20
-5304.25
 30
0.000000
  70
    32
  0
VERTEX
  8
01
  5
16E54
 10
-251.473
 20
-5304.29
 30
0.000000
  70
    32
  0
VERTEX
  8
01
  5
16E55
 10
-251.418
 20
-5304.33
 30
0.000000
  70
    32
  0
VERTEX
  8
01
  5
16E56
 10
-251.362
 20
-5304.37
 30
0.000000
  70
    32
  0
VERTEX
  8
01
  5
16E57
 10
-251.306
 20
-5304.41
 30
0.000000
  70
    32
  0
VERTEX
  8
01
  5
16E58
 10
-251.249
 20
-5304.45
 30
0.000000
  70
    32
  0
VERTEX
  8
01
  5
16E59
 10
-251.192
 20
-5304.49
 30
0.000000
  70
    32
  0
VERTEX
  8
01
  5
16E5A
 10
-251.134
 20
-5304.53
 30
0.000000
  70
    32
  0
VERTEX
  8
01
  5
16E5B
 10
-251.075
 20
-5304.57
 30
0.000000
  70
    32
  0
VERTEX
  8
01
  5
16E5C
 10
-251.016
 20
-5304.61
 30
0.000000
  70
    32
  0
VERTEX
  8
01
  5
16E5D
 10
-250.956
 20
-5304.65
 30
0.000000
  70
    32
  0
VERTEX
  8
01
  5
16E5E
 10
-250.895
 20
-5304.69
 30
0.000000
  70
    32
  0
VERTEX
  8
01
  5
16E5F
 10
-250.834
 20
-5304.72
 30
0.000000
  70
    32
  0
VERTEX
  8
01
  5
16E60
 10
-250.772
 20
-5304.76
 30
0.000000
  70
    32
  0
VERTEX
  8
01
  5
16E61
 10
-250.710
 20
-5304.80
 30
0.000000
  70
    32
  0
VERTEX
  8
01
  5
16E62
 10
-250.647
 20
-5304.84
 30
0.000000
  70
    32
  0
VERTEX
  8
01
  5
16E63
 10
-250.583
 20
-5304.87
 30
0.000000
  70
    32
  0
VERTEX
  8
01
  5
16E64
 10
-250.518
 20
-5304.91
 30
0.000000
  70
    32
  0
VERTEX
  8
01
  5
16E65
 10
-250.453
 20
-5304.95
 30
0.000000
  70
    32
  0
VERTEX
  8
01
  5
16E66
 10
-250.388
 20
-5304.98
 30
0.000000
  70
    32
  0
VERTEX
  8
01
  5
16E67
 10
-250.322
 20
-5305.02
 30
0.000000
  70
    32
  0
VERTEX
  8
01
  5
16E68
 10
-250.255
 20
-5305.06
 30
0.000000
  70
    32
  0
VERTEX
  8
01
  5
16E69
 10
-250.188
 20
-5305.09
 30
0.000000
  70
    32
  0
VERTEX
  8
01
  5
16E6A
 10
-250.120
 20
-5305.13
 30
0.000000
  70
    32
  0
VERTEX
  8
01
  5
16E6B
 10
-250.051
 20
-5305.16
 30
0.000000
  70
    32
  0
VERTEX
  8
01
  5
16E6C
 10
-249.982
 20
-5305.20
 30
0.000000
  70
    32
  0
VERTEX
  8
01
  5
16E6D
 10
-249.912
 20
-5305.23
 30
0.000000
  70
    32
  0
VERTEX
  8
01
  5
16E6E
 10
-249.842
 20
-5305.27
 30
0.000000
  70
    32
  0
VERTEX
  8
01
  5
16E6F
 10
-249.771
 20
-5305.30
 30
0.000000
  70
    32
  0
VERTEX
  8
01
  5
16E70
 10
-249.699
 20
-5305.34
 30
0.000000
  70
    32
  0
VERTEX
  8
01
  5
16E71
 10
-249.627
 20
-5305.37
 30
0.000000
  70
    32
  0
VERTEX
  8
01
  5
16E72
 10
-249.555
 20
-5305.41
 30
0.000000
  70
    32
  0
VERTEX
  8
01
  5
16E73
 10
-249.482
 20
-5305.44
 30
0.000000
  70
    32
  0
VERTEX
  8
01
  5
16E74
 10
-249.408
 20
-5305.47
 30
0.000000
  70
    32
  0
VERTEX
  8
01
  5
16E75
 10
-249.334
 20
-5305.50
 30
0.000000
  70
    32
  0
VERTEX
  8
01
  5
16E76
 10
-249.259
 20
-5305.54
 30
0.000000
  70
    32
  0
VERTEX
  8
01
  5
16E77
 10
-249.184
 20
-5305.57
 30
0.000000
  70
    32
  0
VERTEX
  8
01
  5
16E78
 10
-249.108
 20
-5305.60
 30
0.000000
  70
    32
  0
VERTEX
  8
01
  5
16E79
 10
-249.032
 20
-5305.63
 30
0.000000
  70
    32
  0
VERTEX
  8
01
  5
16E7A
 10
-248.955
 20
-5305.66
 30
0.000000
  70
    32
  0
VERTEX
  8
01
  5
16E7B
 10
-248.877
 20
-5305.70
 30
0.000000
  70
    32
  0
VERTEX
  8
01
  5
16E7C
 10
-248.799
 20
-5305.73
 30
0.000000
  70
    32
  0
VERTEX
  8
01
  5
16E7D
 10
-248.721
 20
-5305.76
 30
0.000000
  70
    32
  0
VERTEX
  8
01
  5
16E7E
 10
-248.642
 20
-5305.79
 30
0.000000
  70
    32
  0
VERTEX
  8
01
  5
16E7F
 10
-248.563
 20
-5305.82
 30
0.000000
  70
    32
  0
VERTEX
  8
01
  5
16E80
 10
-248.483
 20
-5305.85
 30
0.000000
  70
    32
  0
VERTEX
  8
01
  5
16E81
 10
-248.402
 20
-5305.88
 30
0.000000
  70
    32
  0
VERTEX
  8
01
  5
16E82
 10
-248.321
 20
-5305.91
 30
0.000000
  70
    32
  0
VERTEX
  8
01
  5
16E83
 10
-248.240
 20
-5305.94
 30
0.000000
  70
    32
  0
VERTEX
  8
01
  5
16E84
 10
-248.158
 20
-5305.97
 30
0.000000
  70
    32
  0
VERTEX
  8
01
  5
16E85
 10
-248.076
 20
-5305.99
 30
0.000000
  70
    32
  0
VERTEX
  8
01
  5
16E86
 10
-247.993
 20
-5306.02
 30
0.000000
  70
    32
  0
VERTEX
  8
01
  5
16E87
 10
-247.909
 20
-5306.05
 30
0.000000
  70
    32
  0
VERTEX
  8
01
  5
16E88
 10
-247.826
 20
-5306.08
 30
0.000000
  70
    32
  0
VERTEX
  8
01
  5
16E89
 10
-247.741
 20
-5306.10
 30
0.000000
  70
    32
  0
VERTEX
  8
01
  5
16E8A
 10
-247.657
 20
-5306.13
 30
0.000000
  70
    32
  0
VERTEX
  8
01
  5
16E8B
 10
-247.572
 20
-5306.16
 30
0.000000
  70
    32
  0
SEQEND
  8
01
  5
16E8C
  0
LINE
  5
16A6A
  8
01
 10
-193.5123308336772
 20
-5294.0071543416016
 30
0.0
 11
-193.5123308336772
 21
-5317.1928695078668
 31
0.0
  0
LINE
  5
16A6B
  8
01
 10
-222.0636141395664
 20
-5317.1928695078668
 30
0.0
 11
-193.5123308336772
 21
-5317.1928695078668
 31
0.0
  0
ARC
  5
16A6C
  8
01
 10
-222.0636141395664
 20
-5282.1928695078668
 30
0.0
 40
35.0
 50
209.05995740515331
 51
270.0
  0
LINE
  5
16A6D
  8
01
 10
-226.5123308336772
 20
-5294.0071543416016
 30
0.0
 11
-193.5123308336772
 21
-5294.0071543416016
 31
0.0
  0
LINE
  5
16A6E
  8
01
 10
-193.5123308336772
 20
-5302.2342353159638
 30
0.0
 11
-242.0193752227735
 21
-5302.2342353159638
 31
0.0
  0
POLYLINE
  5
16A6F
  8
01
 10
-240.01233083367808
 20
-5302.2342353159638
 30
0.0
 66
     1
 70
     8
  0
VERTEX
  8
01
  5
16E8D
 10
-240.012
 20
-5302.23
 30
0.000000
  70
    32
  0
VERTEX
  8
01
  5
16E8E
 10
-240.178
 20
-5302.23
 30
0.000000
  70
    32
  0
VERTEX
  8
01
  5
16E8F
 10
-240.344
 20
-5302.23
 30
0.000000
  70
    32
  0
VERTEX
  8
01
  5
16E90
 10
-240.509
 20
-5302.23
 30
0.000000
  70
    32
  0
VERTEX
  8
01
  5
16E91
 10
-240.675
 20
-5302.23
 30
0.000000
  70
    32
  0
VERTEX
  8
01
  5
16E92
 10
-240.840
 20
-5302.23
 30
0.000000
  70
    32
  0
VERTEX
  8
01
  5
16E93
 10
-241.005
 20
-5302.22
 30
0.000000
  70
    32
  0
VERTEX
  8
01
  5
16E94
 10
-241.171
 20
-5302.22
 30
0.000000
  70
    32
  0
VERTEX
  8
01
  5
16E95
 10
-241.336
 20
-5302.21
 30
0.000000
  70
    32
  0
VERTEX
  8
01
  5
16E96
 10
-241.500
 20
-5302.21
 30
0.000000
  70
    32
  0
VERTEX
  8
01
  5
16E97
 10
-241.665
 20
-5302.20
 30
0.000000
  70
    32
  0
VERTEX
  8
01
  5
16E98
 10
-241.829
 20
-5302.19
 30
0.000000
  70
    32
  0
VERTEX
  8
01
  5
16E99
 10
-241.993
 20
-5302.18
 30
0.000000
  70
    32
  0
VERTEX
  8
01
  5
16E9A
 10
-242.157
 20
-5302.17
 30
0.000000
  70
    32
  0
VERTEX
  8
01
  5
16E9B
 10
-242.320
 20
-5302.17
 30
0.000000
  70
    32
  0
VERTEX
  8
01
  5
16E9C
 10
-242.483
 20
-5302.16
 30
0.000000
  70
    32
  0
VERTEX
  8
01
  5
16E9D
 10
-242.646
 20
-5302.14
 30
0.000000
  70
    32
  0
VERTEX
  8
01
  5
16E9E
 10
-242.808
 20
-5302.13
 30
0.000000
  70
    32
  0
VERTEX
  8
01
  5
16E9F
 10
-242.970
 20
-5302.12
 30
0.000000
  70
    32
  0
VERTEX
  8
01
  5
16EA0
 10
-243.132
 20
-5302.11
 30
0.000000
  70
    32
  0
VERTEX
  8
01
  5
16EA1
 10
-243.293
 20
-5302.09
 30
0.000000
  70
    32
  0
VERTEX
  8
01
  5
16EA2
 10
-243.453
 20
-5302.08
 30
0.000000
  70
    32
  0
VERTEX
  8
01
  5
16EA3
 10
-243.613
 20
-5302.06
 30
0.000000
  70
    32
  0
VERTEX
  8
01
  5
16EA4
 10
-243.772
 20
-5302.05
 30
0.000000
  70
    32
  0
VERTEX
  8
01
  5
16EA5
 10
-243.931
 20
-5302.03
 30
0.000000
  70
    32
  0
VERTEX
  8
01
  5
16EA6
 10
-244.089
 20
-5302.02
 30
0.000000
  70
    32
  0
VERTEX
  8
01
  5
16EA7
 10
-244.247
 20
-5302.00
 30
0.000000
  70
    32
  0
VERTEX
  8
01
  5
16EA8
 10
-244.404
 20
-5301.98
 30
0.000000
  70
    32
  0
VERTEX
  8
01
  5
16EA9
 10
-244.560
 20
-5301.96
 30
0.000000
  70
    32
  0
VERTEX
  8
01
  5
16EAA
 10
-244.716
 20
-5301.94
 30
0.000000
  70
    32
  0
VERTEX
  8
01
  5
16EAB
 10
-244.871
 20
-5301.92
 30
0.000000
  70
    32
  0
VERTEX
  8
01
  5
16EAC
 10
-245.025
 20
-5301.90
 30
0.000000
  70
    32
  0
VERTEX
  8
01
  5
16EAD
 10
-245.179
 20
-5301.88
 30
0.000000
  70
    32
  0
VERTEX
  8
01
  5
16EAE
 10
-245.331
 20
-5301.86
 30
0.000000
  70
    32
  0
VERTEX
  8
01
  5
16EAF
 10
-245.483
 20
-5301.83
 30
0.000000
  70
    32
  0
VERTEX
  8
01
  5
16EB0
 10
-245.634
 20
-5301.81
 30
0.000000
  70
    32
  0
VERTEX
  8
01
  5
16EB1
 10
-245.784
 20
-5301.78
 30
0.000000
  70
    32
  0
VERTEX
  8
01
  5
16EB2
 10
-245.934
 20
-5301.76
 30
0.000000
  70
    32
  0
VERTEX
  8
01
  5
16EB3
 10
-246.082
 20
-5301.73
 30
0.000000
  70
    32
  0
VERTEX
  8
01
  5
16EB4
 10
-246.230
 20
-5301.71
 30
0.000000
  70
    32
  0
VERTEX
  8
01
  5
16EB5
 10
-246.376
 20
-5301.68
 30
0.000000
  70
    32
  0
VERTEX
  8
01
  5
16EB6
 10
-246.522
 20
-5301.65
 30
0.000000
  70
    32
  0
VERTEX
  8
01
  5
16EB7
 10
-246.666
 20
-5301.63
 30
0.000000
  70
    32
  0
VERTEX
  8
01
  5
16EB8
 10
-246.810
 20
-5301.60
 30
0.000000
  70
    32
  0
VERTEX
  8
01
  5
16EB9
 10
-246.953
 20
-5301.57
 30
0.000000
  70
    32
  0
VERTEX
  8
01
  5
16EBA
 10
-247.094
 20
-5301.54
 30
0.000000
  70
    32
  0
VERTEX
  8
01
  5
16EBB
 10
-247.235
 20
-5301.51
 30
0.000000
  70
    32
  0
VERTEX
  8
01
  5
16EBC
 10
-247.374
 20
-5301.48
 30
0.000000
  70
    32
  0
VERTEX
  8
01
  5
16EBD
 10
-247.513
 20
-5301.45
 30
0.000000
  70
    32
  0
VERTEX
  8
01
  5
16EBE
 10
-247.650
 20
-5301.41
 30
0.000000
  70
    32
  0
VERTEX
  8
01
  5
16EBF
 10
-247.786
 20
-5301.38
 30
0.000000
  70
    32
  0
VERTEX
  8
01
  5
16EC0
 10
-247.921
 20
-5301.35
 30
0.000000
  70
    32
  0
VERTEX
  8
01
  5
16EC1
 10
-248.054
 20
-5301.31
 30
0.000000
  70
    32
  0
VERTEX
  8
01
  5
16EC2
 10
-248.187
 20
-5301.28
 30
0.000000
  70
    32
  0
VERTEX
  8
01
  5
16EC3
 10
-248.318
 20
-5301.24
 30
0.000000
  70
    32
  0
VERTEX
  8
01
  5
16EC4
 10
-248.448
 20
-5301.21
 30
0.000000
  70
    32
  0
VERTEX
  8
01
  5
16EC5
 10
-248.577
 20
-5301.17
 30
0.000000
  70
    32
  0
VERTEX
  8
01
  5
16EC6
 10
-248.704
 20
-5301.14
 30
0.000000
  70
    32
  0
VERTEX
  8
01
  5
16EC7
 10
-248.830
 20
-5301.10
 30
0.000000
  70
    32
  0
VERTEX
  8
01
  5
16EC8
 10
-248.955
 20
-5301.06
 30
0.000000
  70
    32
  0
VERTEX
  8
01
  5
16EC9
 10
-249.078
 20
-5301.02
 30
0.000000
  70
    32
  0
VERTEX
  8
01
  5
16ECA
 10
-249.200
 20
-5300.98
 30
0.000000
  70
    32
  0
VERTEX
  8
01
  5
16ECB
 10
-249.321
 20
-5300.94
 30
0.000000
  70
    32
  0
VERTEX
  8
01
  5
16ECC
 10
-249.440
 20
-5300.90
 30
0.000000
  70
    32
  0
VERTEX
  8
01
  5
16ECD
 10
-249.558
 20
-5300.86
 30
0.000000
  70
    32
  0
VERTEX
  8
01
  5
16ECE
 10
-249.675
 20
-5300.82
 30
0.000000
  70
    32
  0
VERTEX
  8
01
  5
16ECF
 10
-249.790
 20
-5300.78
 30
0.000000
  70
    32
  0
VERTEX
  8
01
  5
16ED0
 10
-249.903
 20
-5300.74
 30
0.000000
  70
    32
  0
VERTEX
  8
01
  5
16ED1
 10
-250.015
 20
-5300.70
 30
0.000000
  70
    32
  0
VERTEX
  8
01
  5
16ED2
 10
-250.126
 20
-5300.65
 30
0.000000
  70
    32
  0
VERTEX
  8
01
  5
16ED3
 10
-250.235
 20
-5300.61
 30
0.000000
  70
    32
  0
VERTEX
  8
01
  5
16ED4
 10
-250.342
 20
-5300.57
 30
0.000000
  70
    32
  0
VERTEX
  8
01
  5
16ED5
 10
-250.448
 20
-5300.52
 30
0.000000
  70
    32
  0
VERTEX
  8
01
  5
16ED6
 10
-250.552
 20
-5300.48
 30
0.000000
  70
    32
  0
VERTEX
  8
01
  5
16ED7
 10
-250.655
 20
-5300.43
 30
0.000000
  70
    32
  0
VERTEX
  8
01
  5
16ED8
 10
-250.756
 20
-5300.39
 30
0.000000
  70
    32
  0
VERTEX
  8
01
  5
16ED9
 10
-250.856
 20
-5300.34
 30
0.000000
  70
    32
  0
VERTEX
  8
01
  5
16EDA
 10
-250.954
 20
-5300.30
 30
0.000000
  70
    32
  0
VERTEX
  8
01
  5
16EDB
 10
-251.050
 20
-5300.25
 30
0.000000
  70
    32
  0
VERTEX
  8
01
  5
16EDC
 10
-251.144
 20
-5300.20
 30
0.000000
  70
    32
  0
VERTEX
  8
01
  5
16EDD
 10
-251.237
 20
-5300.15
 30
0.000000
  70
    32
  0
VERTEX
  8
01
  5
16EDE
 10
-251.328
 20
-5300.11
 30
0.000000
  70
    32
  0
VERTEX
  8
01
  5
16EDF
 10
-251.418
 20
-5300.06
 30
0.000000
  70
    32
  0
VERTEX
  8
01
  5
16EE0
 10
-251.506
 20
-5300.01
 30
0.000000
  70
    32
  0
VERTEX
  8
01
  5
16EE1
 10
-251.592
 20
-5299.96
 30
0.000000
  70
    32
  0
VERTEX
  8
01
  5
16EE2
 10
-251.676
 20
-5299.91
 30
0.000000
  70
    32
  0
VERTEX
  8
01
  5
16EE3
 10
-251.759
 20
-5299.86
 30
0.000000
  70
    32
  0
VERTEX
  8
01
  5
16EE4
 10
-251.839
 20
-5299.81
 30
0.000000
  70
    32
  0
VERTEX
  8
01
  5
16EE5
 10
-251.918
 20
-5299.76
 30
0.000000
  70
    32
  0
VERTEX
  8
01
  5
16EE6
 10
-251.995
 20
-5299.71
 30
0.000000
  70
    32
  0
VERTEX
  8
01
  5
16EE7
 10
-252.071
 20
-5299.66
 30
0.000000
  70
    32
  0
VERTEX
  8
01
  5
16EE8
 10
-252.144
 20
-5299.61
 30
0.000000
  70
    32
  0
VERTEX
  8
01
  5
16EE9
 10
-252.216
 20
-5299.56
 30
0.000000
  70
    32
  0
VERTEX
  8
01
  5
16EEA
 10
-252.286
 20
-5299.50
 30
0.000000
  70
    32
  0
VERTEX
  8
01
  5
16EEB
 10
-252.354
 20
-5299.45
 30
0.000000
  70
    32
  0
VERTEX
  8
01
  5
16EEC
 10
-252.420
 20
-5299.40
 30
0.000000
  70
    32
  0
VERTEX
  8
01
  5
16EED
 10
-252.485
 20
-5299.35
 30
0.000000
  70
    32
  0
VERTEX
  8
01
  5
16EEE
 10
-252.547
 20
-5299.29
 30
0.000000
  70
    32
  0
VERTEX
  8
01
  5
16EEF
 10
-252.608
 20
-5299.24
 30
0.000000
  70
    32
  0
VERTEX
  8
01
  5
16EF0
 10
-252.666
 20
-5299.18
 30
0.000000
  70
    32
  0
VERTEX
  8
01
  5
16EF1
 10
-252.723
 20
-5299.13
 30
0.000000
  70
    32
  0
VERTEX
  8
01
  5
16EF2
 10
-252.778
 20
-5299.08
 30
0.000000
  70
    32
  0
VERTEX
  8
01
  5
16EF3
 10
-252.831
 20
-5299.02
 30
0.000000
  70
    32
  0
VERTEX
  8
01
  5
16EF4
 10
-252.882
 20
-5298.97
 30
0.000000
  70
    32
  0
VERTEX
  8
01
  5
16EF5
 10
-252.931
 20
-5298.91
 30
0.000000
  70
    32
  0
VERTEX
  8
01
  5
16EF6
 10
-252.978
 20
-5298.86
 30
0.000000
  70
    32
  0
VERTEX
  8
01
  5
16EF7
 10
-253.023
 20
-5298.80
 30
0.000000
  70
    32
  0
VERTEX
  8
01
  5
16EF8
 10
-253.067
 20
-5298.75
 30
0.000000
  70
    32
  0
VERTEX
  8
01
  5
16EF9
 10
-253.108
 20
-5298.69
 30
0.000000
  70
    32
  0
VERTEX
  8
01
  5
16EFA
 10
-253.147
 20
-5298.64
 30
0.000000
  70
    32
  0
VERTEX
  8
01
  5
16EFB
 10
-253.184
 20
-5298.58
 30
0.000000
  70
    32
  0
VERTEX
  8
01
  5
16EFC
 10
-253.220
 20
-5298.52
 30
0.000000
  70
    32
  0
VERTEX
  8
01
  5
16EFD
 10
-253.253
 20
-5298.47
 30
0.000000
  70
    32
  0
VERTEX
  8
01
  5
16EFE
 10
-253.284
 20
-5298.41
 30
0.000000
  70
    32
  0
VERTEX
  8
01
  5
16EFF
 10
-253.314
 20
-5298.35
 30
0.000000
  70
    32
  0
VERTEX
  8
01
  5
16F00
 10
-253.341
 20
-5298.30
 30
0.000000
  70
    32
  0
VERTEX
  8
01
  5
16F01
 10
-253.366
 20
-5298.24
 30
0.000000
  70
    32
  0
VERTEX
  8
01
  5
16F02
 10
-253.390
 20
-5298.18
 30
0.000000
  70
    32
  0
VERTEX
  8
01
  5
16F03
 10
-253.411
 20
-5298.13
 30
0.000000
  70
    32
  0
VERTEX
  8
01
  5
16F04
 10
-253.430
 20
-5298.07
 30
0.000000
  70
    32
  0
VERTEX
  8
01
  5
16F05
 10
-253.447
 20
-5298.01
 30
0.000000
  70
    32
  0
VERTEX
  8
01
  5
16F06
 10
-253.463
 20
-5297.96
 30
0.000000
  70
    32
  0
VERTEX
  8
01
  5
16F07
 10
-253.476
 20
-5297.90
 30
0.000000
  70
    32
  0
VERTEX
  8
01
  5
16F08
 10
-253.487
 20
-5297.84
 30
0.000000
  70
    32
  0
VERTEX
  8
01
  5
16F09
 10
-253.496
 20
-5297.78
 30
0.000000
  70
    32
  0
VERTEX
  8
01
  5
16F0A
 10
-253.503
 20
-5297.73
 30
0.000000
  70
    32
  0
VERTEX
  8
01
  5
16F0B
 10
-253.508
 20
-5297.67
 30
0.000000
  70
    32
  0
VERTEX
  8
01
  5
16F0C
 10
-253.511
 20
-5297.61
 30
0.000000
  70
    32
  0
VERTEX
  8
01
  5
16F0D
 10
-253.512
 20
-5297.55
 30
0.000000
  70
    32
  0
SEQEND
  8
01
  5
16F0E
  0
LINE
  5
16B6A
  8
01
 10
35.56535550474814
 20
-5102.6928695089036
 30
0.0
 11
149.18518768642431
 21
-5102.6928695089036
 31
0.0
  0
LINE
  5
16B6B
  8
01
 10
124.9696099522596
 20
-5171.8928695089025
 30
0.0
 11
149.1851876864244
 21
-5171.8928695089025
 31
0.0
  0
LINE
  5
16B6C
  8
01
 10
147.88518768642439
 20
-5105.292869508904
 30
0.0
 11
147.88518768642439
 21
-5169.2928695089031
 31
0.0
  0
LINE
  5
16B70
  8
01
 10
35.56535550474814
 20
-5102.6928695089036
 30
0.0
 11
139.1851876864244
 21
-5102.6928695089036
 31
0.0
  0
LINE
  5
16B71
  8
01
 10
124.9696099522596
 20
-5144.8928695089044
 30
0.0
 11
139.1851876864244
 21
-5144.8928695089044
 31
0.0
  0
LINE
  5
16B72
  8
01
 10
137.88518768642439
 20
-5105.292869508904
 30
0.0
 11
137.88518768642439
 21
-5142.2928695089031
 31
0.0
  0
LINE
  5
16B76
  8
01
 10
-332.81232683367148
 20
-5317.1928695078668
 30
0.0
 11
-467.80973301402719
 21
-5317.1928695078668
 31
0.0
  0
LINE
  5
16B77
  8
01
 10
-387.16412883581438
 20
-5287.2241340481978
 30
0.0
 11
-467.80973301402719
 21
-5287.2241340481978
 31
0.0
  0
LINE
  5
16B78
  8
01
 10
-466.50973301402718
 20
-5314.5928695078674
 30
0.0
 11
-466.50973301402718
 21
-5289.8241340481982
 31
0.0
  0
LINE
  5
16B7C
  8
01
 10
4.1876651663185376
 20
-5317.1928695078668
 30
0.0
 11
139.18507134667431
 21
-5317.1928695078668
 31
0.0
  0
LINE
  5
16B7D
  8
01
 10
58.539467168461442
 20
-5287.2241340481978
 30
0.0
 11
139.18507134667431
 21
-5287.2241340481978
 31
0.0
  0
LINE
  5
16B7E
  8
01
 10
137.88507134667421
 20
-5314.5928695078674
 30
0.0
 11
137.88507134667429
 21
-5289.8241340481982
 31
0.0
  0
LINE
  5
16B82
  8
01
 10
4.1877815060686308
 20
-5124.1928695089027
 30
0.0
 11
4.1877815060686281
 21
-5186.1844281319709
 31
0.0
  0
LINE
  5
16B83
  8
01
 10
128.53570196592929
 20
-5157.5117943766127
 30
0.0
 11
128.53570196592929
 21
-5186.1844281319709
 31
0.0
  0
LINE
  5
16B84
  8
01
 10
6.7877815060686268
 20
-5184.8844281319707
 30
0.0
 11
125.9357019659293
 21
-5184.8844281319707
 31
0.0
  0
LINE
  5
16B88
  8
01
 10
-11.460416491792101
 20
-5156.8928695089044
 30
0.0
 11
-11.460416491792101
 21
-5196.387807441145
 31
0.0
  0
LINE
  5
16B89
  8
01
 10
128.5395835082052
 20
-5158.3928695089044
 30
0.0
 11
128.5395835082052
 21
-5196.387807441145
 31
0.0
  0
LINE
  5
16B8A
  8
01
 10
-8.8604164917921047
 20
-5195.0878074411448
 30
0.0
 11
125.9395835082051
 21
-5195.0878074411448
 31
0.0
  0
LINE
  5
16B8E
  8
01
 10
4.1876651663239954
 20
-5281.1928695078677
 30
0.0
 11
-32.112334833676847
 21
-5281.1928695078677
 31
0.0
  0
LINE
  5
16B8F
  8
01
 10
4.1876651663239954
 20
-5331.1928695078668
 30
0.0
 11
-32.112334833676861
 21
-5331.1928695078668
 31
0.0
  0
LINE
  5
16B90
  8
01
 10
-30.81233483367685
 20
-5283.7928695078681
 30
0.0
 11
-30.812334833676861
 21
-5328.5928695078674
 31
0.0
  0
LINE
  5
16B94
  8
01
 10
29.688549348384178
 20
-5075.5928695089033
 30
0.0
 11
45.084263462767026
 21
-5075.5928695089033
 31
0.0
  0
LINE
  5
16B95
  8
01
 10
29.688549348384178
 20
-5089.792869508904
 30
0.0
 11
45.084263462767026
 21
-5089.792869508904
 31
0.0
  0
LINE
  5
16B96
  8
01
 10
43.784263462767029
 20
-5078.1928695089027
 30
0.0
 11
43.784263462767029
 21
-5087.1928695089027
 31
0.0
  0
LINE
  5
16B97
  8
01
 10
43.784263462767029
 20
-5089.792869508904
 30
0.0
 11
43.784263462767029
 21
-5120.0111755854759
 31
0.0
  0
LINE
  5
16B9B
  8
01
 10
-164.31233083367641
 20
-5253.1928695078668
 30
0.0
 11
-103.0123308336773
 21
-5253.1928695078668
 31
0.0
  0
LINE
  5
16B9C
  8
01
 10
-164.31233083367641
 20
-5449.1928695078677
 30
0.0
 11
-103.0123308336773
 21
-5449.1928695078677
 31
0.0
  0
LINE
  5
16B9D
  8
01
 10
-104.31233083367729
 20
-5255.7928695078672
 30
0.0
 11
-104.31233083367729
 21
-5446.5928695078683
 31
0.0
  0
LINE
  5
16BA1
  8
01
 10
-157.8123308336767
 20
-5264.1928695078668
 30
0.0
 11
-118.5087397971207
 21
-5264.1928695078668
 31
0.0
  0
LINE
  5
16BA2
  8
01
 10
-156.90720057843691
 20
-5438.1928695078686
 30
0.0
 11
-118.5087397971207
 21
-5438.1928695078686
 31
0.0
  0
LINE
  5
16BA3
  8
01
 10
-119.80873979712069
 20
-5266.7928695078681
 30
0.0
 11
-119.80873979712069
 21
-5435.5928695078683
 31
0.0
  0
LINE
  5
16BA7
  8
01
 10
-173.31233083367621
 20
-5262.1928695078677
 30
0.0
 11
-173.31233083367621
 21
-5241.1928695078677
 31
0.0
  0
LINE
  5
16BA8
  8
01
 10
-155.3123308336767
 20
-5262.1928695078677
 30
0.0
 11
-155.3123308336767
 21
-5241.1928695078677
 31
0.0
  0
LINE
  5
16BA9
  8
01
 10
-171.31233083367621
 20
-5242.1928695078668
 30
0.0
 11
-157.3123308336767
 21
-5242.1928695078668
 31
0.0
  0
LINE
  5
16BAD
  8
01
 10
-46.812334833675997
 20
-5253.1928695078668
 30
0.0
 11
-46.812334833675997
 21
-5240.8928695078685
 31
0.0
  0
LINE
  5
16BAE
  8
01
 10
4.1876651663239954
 20
-5276.1928695078677
 30
0.0
 11
4.1876651663239972
 21
-5240.8928695078685
 31
0.0
  0
LINE
  5
16BAF
  8
01
 10
-44.212334833676003
 20
-5242.1928695078668
 30
0.0
 11
1.5876651663239969
 21
-5242.1928695078668
 31
0.0
  0
LINE
  5
16BB3
  8
01
 10
29.687665166323882
 20
-5285.1928695078668
 30
0.0
 11
29.687665166323889
 21
-5230.8928695078685
 31
0.0
  0
LINE
  5
16BB4
  8
01
 10
-46.812334833675997
 20
-5253.1928695078668
 30
0.0
 11
-46.812334833675997
 21
-5230.8928695078685
 31
0.0
  0
LINE
  5
16BB5
  8
01
 10
27.087665166323891
 20
-5232.1928695078668
 30
0.0
 11
-44.212334833676003
 21
-5232.1928695078668
 31
0.0
  0
LINE
  5
16BB9
  8
01
 10
-58.185984098148531
 20
-5341.1928695078668
 30
0.0
 11
-58.185984098148531
 21
-5240.8928695078685
 31
0.0
  0
LINE
  5
16BBA
  8
01
 10
-46.812334833675997
 20
-5253.1928695078668
 30
0.0
 11
-46.812334833675997
 21
-5240.8928695078685
 31
0.0
  0
LINE
  5
16BBB
  8
01
 10
-49.412334833675999
 20
-5242.1928695078668
 30
0.0
 11
-55.585984098148529
 21
-5242.1928695078668
 31
0.0
  0
LINE
  5
16BBC
  8
01
 10
-58.185984098148531
 20
-5242.1928695078668
 30
0.0
 11
-68.022650764815211
 21
-5242.1928695078668
 31
0.0
  0
LINE
  5
16BC0
  8
01
 10
29.687665166323882
 20
-5285.1928695078668
 30
0.0
 11
57.987665166323907
 21
-5285.1928695078668
 31
0.0
  0
LINE
  5
16BC1
  8
01
 10
29.687665166323988
 20
-5417.1928695078677
 30
0.0
 11
57.987665166323879
 21
-5417.1928695078677
 31
0.0
  0
LINE
  5
16BC2
  8
01
 10
56.68766516632391
 20
-5287.7928695078672
 30
0.0
 11
56.687665166323882
 21
-5414.5928695078674
 31
0.0
  0
TEXT
  5
16BC6
  8
01
 10
55.777665166324752
 20
-5358.0178695078685
 30
0.0
 40
4.5499999999999989
  1
132
 50
90.0
  0
LINE
  5
16BC7
  8
01
  6
BYBLOCK
 10
57.384333060323883
 20
-5414.5928695078674
 30
0.0
 11
56.687665166323882
 21
-5417.1928695078677
 31
0.0
  0
LINE
  5
16BC8
  8
01
  6
BYBLOCK
 10
56.687665166323882
 20
-5417.1928695078677
 30
0.0
 11
55.990997272323881
 21
-5414.5928695078674
 31
0.0
  0
LINE
  5
16BC9
  8
01
  6
BYBLOCK
 10
56.687665166323882
 20
-5417.1928695078677
 30
0.0
 11
56.687665166323882
 21
-5414.5928695078674
 31
0.0
  0
LINE
  5
16BCA
  8
01
  6
BYBLOCK
 10
55.990997272323909
 20
-5287.7928695078672
 30
0.0
 11
56.68766516632391
 21
-5285.1928695078668
 31
0.0
  0
LINE
  5
16BCB
  8
01
  6
BYBLOCK
 10
56.68766516632391
 20
-5285.1928695078668
 30
0.0
 11
57.384333060323911
 21
-5287.7928695078672
 31
0.0
  0
LINE
  5
16BCC
  8
01
  6
BYBLOCK
 10
56.68766516632391
 20
-5285.1928695078668
 30
0.0
 11
56.68766516632391
 21
-5287.7928695078672
 31
0.0
  0
TEXT
  5
16BCD
  8
01
 10
-68.412650764815183
 20
-5241.2828695078679
 30
0.0
 40
4.5499999999999989
  1
11
  0
LINE
  5
16BCE
  8
01
  6
BYBLOCK
 10
-55.585984098148529
 20
-5242.8895374018684
 30
0.0
 11
-58.185984098148531
 21
-5242.1928695078668
 31
0.0
  0
LINE
  5
16BCF
  8
01
  6
BYBLOCK
 10
-58.185984098148531
 20
-5242.1928695078668
 30
0.0
 11
-55.585984098148529
 21
-5241.4962016138679
 31
0.0
  0
LINE
  5
16BD0
  8
01
  6
BYBLOCK
 10
-58.185984098148531
 20
-5242.1928695078668
 30
0.0
 11
-55.585984098148529
 21
-5242.1928695078668
 31
0.0
  0
LINE
  5
16BD1
  8
01
  6
BYBLOCK
 10
-49.412334833675999
 20
-5241.4962016138679
 30
0.0
 11
-46.812334833675997
 21
-5242.1928695078668
 31
0.0
  0
LINE
  5
16BD2
  8
01
  6
BYBLOCK
 10
-46.812334833675997
 20
-5242.1928695078668
 30
0.0
 11
-49.412334833675999
 21
-5242.8895374018684
 31
0.0
  0
LINE
  5
16BD3
  8
01
  6
BYBLOCK
 10
-46.812334833675997
 20
-5242.1928695078668
 30
0.0
 11
-49.412334833675999
 21
-5242.1928695078668
 31
0.0
  0
TEXT
  5
16BD4
  8
01
 10
-16.14566816700939
 20
-5231.2828695078679
 30
0.0
 40
4.5499999999999989
  1
76.5
  0
LINE
  5
16BD5
  8
01
  6
BYBLOCK
 10
-44.212334833676003
 20
-5232.8895374018684
 30
0.0
 11
-46.812334833675997
 21
-5232.1928695078668
 31
0.0
  0
LINE
  5
16BD6
  8
01
  6
BYBLOCK
 10
-46.812334833675997
 20
-5232.1928695078668
 30
0.0
 11
-44.212334833676003
 21
-5231.4962016138679
 31
0.0
  0
LINE
  5
16BD7
  8
01
  6
BYBLOCK
 10
-46.812334833675997
 20
-5232.1928695078668
 30
0.0
 11
-44.212334833676003
 21
-5232.1928695078668
 31
0.0
  0
LINE
  5
16BD8
  8
01
  6
BYBLOCK
 10
27.087665166323891
 20
-5231.4962016138679
 30
0.0
 11
29.687665166323889
 21
-5232.1928695078668
 31
0.0
  0
LINE
  5
16BD9
  8
01
  6
BYBLOCK
 10
29.687665166323889
 20
-5232.1928695078668
 30
0.0
 11
27.087665166323891
 21
-5232.8895374018684
 31
0.0
  0
LINE
  5
16BDA
  8
01
  6
BYBLOCK
 10
29.687665166323889
 20
-5232.1928695078668
 30
0.0
 11
27.087665166323891
 21
-5232.1928695078668
 31
0.0
  0
TEXT
  5
16BDB
  8
01
 10
-24.995668167009342
 20
-5241.2828695078679
 30
0.0
 40
4.5499999999999989
  1
51
  0
LINE
  5
16BDC
  8
01
  6
BYBLOCK
 10
1.5876651663239969
 20
-5241.4962016138679
 30
0.0
 11
4.1876651663239972
 21
-5242.1928695078668
 31
0.0
  0
LINE
  5
16BDD
  8
01
  6
BYBLOCK
 10
4.1876651663239972
 20
-5242.1928695078668
 30
0.0
 11
1.5876651663239969
 21
-5242.8895374018684
 31
0.0
  0
LINE
  5
16BDE
  8
01
  6
BYBLOCK
 10
4.1876651663239972
 20
-5242.1928695078668
 30
0.0
 11
1.5876651663239969
 21
-5242.1928695078668
 31
0.0
  0
LINE
  5
16BDF
  8
01
  6
BYBLOCK
 10
-44.212334833676003
 20
-5242.8895374018684
 30
0.0
 11
-46.812334833675997
 21
-5242.1928695078668
 31
0.0
  0
LINE
  5
16BE0
  8
01
  6
BYBLOCK
 10
-46.812334833675997
 20
-5242.1928695078668
 30
0.0
 11
-44.212334833676003
 21
-5241.4962016138679
 31
0.0
  0
LINE
  5
16BE1
  8
01
  6
BYBLOCK
 10
-46.812334833675997
 20
-5242.1928695078668
 30
0.0
 11
-44.212334833676003
 21
-5242.1928695078668
 31
0.0
  0
TEXT
  5
16BE2
  8
01
 10
-167.89566416700981
 20
-5241.4928695078679
 30
0.0
 40
3.5
  1
18
  0
LINE
  5
16BE3
  8
01
  6
BYBLOCK
 10
-157.3123308336767
 20
-5241.656971127868
 30
0.0
 11
-155.3123308336767
 21
-5242.1928695078668
 31
0.0
  0
LINE
  5
16BE4
  8
01
  6
BYBLOCK
 10
-155.3123308336767
 20
-5242.1928695078668
 30
0.0
 11
-157.3123308336767
 21
-5242.7287678878683
 31
0.0
  0
LINE
  5
16BE5
  8
01
  6
BYBLOCK
 10
-155.3123308336767
 20
-5242.1928695078668
 30
0.0
 11
-157.3123308336767
 21
-5242.1928695078668
 31
0.0
  0
LINE
  5
16BE6
  8
01
  6
BYBLOCK
 10
-171.31233083367621
 20
-5242.7287678878683
 30
0.0
 11
-173.31233083367621
 21
-5242.1928695078668
 31
0.0
  0
LINE
  5
16BE7
  8
01
  6
BYBLOCK
 10
-173.31233083367621
 20
-5242.1928695078668
 30
0.0
 11
-171.31233083367621
 21
-5241.656971127868
 31
0.0
  0
LINE
  5
16BE8
  8
01
  6
BYBLOCK
 10
-173.31233083367621
 20
-5242.1928695078668
 30
0.0
 11
-171.31233083367621
 21
-5242.1928695078668
 31
0.0
  0
TEXT
  5
16BE9
  8
01
 10
-120.71873979711989
 20
-5356.3224761302617
 30
0.0
 40
4.5499999999999989
  1
174
 50
90.0
  0
LINE
  5
16BEA
  8
01
  6
BYBLOCK
 10
-119.11207190312069
 20
-5435.5928695078683
 30
0.0
 11
-119.80873979712069
 21
-5438.1928695078686
 31
0.0
  0
LINE
  5
16BEB
  8
01
  6
BYBLOCK
 10
-119.80873979712069
 20
-5438.1928695078686
 30
0.0
 11
-120.50540769112069
 21
-5435.5928695078683
 31
0.0
  0
LINE
  5
16BEC
  8
01
  6
BYBLOCK
 10
-119.80873979712069
 20
-5438.1928695078686
 30
0.0
 11
-119.80873979712069
 21
-5435.5928695078683
 31
0.0
  0
LINE
  5
16BED
  8
01
  6
BYBLOCK
 10
-120.50540769112069
 20
-5266.7928695078681
 30
0.0
 11
-119.80873979712069
 21
-5264.1928695078668
 31
0.0
  0
LINE
  5
16BEE
  8
01
  6
BYBLOCK
 10
-119.80873979712069
 20
-5264.1928695078668
 30
0.0
 11
-119.11207190312069
 21
-5266.7928695078681
 31
0.0
  0
LINE
  5
16BEF
  8
01
  6
BYBLOCK
 10
-119.80873979712069
 20
-5264.1928695078668
 30
0.0
 11
-119.80873979712069
 21
-5266.7928695078681
 31
0.0
  0
TEXT
  5
16BF0
  8
01
 10
-105.22233083367649
 20
-5357.1648750303439
 30
0.0
 40
4.5499999999999989
  1
196
 50
90.0
  0
LINE
  5
16BF1
  8
01
  6
BYBLOCK
 10
-103.61566293967731
 20
-5446.5928695078683
 30
0.0
 11
-104.31233083367729
 21
-5449.1928695078677
 31
0.0
  0
LINE
  5
16BF2
  8
01
  6
BYBLOCK
 10
-104.31233083367729
 20
-5449.1928695078677
 30
0.0
 11
-105.00899872767729
 21
-5446.5928695078683
 31
0.0
  0
LINE
  5
16BF3
  8
01
  6
BYBLOCK
 10
-104.31233083367729
 20
-5449.1928695078677
 30
0.0
 11
-104.31233083367729
 21
-5446.5928695078683
 31
0.0
  0
LINE
  5
16BF4
  8
01
  6
BYBLOCK
 10
-105.00899872767729
 20
-5255.7928695078672
 30
0.0
 11
-104.31233083367729
 21
-5253.1928695078668
 31
0.0
  0
LINE
  5
16BF5
  8
01
  6
BYBLOCK
 10
-104.31233083367729
 20
-5253.1928695078668
 30
0.0
 11
-103.61566293967731
 21
-5255.7928695078672
 31
0.0
  0
LINE
  5
16BF6
  8
01
  6
BYBLOCK
 10
-104.31233083367729
 20
-5253.1928695078668
 30
0.0
 11
-104.31233083367729
 21
-5255.7928695078672
 31
0.0
  0
TEXT
  5
16BF7
  8
01
 10
42.874263462767843
 20
-5120.4011755854772
 30
0.0
 40
4.5499999999999989
  1
14.2
 50
90.0
  0
LINE
  5
16BF8
  8
01
  6
BYBLOCK
 10
44.48093135676703
 20
-5087.1928695089027
 30
0.0
 11
43.784263462767029
 21
-5089.792869508904
 31
0.0
  0
LINE
  5
16BF9
  8
01
  6
BYBLOCK
 10
43.784263462767029
 20
-5089.792869508904
 30
0.0
 11
43.087595568767043
 21
-5087.1928695089027
 31
0.0
  0
LINE
  5
16BFA
  8
01
  6
BYBLOCK
 10
43.784263462767029
 20
-5089.792869508904
 30
0.0
 11
43.784263462767029
 21
-5087.1928695089027
 31
0.0
  0
LINE
  5
16BFB
  8
01
  6
BYBLOCK
 10
43.087595568767043
 20
-5078.1928695089027
 30
0.0
 11
43.784263462767029
 21
-5075.5928695089033
 31
0.0
  0
LINE
  5
16BFC
  8
01
  6
BYBLOCK
 10
43.784263462767029
 20
-5075.5928695089033
 30
0.0
 11
44.48093135676703
 21
-5078.1928695089027
 31
0.0
  0
LINE
  5
16BFD
  8
01
  6
BYBLOCK
 10
43.784263462767029
 20
-5075.5928695089033
 30
0.0
 11
43.784263462767029
 21
-5078.1928695089027
 31
0.0
  0
TEXT
  5
16BFE
  8
01
 10
-31.722334833676001
 20
-5314.725948803356
 30
0.0
 40
4.5499999999999989
  1
\U+03C650
 50
90.0
  0
LINE
  5
16BFF
  8
01
  6
BYBLOCK
 10
-30.115666939676871
 20
-5328.5928695078674
 30
0.0
 11
-30.812334833676861
 21
-5331.1928695078668
 31
0.0
  0
LINE
  5
16C00
  8
01
  6
BYBLOCK
 10
-30.812334833676861
 20
-5331.1928695078668
 30
0.0
 11
-31.509002727676869
 21
-5328.5928695078674
 31
0.0
  0
LINE
  5
16C01
  8
01
  6
BYBLOCK
 10
-30.812334833676861
 20
-5331.1928695078668
 30
0.0
 11
-30.812334833676861
 21
-5328.5928695078674
 31
0.0
  0
LINE
  5
16C02
  8
01
  6
BYBLOCK
 10
-31.509002727676862
 20
-5283.7928695078681
 30
0.0
 11
-30.81233483367685
 21
-5281.1928695078677
 31
0.0
  0
LINE
  5
16C03
  8
01
  6
BYBLOCK
 10
-30.81233483367685
 20
-5281.1928695078677
 30
0.0
 11
-30.115666939676849
 21
-5283.7928695078681
 31
0.0
  0
LINE
  5
16C04
  8
01
  6
BYBLOCK
 10
-30.81233483367685
 20
-5281.1928695078677
 30
0.0
 11
-30.81233483367685
 21
-5283.7928695078681
 31
0.0
  0
TEXT
  5
16C05
  8
01
 10
51.71458350820653
 20
-5194.177807441145
 30
0.0
 40
4.5499999999999989
  1
140
  0
LINE
  5
16C06
  8
01
  6
BYBLOCK
 10
125.9395835082051
 20
-5194.391139547145
 30
0.0
 11
128.5395835082052
 21
-5195.0878074411448
 31
0.0
  0
LINE
  5
16C07
  8
01
  6
BYBLOCK
 10
128.5395835082052
 20
-5195.0878074411448
 30
0.0
 11
125.9395835082051
 21
-5195.7844753351446
 31
0.0
  0
LINE
  5
16C08
  8
01
  6
BYBLOCK
 10
128.5395835082052
 20
-5195.0878074411448
 30
0.0
 11
125.9395835082051
 21
-5195.0878074411448
 31
0.0
  0
LINE
  5
16C09
  8
01
  6
BYBLOCK
 10
-8.8604164917921047
 20
-5195.7844753351446
 30
0.0
 11
-11.460416491792101
 21
-5195.0878074411448
 31
0.0
  0
LINE
  5
16C0A
  8
01
  6
BYBLOCK
 10
-11.460416491792101
 20
-5195.0878074411448
 30
0.0
 11
-8.8604164917921047
 21
-5194.391139547145
 31
0.0
  0
LINE
  5
16C0B
  8
01
  6
BYBLOCK
 10
-11.460416491792101
 20
-5195.0878074411448
 30
0.0
 11
-8.8604164917921047
 21
-5195.0878074411448
 31
0.0
  0
TEXT
  5
16C0C
  8
01
 10
56.28674173599898
 20
-5183.9744281319709
 30
0.0
 40
4.5499999999999989
  1
124.5
  0
LINE
  5
16C0D
  8
01
  6
BYBLOCK
 10
125.9357019659293
 20
-5184.1877602379709
 30
0.0
 11
128.53570196592929
 21
-5184.8844281319707
 31
0.0
  0
LINE
  5
16C0E
  8
01
  6
BYBLOCK
 10
128.53570196592929
 20
-5184.8844281319707
 30
0.0
 11
125.9357019659293
 21
-5185.5810960259696
 31
0.0
  0
LINE
  5
16C0F
  8
01
  6
BYBLOCK
 10
128.53570196592929
 20
-5184.8844281319707
 30
0.0
 11
125.9357019659293
 21
-5184.8844281319707
 31
0.0
  0
LINE
  5
16C10
  8
01
  6
BYBLOCK
 10
6.7877815060686268
 20
-5185.5810960259696
 30
0.0
 11
4.1877815060686281
 21
-5184.8844281319707
 31
0.0
  0
LINE
  5
16C11
  8
01
  6
BYBLOCK
 10
4.1877815060686281
 20
-5184.8844281319707
 30
0.0
 11
6.7877815060686268
 21
-5184.1877602379709
 31
0.0
  0
LINE
  5
16C12
  8
01
  6
BYBLOCK
 10
4.1877815060686281
 20
-5184.8844281319707
 30
0.0
 11
6.7877815060686268
 21
-5184.8844281319707
 31
0.0
  0
TEXT
  5
16C13
  8
01
 10
136.97507134667509
 20
-5306.5418351113658
 30
0.0
 40
4.5499999999999989
  1
30
 50
90.0
  0
LINE
  5
16C14
  8
01
  6
BYBLOCK
 10
137.18840345267429
 20
-5289.8241340481982
 30
0.0
 11
137.88507134667429
 21
-5287.2241340481978
 31
0.0
  0
LINE
  5
16C15
  8
01
  6
BYBLOCK
 10
137.88507134667429
 20
-5287.2241340481978
 30
0.0
 11
138.5817392406743
 21
-5289.8241340481982
 31
0.0
  0
LINE
  5
16C16
  8
01
  6
BYBLOCK
 10
137.88507134667429
 20
-5287.2241340481978
 30
0.0
 11
137.88507134667429
 21
-5289.8241340481982
 31
0.0
  0
LINE
  5
16C17
  8
01
  6
BYBLOCK
 10
138.58173924067421
 20
-5314.5928695078674
 30
0.0
 11
137.88507134667421
 21
-5317.1928695078668
 31
0.0
  0
LINE
  5
16C18
  8
01
  6
BYBLOCK
 10
137.88507134667421
 20
-5317.1928695078668
 30
0.0
 11
137.18840345267421
 21
-5314.5928695078674
 31
0.0
  0
LINE
  5
16C19
  8
01
  6
BYBLOCK
 10
137.88507134667421
 20
-5317.1928695078668
 30
0.0
 11
137.88507134667421
 21
-5314.5928695078674
 31
0.0
  0
TEXT
  5
16C1A
  8
01
 10
-467.41973301402629
 20
-5306.5418351113658
 30
0.0
 40
4.5499999999999989
  1
30
 50
90.0
  0
LINE
  5
16C1B
  8
01
  6
BYBLOCK
 10
-467.20640090802721
 20
-5289.8241340481982
 30
0.0
 11
-466.50973301402718
 21
-5287.2241340481978
 31
0.0
  0
LINE
  5
16C1C
  8
01
  6
BYBLOCK
 10
-466.50973301402718
 20
-5287.2241340481978
 30
0.0
 11
-465.81306512002732
 21
-5289.8241340481982
 31
0.0
  0
LINE
  5
16C1D
  8
01
  6
BYBLOCK
 10
-466.50973301402718
 20
-5287.2241340481978
 30
0.0
 11
-466.50973301402718
 21
-5289.8241340481982
 31
0.0
  0
LINE
  5
16C1E
  8
01
  6
BYBLOCK
 10
-465.81306512002732
 20
-5314.5928695078674
 30
0.0
 11
-466.50973301402718
 21
-5317.1928695078668
 31
0.0
  0
LINE
  5
16C1F
  8
01
  6
BYBLOCK
 10
-466.50973301402718
 20
-5317.1928695078668
 30
0.0
 11
-467.20640090802721
 21
-5314.5928695078674
 31
0.0
  0
LINE
  5
16C20
  8
01
  6
BYBLOCK
 10
-466.50973301402718
 20
-5317.1928695078668
 30
0.0
 11
-466.50973301402718
 21
-5314.5928695078674
 31
0.0
  0
TEXT
  5
16C21
  8
01
 10
136.97518768642519
 20
-5128.1262028422361
 30
0.0
 40
4.5499999999999989
  1
42
 50
90.0
  0
LINE
  5
16C22
  8
01
  6
BYBLOCK
 10
138.58185558042439
 20
-5142.2928695089031
 30
0.0
 11
137.88518768642439
 21
-5144.8928695089044
 31
0.0
  0
LINE
  5
16C23
  8
01
  6
BYBLOCK
 10
137.88518768642439
 20
-5144.8928695089044
 30
0.0
 11
137.18851979242439
 21
-5142.2928695089031
 31
0.0
  0
LINE
  5
16C24
  8
01
  6
BYBLOCK
 10
137.88518768642439
 20
-5144.8928695089044
 30
0.0
 11
137.88518768642439
 21
-5142.2928695089031
 31
0.0
  0
LINE
  5
16C25
  8
01
  6
BYBLOCK
 10
137.18851979242439
 20
-5105.292869508904
 30
0.0
 11
137.88518768642439
 21
-5102.6928695089036
 31
0.0
  0
LINE
  5
16C26
  8
01
  6
BYBLOCK
 10
137.88518768642439
 20
-5102.6928695089036
 30
0.0
 11
138.58185558042439
 21
-5105.292869508904
 31
0.0
  0
LINE
  5
16C27
  8
01
  6
BYBLOCK
 10
137.88518768642439
 20
-5102.6928695089036
 30
0.0
 11
137.88518768642439
 21
-5105.292869508904
 31
0.0
  0
TEXT
  5
16C28
  8
01
 10
146.97518768642519
 20
-5141.6262028422352
 30
0.0
 40
4.5499999999999989
  1
69
 50
90.0
  0
LINE
  5
16C29
  8
01
  6
BYBLOCK
 10
148.58185558042439
 20
-5169.2928695089031
 30
0.0
 11
147.88518768642439
 21
-5171.8928695089025
 31
0.0
  0
LINE
  5
16C2A
  8
01
  6
BYBLOCK
 10
147.88518768642439
 20
-5171.8928695089025
 30
0.0
 11
147.18851979242439
 21
-5169.2928695089031
 31
0.0
  0
LINE
  5
16C2B
  8
01
  6
BYBLOCK
 10
147.88518768642439
 20
-5171.8928695089025
 30
0.0
 11
147.88518768642439
 21
-5169.2928695089031
 31
0.0
  0
LINE
  5
16C2C
  8
01
  6
BYBLOCK
 10
147.18851979242439
 20
-5105.292869508904
 30
0.0
 11
147.88518768642439
 21
-5102.6928695089036
 31
0.0
  0
LINE
  5
16C2D
  8
01
  6
BYBLOCK
 10
147.88518768642439
 20
-5102.6928695089036
 30
0.0
 11
148.58185558042439
 21
-5105.292869508904
 31
0.0
  0
LINE
  5
16C2E
  8
01
  6
BYBLOCK
 10
147.88518768642439
 20
-5102.6928695089036
 30
0.0
 11
147.88518768642439
 21
-5105.292869508904
 31
0.0
  0
VIEWPORT
  5
57
 67
     1
  8
0
 10
-12.71820606546885
 20
10.09248672500371
 30
0.0
 40
615.25626861348974
 41
282.60076066823012
 68
     1
 69
     1
1001
ACAD
1000
MVIEW
1002
{
1070
    16
1010
0.0
1020
0.0
1030
0.0
1010
0.0
1020
0.0
1030
1.0
1040
0.0
1040
282.60076066823012
1040
-12.71820606546885
1040
10.09248672500371
1040
50.0
1040
0.0
1040
0.0
1070
     0
1070
   100
1070
     1
1070
     1
1070
     0
1070
     0
1070
     0
1070
     0
1040
0.0
1040
0.0
1040
0.0
1040
10.0
1040
10.0
1040
10.0
1040
10.0
1070
     0
1002
{
1002
}
1002
}
  0
ENDSEC
  0
EOF
