  0
SECTION
  2
HEADER
  9
$ACADVER
  1
AC1012
  9
$DWGCODEPAGE
  3
ansi_932
  9
$INSBASE
 10
0.0
 20
0.0
 30
0.0
  9
$EXTMIN
 10
1914.011519519728
 20
-717.5087362062545
 30
0.0
  9
$EXTMAX
 10
2535.311404006591
 20
-301.9087362064624
 30
0.0000000000563712
  9
$LIMMIN
 10
0.0
 20
0.0
  9
$LIMMAX
 10
420.0
 20
297.0
  9
$ORTHOMODE
 70
     0
  9
$REGENMODE
 70
     1
  9
$FILLMODE
 70
     1
  9
$QTEXTMODE
 70
     0
  9
$MIRRTEXT
 70
     0
  9
$DRAGMODE
 70
     2
  9
$LTSCALE
 40
0.5
  9
$OSMODE
 70
 16383
  9
$ATTMODE
 70
     1
  9
$TEXTSIZE
 40
4.0
  9
$TRACEWID
 40
1.0
  9
$TEXTSTYLE
  7
STANDARD
  9
$CLAYER
  8
1TEXT
  9
$CELTYPE
  6
BYLAYER
  9
$CECOLOR
 62
   256
  9
$CELTSCALE
 40
1.0
  9
$DELOBJ
 70
     1
  9
$DISPSILH
 70
     0
  9
$DIMSCALE
 40
1.0
  9
$DIMASZ
 40
2.0
  9
$DIMEXO
 40
0.0
  9
$DIMDLI
 40
7.0
  9
$DIMRND
 40
0.0
  9
$DIMDLE
 40
0.0
  9
$DIMEXE
 40
1.0
  9
$DIMTP
 40
0.0
  9
$DIMTM
 40
0.0
  9
$DIMTXT
 40
3.5
  9
$DIMCEN
 40
0.0
  9
$DIMTSZ
 40
0.0
  9
$DIMTOL
 70
     0
  9
$DIMLIM
 70
     0
  9
$DIMTIH
 70
     0
  9
$DIMTOH
 70
     0
  9
$DIMSE1
 70
     0
  9
$DIMSE2
 70
     0
  9
$DIMTAD
 70
     1
  9
$DIMZIN
 70
     8
  9
$DIMBLK
  1

  9
$DIMASO
 70
     1
  9
$DIMSHO
 70
     1
  9
$DIMPOST
  1
 
  9
$DIMAPOST
  1

  9
$DIMALT
 70
     0
  9
$DIMALTD
 70
     2
  9
$DIMALTF
 40
25.4
  9
$DIMLFAC
 40
1.0
  9
$DIMTOFL
 70
     1
  9
$DIMTVP
 40
0.0
  9
$DIMTIX
 70
     0
  9
$DIMSOXD
 70
     0
  9
$DIMSAH
 70
     1
  9
$DIMBLK1
  1
OPEN30
  9
$DIMBLK2
  1
OPEN30
  9
$DIMSTYLE
  2
NEWX10
  9
$DIMCLRD
 70
   256
  9
$DIMCLRE
 70
   256
  9
$DIMCLRT
 70
   201
  9
$DIMTFAC
 40
0.7
  9
$DIMGAP
 40
0.7
  9
$DIMJUST
 70
     0
  9
$DIMSD1
 70
     0
  9
$DIMSD2
 70
     0
  9
$DIMTOLJ
 70
     1
  9
$DIMTZIN
 70
     8
  9
$DIMALTZ
 70
     0
  9
$DIMALTTZ
 70
     0
  9
$DIMFIT
 70
     2
  9
$DIMUPT
 70
     0
  9
$DIMUNIT
 70
     2
  9
$DIMDEC
 70
     2
  9
$DIMTDEC
 70
     4
  9
$DIMALTU
 70
     2
  9
$DIMALTTD
 70
     2
  9
$DIMTXSTY
  7
STANDARD
  9
$DIMAUNIT
 70
     0
  9
$LUNITS
 70
     2
  9
$LUPREC
 70
     4
  9
$SKETCHINC
 40
1.0
  9
$FILLETRAD
 40
0.0
  9
$AUNITS
 70
     0
  9
$AUPREC
 70
     2
  9
$MENU
  1
acad
  9
$ELEVATION
 40
0.0
  9
$PELEVATION
 40
0.0
  9
$THICKNESS
 40
0.0
  9
$LIMCHECK
 70
     0
  9
$CHAMFERA
 40
10.0
  9
$CHAMFERB
 40
10.0
  9
$CHAMFERC
 40
20.0
  9
$CHAMFERD
 40
0.0
  9
$SKPOLY
 70
     0
  9
$TDCREATE
 40
2451318.621352917
  9
$TDUPDATE
 40
2458726.385450209
  9
$TDINDWG
 40
1.6453946296
  9
$TDUSRTIMER
 40
1.6453946296
  9
$USRTIMER
 70
     1
  9
$ANGBASE
 50
0.0
  9
$ANGDIR
 70
     0
  9
$PDMODE
 70
     0
  9
$PDSIZE
 40
0.0
  9
$PLINEWID
 40
0.0
  9
$COORDS
 70
     2
  9
$SPLFRAME
 70
     0
  9
$SPLINETYPE
 70
     6
  9
$SPLINESEGS
 70
     8
  9
$ATTDIA
 70
     0
  9
$ATTREQ
 70
     1
  9
$HANDLING
 70
     1
  9
$HANDSEED
  5
1B48A
  9
$SURFTAB1
 70
     6
  9
$SURFTAB2
 70
     6
  9
$SURFTYPE
 70
     6
  9
$SURFU
 70
     6
  9
$SURFV
 70
     6
  9
$UCSNAME
  2

  9
$UCSORG
 10
0.0
 20
0.0
 30
0.0
  9
$UCSXDIR
 10
1.0
 20
0.0
 30
0.0
  9
$UCSYDIR
 10
0.0
 20
1.0
 30
0.0
  9
$PUCSNAME
  2

  9
$PUCSORG
 10
0.0
 20
0.0
 30
0.0
  9
$PUCSXDIR
 10
1.0
 20
0.0
 30
0.0
  9
$PUCSYDIR
 10
0.0
 20
1.0
 30
0.0
  9
$USERI1
 70
     0
  9
$USERI2
 70
     0
  9
$USERI3
 70
     0
  9
$USERI4
 70
     0
  9
$USERI5
 70
     0
  9
$USERR1
 40
0.0
  9
$USERR2
 40
0.0
  9
$USERR3
 40
0.0
  9
$USERR4
 40
0.0
  9
$USERR5
 40
0.0
  9
$WORLDVIEW
 70
     1
  9
$SHADEDGE
 70
     3
  9
$SHADEDIF
 70
    70
  9
$TILEMODE
 70
     1
  9
$MAXACTVP
 70
    48
  9
$PINSBASE
 10
0.0
 20
0.0
 30
0.0
  9
$PLIMCHECK
 70
     0
  9
$PEXTMIN
 10
1.000000000000000E+20
 20
1.000000000000000E+20
 30
1.000000000000000E+20
  9
$PEXTMAX
 10
-1.000000000000000E+20
 20
-1.000000000000000E+20
 30
-1.000000000000000E+20
  9
$PLIMMIN
 10
0.0
 20
0.0
  9
$PLIMMAX
 10
420.0
 20
297.0
  9
$UNITMODE
 70
     0
  9
$VISRETAIN
 70
     1
  9
$PLINEGEN
 70
     0
  9
$PSLTSCALE
 70
     1
  9
$TREEDEPTH
 70
  3020
  9
$PICKSTYLE
 70
     1
  9
$CMLSTYLE
  2
STANDARD
  9
$CMLJUST
 70
     0
  9
$CMLSCALE
 40
20.0
  9
$SAVEIMAGES
 70
     1
  0
ENDSEC
  0
SECTION
  2
CLASSES
  0
CLASS
  1
DICTIONARYVAR
  2
AcDbDictionaryVar
  3
ObjectDBX Classes
 90
        0
280
     0
281
     0
  0
CLASS
  1
IDBUFFER
  2
AcDbIdBuffer
  3
ObjectDBX Classes
 90
    32768
280
     0
281
     0
  0
CLASS
  1
LWPOLYLINE
  2
AcDbPolyline
  3
ObjectDBX Classes
 90
    32768
280
     0
281
     1
  0
CLASS
  1
ACDBDICTIONARYWDFLT
  2
AcDbDictionaryWithDefault
  3
ObjectDBX Classes
 90
    32768
280
     0
281
     0
  0
CLASS
  1
ACDBPLACEHOLDER
  2
AcDbPlaceHolder
  3
ObjectDBX Classes
 90
        0
280
     0
281
     0
  0
CLASS
  1
LAYOUT
  2
AcDbLayout
  3
ObjectDBX Classes
 90
        0
280
     0
281
     0
  0
CLASS
  1
TABLESTYLE
  2
AcDbTableStyle
  3
ObjectDBX Classes
 90
     4095
280
     0
281
     0
  0
CLASS
  1
SORTENTSTABLE
  2
AcDbSortentsTable
  3
ObjectDBX Classes
 90
    32768
280
     0
281
     0
  0
CLASS
  1
MATERIAL
  2
AcDbMaterial
  3
ObjectDBX Classes
 90
     1153
280
     0
281
     0
  0
CLASS
  1
VISUALSTYLE
  2
AcDbVisualStyle
  3
ObjectDBX Classes
 90
     4095
280
     0
281
     0
  0
CLASS
  1
SCALE
  2
AcDbScale
  3
ObjectDBX Classes
 90
     1153
280
     0
281
     0
  0
CLASS
  1
MLEADERSTYLE
  2
AcDbMLeaderStyle
  3
ACDB_MLEADERSTYLE_CLASS
 90
     4095
280
     0
281
     0
  0
CLASS
  1
CELLSTYLEMAP
  2
AcDbCellStyleMap
  3
ObjectDBX Classes
 90
     1152
280
     0
281
     0
  0
CLASS
  1
SUN
  2
AcDbSun
  3
SCENEOE
 90
     1153
280
     0
281
     0
  0
CLASS
  1
XRECORD
  2
AcDbXrecord
  3
ObjectDBX Classes
 90
    32768
280
     0
281
     0
  0
CLASS
  1
HATCH
  2
AcDbHatch
  3
ObjectDBX Classes
 90
    32768
280
     0
281
     1
  0
ENDSEC
  0
SECTION
  2
TABLES
  0
TABLE
  2
VPORT
  5
8
330
0
100
AcDbSymbolTable
 70
     1
  0
VPORT
  5
D991
330
8
100
AcDbSymbolTableRecord
100
AcDbViewportTableRecord
  2
*ACTIVE
 70
     0
 10
0.0
 20
0.0
 11
1.0
 21
1.0
 12
2224.661461763159
 22
-509.7087362063585
 13
0.0
 23
0.0
 14
10.0
 24
10.0
 15
10.0
 25
10.0
 16
0.0
 26
0.0
 36
1.0
 17
0.0
 27
0.0
 37
0.0
 40
446.2231578945137
 41
2.152122641509434
 42
50.0
 43
0.0
 44
0.0
 50
0.0
 51
0.0
 71
    16
 72
   100
 73
     1
 74
     1
 75
     0
 76
     0
 77
     0
 78
     0
1001
ACAD_NAV_VCDISPLAY
1070
     3
  0
ENDTAB
  0
TABLE
  2
LTYPE
  5
5
330
0
100
AcDbSymbolTable
 70
     2
  0
LTYPE
  5
12
330
5
100
AcDbSymbolTableRecord
100
AcDbLinetypeTableRecord
  2
BYBLOCK
 70
     0
  3

 72
    65
 73
     0
 40
0.0
  0
LTYPE
  5
13
330
5
100
AcDbSymbolTableRecord
100
AcDbLinetypeTableRecord
  2
BYLAYER
 70
     0
  3

 72
    65
 73
     0
 40
0.0
  0
LTYPE
  5
14
330
5
100
AcDbSymbolTableRecord
100
AcDbLinetypeTableRecord
  2
CONTINUOUS
 70
     0
  3
Solid line
 72
    65
 73
     0
 40
0.0
  0
LTYPE
  5
13839
330
5
100
AcDbSymbolTableRecord
100
AcDbLinetypeTableRecord
  2
CENTER2
 70
     0
  3
Center (.5x) ___ _ ___ _ ___ _ ___ _ ___ _ ___
 72
    65
 73
     4
 40
28.575
 49
19.05
 74
     0
 49
-3.175
 74
     0
 49
3.175
 74
     0
 49
-3.175
 74
     0
  0
ENDTAB
  0
TABLE
  2
LAYER
  5
2
102
{ACAD_XDICTIONARY
360
E6A6
102
}
330
0
100
AcDbSymbolTable
 70
     5
  0
LAYER
  5
E
102
{ACAD_XDICTIONARY
360
DA05
102
}
330
2
100
AcDbSymbolTableRecord
100
AcDbLayerTableRecord
  2
0
 70
     0
 62
     7
  6
CONTINUOUS
  0
LAYER
  5
29
102
{ACAD_XDICTIONARY
360
DA07
102
}
330
2
100
AcDbSymbolTableRecord
100
AcDbLayerTableRecord
  2
1CENTER
 70
     0
 62
     7
  6
CENTER2
  0
LAYER
  5
31
102
{ACAD_XDICTIONARY
360
DA09
102
}
330
2
100
AcDbSymbolTableRecord
100
AcDbLayerTableRecord
  2
1TEXT
 70
     0
 62
     7
  6
CONTINUOUS
  0
LAYER
  5
243
102
{ACAD_XDICTIONARY
360
DA0F
102
}
330
2
100
AcDbSymbolTableRecord
100
AcDbLayerTableRecord
  2
01
 70
     0
 62
     1
  6
CONTINUOUS
  0
LAYER
  5
24E
102
{ACAD_XDICTIONARY
360
DA15
102
}
330
2
100
AcDbSymbolTableRecord
100
AcDbLayerTableRecord
  2
1DIM
 70
     0
 62
     7
  6
CONTINUOUS
  0
ENDTAB
  0
TABLE
  2
STYLE
  5
3
330
0
100
AcDbSymbolTable
 70
     1
  0
STYLE
  5
F
330
3
100
AcDbSymbolTableRecord
100
AcDbTextStyleTableRecord
  2
STANDARD
 70
     0
 40
0.0
 41
1.0
 50
0.0
 71
     0
 42
4.0
  3
txt.shx
  4
extfont.shx
  0
ENDTAB
  0
TABLE
  2
VIEW
  5
6
330
0
100
AcDbSymbolTable
 70
     0
  0
ENDTAB
  0
TABLE
  2
UCS
  5
7
330
0
100
AcDbSymbolTable
 70
     0
  0
ENDTAB
  0
TABLE
  2
APPID
  5
9
330
0
100
AcDbSymbolTable
 70
    16
  0
APPID
  5
10
330
9
100
AcDbSymbolTableRecord
100
AcDbRegAppTableRecord
  2
ACAD
 70
     0
  0
APPID
  5
21
330
9
100
AcDbSymbolTableRecord
100
AcDbRegAppTableRecord
  2
DRAWINGVARIABLESXDATA
 70
     0
  0
APPID
  5
64
330
9
100
AcDbSymbolTableRecord
100
AcDbRegAppTableRecord
  2
CONTENTTABDATA
 70
     0
  0
APPID
  5
65
330
9
100
AcDbSymbolTableRecord
100
AcDbRegAppTableRecord
  2
CONTENTCURRENTTAB
 70
     0
  0
APPID
  5
66
330
9
100
AcDbSymbolTableRecord
100
AcDbRegAppTableRecord
  2
CONTENTBLOCKDESCRIPTION
 70
     0
  0
APPID
  5
67
330
9
100
AcDbSymbolTableRecord
100
AcDbRegAppTableRecord
  2
CONTENTBLOCKICON
 70
     0
  0
APPID
  5
68
330
9
100
AcDbSymbolTableRecord
100
AcDbRegAppTableRecord
  2
CONTENTLONGBLOCKNAME
 70
     0
  0
APPID
  5
2AE
330
9
100
AcDbSymbolTableRecord
100
AcDbRegAppTableRecord
  2
ACAD_PSEXT
 70
     0
  0
APPID
  5
D9E9
330
9
100
AcDbSymbolTableRecord
100
AcDbRegAppTableRecord
  2
ACAD_MLEADERVER
 70
     0
  0
APPID
  5
19CF0
330
9
100
AcDbSymbolTableRecord
100
AcDbRegAppTableRecord
  2
ACADANNOTATIVE
 70
     0
  0
APPID
  5
19CF1
330
9
100
AcDbSymbolTableRecord
100
AcDbRegAppTableRecord
  2
ACDBBLOCKREPETAG
 70
     0
  0
APPID
  5
19CF2
330
9
100
AcDbSymbolTableRecord
100
AcDbRegAppTableRecord
  2
ACLAYERTOOLS
 70
     0
  0
APPID
  5
19CF3
330
9
100
AcDbSymbolTableRecord
100
AcDbRegAppTableRecord
  2
ACAD_NAV_VCDISPLAY
 70
     0
  0
APPID
  5
1A86C
330
9
100
AcDbSymbolTableRecord
100
AcDbRegAppTableRecord
  2
ACAD_OBJECT_CHANGE_GUID
 70
     0
  0
APPID
  5
1AA0C
330
9
100
AcDbSymbolTableRecord
100
AcDbRegAppTableRecord
  2
ACAECLAYERSTANDARD
 70
     0
  0
APPID
  5
1B176
330
9
100
AcDbSymbolTableRecord
100
AcDbRegAppTableRecord
  2
ACAD_EXEMPT_FROM_CAD_STAND
 70
     0
  0
ENDTAB
  0
TABLE
  2
DIMSTYLE
  5
A
330
0
100
AcDbSymbolTable
 70
     1
  0
DIMSTYLE
105
48
330
A
100
AcDbSymbolTableRecord
100
AcDbDimStyleTableRecord
  2
NEWX10
 70
     0
  3
 
  4

  5

  6
OPEN30
  7
OPEN30
 40
1.0
 41
2.0
 42
0.0
 43
7.0
 44
1.0
 45
0.0
 46
0.0
 47
0.0
 48
0.0
140
3.5
141
0.0
142
0.0
143
25.4
144
1.0
145
0.0
146
0.7
147
0.7
 71
     0
 72
     0
 73
     0
 74
     0
 75
     0
 76
     0
 77
     1
 78
     8
170
     0
171
     2
172
     1
173
     1
174
     0
175
     0
176
   256
177
   256
178
   201
179
     2
270
     2
271
     2
272
     4
273
     2
274
     2
340
F
275
     0
280
     0
281
     0
282
     0
283
     1
284
     8
285
     0
286
     0
287
     2
288
     0
  0
ENDTAB
  0
TABLE
  2
BLOCK_RECORD
  5
1
330
0
100
AcDbSymbolTable
 70
     8
  0
BLOCK_RECORD
  5
18
102
{ACAD_XDICTIONARY
360
88F
102
}
330
1
100
AcDbSymbolTableRecord
100
AcDbBlockTableRecord
  2
*MODEL_SPACE
  0
BLOCK_RECORD
  5
15
330
1
100
AcDbSymbolTableRecord
100
AcDbBlockTableRecord
  2
*PAPER_SPACE
  0
BLOCK_RECORD
  5
42
330
1
100
AcDbSymbolTableRecord
100
AcDbBlockTableRecord
  2
_OPEN30
  0
BLOCK_RECORD
  5
19D42
330
1
100
AcDbSymbolTableRecord
100
AcDbBlockTableRecord
  2
A3WAKUKAWAJUN2017_HYOUDAI_
  0
BLOCK_RECORD
  5
1B2EA
330
1
100
AcDbSymbolTableRecord
100
AcDbBlockTableRecord
  2
*X26
  0
BLOCK_RECORD
  5
1B338
330
1
100
AcDbSymbolTableRecord
100
AcDbBlockTableRecord
  2
*X27
  0
BLOCK_RECORD
  5
1B38A
330
1
100
AcDbSymbolTableRecord
100
AcDbBlockTableRecord
  2
*X28
  0
BLOCK_RECORD
  5
1B3DB
330
1
100
AcDbSymbolTableRecord
100
AcDbBlockTableRecord
  2
*X29
  0
BLOCK_RECORD
  5
1B418
330
1
100
AcDbSymbolTableRecord
100
AcDbBlockTableRecord
  2
*X30
  0
BLOCK_RECORD
  5
1B458
330
1
100
AcDbSymbolTableRecord
100
AcDbBlockTableRecord
  2
*X31
  0
ENDTAB
  0
ENDSEC
  0
SECTION
  2
BLOCKS
  0
BLOCK
  5
19
330
18
100
AcDbEntity
  8
0
100
AcDbBlockBegin
  2
*MODEL_SPACE
 70
     0
 10
0.0
 20
0.0
 30
0.0
  3
*MODEL_SPACE
  1

  0
ENDBLK
  5
1A
330
18
100
AcDbEntity
  8
0
100
AcDbBlockEnd
  0
BLOCK
  5
16
330
15
100
AcDbEntity
 67
     1
  8
0
100
AcDbBlockBegin
  2
*PAPER_SPACE
 70
     0
 10
0.0
 20
0.0
 30
0.0
  3
*PAPER_SPACE
  1

  0
ENDBLK
  5
17
330
15
100
AcDbEntity
 67
     1
  8
0
100
AcDbBlockEnd
  0
BLOCK
  5
43
330
42
100
AcDbEntity
  8
0
100
AcDbBlockBegin
  2
_OPEN30
 70
     0
 10
0.0
 20
0.0
 30
0.0
  3
_OPEN30
  1

  0
LINE
  5
44
330
42
100
AcDbEntity
  8
0
  6
BYBLOCK
 62
     0
100
AcDbLine
 10
-1.0
 20
0.26794919
 30
0.0
 11
0.0
 21
0.0
 31
0.0
  0
LINE
  5
45
330
42
100
AcDbEntity
  8
0
  6
BYBLOCK
 62
     0
100
AcDbLine
 10
0.0
 20
0.0
 30
0.0
 11
-1.0
 21
-0.26794919
 31
0.0
  0
LINE
  5
46
330
42
100
AcDbEntity
  8
0
  6
BYBLOCK
 62
     0
100
AcDbLine
 10
0.0
 20
0.0
 30
0.0
 11
-1.0
 21
0.0
 31
0.0
  0
ENDBLK
  5
47
330
42
100
AcDbEntity
  8
0
100
AcDbBlockEnd
  0
BLOCK
  5
1A550
330
19D42
100
AcDbEntity
  8
0
100
AcDbBlockBegin
  2
A3WAKUKAWAJUN2017_HYOUDAI_
 70
     0
 10
0.0
 20
0.0
 30
0.0
  3
A3WAKUKAWAJUN2017_HYOUDAI_
  1

  0
LINE
  5
19D44
330
19D42
100
AcDbEntity
  8
0
100
AcDbLine
 10
13.26299999998673
 20
-0.0001000000000317
 30
0.0
 11
9.236999999990758
 21
8.999899999990987
 31
0.0
1001
ACAD
1000
ASC_BOUNDS
1002
{
1070
    19
1005
19D85
1002
}
  0
LINE
  5
19D45
330
19D42
100
AcDbEntity
  8
0
100
AcDbLine
 10
5.657999999994331
 20
0.9999999999989768
 30
0.0
 11
9.236999999990758
 21
8.999999999991019
 31
0.0
1001
ACAD
1000
ASC_BOUNDS
1002
{
1070
    19
1005
19D85
1002
}
  0
LINE
  5
19D46
330
19D42
100
AcDbEntity
  8
0
100
AcDbLine
 10
18.59199999998134
 20
-0.2368999999997641
 30
0.0
 11
16.46099999998353
 21
5.432899999994561
 31
0.0
1001
ACAD
1000
ASC_BOUNDS
1002
{
1070
    19
1005
19D86
1002
}
  0
LINE
  5
19D47
330
19D42
100
AcDbEntity
  8
0
100
AcDbLine
 10
18.59199999998134
 20
-0.2368999999997641
 30
0.0
 11
22.38199999997767
 21
8.763099999991255
 31
0.0
1001
ACAD
1000
ASC_BOUNDS
1002
{
1070
    19
1005
19D86
1002
}
  0
LINE
  5
19D48
330
19D42
100
AcDbEntity
  8
0
100
AcDbLine
 10
14.32899999998563
 20
-0.2368999999997641
 30
0.0
 11
16.46099999998353
 21
5.432899999994561
 31
0.0
1001
ACAD
1000
ASC_BOUNDS
1002
{
1070
    19
1005
19D86
1002
}
  0
LINE
  5
19D49
330
19D42
100
AcDbEntity
  8
0
100
AcDbLine
 10
14.32899999998563
 20
-0.2368999999997641
 30
0.0
 11
10.53899999998941
 21
8.763099999991255
 31
0.0
1001
ACAD
1000
ASC_BOUNDS
1002
{
1070
    19
1005
19D86
1002
}
  0
LINE
  5
19D4A
330
19D42
100
AcDbEntity
  8
0
100
AcDbLine
 10
19.53899999998043
 20
-0.0001000000000317
 30
0.0
 11
23.56599999997638
 21
8.999899999990987
 31
0.0
1001
ACAD
1000
ASC_BOUNDS
1002
{
1070
    19
1005
19D87
1002
}
  0
LINE
  5
19D4B
330
19D42
100
AcDbEntity
  8
0
100
AcDbLine
 10
26.97358892824991
 20
1.383099999991202
 30
0.0
 11
23.56599999997638
 21
8.999899999990987
 31
0.0
1001
ACAD
1000
ASC_BOUNDS
1002
{
1070
    19
1005
19D87
1002
}
  0
LINE
  5
19D4C
330
19D42
100
AcDbEntity
  8
0
100
AcDbLine
 10
5.657999999994331
 20
0.9999999999989768
 30
0.0
 11
3.181999999996833
 21
4.668599999995308
 31
0.0
1001
ACAD
1000
ASC_BOUNDS
1002
{
1070
    19
1005
19D85
1002
}
  0
LINE
  5
19D4D
330
19D42
100
AcDbEntity
  8
0
100
AcDbLine
 10
4.617999999995391
 20
-0.0001000000000317
 30
0.0
 11
1.420999999998571
 21
4.736799999995242
 31
0.0
1001
ACAD
1000
ASC_BOUNDS
1002
{
1070
    19
1005
19D85
1002
}
  0
LINE
  5
19D4E
330
19D42
100
AcDbEntity
  8
0
100
AcDbLine
 10
1.420999999998571
 20
8.763099999991255
 30
0.0
 11
1.420999999998571
 21
0.0
 31
0.0
1001
ACAD
1000
ASC_BOUNDS
1002
{
1070
    19
1005
19D8A
1002
}
  0
LINE
  5
19D4F
330
19D42
100
AcDbEntity
  8
0
100
AcDbLine
 10
0.0
 20
8.763099999991255
 30
0.0
 11
0.0
 21
0.0
 31
0.0
1001
ACAD
1000
ASC_BOUNDS
1002
{
1070
    19
1005
19D8A
1002
}
  0
LINE
  5
19D50
330
19D42
100
AcDbEntity
  8
0
100
AcDbLine
 10
6.766999999993232
 20
-0.0001000000000317
 30
0.0
 11
7.826999999992154
 21
2.368399999997621
 31
0.0
1001
ACAD
1000
ASC_BOUNDS
1002
{
1070
    19
1005
19D85
1002
}
  0
LINE
  5
19D51
330
19D42
100
AcDbEntity
  8
0
100
AcDbLine
 10
0.0
 20
0.0
 30
0.0
 11
1.420999999998571
 21
0.0
 31
0.0
1001
ACAD
1000
ASC_BOUNDS
1002
{
1070
    19
1005
19D8A
1002
}
  0
LINE
  5
19D52
330
19D42
100
AcDbEntity
  8
0
100
AcDbLine
 10
4.617999999995391
 20
0.0
 30
0.0
 11
6.766999999993232
 21
0.0
 31
0.0
1001
ACAD
1000
ASC_BOUNDS
1002
{
1070
    19
1005
19D85
1002
}
  0
LINE
  5
19D53
330
19D42
100
AcDbEntity
  8
0
100
AcDbLine
 10
11.70599999998831
 20
-0.0001000000000317
 30
0.0
 11
10.64699999998936
 21
2.368399999997621
 31
0.0
1001
ACAD
1000
ASC_BOUNDS
1002
{
1070
    19
1005
19D85
1002
}
  0
LINE
  5
19D54
330
19D42
100
AcDbEntity
  8
0
100
AcDbLine
 10
7.826999999992154
 20
2.368399999997621
 30
0.0
 11
10.64699999998936
 21
2.368399999997621
 31
0.0
1001
ACAD
1000
ASC_BOUNDS
1002
{
1070
    19
1005
19D85
1002
}
  0
LINE
  5
19D55
330
19D42
100
AcDbEntity
  8
0
100
AcDbLine
 10
11.70599999998831
 20
0.0
 30
0.0
 11
13.26299999998673
 21
0.0
 31
0.0
1001
ACAD
1000
ASC_BOUNDS
1002
{
1070
    19
1005
19D85
1002
}
  0
LINE
  5
19D56
330
19D42
100
AcDbEntity
  8
0
100
AcDbLine
 10
22.15599999997789
 20
2.368399999997621
 30
0.0
 11
24.97599999997499
 21
2.368399999997621
 31
0.0
1001
ACAD
1000
ASC_BOUNDS
1002
{
1070
    19
1005
19D87
1002
}
  0
LINE
  5
19D57
330
19D42
100
AcDbEntity
  8
0
100
AcDbLine
 10
19.53899999998043
 20
0.0
 30
0.0
 11
21.09599999997886
 21
0.0
 31
0.0
1001
ACAD
1000
ASC_BOUNDS
1002
{
1070
    19
1005
19D87
1002
}
  0
LINE
  5
19D58
330
19D42
100
AcDbEntity
  8
0
100
AcDbLine
 10
21.09599999997886
 20
-0.0001000000000317
 30
0.0
 11
22.15599999997789
 21
2.368399999997621
 31
0.0
1001
ACAD
1000
ASC_BOUNDS
1002
{
1070
    19
1005
19D87
1002
}
  0
LINE
  5
19D59
330
19D42
100
AcDbEntity
  8
0
100
AcDbLine
 10
26.02015566812236
 20
0.0330999999912365
 30
0.0
 11
24.97599999997499
 21
2.368399999997621
 31
0.0
1001
ACAD
1000
ASC_BOUNDS
1002
{
1070
    19
1005
19D87
1002
}
  0
LINE
  5
19D5A
330
19D42
100
AcDbEntity
  8
0
100
AcDbLine
 10
14.32399999998563
 20
3.315799999996671
 30
0.0
 11
16.46099999998353
 21
8.999899999990987
 31
0.0
1001
ACAD
1000
ASC_BOUNDS
1002
{
1070
    19
1005
19D86
1002
}
  0
LINE
  5
19D5B
330
19D42
100
AcDbEntity
  8
0
100
AcDbLine
 10
6.432999999993513
 20
8.763099999991255
 30
0.0
 11
3.181999999996833
 21
4.668599999995308
 31
0.0
1001
ACAD
1000
ASC_BOUNDS
1002
{
1070
    19
1005
19D85
1002
}
  0
LINE
  5
19D5C
330
19D42
100
AcDbEntity
  8
0
100
AcDbLine
 10
4.617999999995391
 20
8.763099999991255
 30
0.0
 11
1.420999999998571
 21
4.736799999995242
 31
0.0
1001
ACAD
1000
ASC_BOUNDS
1002
{
1070
    19
1005
19D85
1002
}
  0
LINE
  5
19D5D
330
19D42
100
AcDbEntity
  8
0
100
AcDbLine
 10
0.0
 20
8.763099999991255
 30
0.0
 11
1.420999999998571
 21
8.763099999991255
 31
0.0
1001
ACAD
1000
ASC_BOUNDS
1002
{
1070
    19
1005
19D8A
1002
}
  0
LINE
  5
19D5E
330
19D42
100
AcDbEntity
  8
0
100
AcDbLine
 10
4.617999999995391
 20
8.763099999991255
 30
0.0
 11
6.432999999993513
 21
8.763099999991255
 31
0.0
1001
ACAD
1000
ASC_BOUNDS
1002
{
1070
    19
1005
19D85
1002
}
  0
LINE
  5
19D5F
330
19D42
100
AcDbEntity
  8
0
100
AcDbLine
 10
14.32399999998563
 20
3.315799999996671
 30
0.0
 11
12.02999999998792
 21
8.763099999991255
 31
0.0
1001
ACAD
1000
ASC_BOUNDS
1002
{
1070
    19
1005
19D86
1002
}
  0
LINE
  5
19D60
330
19D42
100
AcDbEntity
  8
0
100
AcDbLine
 10
10.06399999998996
 20
3.670999999996297
 30
0.0
 11
9.236999999990758
 21
5.5200999999945
 31
0.0
1001
ACAD
1000
ASC_BOUNDS
1002
{
1070
    19
1005
19D85
1002
}
  0
LINE
  5
19D61
330
19D42
100
AcDbEntity
  8
0
100
AcDbLine
 10
8.409999999991555
 20
3.670999999996297
 30
0.0
 11
9.236999999990758
 21
5.5200999999945
 31
0.0
1001
ACAD
1000
ASC_BOUNDS
1002
{
1070
    19
1005
19D85
1002
}
  0
LINE
  5
19D62
330
19D42
100
AcDbEntity
  8
0
100
AcDbLine
 10
8.409999999991555
 20
3.670999999996297
 30
0.0
 11
10.06399999998996
 21
3.670999999996297
 31
0.0
1001
ACAD
1000
ASC_BOUNDS
1002
{
1070
    19
1005
19D85
1002
}
  0
LINE
  5
19D63
330
19D42
100
AcDbEntity
  8
0
100
AcDbLine
 10
10.53899999998941
 20
8.763099999991255
 30
0.0
 11
12.02999999998792
 21
8.763099999991255
 31
0.0
1001
ACAD
1000
ASC_BOUNDS
1002
{
1070
    19
1005
19D86
1002
}
  0
LINE
  5
19D64
330
19D42
100
AcDbEntity
  8
0
100
AcDbLine
 10
22.7389999999773
 20
3.670999999996297
 30
0.0
 11
23.56599999997638
 21
5.5200999999945
 31
0.0
1001
ACAD
1000
ASC_BOUNDS
1002
{
1070
    19
1005
19D87
1002
}
  0
LINE
  5
19D65
330
19D42
100
AcDbEntity
  8
0
100
AcDbLine
 10
22.7389999999773
 20
3.670999999996297
 30
0.0
 11
24.39299999997559
 21
3.670999999996297
 31
0.0
1001
ACAD
1000
ASC_BOUNDS
1002
{
1070
    19
1005
19D87
1002
}
  0
LINE
  5
19D66
330
19D42
100
AcDbEntity
  8
0
100
AcDbLine
 10
18.59799999998143
 20
3.315799999996671
 30
0.0
 11
20.89099999997916
 21
8.763099999991255
 31
0.0
1001
ACAD
1000
ASC_BOUNDS
1002
{
1070
    19
1005
19D86
1002
}
  0
LINE
  5
19D67
330
19D42
100
AcDbEntity
  8
0
100
AcDbLine
 10
18.59799999998143
 20
3.315799999996671
 30
0.0
 11
16.46099999998353
 21
8.999899999990987
 31
0.0
1001
ACAD
1000
ASC_BOUNDS
1002
{
1070
    19
1005
19D86
1002
}
  0
LINE
  5
19D68
330
19D42
100
AcDbEntity
  8
0
100
AcDbLine
 10
20.89099999997916
 20
8.763099999991255
 30
0.0
 11
22.38199999997767
 21
8.763099999991255
 31
0.0
1001
ACAD
1000
ASC_BOUNDS
1002
{
1070
    19
1005
19D86
1002
}
  0
LINE
  5
19D69
330
19D42
100
AcDbEntity
  8
0
100
AcDbLine
 10
24.39299999997559
 20
3.670999999996297
 30
0.0
 11
23.56599999997638
 21
5.5200999999945
 31
0.0
1001
ACAD
1000
ASC_BOUNDS
1002
{
1070
    19
1005
19D87
1002
}
  0
LINE
  5
19D6A
330
19D42
100
AcDbEntity
  8
0
100
AcDbLine
 10
44.99999999995498
 20
-0.2368999999997641
 30
0.0
 11
40.02599999995994
 21
5.341799999994635
 31
0.0
1001
ACAD
1000
ASC_BOUNDS
1002
{
1070
    19
1005
19D89
1002
}
  0
LINE
  5
19D6B
330
19D42
100
AcDbEntity
  8
0
100
AcDbLine
 10
40.02599999995994
 20
5.341799999994635
 30
0.0
 11
40.02599999995994
 21
0.0
 31
0.0
1001
ACAD
1000
ASC_BOUNDS
1002
{
1070
    19
1005
19D89
1002
}
  0
LINE
  5
19D6C
330
19D42
100
AcDbEntity
  8
0
100
AcDbLine
 10
38.60499999996136
 20
8.999999999991019
 30
0.0
 11
38.60499999996136
 21
0.0
 31
0.0
1001
ACAD
1000
ASC_BOUNDS
1002
{
1070
    19
1005
19D89
1002
}
  0
LINE
  5
19D6D
330
19D42
100
AcDbEntity
  8
0
100
AcDbLine
 10
44.99999999995498
 20
8.763099999991255
 30
0.0
 11
44.99999999995498
 21
-0.2368999999997641
 31
0.0
1001
ACAD
1000
ASC_BOUNDS
1002
{
1070
    19
1005
19D89
1002
}
  0
LINE
  5
19D6E
330
19D42
100
AcDbEntity
  8
0
100
AcDbLine
 10
38.60499999996136
 20
0.0
 30
0.0
 11
40.02599999995994
 21
0.0
 31
0.0
1001
ACAD
1000
ASC_BOUNDS
1002
{
1070
    19
1005
19D89
1002
}
  0
LINE
  5
19D6F
330
19D42
100
AcDbEntity
  8
0
100
AcDbLine
 10
43.57899999995641
 20
3.421199999996588
 30
0.0
 11
38.60499999996136
 21
8.999899999990987
 31
0.0
1001
ACAD
1000
ASC_BOUNDS
1002
{
1070
    19
1005
19D89
1002
}
  0
LINE
  5
19D70
330
19D42
100
AcDbEntity
  8
0
100
AcDbLine
 10
43.57899999995641
 20
8.763099999991255
 30
0.0
 11
43.57899999995641
 21
3.421199999996588
 31
0.0
1001
ACAD
1000
ASC_BOUNDS
1002
{
1070
    19
1005
19D89
1002
}
  0
LINE
  5
19D71
330
19D42
100
AcDbEntity
  8
0
100
AcDbLine
 10
43.57899999995641
 20
8.763099999991255
 30
0.0
 11
44.99999999995498
 21
8.763099999991255
 31
0.0
1001
ACAD
1000
ASC_BOUNDS
1002
{
1070
    19
1005
19D89
1002
}
  0
LINE
  5
19D72
330
19D42
100
AcDbEntity
  8
0
100
AcDbLine
 10
37.67199999996831
 20
8.763099999991255
 30
0.0
 11
36.23199999996837
 21
8.763099999991255
 31
0.0
  0
LINE
  5
19D73
330
19D42
100
AcDbEntity
  8
0
100
AcDbLine
 10
31.64199999996833
 20
8.763099999991255
 30
0.0
 11
31.64199999996833
 21
2.481619422925121
 31
0.0
  0
LINE
  5
19D74
330
19D42
100
AcDbEntity
  8
0
100
AcDbLine
 10
37.67199999996831
 20
8.763099999991255
 30
0.0
 11
37.67199999996831
 21
2.481619422925121
 31
0.0
  0
LINE
  5
19D75
330
19D42
100
AcDbEntity
  8
0
100
AcDbLine
 10
36.23199999996837
 20
8.763099999991255
 30
0.0
 11
36.23199999996837
 21
2.481619422925064
 31
0.0
  0
LINE
  5
19D76
330
19D42
100
AcDbEntity
  8
0
100
AcDbLine
 10
33.08199999996839
 20
8.763099999991255
 30
0.0
 11
33.08199999996839
 21
2.481619422925121
 31
0.0
  0
ARC
  5
19D77
330
19D42
100
AcDbEntity
  8
0
100
AcDbCircle
 10
34.65699999996832
 20
3.183099999991214
 30
0.0
 40
3.420000000000007
100
AcDbArc
 50
240.0000000000255
 51
299.9999999999766
  0
ARC
  5
19D78
330
19D42
100
AcDbEntity
  8
0
100
AcDbCircle
 10
34.65699999996832
 20
3.183099999991214
 30
0.0
 40
1.97999999999999
100
AcDbArc
 50
240.000000000026
 51
299.9999999999703
  0
LINE
  5
19D79
330
19D42
100
AcDbEntity
  8
0
100
AcDbLine
 10
33.08199999996828
 20
8.763099999991255
 30
0.0
 11
31.64199999996833
 21
8.763099999991255
 31
0.0
  0
ARC
  5
19D7A
330
19D42
100
AcDbEntity
  8
0
100
AcDbCircle
 10
35.06199999996829
 20
2.481619422925064
 30
0.0
 40
1.17
100
AcDbArc
 50
299.9999999999699
 51
0.0
  0
ARC
  5
19D7B
330
19D42
100
AcDbEntity
  8
0
100
AcDbCircle
 10
34.25199999996835
 20
2.481619422925121
 30
0.0
 40
1.17
100
AcDbArc
 50
180.0
 51
240.0000000000238
  0
ARC
  5
19D7C
330
19D42
100
AcDbEntity
  8
0
100
AcDbCircle
 10
35.06199999996841
 20
2.481619422925121
 30
0.0
 40
2.61
100
AcDbArc
 50
299.9999999999756
 51
0.0
  0
ARC
  5
19D7D
330
19D42
100
AcDbEntity
  8
0
100
AcDbCircle
 10
34.25199999996835
 20
2.481619422925121
 30
0.0
 40
2.61
100
AcDbArc
 50
180.0
 51
240.0000000000244
  0
LINE
  5
19D7E
330
19D42
100
AcDbEntity
  8
0
100
AcDbLine
 10
29.30199999996933
 20
8.763099999991255
 30
0.0
 11
30.74199999996927
 21
8.763099999991255
 31
0.0
1001
ACAD
1000
ASC_BOUNDS
1002
{
1070
    19
1005
19D87
1002
}
  0
LINE
  5
19D7F
330
19D42
100
AcDbEntity
  8
0
100
AcDbLine
 10
30.74199999996927
 20
8.763099999991255
 30
0.0
 11
30.74199999996927
 21
2.373099999991211
 31
0.0
1001
ACAD
1000
ASC_BOUNDS
1002
{
1070
    19
1005
19D87
1002
}
  0
LINE
  5
19D80
330
19D42
100
AcDbEntity
  8
0
100
AcDbLine
 10
26.02015566812236
 20
0.0330999999912365
 30
0.0
 11
28.40199999996923
 21
0.0330999999912365
 31
0.0
1001
ACAD
1000
ASC_BOUNDS
1002
{
1070
    19
1005
19D87
1002
}
  0
LINE
  5
19D81
330
19D42
100
AcDbEntity
  8
0
100
AcDbLine
 10
29.30199999996933
 20
8.763099999991255
 30
0.0
 11
29.30199999996933
 21
2.283099999991236
 31
0.0
1001
ACAD
1000
ASC_BOUNDS
1002
{
1070
    19
1005
19D87
1002
}
  0
LINE
  5
19D82
330
19D42
100
AcDbEntity
  8
0
100
AcDbLine
 10
26.97358892824991
 20
1.383099999991202
 30
0.0
 11
28.40199999996923
 21
1.383099999991202
 31
0.0
1001
ACAD
1000
ASC_BOUNDS
1002
{
1070
    19
1005
19D87
1002
}
  0
ARC
  5
19D83
330
19D42
100
AcDbEntity
  8
0
100
AcDbCircle
 10
28.40199999996923
 20
2.283099999991236
 30
0.0
 40
0.9
100
AcDbArc
 50
270.0
 51
0.0
1001
ACAD
1000
ASC_BOUNDS
1002
{
1070
    19
1005
19D87
1002
}
  0
ARC
  5
19D84
330
19D42
100
AcDbEntity
  8
0
100
AcDbCircle
 10
28.40199999996923
 20
2.373099999991211
 30
0.0
 40
2.34
100
AcDbArc
 50
270.0
 51
0.0
1001
ACAD
1000
ASC_BOUNDS
1002
{
1070
    19
1005
19D87
1002
}
  0
INSERT
  5
19D85
330
19D42
100
AcDbEntity
  8
0
100
AcDbBlockReference
  2
*X26
 10
0.0
 20
0.0
 30
0.0
1001
ACAD
1000
HATCH
1002
{
1070
    19
1000
ANSI37
1040
0.15
1040
0.0
1000
ASC_BOUNDS
1070
     2
1070
     2
1070
    12
1005
19D44
1005
19D45
1005
19D4C
1005
19D5B
1005
19D5E
1005
19D5C
1005
19D4D
1005
19D52
1005
19D50
1005
19D54
1005
19D53
1005
19D55
1070
     2
1070
     3
1005
19D60
1005
19D62
1005
19D61
1000
ASC_SEEDPOINT
1011
3.614004224891801
1021
2.996669441146025
1031
0.0
1000
R14_HATCH_DATA
1000
19D85
1011
1.0
1021
0.0
1031
0.0
1011
0.0
1021
1.0
1031
0.0
1011
0.0
1021
0.0
1031
1.0
1040
0.0
1010
0.0
1020
0.0
1030
1.0
1000
ANSI37
1070
     0
1070
     1
1071
        2
1071
        7
1070
     0
1070
     1
1071
       17
1040
13.26299999998673
1040
-0.0001000000000317
1040
9.236999999990758
1040
8.999899999990987
1040
9.236999999990758
1040
8.999999999991019
1040
5.657999999994331
1040
0.9999999999989768
1040
3.181999999996833
1040
4.668599999995308
1040
6.432999999993513
1040
8.763099999991255
1040
4.617999999995391
1040
8.763099999991255
1040
1.420999999998571
1040
4.736799999995242
1040
4.617999999995391
1040
-0.0001000000000317
1040
4.617999999995391
1040
0.0
1040
6.766999999993232
1040
0.0
1040
6.766999999993232
1040
-0.0001000000000317
1040
7.826999999992154
1040
2.368399999997621
1040
10.64699999998936
1040
2.368399999997621
1040
11.70599999998831
1040
-0.0001000000000317
1040
11.70599999998831
1040
0.0
1040
13.26299999998673
1040
0.0
1071
       12
1005
19D44
1005
19D45
1005
19D4C
1005
19D5B
1005
19D5E
1005
19D5C
1005
19D4D
1005
19D52
1005
19D50
1005
19D54
1005
19D53
1005
19D55
1071
       22
1070
     0
1070
     1
1071
        3
1040
9.236999999990758
1040
5.5200999999945
1040
10.06399999998996
1040
3.670999999996297
1040
8.409999999991555
1040
3.670999999996297
1071
        3
1005
19D60
1005
19D62
1005
19D61
1070
     0
1070
     1
1040
0.0
1040
0.15
1070
     0
1070
     2
1040
0.7853981633974483
1040
49.29960901727088
1040
-10.17736998311392
1040
-0.3367596045400932
1040
0.3367596045400932
1070
     0
1040
2.356194490192345
1040
49.29960901727088
1040
-10.17736998311392
1040
-0.3367596045400932
1040
-0.3367596045400932
1070
     0
1040
0.0110235143455945
1071
        2
1040
3.614004224891801
1040
2.996669441146025
1040
0.0
1040
3.614004224891801
1040
2.996669441146025
1040
0.0
1002
}
  0
INSERT
  5
19D86
330
19D42
100
AcDbEntity
  8
0
100
AcDbBlockReference
  2
*X27
 10
0.0
 20
0.0
 30
0.0
1001
ACAD
1000
HATCH
1002
{
1070
    19
1000
ANSI37
1040
0.15
1040
0.0
1000
ASC_BOUNDS
1070
     1
1070
     2
1070
    10
1005
19D46
1005
19D47
1005
19D68
1005
19D66
1005
19D67
1005
19D5A
1005
19D5F
1005
19D63
1005
19D49
1005
19D48
1000
ASC_SEEDPOINT
1011
14.73245321214324
1021
2.798246178283421
1031
0.0
1000
R14_HATCH_DATA
1000
19D86
1011
1.0
1021
0.0
1031
0.0
1011
0.0
1021
1.0
1031
0.0
1011
0.0
1021
0.0
1031
1.0
1040
0.0
1010
0.0
1020
0.0
1030
1.0
1000
ANSI37
1070
     0
1070
     1
1071
        1
1071
        7
1070
     0
1070
     1
1071
       10
1040
16.46099999998353
1040
5.432899999994561
1040
18.59199999998134
1040
-0.2368999999997641
1040
22.38199999997767
1040
8.763099999991255
1040
20.89099999997916
1040
8.763099999991255
1040
18.59799999998143
1040
3.315799999996671
1040
16.46099999998353
1040
8.999899999990987
1040
14.32399999998563
1040
3.315799999996671
1040
12.02999999998792
1040
8.763099999991255
1040
10.53899999998941
1040
8.763099999991255
1040
14.32899999998563
1040
-0.2368999999997641
1071
       10
1005
19D46
1005
19D47
1005
19D68
1005
19D66
1005
19D67
1005
19D5A
1005
19D5F
1005
19D63
1005
19D49
1005
19D48
1070
     0
1070
     1
1040
0.0
1040
0.15
1070
     0
1070
     2
1040
0.7853981633974483
1040
49.29960901727088
1040
-10.17736998311392
1040
-0.3367596045400932
1040
0.3367596045400932
1070
     0
1040
2.356194490192345
1040
49.29960901727088
1040
-10.17736998311392
1040
-0.3367596045400932
1040
-0.3367596045400932
1070
     0
1040
0.0110235143455945
1071
        1
1040
14.73245321214324
1040
2.798246178283421
1040
0.0
1002
}
  0
INSERT
  5
19D87
330
19D42
100
AcDbEntity
  8
0
100
AcDbBlockReference
  2
*X28
 10
0.0
 20
0.0
 30
0.0
1001
ACAD
1000
HATCH
1002
{
1070
    19
1000
ANSI37
1040
0.15
1040
0.0
1000
ASC_BOUNDS
1070
     2
1070
     2
1070
    13
1005
19D4A
1005
19D57
1005
19D58
1005
19D56
1005
19D59
1005
19D80
1005
19D84
1005
19D7F
1005
19D7E
1005
19D81
1005
19D83
1005
19D82
1005
19D4B
1070
     2
1070
     3
1005
19D64
1005
19D69
1005
19D65
1000
ASC_SEEDPOINT
1011
21.97929957367762
1021
3.294304244259308
1031
0.0
1000
R14_HATCH_DATA
1000
19D87
1011
1.0
1021
0.0
1031
0.0
1011
0.0
1021
1.0
1031
0.0
1011
0.0
1021
0.0
1031
1.0
1040
0.0
1010
0.0
1020
0.0
1030
1.0
1000
ANSI37
1070
     0
1070
     1
1071
        2
1071
        7
1070
     1
1070
     1
1071
       15
1040
23.56599999997638
1040
8.999899999990987
1040
0.0
1040
19.53899999998043
1040
-0.0001000000000317
1040
0.0
1040
19.53899999998043
1040
0.0
1040
0.0
1040
21.09599999997886
1040
0.0
1040
0.0
1040
21.09599999997886
1040
-0.0001000000000317
1040
0.0
1040
22.15599999997789
1040
2.368399999997621
1040
0.0
1040
24.97599999997499
1040
2.368399999997621
1040
0.0
1040
26.02015566812236
1040
0.0330999999912365
1040
0.0
1040
28.40199999996923
1040
0.0330999999912365
1040
0.414213562373095
1040
30.74199999996923
1040
2.373099999991211
1040
0.0
1040
30.74199999996927
1040
8.763099999991255
1040
0.0
1040
29.30199999996933
1040
8.763099999991255
1040
0.0
1040
29.30199999996933
1040
2.283099999991236
1040
-0.414213562373095
1040
28.40199999996923
1040
1.383099999991237
1040
0.0
1040
26.97358892824991
1040
1.383099999991202
1040
0.0
1071
       13
1005
19D4A
1005
19D57
1005
19D58
1005
19D56
1005
19D59
1005
19D80
1005
19D84
1005
19D7F
1005
19D7E
1005
19D81
1005
19D83
1005
19D82
1005
19D4B
1071
       22
1070
     0
1070
     1
1071
        3
1040
22.7389999999773
1040
3.670999999996297
1040
23.56599999997638
1040
5.5200999999945
1040
24.39299999997559
1040
3.670999999996297
1071
        3
1005
19D64
1005
19D69
1005
19D65
1070
     0
1070
     1
1040
0.0
1040
0.15
1070
     0
1070
     2
1040
0.7853981633974483
1040
49.29960901727088
1040
-10.17736998311392
1040
-0.3367596045400932
1040
0.3367596045400932
1070
     0
1040
2.356194490192345
1040
49.29960901727088
1040
-10.17736998311392
1040
-0.3367596045400932
1040
-0.3367596045400932
1070
     0
1040
0.0110235143455945
1071
        2
1040
21.97929957367762
1040
3.294304244259308
1040
0.0
1040
21.97929957367762
1040
3.294304244259308
1040
0.0
1002
}
  0
INSERT
  5
19D88
330
19D42
100
AcDbEntity
  8
0
100
AcDbBlockReference
  2
*X29
 10
0.0
 20
0.0
 30
0.0
1001
ACAD
1000
HATCH
1002
{
1070
    19
1000
ANSI37
1040
0.15
1040
0.0
1000
R14_HATCH_DATA
1000
19D88
1011
1.0
1021
0.0
1031
0.0
1011
0.0
1021
1.0
1031
0.0
1011
0.0
1021
0.0
1031
1.0
1040
0.0
1010
0.0
1020
0.0
1030
1.0
1000
ANSI37
1070
     0
1070
     1
1071
        1
1071
        7
1070
     1
1070
     1
1071
       12
1040
31.64199999996833
1040
2.481619422925121
1040
0.2679491924310942
1040
32.94699999997067
1040
0.2212931190493919
1040
0.2679491924301353
1040
36.36699999995983
1040
0.2212931190459813
1040
0.2679491924321411
1040
37.67199999996831
1040
2.481619422928361
1040
0.0
1040
37.67199999996831
1040
8.763099999991255
1040
0.0
1040
36.23199999996837
1040
8.763099999991255
1040
0.0
1040
36.23199999996837
1040
2.481619422925064
1040
-0.2679491924310291
1040
35.64699999996708
1040
1.468369700498386
1040
-0.267949192430519
1040
33.66699999997093
1040
1.468369700497703
1040
-0.267949192431809
1040
33.08199999996839
1040
2.481619422926997
1040
0.0
1040
33.08199999996839
1040
8.763099999991255
1040
0.0
1040
31.64199999996833
1040
8.763099999991255
1040
0.0
1071
        0
1070
     0
1070
     1
1040
0.0
1040
0.15
1070
     0
1070
     2
1040
0.7853981633974483
1040
49.29960901727088
1040
-10.17736998311392
1040
-0.3367596045400932
1040
0.3367596045400932
1070
     0
1040
2.356194490192345
1040
49.29960901727088
1040
-10.17736998311392
1040
-0.3367596045400932
1040
-0.3367596045400932
1070
     0
1040
0.0110235143455945
1071
        1
1040
32.30357378967278
1040
3.988785755459219
1040
0.0
1002
}
  0
INSERT
  5
19D89
330
19D42
100
AcDbEntity
  8
0
100
AcDbBlockReference
  2
*X30
 10
0.0
 20
0.0
 30
0.0
1001
ACAD
1000
HATCH
1002
{
1070
    19
1000
ANSI37
1040
0.15
1040
0.0
1000
ASC_BOUNDS
1070
     1
1070
     2
1070
     8
1005
19D6A
1005
19D6D
1005
19D71
1005
19D70
1005
19D6F
1005
19D6C
1005
19D6E
1005
19D6B
1000
ASC_SEEDPOINT
1011
39.74896370716704
1021
4.484843821435049
1031
0.0
1000
R14_HATCH_DATA
1000
19D89
1011
1.0
1021
0.0
1031
0.0
1011
0.0
1021
1.0
1031
0.0
1011
0.0
1021
0.0
1031
1.0
1040
0.0
1010
0.0
1020
0.0
1030
1.0
1000
ANSI37
1070
     0
1070
     1
1071
        1
1071
        7
1070
     0
1070
     1
1071
        9
1040
40.02599999995994
1040
5.341799999994635
1040
44.99999999995498
1040
-0.2368999999997641
1040
44.99999999995498
1040
8.763099999991255
1040
43.57899999995641
1040
8.763099999991255
1040
43.57899999995641
1040
3.421199999996588
1040
38.60499999996136
1040
8.999899999990987
1040
38.60499999996136
1040
8.999999999991019
1040
38.60499999996136
1040
0.0
1040
40.02599999995994
1040
0.0
1071
        8
1005
19D6A
1005
19D6D
1005
19D71
1005
19D70
1005
19D6F
1005
19D6C
1005
19D6E
1005
19D6B
1070
     0
1070
     1
1040
0.0
1040
0.15
1070
     0
1070
     2
1040
0.7853981633974483
1040
49.29960901727088
1040
-10.17736998311392
1040
-0.3367596045400932
1040
0.3367596045400932
1070
     0
1040
2.356194490192345
1040
49.29960901727088
1040
-10.17736998311392
1040
-0.3367596045400932
1040
-0.3367596045400932
1070
     0
1040
0.0110235143455945
1071
        1
1040
39.74896370716704
1040
4.484843821435049
1040
0.0
1002
}
  0
INSERT
  5
19D8A
330
19D42
100
AcDbEntity
  8
0
100
AcDbBlockReference
  2
*X31
 10
0.0
 20
0.0
 30
0.0
1001
ACAD
1000
HATCH
1002
{
1070
    19
1000
ANSI37
1040
0.15
1040
0.0
1000
ASC_BOUNDS
1070
     1
1070
     2
1070
     4
1005
19D4E
1005
19D5D
1005
19D4F
1005
19D51
1000
ASC_SEEDPOINT
1011
1.079051535452663
1021
4.148538732891836
1031
0.0
1000
R14_HATCH_DATA
1000
19D8A
1011
1.0
1021
0.0
1031
0.0
1011
0.0
1021
1.0
1031
0.0
1011
0.0
1021
0.0
1031
1.0
1040
0.0
1010
0.0
1020
0.0
1030
1.0
1000
ANSI37
1070
     0
1070
     1
1071
        1
1071
        7
1070
     0
1070
     1
1071
        4
1040
1.420999999998571
1040
0.0
1040
1.420999999998571
1040
8.763099999991255
1040
0.0
1040
8.763099999991255
1040
0.0
1040
0.0
1071
        4
1005
19D4E
1005
19D5D
1005
19D4F
1005
19D51
1070
     0
1070
     1
1040
0.0
1040
0.15
1070
     0
1070
     2
1040
0.7853981633974483
1040
49.29960901727088
1040
-10.17736998311392
1040
-0.3367596045400932
1040
0.3367596045400932
1070
     0
1040
2.356194490192345
1040
49.29960901727088
1040
-10.17736998311392
1040
-0.3367596045400932
1040
-0.3367596045400932
1070
     0
1040
0.0053004257112761
1071
        1
1040
1.079051535452663
1040
4.148538732891836
1040
0.0
1002
}
  0
ENDBLK
  5
1A551
330
19D42
100
AcDbEntity
  8
0
100
AcDbBlockEnd
  0
BLOCK
  5
1B478
330
1B2EA
100
AcDbEntity
  8
0
100
AcDbBlockBegin
  2
*X26
 70
     1
 10
0.0
 20
0.0
 30
0.0
  3
*X26
  1

  0
LINE
  5
1B2EB
330
1B2EA
100
AcDbEntity
  8
0
  6
CONTINUOUS
100
AcDbLine
 10
3.418023043697893
 20
7.251849696850613
 30
0.0
 11
4.929273346838536
 21
8.763099999991255
 31
0.0
  0
LINE
  5
1B2EC
330
1B2EA
100
AcDbEntity
  8
0
  6
CONTINUOUS
100
AcDbLine
 10
1.483656411257782
 20
4.643963855330318
 30
0.0
 11
5.60279255591872
 21
8.763099999991255
 31
0.0
  0
LINE
  5
1B2ED
330
1B2EA
100
AcDbEntity
  8
0
  6
CONTINUOUS
100
AcDbLine
 10
1.755053947328235
 20
4.241842182320584
 30
0.0
 11
6.276311764998907
 21
8.763099999991255
 31
0.0
  0
LINE
  5
1B2EE
330
1B2EA
100
AcDbEntity
  8
0
  6
CONTINUOUS
100
AcDbLine
 10
2.026451483398688
 20
3.839720509310849
 30
0.0
 11
4.441040904851878
 21
6.254309930764039
 31
0.0
  0
LINE
  5
1B2EF
330
1B2EA
100
AcDbEntity
  8
0
  6
CONTINUOUS
100
AcDbLine
 10
2.297849019469139
 20
3.437598836301114
 30
0.0
 11
3.321765168359338
 21
4.461514985191313
 31
0.0
  0
LINE
  5
1B2F0
330
1B2EA
100
AcDbEntity
  8
0
  6
CONTINUOUS
100
AcDbLine
 10
2.569246555539591
 20
3.03547716329138
 30
0.0
 11
3.593163397972743
 21
4.059394005724531
 31
0.0
  0
LINE
  5
1B2F1
330
1B2EA
100
AcDbEntity
  8
0
  6
CONTINUOUS
100
AcDbLine
 10
2.840644091610043
 20
2.633355490281646
 30
0.0
 11
3.864561627586149
 21
3.657273026257751
 31
0.0
  0
LINE
  5
1B2F2
330
1B2EA
100
AcDbEntity
  8
0
  6
CONTINUOUS
100
AcDbLine
 10
3.112041627680496
 20
2.231233817271911
 30
0.0
 11
4.135959857199554
 21
3.25515204679097
 31
0.0
  0
LINE
  5
1B2F3
330
1B2EA
100
AcDbEntity
  8
0
  6
CONTINUOUS
100
AcDbLine
 10
3.383439163750948
 20
1.829112144262177
 30
0.0
 11
4.40735808681296
 21
2.853031067324189
 31
0.0
  0
LINE
  5
1B2F4
330
1B2EA
100
AcDbEntity
  8
0
  6
CONTINUOUS
100
AcDbLine
 10
3.654836699821399
 20
1.426990471252442
 30
0.0
 11
4.678756316426365
 21
2.450910087857407
 31
0.0
  0
LINE
  5
1B2F5
330
1B2EA
100
AcDbEntity
  8
0
  6
CONTINUOUS
100
AcDbLine
 10
3.926234235891853
 20
1.024868798242709
 30
0.0
 11
4.95015454603977
 21
2.048789108390626
 31
0.0
  0
LINE
  5
1B2F6
330
1B2EA
100
AcDbEntity
  8
0
  6
CONTINUOUS
100
AcDbLine
 10
4.197631771962304
 20
0.6227471252329737
 30
0.0
 11
5.221552775653176
 21
1.646668128923846
 31
0.0
  0
LINE
  5
1B2F7
330
1B2EA
100
AcDbEntity
  8
0
  6
CONTINUOUS
100
AcDbLine
 10
8.715877546767851
 20
7.835069736359266
 30
0.0
 11
9.435953450375058
 21
8.555145639966472
 31
0.0
  0
LINE
  5
1B2F8
330
1B2EA
100
AcDbEntity
  8
0
  6
CONTINUOUS
100
AcDbLine
 10
8.170620868422267
 20
6.616293848933497
 30
0.0
 11
9.644120833743461
 21
8.08979381425469
 31
0.0
  0
LINE
  5
1B2F9
330
1B2EA
100
AcDbEntity
  8
0
  6
CONTINUOUS
100
AcDbLine
 10
7.625364190076684
 20
5.397517961507727
 30
0.0
 11
9.852288217111864
 21
7.624441988542907
 31
0.0
  0
LINE
  5
1B2FA
330
1B2EA
100
AcDbEntity
  8
0
  6
CONTINUOUS
100
AcDbLine
 10
7.080107511731101
 20
4.178742074081957
 30
0.0
 11
10.06045560048027
 21
7.159090162831124
 31
0.0
  0
LINE
  5
1B2FB
330
1B2EA
100
AcDbEntity
  8
0
  6
CONTINUOUS
100
AcDbLine
 10
6.534850833385518
 20
2.959966186656187
 30
0.0
 11
10.26862298384867
 21
6.693738337119342
 31
0.0
  0
LINE
  5
1B2FC
330
1B2EA
100
AcDbEntity
  8
0
  6
CONTINUOUS
100
AcDbLine
 10
4.469029308032756
 20
0.2206254522232385
 30
0.0
 11
5.492951005266582
 21
1.244547149457064
 31
0.0
  0
LINE
  5
1B2FD
330
1B2EA
100
AcDbEntity
  8
0
  6
CONTINUOUS
100
AcDbLine
 10
5.989594155039935
 20
1.741190299230417
 30
0.0
 11
8.806950407233131
 21
4.558546551423613
 31
0.0
  0
LINE
  5
1B2FE
330
1B2EA
100
AcDbEntity
  8
0
  6
CONTINUOUS
100
AcDbLine
 10
9.401251593263643
 20
5.152847737454126
 30
0.0
 11
10.47679036721708
 21
6.228386511407559
 31
0.0
  0
LINE
  5
1B2FF
330
1B2EA
100
AcDbEntity
  8
0
  6
CONTINUOUS
100
AcDbLine
 10
4.921837203428691
 20
-0.0000858614610131
 30
0.0
 11
8.592923064886001
 21
3.670999999996297
 31
0.0
  0
LINE
  5
1B300
330
1B2EA
100
AcDbEntity
  8
0
  6
CONTINUOUS
100
AcDbLine
 10
9.609390446785305
 20
4.6874673818956
 30
0.0
 11
10.68495775058548
 21
5.763034685695775
 31
0.0
  0
LINE
  5
1B301
330
1B2EA
100
AcDbEntity
  8
0
  6
CONTINUOUS
100
AcDbLine
 10
5.595387755019432
 20
-0.0000545189504582
 30
0.0
 11
7.716137258923768
 21
2.120694984953879
 31
0.0
  0
LINE
  5
1B302
330
1B2EA
100
AcDbEntity
  8
0
  6
CONTINUOUS
100
AcDbLine
 10
6.268938306610172
 20
-0.000023176439905
 30
0.0
 11
7.170485805526503
 21
0.9015243224764267
 31
0.0
  0
LINE
  5
1B303
330
1B2EA
100
AcDbEntity
  8
0
  6
CONTINUOUS
100
AcDbLine
 10
7.963842273967511
 20
2.368399999997621
 30
0.0
 11
9.266442273966188
 21
3.670999999996297
 31
0.0
  0
LINE
  5
1B304
330
1B2EA
100
AcDbEntity
  8
0
  6
CONTINUOUS
100
AcDbLine
 10
8.637361483047696
 20
2.368399999997621
 30
0.0
 11
9.939961483046375
 21
3.670999999996297
 31
0.0
  0
LINE
  5
1B305
330
1B2EA
100
AcDbEntity
  8
0
  6
CONTINUOUS
100
AcDbLine
 10
9.817529300306965
 20
4.222087026337075
 30
0.0
 11
10.89312513395388
 21
5.297682859983993
 31
0.0
  0
LINE
  5
1B306
330
1B2EA
100
AcDbEntity
  8
0
  6
CONTINUOUS
100
AcDbLine
 10
10.02566815382863
 20
3.756706670778549
 30
0.0
 11
11.10129251732229
 21
4.832331034272211
 31
0.0
  0
LINE
  5
1B307
330
1B2EA
100
AcDbEntity
  8
0
  6
CONTINUOUS
100
AcDbLine
 10
9.310880692127883
 20
2.368399999997621
 30
0.0
 11
11.30945990069069
 21
4.366979208560428
 31
0.0
  0
LINE
  5
1B308
330
1B2EA
100
AcDbEntity
  8
0
  6
CONTINUOUS
100
AcDbLine
 10
9.98439990120807
 20
2.36839999999762
 30
0.0
 11
11.5176272840591
 21
3.901627382848645
 31
0.0
  0
LINE
  5
1B309
330
1B2EA
100
AcDbEntity
  8
0
  6
CONTINUOUS
100
AcDbLine
 10
10.65037369446246
 20
2.36085458417182
 30
0.0
 11
11.7257946674275
 21
3.436275557136862
 31
0.0
  0
LINE
  5
1B30A
330
1B2EA
100
AcDbEntity
  8
0
  6
CONTINUOUS
100
AcDbLine
 10
10.85847197087848
 20
1.895433651507656
 30
0.0
 11
11.9339620507959
 21
2.97092373142508
 31
0.0
  0
LINE
  5
1B30B
330
1B2EA
100
AcDbEntity
  8
0
  6
CONTINUOUS
100
AcDbLine
 10
11.0665702472945
 20
1.430012718843491
 30
0.0
 11
12.14212943416431
 21
2.505571905713296
 31
0.0
  0
LINE
  5
1B30C
330
1B2EA
100
AcDbEntity
  8
0
  6
CONTINUOUS
100
AcDbLine
 10
11.27466852371052
 20
0.9645917861793256
 30
0.0
 11
12.35029681753271
 21
2.040220080001513
 31
0.0
  0
LINE
  5
1B30D
330
1B2EA
100
AcDbEntity
  8
0
  6
CONTINUOUS
100
AcDbLine
 10
11.48276680012654
 20
0.4991708535151611
 30
0.0
 11
12.55846420090111
 21
1.57486825428973
 31
0.0
  0
LINE
  5
1B30E
330
1B2EA
100
AcDbEntity
  8
0
  6
CONTINUOUS
100
AcDbLine
 10
11.69086507654257
 20
0.0337499208509957
 30
0.0
 11
12.76663158426952
 21
1.109516428577947
 31
0.0
  0
LINE
  5
1B30F
330
1B2EA
100
AcDbEntity
  8
0
  6
CONTINUOUS
100
AcDbLine
 10
12.33057447873954
 20
-0.0000598860322123
 30
0.0
 11
12.97479896763792
 21
0.6441646028661663
 31
0.0
  0
LINE
  5
1B310
330
1B2EA
100
AcDbEntity
  8
0
  6
CONTINUOUS
100
AcDbLine
 10
13.00413694809395
 20
-0.0000166257579952
 30
0.0
 11
13.18296635100632
 21
0.1788127771543824
 31
0.0
  0
LINE
  5
1B311
330
1B2EA
100
AcDbEntity
  8
0
  6
CONTINUOUS
100
AcDbLine
 10
4.772852165289667
 20
-0.000092794222212
 30
0.0
 11
4.296495091028902
 21
0.4762642800385528
 31
0.0
  0
LINE
  5
1B312
330
1B2EA
100
AcDbEntity
  8
0
  6
CONTINUOUS
100
AcDbLine
 10
5.446340034776103
 20
-0.0000614546284616
 30
0.0
 11
2.898195908335625
 21
2.548082671812017
 31
0.0
  0
LINE
  5
1B313
330
1B2EA
100
AcDbEntity
  8
0
  6
CONTINUOUS
100
AcDbLine
 10
6.119827904262539
 20
-0.0000301150347113
 30
0.0
 11
1.499896725642348
 21
4.61990106358548
 31
0.0
  0
LINE
  5
1B314
330
1B2EA
100
AcDbEntity
  8
0
  6
CONTINUOUS
100
AcDbLine
 10
6.775136745476159
 20
0.0181802528318542
 30
0.0
 11
5.699826040202669
 21
1.093490958105344
 31
0.0
  0
LINE
  5
1B315
330
1B2EA
100
AcDbEntity
  8
0
  6
CONTINUOUS
100
AcDbLine
 10
6.983376846288489
 20
0.4834593610997118
 30
0.0
 11
5.908008617934405
 21
1.558827589453796
 31
0.0
  0
LINE
  5
1B316
330
1B2EA
100
AcDbEntity
  8
0
  6
CONTINUOUS
100
AcDbLine
 10
5.377063484962296
 20
1.416253513345719
 30
0.0
 11
1.702276957014131
 21
5.091040041293883
 31
0.0
  0
LINE
  5
1B317
330
1B2EA
100
AcDbEntity
  8
0
  6
CONTINUOUS
100
AcDbLine
 10
3.978745891735324
 20
3.488090315652877
 30
0.0
 11
2.000373521109399
 21
5.466462686278803
 31
0.0
  0
LINE
  5
1B318
330
1B2EA
100
AcDbEntity
  8
0
  6
CONTINUOUS
100
AcDbLine
 10
7.191616947100819
 20
0.948738469367568
 30
0.0
 11
6.11619119566614
 21
2.024164220802247
 31
0.0
  0
LINE
  5
1B319
330
1B2EA
100
AcDbEntity
  8
0
  6
CONTINUOUS
100
AcDbLine
 10
7.399857047913149
 20
1.414017577635424
 30
0.0
 11
6.324373773397875
 21
2.489500852150698
 31
0.0
  0
LINE
  5
1B31A
330
1B2EA
100
AcDbEntity
  8
0
  6
CONTINUOUS
100
AcDbLine
 10
7.608097148725479
 20
1.879296685903281
 30
0.0
 11
6.53255635112961
 21
2.95483748349915
 31
0.0
  0
LINE
  5
1B31B
330
1B2EA
100
AcDbEntity
  8
0
  6
CONTINUOUS
100
AcDbLine
 10
7.816337249537808
 20
2.344575794171138
 30
0.0
 11
6.740738928861345
 21
3.420174114847601
 31
0.0
  0
LINE
  5
1B31C
330
1B2EA
100
AcDbEntity
  8
0
  6
CONTINUOUS
100
AcDbLine
 10
3.310241080789734
 20
4.830114335678653
 30
0.0
 11
2.298470085204666
 21
5.84188533126372
 31
0.0
  0
LINE
  5
1B31D
330
1B2EA
100
AcDbEntity
  8
0
  6
CONTINUOUS
100
AcDbLine
 10
3.60832983563551
 20
5.205544789913063
 30
0.0
 11
2.596566649299935
 21
6.217307976248638
 31
0.0
  0
LINE
  5
1B31E
330
1B2EA
100
AcDbEntity
  8
0
  6
CONTINUOUS
100
AcDbLine
 10
3.906418590481286
 20
5.580975244147473
 30
0.0
 11
2.894663213395203
 21
6.592730621233557
 31
0.0
  0
LINE
  5
1B31F
330
1B2EA
100
AcDbEntity
  8
0
  6
CONTINUOUS
100
AcDbLine
 10
4.204507345327062
 20
5.956405698381884
 30
0.0
 11
3.192759777490472
 21
6.968153266218474
 31
0.0
  0
LINE
  5
1B320
330
1B2EA
100
AcDbEntity
  8
0
  6
CONTINUOUS
100
AcDbLine
 10
8.466032252791512
 20
2.368399999997621
 30
0.0
 11
6.948921506593081
 21
3.885510746196053
 31
0.0
  0
LINE
  5
1B321
330
1B2EA
100
AcDbEntity
  8
0
  6
CONTINUOUS
100
AcDbLine
 10
9.139551461871699
 20
2.36839999999762
 30
0.0
 11
7.157104084324816
 21
4.350847377544504
 31
0.0
  0
LINE
  5
1B322
330
1B2EA
100
AcDbEntity
  8
0
  6
CONTINUOUS
100
AcDbLine
 10
4.502596100172839
 20
6.331836152616295
 30
0.0
 11
3.49085634158574
 21
7.343575911203393
 31
0.0
  0
LINE
  5
1B323
330
1B2EA
100
AcDbEntity
  8
0
  6
CONTINUOUS
100
AcDbLine
 10
4.800684855018615
 20
6.707266606850705
 30
0.0
 11
3.788952905681008
 21
7.718998556188312
 31
0.0
  0
LINE
  5
1B324
330
1B2EA
100
AcDbEntity
  8
0
  6
CONTINUOUS
100
AcDbLine
 10
12.18154012887317
 20
-0.0000694579236642
 30
0.0
 11
11.32140332908496
 21
0.8600673418645499
 31
0.0
  0
LINE
  5
1B325
330
1B2EA
100
AcDbEntity
  8
0
  6
CONTINUOUS
100
AcDbLine
 10
12.85501608323566
 20
-0.0000262032059659
 30
0.0
 11
10.77672456435345
 21
2.078265315676246
 31
0.0
  0
LINE
  5
1B326
330
1B2EA
100
AcDbEntity
  8
0
  6
CONTINUOUS
100
AcDbLine
 10
9.813070670951886
 20
2.36839999999762
 30
0.0
 11
8.51047067095321
 21
3.670999999996297
 31
0.0
  0
LINE
  5
1B327
330
1B2EA
100
AcDbEntity
  8
0
  6
CONTINUOUS
100
AcDbLine
 10
10.48658988003207
 20
2.36839999999762
 30
0.0
 11
9.183989880033396
 21
3.670999999996297
 31
0.0
  0
LINE
  5
1B328
330
1B2EA
100
AcDbEntity
  8
0
  6
CONTINUOUS
100
AcDbLine
 10
8.441048632286794
 20
3.740422038662712
 30
0.0
 11
7.365286662056551
 21
4.816184008892956
 31
0.0
  0
LINE
  5
1B329
330
1B2EA
100
AcDbEntity
  8
0
  6
CONTINUOUS
100
AcDbLine
 10
8.649187485808454
 20
4.205802394221237
 30
0.0
 11
7.573469239788285
 21
5.281520640241407
 31
0.0
  0
LINE
  5
1B32A
330
1B2EA
100
AcDbEntity
  8
0
  6
CONTINUOUS
100
AcDbLine
 10
5.098773609864391
 20
7.082697061085115
 30
0.0
 11
4.087049469776277
 21
8.09442120117323
 31
0.0
  0
LINE
  5
1B32B
330
1B2EA
100
AcDbEntity
  8
0
  6
CONTINUOUS
100
AcDbLine
 10
5.396862364710167
 20
7.458127515319526
 30
0.0
 11
4.385146033871544
 21
8.469843846158149
 31
0.0
  0
LINE
  5
1B32C
330
1B2EA
100
AcDbEntity
  8
0
  6
CONTINUOUS
100
AcDbLine
 10
13.04801363231285
 20
0.4804954567970334
 30
0.0
 11
9.85750908911358
 21
3.670999999996297
 31
0.0
  0
LINE
  5
1B32D
330
1B2EA
100
AcDbEntity
  8
0
  6
CONTINUOUS
100
AcDbLine
 10
8.857326339330116
 20
4.671182749779763
 30
0.0
 11
7.781651817520021
 21
5.746857271589858
 31
0.0
  0
LINE
  5
1B32E
330
1B2EA
100
AcDbEntity
  8
0
  6
CONTINUOUS
100
AcDbLine
 10
5.694951119555943
 20
7.833557969553937
 30
0.0
 11
4.765409089118624
 21
8.763099999991255
 31
0.0
  0
LINE
  5
1B32F
330
1B2EA
100
AcDbEntity
  8
0
  6
CONTINUOUS
100
AcDbLine
 10
12.50286117236978
 20
1.699167125820288
 30
0.0
 11
9.68611877250287
 21
4.515909525687196
 31
0.0
  0
LINE
  5
1B330
330
1B2EA
100
AcDbEntity
  8
0
  6
CONTINUOUS
100
AcDbLine
 10
9.065465192851777
 20
5.136563105338288
 30
0.0
 11
7.989834395251757
 21
6.21219390293831
 31
0.0
  0
LINE
  5
1B331
330
1B2EA
100
AcDbEntity
  8
0
  6
CONTINUOUS
100
AcDbLine
 10
5.993039874401719
 20
8.208988423788346
 30
0.0
 11
5.43892829819881
 21
8.763099999991255
 31
0.0
  0
LINE
  5
1B332
330
1B2EA
100
AcDbEntity
  8
0
  6
CONTINUOUS
100
AcDbLine
 10
11.95770871242671
 20
2.917838794843543
 30
0.0
 11
8.19801697298349
 21
6.677530534286761
 31
0.0
  0
LINE
  5
1B333
330
1B2EA
100
AcDbEntity
  8
0
  6
CONTINUOUS
100
AcDbLine
 10
6.291128629247495
 20
8.584418878022756
 30
0.0
 11
6.112447507278997
 21
8.763099999991255
 31
0.0
  0
LINE
  5
1B334
330
1B2EA
100
AcDbEntity
  8
0
  6
CONTINUOUS
100
AcDbLine
 10
11.41255625248364
 20
4.136510463866797
 30
0.0
 11
8.406199550715227
 21
7.142867165635211
 31
0.0
  0
LINE
  5
1B335
330
1B2EA
100
AcDbEntity
  8
0
  6
CONTINUOUS
100
AcDbLine
 10
10.86740379254057
 20
5.355182132890051
 30
0.0
 11
8.614382128446962
 21
7.608203796983664
 31
0.0
  0
LINE
  5
1B336
330
1B2EA
100
AcDbEntity
  8
0
  6
CONTINUOUS
100
AcDbLine
 10
10.3222513325975
 20
6.573853801913305
 30
0.0
 11
8.822564706178696
 21
8.073540428332114
 31
0.0
  0
LINE
  5
1B337
330
1B2EA
100
AcDbEntity
  8
0
  6
CONTINUOUS
100
AcDbLine
 10
9.777098872654436
 20
7.792525470936562
 30
0.0
 11
9.030747283910433
 21
8.538877059680566
 31
0.0
  0
ENDBLK
  5
1B479
330
1B2EA
100
AcDbEntity
  8
0
100
AcDbBlockEnd
  0
BLOCK
  5
1B47A
330
1B338
100
AcDbEntity
  8
0
100
AcDbBlockBegin
  2
*X27
 70
     1
 10
0.0
 20
0.0
 30
0.0
  3
*X27
  1

  0
LINE
  5
1B339
330
1B338
100
AcDbEntity
  8
0
  6
CONTINUOUS
100
AcDbLine
 10
10.67292308101235
 20
8.445076852443387
 30
0.0
 11
10.99094622856022
 21
8.763099999991255
 31
0.0
  0
LINE
  5
1B33A
330
1B338
100
AcDbEntity
  8
0
  6
CONTINUOUS
100
AcDbLine
 10
10.87250383178748
 20
7.971138394138331
 30
0.0
 11
11.6644654376404
 21
8.763099999991255
 31
0.0
  0
LINE
  5
1B33B
330
1B338
100
AcDbEntity
  8
0
  6
CONTINUOUS
100
AcDbLine
 10
11.07208458256261
 20
7.497199935833273
 30
0.0
 11
12.12126590876355
 21
8.546381262034211
 31
0.0
  0
LINE
  5
1B33C
330
1B338
100
AcDbEntity
  8
0
  6
CONTINUOUS
100
AcDbLine
 10
11.27166533333774
 20
7.023261477528216
 30
0.0
 11
12.32085164573666
 21
8.072447789927136
 31
0.0
  0
LINE
  5
1B33D
330
1B338
100
AcDbEntity
  8
0
  6
CONTINUOUS
100
AcDbLine
 10
11.47124608411287
 20
6.549323019223158
 30
0.0
 11
12.52043738270977
 21
7.59851431782006
 31
0.0
  0
LINE
  5
1B33E
330
1B338
100
AcDbEntity
  8
0
  6
CONTINUOUS
100
AcDbLine
 10
11.670826834888
 20
6.075384560918101
 30
0.0
 11
12.72002311968288
 21
7.124580845712984
 31
0.0
  0
LINE
  5
1B33F
330
1B338
100
AcDbEntity
  8
0
  6
CONTINUOUS
100
AcDbLine
 10
11.87040758566313
 20
5.601446102613043
 30
0.0
 11
12.91960885665599
 21
6.650647373605907
 31
0.0
  0
LINE
  5
1B340
330
1B338
100
AcDbEntity
  8
0
  6
CONTINUOUS
100
AcDbLine
 10
12.06998833643825
 20
5.127507644307986
 30
0.0
 11
13.1191945936291
 21
6.176713901498832
 31
0.0
  0
LINE
  5
1B341
330
1B338
100
AcDbEntity
  8
0
  6
CONTINUOUS
100
AcDbLine
 10
12.26956908721338
 20
4.65356918600293
 30
0.0
 11
13.31878033060221
 21
5.702780429391757
 31
0.0
  0
LINE
  5
1B342
330
1B338
100
AcDbEntity
  8
0
  6
CONTINUOUS
100
AcDbLine
 10
12.46914983798851
 20
4.179630727697873
 30
0.0
 11
13.51836606757532
 21
5.228846957284683
 31
0.0
  0
LINE
  5
1B343
330
1B338
100
AcDbEntity
  8
0
  6
CONTINUOUS
100
AcDbLine
 10
12.66873058876364
 20
3.705692269392816
 30
0.0
 11
13.71795180454843
 21
4.754913485177607
 31
0.0
  0
LINE
  5
1B344
330
1B338
100
AcDbEntity
  8
0
  6
CONTINUOUS
100
AcDbLine
 10
12.86831133953877
 20
3.231753811087759
 30
0.0
 11
13.91753754152154
 21
4.280980013070531
 31
0.0
  0
LINE
  5
1B345
330
1B338
100
AcDbEntity
  8
0
  6
CONTINUOUS
100
AcDbLine
 10
13.0678920903139
 20
2.757815352782702
 30
0.0
 11
14.11712327849465
 21
3.807046540963456
 31
0.0
  0
LINE
  5
1B346
330
1B338
100
AcDbEntity
  8
0
  6
CONTINUOUS
100
AcDbLine
 10
13.26747284108903
 20
2.283876894477644
 30
0.0
 11
14.31670901546777
 21
3.333113068856379
 31
0.0
  0
LINE
  5
1B347
330
1B338
100
AcDbEntity
  8
0
  6
CONTINUOUS
100
AcDbLine
 10
16.36767838827179
 20
8.751678487061342
 30
0.0
 11
16.50332410898388
 21
8.887324207773432
 31
0.0
  0
LINE
  5
1B348
330
1B338
100
AcDbEntity
  8
0
  6
CONTINUOUS
100
AcDbLine
 10
15.96190732182191
 20
7.67238821153127
 30
0.0
 11
16.68735328004734
 21
8.397834169756699
 31
0.0
  0
LINE
  5
1B349
330
1B338
100
AcDbEntity
  8
0
  6
CONTINUOUS
100
AcDbLine
 10
15.55613625537202
 20
6.593097936001196
 30
0.0
 11
16.87138245111079
 21
7.908344131739965
 31
0.0
  0
LINE
  5
1B34A
330
1B338
100
AcDbEntity
  8
0
  6
CONTINUOUS
100
AcDbLine
 10
15.15036518892213
 20
5.513807660471122
 30
0.0
 11
17.05541162217424
 21
7.418854093723231
 31
0.0
  0
LINE
  5
1B34B
330
1B338
100
AcDbEntity
  8
0
  6
CONTINUOUS
100
AcDbLine
 10
14.74459412247225
 20
4.434517384941048
 30
0.0
 11
17.2394407932377
 21
6.929364055706499
 31
0.0
  0
LINE
  5
1B34C
330
1B338
100
AcDbEntity
  8
0
  6
CONTINUOUS
100
AcDbLine
 10
14.33882305602236
 20
3.355227109410975
 30
0.0
 11
17.42346996430115
 21
6.439874017689766
 31
0.0
  0
LINE
  5
1B34D
330
1B338
100
AcDbEntity
  8
0
  6
CONTINUOUS
100
AcDbLine
 10
13.46705359186416
 20
1.809938436172586
 30
0.0
 11
16.0819338255367
 21
4.424818669845129
 31
0.0
  0
LINE
  5
1B34E
330
1B338
100
AcDbEntity
  8
0
  6
CONTINUOUS
100
AcDbLine
 10
16.63283254238972
 20
4.975717386698149
 30
0.0
 11
17.60749913536461
 21
5.950383979673033
 31
0.0
  0
LINE
  5
1B34F
330
1B338
100
AcDbEntity
  8
0
  6
CONTINUOUS
100
AcDbLine
 10
13.66663434263929
 20
1.335999977867529
 30
0.0
 11
15.67604797733754
 21
3.345413612565779
 31
0.0
  0
LINE
  5
1B350
330
1B338
100
AcDbEntity
  8
0
  6
CONTINUOUS
100
AcDbLine
 10
13.86621509341442
 20
0.8620615195624723
 30
0.0
 11
15.27016212913838
 21
2.26600855528643
 31
0.0
  0
LINE
  5
1B351
330
1B338
100
AcDbEntity
  8
0
  6
CONTINUOUS
100
AcDbLine
 10
16.81682257348267
 20
4.486188208710908
 30
0.0
 11
17.79152830642806
 21
5.460893941656299
 31
0.0
  0
LINE
  5
1B352
330
1B338
100
AcDbEntity
  8
0
  6
CONTINUOUS
100
AcDbLine
 10
17.00081260457561
 20
3.996659030723667
 30
0.0
 11
17.97555747749151
 21
4.971403903639565
 31
0.0
  0
LINE
  5
1B353
330
1B338
100
AcDbEntity
  8
0
  6
CONTINUOUS
100
AcDbLine
 10
20.74362343514722
 20
8.412989070375462
 30
0.0
 11
21.09373436476302
 21
8.763099999991256
 31
0.0
  0
LINE
  5
1B354
330
1B338
100
AcDbEntity
  8
0
  6
CONTINUOUS
100
AcDbLine
 10
20.25401257174777
 20
7.249858997895826
 30
0.0
 11
21.7672535738432
 21
8.763099999991255
 31
0.0
  0
LINE
  5
1B355
330
1B338
100
AcDbEntity
  8
0
  6
CONTINUOUS
100
AcDbLine
 10
14.06579584418955
 20
0.3881230612574149
 30
0.0
 11
14.86427628093921
 21
1.186603498007082
 31
0.0
  0
LINE
  5
1B356
330
1B338
100
AcDbEntity
  8
0
  6
CONTINUOUS
100
AcDbLine
 10
14.26537659496467
 20
-0.0858153970476412
 30
0.0
 11
14.45839043274005
 21
0.1071984407277329
 31
0.0
  0
LINE
  5
1B357
330
1B338
100
AcDbEntity
  8
0
  6
CONTINUOUS
100
AcDbLine
 10
17.18480263566856
 20
3.507129852736426
 30
0.0
 11
18.15958664855496
 21
4.481913865622833
 31
0.0
  0
LINE
  5
1B358
330
1B338
100
AcDbEntity
  8
0
  6
CONTINUOUS
100
AcDbLine
 10
17.3687926667615
 20
3.017600674749186
 30
0.0
 11
18.34361581961842
 21
3.9924238276061
 31
0.0
  0
LINE
  5
1B359
330
1B338
100
AcDbEntity
  8
0
  6
CONTINUOUS
100
AcDbLine
 10
19.76440170834832
 20
6.086728925416191
 30
0.0
 11
22.33924590259489
 21
8.661573119662755
 31
0.0
  0
LINE
  5
1B35A
330
1B338
100
AcDbEntity
  8
0
  6
CONTINUOUS
100
AcDbLine
 10
19.27479084494887
 20
4.923598852936555
 30
0.0
 11
21.84929622842713
 21
7.498104236414807
 31
0.0
  0
LINE
  5
1B35B
330
1B338
100
AcDbEntity
  8
0
  6
CONTINUOUS
100
AcDbLine
 10
17.55278269785445
 20
2.528071496761945
 30
0.0
 11
18.52764499068187
 21
3.502933789589366
 31
0.0
  0
LINE
  5
1B35C
330
1B338
100
AcDbEntity
  8
0
  6
CONTINUOUS
100
AcDbLine
 10
18.78517998154942
 20
3.760468780456919
 30
0.0
 11
21.35934655425936
 21
6.33463535316686
 31
0.0
  0
LINE
  5
1B35D
330
1B338
100
AcDbEntity
  8
0
  6
CONTINUOUS
100
AcDbLine
 10
17.73677272894739
 20
2.038542318774704
 30
0.0
 11
20.8693968800916
 21
5.171166469918914
 31
0.0
  0
LINE
  5
1B35E
330
1B338
100
AcDbEntity
  8
0
  6
CONTINUOUS
100
AcDbLine
 10
17.92076276004034
 20
1.549013140787464
 30
0.0
 11
20.37944720592384
 21
4.007697586670968
 31
0.0
  0
LINE
  5
1B35F
330
1B338
100
AcDbEntity
  8
0
  6
CONTINUOUS
100
AcDbLine
 10
18.10475279113329
 20
1.059483962800223
 30
0.0
 11
19.88949753175608
 21
2.84422870342302
 31
0.0
  0
LINE
  5
1B360
330
1B338
100
AcDbEntity
  8
0
  6
CONTINUOUS
100
AcDbLine
 10
18.28874282222623
 20
0.5699547848129822
 30
0.0
 11
19.39954785758832
 21
1.680759820175074
 31
0.0
  0
LINE
  5
1B361
330
1B338
100
AcDbEntity
  8
0
  6
CONTINUOUS
100
AcDbLine
 10
18.47273285331918
 20
0.0804256068257416
 30
0.0
 11
18.90959818342056
 21
0.517290936927127
 31
0.0
  0
LINE
  5
1B362
330
1B338
100
AcDbEntity
  8
0
  6
CONTINUOUS
100
AcDbLine
 10
14.3590401358224
 20
-0.1570118376323384
 30
0.0
 11
14.24903296539946
 21
-0.0470046672093929
 31
0.0
  0
LINE
  5
1B363
330
1B338
100
AcDbEntity
  8
0
  6
CONTINUOUS
100
AcDbLine
 10
14.54309291258661
 20
0.332454594683643
 30
0.0
 11
13.75908329123172
 21
1.116464216038529
 31
0.0
  0
LINE
  5
1B364
330
1B338
100
AcDbEntity
  8
0
  6
CONTINUOUS
100
AcDbLine
 10
14.72714568935081
 20
0.8219210269996244
 30
0.0
 11
13.26913361706399
 21
2.27993309928645
 31
0.0
  0
LINE
  5
1B365
330
1B338
100
AcDbEntity
  8
0
  6
CONTINUOUS
100
AcDbLine
 10
14.91119846611502
 20
1.311387459315606
 30
0.0
 11
12.77918394289625
 21
3.443401982534371
 31
0.0
  0
LINE
  5
1B366
330
1B338
100
AcDbEntity
  8
0
  6
CONTINUOUS
100
AcDbLine
 10
15.09525124287922
 20
1.800853891631587
 30
0.0
 11
12.28923426872852
 21
4.606870865782293
 31
0.0
  0
LINE
  5
1B367
330
1B338
100
AcDbEntity
  8
0
  6
CONTINUOUS
100
AcDbLine
 10
15.27930401964343
 20
2.290320323947569
 30
0.0
 11
11.79928459456078
 21
5.770339749030213
 31
0.0
  0
LINE
  5
1B368
330
1B338
100
AcDbEntity
  8
0
  6
CONTINUOUS
100
AcDbLine
 10
15.46335679640763
 20
2.77978675626355
 30
0.0
 11
14.48885470994921
 21
3.754288842721972
 31
0.0
  0
LINE
  5
1B369
330
1B338
100
AcDbEntity
  8
0
  6
CONTINUOUS
100
AcDbLine
 10
13.88507249233704
 20
4.358071060334137
 30
0.0
 11
11.30933492039305
 21
6.933808632278135
 31
0.0
  0
LINE
  5
1B36A
330
1B338
100
AcDbEntity
  8
0
  6
CONTINUOUS
100
AcDbLine
 10
18.75840522805855
 20
0.1582575336928151
 30
0.0
 11
18.25383727664818
 21
0.6628254851031863
 31
0.0
  0
LINE
  5
1B36B
330
1B338
100
AcDbEntity
  8
0
  6
CONTINUOUS
100
AcDbLine
 10
15.64740957317184
 20
3.269253188579531
 30
0.0
 11
14.67288388101266
 21
4.243778880738705
 31
0.0
  0
LINE
  5
1B36C
330
1B338
100
AcDbEntity
  8
0
  6
CONTINUOUS
100
AcDbLine
 10
13.39509276772158
 20
5.521569994029786
 30
0.0
 11
10.81938524622531
 21
8.097277515526056
 31
0.0
  0
LINE
  5
1B36D
330
1B338
100
AcDbEntity
  8
0
  6
CONTINUOUS
100
AcDbLine
 10
18.95798597883369
 20
0.6321959919978686
 30
0.0
 11
17.84825644852853
 21
1.741925522303024
 31
0.0
  0
LINE
  5
1B36E
330
1B338
100
AcDbEntity
  8
0
  6
CONTINUOUS
100
AcDbLine
 10
19.15756672960882
 20
1.106134450302922
 30
0.0
 11
17.44267562040888
 21
2.821025559502861
 31
0.0
  0
LINE
  5
1B36F
330
1B338
100
AcDbEntity
  8
0
  6
CONTINUOUS
100
AcDbLine
 10
15.83146234993604
 20
3.758719620895513
 30
0.0
 11
14.85691305207612
 21
4.733268918755439
 31
0.0
  0
LINE
  5
1B370
330
1B338
100
AcDbEntity
  8
0
  6
CONTINUOUS
100
AcDbLine
 10
16.01551512670025
 20
4.248186053211494
 30
0.0
 11
15.04094222313957
 21
5.222758956772172
 31
0.0
  0
LINE
  5
1B371
330
1B338
100
AcDbEntity
  8
0
  6
CONTINUOUS
100
AcDbLine
 10
12.90511304310612
 20
6.685068927725435
 30
0.0
 11
10.8270819708403
 21
8.763099999991255
 31
0.0
  0
LINE
  5
1B372
330
1B338
100
AcDbEntity
  8
0
  6
CONTINUOUS
100
AcDbLine
 10
12.41513331849066
 20
7.848567861421083
 30
0.0
 11
11.50060117992049
 21
8.763099999991255
 31
0.0
  0
LINE
  5
1B373
330
1B338
100
AcDbEntity
  8
0
  6
CONTINUOUS
100
AcDbLine
 10
19.35714748038395
 20
1.580072908607975
 30
0.0
 11
17.03709479228923
 21
3.900125596702697
 31
0.0
  0
LINE
  5
1B374
330
1B338
100
AcDbEntity
  8
0
  6
CONTINUOUS
100
AcDbLine
 10
19.55672823115909
 20
2.054011366913028
 30
0.0
 11
16.63151396416958
 21
4.979225633902534
 31
0.0
  0
LINE
  5
1B375
330
1B338
100
AcDbEntity
  8
0
  6
CONTINUOUS
100
AcDbLine
 10
16.19956790346445
 20
4.737652485527476
 30
0.0
 11
15.22497139420302
 21
5.712248994788904
 31
0.0
  0
LINE
  5
1B376
330
1B338
100
AcDbEntity
  8
0
  6
CONTINUOUS
100
AcDbLine
 10
16.38362068022866
 20
5.227118917843457
 30
0.0
 11
15.40900056526648
 21
6.201739032805637
 31
0.0
  0
LINE
  5
1B377
330
1B338
100
AcDbEntity
  8
0
  6
CONTINUOUS
100
AcDbLine
 10
19.75630898193422
 20
2.527949825218081
 30
0.0
 11
18.70774536448286
 21
3.576513442669441
 31
0.0
  0
LINE
  5
1B378
330
1B338
100
AcDbEntity
  8
0
  6
CONTINUOUS
100
AcDbLine
 10
19.95588973270936
 20
3.001888283523134
 30
0.0
 11
18.90726987211446
 21
4.050508144118028
 31
0.0
  0
LINE
  5
1B379
330
1B338
100
AcDbEntity
  8
0
  6
CONTINUOUS
100
AcDbLine
 10
20.15547048348449
 20
3.475826741828186
 30
0.0
 11
19.10679437974606
 21
4.524502845566614
 31
0.0
  0
LINE
  5
1B37A
330
1B338
100
AcDbEntity
  8
0
  6
CONTINUOUS
100
AcDbLine
 10
20.35505123425962
 20
3.94976520013324
 30
0.0
 11
19.30631888737766
 21
4.998497547015201
 31
0.0
  0
LINE
  5
1B37B
330
1B338
100
AcDbEntity
  8
0
  6
CONTINUOUS
100
AcDbLine
 10
20.55463198503475
 20
4.423703658438292
 30
0.0
 11
19.50584339500926
 21
5.472492248463787
 31
0.0
  0
LINE
  5
1B37C
330
1B338
100
AcDbEntity
  8
0
  6
CONTINUOUS
100
AcDbLine
 10
18.37481191085755
 20
3.909446896294752
 30
0.0
 11
15.59302973632993
 21
6.691229070822371
 31
0.0
  0
LINE
  5
1B37D
330
1B338
100
AcDbEntity
  8
0
  6
CONTINUOUS
100
AcDbLine
 10
17.96904084440766
 20
4.988737171824825
 30
0.0
 11
15.77705890739338
 21
7.180719108839104
 31
0.0
  0
LINE
  5
1B37E
330
1B338
100
AcDbEntity
  8
0
  6
CONTINUOUS
100
AcDbLine
 10
17.56326977795777
 20
6.068027447354899
 30
0.0
 11
15.96108807845684
 21
7.670209146855838
 31
0.0
  0
LINE
  5
1B37F
330
1B338
100
AcDbEntity
  8
0
  6
CONTINUOUS
100
AcDbLine
 10
17.15749871150789
 20
7.147317722884972
 30
0.0
 11
16.14511724952029
 21
8.15969918487257
 31
0.0
  0
LINE
  5
1B380
330
1B338
100
AcDbEntity
  8
0
  6
CONTINUOUS
100
AcDbLine
 10
16.751727645058
 20
8.226607998415046
 30
0.0
 11
16.32914642058374
 21
8.649189222889303
 31
0.0
  0
LINE
  5
1B381
330
1B338
100
AcDbEntity
  8
0
  6
CONTINUOUS
100
AcDbLine
 10
20.75421273580989
 20
4.897642116743345
 30
0.0
 11
19.70536790264086
 21
5.946486949912374
 31
0.0
  0
LINE
  5
1B382
330
1B338
100
AcDbEntity
  8
0
  6
CONTINUOUS
100
AcDbLine
 10
20.95379348658502
 20
5.371580575048398
 30
0.0
 11
19.90489241027246
 21
6.42048165136096
 31
0.0
  0
LINE
  5
1B383
330
1B338
100
AcDbEntity
  8
0
  6
CONTINUOUS
100
AcDbLine
 10
21.15337423736015
 20
5.845519033353452
 30
0.0
 11
20.10441691790406
 21
6.894476352809547
 31
0.0
  0
LINE
  5
1B384
330
1B338
100
AcDbEntity
  8
0
  6
CONTINUOUS
100
AcDbLine
 10
21.35295498813529
 20
6.319457491658505
 30
0.0
 11
20.30394142553566
 21
7.368471054258134
 31
0.0
  0
LINE
  5
1B385
330
1B338
100
AcDbEntity
  8
0
  6
CONTINUOUS
100
AcDbLine
 10
21.55253573891042
 20
6.793395949963558
 30
0.0
 11
20.50346593316726
 21
7.842465755706721
 31
0.0
  0
LINE
  5
1B386
330
1B338
100
AcDbEntity
  8
0
  6
CONTINUOUS
100
AcDbLine
 10
21.75211648968556
 20
7.267334408268612
 30
0.0
 11
20.70299044079886
 21
8.316460457155308
 31
0.0
  0
LINE
  5
1B387
330
1B338
100
AcDbEntity
  8
0
  6
CONTINUOUS
100
AcDbLine
 10
21.95169724046069
 20
7.741272866573663
 30
0.0
 11
20.9298701070431
 21
8.763099999991256
 31
0.0
  0
LINE
  5
1B388
330
1B338
100
AcDbEntity
  8
0
  6
CONTINUOUS
100
AcDbLine
 10
22.15127799123582
 20
8.215211324878716
 30
0.0
 11
21.60338931612328
 21
8.763099999991256
 31
0.0
  0
LINE
  5
1B389
330
1B338
100
AcDbEntity
  8
0
  6
CONTINUOUS
100
AcDbLine
 10
22.35085874201096
 20
8.689149783183769
 30
0.0
 11
22.27690852520347
 21
8.763099999991255
 31
0.0
  0
ENDBLK
  5
1B47B
330
1B338
100
AcDbEntity
  8
0
100
AcDbBlockEnd
  0
BLOCK
  5
1B47C
330
1B38A
100
AcDbEntity
  8
0
100
AcDbBlockBegin
  2
*X28
 70
     1
 10
0.0
 20
0.0
 30
0.0
  3
*X28
  1

  0
LINE
  5
1B38B
330
1B38A
100
AcDbEntity
  8
0
  6
CONTINUOUS
100
AcDbLine
 10
23.19462913593892
 20
8.169917934846424
 30
0.0
 11
23.70775465517246
 21
8.683043454079957
 31
0.0
  0
LINE
  5
1B38C
330
1B38A
100
AcDbEntity
  8
0
  6
CONTINUOUS
100
AcDbLine
 10
22.64923161835078
 20
6.951001208178088
 30
0.0
 11
23.9159364069932
 21
8.217705996820516
 31
0.0
  0
LINE
  5
1B38D
330
1B38A
100
AcDbEntity
  8
0
  6
CONTINUOUS
100
AcDbLine
 10
22.10383410076263
 20
5.732084481509751
 30
0.0
 11
24.12411815881395
 21
7.752368539561078
 31
0.0
  0
LINE
  5
1B38E
330
1B38A
100
AcDbEntity
  8
0
  6
CONTINUOUS
100
AcDbLine
 10
21.55843658317447
 20
4.513167754841414
 30
0.0
 11
24.3322999106347
 21
7.287031082301639
 31
0.0
  0
LINE
  5
1B38F
330
1B38A
100
AcDbEntity
  8
0
  6
CONTINUOUS
100
AcDbLine
 10
21.01303906558632
 20
3.294251028173077
 30
0.0
 11
24.54048166245544
 21
6.821693625042199
 31
0.0
  0
LINE
  5
1B390
330
1B38A
100
AcDbEntity
  8
0
  6
CONTINUOUS
100
AcDbLine
 10
20.46764154799817
 20
2.075334301504738
 30
0.0
 11
23.28571549467848
 21
4.89340824818505
 31
0.0
  0
LINE
  5
1B391
330
1B38A
100
AcDbEntity
  8
0
  6
CONTINUOUS
100
AcDbLine
 10
19.92224403041002
 20
0.8564175748364002
 30
0.0
 11
22.74075865492779
 21
3.674932199354171
 31
0.0
  0
LINE
  5
1B392
330
1B38A
100
AcDbEntity
  8
0
  6
CONTINUOUS
100
AcDbLine
 10
23.67305085490148
 20
5.280743608408048
 30
0.0
 11
24.74866341427619
 21
6.356356167782759
 31
0.0
  0
LINE
  5
1B393
330
1B38A
100
AcDbEntity
  8
0
  6
CONTINUOUS
100
AcDbLine
 10
23.88118970842314
 20
4.815363252849522
 30
0.0
 11
24.95684516609694
 21
5.89101871052332
 31
0.0
  0
LINE
  5
1B394
330
1B38A
100
AcDbEntity
  8
0
  6
CONTINUOUS
100
AcDbLine
 10
19.73925852647308
 20
-0.0000871381807288
 30
0.0
 11
23.4103456646501
 21
3.670999999996297
 31
0.0
  0
LINE
  5
1B395
330
1B38A
100
AcDbEntity
  8
0
  6
CONTINUOUS
100
AcDbLine
 10
24.0893285619448
 20
4.349982897290997
 30
0.0
 11
25.16502691791769
 21
5.42568125326388
 31
0.0
  0
LINE
  5
1B396
330
1B38A
100
AcDbEntity
  8
0
  6
CONTINUOUS
100
AcDbLine
 10
20.41282099582748
 20
-0.0000438779065108
 30
0.0
 11
21.64944178675636
 21
1.236576913022366
 31
0.0
  0
LINE
  5
1B397
330
1B38A
100
AcDbEntity
  8
0
  6
CONTINUOUS
100
AcDbLine
 10
22.78126487373161
 20
2.36839999999762
 30
0.0
 11
24.08386487373029
 21
3.670999999996297
 31
0.0
  0
LINE
  5
1B398
330
1B38A
100
AcDbEntity
  8
0
  6
CONTINUOUS
100
AcDbLine
 10
24.29746741546646
 20
3.884602541732471
 30
0.0
 11
25.37320866973843
 21
4.960343796004441
 31
0.0
  0
LINE
  5
1B399
330
1B38A
100
AcDbEntity
  8
0
  6
CONTINUOUS
100
AcDbLine
 10
21.08638346518189
 20
-0.0000006176322938
 30
0.0
 11
21.10379033335899
 21
0.0174062505448083
 31
0.0
  0
LINE
  5
1B39A
330
1B38A
100
AcDbEntity
  8
0
  6
CONTINUOUS
100
AcDbLine
 10
23.4547840828118
 20
2.36839999999762
 30
0.0
 11
25.58139042155918
 21
4.495006338745002
 31
0.0
  0
LINE
  5
1B39B
330
1B38A
100
AcDbEntity
  8
0
  6
CONTINUOUS
100
AcDbLine
 10
29.30199999996933
 20
8.215615917155148
 30
0.0
 11
29.84948408280543
 21
8.763099999991255
 31
0.0
  0
LINE
  5
1B39C
330
1B38A
100
AcDbEntity
  8
0
  6
CONTINUOUS
100
AcDbLine
 10
24.12830329189199
 20
2.36839999999762
 30
0.0
 11
25.78957217337993
 21
4.029668881485562
 31
0.0
  0
LINE
  5
1B39D
330
1B38A
100
AcDbEntity
  8
0
  6
CONTINUOUS
100
AcDbLine
 10
29.30199999996933
 20
7.54209670807496
 30
0.0
 11
30.52300329188562
 21
8.763099999991255
 31
0.0
  0
LINE
  5
1B39E
330
1B38A
100
AcDbEntity
  8
0
  6
CONTINUOUS
100
AcDbLine
 10
24.80182250097217
 20
2.36839999999762
 30
0.0
 11
25.99775392520067
 21
3.564331424226122
 31
0.0
  0
LINE
  5
1B39F
330
1B38A
100
AcDbEntity
  8
0
  6
CONTINUOUS
100
AcDbLine
 10
29.30199999996933
 20
6.868577498994774
 30
0.0
 11
30.74199999996926
 21
8.308577498994712
 31
0.0
  0
LINE
  5
1B3A0
330
1B38A
100
AcDbEntity
  8
0
  6
CONTINUOUS
100
AcDbLine
 10
25.13028238392013
 20
2.023340673865392
 30
0.0
 11
26.20593567702142
 21
3.098993966966683
 31
0.0
  0
LINE
  5
1B3A1
330
1B38A
100
AcDbEntity
  8
0
  6
CONTINUOUS
100
AcDbLine
 10
25.33838066033617
 20
1.557919741201244
 30
0.0
 11
26.41411742884217
 21
2.633656509707244
 31
0.0
  0
LINE
  5
1B3A2
330
1B38A
100
AcDbEntity
  8
0
  6
CONTINUOUS
100
AcDbLine
 10
25.54647893675221
 20
1.092498808537098
 30
0.0
 11
26.62229918066291
 21
2.168319052447804
 31
0.0
  0
LINE
  5
1B3A3
330
1B38A
100
AcDbEntity
  8
0
  6
CONTINUOUS
100
AcDbLine
 10
25.75457721316825
 20
0.62707787587295
 30
0.0
 11
26.83048093248366
 21
1.702981595188365
 31
0.0
  0
LINE
  5
1B3A4
330
1B38A
100
AcDbEntity
  8
0
  6
CONTINUOUS
100
AcDbLine
 10
29.30199999996933
 20
6.195058289914587
 30
0.0
 11
30.74199999996926
 21
7.635058289914522
 31
0.0
  0
LINE
  5
1B3A5
330
1B38A
100
AcDbEntity
  8
0
  6
CONTINUOUS
100
AcDbLine
 10
29.30199999996933
 20
5.521539080834401
 30
0.0
 11
30.74199999996926
 21
6.961539080834331
 31
0.0
  0
LINE
  5
1B3A6
330
1B38A
100
AcDbEntity
  8
0
  6
CONTINUOUS
100
AcDbLine
 10
29.30199999996933
 20
4.848019871754214
 30
0.0
 11
30.74199999996925
 21
6.288019871754143
 31
0.0
  0
LINE
  5
1B3A7
330
1B38A
100
AcDbEntity
  8
0
  6
CONTINUOUS
100
AcDbLine
 10
29.30199999996933
 20
4.174500662674028
 30
0.0
 11
30.74199999996925
 21
5.614500662673953
 31
0.0
  0
LINE
  5
1B3A8
330
1B38A
100
AcDbEntity
  8
0
  6
CONTINUOUS
100
AcDbLine
 10
25.96267548958429
 20
0.1616569432088024
 30
0.0
 11
27.18411854636669
 21
1.383099999991207
 31
0.0
  0
LINE
  5
1B3A9
330
1B38A
100
AcDbEntity
  8
0
  6
CONTINUOUS
100
AcDbLine
 10
29.30199999996933
 20
3.500981453593841
 30
0.0
 11
30.74199999996925
 21
4.940981453593762
 31
0.0
  0
LINE
  5
1B3AA
330
1B38A
100
AcDbEntity
  8
0
  6
CONTINUOUS
100
AcDbLine
 10
26.50763775544691
 20
0.0330999999912356
 30
0.0
 11
27.85763775544689
 21
1.383099999991223
 31
0.0
  0
LINE
  5
1B3AB
330
1B38A
100
AcDbEntity
  8
0
  6
CONTINUOUS
100
AcDbLine
 10
29.30199999996933
 20
2.827462244513656
 30
0.0
 11
30.74199999996925
 21
4.267462244513574
 31
0.0
  0
LINE
  5
1B3AC
330
1B38A
100
AcDbEntity
  8
0
  6
CONTINUOUS
100
AcDbLine
 10
27.18115696452709
 20
0.0330999999912356
 30
0.0
 11
28.55073879889363
 21
1.402681834357775
 31
0.0
  0
LINE
  5
1B3AD
330
1B38A
100
AcDbEntity
  8
0
  6
CONTINUOUS
100
AcDbLine
 10
29.28241816560272
 20
2.134361201066866
 30
0.0
 11
30.74199999996924
 21
3.593943035433383
 31
0.0
  0
LINE
  5
1B3AE
330
1B38A
100
AcDbEntity
  8
0
  6
CONTINUOUS
100
AcDbLine
 10
27.85467617360728
 20
0.0330999999912356
 30
0.0
 11
30.74199999996924
 21
2.920423826353195
 31
0.0
  0
LINE
  5
1B3AF
330
1B38A
100
AcDbEntity
  8
0
  6
CONTINUOUS
100
AcDbLine
 10
28.53897559587887
 20
0.0438802131826428
 30
0.0
 11
30.73121978677781
 21
2.236124404081585
 31
0.0
  0
LINE
  5
1B3B0
330
1B38A
100
AcDbEntity
  8
0
  6
CONTINUOUS
100
AcDbLine
 10
29.45140055588722
 20
0.2827859641107988
 30
0.0
 11
30.49231403584965
 21
1.323699444073236
 31
0.0
  0
LINE
  5
1B3B1
330
1B38A
100
AcDbEntity
  8
0
  6
CONTINUOUS
100
AcDbLine
 10
19.59027867740337
 20
-0.0000967065718083
 30
0.0
 11
19.55485265190471
 21
0.035329318926844
 31
0.0
  0
LINE
  5
1B3B2
330
1B38A
100
AcDbEntity
  8
0
  6
CONTINUOUS
100
AcDbLine
 10
20.26375463176586
 20
-0.0000534518541091
 30
0.0
 11
19.76305575737534
 21
0.5006454225364014
 31
0.0
  0
LINE
  5
1B3B3
330
1B38A
100
AcDbEntity
  8
0
  6
CONTINUOUS
100
AcDbLine
 10
20.93723058612834
 20
-0.0000101971364099
 30
0.0
 11
19.97125886284597
 21
0.965961526145958
 31
0.0
  0
LINE
  5
1B3B4
330
1B38A
100
AcDbEntity
  8
0
  6
CONTINUOUS
100
AcDbLine
 10
21.25514828313686
 20
0.355591314935257
 30
0.0
 11
20.1794619683166
 21
1.431277629755512
 31
0.0
  0
LINE
  5
1B3B5
330
1B38A
100
AcDbEntity
  8
0
  6
CONTINUOUS
100
AcDbLine
 10
21.46338838394921
 20
0.8208704232030986
 30
0.0
 11
20.38766507378723
 21
1.896593733365069
 31
0.0
  0
LINE
  5
1B3B6
330
1B38A
100
AcDbEntity
  8
0
  6
CONTINUOUS
100
AcDbLine
 10
21.67162848476155
 20
1.28614953147094
 30
0.0
 11
20.59586817925786
 21
2.361909836974626
 31
0.0
  0
LINE
  5
1B3B7
330
1B38A
100
AcDbEntity
  8
0
  6
CONTINUOUS
100
AcDbLine
 10
21.8798685855739
 20
1.751428639738782
 30
0.0
 11
20.80407128472849
 21
2.827225940584183
 31
0.0
  0
LINE
  5
1B3B8
330
1B38A
100
AcDbEntity
  8
0
  6
CONTINUOUS
100
AcDbLine
 10
22.08810868638624
 20
2.216707748006623
 30
0.0
 11
21.01227439019912
 21
3.292542044193739
 31
0.0
  0
LINE
  5
1B3B9
330
1B38A
100
AcDbEntity
  8
0
  6
CONTINUOUS
100
AcDbLine
 10
22.60993564347543
 20
2.36839999999762
 30
0.0
 11
21.22047749566975
 21
3.757858147803296
 31
0.0
  0
LINE
  5
1B3BA
330
1B38A
100
AcDbEntity
  8
0
  6
CONTINUOUS
100
AcDbLine
 10
23.28345485255561
 20
2.36839999999762
 30
0.0
 11
21.42868060114038
 21
4.223174251412853
 31
0.0
  0
LINE
  5
1B3BB
330
1B38A
100
AcDbEntity
  8
0
  6
CONTINUOUS
100
AcDbLine
 10
26.29227406164219
 20
0.0330999999912356
 30
0.0
 11
25.80009199592872
 21
0.5252820657046957
 31
0.0
  0
LINE
  5
1B3BC
330
1B38A
100
AcDbEntity
  8
0
  6
CONTINUOUS
100
AcDbLine
 10
23.9569740616358
 20
2.36839999999762
 30
0.0
 11
21.63688370661101
 21
4.688490355022409
 31
0.0
  0
LINE
  5
1B3BD
330
1B38A
100
AcDbEntity
  8
0
  6
CONTINUOUS
100
AcDbLine
 10
26.96579327072237
 20
0.0330999999912356
 30
0.0
 11
25.2554132311971
 21
1.743480039516508
 31
0.0
  0
LINE
  5
1B3BE
330
1B38A
100
AcDbEntity
  8
0
  6
CONTINUOUS
100
AcDbLine
 10
24.63049327071599
 20
2.36839999999762
 30
0.0
 11
23.32789327071731
 21
3.670999999996297
 31
0.0
  0
LINE
  5
1B3BF
330
1B38A
100
AcDbEntity
  8
0
  6
CONTINUOUS
100
AcDbLine
 10
22.92098674744635
 20
4.077906523267254
 30
0.0
 11
21.84508681208164
 21
5.153806458631966
 31
0.0
  0
LINE
  5
1B3C0
330
1B38A
100
AcDbEntity
  8
0
  6
CONTINUOUS
100
AcDbLine
 10
27.63931247980256
 20
0.0330999999912356
 30
0.0
 11
24.0014124797975
 21
3.670999999996297
 31
0.0
  0
LINE
  5
1B3C1
330
1B38A
100
AcDbEntity
  8
0
  6
CONTINUOUS
100
AcDbLine
 10
23.129125600968
 20
4.5432868788258
 30
0.0
 11
22.05328991755227
 21
5.619122562241522
 31
0.0
  0
LINE
  5
1B3C2
330
1B38A
100
AcDbEntity
  8
0
  6
CONTINUOUS
100
AcDbLine
 10
28.31283168888275
 20
0.0330999999912356
 30
0.0
 11
24.16488385994816
 21
4.181047828925828
 31
0.0
  0
LINE
  5
1B3C3
330
1B38A
100
AcDbEntity
  8
0
  6
CONTINUOUS
100
AcDbLine
 10
23.33726445448964
 20
5.008667234384345
 30
0.0
 11
22.2614930230229
 21
6.084438665851079
 31
0.0
  0
LINE
  5
1B3C4
330
1B38A
100
AcDbEntity
  8
0
  6
CONTINUOUS
100
AcDbLine
 10
28.92085740005492
 20
0.0985934978992438
 30
0.0
 11
27.63635089796295
 21
1.383099999991217
 31
0.0
  0
LINE
  5
1B3C5
330
1B38A
100
AcDbEntity
  8
0
  6
CONTINUOUS
100
AcDbLine
 10
26.43704649509776
 20
2.582404402856405
 30
0.0
 11
23.61992702019732
 21
5.399523877756844
 31
0.0
  0
LINE
  5
1B3C6
330
1B38A
100
AcDbEntity
  8
0
  6
CONTINUOUS
100
AcDbLine
 10
23.54540330801128
 20
5.47404758994289
 30
0.0
 11
22.46969612849353
 21
6.549754769460635
 31
0.0
  0
LINE
  5
1B3C7
330
1B38A
100
AcDbEntity
  8
0
  6
CONTINUOUS
100
AcDbLine
 10
29.42225615078443
 20
0.2707139562499279
 30
0.0
 11
28.30987010704312
 21
1.383099999991234
 31
0.0
  0
LINE
  5
1B3C8
330
1B38A
100
AcDbEntity
  8
0
  6
CONTINUOUS
100
AcDbLine
 10
25.89179548232307
 20
3.801174624711282
 30
0.0
 11
22.67789923396416
 21
7.015070873070191
 31
0.0
  0
LINE
  5
1B3C9
330
1B38A
100
AcDbEntity
  8
0
  6
CONTINUOUS
100
AcDbLine
 10
29.83624534690007
 20
0.5302439692144705
 30
0.0
 11
28.85811781497101
 21
1.508371501143527
 31
0.0
  0
LINE
  5
1B3CA
330
1B38A
100
AcDbEntity
  8
0
  6
CONTINUOUS
100
AcDbLine
 10
25.34654446954838
 20
5.01994484656616
 30
0.0
 11
22.88610233943479
 21
7.480386976679748
 31
0.0
  0
LINE
  5
1B3CB
330
1B38A
100
AcDbEntity
  8
0
  6
CONTINUOUS
100
AcDbLine
 10
30.17865975401872
 20
0.8613487711760022
 30
0.0
 11
29.18888744090175
 21
1.851121084292977
 31
0.0
  0
LINE
  5
1B3CC
330
1B38A
100
AcDbEntity
  8
0
  6
CONTINUOUS
100
AcDbLine
 10
24.80129345677369
 20
6.238715068421037
 30
0.0
 11
23.09430544490542
 21
7.945703080289305
 31
0.0
  0
LINE
  5
1B3CD
330
1B38A
100
AcDbEntity
  8
0
  6
CONTINUOUS
100
AcDbLine
 10
30.45496647202376
 20
1.258561262251155
 30
0.0
 11
29.30199999996933
 21
2.411527734305588
 31
0.0
  0
LINE
  5
1B3CE
330
1B38A
100
AcDbEntity
  8
0
  6
CONTINUOUS
100
AcDbLine
 10
24.256042443999
 20
7.457485290275915
 30
0.0
 11
23.30250855037605
 21
8.411019183898862
 31
0.0
  0
LINE
  5
1B3CF
330
1B38A
100
AcDbEntity
  8
0
  6
CONTINUOUS
100
AcDbLine
 10
30.64868582078271
 20
1.738361122572387
 30
0.0
 11
29.30199999996933
 21
3.085046943385775
 31
0.0
  0
LINE
  5
1B3D0
330
1B38A
100
AcDbEntity
  8
0
  6
CONTINUOUS
100
AcDbLine
 10
23.71079143122431
 20
8.676255512130794
 30
0.0
 11
23.51071165584668
 21
8.876335287508416
 31
0.0
  0
LINE
  5
1B3D1
330
1B38A
100
AcDbEntity
  8
0
  6
CONTINUOUS
100
AcDbLine
 10
30.73802122914428
 20
2.322544923291007
 30
0.0
 11
29.30199999996933
 21
3.758566152465961
 31
0.0
  0
LINE
  5
1B3D2
330
1B38A
100
AcDbEntity
  8
0
  6
CONTINUOUS
100
AcDbLine
 10
30.74199999996924
 20
2.992085361546236
 30
0.0
 11
29.30199999996933
 21
4.432085361546148
 31
0.0
  0
LINE
  5
1B3D3
330
1B38A
100
AcDbEntity
  8
0
  6
CONTINUOUS
100
AcDbLine
 10
30.74199999996924
 20
3.665604570626419
 30
0.0
 11
29.30199999996933
 21
5.105604570626333
 31
0.0
  0
LINE
  5
1B3D4
330
1B38A
100
AcDbEntity
  8
0
  6
CONTINUOUS
100
AcDbLine
 10
30.74199999996925
 20
4.339123779706602
 30
0.0
 11
29.30199999996933
 21
5.77912377970652
 31
0.0
  0
LINE
  5
1B3D5
330
1B38A
100
AcDbEntity
  8
0
  6
CONTINUOUS
100
AcDbLine
 10
30.74199999996925
 20
5.012642988786785
 30
0.0
 11
29.30199999996933
 21
6.452642988786707
 31
0.0
  0
LINE
  5
1B3D6
330
1B38A
100
AcDbEntity
  8
0
  6
CONTINUOUS
100
AcDbLine
 10
30.74199999996925
 20
5.68616219786697
 30
0.0
 11
29.30199999996933
 21
7.126162197866894
 31
0.0
  0
LINE
  5
1B3D7
330
1B38A
100
AcDbEntity
  8
0
  6
CONTINUOUS
100
AcDbLine
 10
30.74199999996925
 20
6.359681406947153
 30
0.0
 11
29.30199999996933
 21
7.799681406947081
 31
0.0
  0
LINE
  5
1B3D8
330
1B38A
100
AcDbEntity
  8
0
  6
CONTINUOUS
100
AcDbLine
 10
30.74199999996926
 20
7.033200616027337
 30
0.0
 11
29.30199999996933
 21
8.473200616027269
 31
0.0
  0
LINE
  5
1B3D9
330
1B38A
100
AcDbEntity
  8
0
  6
CONTINUOUS
100
AcDbLine
 10
30.74199999996926
 20
7.706719825107518
 30
0.0
 11
29.68561982508552
 21
8.763099999991255
 31
0.0
  0
LINE
  5
1B3DA
330
1B38A
100
AcDbEntity
  8
0
  6
CONTINUOUS
100
AcDbLine
 10
30.74199999996926
 20
8.380239034187703
 30
0.0
 11
30.35913903416571
 21
8.763099999991255
 31
0.0
  0
ENDBLK
  5
1B47D
330
1B38A
100
AcDbEntity
  8
0
100
AcDbBlockEnd
  0
BLOCK
  5
1B47E
330
1B3DB
100
AcDbEntity
  8
0
100
AcDbBlockBegin
  2
*X29
 70
     1
 10
0.0
 20
0.0
 30
0.0
  3
*X29
  1

  0
LINE
  5
1B3DC
330
1B3DB
100
AcDbEntity
  8
0
  6
CONTINUOUS
100
AcDbLine
 10
31.64199999996833
 20
8.535058289913598
 30
0.0
 11
31.87004171004599
 21
8.763099999991255
 31
0.0
  0
LINE
  5
1B3DD
330
1B3DB
100
AcDbEntity
  8
0
  6
CONTINUOUS
100
AcDbLine
 10
31.64199999996833
 20
7.861539080833412
 30
0.0
 11
32.54356091912618
 21
8.763099999991255
 31
0.0
  0
LINE
  5
1B3DE
330
1B3DB
100
AcDbEntity
  8
0
  6
CONTINUOUS
100
AcDbLine
 10
31.64199999996833
 20
7.188019871753226
 30
0.0
 11
33.08199999996839
 21
8.628019871753281
 31
0.0
  0
LINE
  5
1B3DF
330
1B3DB
100
AcDbEntity
  8
0
  6
CONTINUOUS
100
AcDbLine
 10
31.64199999996833
 20
6.51450066267304
 30
0.0
 11
33.08199999996839
 21
7.954500662673095
 31
0.0
  0
LINE
  5
1B3E0
330
1B3DB
100
AcDbEntity
  8
0
  6
CONTINUOUS
100
AcDbLine
 10
31.64199999996833
 20
5.840981453592853
 30
0.0
 11
33.08199999996839
 21
7.280981453592908
 31
0.0
  0
LINE
  5
1B3E1
330
1B3DB
100
AcDbEntity
  8
0
  6
CONTINUOUS
100
AcDbLine
 10
31.64199999996833
 20
5.167462244512667
 30
0.0
 11
33.08199999996839
 21
6.607462244512721
 31
0.0
  0
LINE
  5
1B3E2
330
1B3DB
100
AcDbEntity
  8
0
  6
CONTINUOUS
100
AcDbLine
 10
31.64199999996833
 20
4.493943035432481
 30
0.0
 11
33.08199999996839
 21
5.933943035432535
 31
0.0
  0
LINE
  5
1B3E3
330
1B3DB
100
AcDbEntity
  8
0
  6
CONTINUOUS
100
AcDbLine
 10
31.64199999996833
 20
3.820423826352293
 30
0.0
 11
33.08199999996839
 21
5.260423826352348
 31
0.0
  0
LINE
  5
1B3E4
330
1B3DB
100
AcDbEntity
  8
0
  6
CONTINUOUS
100
AcDbLine
 10
31.64199999996833
 20
3.146904617272106
 30
0.0
 11
33.08199999996839
 21
4.586904617272161
 31
0.0
  0
LINE
  5
1B3E5
330
1B3DB
100
AcDbEntity
  8
0
  6
CONTINUOUS
100
AcDbLine
 10
36.23199999996837
 20
8.410423826352325
 30
0.0
 11
36.5846761736073
 21
8.763099999991255
 31
0.0
  0
LINE
  5
1B3E6
330
1B3DB
100
AcDbEntity
  8
0
  6
CONTINUOUS
100
AcDbLine
 10
36.23199999996837
 20
7.73690461727214
 30
0.0
 11
37.25819538268748
 21
8.763099999991255
 31
0.0
  0
LINE
  5
1B3E7
330
1B3DB
100
AcDbEntity
  8
0
  6
CONTINUOUS
100
AcDbLine
 10
31.64257403601376
 20
2.473959444237348
 30
0.0
 11
33.08199999996839
 21
3.913385408191974
 31
0.0
  0
LINE
  5
1B3E8
330
1B3DB
100
AcDbEntity
  8
0
  6
CONTINUOUS
100
AcDbLine
 10
36.23199999996837
 20
7.063385408191953
 30
0.0
 11
37.67199999996831
 21
8.503385408191894
 31
0.0
  0
LINE
  5
1B3E9
330
1B3DB
100
AcDbEntity
  8
0
  6
CONTINUOUS
100
AcDbLine
 10
31.72013636841932
 20
1.87800256756272
 30
0.0
 11
33.08199999996839
 21
3.239866199111788
 31
0.0
  0
LINE
  5
1B3EA
330
1B3DB
100
AcDbEntity
  8
0
  6
CONTINUOUS
100
AcDbLine
 10
36.23199999996837
 20
6.389866199111767
 30
0.0
 11
37.67199999996831
 21
7.829866199111708
 31
0.0
  0
LINE
  5
1B3EB
330
1B3DB
100
AcDbEntity
  8
0
  6
CONTINUOUS
100
AcDbLine
 10
31.89042734314753
 20
1.374774333210744
 30
0.0
 11
33.08199999996839
 21
2.566346990031601
 31
0.0
  0
LINE
  5
1B3EC
330
1B3DB
100
AcDbEntity
  8
0
  6
CONTINUOUS
100
AcDbLine
 10
36.23199999996837
 20
5.71634699003158
 30
0.0
 11
37.67199999996831
 21
7.156346990031521
 31
0.0
  0
LINE
  5
1B3ED
330
1B3DB
100
AcDbEntity
  8
0
  6
CONTINUOUS
100
AcDbLine
 10
32.14210568064475
 20
0.952933461627778
 30
0.0
 11
33.18745552475986
 21
1.998283305742888
 31
0.0
  0
LINE
  5
1B3EE
330
1B3DB
100
AcDbEntity
  8
0
  6
CONTINUOUS
100
AcDbLine
 10
36.23199999996837
 20
5.042827780951393
 30
0.0
 11
37.67199999996831
 21
6.482827780951334
 31
0.0
  0
LINE
  5
1B3EF
330
1B3DB
100
AcDbEntity
  8
0
  6
CONTINUOUS
100
AcDbLine
 10
32.45820639400955
 20
0.5955149659123915
 30
0.0
 11
33.47242681921943
 21
1.60973539112227
 31
0.0
  0
LINE
  5
1B3F0
330
1B3DB
100
AcDbEntity
  8
0
  6
CONTINUOUS
100
AcDbLine
 10
36.23199999996837
 20
4.369308571871207
 30
0.0
 11
37.67199999996831
 21
5.809308571871147
 31
0.0
  0
LINE
  5
1B3F1
330
1B3DB
100
AcDbEntity
  8
0
  6
CONTINUOUS
100
AcDbLine
 10
32.83432456621412
 20
0.2981139290367771
 30
0.0
 11
33.89722476612215
 21
1.361014128944803
 31
0.0
  0
LINE
  5
1B3F2
330
1B3DB
100
AcDbEntity
  8
0
  6
CONTINUOUS
100
AcDbLine
 10
36.23199999996837
 20
3.69578936279102
 30
0.0
 11
37.67199999996831
 21
5.135789362790962
 31
0.0
  0
LINE
  5
1B3F3
330
1B3DB
100
AcDbEntity
  8
0
  6
CONTINUOUS
100
AcDbLine
 10
33.2711633111245
 20
0.0614334648669672
 30
0.0
 11
34.43247338014423
 21
1.222743533886696
 31
0.0
  0
LINE
  5
1B3F4
330
1B3DB
100
AcDbEntity
  8
0
  6
CONTINUOUS
100
AcDbLine
 10
36.23199999996837
 20
3.022270153710834
 30
0.0
 11
37.67199999996831
 21
4.462270153710775
 31
0.0
  0
LINE
  5
1B3F5
330
1B3DB
100
AcDbEntity
  8
0
  6
CONTINUOUS
100
AcDbLine
 10
33.76515245874577
 20
-0.1180965965919523
 30
0.0
 11
35.1587445516215
 21
1.27549549628378
 31
0.0
  0
LINE
  5
1B3F6
330
1B3DB
100
AcDbEntity
  8
0
  6
CONTINUOUS
100
AcDbLine
 10
36.21639478609585
 20
2.333145730758136
 30
0.0
 11
37.67199999996831
 21
3.788750944630588
 31
0.0
  0
LINE
  5
1B3F7
330
1B3DB
100
AcDbEntity
  8
0
  6
CONTINUOUS
100
AcDbLine
 10
34.34060583368432
 20
-0.2161624307335863
 30
0.0
 11
37.67199999996831
 21
3.115231735550401
 31
0.0
  0
LINE
  5
1B3F8
330
1B3DB
100
AcDbEntity
  8
0
  6
CONTINUOUS
100
AcDbLine
 10
35.01698193613905
 20
-0.2133055373590427
 30
0.0
 11
37.66876712070525
 21
2.438479647207154
 31
0.0
  0
LINE
  5
1B3F9
330
1B3DB
100
AcDbEntity
  8
0
  6
CONTINUOUS
100
AcDbLine
 10
35.90743367693304
 20
0.0036269943547609
 30
0.0
 11
37.51723902192366
 21
1.613432339345381
 31
0.0
  0
LINE
  5
1B3FA
330
1B3DB
100
AcDbEntity
  8
0
  6
CONTINUOUS
100
AcDbLine
 10
32.55309425579761
 20
0.5074718966376706
 30
0.0
 11
32.27784730925847
 21
0.7827188431768102
 31
0.0
  0
LINE
  5
1B3FB
330
1B3DB
100
AcDbEntity
  8
0
  6
CONTINUOUS
100
AcDbLine
 10
33.87496468909684
 20
-0.1408793275813673
 30
0.0
 11
31.67993083278052
 21
2.054154528734943
 31
0.0
  0
LINE
  5
1B3FC
330
1B3DB
100
AcDbEntity
  8
0
  6
CONTINUOUS
100
AcDbLine
 10
34.64362813207632
 20
-0.2360235614806649
 30
0.0
 11
31.64199999996833
 21
2.765604570627322
 31
0.0
  0
LINE
  5
1B3FD
330
1B3DB
100
AcDbEntity
  8
0
  6
CONTINUOUS
100
AcDbLine
 10
35.25801106796118
 20
-0.1768872882853429
 30
0.0
 11
31.64199999996833
 21
3.439123779707508
 31
0.0
  0
LINE
  5
1B3FE
330
1B3DB
100
AcDbEntity
  8
0
  6
CONTINUOUS
100
AcDbLine
 10
35.79065650332146
 20
-0.0360135145654361
 30
0.0
 11
34.54143210838231
 21
1.213210880373721
 31
0.0
  0
LINE
  5
1B3FF
330
1B3DB
100
AcDbEntity
  8
0
  6
CONTINUOUS
100
AcDbLine
 10
33.08199999996839
 20
2.67264298878764
 30
0.0
 11
31.64199999996833
 21
4.112642988787695
 31
0.0
  0
LINE
  5
1B400
330
1B3DB
100
AcDbEntity
  8
0
  6
CONTINUOUS
100
AcDbLine
 10
36.25975597779143
 20
0.1684062200447833
 30
0.0
 11
35.15395110240023
 21
1.274211095435983
 31
0.0
  0
LINE
  5
1B401
330
1B3DB
100
AcDbEntity
  8
0
  6
CONTINUOUS
100
AcDbLine
 10
33.08199999996839
 20
3.346162197867826
 30
0.0
 11
31.64199999996833
 21
4.786162197867881
 31
0.0
  0
LINE
  5
1B402
330
1B3DB
100
AcDbEntity
  8
0
  6
CONTINUOUS
100
AcDbLine
 10
36.67226329638774
 20
0.4294181105286579
 30
0.0
 11
35.63766478748767
 21
1.464016619428737
 31
0.0
  0
LINE
  5
1B403
330
1B3DB
100
AcDbEntity
  8
0
  6
CONTINUOUS
100
AcDbLine
 10
33.08199999996839
 20
4.019681406948012
 30
0.0
 11
31.64199999996833
 21
5.459681406948068
 31
0.0
  0
LINE
  5
1B404
330
1B3DB
100
AcDbEntity
  8
0
  6
CONTINUOUS
100
AcDbLine
 10
37.01677749710036
 20
0.7584231188962329
 30
0.0
 11
35.99563422741351
 21
1.779566388583076
 31
0.0
  0
LINE
  5
1B405
330
1B3DB
100
AcDbEntity
  8
0
  6
CONTINUOUS
100
AcDbLine
 10
33.08199999996839
 20
4.693200616028199
 30
0.0
 11
31.64199999996833
 21
6.133200616028255
 31
0.0
  0
LINE
  5
1B406
330
1B3DB
100
AcDbEntity
  8
0
  6
CONTINUOUS
100
AcDbLine
 10
37.29859977568887
 20
1.1501200493879
 30
0.0
 11
36.20680593341555
 21
2.241913891661226
 31
0.0
  0
LINE
  5
1B407
330
1B3DB
100
AcDbEntity
  8
0
  6
CONTINUOUS
100
AcDbLine
 10
33.08199999996839
 20
5.366719825108386
 30
0.0
 11
31.64199999996833
 21
6.80671982510844
 31
0.0
  0
LINE
  5
1B408
330
1B3DB
100
AcDbEntity
  8
0
  6
CONTINUOUS
100
AcDbLine
 10
37.5148623517228
 20
1.607376682434161
 30
0.0
 11
36.23199999996837
 21
2.890239034188594
 31
0.0
  0
LINE
  5
1B409
330
1B3DB
100
AcDbEntity
  8
0
  6
CONTINUOUS
100
AcDbLine
 10
33.08199999996839
 20
6.040239034188573
 30
0.0
 11
31.64199999996833
 21
7.480239034188627
 31
0.0
  0
LINE
  5
1B40A
330
1B3DB
100
AcDbEntity
  8
0
  6
CONTINUOUS
100
AcDbLine
 10
37.64705163358367
 20
2.148706609653477
 30
0.0
 11
36.23199999996837
 21
3.56375824326878
 31
0.0
  0
LINE
  5
1B40B
330
1B3DB
100
AcDbEntity
  8
0
  6
CONTINUOUS
100
AcDbLine
 10
33.08199999996839
 20
6.713758243268758
 30
0.0
 11
31.64199999996833
 21
8.153758243268815
 31
0.0
  0
LINE
  5
1B40C
330
1B3DB
100
AcDbEntity
  8
0
  6
CONTINUOUS
100
AcDbLine
 10
37.67199999996831
 20
2.797277452349026
 30
0.0
 11
36.23199999996837
 21
4.237277452348967
 31
0.0
  0
LINE
  5
1B40D
330
1B3DB
100
AcDbEntity
  8
0
  6
CONTINUOUS
100
AcDbLine
 10
37.67199999996831
 20
3.470796661429213
 30
0.0
 11
36.23199999996837
 21
4.910796661429154
 31
0.0
  0
LINE
  5
1B40E
330
1B3DB
100
AcDbEntity
  8
0
  6
CONTINUOUS
100
AcDbLine
 10
37.67199999996831
 20
4.144315870509399
 30
0.0
 11
36.23199999996837
 21
5.58431587050934
 31
0.0
  0
LINE
  5
1B40F
330
1B3DB
100
AcDbEntity
  8
0
  6
CONTINUOUS
100
AcDbLine
 10
33.08199999996839
 20
7.387277452348945
 30
0.0
 11
31.70617745232608
 21
8.763099999991255
 31
0.0
  0
LINE
  5
1B410
330
1B3DB
100
AcDbEntity
  8
0
  6
CONTINUOUS
100
AcDbLine
 10
33.08199999996839
 20
8.060796661429132
 30
0.0
 11
32.37969666140626
 21
8.763099999991255
 31
0.0
  0
LINE
  5
1B411
330
1B3DB
100
AcDbEntity
  8
0
  6
CONTINUOUS
100
AcDbLine
 10
33.08199999996839
 20
8.734315870509318
 30
0.0
 11
33.05321587048645
 21
8.763099999991255
 31
0.0
  0
LINE
  5
1B412
330
1B3DB
100
AcDbEntity
  8
0
  6
CONTINUOUS
100
AcDbLine
 10
37.67199999996831
 20
4.817835079589585
 30
0.0
 11
36.23199999996837
 21
6.257835079589526
 31
0.0
  0
LINE
  5
1B413
330
1B3DB
100
AcDbEntity
  8
0
  6
CONTINUOUS
100
AcDbLine
 10
37.67199999996831
 20
5.491354288669771
 30
0.0
 11
36.23199999996837
 21
6.931354288669713
 31
0.0
  0
LINE
  5
1B414
330
1B3DB
100
AcDbEntity
  8
0
  6
CONTINUOUS
100
AcDbLine
 10
37.67199999996831
 20
6.164873497749958
 30
0.0
 11
36.23199999996837
 21
7.6048734977499
 31
0.0
  0
LINE
  5
1B415
330
1B3DB
100
AcDbEntity
  8
0
  6
CONTINUOUS
100
AcDbLine
 10
37.67199999996831
 20
6.838392706830144
 30
0.0
 11
36.23199999996837
 21
8.278392706830086
 31
0.0
  0
LINE
  5
1B416
330
1B3DB
100
AcDbEntity
  8
0
  6
CONTINUOUS
100
AcDbLine
 10
37.67199999996831
 20
7.511911915910332
 30
0.0
 11
36.42081191588738
 21
8.763099999991255
 31
0.0
  0
LINE
  5
1B417
330
1B3DB
100
AcDbEntity
  8
0
  6
CONTINUOUS
100
AcDbLine
 10
37.67199999996831
 20
8.185431124990519
 30
0.0
 11
37.09433112496757
 21
8.763099999991255
 31
0.0
  0
ENDBLK
  5
1B47F
330
1B3DB
100
AcDbEntity
  8
0
100
AcDbBlockEnd
  0
BLOCK
  5
1B480
330
1B418
100
AcDbEntity
  8
0
100
AcDbBlockBegin
  2
*X30
 70
     1
 10
0.0
 20
0.0
 30
0.0
  3
*X30
  1

  0
LINE
  5
1B419
330
1B418
100
AcDbEntity
  8
0
  6
CONTINUOUS
100
AcDbLine
 10
38.60499999996136
 20
8.762866199104765
 30
0.0
 11
38.71672554182345
 21
8.874591740966855
 31
0.0
  0
LINE
  5
1B41A
330
1B418
100
AcDbEntity
  8
0
  6
CONTINUOUS
100
AcDbLine
 10
38.60499999996136
 20
8.089346990024577
 30
0.0
 11
39.03418785440363
 21
8.518534844466847
 31
0.0
  0
LINE
  5
1B41B
330
1B418
100
AcDbEntity
  8
0
  6
CONTINUOUS
100
AcDbLine
 10
38.60499999996136
 20
7.41582778094439
 30
0.0
 11
39.35165016698382
 21
8.16247794796684
 31
0.0
  0
LINE
  5
1B41C
330
1B418
100
AcDbEntity
  8
0
  6
CONTINUOUS
100
AcDbLine
 10
38.60499999996136
 20
6.742308571864204
 30
0.0
 11
39.66911247956399
 21
7.806421051466834
 31
0.0
  0
LINE
  5
1B41D
330
1B418
100
AcDbEntity
  8
0
  6
CONTINUOUS
100
AcDbLine
 10
38.60499999996136
 20
6.068789362784018
 30
0.0
 11
39.98657479214418
 21
7.450364154966827
 31
0.0
  0
LINE
  5
1B41E
330
1B418
100
AcDbEntity
  8
0
  6
CONTINUOUS
100
AcDbLine
 10
38.60499999996136
 20
5.395270153703832
 30
0.0
 11
40.30403710472435
 21
7.09430725846682
 31
0.0
  0
LINE
  5
1B41F
330
1B418
100
AcDbEntity
  8
0
  6
CONTINUOUS
100
AcDbLine
 10
38.60499999996136
 20
4.721750944623645
 30
0.0
 11
40.62149941730453
 21
6.738250361966813
 31
0.0
  0
LINE
  5
1B420
330
1B418
100
AcDbEntity
  8
0
  6
CONTINUOUS
100
AcDbLine
 10
38.60499999996136
 20
4.048231735543458
 30
0.0
 11
40.93896172988471
 21
6.382193465466806
 31
0.0
  0
LINE
  5
1B421
330
1B418
100
AcDbEntity
  8
0
  6
CONTINUOUS
100
AcDbLine
 10
38.60499999996136
 20
3.374712526463272
 30
0.0
 11
40.02599999995994
 21
4.795712526461843
 31
0.0
  0
LINE
  5
1B422
330
1B418
100
AcDbEntity
  8
0
  6
CONTINUOUS
100
AcDbLine
 10
38.60499999996136
 20
2.701193317383085
 30
0.0
 11
40.02599999995994
 21
4.122193317381657
 31
0.0
  0
LINE
  5
1B423
330
1B418
100
AcDbEntity
  8
0
  6
CONTINUOUS
100
AcDbLine
 10
40.28339754687704
 20
5.053110073378947
 30
0.0
 11
41.25642404246489
 21
6.026136568966799
 31
0.0
  0
LINE
  5
1B424
330
1B418
100
AcDbEntity
  8
0
  6
CONTINUOUS
100
AcDbLine
 10
40.60085985945722
 20
4.697053176878939
 30
0.0
 11
41.57388635504507
 21
5.670079672466793
 31
0.0
  0
LINE
  5
1B425
330
1B418
100
AcDbEntity
  8
0
  6
CONTINUOUS
100
AcDbLine
 10
43.57899999995641
 20
8.348712526458318
 30
0.0
 11
43.99338747348935
 21
8.763099999991255
 31
0.0
  0
LINE
  5
1B426
330
1B418
100
AcDbEntity
  8
0
  6
CONTINUOUS
100
AcDbLine
 10
43.57899999995641
 20
7.675193317378131
 30
0.0
 11
44.66690668256953
 21
8.763099999991255
 31
0.0
  0
LINE
  5
1B427
330
1B418
100
AcDbEntity
  8
0
  6
CONTINUOUS
100
AcDbLine
 10
38.60499999996136
 20
2.027674108302898
 30
0.0
 11
40.02599999995994
 21
3.44867410830147
 31
0.0
  0
LINE
  5
1B428
330
1B418
100
AcDbEntity
  8
0
  6
CONTINUOUS
100
AcDbLine
 10
38.60499999996136
 20
1.354154899222712
 30
0.0
 11
40.02599999995994
 21
2.775154899221284
 31
0.0
  0
LINE
  5
1B429
330
1B418
100
AcDbEntity
  8
0
  6
CONTINUOUS
100
AcDbLine
 10
38.60499999996136
 20
0.6806356901425255
 30
0.0
 11
40.02599999995994
 21
2.101635690141098
 31
0.0
  0
LINE
  5
1B42A
330
1B418
100
AcDbEntity
  8
0
  6
CONTINUOUS
100
AcDbLine
 10
38.60499999996136
 20
0.0071164810623383
 30
0.0
 11
40.02599999995994
 21
1.428116481060911
 31
0.0
  0
LINE
  5
1B42B
330
1B418
100
AcDbEntity
  8
0
  6
CONTINUOUS
100
AcDbLine
 10
40.9183221720374
 20
4.340996280378933
 30
0.0
 11
41.89134866762525
 21
5.314022775966786
 31
0.0
  0
LINE
  5
1B42C
330
1B418
100
AcDbEntity
  8
0
  6
CONTINUOUS
100
AcDbLine
 10
41.23578448461758
 20
3.984939383878926
 30
0.0
 11
42.20881098020543
 21
4.957965879466778
 31
0.0
  0
LINE
  5
1B42D
330
1B418
100
AcDbEntity
  8
0
  6
CONTINUOUS
100
AcDbLine
 10
41.55324679719776
 20
3.628882487378919
 30
0.0
 11
42.52627329278561
 21
4.601908982966772
 31
0.0
  0
LINE
  5
1B42E
330
1B418
100
AcDbEntity
  8
0
  6
CONTINUOUS
100
AcDbLine
 10
41.87070910977793
 20
3.272825590878912
 30
0.0
 11
42.84373560536579
 21
4.245852086466765
 31
0.0
  0
LINE
  5
1B42F
330
1B418
100
AcDbEntity
  8
0
  6
CONTINUOUS
100
AcDbLine
 10
43.57899999995641
 20
7.001674108297943
 30
0.0
 11
44.99999999995498
 21
8.422674108296516
 31
0.0
  0
LINE
  5
1B430
330
1B418
100
AcDbEntity
  8
0
  6
CONTINUOUS
100
AcDbLine
 10
43.57899999995641
 20
6.328154899217758
 30
0.0
 11
44.99999999995498
 21
7.749154899216329
 31
0.0
  0
LINE
  5
1B431
330
1B418
100
AcDbEntity
  8
0
  6
CONTINUOUS
100
AcDbLine
 10
43.57899999995641
 20
5.654635690137571
 30
0.0
 11
44.99999999995498
 21
7.075635690136142
 31
0.0
  0
LINE
  5
1B432
330
1B418
100
AcDbEntity
  8
0
  6
CONTINUOUS
100
AcDbLine
 10
43.57899999995641
 20
4.981116481057384
 30
0.0
 11
44.99999999995498
 21
6.402116481055955
 31
0.0
  0
LINE
  5
1B433
330
1B418
100
AcDbEntity
  8
0
  6
CONTINUOUS
100
AcDbLine
 10
39.27140272797921
 20
-0.0000000000000009
 30
0.0
 11
40.02599999995994
 21
0.7545972719807246
 31
0.0
  0
LINE
  5
1B434
330
1B418
100
AcDbEntity
  8
0
  6
CONTINUOUS
100
AcDbLine
 10
39.9449219370594
 20
-0.0000000000000009
 30
0.0
 11
40.02599999995994
 21
0.0810780629005379
 31
0.0
  0
LINE
  5
1B435
330
1B418
100
AcDbEntity
  8
0
  6
CONTINUOUS
100
AcDbLine
 10
42.18817142235812
 20
2.916768694378905
 30
0.0
 11
43.16119791794597
 21
3.889795189966758
 31
0.0
  0
LINE
  5
1B436
330
1B418
100
AcDbEntity
  8
0
  6
CONTINUOUS
100
AcDbLine
 10
42.50563373493829
 20
2.560711797878898
 30
0.0
 11
43.47866023052615
 21
3.533738293466751
 31
0.0
  0
LINE
  5
1B437
330
1B418
100
AcDbEntity
  8
0
  6
CONTINUOUS
100
AcDbLine
 10
43.57899999995641
 20
4.307597271977198
 30
0.0
 11
44.99999999995498
 21
5.728597271975769
 31
0.0
  0
LINE
  5
1B438
330
1B418
100
AcDbEntity
  8
0
  6
CONTINUOUS
100
AcDbLine
 10
43.57899999995641
 20
3.634078062897011
 30
0.0
 11
44.99999999995498
 21
5.055078062895582
 31
0.0
  0
LINE
  5
1B439
330
1B418
100
AcDbEntity
  8
0
  6
CONTINUOUS
100
AcDbLine
 10
42.82309604751848
 20
2.204654901378891
 30
0.0
 11
44.99999999995498
 21
4.381558853815395
 31
0.0
  0
LINE
  5
1B43A
330
1B418
100
AcDbEntity
  8
0
  6
CONTINUOUS
100
AcDbLine
 10
43.14055836009865
 20
1.848598004878885
 30
0.0
 11
44.99999999995498
 21
3.70803964473521
 31
0.0
  0
LINE
  5
1B43B
330
1B418
100
AcDbEntity
  8
0
  6
CONTINUOUS
100
AcDbLine
 10
43.45802067267883
 20
1.492541108378878
 30
0.0
 11
44.99999999995498
 21
3.034520435655023
 31
0.0
  0
LINE
  5
1B43C
330
1B418
100
AcDbEntity
  8
0
  6
CONTINUOUS
100
AcDbLine
 10
43.77548298525902
 20
1.136484211878871
 30
0.0
 11
44.99999999995498
 21
2.361001226574837
 31
0.0
  0
LINE
  5
1B43D
330
1B418
100
AcDbEntity
  8
0
  6
CONTINUOUS
100
AcDbLine
 10
44.09294529783919
 20
0.7804273153788639
 30
0.0
 11
44.99999999995498
 21
1.687482017494649
 31
0.0
  0
LINE
  5
1B43E
330
1B418
100
AcDbEntity
  8
0
  6
CONTINUOUS
100
AcDbLine
 10
44.41040761041938
 20
0.4243704188788566
 30
0.0
 11
44.99999999995498
 21
1.013962808414463
 31
0.0
  0
LINE
  5
1B43F
330
1B418
100
AcDbEntity
  8
0
  6
CONTINUOUS
100
AcDbLine
 10
44.72786992299955
 20
0.0683135223788494
 30
0.0
 11
44.99999999995498
 21
0.340443599334276
 31
0.0
  0
LINE
  5
1B440
330
1B418
100
AcDbEntity
  8
0
  6
CONTINUOUS
100
AcDbLine
 10
39.12223903415696
 20
-0.0000000000000009
 30
0.0
 11
38.60499999996136
 21
0.5172390341955961
 31
0.0
  0
LINE
  5
1B441
330
1B418
100
AcDbEntity
  8
0
  6
CONTINUOUS
100
AcDbLine
 10
39.79575824323715
 20
-0.0000000000000009
 30
0.0
 11
38.60499999996136
 21
1.190758243275783
 31
0.0
  0
LINE
  5
1B442
330
1B418
100
AcDbEntity
  8
0
  6
CONTINUOUS
100
AcDbLine
 10
40.02599999995994
 20
0.443277452357397
 30
0.0
 11
38.60499999996136
 21
1.864277452355969
 31
0.0
  0
LINE
  5
1B443
330
1B418
100
AcDbEntity
  8
0
  6
CONTINUOUS
100
AcDbLine
 10
40.02599999995994
 20
1.116796661437583
 30
0.0
 11
38.60499999996136
 21
2.537796661436155
 31
0.0
  0
LINE
  5
1B444
330
1B418
100
AcDbEntity
  8
0
  6
CONTINUOUS
100
AcDbLine
 10
40.02599999995994
 20
1.79031587051777
 30
0.0
 11
38.60499999996136
 21
3.211315870516341
 31
0.0
  0
LINE
  5
1B445
330
1B418
100
AcDbEntity
  8
0
  6
CONTINUOUS
100
AcDbLine
 10
40.02599999995994
 20
2.463835079597956
 30
0.0
 11
38.60499999996136
 21
3.884835079596527
 31
0.0
  0
LINE
  5
1B446
330
1B418
100
AcDbEntity
  8
0
  6
CONTINUOUS
100
AcDbLine
 10
40.02599999995994
 20
3.137354288678143
 30
0.0
 11
38.60499999996136
 21
4.558354288676714
 31
0.0
  0
LINE
  5
1B447
330
1B418
100
AcDbEntity
  8
0
  6
CONTINUOUS
100
AcDbLine
 10
40.02599999995994
 20
3.810873497758329
 30
0.0
 11
38.60499999996136
 21
5.2318734977569
 31
0.0
  0
LINE
  5
1B448
330
1B418
100
AcDbEntity
  8
0
  6
CONTINUOUS
100
AcDbLine
 10
40.02599999995994
 20
4.484392706838515
 30
0.0
 11
38.60499999996136
 21
5.905392706837086
 31
0.0
  0
LINE
  5
1B449
330
1B418
100
AcDbEntity
  8
0
  6
CONTINUOUS
100
AcDbLine
 10
44.99999999995498
 20
0.183911915923658
 30
0.0
 11
41.53858364506288
 21
3.64532827081576
 31
0.0
  0
LINE
  5
1B44A
330
1B418
100
AcDbEntity
  8
0
  6
CONTINUOUS
100
AcDbLine
 10
40.02599999995994
 20
5.157911915918703
 30
0.0
 11
38.60499999996136
 21
6.578911915917274
 31
0.0
  0
LINE
  5
1B44B
330
1B418
100
AcDbEntity
  8
0
  6
CONTINUOUS
100
AcDbLine
 10
44.99999999995498
 20
0.8574311250038447
 30
0.0
 11
38.60499999996136
 21
7.25243112499746
 31
0.0
  0
LINE
  5
1B44C
330
1B418
100
AcDbEntity
  8
0
  6
CONTINUOUS
100
AcDbLine
 10
44.99999999995498
 20
1.530950334084031
 30
0.0
 11
38.60499999996136
 21
7.925950334077647
 31
0.0
  0
LINE
  5
1B44D
330
1B418
100
AcDbEntity
  8
0
  6
CONTINUOUS
100
AcDbLine
 10
44.99999999995498
 20
2.204469543164218
 30
0.0
 11
43.57899999995641
 21
3.625469543162789
 31
0.0
  0
LINE
  5
1B44E
330
1B418
100
AcDbEntity
  8
0
  6
CONTINUOUS
100
AcDbLine
 10
41.89876730984767
 20
5.305702233271528
 30
0.0
 11
38.60499999996136
 21
8.599469543157834
 31
0.0
  0
LINE
  5
1B44F
330
1B418
100
AcDbEntity
  8
0
  6
CONTINUOUS
100
AcDbLine
 10
44.99999999995498
 20
2.877988752244405
 30
0.0
 11
43.57899999995641
 21
4.298988752242975
 31
0.0
  0
LINE
  5
1B450
330
1B418
100
AcDbEntity
  8
0
  6
CONTINUOUS
100
AcDbLine
 10
44.99999999995498
 20
3.551507961324591
 30
0.0
 11
43.57899999995641
 21
4.972507961323163
 31
0.0
  0
LINE
  5
1B451
330
1B418
100
AcDbEntity
  8
0
  6
CONTINUOUS
100
AcDbLine
 10
44.99999999995498
 20
4.225027170404777
 30
0.0
 11
43.57899999995641
 21
5.646027170403348
 31
0.0
  0
LINE
  5
1B452
330
1B418
100
AcDbEntity
  8
0
  6
CONTINUOUS
100
AcDbLine
 10
44.99999999995498
 20
4.898546379484964
 30
0.0
 11
43.57899999995641
 21
6.319546379483535
 31
0.0
  0
LINE
  5
1B453
330
1B418
100
AcDbEntity
  8
0
  6
CONTINUOUS
100
AcDbLine
 10
44.99999999995498
 20
5.572065588565151
 30
0.0
 11
43.57899999995641
 21
6.993065588563722
 31
0.0
  0
LINE
  5
1B454
330
1B418
100
AcDbEntity
  8
0
  6
CONTINUOUS
100
AcDbLine
 10
44.99999999995498
 20
6.245584797645336
 30
0.0
 11
43.57899999995641
 21
7.666584797643908
 31
0.0
  0
LINE
  5
1B455
330
1B418
100
AcDbEntity
  8
0
  6
CONTINUOUS
100
AcDbLine
 10
44.99999999995498
 20
6.919104006725522
 30
0.0
 11
43.57899999995641
 21
8.340104006724093
 31
0.0
  0
LINE
  5
1B456
330
1B418
100
AcDbEntity
  8
0
  6
CONTINUOUS
100
AcDbLine
 10
44.99999999995498
 20
7.592623215805709
 30
0.0
 11
43.82952321576943
 21
8.763099999991255
 31
0.0
  0
LINE
  5
1B457
330
1B418
100
AcDbEntity
  8
0
  6
CONTINUOUS
100
AcDbLine
 10
44.99999999995498
 20
8.266142424885896
 30
0.0
 11
44.50304242484962
 21
8.763099999991255
 31
0.0
  0
ENDBLK
  5
1B481
330
1B418
100
AcDbEntity
  8
0
100
AcDbBlockEnd
  0
BLOCK
  5
1B482
330
1B458
100
AcDbEntity
  8
0
100
AcDbBlockBegin
  2
*X31
 70
     1
 10
0.0
 20
0.0
 30
0.0
  3
*X31
  1

  0
LINE
  5
1B459
330
1B458
100
AcDbEntity
  8
0
  6
CONTINUOUS
100
AcDbLine
 10
0.0
 20
8.548461116714023
 30
0.0
 11
0.2146388832772324
 21
8.763099999991255
 31
0.0
  0
LINE
  5
1B45A
330
1B458
100
AcDbEntity
  8
0
  6
CONTINUOUS
100
AcDbLine
 10
-0.0000000000000002
 20
7.874941907633837
 30
0.0
 11
0.8881580923574184
 21
8.763099999991255
 31
0.0
  0
LINE
  5
1B45B
330
1B458
100
AcDbEntity
  8
0
  6
CONTINUOUS
100
AcDbLine
 10
0.0
 20
7.20142269855365
 30
0.0
 11
1.420999999998572
 21
8.622422698552223
 31
0.0
  0
LINE
  5
1B45C
330
1B458
100
AcDbEntity
  8
0
  6
CONTINUOUS
100
AcDbLine
 10
-0.0000000000000001
 20
6.527903489473465
 30
0.0
 11
1.420999999998571
 21
7.948903489472036
 31
0.0
  0
LINE
  5
1B45D
330
1B458
100
AcDbEntity
  8
0
  6
CONTINUOUS
100
AcDbLine
 10
-0.0000000000000002
 20
5.854384280393278
 30
0.0
 11
1.420999999998571
 21
7.275384280391849
 31
0.0
  0
LINE
  5
1B45E
330
1B458
100
AcDbEntity
  8
0
  6
CONTINUOUS
100
AcDbLine
 10
-0.0000000000000002
 20
5.180865071313091
 30
0.0
 11
1.420999999998571
 21
6.601865071311663
 31
0.0
  0
LINE
  5
1B45F
330
1B458
100
AcDbEntity
  8
0
  6
CONTINUOUS
100
AcDbLine
 10
0.0
 20
4.507345862232905
 30
0.0
 11
1.420999999998571
 21
5.928345862231477
 31
0.0
  0
LINE
  5
1B460
330
1B458
100
AcDbEntity
  8
0
  6
CONTINUOUS
100
AcDbLine
 10
-0.0000000000000003
 20
3.833826653152718
 30
0.0
 11
1.420999999998571
 21
5.25482665315129
 31
0.0
  0
LINE
  5
1B461
330
1B458
100
AcDbEntity
  8
0
  6
CONTINUOUS
100
AcDbLine
 10
-0.0000000000000002
 20
3.160307444072532
 30
0.0
 11
1.420999999998571
 21
4.581307444071103
 31
0.0
  0
LINE
  5
1B462
330
1B458
100
AcDbEntity
  8
0
  6
CONTINUOUS
100
AcDbLine
 10
-0.0000000000000001
 20
2.486788234992345
 30
0.0
 11
1.420999999998571
 21
3.907788234990917
 31
0.0
  0
LINE
  5
1B463
330
1B458
100
AcDbEntity
  8
0
  6
CONTINUOUS
100
AcDbLine
 10
-0.0000000000000006
 20
1.813269025912159
 30
0.0
 11
1.420999999998571
 21
3.234269025910731
 31
0.0
  0
LINE
  5
1B464
330
1B458
100
AcDbEntity
  8
0
  6
CONTINUOUS
100
AcDbLine
 10
0.0
 20
1.139749816831973
 30
0.0
 11
1.420999999998571
 21
2.560749816830544
 31
0.0
  0
LINE
  5
1B465
330
1B458
100
AcDbEntity
  8
0
  6
CONTINUOUS
100
AcDbLine
 10
0.0000000000000002
 20
0.466230607751787
 30
0.0
 11
1.420999999998571
 21
1.887230607750358
 31
0.0
  0
LINE
  5
1B466
330
1B458
100
AcDbEntity
  8
0
  6
CONTINUOUS
100
AcDbLine
 10
0.2072886013284003
 20
-0.0000000000000009
 30
0.0
 11
1.420999999998571
 21
1.213711398670171
 31
0.0
  0
LINE
  5
1B467
330
1B458
100
AcDbEntity
  8
0
  6
CONTINUOUS
100
AcDbLine
 10
0.8808078104085864
 20
-0.0000000000000009
 30
0.0
 11
1.420999999998571
 21
0.5401921895899839
 31
0.0
  0
LINE
  5
1B468
330
1B458
100
AcDbEntity
  8
0
  6
CONTINUOUS
100
AcDbLine
 10
0.0581249075061505
 20
-0.0000000000000009
 30
0.0
 11
-0.0000000000000002
 21
0.0581249075061496
 31
0.0
  0
LINE
  5
1B469
330
1B458
100
AcDbEntity
  8
0
  6
CONTINUOUS
100
AcDbLine
 10
0.7316441165863372
 20
-0.0000000000000009
 30
0.0
 11
-0.0000000000000002
 21
0.7316441165863363
 31
0.0
  0
LINE
  5
1B46A
330
1B458
100
AcDbEntity
  8
0
  6
CONTINUOUS
100
AcDbLine
 10
1.405163325666523
 20
-0.0000000000000009
 30
0.0
 11
-0.0000000000000002
 21
1.405163325666523
 31
0.0
  0
LINE
  5
1B46B
330
1B458
100
AcDbEntity
  8
0
  6
CONTINUOUS
100
AcDbLine
 10
1.420999999998572
 20
0.6576825347481381
 30
0.0
 11
-0.0000000000000001
 21
2.07868253474671
 31
0.0
  0
LINE
  5
1B46C
330
1B458
100
AcDbEntity
  8
0
  6
CONTINUOUS
100
AcDbLine
 10
1.420999999998571
 20
1.331201743828324
 30
0.0
 11
-0.0000000000000001
 21
2.752201743826896
 31
0.0
  0
LINE
  5
1B46D
330
1B458
100
AcDbEntity
  8
0
  6
CONTINUOUS
100
AcDbLine
 10
1.420999999998571
 20
2.004720952908511
 30
0.0
 11
-0.0000000000000002
 21
3.425720952907082
 31
0.0
  0
LINE
  5
1B46E
330
1B458
100
AcDbEntity
  8
0
  6
CONTINUOUS
100
AcDbLine
 10
1.420999999998571
 20
2.678240161988697
 30
0.0
 11
-0.0000000000000001
 21
4.099240161987269
 31
0.0
  0
LINE
  5
1B46F
330
1B458
100
AcDbEntity
  8
0
  6
CONTINUOUS
100
AcDbLine
 10
1.420999999998572
 20
3.351759371068884
 30
0.0
 11
0.0
 21
4.772759371067455
 31
0.0
  0
LINE
  5
1B470
330
1B458
100
AcDbEntity
  8
0
  6
CONTINUOUS
100
AcDbLine
 10
1.420999999998571
 20
4.02527858014907
 30
0.0
 11
-0.0000000000000003
 21
5.446278580147642
 31
0.0
  0
LINE
  5
1B471
330
1B458
100
AcDbEntity
  8
0
  6
CONTINUOUS
100
AcDbLine
 10
1.420999999998571
 20
4.698797789229257
 30
0.0
 11
0.0
 21
6.119797789227828
 31
0.0
  0
LINE
  5
1B472
330
1B458
100
AcDbEntity
  8
0
  6
CONTINUOUS
100
AcDbLine
 10
1.420999999998571
 20
5.372316998309444
 30
0.0
 11
-0.0000000000000001
 21
6.793316998308015
 31
0.0
  0
LINE
  5
1B473
330
1B458
100
AcDbEntity
  8
0
  6
CONTINUOUS
100
AcDbLine
 10
1.420999999998572
 20
6.045836207389629
 30
0.0
 11
-0.0000000000000004
 21
7.466836207388202
 31
0.0
  0
LINE
  5
1B474
330
1B458
100
AcDbEntity
  8
0
  6
CONTINUOUS
100
AcDbLine
 10
1.420999999998571
 20
6.719355416469816
 30
0.0
 11
0.0
 21
8.140355416468388
 31
0.0
  0
LINE
  5
1B475
330
1B458
100
AcDbEntity
  8
0
  6
CONTINUOUS
100
AcDbLine
 10
1.420999999998571
 20
7.392874625550003
 30
0.0
 11
0.0507746255573185
 21
8.763099999991255
 31
0.0
  0
LINE
  5
1B476
330
1B458
100
AcDbEntity
  8
0
  6
CONTINUOUS
100
AcDbLine
 10
1.420999999998571
 20
8.06639383463019
 30
0.0
 11
0.7242938346375052
 21
8.763099999991255
 31
0.0
  0
LINE
  5
1B477
330
1B458
100
AcDbEntity
  8
0
  6
CONTINUOUS
100
AcDbLine
 10
1.420999999998571
 20
8.739913043710375
 30
0.0
 11
1.397813043717691
 21
8.763099999991255
 31
0.0
  0
ENDBLK
  5
1B483
330
1B458
100
AcDbEntity
  8
0
100
AcDbBlockEnd
  0
ENDSEC
  0
SECTION
  2
ENTITIES
  0
LINE
  5
1AD51
330
18
100
AcDbEntity
  8
01
100
AcDbLine
 10
2313.011287666848
 20
-569.5087362062541
 30
0.0
 11
2327.011287666848
 21
-569.5087362062541
 31
0.0
  0
LINE
  5
1AD52
330
18
100
AcDbEntity
  8
01
100
AcDbLine
 10
2318.012171848908
 20
-357.5087362072827
 30
0.0
 11
2471.76655200394
 21
-357.5087362072827
 31
0.0
  0
LINE
  5
1AD53
330
18
100
AcDbEntity
  8
01
  6
BYBLOCK
100
AcDbLine
 10
2318.012171848908
 20
-357.5087362072827
 30
0.0
 11
2318.012171848908
 21
-397.5087362072827
 31
0.0
  0
LINE
  5
1AD57
330
18
100
AcDbEntity
  8
01
100
AcDbLine
 10
2369.011404006592
 20
-362.5087362083113
 30
0.0
 11
2369.011404006592
 21
-331.5906560190624
 31
0.0
  0
LINE
  5
1AD58
330
18
100
AcDbEntity
  8
01
  6
BYBLOCK
100
AcDbLine
 10
2319.511287666848
 20
-561.608736206254
 30
0.0
 11
2319.511287666848
 21
-691.4087362062539
 31
0.0
  0
LINE
  5
1AD59
330
18
100
AcDbEntity
  8
01
  6
BYBLOCK
100
AcDbLine
 10
2319.511287666848
 20
-690.5087362062541
 30
0.0
 11
2322.011287666848
 21
-690.5087362062541
 31
0.0
  0
LINE
  5
1AD5A
330
18
100
AcDbEntity
  8
01
  6
BYBLOCK
100
AcDbLine
 10
2322.011287666848
 20
-690.5087362062541
 30
0.0
 11
2322.011287666848
 21
-674.0057924811017
 31
0.0
  0
LINE
  5
1AD5B
330
18
100
AcDbEntity
  8
01
  6
BYBLOCK
100
AcDbLine
 10
2318.011287666848
 20
-561.608736206254
 30
0.0
 11
2318.011287666848
 21
-691.4087362062539
 31
0.0
  0
LINE
  5
1AD5C
330
18
100
AcDbEntity
  8
01
  6
BYBLOCK
100
AcDbLine
 10
2318.011287666848
 20
-691.4087362062539
 30
0.0
 11
2319.511287666848
 21
-691.4087362062539
 31
0.0
  0
LINE
  5
1AD5D
330
18
100
AcDbEntity
  8
01
  6
BYBLOCK
100
AcDbLine
 10
2319.511287666848
 20
-562.5087362062541
 30
0.0
 11
2322.011287666848
 21
-562.5087362062541
 31
0.0
  0
LINE
  5
1AD5E
330
18
100
AcDbEntity
  8
01
  6
BYBLOCK
100
AcDbLine
 10
2318.011287666848
 20
-561.608736206254
 30
0.0
 11
2319.511287666848
 21
-561.608736206254
 31
0.0
  0
LINE
  5
1AD5F
330
18
100
AcDbEntity
  8
01
  6
BYBLOCK
100
AcDbLine
 10
2319.511287666848
 20
-586.5087362062541
 30
0.0
 11
2320.711287666848
 21
-586.5087362062541
 31
0.0
  0
ARC
  5
1AD60
330
18
100
AcDbEntity
  8
01
  6
BYBLOCK
100
AcDbCircle
 10
2386.011287666848
 20
-590.5087362062541
 30
0.0
 40
1.0
100
AcDbArc
 50
0.0
 51
90.0
  0
LINE
  5
1AD61
330
18
100
AcDbEntity
  8
01
  6
BYBLOCK
100
AcDbLine
 10
2320.711287666848
 20
-580.8087362062538
 30
0.0
 11
2320.711287666848
 21
-672.2087362062539
 31
0.0
  0
LINE
  5
1AD62
330
18
100
AcDbEntity
  8
01
  6
BYBLOCK
100
AcDbLine
 10
2320.811287666848
 20
-690.5087362062541
 30
0.0
 11
2320.811287666848
 21
-673.9087362062539
 31
0.0
  0
LINE
  5
1AD63
330
18
100
AcDbEntity
  8
01
  6
BYBLOCK
100
AcDbLine
 10
2320.811287666848
 20
-673.9087362062539
 30
0.0
 11
2319.862759529423
 21
-672.9602080688301
 31
0.0
  0
LINE
  5
1AD64
330
18
100
AcDbEntity
  8
01
  6
BYBLOCK
100
AcDbLine
 10
2321.659815804271
 20
-673.1572643436778
 30
0.0
 11
2320.711287666848
 21
-672.2087362062539
 31
0.0
  0
ARC
  5
1AD65
330
18
100
AcDbEntity
  8
01
  6
BYBLOCK
100
AcDbCircle
 10
2320.811287666848
 20
-674.0057924811017
 30
0.0
 40
1.2
100
AcDbArc
 50
0.0
 51
45.00000000003838
  0
ARC
  5
1AD66
330
18
100
AcDbEntity
  8
01
  6
BYBLOCK
100
AcDbCircle
 10
2320.711287666848
 20
-672.1116799314061
 30
0.0
 40
1.2
100
AcDbArc
 50
180.0
 51
225.0000000000384
  0
LINE
  5
1AD67
330
18
100
AcDbEntity
  8
01
  6
BYBLOCK
100
AcDbLine
 10
2322.011287666848
 20
-562.5087362062541
 30
0.0
 11
2322.011287666848
 21
-579.0116799314062
 31
0.0
  0
LINE
  5
1AD68
330
18
100
AcDbEntity
  8
01
  6
BYBLOCK
100
AcDbLine
 10
2320.811287666848
 20
-562.5087362062541
 30
0.0
 11
2320.811287666848
 21
-579.108736206254
 31
0.0
  0
LINE
  5
1AD69
330
18
100
AcDbEntity
  8
01
  6
BYBLOCK
100
AcDbLine
 10
2320.811287666848
 20
-579.108736206254
 30
0.0
 11
2319.862759529423
 21
-580.0572643436778
 31
0.0
  0
LINE
  5
1AD6A
330
18
100
AcDbEntity
  8
01
  6
BYBLOCK
100
AcDbLine
 10
2321.659815804271
 20
-579.8602080688302
 30
0.0
 11
2320.711287666848
 21
-580.808736206254
 31
0.0
  0
ARC
  5
1AD6B
330
18
100
AcDbEntity
  8
01
  6
BYBLOCK
100
AcDbCircle
 10
2320.811287666848
 20
-579.0116799314062
 30
0.0
 40
1.2
100
AcDbArc
 50
314.9999999999616
 51
0.0
  0
ARC
  5
1AD6C
330
18
100
AcDbEntity
  8
01
  6
BYBLOCK
100
AcDbCircle
 10
2320.711287666848
 20
-580.9057924811018
 30
0.0
 40
1.2
100
AcDbArc
 50
134.9999999999616
 51
180.0
  0
CIRCLE
  5
1AD6D
330
18
100
AcDbEntity
  8
01
  6
BYBLOCK
100
AcDbCircle
 10
2369.011287666848
 20
-597.5087362062541
 30
0.0
 40
4.75
  0
LINE
  5
1AD6E
330
18
100
AcDbEntity
  8
01
  6
BYBLOCK
100
AcDbLine
 10
2320.711287666848
 20
-663.5087362062543
 30
0.0
 11
2342.511287666851
 21
-663.5087362062541
 31
0.0
  0
ARC
  5
1AD6F
330
18
100
AcDbEntity
  8
01
  6
BYBLOCK
100
AcDbCircle
 10
2321.112171848908
 20
-373.9474856642828
 30
0.0
 40
1.6
100
AcDbArc
 50
115.9444797720007
 51
180.0
  0
ARC
  5
1AD70
330
18
100
AcDbEntity
  8
01
  6
BYBLOCK
100
AcDbCircle
 10
2321.112171848908
 20
-381.0699867502826
 30
0.0
 40
1.6
100
AcDbArc
 50
180.0
 51
244.0555202279993
  0
ARC
  5
1AD71
330
18
100
AcDbEntity
  8
01
  6
BYBLOCK
100
AcDbCircle
 10
2320.412171848907
 20
-382.3474856642827
 30
0.0
 40
1.6
100
AcDbArc
 50
0.0
 51
64.05552022799934
  0
ARC
  5
1AD72
330
18
100
AcDbEntity
  8
01
  6
BYBLOCK
100
AcDbCircle
 10
2320.412171848907
 20
-372.6699867502828
 30
0.0
 40
1.6
100
AcDbArc
 50
295.9444797720006
 51
0.0
  0
LINE
  5
1AD73
330
18
100
AcDbEntity
  8
01
  6
BYBLOCK
100
AcDbLine
 10
2322.012171848908
 20
-372.6699867502828
 30
0.0
 11
2322.012171848908
 21
-365.3087362072827
 31
0.0
  0
LINE
  5
1AD74
330
18
100
AcDbEntity
  8
01
  6
BYBLOCK
100
AcDbLine
 10
2321.112171848908
 20
-380.9087362072828
 30
0.0
 11
2321.112171848908
 21
-374.1087362072826
 31
0.0
  0
LINE
  5
1AD75
330
18
100
AcDbEntity
  8
01
  6
BYBLOCK
100
AcDbLine
 10
2322.012171848908
 20
-389.5087362072827
 30
0.0
 11
2322.012171848908
 21
-382.3474856642827
 31
0.0
  0
LINE
  5
1AD76
330
18
100
AcDbEntity
  8
01
  6
BYBLOCK
100
AcDbLine
 10
2320.412171848907
 20
-372.5087362072827
 30
0.0
 11
2320.412171848908
 21
-365.3087362072827
 31
0.0
  0
LINE
  5
1AD77
330
18
100
AcDbEntity
  8
01
  6
BYBLOCK
100
AcDbLine
 10
2320.412171848907
 20
-382.5087362072827
 30
0.0
 11
2320.412171848907
 21
-389.6087362072826
 31
0.0
  0
ARC
  5
1AD78
330
18
100
AcDbEntity
  8
01
  6
BYBLOCK
100
AcDbCircle
 10
2385.412171848907
 20
-369.6087362072826
 30
0.0
 40
1.6
100
AcDbArc
 50
0.0
 51
90.0
  0
LINE
  5
1AD79
330
18
100
AcDbEntity
  8
01
  6
BYBLOCK
100
AcDbLine
 10
2319.512171848908
 20
-365.1087362072826
 30
0.0
 11
2319.512171848908
 21
-389.9087362072826
 31
0.0
  0
LINE
  5
1AD7A
330
18
100
AcDbEntity
  8
01
  6
BYBLOCK
100
AcDbLine
 10
2385.412171848907
 20
-368.0087362072827
 30
0.0
 11
2322.012171848908
 21
-368.0087362072827
 31
0.0
  0
LINE
  5
1AD7B
330
18
100
AcDbEntity
  8
01
  6
BYBLOCK
100
AcDbLine
 10
2385.412171848907
 20
-385.2087362072828
 30
0.0
 11
2385.412171848907
 21
-368.0087362072827
 31
0.0
  0
LINE
  5
1AD7C
330
18
100
AcDbEntity
  8
01
  6
BYBLOCK
100
AcDbLine
 10
2387.012171848908
 20
-386.8087362072827
 30
0.0
 11
2387.012171848908
 21
-369.6087362072826
 31
0.0
  0
LINE
  5
1AD7D
330
18
100
AcDbEntity
  8
01
  6
BYBLOCK
100
AcDbLine
 10
2319.512171848908
 20
-365.3087362072827
 30
0.0
 11
2322.012171848908
 21
-365.3087362072827
 31
0.0
  0
LINE
  5
1AD7E
330
18
100
AcDbEntity
  8
01
  6
BYBLOCK
100
AcDbLine
 10
2322.012171848908
 20
-389.5087362072827
 30
0.0
 11
2320.412171848907
 21
-389.5087362072827
 31
0.0
  0
LINE
  5
1AD7F
330
18
100
AcDbEntity
  8
01
  6
BYBLOCK
100
AcDbLine
 10
2320.412171848907
 20
-389.6087362072826
 30
0.0
 11
2319.512171848908
 21
-389.6087362072826
 31
0.0
  0
ARC
  5
1AD80
330
18
100
AcDbEntity
  8
01
  6
BYBLOCK
100
AcDbCircle
 10
2316.712766776307
 20
-383.2087362072821
 30
0.0
 40
0.3000000000000051
100
AcDbArc
 50
232.8678058729329
 51
270.0
  0
LINE
  5
1AD81
330
18
100
AcDbEntity
  8
01
  6
BYBLOCK
100
AcDbLine
 10
2317.512171848908
 20
-383.508736207282
 30
0.0
 11
2316.712766776307
 21
-383.508736207282
 31
0.0
  0
LINE
  5
1AD82
330
18
100
AcDbEntity
  8
01
  6
BYBLOCK
100
AcDbLine
 10
2307.112171848908
 20
-373.8357473410779
 30
0.0
 11
2307.112171848908
 21
-374.006369396627
 31
0.0
  0
ARC
  5
1AD83
330
18
100
AcDbEntity
  8
01
  6
BYBLOCK
100
AcDbCircle
 10
2307.412171848907
 20
-374.006369396627
 30
0.0
 40
0.3
100
AcDbArc
 50
180.0
 51
217.7405295629668
  0
ARC
  5
1AD84
330
18
100
AcDbEntity
  8
01
  6
BYBLOCK
100
AcDbCircle
 10
2346.714472448192
 20
-343.5856664526862
 30
0.0
 40
50.00000000000002
100
AcDbArc
 50
217.7405295629802
 51
232.8678058729729
  0
LINE
  5
1AD85
330
18
100
AcDbEntity
  8
01
  6
BYBLOCK
100
AcDbLine
 10
2306.912171848907
 20
-372.7087362072825
 30
0.0
 11
2306.912171848907
 21
-372.0087362072827
 31
0.0
  0
ARC
  5
1AD86
330
18
100
AcDbEntity
  8
01
  6
BYBLOCK
100
AcDbCircle
 10
2307.412171848907
 20
-372.0087362072827
 30
0.0
 40
0.5000000000000142
100
AcDbArc
 50
90.0
 51
180.0
  0
LINE
  5
1AD87
330
18
100
AcDbEntity
  8
01
  6
BYBLOCK
100
AcDbLine
 10
2317.512171848908
 20
-371.5087362072827
 30
0.0
 11
2307.412171848907
 21
-371.5087362072827
 31
0.0
  0
LINE
  5
1AD88
330
18
100
AcDbEntity
  8
01
  6
BYBLOCK
100
AcDbLine
 10
2306.912171848907
 20
-373.087415863723
 30
0.0
 11
2306.912171848907
 21
-372.7087362072825
 31
0.0
  0
SPLINE
  5
1AD89
330
18
100
AcDbEntity
  8
01
  6
BYBLOCK
100
AcDbSpline
210
0.0
220
0.0
230
1.0
 70
     8
 71
     3
 72
     8
 73
     4
 74
     0
 42
0.0000000001
 43
0.0000000001
 40
0.0
 40
0.0
 40
0.0
 40
0.0
 40
1.0
 40
1.0
 40
1.0
 40
1.0
 10
2306.937904390172
 20
-373.3640662931721
 30
0.0
 10
2306.920436504061
 20
-373.2709800972916
 30
0.0
 10
2306.912171848907
 20
-373.1777140864001
 30
0.0
 10
2306.912171848907
 20
-373.0874158637225
 30
0.0
  0
ARC
  5
1AD8A
330
18
100
AcDbEntity
  8
01
  6
BYBLOCK
100
AcDbCircle
 10
2308.412171848907
 20
-373.087415863723
 30
0.0
 40
1.499999999999998
100
AcDbArc
 50
190.628112987605
 51
225.0000000000384
  0
LINE
  5
1AD8B
330
18
100
AcDbEntity
  8
01
  6
BYBLOCK
100
AcDbLine
 10
2318.012171848908
 20
-370.6587362072826
 30
0.0
 11
2317.512171848908
 21
-370.6587362072826
 31
0.0
  0
LINE
  5
1AD8C
330
18
100
AcDbEntity
  8
01
  6
BYBLOCK
100
AcDbLine
 10
2317.512171848908
 20
-384.3587362072826
 30
0.0
 11
2318.012171848908
 21
-384.3587362072826
 31
0.0
  0
LINE
  5
1AD8D
330
18
100
AcDbEntity
  8
01
  6
BYBLOCK
100
AcDbLine
 10
2317.512171848908
 20
-384.3587362072826
 30
0.0
 11
2317.512171848908
 21
-370.6587362072826
 31
0.0
  0
LINE
  5
1AD8E
330
18
100
AcDbEntity
  8
01
  6
BYBLOCK
100
AcDbLine
 10
2318.012171848908
 20
-365.1087362072826
 30
0.0
 11
2319.512171848908
 21
-365.1087362072826
 31
0.0
  0
LINE
  5
1AD8F
330
18
100
AcDbEntity
  8
01
  6
BYBLOCK
100
AcDbLine
 10
2318.012171848908
 20
-389.9087362072826
 30
0.0
 11
2319.512171848908
 21
-389.9087362072826
 31
0.0
  0
LINE
  5
1AD90
330
18
100
AcDbEntity
  8
01
  6
BYBLOCK
100
AcDbLine
 10
2318.012171848908
 20
-389.9087362072826
 30
0.0
 11
2318.012171848908
 21
-365.1087362072826
 31
0.0
  0
LINE
  5
1AD91
330
18
100
AcDbEntity
  8
01
  6
BYBLOCK
100
AcDbLine
 10
2387.012171848908
 20
-385.2087362072828
 30
0.0
 11
2322.012171848908
 21
-385.2087362072828
 31
0.0
  0
LINE
  5
1AD92
330
18
100
AcDbEntity
  8
01
  6
BYBLOCK
100
AcDbLine
 10
2387.012171848908
 20
-386.8087362072827
 30
0.0
 11
2336.612171848908
 21
-386.8087362072827
 31
0.0
  0
LINE
  5
1AD93
330
18
100
AcDbEntity
  8
01
  6
BYBLOCK
100
AcDbLine
 10
2339.449430149111
 20
-386.8087362072827
 30
0.0
 11
2322.012171848908
 21
-386.8087362072827
 31
0.0
  0
LINE
  5
1AD94
330
18
100
AcDbEntity
  8
01
  6
BYBLOCK
100
AcDbLine
 10
2316.565725239501
 20
-383.362289597876
 30
0.0
 11
2307.351511677127
 21
-374.148076035503
 31
0.0
  0
ARC
  5
1AD95
330
18
100
AcDbEntity
  8
01
  6
BYBLOCK
100
AcDbCircle
 10
2316.919278630094
 20
-383.0087362072827
 30
0.0
 40
0.5
100
AcDbArc
 50
225.0
 51
270.0
  0
LINE
  5
1AD96
330
18
100
AcDbEntity
  8
01
  6
BYBLOCK
100
AcDbLine
 10
2317.512171848908
 20
-383.5087362072827
 30
0.0
 11
2316.919278630094
 21
-383.5087362072827
 31
0.0
  0
LINE
  5
1AD98
330
18
100
AcDbEntity
  8
01
  6
BYBLOCK
100
AcDbLine
 10
2365.405043082796
 20
-597.5087362062541
 30
0.0
 11
2369.011287666848
 21
-593.9024916222027
 31
0.0
  0
LINE
  5
1AD99
330
18
100
AcDbEntity
  8
01
  6
BYBLOCK
100
AcDbLine
 10
2372.617532250899
 20
-597.5087362062541
 30
0.0
 11
2369.011287666848
 21
-593.9024916222027
 31
0.0
  0
LINE
  5
1AD9A
330
18
100
AcDbEntity
  8
01
  6
BYBLOCK
100
AcDbLine
 10
2365.405043082796
 20
-597.5087362062541
 30
0.0
 11
2369.011287666848
 21
-601.1149807903053
 31
0.0
  0
LINE
  5
1AD9B
330
18
100
AcDbEntity
  8
01
  6
BYBLOCK
100
AcDbLine
 10
2372.617532250899
 20
-597.5087362062541
 30
0.0
 11
2369.011287666848
 21
-601.1149807903053
 31
0.0
  0
LINE
  5
1AD9C
330
18
100
AcDbEntity
  8
01
  6
BYBLOCK
100
AcDbLine
 10
2307.011287666848
 20
-616.477065939238
 30
0.0
 11
2307.011287666848
 21
-634.5404064732438
 31
0.0
  0
LINE
  5
1AD9D
330
18
100
AcDbEntity
  8
01
  6
BYBLOCK
100
AcDbLine
 10
2311.304180885661
 20
-615.5087362062409
 30
0.0
 11
2318.011287666848
 21
-615.5087362062409
 31
0.0
  0
LINE
  5
1AD9E
330
18
100
AcDbEntity
  8
01
  6
BYBLOCK
100
AcDbLine
 10
2311.304180885661
 20
-635.5087362062409
 30
0.0
 11
2318.011287666848
 21
-635.5087362062409
 31
0.0
  0
LINE
  5
1AD9F
330
18
100
AcDbEntity
  8
01
  6
BYBLOCK
100
AcDbLine
 10
2316.804180885662
 20
-620.2587362062409
 30
0.0
 11
2316.804180885661
 21
-630.7587362062409
 31
0.0
  0
ARC
  5
1ADA0
330
18
100
AcDbEntity
  8
01
  6
BYBLOCK
100
AcDbCircle
 10
2311.304180885661
 20
-625.5087362062409
 30
0.0
 40
10.00000000000009
100
AcDbArc
 50
53.13010235414986
 51
115.4224671781178
  0
ARC
  5
1ADA1
330
18
100
AcDbEntity
  8
01
  6
BYBLOCK
100
AcDbCircle
 10
2311.304180885661
 20
-625.5087362062407
 30
0.0
 40
10.00000000000009
100
AcDbArc
 50
244.5775328218822
 51
306.8698976458437
  0
LINE
  5
1ADA2
330
18
100
AcDbEntity
  8
01
  6
BYBLOCK
100
AcDbLine
 10
2317.304180885662
 20
-617.5087362062409
 30
0.0
 11
2317.304180885662
 21
-633.5087362062409
 31
0.0
  0
LINE
  5
1ADA3
330
18
100
AcDbEntity
  8
01
  6
BYBLOCK
100
AcDbLine
 10
2307.011287666848
 20
-620.2587362062409
 30
0.0
 11
2316.804180885662
 21
-620.2587362062409
 31
0.0
  0
LINE
  5
1ADA4
330
18
100
AcDbEntity
  8
01
  6
BYBLOCK
100
AcDbLine
 10
2307.011287666848
 20
-630.7587362062409
 30
0.0
 11
2316.804180885662
 21
-630.7587362062409
 31
0.0
  0
LINE
  5
1ADA5
330
18
100
AcDbEntity
  8
01
  6
BYBLOCK
100
AcDbLine
 10
2192.611404006593
 20
-561.6087362062547
 30
0.0
 11
2205.411404006592
 21
-561.6087362062547
 31
0.0
  0
LINE
  5
1ADA6
330
18
100
AcDbEntity
  8
01
  6
BYBLOCK
100
AcDbLine
 10
2192.611404006593
 20
-691.4087362062546
 30
0.0
 11
2205.411404006592
 21
-691.4087362062546
 31
0.0
  0
LINE
  5
1ADA7
330
18
100
AcDbEntity
  8
01
  6
BYBLOCK
100
AcDbLine
 10
2186.611404006593
 20
-567.6087362062547
 30
0.0
 11
2186.611404006593
 21
-685.4087362062546
 31
0.0
  0
LINE
  5
1ADA8
330
18
100
AcDbEntity
  8
01
  6
BYBLOCK
100
AcDbLine
 10
2211.411404006592
 20
-567.6087362062547
 30
0.0
 11
2211.411404006592
 21
-685.4087362062546
 31
0.0
  0
ARC
  5
1ADA9
330
18
100
AcDbEntity
  8
01
  6
BYBLOCK
100
AcDbCircle
 10
2192.611404006593
 20
-685.4087362062546
 30
0.0
 40
6.0
100
AcDbArc
 50
180.0
 51
270.0
  0
ARC
  5
1ADAA
330
18
100
AcDbEntity
  8
01
  6
BYBLOCK
100
AcDbCircle
 10
2205.411404006592
 20
-685.4087362062546
 30
0.0
 40
6.0
100
AcDbArc
 50
270.0
 51
0.0
  0
ARC
  5
1ADAB
330
18
100
AcDbEntity
  8
01
  6
BYBLOCK
100
AcDbCircle
 10
2192.611404006593
 20
-567.6087362062547
 30
0.0
 40
6.0
100
AcDbArc
 50
90.0
 51
180.0
  0
ARC
  5
1ADAC
330
18
100
AcDbEntity
  8
01
  6
BYBLOCK
100
AcDbCircle
 10
2205.411404006592
 20
-567.6087362062547
 30
0.0
 40
6.0
100
AcDbArc
 50
0.0
 51
90.0
  0
CIRCLE
  5
1ADAD
330
18
100
AcDbEntity
  8
01
  6
BYBLOCK
100
AcDbCircle
 10
2199.011404006592
 20
-683.5087362062545
 30
0.0
 40
2.75
  0
CIRCLE
  5
1ADAE
330
18
100
AcDbEntity
  8
01
  6
BYBLOCK
100
AcDbCircle
 10
2199.011404006592
 20
-683.5087362062545
 30
0.0
 40
4.25
  0
CIRCLE
  5
1ADAF
330
18
100
AcDbEntity
  8
01
  6
BYBLOCK
100
AcDbCircle
 10
2199.011404006592
 20
-569.5087362062548
 30
0.0
 40
2.75
  0
CIRCLE
  5
1ADB0
330
18
100
AcDbEntity
  8
01
  6
BYBLOCK
100
AcDbCircle
 10
2199.011404006592
 20
-569.5087362062548
 30
0.0
 40
4.25
  0
LINE
  5
1ADB1
330
18
100
AcDbEntity
  8
1CENTER
100
AcDbLine
 10
2204.886429414498
 20
-683.5087362062548
 30
0.0
 11
2193.136378598686
 21
-683.5087362062548
 31
0.0
  0
LINE
  5
1ADB2
330
18
100
AcDbEntity
  8
1CENTER
100
AcDbLine
 10
2199.011404006592
 20
-677.6337107983484
 30
0.0
 11
2199.011404006592
 21
-689.3837616141609
 31
0.0
  0
LINE
  5
1ADB3
330
18
100
AcDbEntity
  8
1CENTER
100
AcDbLine
 10
2204.886429414498
 20
-569.5087362062548
 30
0.0
 11
2193.136378598686
 21
-569.5087362062548
 31
0.0
  0
LINE
  5
1ADB4
330
18
100
AcDbEntity
  8
1CENTER
100
AcDbLine
 10
2199.011404006592
 20
-563.6337107983484
 30
0.0
 11
2199.011404006592
 21
-575.3837616141609
 31
0.0
  0
ARC
  5
1ADB5
330
18
100
AcDbEntity
  8
01
  6
BYBLOCK
100
AcDbCircle
 10
2199.011404006592
 20
-625.5087362062545
 30
0.0
 40
10.15
100
AcDbArc
 50
231.9925780701369
 51
308.0074219298631
  0
LINE
  5
1ADB6
330
18
100
AcDbEntity
  8
01
  6
BYBLOCK
100
AcDbLine
 10
2192.761404006592
 20
-617.5112365970017
 30
0.0
 11
2192.761404006592
 21
-633.5062358155074
 31
0.0
  0
LINE
  5
1ADB7
330
18
100
AcDbEntity
  8
01
  6
BYBLOCK
100
AcDbLine
 10
2205.261404006592
 20
-617.5112365970017
 30
0.0
 11
2205.261404006592
 21
-633.5062358155074
 31
0.0
  0
ARC
  5
1ADB8
330
18
100
AcDbEntity
  8
01
  6
BYBLOCK
100
AcDbCircle
 10
2199.011404006592
 20
-625.5087362062545
 30
0.0
 40
10.15
100
AcDbArc
 50
51.99257807014251
 51
128.0074219298575
  0
LINE
  5
1ADB9
330
18
100
AcDbEntity
  8
01
  6
BYBLOCK
100
AcDbLine
 10
2194.511404006592
 20
-620.2587362062545
 30
0.0
 11
2194.511404006592
 21
-630.7587362062545
 31
0.0
  0
LINE
  5
1ADBA
330
18
100
AcDbEntity
  8
01
  6
BYBLOCK
100
AcDbLine
 10
2204.511404006592
 20
-620.2587362062545
 30
0.0
 11
2204.511404006592
 21
-630.7587362062545
 31
0.0
  0
LINE
  5
1ADBB
330
18
100
AcDbEntity
  8
01
  6
BYBLOCK
100
AcDbLine
 10
2195.011404006592
 20
-616.1801511045362
 30
0.0
 11
2195.011404006592
 21
-620.2587362062548
 31
0.0
  0
LINE
  5
1ADBC
330
18
100
AcDbEntity
  8
01
  6
BYBLOCK
100
AcDbLine
 10
2193.511404006592
 20
-620.2587362062548
 30
0.0
 11
2193.511404006592
 21
-630.7587362062545
 31
0.0
  0
LINE
  5
1ADBD
330
18
100
AcDbEntity
  8
01
  6
BYBLOCK
100
AcDbLine
 10
2195.011404006592
 20
-630.7587362062545
 30
0.0
 11
2195.011404006592
 21
-634.8373213079728
 31
0.0
  0
LINE
  5
1ADBE
330
18
100
AcDbEntity
  8
01
  6
BYBLOCK
100
AcDbLine
 10
2193.511404006592
 20
-620.2587362062545
 30
0.0
 11
2204.511404006592
 21
-620.2587362062545
 31
0.0
  0
LINE
  5
1ADBF
330
18
100
AcDbEntity
  8
01
  6
BYBLOCK
100
AcDbLine
 10
2193.511404006592
 20
-630.7587362062545
 30
0.0
 11
2204.511404006592
 21
-630.7587362062545
 31
0.0
  0
LINE
  5
1ADC3
330
18
100
AcDbEntity
  8
01
100
AcDbLine
 10
2179.011520346335
 20
-527.5087362062543
 30
0.0
 11
2179.011520346335
 21
-717.5087362062545
 31
0.0
  0
LINE
  5
1ADC4
330
18
100
AcDbEntity
  8
01
100
AcDbLine
 10
2179.011520346335
 20
-622.5087362062545
 30
0.0
 11
2179.011520346335
 21
-672.5087362062545
 31
0.0
  0
LINE
  5
1ADC5
330
18
100
AcDbEntity
  8
01
100
AcDbLine
 10
2170.511520346335
 20
-671.5087362062545
 30
0.0
 11
2170.511520346335
 21
-623.5087362062545
 31
0.0
  0
LINE
  5
1ADC6
330
18
100
AcDbEntity
  8
01
100
AcDbLine
 10
2179.011520346335
 20
-672.5087362062545
 30
0.0
 11
2171.511520346335
 21
-672.5087362062545
 31
0.0
  0
ARC
  5
1ADC7
330
18
100
AcDbEntity
  8
01
100
AcDbCircle
 10
2171.511520346335
 20
-671.5087362062545
 30
0.0
 40
1.0
100
AcDbArc
 50
180.0
 51
270.0
  0
LINE
  5
1ADC8
330
18
100
AcDbEntity
  8
01
100
AcDbLine
 10
2179.011520346335
 20
-622.5087362062545
 30
0.0
 11
2171.511520346335
 21
-622.5087362062545
 31
0.0
  0
ARC
  5
1ADC9
330
18
100
AcDbEntity
  8
01
100
AcDbCircle
 10
2171.511520346335
 20
-623.5087362062545
 30
0.0
 40
1.0
100
AcDbArc
 50
90.0
 51
180.0
  0
LINE
  5
1ADCA
330
18
100
AcDbEntity
  8
01
100
AcDbLine
 10
2181.139805728767
 20
-647.5087362062545
 30
0.0
 11
2158.511520346335
 21
-647.5087362062545
 31
0.0
  0
LINE
  5
1ADCB
330
18
100
AcDbEntity
  8
01
100
AcDbLine
 10
2313.011287667135
 20
-683.5087362059653
 30
0.0
 11
2327.011287667135
 21
-683.5087362059653
 31
0.0
  0
LINE
  5
1ADCC
330
18
100
AcDbEntity
  8
01
100
AcDbLine
 10
2380.323175934388
 20
-597.5087362062541
 30
0.0
 11
2357.699399399305
 21
-597.5087362062541
 31
0.0
  0
LINE
  5
1ADCD
330
18
100
AcDbEntity
  8
01
100
AcDbLine
 10
2369.011287666848
 20
-586.1968479387124
 30
0.0
 11
2369.011287666848
 21
-608.8206244737958
 31
0.0
  0
LINE
  5
1ADCE
330
18
100
AcDbEntity
  8
01
  6
BYBLOCK
100
AcDbLine
 10
2091.011520346337
 20
-616.477065939238
 30
0.0
 11
2091.011520346337
 21
-634.5404064732438
 31
0.0
  0
LINE
  5
1ADCF
330
18
100
AcDbEntity
  8
01
  6
BYBLOCK
100
AcDbLine
 10
2086.718627127524
 20
-615.5087362062409
 30
0.0
 11
2080.011520346337
 21
-615.5087362062409
 31
0.0
  0
LINE
  5
1ADD0
330
18
100
AcDbEntity
  8
01
  6
BYBLOCK
100
AcDbLine
 10
2086.718627127524
 20
-635.5087362062409
 30
0.0
 11
2080.011520346337
 21
-635.5087362062409
 31
0.0
  0
ARC
  5
1ADD1
330
18
100
AcDbEntity
  8
01
  6
BYBLOCK
100
AcDbCircle
 10
2086.718627127524
 20
-625.5087362062409
 30
0.0
 40
10.00000000000009
100
AcDbArc
 50
64.57753282188216
 51
90.0
  0
LINE
  5
1ADD2
330
18
100
AcDbEntity
  8
01
  6
CONTINUOUS
100
AcDbLine
 10
2090.511520346337
 20
-633.8235303990716
 30
0.0
 11
2080.011520346337
 21
-633.8235303990716
 31
0.0
  0
ARC
  5
1ADD3
330
18
100
AcDbEntity
  8
01
  6
CONTINUOUS
100
AcDbCircle
 10
2090.550100593251
 20
-633.3613911682648
 30
0.0
 40
0.4637468103423796
100
AcDbArc
 50
265.2279066161926
 51
354.2577450626241
  0
LINE
  5
1ADD4
330
18
100
AcDbEntity
  8
01
  6
CONTINUOUS
100
AcDbLine
 10
2091.011520346337
 20
-618.0254214326928
 30
0.0
 11
2091.011520346337
 21
-632.9920509797887
 31
0.0
  0
ARC
  5
1ADD5
330
18
100
AcDbEntity
  8
01
  6
CONTINUOUS
100
AcDbCircle
 10
2090.550100593251
 20
-617.6560812442165
 30
0.0
 40
0.4637468103423387
100
AcDbArc
 50
5.742254937375924
 51
94.77209338380747
  0
ARC
  5
1ADD6
330
18
100
AcDbEntity
  8
01
  6
BYBLOCK
100
AcDbCircle
 10
2086.718627127524
 20
-625.5087362062407
 30
0.0
 40
10.00000000000009
100
AcDbArc
 50
270.0
 51
295.4224671781178
  0
LINE
  5
1ADD7
330
18
100
AcDbEntity
  8
01
  6
CONTINUOUS
100
AcDbLine
 10
2080.011520346337
 20
-617.1939420134097
 30
0.0
 11
2090.511520346337
 21
-617.1939420134097
 31
0.0
  0
LINE
  5
1ADD8
330
18
100
AcDbEntity
  8
01
100
AcDbLine
 10
2387.011287666848
 20
-621.0087362062559
 30
0.0
 11
2387.011287666848
 21
-662.5087362062541
 31
0.0
  0
ARC
  5
1ADD9
330
18
100
AcDbEntity
  8
01
100
AcDbCircle
 10
2386.011287666848
 20
-662.5087362062541
 30
0.0
 40
1.0
100
AcDbArc
 50
270.0
 51
0.0
  0
LINE
  5
1ADDA
330
18
100
AcDbEntity
  8
01
100
AcDbLine
 10
2342.511287666851
 20
-663.5087362062541
 30
0.0
 11
2386.011287666848
 21
-663.5087362062538
 31
0.0
  0
LINE
  5
1ADDB
330
18
100
AcDbEntity
  8
01
100
AcDbLine
 10
2059.011520346337
 20
-647.5087362062541
 30
0.0
 11
1999.011520346337
 21
-647.5087362062541
 31
0.0
  0
LINE
  5
1ADDC
330
18
100
AcDbEntity
  8
01
100
AcDbLine
 10
2029.011520346337
 20
-617.5087362062541
 30
0.0
 11
2029.011520346337
 21
-677.5087362062541
 31
0.0
  0
LINE
  5
1ADDD
330
18
100
AcDbEntity
  8
01
100
AcDbLine
 10
2342.511404006594
 20
-357.5087362072827
 30
0.0
 11
2395.511404006591
 21
-357.5087362072827
 31
0.0
  0
LINE
  5
1ADDE
330
18
100
AcDbEntity
  8
01
100
AcDbLine
 10
2343.011404006594
 20
-349.0087362072827
 30
0.0
 11
2395.011404006591
 21
-349.0087362072827
 31
0.0
  0
LINE
  5
1ADDF
330
18
100
AcDbEntity
  8
01
100
AcDbLine
 10
2395.511404006591
 20
-357.5087362072827
 30
0.0
 11
2395.511404006591
 21
-349.5087362072827
 31
0.0
  0
LINE
  5
1ADE0
330
18
100
AcDbEntity
  8
01
100
AcDbLine
 10
2342.511404006594
 20
-357.5087362072827
 30
0.0
 11
2342.511404006594
 21
-349.5087362072827
 31
0.0
  0
ARC
  5
1ADE1
330
18
100
AcDbEntity
  8
01
100
AcDbCircle
 10
2343.011404006594
 20
-349.5087362072827
 30
0.0
 40
0.5
100
AcDbArc
 50
90.0
 51
180.0
  0
ARC
  5
1ADE2
330
18
100
AcDbEntity
  8
01
100
AcDbCircle
 10
2395.011404006591
 20
-349.5087362072827
 30
0.0
 40
0.5
100
AcDbArc
 50
0.0
 51
90.0
  0
LINE
  5
1ADE3
330
18
100
AcDbEntity
  8
01
  6
BYBLOCK
100
AcDbLine
 10
2387.011287666848
 20
-590.5087362062541
 30
0.0
 11
2387.011287666848
 21
-612.0087360021269
 31
0.0
  0
LINE
  5
1ADE4
330
18
100
AcDbEntity
  8
01
  6
BYBLOCK
100
AcDbLine
 10
2320.711287666848
 20
-589.5087362062541
 30
0.0
 11
2349.01128766685
 21
-589.5087362062541
 31
0.0
  0
LINE
  5
1ADE5
330
18
100
AcDbEntity
  8
01
  6
BYBLOCK
100
AcDbLine
 10
2349.01128766685
 20
-589.5087362062541
 30
0.0
 11
2386.011287666848
 21
-589.5087362062541
 31
0.0
  0
LINE
  5
1ADE6
330
18
100
AcDbEntity
  8
01
  6
BYBLOCK
100
AcDbLine
 10
2387.01128766685
 20
-612.0087360021269
 30
0.0
 11
2387.01128766685
 21
-621.0087362062559
 31
0.0
  0
LINE
  5
1ADE7
330
18
100
AcDbEntity
  8
01
100
AcDbLine
 10
2085.011520346337
 20
-569.5087362062541
 30
0.0
 11
2071.011520346337
 21
-569.5087362062541
 31
0.0
  0
LINE
  5
1ADE8
330
18
100
AcDbEntity
  8
01
  6
BYBLOCK
100
AcDbLine
 10
2078.511520346337
 20
-561.608736206254
 30
0.0
 11
2078.511520346337
 21
-691.4087362062539
 31
0.0
  0
LINE
  5
1ADE9
330
18
100
AcDbEntity
  8
01
  6
BYBLOCK
100
AcDbLine
 10
2078.511520346337
 20
-690.5087362062541
 30
0.0
 11
2076.011520346337
 21
-690.5087362062541
 31
0.0
  0
LINE
  5
1ADEA
330
18
100
AcDbEntity
  8
01
  6
BYBLOCK
100
AcDbLine
 10
2076.011520346337
 20
-690.5087362062541
 30
0.0
 11
2076.011520346337
 21
-674.0057924811017
 31
0.0
  0
LINE
  5
1ADEB
330
18
100
AcDbEntity
  8
01
  6
BYBLOCK
100
AcDbLine
 10
2080.011520346337
 20
-561.608736206254
 30
0.0
 11
2080.011520346337
 21
-691.4087362062539
 31
0.0
  0
LINE
  5
1ADEC
330
18
100
AcDbEntity
  8
01
  6
BYBLOCK
100
AcDbLine
 10
2080.011520346337
 20
-691.4087362062539
 30
0.0
 11
2078.511520346337
 21
-691.4087362062539
 31
0.0
  0
LINE
  5
1ADED
330
18
100
AcDbEntity
  8
01
  6
BYBLOCK
100
AcDbLine
 10
2078.511520346337
 20
-562.5087362062541
 30
0.0
 11
2076.011520346337
 21
-562.5087362062541
 31
0.0
  0
LINE
  5
1ADEE
330
18
100
AcDbEntity
  8
01
  6
BYBLOCK
100
AcDbLine
 10
2080.011520346337
 20
-561.608736206254
 30
0.0
 11
2078.511520346337
 21
-561.608736206254
 31
0.0
  0
LINE
  5
1ADEF
330
18
100
AcDbEntity
  8
01
  6
BYBLOCK
100
AcDbLine
 10
2078.511520346337
 20
-586.5087362062541
 30
0.0
 11
2077.311520346337
 21
-586.5087362062541
 31
0.0
  0
ARC
  5
1ADF0
330
18
100
AcDbEntity
  8
01
  6
BYBLOCK
100
AcDbCircle
 10
2012.011520346337
 20
-590.5087362062541
 30
0.0
 40
1.0
100
AcDbArc
 50
90.0
 51
180.0
  0
LINE
  5
1ADF1
330
18
100
AcDbEntity
  8
01
  6
BYBLOCK
100
AcDbLine
 10
2077.311520346337
 20
-580.8087362062538
 30
0.0
 11
2077.311520346337
 21
-672.2087362062539
 31
0.0
  0
LINE
  5
1ADF2
330
18
100
AcDbEntity
  8
01
  6
BYBLOCK
100
AcDbLine
 10
2077.211520346337
 20
-690.5087362062541
 30
0.0
 11
2077.211520346337
 21
-673.9087362062539
 31
0.0
  0
LINE
  5
1ADF3
330
18
100
AcDbEntity
  8
01
  6
BYBLOCK
100
AcDbLine
 10
2077.211520346337
 20
-673.9087362062539
 30
0.0
 11
2078.160048483761
 21
-672.9602080688301
 31
0.0
  0
LINE
  5
1ADF4
330
18
100
AcDbEntity
  8
01
  6
BYBLOCK
100
AcDbLine
 10
2076.362992208914
 20
-673.1572643436778
 30
0.0
 11
2077.311520346337
 21
-672.2087362062539
 31
0.0
  0
ARC
  5
1ADF5
330
18
100
AcDbEntity
  8
01
  6
BYBLOCK
100
AcDbCircle
 10
2077.211520346337
 20
-674.0057924811017
 30
0.0
 40
1.2
100
AcDbArc
 50
134.9999999999616
 51
180.0
  0
ARC
  5
1ADF6
330
18
100
AcDbEntity
  8
01
  6
BYBLOCK
100
AcDbCircle
 10
2077.311520346337
 20
-672.1116799314061
 30
0.0
 40
1.2
100
AcDbArc
 50
314.9999999999616
 51
0.0
  0
LINE
  5
1ADF7
330
18
100
AcDbEntity
  8
01
  6
BYBLOCK
100
AcDbLine
 10
2076.011520346337
 20
-562.5087362062541
 30
0.0
 11
2076.011520346337
 21
-579.0116799314062
 31
0.0
  0
LINE
  5
1ADF8
330
18
100
AcDbEntity
  8
01
  6
BYBLOCK
100
AcDbLine
 10
2077.211520346337
 20
-562.5087362062541
 30
0.0
 11
2077.211520346337
 21
-579.108736206254
 31
0.0
  0
LINE
  5
1ADF9
330
18
100
AcDbEntity
  8
01
  6
BYBLOCK
100
AcDbLine
 10
2077.211520346337
 20
-579.108736206254
 30
0.0
 11
2078.160048483761
 21
-580.0572643436778
 31
0.0
  0
LINE
  5
1ADFA
330
18
100
AcDbEntity
  8
01
  6
BYBLOCK
100
AcDbLine
 10
2076.362992208914
 20
-579.8602080688302
 30
0.0
 11
2077.311520346337
 21
-580.808736206254
 31
0.0
  0
ARC
  5
1ADFB
330
18
100
AcDbEntity
  8
01
  6
BYBLOCK
100
AcDbCircle
 10
2077.211520346337
 20
-579.0116799314062
 30
0.0
 40
1.2
100
AcDbArc
 50
180.0
 51
225.0000000000384
  0
ARC
  5
1ADFC
330
18
100
AcDbEntity
  8
01
  6
BYBLOCK
100
AcDbCircle
 10
2077.311520346337
 20
-580.9057924811018
 30
0.0
 40
1.2
100
AcDbArc
 50
0.0
 51
45.00000000003838
  0
CIRCLE
  5
1ADFD
330
18
100
AcDbEntity
  8
01
  6
BYBLOCK
100
AcDbCircle
 10
2029.011520346337
 20
-597.5087362062541
 30
0.0
 40
4.75
  0
LINE
  5
1ADFE
330
18
100
AcDbEntity
  8
01
  6
BYBLOCK
100
AcDbLine
 10
2077.311520346337
 20
-663.5087362062543
 30
0.0
 11
2055.511520346333
 21
-663.5087362062541
 31
0.0
  0
LINE
  5
1ADFF
330
18
100
AcDbEntity
  8
01
  6
BYBLOCK
100
AcDbLine
 10
2032.617764930389
 20
-597.5087362062541
 30
0.0
 11
2029.011520346337
 21
-593.9024916222027
 31
0.0
  0
LINE
  5
1AE00
330
18
100
AcDbEntity
  8
01
  6
BYBLOCK
100
AcDbLine
 10
2025.405275762285
 20
-597.5087362062541
 30
0.0
 11
2029.011520346337
 21
-593.9024916222027
 31
0.0
  0
LINE
  5
1AE01
330
18
100
AcDbEntity
  8
01
  6
BYBLOCK
100
AcDbLine
 10
2032.617764930389
 20
-597.5087362062541
 30
0.0
 11
2029.011520346337
 21
-601.1149807903053
 31
0.0
  0
LINE
  5
1AE02
330
18
100
AcDbEntity
  8
01
  6
BYBLOCK
100
AcDbLine
 10
2025.405275762285
 20
-597.5087362062541
 30
0.0
 11
2029.011520346337
 21
-601.1149807903053
 31
0.0
  0
LINE
  5
1AE03
330
18
100
AcDbEntity
  8
01
  6
BYBLOCK
100
AcDbLine
 10
2091.011520346337
 20
-616.477065939238
 30
0.0
 11
2091.011520346337
 21
-634.5404064732438
 31
0.0
  0
LINE
  5
1AE04
330
18
100
AcDbEntity
  8
01
  6
BYBLOCK
100
AcDbLine
 10
2086.718627127524
 20
-615.5087362062409
 30
0.0
 11
2080.011520346337
 21
-615.5087362062409
 31
0.0
  0
LINE
  5
1AE05
330
18
100
AcDbEntity
  8
01
  6
BYBLOCK
100
AcDbLine
 10
2086.718627127524
 20
-635.5087362062409
 30
0.0
 11
2080.011520346337
 21
-635.5087362062409
 31
0.0
  0
LINE
  5
1AE06
330
18
100
AcDbEntity
  8
01
100
AcDbLine
 10
2085.01152034605
 20
-683.5087362059653
 30
0.0
 11
2071.01152034605
 21
-683.5087362059653
 31
0.0
  0
LINE
  5
1AE07
330
18
100
AcDbEntity
  8
01
100
AcDbLine
 10
2059.011520346337
 20
-647.5087362062541
 30
0.0
 11
1999.011520346337
 21
-647.5087362062541
 31
0.0
  0
LINE
  5
1AE08
330
18
100
AcDbEntity
  8
01
100
AcDbLine
 10
2029.011520346337
 20
-617.5087362062541
 30
0.0
 11
2029.011520346337
 21
-677.5087362062541
 31
0.0
  0
LINE
  5
1AE09
330
18
100
AcDbEntity
  8
01
  6
BYBLOCK
100
AcDbLine
 10
2011.011520346337
 20
-590.5087362062541
 30
0.0
 11
2011.011520346337
 21
-612.0087360021269
 31
0.0
  0
LINE
  5
1AE0A
330
18
100
AcDbEntity
  8
01
  6
BYBLOCK
100
AcDbLine
 10
2077.311520346337
 20
-589.5087362062541
 30
0.0
 11
2049.011520346335
 21
-589.5087362062541
 31
0.0
  0
LINE
  5
1AE0B
330
18
100
AcDbEntity
  8
01
  6
BYBLOCK
100
AcDbLine
 10
2049.011520346335
 20
-589.5087362062541
 30
0.0
 11
2012.011520346337
 21
-589.5087362062541
 31
0.0
  0
LINE
  5
1AE0C
330
18
100
AcDbEntity
  8
01
  6
BYBLOCK
100
AcDbLine
 10
2011.011520346334
 20
-612.0087360021269
 30
0.0
 11
2011.011520346334
 21
-621.0087362062559
 31
0.0
  0
TEXT
  5
1AE0D
330
18
100
AcDbEntity
  8
1TEXT
100
AcDbText
 10
2011.011532346337
 20
-366.0087362062541
 30
0.0
 40
20.0
  1
1-GHT-X-LJ-2
100
AcDbText
  0
LINE
  5
1AE0E
330
18
100
AcDbEntity
  8
01
100
AcDbLine
 10
1915.011519519728
 20
-659.510054519357
 30
0.0
 11
2054.511519519728
 21
-659.5100545193573
 31
0.0
  0
ARC
  5
1AE0F
330
18
100
AcDbEntity
  8
01
100
AcDbCircle
 10
1915.011519519728
 20
-658.510054519357
 30
0.0
 40
1.0
100
AcDbArc
 50
180.0
 51
270.0
  0
LINE
  5
1AE10
330
18
100
AcDbEntity
  8
01
100
AcDbLine
 10
1914.011519519728
 20
-658.510054519357
 30
0.0
 11
1914.011519519728
 21
-636.510054519357
 31
0.0
  0
ARC
  5
1AE11
330
18
100
AcDbEntity
  8
01
100
AcDbCircle
 10
1915.011519519728
 20
-636.510054519357
 30
0.0
 40
1.0
100
AcDbArc
 50
90.0
 51
180.0
  0
LINE
  5
1AE12
330
18
100
AcDbEntity
  8
01
100
AcDbLine
 10
2055.511519519728
 20
-658.5100545193573
 30
0.0
 11
2055.511519519728
 21
-636.5100545193573
 31
0.0
  0
ARC
  5
1AE13
330
18
100
AcDbEntity
  8
01
100
AcDbCircle
 10
2054.511519519728
 20
-658.5100545193573
 30
0.0
 40
1.0
100
AcDbArc
 50
270.0
 51
0.0
  0
LINE
  5
1AE14
330
18
100
AcDbEntity
  8
01
100
AcDbLine
 10
1915.011519519728
 20
-635.510054519357
 30
0.0
 11
2054.511519519728
 21
-635.5100545193573
 31
0.0
  0
ARC
  5
1AE15
330
18
100
AcDbEntity
  8
01
100
AcDbCircle
 10
2054.511519519728
 20
-636.5100545193573
 30
0.0
 40
1.0
100
AcDbArc
 50
0.0
 51
90.0
  0
SPLINE
  5
1AE16
330
18
100
AcDbEntity
  8
01
100
AcDbSpline
210
0.0
220
0.0
230
1.0
 70
     8
 71
     3
 72
     9
 73
     5
 74
     0
 42
0.0000000001
 43
0.0000000001
 40
2.157351491937163
 40
2.157351491937163
 40
2.157351491937163
 40
2.157351491937163
 40
15.14258213632157
 40
26.21385198143475
 40
26.21385198143475
 40
26.21385198143475
 40
26.21385198143475
 10
2013.538009157092
 20
-659.5100545193573
 30
0.0
 10
2014.190346694884
 20
-655.2325154451328
 30
0.0
 10
2015.288277755989
 20
-647.2920431026278
 30
0.0
 10
2014.94811299473
 20
-639.1450358919838
 30
0.0
 10
2015.478449266001
 20
-635.5100545193573
 30
0.0
  0
SPLINE
  5
1AE17
330
18
100
AcDbEntity
  8
01
100
AcDbSpline
210
0.0
220
0.0
230
1.0
 70
     8
 71
     3
 72
    10
 73
     6
 74
     0
 42
0.0000000001
 43
0.0000000001
 40
0.7926682069600932
 40
0.7926682069600932
 40
0.7926682069600932
 40
0.7926682069600932
 40
3.694538041174608
 40
5.449085496492215
 40
25.28210754218233
 40
25.28210754218233
 40
25.28210754218233
 40
25.28210754218233
 10
1981.732290619032
 20
-659.510054519357
 30
0.0
 10
1981.107873276644
 20
-658.710530754807
 30
0.0
 10
1980.238412803301
 20
-657.3916641199373
 30
0.0
 10
1980.877291545193
 20
-649.0421049389713
 30
0.0
 10
1981.951451169958
 20
-641.9717155377609
 30
0.0
 10
1982.998394556154
 20
-635.510054519357
 30
0.0
  0
SPLINE
  5
1AE18
330
18
100
AcDbEntity
  8
01
100
AcDbSpline
210
0.0
220
0.0
230
1.0
 70
     8
 71
     3
 72
    10
 73
     6
 74
     0
 42
0.0000000001
 43
0.0000000001
 40
0.573966685473271
 40
0.573966685473271
 40
0.573966685473271
 40
0.573966685473271
 40
2.069915349509377
 40
4.311105269076966
 40
24.92825187245377
 40
24.92825187245377
 40
24.92825187245377
 40
24.92825187245377
 10
1977.53855257478
 20
-659.5100545193361
 30
0.0
 10
1977.823392121588
 20
-659.0900365869545
 30
0.0
 10
1978.465637939715
 20
-658.0176736313376
 30
0.0
 10
1978.580405489603
 20
-649.6738816368577
 30
0.0
 10
1979.889864498552
 20
-642.2145595187628
 30
0.0
 10
1981.146709775706
 20
-635.510054519357
 30
0.0
  0
SPLINE
  5
1AE19
330
18
100
AcDbEntity
  8
01
100
AcDbSpline
210
0.0
220
0.0
230
1.0
 70
     8
 71
     3
 72
     9
 73
     5
 74
     0
 42
0.0000000001
 43
0.0000000001
 40
2.157351491937623
 40
2.157351491937623
 40
2.157351491937623
 40
2.157351491937623
 40
15.14258213632157
 40
26.21385198143475
 40
26.21385198143475
 40
26.21385198143475
 40
26.21385198143475
 10
2007.538009157093
 20
-659.5100545193573
 30
0.0
 10
2008.190346694884
 20
-655.2325154451328
 30
0.0
 10
2009.288277755989
 20
-647.2920431026278
 30
0.0
 10
2008.94811299473
 20
-639.1450358919838
 30
0.0
 10
2009.478449266001
 20
-635.5100545193573
 30
0.0
  0
SPLINE
  5
1AE1A
330
18
100
AcDbEntity
  8
01
100
AcDbSpline
210
0.0
220
0.0
230
1.0
 70
     8
 71
     3
 72
     9
 73
     5
 74
     0
 42
0.0000000001
 43
0.0000000001
 40
1.353888130949001
 40
1.353888130949001
 40
1.353888130949001
 40
1.353888130949001
 40
23.19125161797683
 40
25.37936474040984
 40
25.37936474040984
 40
25.37936474040984
 40
25.37936474040984
 10
1950.509614579744
 20
-659.5100545193561
 30
0.0
 10
1951.035239975991
 20
-652.199517314855
 30
0.0
 10
1951.517179809548
 20
-644.1622201067737
 30
0.0
 10
1950.183267466782
 20
-636.2334543527138
 30
0.0
 10
1950.083362511595
 20
-635.510054519357
 30
0.0
  0
SPLINE
  5
1AE1B
330
18
100
AcDbEntity
  8
01
100
AcDbSpline
210
0.0
220
0.0
230
1.0
 70
     8
 71
     3
 72
     9
 73
     5
 74
     0
 42
0.0000000001
 43
0.0000000001
 40
1.018166423753047
 40
1.018166423753047
 40
1.018166423753047
 40
1.018166423753047
 40
14.56776095549139
 40
25.02827803206281
 40
25.02827803206281
 40
25.02827803206281
 40
25.02827803206281
 10
1948.10378248187
 20
-659.510054519357
 30
0.0
 10
1948.021661726033
 20
-654.9918299528206
 30
0.0
 10
1947.904943714047
 20
-646.9860530807862
 30
0.0
 10
1948.518447746351
 20
-638.9953309506307
 30
0.0
 10
1948.594240528249
 20
-635.510054519357
 30
0.0
  0
SPLINE
  5
1AE1C
330
18
100
AcDbEntity
  8
01
100
AcDbSpline
210
0.0
220
0.0
230
1.0
 70
     8
 71
     3
 72
     9
 73
     5
 74
     0
 42
0.0000000001
 43
0.0000000001
 40
2.15735149193757
 40
2.15735149193757
 40
2.15735149193757
 40
2.15735149193757
 40
15.14258213632157
 40
26.21385198143475
 40
26.21385198143475
 40
26.21385198143475
 40
26.21385198143475
 10
2026.270920684944
 20
-659.5100545193573
 30
0.0
 10
2026.923258222736
 20
-655.2325154451328
 30
0.0
 10
2028.021189283841
 20
-647.2920431026278
 30
0.0
 10
2027.681024522582
 20
-639.1450358919838
 30
0.0
 10
2028.211360793853
 20
-635.5100545193573
 30
0.0
  0
SPLINE
  5
1AE1D
330
18
100
AcDbEntity
  8
01
100
AcDbSpline
210
0.0
220
0.0
230
1.0
 70
     8
 71
     3
 72
     9
 73
     5
 74
     0
 42
0.0000000001
 43
0.0000000001
 40
2.15735149193757
 40
2.15735149193757
 40
2.15735149193757
 40
2.15735149193757
 40
15.14258213632157
 40
26.21385198143475
 40
26.21385198143475
 40
26.21385198143475
 40
26.21385198143475
 10
2022.108661108959
 20
-659.5100545193573
 30
0.0
 10
2022.76099864675
 20
-655.2325154451328
 30
0.0
 10
2023.858929707856
 20
-647.2920431026278
 30
0.0
 10
2023.518764946597
 20
-639.1450358919838
 30
0.0
 10
2024.049101217868
 20
-635.5100545193573
 30
0.0
  0
SPLINE
  5
1AE1E
330
18
100
AcDbEntity
  8
01
100
AcDbSpline
210
0.0
220
0.0
230
1.0
 70
     8
 71
     3
 72
     9
 73
     5
 74
     0
 42
0.0000000001
 43
0.0000000001
 40
2.15735149193757
 40
2.15735149193757
 40
2.15735149193757
 40
2.15735149193757
 40
15.14258213632157
 40
26.21385198143429
 40
26.21385198143429
 40
26.21385198143429
 40
26.21385198143429
 10
1922.569883529473
 20
-659.510054519357
 30
0.0
 10
1923.222221067265
 20
-655.2325154451325
 30
0.0
 10
1924.32015212837
 20
-647.2920431026275
 30
0.0
 10
1923.979987367111
 20
-639.1450358919835
 30
0.0
 10
1924.510323638382
 20
-635.5100545193579
 30
0.0
  0
SPLINE
  5
1AE1F
330
18
100
AcDbEntity
  8
01
100
AcDbSpline
210
0.0
220
0.0
230
1.0
 70
     8
 71
     3
 72
     9
 73
     5
 74
     0
 42
0.0000000001
 43
0.0000000001
 40
2.15735149193757
 40
2.15735149193757
 40
2.15735149193757
 40
2.15735149193757
 40
15.14258213632157
 40
26.21385198143429
 40
26.21385198143429
 40
26.21385198143429
 40
26.21385198143429
 10
1920.639165172331
 20
-659.510054519357
 30
0.0
 10
1921.291502710123
 20
-655.2325154451325
 30
0.0
 10
1922.389433771229
 20
-647.2920431026275
 30
0.0
 10
1922.04926900997
 20
-639.1450358919835
 30
0.0
 10
1922.579605281241
 20
-635.5100545193579
 30
0.0
  0
SPLINE
  5
1AE20
330
18
100
AcDbEntity
  8
01
100
AcDbSpline
210
0.0
220
0.0
230
1.0
 70
     8
 71
     3
 72
    10
 73
     6
 74
     0
 42
0.0000000001
 43
0.0000000001
 40
1.567863582061012
 40
1.567863582061012
 40
1.567863582061012
 40
1.567863582061012
 40
10.96218243120594
 40
22.08775219293939
 40
25.58355016120192
 40
25.58355016120192
 40
25.58355016120192
 40
25.58355016120192
 10
1957.897867660633
 20
-659.5100545193579
 30
0.0
 10
1958.088365832564
 20
-656.3806439666885
 30
0.0
 10
1958.443284376294
 20
-649.5453122504011
 30
0.0
 10
1957.765070355203
 20
-641.5490621386832
 30
0.0
 10
1957.754780531017
 20
-636.6754091204
 30
0.0
 10
1957.76147385225
 20
-635.510054519357
 30
0.0
  0
SPLINE
  5
1AE21
330
18
100
AcDbEntity
  8
01
100
AcDbSpline
210
0.0
220
0.0
230
1.0
 70
     8
 71
     3
 72
    10
 73
     6
 74
     0
 42
0.0000000001
 43
0.0000000001
 40
1.338343807819368
 40
1.338343807819368
 40
1.338343807819368
 40
1.338343807819368
 40
11.76292613365672
 40
24.22591331521301
 40
25.37808424940371
 40
25.37808424940371
 40
25.37808424940371
 40
25.37808424940371
 10
1964.212498098662
 20
-659.510054519357
 30
0.0
 10
1963.858463189124
 20
-656.042967748225
 30
0.0
 10
1963.167722815215
 20
-648.43068335981
 30
0.0
 10
1964.196575773312
 20
-640.4318958387146
 30
0.0
 10
1964.238376084767
 20
-635.8940972533098
 30
0.0
 10
1964.239389626456
 20
-635.5100545193579
 30
0.0
  0
SPLINE
  5
1AE22
330
18
100
AcDbEntity
  8
01
100
AcDbSpline
210
0.0
220
0.0
230
1.0
 70
     8
 71
     3
 72
    10
 73
     6
 74
     0
 42
0.0000000001
 43
0.0000000001
 40
1.567863582060758
 40
1.567863582060758
 40
1.567863582060758
 40
1.567863582060758
 40
10.96218243120594
 40
22.08775219293939
 40
25.5835501612022
 40
25.5835501612022
 40
25.5835501612022
 40
25.5835501612022
 10
1941.885560835204
 20
-659.510054519357
 30
0.0
 10
1942.076059007135
 20
-656.3806439666885
 30
0.0
 10
1942.430977550864
 20
-649.545312250402
 30
0.0
 10
1941.752763529773
 20
-641.5490621386832
 30
0.0
 10
1941.742473705587
 20
-636.6754091204009
 30
0.0
 10
1941.74916702682
 20
-635.510054519357
 30
0.0
  0
SPLINE
  5
1AE23
330
18
100
AcDbEntity
  8
01
100
AcDbSpline
210
0.0
220
0.0
230
1.0
 70
     8
 71
     3
 72
    10
 73
     6
 74
     0
 42
0.0000000001
 43
0.0000000001
 40
1.338343807819191
 40
1.338343807819191
 40
1.338343807819191
 40
1.338343807819191
 40
11.76292613365672
 40
24.22591331521301
 40
25.37808424940334
 40
25.37808424940334
 40
25.37808424940334
 40
25.37808424940334
 10
1944.48719173962
 20
-659.510054519357
 30
0.0
 10
1944.133156830082
 20
-656.042967748225
 30
0.0
 10
1943.442416456173
 20
-648.4306833598109
 30
0.0
 10
1944.471269414269
 20
-640.4318958387146
 30
0.0
 10
1944.513069725724
 20
-635.8940972533098
 30
0.0
 10
1944.514083267413
 20
-635.5100545193579
 30
0.0
  0
SPLINE
  5
1AE24
330
18
100
AcDbEntity
  8
01
100
AcDbSpline
210
0.0
220
0.0
230
1.0
 70
     8
 71
     3
 72
    10
 73
     6
 74
     0
 42
0.0000000001
 43
0.0000000001
 40
1.567863582060758
 40
1.567863582060758
 40
1.567863582060758
 40
1.567863582060758
 40
10.96218243120594
 40
22.08775219293939
 40
25.58355016120244
 40
25.58355016120244
 40
25.58355016120244
 40
25.58355016120244
 10
1986.789641759177
 20
-659.510054519357
 30
0.0
 10
1986.980139931108
 20
-656.3806439666885
 30
0.0
 10
1987.335058474837
 20
-649.545312250402
 30
0.0
 10
1986.656844453746
 20
-641.5490621386832
 30
0.0
 10
1986.646554629561
 20
-636.6754091204
 30
0.0
 10
1986.653247950794
 20
-635.510054519357
 30
0.0
  0
SPLINE
  5
1AE25
330
18
100
AcDbEntity
  8
01
100
AcDbSpline
210
0.0
220
0.0
230
1.0
 70
     8
 71
     3
 72
    10
 73
     6
 74
     0
 42
0.0000000001
 43
0.0000000001
 40
1.338343807819462
 40
1.338343807819462
 40
1.338343807819462
 40
1.338343807819462
 40
11.76292613365672
 40
24.22591331521301
 40
25.37808424940419
 40
25.37808424940419
 40
25.37808424940419
 40
25.37808424940419
 10
1989.391272663593
 20
-659.5100545193563
 30
0.0
 10
1989.037237754055
 20
-656.0429677482252
 30
0.0
 10
1988.346497380147
 20
-648.4306833598109
 30
0.0
 10
1989.375350338243
 20
-640.4318958387139
 30
0.0
 10
1989.417150649698
 20
-635.8940972533101
 30
0.0
 10
1989.418164191387
 20
-635.5100545193573
 30
0.0
  0
SPLINE
  5
1AE26
330
18
100
AcDbEntity
  8
01
100
AcDbSpline
210
0.0
220
0.0
230
1.0
 70
     8
 71
     3
 72
    10
 73
     6
 74
     0
 42
0.0000000001
 43
0.0000000001
 40
1.875535472082158
 40
1.875535472082158
 40
1.875535472082158
 40
1.875535472082158
 40
3.694538041174583
 40
5.44908549649201
 40
26.12304529921846
 40
26.12304529921846
 40
26.12304529921846
 40
26.12304529921846
 10
2042.821873149549
 20
-635.5100545193563
 30
0.0
 10
2043.195016498561
 20
-635.9963187903686
 30
0.0
 10
2043.78171498937
 20
-637.006336583986
 30
0.0
 10
2043.919279834617
 20
-645.2964353357529
 30
0.0
 10
2043.468298953936
 20
-652.7043691654653
 30
0.0
 10
2043.002081167805
 20
-659.5100545193563
 30
0.0
  0
SPLINE
  5
1AE27
330
18
100
AcDbEntity
  8
01
100
AcDbSpline
210
0.0
220
0.0
230
1.0
 70
     8
 71
     3
 72
    10
 73
     6
 74
     0
 42
0.0000000001
 43
0.0000000001
 40
0.9336211519065216
 40
0.9336211519065216
 40
0.9336211519065216
 40
0.9336211519065216
 40
2.069915349509438
 40
4.311105269077146
 40
25.02010888607616
 40
25.02010888607616
 40
25.02010888607616
 40
25.02010888607616
 10
2047.67580573843
 20
-635.5100545193582
 30
0.0
 10
2047.503662549743
 20
-635.8509761144951
 30
0.0
 10
2047.071467755395
 20
-636.8828007092934
 30
0.0
 10
2047.724458009375
 20
-645.1097518208408
 30
0.0
 10
2047.105649293776
 20
-652.6877095290138
 30
0.0
 10
2046.473105168558
 20
-659.5100545193573
 30
0.0
  0
SPLINE
  5
1AE28
330
18
100
AcDbEntity
  8
01
100
AcDbSpline
210
0.0
220
0.0
230
1.0
 70
     8
 71
     3
 72
     9
 73
     5
 74
     0
 42
0.0000000001
 43
0.0000000001
 40
2.157351491937163
 40
2.157351491937163
 40
2.157351491937163
 40
2.157351491937163
 40
15.14258213632157
 40
26.21385198143429
 40
26.21385198143429
 40
26.21385198143429
 40
26.21385198143429
 10
1971.003473425683
 20
-659.510054519357
 30
0.0
 10
1971.655810963475
 20
-655.2325154451325
 30
0.0
 10
1972.75374202458
 20
-647.2920431026275
 30
0.0
 10
1972.413577263322
 20
-639.1450358919844
 30
0.0
 10
1972.943913534592
 20
-635.5100545193579
 30
0.0
  0
SPLINE
  5
1AE29
330
18
100
AcDbEntity
  8
01
100
AcDbSpline
210
0.0
220
0.0
230
1.0
 70
     8
 71
     3
 72
     9
 73
     5
 74
     0
 42
0.0000000001
 43
0.0000000001
 40
2.15735149193757
 40
2.15735149193757
 40
2.15735149193757
 40
2.15735149193757
 40
15.14258213632157
 40
26.21385198143429
 40
26.21385198143429
 40
26.21385198143429
 40
26.21385198143429
 10
1968.828385407034
 20
-659.510054519357
 30
0.0
 10
1969.480722944826
 20
-655.2325154451325
 30
0.0
 10
1970.578654005931
 20
-647.2920431026275
 30
0.0
 10
1970.238489244672
 20
-639.1450358919835
 30
0.0
 10
1970.768825515943
 20
-635.5100545193579
 30
0.0
  0
SPLINE
  5
1AE2A
330
18
100
AcDbEntity
  8
01
100
AcDbSpline
210
0.0
220
0.0
230
1.0
 70
     8
 71
     3
 72
    10
 73
     6
 74
     0
 42
0.0000000001
 43
0.0000000001
 40
1.567863582061012
 40
1.567863582061012
 40
1.567863582061012
 40
1.567863582061012
 40
10.96218243120594
 40
22.08775219293939
 40
25.58355016120268
 40
25.58355016120268
 40
25.58355016120268
 40
25.58355016120268
 10
2050.17401306466
 20
-659.5100545193582
 30
0.0
 10
2050.36451123659
 20
-656.3806439666887
 30
0.0
 10
2050.719429780319
 20
-649.5453122504014
 30
0.0
 10
2050.041215759229
 20
-641.5490621386834
 30
0.0
 10
2050.030925935043
 20
-636.6754091204002
 30
0.0
 10
2050.037619256277
 20
-635.5100545193563
 30
0.0
  0
SPLINE
  5
1AE2B
330
18
100
AcDbEntity
  8
01
100
AcDbSpline
210
0.0
220
0.0
230
1.0
 70
     8
 71
     3
 72
    10
 73
     6
 74
     0
 42
0.0000000001
 43
0.0000000001
 40
1.338343807819557
 40
1.338343807819557
 40
1.338343807819557
 40
1.338343807819557
 40
11.76292613365672
 40
24.22591331521301
 40
25.37808424940378
 40
25.37808424940378
 40
25.37808424940378
 40
25.37808424940378
 10
2053.478406394326
 20
-659.5100545193573
 30
0.0
 10
2053.124371484787
 20
-656.0429677482261
 30
0.0
 10
2052.43363111088
 20
-648.4306833598112
 30
0.0
 10
2053.462484068976
 20
-640.4318958387148
 30
0.0
 10
2053.504284380431
 20
-635.8940972533101
 30
0.0
 10
2053.50529792212
 20
-635.5100545193573
 30
0.0
  0
SPLINE
  5
1AE2C
330
18
100
AcDbEntity
  8
01
100
AcDbSpline
210
0.0
220
0.0
230
1.0
 70
     8
 71
     3
 72
     9
 73
     5
 74
     0
 42
0.0000000001
 43
0.0000000001
 40
1.35388813094919
 40
1.35388813094919
 40
1.35388813094919
 40
1.35388813094919
 40
23.19125161797683
 40
25.37936474040983
 40
25.37936474040983
 40
25.37936474040983
 40
25.37936474040983
 10
2002.529817685676
 20
-659.5100545193563
 30
0.0
 10
2003.055443081924
 20
-652.1995173148562
 30
0.0
 10
2003.537382915483
 20
-644.1622201067739
 30
0.0
 10
2002.203470572715
 20
-636.233454352714
 30
0.0
 10
2002.103565617528
 20
-635.5100545193573
 30
0.0
  0
SPLINE
  5
1AE2D
330
18
100
AcDbEntity
  8
01
100
AcDbSpline
210
0.0
220
0.0
230
1.0
 70
     8
 71
     3
 72
     9
 73
     5
 74
     0
 42
0.0000000001
 43
0.0000000001
 40
1.018166423753492
 40
1.018166423753492
 40
1.018166423753492
 40
1.018166423753492
 40
14.56776095549139
 40
25.02827803206339
 40
25.02827803206339
 40
25.02827803206339
 40
25.02827803206339
 10
1997.155090495598
 20
-659.5100545193573
 30
0.0
 10
1997.072969739761
 20
-654.9918299528199
 30
0.0
 10
1996.956251727774
 20
-646.9860530807864
 30
0.0
 10
1997.569755760079
 20
-638.9953309506309
 30
0.0
 10
1997.645548541977
 20
-635.5100545193582
 30
0.0
  0
SPLINE
  5
1AE2E
330
18
100
AcDbEntity
  8
01
100
AcDbSpline
210
0.0
220
0.0
230
1.0
 70
     8
 71
     3
 72
    10
 73
     6
 74
     0
 42
0.0000000001
 43
0.0000000001
 40
0.4906281338315986
 40
0.4906281338315986
 40
0.4906281338315986
 40
0.4906281338315986
 40
10.96218243120594
 40
22.08775219293939
 40
24.50705198046215
 40
24.50705198046215
 40
24.50705198046215
 40
24.50705198046215
 10
1927.664612547261
 20
-659.510054519357
 30
0.0
 10
1927.881655605022
 20
-656.0217828579996
 30
0.0
 10
1928.306835374882
 20
-648.8274477776838
 30
0.0
 10
1927.628600533018
 20
-640.8309521857798
 30
0.0
 10
1927.591607563937
 20
-636.3164854123277
 30
0.0
 10
1927.591428579852
 20
-635.510054519357
 30
0.0
  0
SPLINE
  5
1AE2F
330
18
100
AcDbEntity
  8
01
100
AcDbSpline
210
0.0
220
0.0
230
1.0
 70
     8
 71
     3
 72
    10
 73
     6
 74
     0
 42
0.0000000001
 43
0.0000000001
 40
0.2593880031350766
 40
0.2593880031350766
 40
0.2593880031350766
 40
0.2593880031350766
 40
11.76292613365672
 40
24.22591331521301
 40
24.30139570689494
 40
24.30139570689494
 40
24.30139570689494
 40
24.30139570689494
 10
1934.15648299725
 20
-659.510054519357
 30
0.0
 10
1933.760429640143
 20
-655.6841305340547
 30
0.0
 10
1932.954675032783
 20
-647.7131461209208
 30
0.0
 10
1933.98362502518
 20
-639.7136042094651
 30
0.0
 10
1934.061511693822
 20
-635.5352089553123
 30
0.0
 10
1934.061964331003
 20
-635.510054519357
 30
0.0
  0
SPLINE
  5
1AE30
330
18
100
AcDbEntity
  8
1DIM
100
AcDbSpline
210
0.0
220
0.0
230
1.0
 70
     8
 71
     3
 72
     9
 73
     5
 74
     0
 42
0.0000000001
 43
0.0000000001
 40
2.15735149193757
 40
2.15735149193757
 40
2.15735149193757
 40
2.15735149193757
 40
15.14258213632157
 40
26.21385198143429
 40
26.21385198143429
 40
26.21385198143429
 40
26.21385198143429
 10
1918.041088960971
 20
-659.510054519357
 30
0.0
 10
1918.693426498763
 20
-655.2325154451325
 30
0.0
 10
1919.791357559868
 20
-647.2920431026275
 30
0.0
 10
1919.451192798609
 20
-639.1450358919835
 30
0.0
 10
1919.981529069879
 20
-635.5100545193579
 30
0.0
  0
SPLINE
  5
1AE31
330
18
100
AcDbEntity
  8
1DIM
100
AcDbSpline
210
0.0
220
0.0
230
1.0
 70
     8
 71
     3
 72
     9
 73
     5
 74
     0
 42
0.0000000001
 43
0.0000000001
 40
2.15735149193757
 40
2.15735149193757
 40
2.15735149193757
 40
2.15735149193757
 40
15.14258213632157
 40
26.21385198143429
 40
26.21385198143429
 40
26.21385198143429
 40
26.21385198143429
 10
1924.228195924652
 20
-659.510054519357
 30
0.0
 10
1924.880533462444
 20
-655.2325154451325
 30
0.0
 10
1925.97846452355
 20
-647.2920431026275
 30
0.0
 10
1925.63829976229
 20
-639.1450358919835
 30
0.0
 10
1926.16863603356
 20
-635.5100545193579
 30
0.0
  0
SPLINE
  5
1AE32
330
18
100
AcDbEntity
  8
1DIM
100
AcDbSpline
210
0.0
220
0.0
230
1.0
 70
     8
 71
     3
 72
    10
 73
     6
 74
     0
 42
0.0000000001
 43
0.0000000001
 40
0.4906281338315986
 40
0.4906281338315986
 40
0.4906281338315986
 40
0.4906281338315986
 40
10.96218243120594
 40
22.08775219293939
 40
24.50705198046215
 40
24.50705198046215
 40
24.50705198046215
 40
24.50705198046215
 10
1926.341736891728
 20
-659.510054519357
 30
0.0
 10
1926.558779949489
 20
-656.0217828579996
 30
0.0
 10
1926.983959719349
 20
-648.8274477776838
 30
0.0
 10
1926.305724877485
 20
-640.8309521857798
 30
0.0
 10
1926.268731908405
 20
-636.3164854123277
 30
0.0
 10
1926.268552924319
 20
-635.510054519357
 30
0.0
  0
SPLINE
  5
1AE33
330
18
100
AcDbEntity
  8
1DIM
100
AcDbSpline
210
0.0
220
0.0
230
1.0
 70
     8
 71
     3
 72
    10
 73
     6
 74
     0
 42
0.0000000001
 43
0.0000000001
 40
0.2593880031350766
 40
0.2593880031350766
 40
0.2593880031350766
 40
0.2593880031350766
 40
11.76292613365672
 40
24.22591331521301
 40
24.30139570689494
 40
24.30139570689494
 40
24.30139570689494
 40
24.30139570689494
 10
1936.754559208609
 20
-659.510054519357
 30
0.0
 10
1936.358505851503
 20
-655.6841305340547
 30
0.0
 10
1935.552751244144
 20
-647.7131461209208
 30
0.0
 10
1936.58170123654
 20
-639.7136042094651
 30
0.0
 10
1936.659587905182
 20
-635.5352089553123
 30
0.0
 10
1936.660040542364
 20
-635.510054519357
 30
0.0
  0
SPLINE
  5
1AE34
330
18
100
AcDbEntity
  8
1DIM
100
AcDbSpline
210
0.0
220
0.0
230
1.0
 70
     8
 71
     3
 72
    10
 73
     6
 74
     0
 42
0.0000000001
 43
0.0000000001
 40
1.567863582060758
 40
1.567863582060758
 40
1.567863582060758
 40
1.567863582060758
 40
10.96218243120594
 40
22.08775219293939
 40
25.5835501612022
 40
25.5835501612022
 40
25.5835501612022
 40
25.5835501612022
 10
1940.56268517967
 20
-659.510054519357
 30
0.0
 10
1940.753183351602
 20
-656.3806439666885
 30
0.0
 10
1941.108101895331
 20
-649.545312250402
 30
0.0
 10
1940.42988787424
 20
-641.5490621386832
 30
0.0
 10
1940.419598050054
 20
-636.6754091204009
 30
0.0
 10
1940.426291371288
 20
-635.510054519357
 30
0.0
  0
SPLINE
  5
1AE35
330
18
100
AcDbEntity
  8
1DIM
100
AcDbSpline
210
0.0
220
0.0
230
1.0
 70
     8
 71
     3
 72
    10
 73
     6
 74
     0
 42
0.0000000001
 43
0.0000000001
 40
1.338343807819191
 40
1.338343807819191
 40
1.338343807819191
 40
1.338343807819191
 40
11.76292613365672
 40
24.22591331521301
 40
25.37808424940334
 40
25.37808424940334
 40
25.37808424940334
 40
25.37808424940334
 10
1946.145504134796
 20
-659.510054519357
 30
0.0
 10
1945.791469225258
 20
-656.042967748225
 30
0.0
 10
1945.10072885135
 20
-648.4306833598109
 30
0.0
 10
1946.129581809446
 20
-640.4318958387146
 30
0.0
 10
1946.171382120901
 20
-635.8940972533098
 30
0.0
 10
1946.17239566259
 20
-635.5100545193579
 30
0.0
  0
SPLINE
  5
1AE36
330
18
100
AcDbEntity
  8
1DIM
100
AcDbSpline
210
0.0
220
0.0
230
1.0
 70
     8
 71
     3
 72
     9
 73
     5
 74
     0
 42
0.0000000001
 43
0.0000000001
 40
1.018166423753047
 40
1.018166423753047
 40
1.018166423753047
 40
1.018166423753047
 40
14.56776095549139
 40
25.02827803206281
 40
25.02827803206281
 40
25.02827803206281
 40
25.02827803206281
 10
1946.985748493105
 20
-659.510054519357
 30
0.0
 10
1946.903627737269
 20
-654.9918299528206
 30
0.0
 10
1946.786909725283
 20
-646.9860530807862
 30
0.0
 10
1947.400413757586
 20
-638.9953309506307
 30
0.0
 10
1947.476206539485
 20
-635.510054519357
 30
0.0
  0
SPLINE
  5
1AE37
330
18
100
AcDbEntity
  8
1DIM
100
AcDbSpline
210
0.0
220
0.0
230
1.0
 70
     8
 71
     3
 72
     9
 73
     5
 74
     0
 42
0.0000000001
 43
0.0000000001
 40
1.353888130949001
 40
1.353888130949001
 40
1.353888130949001
 40
1.353888130949001
 40
23.19125161797683
 40
25.37936474040984
 40
25.37936474040984
 40
25.37936474040984
 40
25.37936474040984
 10
1953.107690791104
 20
-659.5100545193561
 30
0.0
 10
1953.633316187351
 20
-652.199517314855
 30
0.0
 10
1954.115256020909
 20
-644.1622201067737
 30
0.0
 10
1952.781343678143
 20
-636.2334543527138
 30
0.0
 10
1952.681438722956
 20
-635.510054519357
 30
0.0
  0
SPLINE
  5
1AE38
330
18
100
AcDbEntity
  8
1DIM
100
AcDbSpline
210
0.0
220
0.0
230
1.0
 70
     8
 71
     3
 72
    10
 73
     6
 74
     0
 42
0.0000000001
 43
0.0000000001
 40
1.567863582061012
 40
1.567863582061012
 40
1.567863582061012
 40
1.567863582061012
 40
10.96218243120594
 40
22.08775219293939
 40
25.58355016120192
 40
25.58355016120192
 40
25.58355016120192
 40
25.58355016120192
 10
1955.299791449273
 20
-659.5100545193579
 30
0.0
 10
1955.490289621203
 20
-656.3806439666885
 30
0.0
 10
1955.845208164933
 20
-649.5453122504011
 30
0.0
 10
1955.166994143843
 20
-641.5490621386832
 30
0.0
 10
1955.156704319656
 20
-636.6754091204
 30
0.0
 10
1955.16339764089
 20
-635.510054519357
 30
0.0
  0
SPLINE
  5
1AE39
330
18
100
AcDbEntity
  8
1DIM
100
AcDbSpline
210
0.0
220
0.0
230
1.0
 70
     8
 71
     3
 72
    10
 73
     6
 74
     0
 42
0.0000000001
 43
0.0000000001
 40
1.338343807819368
 40
1.338343807819368
 40
1.338343807819368
 40
1.338343807819368
 40
11.76292613365672
 40
24.22591331521301
 40
25.37808424940371
 40
25.37808424940371
 40
25.37808424940371
 40
25.37808424940371
 10
1965.87081049384
 20
-659.510054519357
 30
0.0
 10
1965.516775584302
 20
-656.042967748225
 30
0.0
 10
1964.826035210394
 20
-648.43068335981
 30
0.0
 10
1965.854888168491
 20
-640.4318958387146
 30
0.0
 10
1965.896688479945
 20
-635.8940972533098
 30
0.0
 10
1965.897702021634
 20
-635.5100545193579
 30
0.0
  0
SPLINE
  5
1AE3A
330
18
100
AcDbEntity
  8
1DIM
100
AcDbSpline
210
0.0
220
0.0
230
1.0
 70
     8
 71
     3
 72
     9
 73
     5
 74
     0
 42
0.0000000001
 43
0.0000000001
 40
2.15735149193757
 40
2.15735149193757
 40
2.15735149193757
 40
2.15735149193757
 40
15.14258213632157
 40
26.21385198143429
 40
26.21385198143429
 40
26.21385198143429
 40
26.21385198143429
 10
1967.71035141827
 20
-659.510054519357
 30
0.0
 10
1968.362688956061
 20
-655.2325154451325
 30
0.0
 10
1969.460620017167
 20
-647.2920431026275
 30
0.0
 10
1969.120455255908
 20
-639.1450358919835
 30
0.0
 10
1969.650791527179
 20
-635.5100545193579
 30
0.0
  0
SPLINE
  5
1AE3B
330
18
100
AcDbEntity
  8
1DIM
100
AcDbSpline
210
0.0
220
0.0
230
1.0
 70
     8
 71
     3
 72
     9
 73
     5
 74
     0
 42
0.0000000001
 43
0.0000000001
 40
2.157351491937163
 40
2.157351491937163
 40
2.157351491937163
 40
2.157351491937163
 40
15.14258213632157
 40
26.21385198143429
 40
26.21385198143429
 40
26.21385198143429
 40
26.21385198143429
 10
1972.661785820861
 20
-659.510054519357
 30
0.0
 10
1973.314123358653
 20
-655.2325154451325
 30
0.0
 10
1974.412054419759
 20
-647.2920431026275
 30
0.0
 10
1974.0718896585
 20
-639.1450358919844
 30
0.0
 10
1974.602225929771
 20
-635.5100545193579
 30
0.0
  0
SPLINE
  5
1AE3C
330
18
100
AcDbEntity
  8
1DIM
100
AcDbSpline
210
0.0
220
0.0
230
1.0
 70
     8
 71
     3
 72
    10
 73
     6
 74
     0
 42
0.0000000001
 43
0.0000000001
 40
0.573966685473271
 40
0.573966685473271
 40
0.573966685473271
 40
0.573966685473271
 40
2.069915349509377
 40
4.311105269076966
 40
24.92825187245377
 40
24.92825187245377
 40
24.92825187245377
 40
24.92825187245377
 10
1976.215676919247
 20
-659.5100545193361
 30
0.0
 10
1976.500516466056
 20
-659.0900365869545
 30
0.0
 10
1977.142762284182
 20
-658.0176736313376
 30
0.0
 10
1977.25752983407
 20
-649.6738816368577
 30
0.0
 10
1978.56698884302
 20
-642.2145595187628
 30
0.0
 10
1979.823834120174
 20
-635.510054519357
 30
0.0
  0
SPLINE
  5
1AE3D
330
18
100
AcDbEntity
  8
1DIM
100
AcDbSpline
210
0.0
220
0.0
230
1.0
 70
     8
 71
     3
 72
    10
 73
     6
 74
     0
 42
0.0000000001
 43
0.0000000001
 40
0.7926682069600932
 40
0.7926682069600932
 40
0.7926682069600932
 40
0.7926682069600932
 40
3.694538041174608
 40
5.449085496492215
 40
25.28210754218233
 40
25.28210754218233
 40
25.28210754218233
 40
25.28210754218233
 10
1983.390603014211
 20
-659.510054519357
 30
0.0
 10
1982.766185671822
 20
-658.710530754807
 30
0.0
 10
1981.896725198479
 20
-657.3916641199373
 30
0.0
 10
1982.535603940372
 20
-649.0421049389713
 30
0.0
 10
1983.609763565135
 20
-641.9717155377609
 30
0.0
 10
1984.656706951333
 20
-635.510054519357
 30
0.0
  0
SPLINE
  5
1AE3E
330
18
100
AcDbEntity
  8
1DIM
100
AcDbSpline
210
0.0
220
0.0
230
1.0
 70
     8
 71
     3
 72
    10
 73
     6
 74
     0
 42
0.0000000001
 43
0.0000000001
 40
1.567863582060758
 40
1.567863582060758
 40
1.567863582060758
 40
1.567863582060758
 40
10.96218243120594
 40
22.08775219293939
 40
25.58355016120244
 40
25.58355016120244
 40
25.58355016120244
 40
25.58355016120244
 10
1985.671607770413
 20
-659.510054519357
 30
0.0
 10
1985.862105942344
 20
-656.3806439666885
 30
0.0
 10
1986.217024486073
 20
-649.545312250402
 30
0.0
 10
1985.538810464981
 20
-641.5490621386832
 30
0.0
 10
1985.528520640797
 20
-636.6754091204
 30
0.0
 10
1985.53521396203
 20
-635.510054519357
 30
0.0
  0
SPLINE
  5
1AE3F
330
18
100
AcDbEntity
  8
1DIM
100
AcDbSpline
210
0.0
220
0.0
230
1.0
 70
     8
 71
     3
 72
    10
 73
     6
 74
     0
 42
0.0000000001
 43
0.0000000001
 40
1.338343807819462
 40
1.338343807819462
 40
1.338343807819462
 40
1.338343807819462
 40
11.76292613365672
 40
24.22591331521301
 40
25.37808424940419
 40
25.37808424940419
 40
25.37808424940419
 40
25.37808424940419
 10
1991.570722135364
 20
-659.5100545193582
 30
0.0
 10
1991.216687225825
 20
-656.042967748227
 30
0.0
 10
1990.525946851918
 20
-648.4306833598121
 30
0.0
 10
1991.554799810013
 20
-640.4318958387157
 30
0.0
 10
1991.596600121469
 20
-635.894097253311
 30
0.0
 10
1991.597613663158
 20
-635.5100545193591
 30
0.0
  0
SPLINE
  5
1AE40
330
18
100
AcDbEntity
  8
1DIM
100
AcDbSpline
210
0.0
220
0.0
230
1.0
 70
     8
 71
     3
 72
     9
 73
     5
 74
     0
 42
0.0000000001
 43
0.0000000001
 40
1.018166423753492
 40
1.018166423753492
 40
1.018166423753492
 40
1.018166423753492
 40
14.56776095549139
 40
25.02827803206339
 40
25.02827803206339
 40
25.02827803206339
 40
25.02827803206339
 10
1994.557014284237
 20
-659.5100545193609
 30
0.0
 10
1994.4748935284
 20
-654.9918299528235
 30
0.0
 10
1994.358175516414
 20
-646.98605308079
 30
0.0
 10
1994.971679548719
 20
-638.9953309506345
 30
0.0
 10
1995.047472330616
 20
-635.5100545193618
 30
0.0
  0
SPLINE
  5
1AE41
330
18
100
AcDbEntity
  8
1DIM
100
AcDbSpline
210
0.0
220
0.0
230
1.0
 70
     8
 71
     3
 72
     9
 73
     5
 74
     0
 42
0.0000000001
 43
0.0000000001
 40
1.35388813094919
 40
1.35388813094919
 40
1.35388813094919
 40
1.35388813094919
 40
23.19125161797683
 40
25.37936474040983
 40
25.37936474040983
 40
25.37936474040983
 40
25.37936474040983
 10
2004.188130080855
 20
-659.5100545193573
 30
0.0
 10
2004.713755477102
 20
-652.1995173148571
 30
0.0
 10
2005.195695310661
 20
-644.1622201067748
 30
0.0
 10
2003.861782967893
 20
-636.233454352715
 30
0.0
 10
2003.761878012706
 20
-635.5100545193582
 30
0.0
  0
SPLINE
  5
1AE42
330
18
100
AcDbEntity
  8
1DIM
100
AcDbSpline
210
0.0
220
0.0
230
1.0
 70
     8
 71
     3
 72
     9
 73
     5
 74
     0
 42
0.0000000001
 43
0.0000000001
 40
2.157351491937623
 40
2.157351491937623
 40
2.157351491937623
 40
2.157351491937623
 40
15.14258213632157
 40
26.21385198143475
 40
26.21385198143475
 40
26.21385198143475
 40
26.21385198143475
 10
2006.419975168328
 20
-659.5100545193736
 30
0.0
 10
2007.072312706119
 20
-655.2325154451491
 30
0.0
 10
2008.170243767225
 20
-647.2920431026441
 30
0.0
 10
2007.830079005965
 20
-639.1450358920001
 30
0.0
 10
2008.360415277236
 20
-635.5100545193736
 30
0.0
  0
SPLINE
  5
1AE43
330
18
100
AcDbEntity
  8
1DIM
100
AcDbSpline
210
0.0
220
0.0
230
1.0
 70
     8
 71
     3
 72
     9
 73
     5
 74
     0
 42
0.0000000001
 43
0.0000000001
 40
2.157351491937163
 40
2.157351491937163
 40
2.157351491937163
 40
2.157351491937163
 40
15.14258213632157
 40
26.21385198143475
 40
26.21385198143475
 40
26.21385198143475
 40
26.21385198143475
 10
2015.19632155227
 20
-659.5100545193573
 30
0.0
 10
2015.848659090062
 20
-655.2325154451328
 30
0.0
 10
2016.946590151168
 20
-647.2920431026278
 30
0.0
 10
2016.606425389909
 20
-639.1450358919838
 30
0.0
 10
2017.136761661179
 20
-635.5100545193573
 30
0.0
  0
SPLINE
  5
1AE44
330
18
100
AcDbEntity
  8
1DIM
100
AcDbSpline
210
0.0
220
0.0
230
1.0
 70
     8
 71
     3
 72
     9
 73
     5
 74
     0
 42
0.0000000001
 43
0.0000000001
 40
2.15735149193757
 40
2.15735149193757
 40
2.15735149193757
 40
2.15735149193757
 40
15.14258213632157
 40
26.21385198143475
 40
26.21385198143475
 40
26.21385198143475
 40
26.21385198143475
 10
2019.710745347301
 20
-659.5100545193573
 30
0.0
 10
2020.363082885092
 20
-655.2325154451328
 30
0.0
 10
2021.461013946198
 20
-647.2920431026278
 30
0.0
 10
2021.120849184939
 20
-639.1450358919838
 30
0.0
 10
2021.65118545621
 20
-635.5100545193573
 30
0.0
  0
SPLINE
  5
1AE45
330
18
100
AcDbEntity
  8
1DIM
100
AcDbSpline
210
0.0
220
0.0
230
1.0
 70
     8
 71
     3
 72
     9
 73
     5
 74
     0
 42
0.0000000001
 43
0.0000000001
 40
2.15735149193757
 40
2.15735149193757
 40
2.15735149193757
 40
2.15735149193757
 40
15.14258213632157
 40
26.21385198143475
 40
26.21385198143475
 40
26.21385198143475
 40
26.21385198143475
 10
2027.929233080121
 20
-659.5100545193563
 30
0.0
 10
2028.581570617913
 20
-655.2325154451328
 30
0.0
 10
2029.679501679019
 20
-647.2920431026278
 30
0.0
 10
2029.339336917761
 20
-639.1450358919828
 30
0.0
 10
2029.869673189031
 20
-635.5100545193563
 30
0.0
  0
SPLINE
  5
1AE46
330
18
100
AcDbEntity
  8
1DIM
100
AcDbSpline
210
0.0
220
0.0
230
1.0
 70
     8
 71
     3
 72
    10
 73
     6
 74
     0
 42
0.0000000001
 43
0.0000000001
 40
1.875535472082158
 40
1.875535472082158
 40
1.875535472082158
 40
1.875535472082158
 40
3.694538041174583
 40
5.44908549649201
 40
26.12304529921846
 40
26.12304529921846
 40
26.12304529921846
 40
26.12304529921846
 10
2040.642423677777
 20
-635.5100545193563
 30
0.0
 10
2041.015567026789
 20
-635.9963187903686
 30
0.0
 10
2041.6022655176
 20
-637.006336583986
 30
0.0
 10
2041.739830362847
 20
-645.2964353357529
 30
0.0
 10
2041.288849482165
 20
-652.7043691654653
 30
0.0
 10
2040.822631696035
 20
-659.5100545193563
 30
0.0
  0
SPLINE
  5
1AE47
330
18
100
AcDbEntity
  8
1DIM
100
AcDbSpline
210
0.0
220
0.0
230
1.0
 70
     8
 71
     3
 72
    10
 73
     6
 74
     0
 42
0.0000000001
 43
0.0000000001
 40
0.9336211519065216
 40
0.9336211519065216
 40
0.9336211519065216
 40
0.9336211519065216
 40
2.069915349509438
 40
4.311105269077146
 40
25.02010888607616
 40
25.02010888607616
 40
25.02010888607616
 40
25.02010888607616
 10
2048.793839727195
 20
-635.5100545193582
 30
0.0
 10
2048.621696538508
 20
-635.8509761144951
 30
0.0
 10
2048.189501744159
 20
-636.8828007092934
 30
0.0
 10
2048.84249199814
 20
-645.1097518208408
 30
0.0
 10
2048.223683282541
 20
-652.6877095290138
 30
0.0
 10
2047.591139157322
 20
-659.5100545193573
 30
0.0
  0
SPLINE
  5
1AE48
330
18
100
AcDbEntity
  8
1DIM
100
AcDbSpline
210
0.0
220
0.0
230
1.0
 70
     8
 71
     3
 72
    10
 73
     6
 74
     0
 42
0.0000000001
 43
0.0000000001
 40
1.567863582061012
 40
1.567863582061012
 40
1.567863582061012
 40
1.567863582061012
 40
10.96218243120594
 40
22.08775219293939
 40
25.58355016120268
 40
25.58355016120268
 40
25.58355016120268
 40
25.58355016120268
 10
2049.055979075896
 20
-659.5100545193582
 30
0.0
 10
2049.246477247826
 20
-656.3806439666887
 30
0.0
 10
2049.601395791555
 20
-649.5453122504014
 30
0.0
 10
2048.923181770464
 20
-641.5490621386834
 30
0.0
 10
2048.912891946279
 20
-636.6754091204002
 30
0.0
 10
2048.919585267513
 20
-635.5100545193563
 30
0.0
  0
SPLINE
  5
1AE49
330
18
100
AcDbEntity
  8
1DIM
100
AcDbSpline
210
0.0
220
0.0
230
1.0
 70
     8
 71
     3
 72
    10
 73
     6
 74
     0
 42
0.0000000001
 43
0.0000000001
 40
1.338343807819557
 40
1.338343807819557
 40
1.338343807819557
 40
1.338343807819557
 40
11.76292613365672
 40
24.22591331521301
 40
25.37808424940378
 40
25.37808424940378
 40
25.37808424940378
 40
25.37808424940378
 10
2054.596440383091
 20
-659.5100545193573
 30
0.0
 10
2054.242405473552
 20
-656.0429677482261
 30
0.0
 10
2053.551665099644
 20
-648.4306833598112
 30
0.0
 10
2054.58051805774
 20
-640.4318958387148
 30
0.0
 10
2054.622318369196
 20
-635.8940972533101
 30
0.0
 10
2054.623331910884
 20
-635.5100545193573
 30
0.0
  0
LINE
  5
1AE4A
330
18
100
AcDbEntity
  8
1DIM
100
AcDbLine
 10
2011.011532346337
 20
-427.5087362062541
 30
0.0
 11
2168.511532346337
 21
-427.5087362062541
 31
0.0
  0
TEXT
  5
1AE4B
330
18
100
AcDbEntity
  8
1TEXT
100
AcDbText
 10
2065.711532346339
 20
-404.2587362062541
 30
0.0
 40
6.0
  1
表面処理：握り
 72
     1
 11
2089.61153234634
 21
-404.2587362062541
 31
0.0
100
AcDbText
  0
LINE
  5
1AE4C
330
18
100
AcDbEntity
  8
1DIM
100
AcDbLine
 10
2011.011532346337
 20
-396.0087362062541
 30
0.0
 11
2168.511532346337
 21
-396.0087362062541
 31
0.0
  0
LINE
  5
1AE4D
330
18
100
AcDbEntity
  8
1DIM
100
AcDbLine
 10
2011.011532346337
 20
-406.5087362062541
 30
0.0
 11
2168.511532346337
 21
-406.5087362062541
 31
0.0
  0
LINE
  5
1AE4E
330
18
100
AcDbEntity
  8
1DIM
100
AcDbLine
 10
2011.011532346337
 20
-417.0087362062541
 30
0.0
 11
2168.511532346337
 21
-417.0087362062541
 31
0.0
  0
LINE
  5
1AE4F
330
18
100
AcDbEntity
  8
1DIM
100
AcDbLine
 10
2011.011532346337
 20
-417.0087362062541
 30
0.0
 11
2168.511532346337
 21
-417.0087362062541
 31
0.0
  0
LINE
  5
1AE50
330
18
100
AcDbEntity
  8
1DIM
100
AcDbLine
 10
2116.011532346337
 20
-396.0087362062541
 30
0.0
 11
2116.011532346337
 21
-438.0087362062542
 31
0.0
  0
TEXT
  5
1AE51
330
18
100
AcDbEntity
  8
1TEXT
100
AcDbText
 10
2118.69903234634
 20
-415.0802716817279
 30
0.0
 40
6.0
  1
1-GHT-003-LJ-2
 41
0.6
 72
     1
 11
2142.11153234634
 21
-415.0802716817279
 31
0.0
100
AcDbText
  0
TEXT
  5
1AE52
330
18
100
AcDbEntity
  8
1TEXT
100
AcDbText
 10
2131.811532346339
 20
-404.2587362062541
 30
0.0
 40
6.0
  1
コード
 72
     1
 11
2142.11153234634
 21
-404.2587362062541
 31
0.0
100
AcDbText
  0
LINE
  5
1AE53
330
18
100
AcDbEntity
  8
1DIM
100
AcDbLine
 10
2011.011532346337
 20
-438.0087362062545
 30
0.0
 11
2168.511532346337
 21
-438.0087362062541
 31
0.0
  0
LINE
  5
1AE54
330
18
100
AcDbEntity
  8
1DIM
100
AcDbLine
 10
2063.511532346337
 20
-438.0087362062544
 30
0.0
 11
2063.511532346337
 21
-396.0087362062541
 31
0.0
  0
LINE
  5
1AE55
330
18
100
AcDbEntity
  8
1DIM
100
AcDbLine
 10
2168.511532346337
 20
-438.0087362062541
 30
0.0
 11
2168.511532346337
 21
-396.0087362062541
 31
0.0
  0
TEXT
  5
1AE56
330
18
100
AcDbEntity
  8
1TEXT
100
AcDbText
 10
2119.88653234634
 20
-425.5802716817279
 30
0.0
 40
6.0
  1
1-GHT-GQ-LJ-2
 41
0.6
 72
     1
 11
2142.11153234634
 21
-425.5802716817279
 31
0.0
100
AcDbText
  0
TEXT
  5
1AE57
330
18
100
AcDbEntity
  8
1TEXT
100
AcDbText
 10
2119.899032346339
 20
-436.0802716817279
 30
0.0
 40
6.0
  1
1-GHT-MQ-LJ-2
 41
0.6
 72
     1
 11
2142.11153234634
 21
-436.0802716817279
 31
0.0
100
AcDbText
  0
TEXT
  5
1AE58
330
18
100
AcDbEntity
  8
1TEXT
100
AcDbText
 10
2015.33153234634
 20
-424.9751066236104
 30
0.0
 40
6.0
  1
パールブラック
 41
0.9
 72
     1
 11
2037.11153234634
 21
-424.9751066236104
 31
0.0
100
AcDbText
  0
TEXT
  5
1AE59
330
18
100
AcDbEntity
  8
1TEXT
100
AcDbText
 10
2012.41153234634
 20
-404.2587362062541
 30
0.0
 40
6.0
  1
表面処理：脚部
 72
     1
 11
2037.11153234634
 21
-404.2587362062541
 31
0.0
100
AcDbText
  0
TEXT
  5
1AE5A
330
18
100
AcDbEntity
  8
1TEXT
100
AcDbText
 10
2012.711532346339
 20
-414.5116691955409
 30
0.0
 40
6.0
  1
マットブラック
 72
     1
 11
2037.11153234634
 21
-414.5116691955409
 31
0.0
100
AcDbText
  0
TEXT
  5
1AE5B
330
18
100
AcDbEntity
  8
1TEXT
100
AcDbText
 10
2011.28153234634
 20
-435.4751066236104
 30
0.0
 40
6.0
  1
ショットニッケル
 41
0.9
 72
     1
 11
2037.11153234634
 21
-435.4751066236104
 31
0.0
100
AcDbText
  0
LINE
  5
1AE5C
330
18
100
AcDbEntity
  8
1DIM
100
AcDbLine
 10
2011.011532346338
 20
-438.0087362062546
 30
0.0
 11
2011.011532346337
 21
-396.0087362062541
 31
0.0
  0
TEXT
  5
1AE61
330
18
100
AcDbEntity
  8
1TEXT
100
AcDbText
 10
2067.831532346339
 20
-424.9751066236104
 30
0.0
 40
6.0
  1
パールブラック
 41
0.9
 72
     1
 11
2089.61153234634
 21
-424.9751066236104
 31
0.0
100
AcDbText
  0
TEXT
  5
1AE62
330
18
100
AcDbEntity
  8
1TEXT
100
AcDbText
 10
2065.211532346339
 20
-414.5116691955409
 30
0.0
 40
6.0
  1
マットブラック
 72
     1
 11
2089.61153234634
 21
-414.5116691955409
 31
0.0
100
AcDbText
  0
TEXT
  5
1AE63
330
18
100
AcDbEntity
  8
1TEXT
100
AcDbText
 10
2063.78153234634
 20
-435.4751066236104
 30
0.0
 40
6.0
  1
ショットニッケル
 41
0.9
 72
     1
 11
2089.61153234634
 21
-435.4751066236104
 31
0.0
100
AcDbText
  0
LINE
  5
1AE64
330
18
100
AcDbEntity
  8
01
100
AcDbLine
 10
2216.883002284417
 20
-647.5087362062541
 30
0.0
 11
2239.511287666848
 21
-647.5087362062541
 31
0.0
  0
LINE
  5
1AE65
330
18
100
AcDbEntity
  8
01
  6
BYBLOCK
100
AcDbLine
 10
2318.012171848908
 20
-397.5087362072827
 30
0.0
 11
2471.766552003939
 21
-397.5087362072827
 31
0.0
  0
LINE
  5
1AE66
330
18
100
AcDbEntity
  8
01
100
AcDbLine
 10
2369.011404006591
 20
-392.5087362072827
 30
0.0
 11
2369.011404006591
 21
-419.0087362072827
 31
0.0
  0
LINE
  5
1AE67
330
18
100
AcDbEntity
  8
01
100
AcDbLine
 10
2219.011287666848
 20
-527.5087362062541
 30
0.0
 11
2219.011287666848
 21
-717.5087362062541
 31
0.0
  0
LINE
  5
1AE68
330
18
100
AcDbEntity
  8
1CENTER
100
AcDbLine
 10
2233.511287666848
 20
-662.5087362062541
 30
0.0
 11
2233.511287666848
 21
-654.5087362062541
 31
0.0
  0
LINE
  5
1AE69
330
18
100
AcDbEntity
  8
01
100
AcDbLine
 10
2339.011287666848
 20
-647.5087362062541
 30
0.0
 11
2399.011287666848
 21
-647.5087362062541
 31
0.0
  0
LINE
  5
1AE6A
330
18
100
AcDbEntity
  8
01
100
AcDbLine
 10
2369.011287666848
 20
-617.5087362062541
 30
0.0
 11
2369.011287666848
 21
-677.5087362062541
 31
0.0
  0
LINE
  5
1AE6C
330
18
100
AcDbEntity
  8
01
100
AcDbLine
 10
2395.011287666848
 20
-621.0087362062559
 30
0.0
 11
2343.011287666851
 21
-621.0087362062559
 31
0.0
  0
LINE
  5
1AE6D
330
18
100
AcDbEntity
  8
01
100
AcDbLine
 10
2343.011287666851
 20
-674.0087362062559
 30
0.0
 11
2395.011287666848
 21
-674.0087362062559
 31
0.0
  0
LINE
  5
1AE6E
330
18
100
AcDbEntity
  8
01
100
AcDbLine
 10
2342.511287666851
 20
-621.5087362062559
 30
0.0
 11
2342.511287666851
 21
-673.5087362062559
 31
0.0
  0
ARC
  5
1AE6F
330
18
100
AcDbEntity
  8
01
100
AcDbCircle
 10
2343.011287666851
 20
-673.5087362062559
 30
0.0
 40
0.5
100
AcDbArc
 50
180.0
 51
270.0
  0
ARC
  5
1AE70
330
18
100
AcDbEntity
  8
01
100
AcDbCircle
 10
2343.011287666851
 20
-621.5087362062559
 30
0.0
 40
0.5
100
AcDbArc
 50
90.0
 51
180.0
  0
LINE
  5
1AE71
330
18
100
AcDbEntity
  8
01
100
AcDbLine
 10
2395.511287666848
 20
-621.5087362062559
 30
0.0
 11
2395.511287666848
 21
-635.5087362062541
 31
0.0
  0
ARC
  5
1AE72
330
18
100
AcDbEntity
  8
01
100
AcDbCircle
 10
2395.011287666848
 20
-673.5087362062559
 30
0.0
 40
0.5
100
AcDbArc
 50
270.0
 51
0.0
  0
ARC
  5
1AE73
330
18
100
AcDbEntity
  8
01
100
AcDbCircle
 10
2395.011287666848
 20
-621.5087362062559
 30
0.0
 40
0.5
100
AcDbArc
 50
0.0
 51
90.0
  0
LINE
  5
1AE74
330
18
100
AcDbEntity
  8
01
100
AcDbLine
 10
2342.511404006594
 20
-397.5087362072827
 30
0.0
 11
2395.511404006591
 21
-397.5087362072827
 31
0.0
  0
LINE
  5
1AE75
330
18
100
AcDbEntity
  8
01
100
AcDbLine
 10
2343.011404006594
 20
-406.0087362072827
 30
0.0
 11
2395.011404006591
 21
-406.0087362072827
 31
0.0
  0
LINE
  5
1AE76
330
18
100
AcDbEntity
  8
01
100
AcDbLine
 10
2395.511404006591
 20
-397.5087362072827
 30
0.0
 11
2395.511404006591
 21
-405.5087362072827
 31
0.0
  0
LINE
  5
1AE77
330
18
100
AcDbEntity
  8
01
100
AcDbLine
 10
2342.511404006594
 20
-397.5087362072827
 30
0.0
 11
2342.511404006594
 21
-405.5087362072827
 31
0.0
  0
ARC
  5
1AE78
330
18
100
AcDbEntity
  8
01
100
AcDbCircle
 10
2343.011404006594
 20
-405.5087362072827
 30
0.0
 40
0.5
100
AcDbArc
 50
180.0
 51
270.0
  0
ARC
  5
1AE79
330
18
100
AcDbEntity
  8
01
100
AcDbCircle
 10
2395.011404006591
 20
-405.5087362072827
 30
0.0
 40
0.5
100
AcDbArc
 50
270.0
 51
0.0
  0
LINE
  5
1AE7A
330
18
100
AcDbEntity
  8
01
100
AcDbLine
 10
2219.011287666848
 20
-674.0087362062532
 30
0.0
 11
2219.011287666848
 21
-621.0087362062559
 31
0.0
  0
LINE
  5
1AE7B
330
18
100
AcDbEntity
  8
01
100
AcDbLine
 10
2227.511287666848
 20
-673.5087362062532
 30
0.0
 11
2227.511287666848
 21
-621.5087362062559
 31
0.0
  0
LINE
  5
1AE7C
330
18
100
AcDbEntity
  8
01
100
AcDbLine
 10
2219.011287666848
 20
-621.0087362062559
 30
0.0
 11
2227.011287666848
 21
-621.0087362062559
 31
0.0
  0
LINE
  5
1AE7D
330
18
100
AcDbEntity
  8
01
100
AcDbLine
 10
2219.011287666848
 20
-674.0087362062532
 30
0.0
 11
2227.011287666848
 21
-674.0087362062532
 31
0.0
  0
ARC
  5
1AE7E
330
18
100
AcDbEntity
  8
01
100
AcDbCircle
 10
2227.011287666848
 20
-673.5087362062532
 30
0.0
 40
0.5
100
AcDbArc
 50
270.0
 51
0.0
  0
ARC
  5
1AE7F
330
18
100
AcDbEntity
  8
01
100
AcDbCircle
 10
2227.011287666848
 20
-621.5087362062559
 30
0.0
 40
0.5
100
AcDbArc
 50
0.0
 51
90.0
  0
LINE
  5
1AE85
330
18
100
AcDbEntity
  8
01
100
AcDbLine
 10
2343.011404006591
 20
-446.6087362081007
 30
0.0
 11
2483.511404006591
 21
-446.6087362081007
 31
0.0
  0
LINE
  5
1AE86
330
18
100
AcDbEntity
  8
01
100
AcDbLine
 10
2343.511404006591
 20
-446.6087362081007
 30
0.0
 11
2343.511404006591
 21
-447.1087362081007
 31
0.0
  0
LINE
  5
1AE87
330
18
100
AcDbEntity
  8
01
100
AcDbLine
 10
2483.011404006591
 20
-446.6087362080998
 30
0.0
 11
2483.011404006591
 21
-447.1087362080998
 31
0.0
  0
LINE
  5
1AE88
330
18
100
AcDbEntity
  8
01
100
AcDbLine
 10
2484.011404006591
 20
-447.6087362081007
 30
0.0
 11
2484.011404006591
 21
-451.6087362081007
 31
0.0
  0
ARC
  5
1AE89
330
18
100
AcDbEntity
  8
01
100
AcDbCircle
 10
2483.511404006591
 20
-447.6087362081007
 30
0.0
 40
0.5
100
AcDbArc
 50
0.0
 51
90.0
  0
ARC
  5
1AE8A
330
18
100
AcDbEntity
  8
01
100
AcDbCircle
 10
2483.011404006591
 20
-451.6087362081007
 30
0.0
 40
1.0
100
AcDbArc
 50
270.0
 51
0.0
  0
LINE
  5
1AE8B
330
18
100
AcDbEntity
  8
01
100
AcDbLine
 10
2342.511404006591
 20
-447.6087362081007
 30
0.0
 11
2342.511404006591
 21
-451.6112378619018
 31
0.0
  0
LINE
  5
1AE8C
330
18
100
AcDbEntity
  8
01
100
AcDbLine
 10
2483.511404006591
 20
-447.1087362081007
 30
0.0
 11
2343.011404006591
 21
-447.1087362081007
 31
0.0
  0
ARC
  5
1AE8D
330
18
100
AcDbEntity
  8
01
100
AcDbCircle
 10
2343.011404006591
 20
-447.6087362081007
 30
0.0
 40
0.5
100
AcDbArc
 50
90.0
 51
180.0
  0
ARC
  5
1AE8E
330
18
100
AcDbEntity
  8
01
100
AcDbCircle
 10
2368.153250337287
 20
-455.6087362081007
 30
0.0
 40
3.0
100
AcDbArc
 50
56.44269023805629
 51
90.0
  0
ARC
  5
1AE8F
330
18
100
AcDbEntity
  8
01
100
AcDbCircle
 10
2357.380499848542
 20
-457.6087362081016
 30
0.0
 40
5.0
100
AcDbArc
 50
90.0
 51
115.8419327632048
  0
ARC
  5
1AE90
330
18
100
AcDbEntity
  8
01
100
AcDbCircle
 10
2376.371738070107
 20
-458.6087362081007
 30
0.0
 40
6.0
100
AcDbArc
 50
90.0
 51
113.5564643091155
  0
ARC
  5
1AE91
330
18
100
AcDbEntity
  8
01
100
AcDbCircle
 10
2343.399591615433
 20
-454.1087362080843
 30
0.0
 40
1.5
100
AcDbArc
 50
41.81031489493549
 51
87.43659366465195
  0
ARC
  5
1AE92
330
18
100
AcDbEntity
  8
01
100
AcDbCircle
 10
2343.511404006591
 20
-451.6112378619018
 30
0.0
 40
1.0
100
AcDbArc
 50
180.0
 51
267.4365936646693
  0
ARC
  5
1AE93
330
18
100
AcDbEntity
  8
01
100
AcDbCircle
 10
2349.229083799124
 20
-454.1087362080843
 30
0.0
 40
1.5
100
AcDbArc
 50
41.81031489493549
 51
90.0
  0
ARC
  5
1AE94
330
18
100
AcDbEntity
  8
01
100
AcDbCircle
 10
2349.103338258806
 20
-454.1087362080862
 30
0.0
 40
1.5
100
AcDbArc
 50
90.0
 51
138.1896851050645
  0
ARC
  5
1AE95
330
18
100
AcDbEntity
  8
01
100
AcDbCircle
 10
2389.662508249081
 20
-454.1087362080862
 30
0.0
 40
1.5
100
AcDbArc
 50
90.0
 51
138.1896851050645
  0
ARC
  5
1AE96
330
18
100
AcDbEntity
  8
01
100
AcDbCircle
 10
2412.487709564289
 20
-454.1087362080852
 30
0.0
 40
1.5
100
AcDbArc
 50
90.0
 51
138.1896851050645
  0
ARC
  5
1AE97
330
18
100
AcDbEntity
  8
01
100
AcDbCircle
 10
2428.37213199914
 20
-454.1087362080852
 30
0.0
 40
1.5
100
AcDbArc
 50
90.0
 51
138.1896851050645
  0
ARC
  5
1AE98
330
18
100
AcDbEntity
  8
01
100
AcDbCircle
 10
2450.546716986833
 20
-454.1087362080862
 30
0.0
 40
1.5
100
AcDbArc
 50
90.0
 51
138.1896851050645
  0
ARC
  5
1AE99
330
18
100
AcDbEntity
  8
01
100
AcDbCircle
 10
2471.854287492758
 20
-455.6087362080998
 30
0.0
 40
3.0
100
AcDbArc
 50
56.44269023804905
 51
90.0
  0
ARC
  5
1AE9A
330
18
100
AcDbEntity
  8
01
100
AcDbCircle
 10
2451.850527863726
 20
-455.6087362081016
 30
0.0
 40
3.0
100
AcDbArc
 50
56.44269023804905
 51
90.0
  0
ARC
  5
1AE9B
330
18
100
AcDbEntity
  8
01
100
AcDbCircle
 10
2423.420697596545
 20
-455.6087362080998
 30
0.0
 40
3.0
100
AcDbArc
 50
56.44269023805629
 51
90.0
  0
ARC
  5
1AE9C
330
18
100
AcDbEntity
  8
01
100
AcDbCircle
 10
2380.886161865137
 20
-455.6087362081007
 30
0.0
 40
3.0
100
AcDbArc
 50
56.44269023805629
 51
90.0
  0
ARC
  5
1AE9D
330
18
100
AcDbEntity
  8
01
100
AcDbCircle
 10
2445.341484803361
 20
-459.608736208098
 30
0.0
 40
7.0
100
AcDbArc
 50
68.21321070169957
 51
90.0
  0
ARC
  5
1AE9E
330
18
100
AcDbEntity
  8
01
100
AcDbCircle
 10
2461.362882983953
 20
-459.6087362080989
 30
0.0
 40
7.0
100
AcDbArc
 50
68.21321070169957
 51
90.0
  0
ARC
  5
1AE9F
330
18
100
AcDbEntity
  8
01
100
AcDbCircle
 10
2406.42530986316
 20
-457.6087362081007
 30
0.0
 40
5.0
100
AcDbArc
 50
64.15806723679525
 51
90.0
  0
ARC
  5
1AEA0
330
18
100
AcDbEntity
  8
01
100
AcDbCircle
 10
2394.261045513612
 20
-455.6087362081007
 30
0.0
 40
3.0
100
AcDbArc
 50
56.44269023805629
 51
90.0
  0
ARC
  5
1AEA1
330
18
100
AcDbEntity
  8
01
100
AcDbCircle
 10
2413.366216574985
 20
-455.6087362080998
 30
0.0
 40
3.0
100
AcDbArc
 50
56.44269023805629
 51
90.0
  0
ARC
  5
1AEA2
330
18
100
AcDbEntity
  8
01
100
AcDbCircle
 10
2432.152113032478
 20
-455.6087362081007
 30
0.0
 40
3.0
100
AcDbArc
 50
56.44269023804905
 51
90.0
  0
ARC
  5
1AEA3
330
18
100
AcDbEntity
  8
01
100
AcDbCircle
 10
2402.975451195703
 20
-459.608736208098
 30
0.0
 40
7.0
100
AcDbArc
 50
90.0
 51
111.7867892983004
  0
ARC
  5
1AEA4
330
18
100
AcDbEntity
  8
01
100
AcDbCircle
 10
2478.041394456439
 20
-459.6087362080989
 30
0.0
 40
7.0
100
AcDbArc
 50
90.0
 51
111.7867892983004
  0
ARC
  5
1AEA5
330
18
100
AcDbEntity
  8
01
100
AcDbCircle
 10
2442.859525885429
 20
-459.6087362080989
 30
0.0
 40
7.0
100
AcDbArc
 50
90.0
 51
111.7867892983004
  0
ARC
  5
1AEA6
330
18
100
AcDbEntity
  8
01
100
AcDbCircle
 10
2418.199089406145
 20
-454.6087362081016
 30
0.0
 40
2.0
100
AcDbArc
 50
90.0
 51
131.4096221092708
  0
ARC
  5
1AEA7
330
18
100
AcDbEntity
  8
01
100
AcDbCircle
 10
2457.59663215503
 20
-454.6087362081016
 30
0.0
 40
2.0
100
AcDbArc
 50
90.0
 51
131.4096221092708
  0
ARC
  5
1AEA8
330
18
100
AcDbEntity
  8
01
100
AcDbCircle
 10
2471.754370601999
 20
-454.6087362081007
 30
0.0
 40
2.0
100
AcDbArc
 50
90.0
 51
131.4096221092708
  0
LINE
  5
1AEA9
330
18
100
AcDbEntity
  8
01
100
AcDbLine
 10
2475.443318245079
 20
-453.1087362081016
 30
0.0
 11
2473.512599887938
 21
-453.1087362081016
 31
0.0
  0
LINE
  5
1AEAA
330
18
100
AcDbEntity
  8
01
100
AcDbLine
 10
2470.431494946467
 20
-453.1087362081016
 30
0.0
 11
2463.960959195315
 21
-453.1087362081025
 31
0.0
  0
LINE
  5
1AEAB
330
18
100
AcDbEntity
  8
01
100
AcDbLine
 10
2456.273756499498
 20
-453.1087362081016
 30
0.0
 11
2453.508840258905
 21
-453.1087362081016
 31
0.0
  0
LINE
  5
1AEAC
330
18
100
AcDbEntity
  8
01
100
AcDbLine
 10
2449.428682998069
 20
-453.1087362081016
 30
0.0
 11
2447.939561014725
 21
-453.1087362081016
 31
0.0
  0
LINE
  5
1AEAD
330
18
100
AcDbEntity
  8
01
100
AcDbLine
 10
2440.261449674068
 20
-453.1087362081016
 30
0.0
 11
2433.810425427656
 21
-453.1087362081016
 31
0.0
  0
LINE
  5
1AEAE
330
18
100
AcDbEntity
  8
01
100
AcDbLine
 10
2427.254098010374
 20
-453.1087362081016
 30
0.0
 11
2425.079009991726
 21
-453.1087362081016
 31
0.0
  0
LINE
  5
1AEAF
330
18
100
AcDbEntity
  8
01
100
AcDbLine
 10
2416.876213750612
 20
-453.1087362081016
 30
0.0
 11
2415.024528970167
 21
-453.1087362081016
 31
0.0
  0
LINE
  5
1AEB0
330
18
100
AcDbEntity
  8
01
100
AcDbLine
 10
2411.369675575524
 20
-453.1087362081025
 30
0.0
 11
2408.604759334934
 21
-453.1087362081025
 31
0.0
  0
LINE
  5
1AEB1
330
18
100
AcDbEntity
  8
01
100
AcDbLine
 10
2400.377374984338
 20
-453.1087362081025
 30
0.0
 11
2395.919357908792
 21
-453.1087362081025
 31
0.0
  0
LINE
  5
1AEB2
330
18
100
AcDbEntity
  8
01
100
AcDbLine
 10
2388.544474260316
 20
-453.1087362081025
 30
0.0
 11
2382.544474260317
 21
-453.1087362081025
 31
0.0
  0
LINE
  5
1AEB3
330
18
100
AcDbEntity
  8
01
100
AcDbLine
 10
2373.973822308447
 20
-453.1087362081025
 30
0.0
 11
2369.811562732466
 21
-453.1087362081025
 31
0.0
  0
LINE
  5
1AEB4
330
18
100
AcDbEntity
  8
01
100
AcDbLine
 10
2355.201050376769
 20
-453.1087362081025
 30
0.0
 11
2350.34711778789
 21
-453.1087362081025
 31
0.0
  0
LINE
  5
1AEB5
330
18
100
AcDbEntity
  8
01
100
AcDbLine
 10
2347.985304270041
 20
-453.1087362081025
 30
0.0
 11
2344.517625604199
 21
-453.1087362081016
 31
0.0
  0
LINE
  5
1AEB6
330
18
100
AcDbEntity
  8
01
100
AcDbLine
 10
2349.103338258806
 20
-452.6087362081007
 30
0.0
 11
2349.229083799124
 21
-452.6087362081007
 31
0.0
  0
LINE
  5
1AEB7
330
18
100
AcDbEntity
  8
01
100
AcDbLine
 10
2357.380499848542
 20
-452.6087362081007
 30
0.0
 11
2368.153250337287
 21
-452.6087362081007
 31
0.0
  0
LINE
  5
1AEB8
330
18
100
AcDbEntity
  8
01
100
AcDbLine
 10
2376.371738070107
 20
-452.6087362081007
 30
0.0
 11
2380.886161865137
 21
-452.6087362081007
 31
0.0
  0
LINE
  5
1AEB9
330
18
100
AcDbEntity
  8
01
100
AcDbLine
 10
2389.662508249081
 20
-452.6087362081007
 30
0.0
 11
2394.261045513612
 21
-452.6087362081007
 31
0.0
  0
LINE
  5
1AEBA
330
18
100
AcDbEntity
  8
01
100
AcDbLine
 10
2402.975451195703
 20
-452.6087362081007
 30
0.0
 11
2406.42530986316
 21
-452.6087362081007
 31
0.0
  0
LINE
  5
1AEBB
330
18
100
AcDbEntity
  8
01
100
AcDbLine
 10
2412.487709564289
 20
-452.6087362081007
 30
0.0
 11
2413.366216574985
 21
-452.6087362081007
 31
0.0
  0
LINE
  5
1AEBC
330
18
100
AcDbEntity
  8
01
100
AcDbLine
 10
2418.199089406145
 20
-452.6087362081007
 30
0.0
 11
2423.420697596545
 21
-452.6087362081007
 31
0.0
  0
LINE
  5
1AEBD
330
18
100
AcDbEntity
  8
01
100
AcDbLine
 10
2428.37213199914
 20
-452.6087362081007
 30
0.0
 11
2432.152113032478
 21
-452.6087362081007
 31
0.0
  0
LINE
  5
1AEBE
330
18
100
AcDbEntity
  8
01
100
AcDbLine
 10
2442.859525885429
 20
-452.6087362081007
 30
0.0
 11
2445.341484803361
 21
-452.6087362081007
 31
0.0
  0
LINE
  5
1AEBF
330
18
100
AcDbEntity
  8
01
100
AcDbLine
 10
2450.546716986833
 20
-452.6087362081007
 30
0.0
 11
2451.850527863726
 21
-452.6087362081007
 31
0.0
  0
LINE
  5
1AEC0
330
18
100
AcDbEntity
  8
01
100
AcDbLine
 10
2457.59663215503
 20
-452.6087362081007
 30
0.0
 11
2461.362882983953
 21
-452.6087362081007
 31
0.0
  0
LINE
  5
1AEC1
330
18
100
AcDbEntity
  8
01
100
AcDbLine
 10
2471.754370601999
 20
-452.6087362081007
 30
0.0
 11
2471.854287492758
 21
-452.6087362081007
 31
0.0
  0
LINE
  5
1AEC2
330
18
100
AcDbEntity
  8
01
100
AcDbLine
 10
2478.041394456439
 20
-452.6087362081007
 30
0.0
 11
2483.011404006591
 21
-452.6087362081007
 31
0.0
  0
LINE
  5
1AEC3
330
18
100
AcDbEntity
  8
01
100
AcDbLine
 10
2273.611287667667
 20
-659.5087362062541
 30
0.0
 11
2269.111287667667
 21
-659.5087362062541
 31
0.0
  0
ARC
  5
1AEC4
330
18
100
AcDbEntity
  8
01
100
AcDbCircle
 10
2269.111287667667
 20
-659.0087362062541
 30
0.0
 40
0.5
100
AcDbArc
 50
180.0
 51
270.0
  0
ARC
  5
1AEC5
330
18
100
AcDbEntity
  8
01
100
AcDbCircle
 10
2273.111287667667
 20
-658.5087362062541
 30
0.0
 40
1.0
100
AcDbArc
 50
270.0
 51
0.0
  0
LINE
  5
1AEC6
330
18
100
AcDbEntity
  8
01
100
AcDbLine
 10
2274.611287667667
 20
-658.5087362062541
 30
0.0
 11
2274.611287667667
 21
-636.5087362062541
 31
0.0
  0
ARC
  5
1AEC7
330
18
100
AcDbEntity
  8
01
100
AcDbCircle
 10
2273.611287667667
 20
-658.5087362062541
 30
0.0
 40
1.0
100
AcDbArc
 50
270.0
 51
0.0
  0
ARC
  5
1AEC8
330
18
100
AcDbEntity
  8
01
100
AcDbCircle
 10
2273.611287667667
 20
-636.5087362062541
 30
0.0
 40
1.0
100
AcDbArc
 50
0.0
 51
90.0
  0
LINE
  5
1AEC9
330
18
100
AcDbEntity
  8
01
100
AcDbLine
 10
2274.111287667667
 20
-658.5087362062541
 30
0.0
 11
2274.111287667667
 21
-636.5087362062541
 31
0.0
  0
ARC
  5
1AECA
330
18
100
AcDbEntity
  8
01
100
AcDbCircle
 10
2273.111287667667
 20
-636.5087362062541
 30
0.0
 40
1.0
100
AcDbArc
 50
0.0
 51
90.0
  0
LINE
  5
1AECB
330
18
100
AcDbEntity
  8
01
100
AcDbLine
 10
2273.611287667667
 20
-635.5087362062541
 30
0.0
 11
2269.111287667667
 21
-635.5087362062541
 31
0.0
  0
LINE
  5
1AECC
330
18
100
AcDbEntity
  8
01
100
AcDbLine
 10
2268.611287667667
 20
-659.0087362062541
 30
0.0
 11
2268.611287667667
 21
-636.0087362062541
 31
0.0
  0
ARC
  5
1AECD
330
18
100
AcDbEntity
  8
01
100
AcDbCircle
 10
2269.111287667667
 20
-636.0087362062541
 30
0.0
 40
0.5
100
AcDbArc
 50
90.0
 51
180.0
  0
LINE
  5
1AECE
330
18
100
AcDbEntity
  8
01
100
AcDbLine
 10
2268.611287667667
 20
-658.5087362062541
 30
0.0
 11
2268.111287667667
 21
-658.5087362062541
 31
0.0
  0
LINE
  5
1AECF
330
18
100
AcDbEntity
  8
01
100
AcDbLine
 10
2268.111287667667
 20
-658.5087362062541
 30
0.0
 11
2268.111287667667
 21
-636.508736206255
 31
0.0
  0
LINE
  5
1AED0
330
18
100
AcDbEntity
  8
01
100
AcDbLine
 10
2268.611287667667
 20
-636.508736206255
 30
0.0
 11
2268.111287667667
 21
-636.508736206255
 31
0.0
  0
LINE
  5
1AED1
330
18
100
AcDbEntity
  8
01
100
AcDbLine
 10
2342.511404006591
 20
-437.0087362081013
 30
0.0
 11
2342.511404006591
 21
-446.1087362081007
 31
0.0
  0
LINE
  5
1AED2
330
18
100
AcDbEntity
  8
01
100
AcDbLine
 10
2484.011404006591
 20
-437.0087362080994
 30
0.0
 11
2484.011404006591
 21
-446.1087362080998
 31
0.0
  0
ARC
  5
1AED3
330
18
100
AcDbEntity
  8
01
100
AcDbCircle
 10
2483.511404006591
 20
-446.1087362080998
 30
0.0
 40
0.5
100
AcDbArc
 50
270.0
 51
0.0
  0
ARC
  5
1AED4
330
18
100
AcDbEntity
  8
01
100
AcDbCircle
 10
2483.011404006591
 20
-437.0087362080994
 30
0.0
 40
1.0
100
AcDbArc
 50
0.0
 51
90.0
  0
ARC
  5
1AED5
330
18
100
AcDbEntity
  8
01
100
AcDbCircle
 10
2343.011404006591
 20
-446.1087362081007
 30
0.0
 40
0.5
100
AcDbArc
 50
180.0
 51
270.0
  0
ARC
  5
1AED6
330
18
100
AcDbEntity
  8
01
100
AcDbCircle
 10
2343.511404006591
 20
-437.0087362081013
 30
0.0
 40
1.0
100
AcDbArc
 50
90.0
 51
180.0
  0
LINE
  5
1AED7
330
18
100
AcDbEntity
  8
01
100
AcDbLine
 10
2228.011287666848
 20
-637.0087362062541
 30
0.0
 11
2228.011287666848
 21
-658.0087362062541
 31
0.0
  0
LINE
  5
1AED8
330
18
100
AcDbEntity
  8
01
100
AcDbLine
 10
2228.011287666848
 20
-637.0087362062541
 30
0.0
 11
2256.574795994562
 21
-637.0087362062541
 31
0.0
  0
LINE
  5
1AED9
330
18
100
AcDbEntity
  8
01
100
AcDbLine
 10
2228.011287666848
 20
-658.0087362062541
 30
0.0
 11
2256.574795994561
 21
-658.0087362062541
 31
0.0
  0
LINE
  5
1AEDA
330
18
100
AcDbEntity
  8
01
100
AcDbLine
 10
2258.511287667664
 20
-659.5087362062541
 30
0.0
 11
2267.611287667665
 21
-659.5087362062532
 31
0.0
  0
LINE
  5
1AEDB
330
18
100
AcDbEntity
  8
01
100
AcDbLine
 10
2258.511287667665
 20
-635.5087362062541
 30
0.0
 11
2267.611287667665
 21
-635.5087362062541
 31
0.0
  0
ARC
  5
1AEDC
330
18
100
AcDbEntity
  8
01
100
AcDbCircle
 10
2258.511287667665
 20
-636.5087362062541
 30
0.0
 40
1.0
100
AcDbArc
 50
90.0
 51
165.5224878140579
  0
ARC
  5
1AEDD
330
18
100
AcDbEntity
  8
01
100
AcDbCircle
 10
2256.574795994562
 20
-636.0087362062541
 30
0.0
 40
1.0
100
AcDbArc
 50
270.0
 51
345.5224878140579
  0
ARC
  5
1AEDE
330
18
100
AcDbEntity
  8
01
100
AcDbCircle
 10
2267.611287667665
 20
-636.0087362062541
 30
0.0
 40
0.5
100
AcDbArc
 50
0.0
 51
90.0
  0
LINE
  5
1AEDF
330
18
100
AcDbEntity
  8
01
100
AcDbLine
 10
2268.111287667665
 20
-659.0087362062532
 30
0.0
 11
2268.111287667665
 21
-636.0087362062541
 31
0.0
  0
ARC
  5
1AEE0
330
18
100
AcDbEntity
  8
01
100
AcDbCircle
 10
2267.611287667665
 20
-659.0087362062532
 30
0.0
 40
0.5
100
AcDbArc
 50
270.0
 51
0.0
  0
LINE
  5
1AEE1
330
18
100
AcDbEntity
  8
01
100
AcDbLine
 10
2257.511287667665
 20
-636.5087362062541
 30
0.0
 11
2257.511287667664
 21
-636.5087362062541
 31
0.0
  0
LINE
  5
1AEE2
330
18
100
AcDbEntity
  8
01
100
AcDbLine
 10
2257.511287667664
 20
-658.5087362062541
 30
0.0
 11
2257.511287667665
 21
-636.5087362062541
 31
0.0
  0
ARC
  5
1AEE3
330
18
100
AcDbEntity
  8
01
100
AcDbCircle
 10
2258.511287667664
 20
-658.5087362062541
 30
0.0
 40
1.0
100
AcDbArc
 50
194.4775121859421
 51
270.0
  0
ARC
  5
1AEE4
330
18
100
AcDbEntity
  8
01
100
AcDbCircle
 10
2256.574795994561
 20
-659.0087362062541
 30
0.0
 40
1.0
100
AcDbArc
 50
14.47751218594207
 51
90.0
  0
LINE
  5
1AEE5
330
18
100
AcDbEntity
  8
01
100
AcDbLine
 10
2358.511404006591
 20
-406.5087362081003
 30
0.0
 11
2358.511404006591
 21
-435.0087362081013
 31
0.0
  0
ARC
  5
1AEE6
330
18
100
AcDbEntity
  8
01
100
AcDbCircle
 10
2380.511404006591
 20
-435.0087362081013
 30
0.0
 40
1.0
100
AcDbArc
 50
180.0
 51
270.0
  0
ARC
  5
1AEE7
330
18
100
AcDbEntity
  8
01
100
AcDbCircle
 10
2357.511404006591
 20
-435.0087362081013
 30
0.0
 40
1.0
100
AcDbArc
 50
270.0
 51
0.0
  0
LINE
  5
1AEE8
330
18
100
AcDbEntity
  8
01
100
AcDbLine
 10
2358.511404006591
 20
-406.5087362072827
 30
0.0
 11
2379.511404006591
 21
-406.5087362072827
 31
0.0
  0
LINE
  5
1AEE9
330
18
100
AcDbEntity
  8
01
100
AcDbLine
 10
2379.511404006591
 20
-406.5087362072827
 30
0.0
 11
2379.511404006591
 21
-435.0087362081013
 31
0.0
  0
LINE
  5
1AEEA
330
18
100
AcDbEntity
  8
01
100
AcDbLine
 10
2343.511404006591
 20
-436.0087362081013
 30
0.0
 11
2483.011404006591
 21
-436.0087362080994
 31
0.0
  0
LINE
  5
1AEEB
330
18
100
AcDbEntity
  8
01
100
AcDbLine
 10
2483.011288493457
 20
-635.5087362062541
 30
0.0
 11
2343.511288493457
 21
-635.5087362062541
 31
0.0
  0
ARC
  5
1AEEC
330
18
100
AcDbEntity
  8
01
100
AcDbCircle
 10
2483.011288493457
 20
-636.5087362062541
 30
0.0
 40
1.0
100
AcDbArc
 50
0.0
 51
90.0
  0
LINE
  5
1AEED
330
18
100
AcDbEntity
  8
01
100
AcDbLine
 10
2484.011288493457
 20
-636.5087362062541
 30
0.0
 11
2484.011288493457
 21
-658.5087362062541
 31
0.0
  0
ARC
  5
1AEEE
330
18
100
AcDbEntity
  8
01
100
AcDbCircle
 10
2483.011288493457
 20
-658.5087362062541
 30
0.0
 40
1.0
100
AcDbArc
 50
270.0
 51
0.0
  0
LINE
  5
1AEEF
330
18
100
AcDbEntity
  8
01
100
AcDbLine
 10
2342.511288493457
 20
-636.5087362062541
 30
0.0
 11
2342.511288493457
 21
-658.5087362062541
 31
0.0
  0
ARC
  5
1AEF0
330
18
100
AcDbEntity
  8
01
100
AcDbCircle
 10
2343.511288493457
 20
-636.5087362062541
 30
0.0
 40
1.0
100
AcDbArc
 50
90.0
 51
180.0
  0
LINE
  5
1AEF1
330
18
100
AcDbEntity
  8
01
100
AcDbLine
 10
2483.011288493457
 20
-659.5087362062541
 30
0.0
 11
2343.511288493457
 21
-659.5087362062541
 31
0.0
  0
ARC
  5
1AEF2
330
18
100
AcDbEntity
  8
01
100
AcDbCircle
 10
2343.511288493457
 20
-658.5087362062541
 30
0.0
 40
1.0
100
AcDbArc
 50
180.0
 51
270.0
  0
SPLINE
  5
1AEF3
330
18
100
AcDbEntity
  8
01
100
AcDbSpline
210
0.0
220
0.0
230
1.0
 70
     8
 71
     3
 72
     9
 73
     5
 74
     0
 42
0.0000000001
 43
0.0000000001
 40
2.157351491937163
 40
2.157351491937163
 40
2.157351491937163
 40
2.157351491937163
 40
15.14258213632157
 40
26.21385198143475
 40
26.21385198143475
 40
26.21385198143475
 40
26.21385198143475
 10
2384.484798856093
 20
-635.5087362062541
 30
0.0
 10
2383.832461318301
 20
-639.7862752804785
 30
0.0
 10
2382.734530257195
 20
-647.7267476229836
 30
0.0
 10
2383.074695018454
 20
-655.8737548336276
 30
0.0
 10
2382.544358747183
 20
-659.5087362062541
 30
0.0
  0
SPLINE
  5
1AEF4
330
18
100
AcDbEntity
  8
01
100
AcDbSpline
210
0.0
220
0.0
230
1.0
 70
     8
 71
     3
 72
    10
 73
     6
 74
     0
 42
0.0000000001
 43
0.0000000001
 40
0.7926682069600932
 40
0.7926682069600932
 40
0.7926682069600932
 40
0.7926682069600932
 40
3.694538041174608
 40
5.449085496492215
 40
25.28210754218233
 40
25.28210754218233
 40
25.28210754218233
 40
25.28210754218233
 10
2416.290517394152
 20
-635.5087362062541
 30
0.0
 10
2416.914934736541
 20
-636.3082599708041
 30
0.0
 10
2417.784395209883
 20
-637.6271266056738
 30
0.0
 10
2417.145516467991
 20
-645.9766857866398
 30
0.0
 10
2416.071356843227
 20
-653.0470751878502
 30
0.0
 10
2415.024413457031
 20
-659.5087362062541
 30
0.0
  0
SPLINE
  5
1AEF5
330
18
100
AcDbEntity
  8
01
100
AcDbSpline
210
0.0
220
0.0
230
1.0
 70
     8
 71
     3
 72
    10
 73
     6
 74
     0
 42
0.0000000001
 43
0.0000000001
 40
0.573966685473271
 40
0.573966685473271
 40
0.573966685473271
 40
0.573966685473271
 40
2.069915349509377
 40
4.311105269076966
 40
24.92825187245377
 40
24.92825187245377
 40
24.92825187245377
 40
24.92825187245377
 10
2420.484255438404
 20
-635.508736206275
 30
0.0
 10
2420.199415891596
 20
-635.9287541386566
 30
0.0
 10
2419.557170073469
 20
-637.0011170942735
 30
0.0
 10
2419.442402523582
 20
-645.3449090887534
 30
0.0
 10
2418.132943514632
 20
-652.8042312068483
 30
0.0
 10
2416.876098237478
 20
-659.5087362062541
 30
0.0
  0
SPLINE
  5
1AEF6
330
18
100
AcDbEntity
  8
01
100
AcDbSpline
210
0.0
220
0.0
230
1.0
 70
     8
 71
     3
 72
     9
 73
     5
 74
     0
 42
0.0000000001
 43
0.0000000001
 40
2.157351491937623
 40
2.157351491937623
 40
2.157351491937623
 40
2.157351491937623
 40
15.14258213632157
 40
26.21385198143475
 40
26.21385198143475
 40
26.21385198143475
 40
26.21385198143475
 10
2390.484798856092
 20
-635.5087362062541
 30
0.0
 10
2389.832461318301
 20
-639.7862752804785
 30
0.0
 10
2388.734530257195
 20
-647.7267476229836
 30
0.0
 10
2389.074695018454
 20
-655.8737548336276
 30
0.0
 10
2388.544358747184
 20
-659.5087362062541
 30
0.0
  0
SPLINE
  5
1AEF7
330
18
100
AcDbEntity
  8
01
100
AcDbSpline
210
0.0
220
0.0
230
1.0
 70
     8
 71
     3
 72
     9
 73
     5
 74
     0
 42
0.0000000001
 43
0.0000000001
 40
1.353888130949001
 40
1.353888130949001
 40
1.353888130949001
 40
1.353888130949001
 40
23.19125161797683
 40
25.37936474040984
 40
25.37936474040984
 40
25.37936474040984
 40
25.37936474040984
 10
2447.513193433441
 20
-635.508736206255
 30
0.0
 10
2446.987568037194
 20
-642.8192734107561
 30
0.0
 10
2446.505628203636
 20
-650.8565706188374
 30
0.0
 10
2447.839540546403
 20
-658.7853363728973
 30
0.0
 10
2447.939445501589
 20
-659.5087362062541
 30
0.0
  0
SPLINE
  5
1AEF8
330
18
100
AcDbEntity
  8
01
100
AcDbSpline
210
0.0
220
0.0
230
1.0
 70
     8
 71
     3
 72
     9
 73
     5
 74
     0
 42
0.0000000001
 43
0.0000000001
 40
1.018166423753047
 40
1.018166423753047
 40
1.018166423753047
 40
1.018166423753047
 40
14.56776095549139
 40
25.02827803206281
 40
25.02827803206281
 40
25.02827803206281
 40
25.02827803206281
 10
2449.919025531315
 20
-635.5087362062541
 30
0.0
 10
2450.001146287151
 20
-640.0269607727905
 30
0.0
 10
2450.117864299138
 20
-648.0327376448249
 30
0.0
 10
2449.504360266833
 20
-656.0234597749804
 30
0.0
 10
2449.428567484936
 20
-659.5087362062541
 30
0.0
  0
SPLINE
  5
1AEF9
330
18
100
AcDbEntity
  8
01
100
AcDbSpline
210
0.0
220
0.0
230
1.0
 70
     8
 71
     3
 72
     9
 73
     5
 74
     0
 42
0.0000000001
 43
0.0000000001
 40
2.15735149193757
 40
2.15735149193757
 40
2.15735149193757
 40
2.15735149193757
 40
15.14258213632157
 40
26.21385198143475
 40
26.21385198143475
 40
26.21385198143475
 40
26.21385198143475
 10
2371.751887328241
 20
-635.5087362062541
 30
0.0
 10
2371.099549790449
 20
-639.7862752804785
 30
0.0
 10
2370.001618729344
 20
-647.7267476229836
 30
0.0
 10
2370.341783490603
 20
-655.8737548336276
 30
0.0
 10
2369.811447219332
 20
-659.5087362062541
 30
0.0
  0
SPLINE
  5
1AEFA
330
18
100
AcDbEntity
  8
01
100
AcDbSpline
210
0.0
220
0.0
230
1.0
 70
     8
 71
     3
 72
     9
 73
     5
 74
     0
 42
0.0000000001
 43
0.0000000001
 40
2.15735149193757
 40
2.15735149193757
 40
2.15735149193757
 40
2.15735149193757
 40
15.14258213632157
 40
26.21385198143475
 40
26.21385198143475
 40
26.21385198143475
 40
26.21385198143475
 10
2375.914146904226
 20
-635.5087362062541
 30
0.0
 10
2375.261809366435
 20
-639.7862752804785
 30
0.0
 10
2374.163878305329
 20
-647.7267476229836
 30
0.0
 10
2374.504043066588
 20
-655.8737548336276
 30
0.0
 10
2373.973706795317
 20
-659.5087362062541
 30
0.0
  0
SPLINE
  5
1AEFB
330
18
100
AcDbEntity
  8
01
100
AcDbSpline
210
0.0
220
0.0
230
1.0
 70
     8
 71
     3
 72
     9
 73
     5
 74
     0
 42
0.0000000001
 43
0.0000000001
 40
2.15735149193757
 40
2.15735149193757
 40
2.15735149193757
 40
2.15735149193757
 40
15.14258213632157
 40
26.21385198143429
 40
26.21385198143429
 40
26.21385198143429
 40
26.21385198143429
 10
2475.452924483712
 20
-635.5087362062541
 30
0.0
 10
2474.80058694592
 20
-639.7862752804785
 30
0.0
 10
2473.702655884814
 20
-647.7267476229836
 30
0.0
 10
2474.042820646073
 20
-655.8737548336276
 30
0.0
 10
2473.512484374803
 20
-659.5087362062532
 30
0.0
  0
SPLINE
  5
1AEFC
330
18
100
AcDbEntity
  8
01
100
AcDbSpline
210
0.0
220
0.0
230
1.0
 70
     8
 71
     3
 72
     9
 73
     5
 74
     0
 42
0.0000000001
 43
0.0000000001
 40
2.15735149193757
 40
2.15735149193757
 40
2.15735149193757
 40
2.15735149193757
 40
15.14258213632157
 40
26.21385198143429
 40
26.21385198143429
 40
26.21385198143429
 40
26.21385198143429
 10
2477.383642840854
 20
-635.5087362062541
 30
0.0
 10
2476.731305303062
 20
-639.7862752804785
 30
0.0
 10
2475.633374241956
 20
-647.7267476229836
 30
0.0
 10
2475.973539003215
 20
-655.8737548336276
 30
0.0
 10
2475.443202731944
 20
-659.5087362062532
 30
0.0
  0
SPLINE
  5
1AEFD
330
18
100
AcDbEntity
  8
01
100
AcDbSpline
210
0.0
220
0.0
230
1.0
 70
     8
 71
     3
 72
    10
 73
     6
 74
     0
 42
0.0000000001
 43
0.0000000001
 40
1.567863582061012
 40
1.567863582061012
 40
1.567863582061012
 40
1.567863582061012
 40
10.96218243120594
 40
22.08775219293939
 40
25.58355016120192
 40
25.58355016120192
 40
25.58355016120192
 40
25.58355016120192
 10
2440.124940352551
 20
-635.5087362062532
 30
0.0
 10
2439.93444218062
 20
-638.6381467589226
 30
0.0
 10
2439.579523636891
 20
-645.47347847521
 30
0.0
 10
2440.257737657982
 20
-653.4697285869279
 30
0.0
 10
2440.268027482167
 20
-658.3433816052111
 30
0.0
 10
2440.261334160934
 20
-659.5087362062541
 30
0.0
  0
SPLINE
  5
1AEFE
330
18
100
AcDbEntity
  8
01
100
AcDbSpline
210
0.0
220
0.0
230
1.0
 70
     8
 71
     3
 72
    10
 73
     6
 74
     0
 42
0.0000000001
 43
0.0000000001
 40
1.338343807819368
 40
1.338343807819368
 40
1.338343807819368
 40
1.338343807819368
 40
11.76292613365672
 40
24.22591331521301
 40
25.37808424940371
 40
25.37808424940371
 40
25.37808424940371
 40
25.37808424940371
 10
2433.810309914522
 20
-635.5087362062541
 30
0.0
 10
2434.164344824061
 20
-638.9758229773861
 30
0.0
 10
2434.855085197969
 20
-646.5881073658011
 30
0.0
 10
2433.826232239873
 20
-654.5868948868965
 30
0.0
 10
2433.784431928417
 20
-659.1246934723013
 30
0.0
 10
2433.783418386728
 20
-659.5087362062532
 30
0.0
  0
SPLINE
  5
1AEFF
330
18
100
AcDbEntity
  8
01
100
AcDbSpline
210
0.0
220
0.0
230
1.0
 70
     8
 71
     3
 72
    10
 73
     6
 74
     0
 42
0.0000000001
 43
0.0000000001
 40
1.567863582060758
 40
1.567863582060758
 40
1.567863582060758
 40
1.567863582060758
 40
10.96218243120594
 40
22.08775219293939
 40
25.5835501612022
 40
25.5835501612022
 40
25.5835501612022
 40
25.5835501612022
 10
2456.137247177981
 20
-635.5087362062541
 30
0.0
 10
2455.94674900605
 20
-638.6381467589226
 30
0.0
 10
2455.591830462321
 20
-645.473478475209
 30
0.0
 10
2456.270044483411
 20
-653.4697285869279
 30
0.0
 10
2456.280334307598
 20
-658.3433816052102
 30
0.0
 10
2456.273640986364
 20
-659.5087362062541
 30
0.0
  0
SPLINE
  5
1AF00
330
18
100
AcDbEntity
  8
01
100
AcDbSpline
210
0.0
220
0.0
230
1.0
 70
     8
 71
     3
 72
    10
 73
     6
 74
     0
 42
0.0000000001
 43
0.0000000001
 40
1.338343807819191
 40
1.338343807819191
 40
1.338343807819191
 40
1.338343807819191
 40
11.76292613365672
 40
24.22591331521301
 40
25.37808424940334
 40
25.37808424940334
 40
25.37808424940334
 40
25.37808424940334
 10
2453.535616273565
 20
-635.5087362062541
 30
0.0
 10
2453.889651183103
 20
-638.9758229773861
 30
0.0
 10
2454.580391557012
 20
-646.5881073658002
 30
0.0
 10
2453.551538598915
 20
-654.5868948868965
 30
0.0
 10
2453.509738287461
 20
-659.1246934723013
 30
0.0
 10
2453.508724745772
 20
-659.5087362062532
 30
0.0
  0
SPLINE
  5
1AF01
330
18
100
AcDbEntity
  8
01
100
AcDbSpline
210
0.0
220
0.0
230
1.0
 70
     8
 71
     3
 72
    10
 73
     6
 74
     0
 42
0.0000000001
 43
0.0000000001
 40
1.567863582060758
 40
1.567863582060758
 40
1.567863582060758
 40
1.567863582060758
 40
10.96218243120594
 40
22.08775219293939
 40
25.58355016120244
 40
25.58355016120244
 40
25.58355016120244
 40
25.58355016120244
 10
2411.233166254008
 20
-635.5087362062541
 30
0.0
 10
2411.042668082077
 20
-638.6381467589226
 30
0.0
 10
2410.687749538347
 20
-645.473478475209
 30
0.0
 10
2411.365963559439
 20
-653.4697285869279
 30
0.0
 10
2411.376253383624
 20
-658.3433816052111
 30
0.0
 10
2411.369560062391
 20
-659.5087362062541
 30
0.0
  0
SPLINE
  5
1AF02
330
18
100
AcDbEntity
  8
01
100
AcDbSpline
210
0.0
220
0.0
230
1.0
 70
     8
 71
     3
 72
    10
 73
     6
 74
     0
 42
0.0000000001
 43
0.0000000001
 40
1.338343807819462
 40
1.338343807819462
 40
1.338343807819462
 40
1.338343807819462
 40
11.76292613365672
 40
24.22591331521301
 40
25.37808424940419
 40
25.37808424940419
 40
25.37808424940419
 40
25.37808424940419
 10
2408.631535349592
 20
-635.508736206255
 30
0.0
 10
2408.98557025913
 20
-638.9758229773861
 30
0.0
 10
2409.676310633038
 20
-646.5881073658002
 30
0.0
 10
2408.647457674942
 20
-654.5868948868974
 30
0.0
 10
2408.605657363486
 20
-659.1246934723013
 30
0.0
 10
2408.604643821798
 20
-659.5087362062541
 30
0.0
  0
SPLINE
  5
1AF03
330
18
100
AcDbEntity
  8
01
100
AcDbSpline
210
0.0
220
0.0
230
1.0
 70
     8
 71
     3
 72
    10
 73
     6
 74
     0
 42
0.0000000001
 43
0.0000000001
 40
1.875535472082158
 40
1.875535472082158
 40
1.875535472082158
 40
1.875535472082158
 40
3.694538041174583
 40
5.44908549649201
 40
26.12304529921846
 40
26.12304529921846
 40
26.12304529921846
 40
26.12304529921846
 10
2355.200934863636
 20
-659.508736206255
 30
0.0
 10
2354.827791514624
 20
-659.0224719352427
 30
0.0
 10
2354.241093023814
 20
-658.0124541416253
 30
0.0
 10
2354.103528178568
 20
-649.7223553898584
 30
0.0
 10
2354.554509059249
 20
-642.314421560146
 30
0.0
 10
2355.020726845379
 20
-635.508736206255
 30
0.0
  0
SPLINE
  5
1AF04
330
18
100
AcDbEntity
  8
01
100
AcDbSpline
210
0.0
220
0.0
230
1.0
 70
     8
 71
     3
 72
    10
 73
     6
 74
     0
 42
0.0000000001
 43
0.0000000001
 40
0.9336211519065216
 40
0.9336211519065216
 40
0.9336211519065216
 40
0.9336211519065216
 40
2.069915349509438
 40
4.311105269077146
 40
25.02010888607616
 40
25.02010888607616
 40
25.02010888607616
 40
25.02010888607616
 10
2350.347002274755
 20
-659.5087362062532
 30
0.0
 10
2350.519145463442
 20
-659.1678146111162
 30
0.0
 10
2350.95134025779
 20
-658.1359900163179
 30
0.0
 10
2350.298350003809
 20
-649.9090389047706
 30
0.0
 10
2350.917158719409
 20
-642.3310811965976
 30
0.0
 10
2351.549702844627
 20
-635.5087362062541
 30
0.0
  0
SPLINE
  5
1AF05
330
18
100
AcDbEntity
  8
01
100
AcDbSpline
210
0.0
220
0.0
230
1.0
 70
     8
 71
     3
 72
     9
 73
     5
 74
     0
 42
0.0000000001
 43
0.0000000001
 40
2.157351491937163
 40
2.157351491937163
 40
2.157351491937163
 40
2.157351491937163
 40
15.14258213632157
 40
26.21385198143429
 40
26.21385198143429
 40
26.21385198143429
 40
26.21385198143429
 10
2427.019334587502
 20
-635.5087362062541
 30
0.0
 10
2426.36699704971
 20
-639.7862752804785
 30
0.0
 10
2425.269065988604
 20
-647.7267476229836
 30
0.0
 10
2425.609230749862
 20
-655.8737548336267
 30
0.0
 10
2425.078894478592
 20
-659.5087362062532
 30
0.0
  0
SPLINE
  5
1AF06
330
18
100
AcDbEntity
  8
01
100
AcDbSpline
210
0.0
220
0.0
230
1.0
 70
     8
 71
     3
 72
     9
 73
     5
 74
     0
 42
0.0000000001
 43
0.0000000001
 40
2.15735149193757
 40
2.15735149193757
 40
2.15735149193757
 40
2.15735149193757
 40
15.14258213632157
 40
26.21385198143429
 40
26.21385198143429
 40
26.21385198143429
 40
26.21385198143429
 10
2429.194422606151
 20
-635.5087362062541
 30
0.0
 10
2428.542085068359
 20
-639.7862752804785
 30
0.0
 10
2427.444154007253
 20
-647.7267476229836
 30
0.0
 10
2427.784318768513
 20
-655.8737548336276
 30
0.0
 10
2427.253982497241
 20
-659.5087362062532
 30
0.0
  0
SPLINE
  5
1AF07
330
18
100
AcDbEntity
  8
01
100
AcDbSpline
210
0.0
220
0.0
230
1.0
 70
     8
 71
     3
 72
    10
 73
     6
 74
     0
 42
0.0000000001
 43
0.0000000001
 40
1.567863582061012
 40
1.567863582061012
 40
1.567863582061012
 40
1.567863582061012
 40
10.96218243120594
 40
22.08775219293939
 40
25.58355016120268
 40
25.58355016120268
 40
25.58355016120268
 40
25.58355016120268
 10
2347.848794948525
 20
-635.5087362062532
 30
0.0
 10
2347.658296776595
 20
-638.6381467589226
 30
0.0
 10
2347.303378232865
 20
-645.47347847521
 30
0.0
 10
2347.981592253956
 20
-653.4697285869279
 30
0.0
 10
2347.991882078142
 20
-658.3433816052111
 30
0.0
 10
2347.985188756908
 20
-659.508736206255
 30
0.0
  0
SPLINE
  5
1AF08
330
18
100
AcDbEntity
  8
01
100
AcDbSpline
210
0.0
220
0.0
230
1.0
 70
     8
 71
     3
 72
    10
 73
     6
 74
     0
 42
0.0000000001
 43
0.0000000001
 40
1.338343807819557
 40
1.338343807819557
 40
1.338343807819557
 40
1.338343807819557
 40
11.76292613365672
 40
24.22591331521301
 40
25.37808424940378
 40
25.37808424940378
 40
25.37808424940378
 40
25.37808424940378
 10
2344.544401618859
 20
-635.5087362062541
 30
0.0
 10
2344.898436528397
 20
-638.9758229773852
 30
0.0
 10
2345.589176902305
 20
-646.5881073658002
 30
0.0
 10
2344.560323944208
 20
-654.5868948868965
 30
0.0
 10
2344.518523632754
 20
-659.1246934723013
 30
0.0
 10
2344.517510091065
 20
-659.5087362062541
 30
0.0
  0
SPLINE
  5
1AF09
330
18
100
AcDbEntity
  8
01
100
AcDbSpline
210
0.0
220
0.0
230
1.0
 70
     8
 71
     3
 72
     9
 73
     5
 74
     0
 42
0.0000000001
 43
0.0000000001
 40
1.35388813094919
 40
1.35388813094919
 40
1.35388813094919
 40
1.35388813094919
 40
23.19125161797683
 40
25.37936474040983
 40
25.37936474040983
 40
25.37936474040983
 40
25.37936474040983
 10
2395.492990327508
 20
-635.508736206255
 30
0.0
 10
2394.96736493126
 20
-642.8192734107552
 30
0.0
 10
2394.485425097702
 20
-650.8565706188374
 30
0.0
 10
2395.81933744047
 20
-658.7853363728973
 30
0.0
 10
2395.919242395657
 20
-659.5087362062541
 30
0.0
  0
SPLINE
  5
1AF0A
330
18
100
AcDbEntity
  8
01
100
AcDbSpline
210
0.0
220
0.0
230
1.0
 70
     8
 71
     3
 72
     9
 73
     5
 74
     0
 42
0.0000000001
 43
0.0000000001
 40
1.018166423753492
 40
1.018166423753492
 40
1.018166423753492
 40
1.018166423753492
 40
14.56776095549139
 40
25.02827803206339
 40
25.02827803206339
 40
25.02827803206339
 40
25.02827803206339
 10
2400.867717517587
 20
-635.5087362062541
 30
0.0
 10
2400.949838273423
 20
-640.0269607727914
 30
0.0
 10
2401.066556285411
 20
-648.0327376448249
 30
0.0
 10
2400.453052253105
 20
-656.0234597749804
 30
0.0
 10
2400.377259471208
 20
-659.5087362062532
 30
0.0
  0
SPLINE
  5
1AF0B
330
18
100
AcDbEntity
  8
01
100
AcDbSpline
210
0.0
220
0.0
230
1.0
 70
     8
 71
     3
 72
    10
 73
     6
 74
     0
 42
0.0000000001
 43
0.0000000001
 40
0.4906281338315986
 40
0.4906281338315986
 40
0.4906281338315986
 40
0.4906281338315986
 40
10.96218243120594
 40
22.08775219293939
 40
24.50705198046215
 40
24.50705198046215
 40
24.50705198046215
 40
24.50705198046215
 10
2470.358195465923
 20
-635.5087362062541
 30
0.0
 10
2470.141152408163
 20
-638.9970078676115
 30
0.0
 10
2469.715972638303
 20
-646.1913429479273
 30
0.0
 10
2470.394207480167
 20
-654.1878385398313
 30
0.0
 10
2470.431200449247
 20
-658.7023053132834
 30
0.0
 10
2470.431379433332
 20
-659.5087362062541
 30
0.0
  0
SPLINE
  5
1AF0C
330
18
100
AcDbEntity
  8
01
100
AcDbSpline
210
0.0
220
0.0
230
1.0
 70
     8
 71
     3
 72
    10
 73
     6
 74
     0
 42
0.0000000001
 43
0.0000000001
 40
0.2593880031350766
 40
0.2593880031350766
 40
0.2593880031350766
 40
0.2593880031350766
 40
11.76292613365672
 40
24.22591331521301
 40
24.30139570689494
 40
24.30139570689494
 40
24.30139570689494
 40
24.30139570689494
 10
2463.866325015935
 20
-635.5087362062541
 30
0.0
 10
2464.262378373042
 20
-639.3346601915564
 30
0.0
 10
2465.068132980402
 20
-647.3056446046903
 30
0.0
 10
2464.039182988005
 20
-655.305186516146
 30
0.0
 10
2463.961296319363
 20
-659.4835817702988
 30
0.0
 10
2463.960843682181
 20
-659.5087362062541
 30
0.0
  0
SPLINE
  5
1AF0D
330
18
100
AcDbEntity
  8
1DIM
100
AcDbSpline
210
0.0
220
0.0
230
1.0
 70
     8
 71
     3
 72
     9
 73
     5
 74
     0
 42
0.0000000001
 43
0.0000000001
 40
2.15735149193757
 40
2.15735149193757
 40
2.15735149193757
 40
2.15735149193757
 40
15.14258213632157
 40
26.21385198143429
 40
26.21385198143429
 40
26.21385198143429
 40
26.21385198143429
 10
2479.981719052214
 20
-635.5087362062541
 30
0.0
 10
2479.329381514422
 20
-639.7862752804785
 30
0.0
 10
2478.231450453316
 20
-647.7267476229836
 30
0.0
 10
2478.571615214576
 20
-655.8737548336276
 30
0.0
 10
2478.041278943305
 20
-659.5087362062532
 30
0.0
  0
SPLINE
  5
1AF0E
330
18
100
AcDbEntity
  8
1DIM
100
AcDbSpline
210
0.0
220
0.0
230
1.0
 70
     8
 71
     3
 72
     9
 73
     5
 74
     0
 42
0.0000000001
 43
0.0000000001
 40
2.15735149193757
 40
2.15735149193757
 40
2.15735149193757
 40
2.15735149193757
 40
15.14258213632157
 40
26.21385198143429
 40
26.21385198143429
 40
26.21385198143429
 40
26.21385198143429
 10
2473.794612088532
 20
-635.5087362062541
 30
0.0
 10
2473.142274550741
 20
-639.7862752804785
 30
0.0
 10
2472.044343489635
 20
-647.7267476229836
 30
0.0
 10
2472.384508250895
 20
-655.8737548336276
 30
0.0
 10
2471.854171979624
 20
-659.5087362062532
 30
0.0
  0
SPLINE
  5
1AF0F
330
18
100
AcDbEntity
  8
1DIM
100
AcDbSpline
210
0.0
220
0.0
230
1.0
 70
     8
 71
     3
 72
    10
 73
     6
 74
     0
 42
0.0000000001
 43
0.0000000001
 40
0.4906281338315986
 40
0.4906281338315986
 40
0.4906281338315986
 40
0.4906281338315986
 40
10.96218243120594
 40
22.08775219293939
 40
24.50705198046215
 40
24.50705198046215
 40
24.50705198046215
 40
24.50705198046215
 10
2471.681071121456
 20
-635.5087362062541
 30
0.0
 10
2471.464028063695
 20
-638.9970078676115
 30
0.0
 10
2471.038848293836
 20
-646.1913429479273
 30
0.0
 10
2471.717083135699
 20
-654.1878385398313
 30
0.0
 10
2471.75407610478
 20
-658.7023053132834
 30
0.0
 10
2471.754255088865
 20
-659.5087362062541
 30
0.0
  0
SPLINE
  5
1AF10
330
18
100
AcDbEntity
  8
1DIM
100
AcDbSpline
210
0.0
220
0.0
230
1.0
 70
     8
 71
     3
 72
    10
 73
     6
 74
     0
 42
0.0000000001
 43
0.0000000001
 40
0.2593880031350766
 40
0.2593880031350766
 40
0.2593880031350766
 40
0.2593880031350766
 40
11.76292613365672
 40
24.22591331521301
 40
24.30139570689494
 40
24.30139570689494
 40
24.30139570689494
 40
24.30139570689494
 10
2461.268248804575
 20
-635.5087362062541
 30
0.0
 10
2461.664302161681
 20
-639.3346601915564
 30
0.0
 10
2462.470056769041
 20
-647.3056446046903
 30
0.0
 10
2461.441106776645
 20
-655.305186516146
 30
0.0
 10
2461.363220108003
 20
-659.4835817702988
 30
0.0
 10
2461.362767470821
 20
-659.5087362062541
 30
0.0
  0
SPLINE
  5
1AF11
330
18
100
AcDbEntity
  8
1DIM
100
AcDbSpline
210
0.0
220
0.0
230
1.0
 70
     8
 71
     3
 72
    10
 73
     6
 74
     0
 42
0.0000000001
 43
0.0000000001
 40
1.567863582060758
 40
1.567863582060758
 40
1.567863582060758
 40
1.567863582060758
 40
10.96218243120594
 40
22.08775219293939
 40
25.5835501612022
 40
25.5835501612022
 40
25.5835501612022
 40
25.5835501612022
 10
2457.460122833515
 20
-635.5087362062541
 30
0.0
 10
2457.269624661583
 20
-638.6381467589226
 30
0.0
 10
2456.914706117853
 20
-645.473478475209
 30
0.0
 10
2457.592920138945
 20
-653.4697285869279
 30
0.0
 10
2457.603209963131
 20
-658.3433816052102
 30
0.0
 10
2457.596516641897
 20
-659.5087362062541
 30
0.0
  0
SPLINE
  5
1AF12
330
18
100
AcDbEntity
  8
1DIM
100
AcDbSpline
210
0.0
220
0.0
230
1.0
 70
     8
 71
     3
 72
    10
 73
     6
 74
     0
 42
0.0000000001
 43
0.0000000001
 40
1.338343807819191
 40
1.338343807819191
 40
1.338343807819191
 40
1.338343807819191
 40
11.76292613365672
 40
24.22591331521301
 40
25.37808424940334
 40
25.37808424940334
 40
25.37808424940334
 40
25.37808424940334
 10
2451.877303878389
 20
-635.5087362062541
 30
0.0
 10
2452.231338787927
 20
-638.9758229773861
 30
0.0
 10
2452.922079161835
 20
-646.5881073658002
 30
0.0
 10
2451.893226203738
 20
-654.5868948868965
 30
0.0
 10
2451.851425892284
 20
-659.1246934723013
 30
0.0
 10
2451.850412350595
 20
-659.5087362062532
 30
0.0
  0
SPLINE
  5
1AF13
330
18
100
AcDbEntity
  8
1DIM
100
AcDbSpline
210
0.0
220
0.0
230
1.0
 70
     8
 71
     3
 72
     9
 73
     5
 74
     0
 42
0.0000000001
 43
0.0000000001
 40
1.018166423753047
 40
1.018166423753047
 40
1.018166423753047
 40
1.018166423753047
 40
14.56776095549139
 40
25.02827803206281
 40
25.02827803206281
 40
25.02827803206281
 40
25.02827803206281
 10
2451.03705952008
 20
-635.5087362062541
 30
0.0
 10
2451.119180275915
 20
-640.0269607727905
 30
0.0
 10
2451.235898287902
 20
-648.0327376448249
 30
0.0
 10
2450.622394255598
 20
-656.0234597749804
 30
0.0
 10
2450.5466014737
 20
-659.5087362062541
 30
0.0
  0
SPLINE
  5
1AF14
330
18
100
AcDbEntity
  8
1DIM
100
AcDbSpline
210
0.0
220
0.0
230
1.0
 70
     8
 71
     3
 72
     9
 73
     5
 74
     0
 42
0.0000000001
 43
0.0000000001
 40
1.353888130949001
 40
1.353888130949001
 40
1.353888130949001
 40
1.353888130949001
 40
23.19125161797683
 40
25.37936474040984
 40
25.37936474040984
 40
25.37936474040984
 40
25.37936474040984
 10
2444.91511722208
 20
-635.508736206255
 30
0.0
 10
2444.389491825833
 20
-642.8192734107561
 30
0.0
 10
2443.907551992276
 20
-650.8565706188374
 30
0.0
 10
2445.241464335042
 20
-658.7853363728973
 30
0.0
 10
2445.341369290229
 20
-659.5087362062541
 30
0.0
  0
SPLINE
  5
1AF15
330
18
100
AcDbEntity
  8
1DIM
100
AcDbSpline
210
0.0
220
0.0
230
1.0
 70
     8
 71
     3
 72
    10
 73
     6
 74
     0
 42
0.0000000001
 43
0.0000000001
 40
1.567863582061012
 40
1.567863582061012
 40
1.567863582061012
 40
1.567863582061012
 40
10.96218243120594
 40
22.08775219293939
 40
25.58355016120192
 40
25.58355016120192
 40
25.58355016120192
 40
25.58355016120192
 10
2442.723016563912
 20
-635.5087362062532
 30
0.0
 10
2442.532518391982
 20
-638.6381467589226
 30
0.0
 10
2442.177599848251
 20
-645.47347847521
 30
0.0
 10
2442.855813869342
 20
-653.4697285869279
 30
0.0
 10
2442.866103693529
 20
-658.3433816052111
 30
0.0
 10
2442.859410372295
 20
-659.5087362062541
 30
0.0
  0
SPLINE
  5
1AF16
330
18
100
AcDbEntity
  8
1DIM
100
AcDbSpline
210
0.0
220
0.0
230
1.0
 70
     8
 71
     3
 72
    10
 73
     6
 74
     0
 42
0.0000000001
 43
0.0000000001
 40
1.338343807819368
 40
1.338343807819368
 40
1.338343807819368
 40
1.338343807819368
 40
11.76292613365672
 40
24.22591331521301
 40
25.37808424940371
 40
25.37808424940371
 40
25.37808424940371
 40
25.37808424940371
 10
2432.151997519345
 20
-635.5087362062541
 30
0.0
 10
2432.506032428883
 20
-638.9758229773861
 30
0.0
 10
2433.196772802791
 20
-646.5881073658011
 30
0.0
 10
2432.167919844694
 20
-654.5868948868965
 30
0.0
 10
2432.126119533239
 20
-659.1246934723013
 30
0.0
 10
2432.125105991551
 20
-659.5087362062532
 30
0.0
  0
SPLINE
  5
1AF17
330
18
100
AcDbEntity
  8
1DIM
100
AcDbSpline
210
0.0
220
0.0
230
1.0
 70
     8
 71
     3
 72
     9
 73
     5
 74
     0
 42
0.0000000001
 43
0.0000000001
 40
2.15735149193757
 40
2.15735149193757
 40
2.15735149193757
 40
2.15735149193757
 40
15.14258213632157
 40
26.21385198143429
 40
26.21385198143429
 40
26.21385198143429
 40
26.21385198143429
 10
2430.312456594915
 20
-635.5087362062541
 30
0.0
 10
2429.660119057123
 20
-639.7862752804785
 30
0.0
 10
2428.562187996018
 20
-647.7267476229836
 30
0.0
 10
2428.902352757277
 20
-655.8737548336276
 30
0.0
 10
2428.372016486006
 20
-659.5087362062532
 30
0.0
  0
SPLINE
  5
1AF18
330
18
100
AcDbEntity
  8
1DIM
100
AcDbSpline
210
0.0
220
0.0
230
1.0
 70
     8
 71
     3
 72
     9
 73
     5
 74
     0
 42
0.0000000001
 43
0.0000000001
 40
2.157351491937163
 40
2.157351491937163
 40
2.157351491937163
 40
2.157351491937163
 40
15.14258213632157
 40
26.21385198143429
 40
26.21385198143429
 40
26.21385198143429
 40
26.21385198143429
 10
2425.361022192323
 20
-635.5087362062541
 30
0.0
 10
2424.708684654532
 20
-639.7862752804785
 30
0.0
 10
2423.610753593426
 20
-647.7267476229836
 30
0.0
 10
2423.950918354685
 20
-655.8737548336267
 30
0.0
 10
2423.420582083414
 20
-659.5087362062532
 30
0.0
  0
SPLINE
  5
1AF19
330
18
100
AcDbEntity
  8
1DIM
100
AcDbSpline
210
0.0
220
0.0
230
1.0
 70
     8
 71
     3
 72
    10
 73
     6
 74
     0
 42
0.0000000001
 43
0.0000000001
 40
0.573966685473271
 40
0.573966685473271
 40
0.573966685473271
 40
0.573966685473271
 40
2.069915349509377
 40
4.311105269076966
 40
24.92825187245377
 40
24.92825187245377
 40
24.92825187245377
 40
24.92825187245377
 10
2421.807131093937
 20
-635.508736206275
 30
0.0
 10
2421.522291547129
 20
-635.9287541386566
 30
0.0
 10
2420.880045729002
 20
-637.0011170942735
 30
0.0
 10
2420.765278179114
 20
-645.3449090887534
 30
0.0
 10
2419.455819170165
 20
-652.8042312068483
 30
0.0
 10
2418.198973893011
 20
-659.5087362062541
 30
0.0
  0
SPLINE
  5
1AF1A
330
18
100
AcDbEntity
  8
1DIM
100
AcDbSpline
210
0.0
220
0.0
230
1.0
 70
     8
 71
     3
 72
    10
 73
     6
 74
     0
 42
0.0000000001
 43
0.0000000001
 40
0.7926682069600932
 40
0.7926682069600932
 40
0.7926682069600932
 40
0.7926682069600932
 40
3.694538041174608
 40
5.449085496492215
 40
25.28210754218233
 40
25.28210754218233
 40
25.28210754218233
 40
25.28210754218233
 10
2414.632204998974
 20
-635.5087362062541
 30
0.0
 10
2415.256622341363
 20
-636.3082599708041
 30
0.0
 10
2416.126082814706
 20
-637.6271266056738
 30
0.0
 10
2415.487204072813
 20
-645.9766857866398
 30
0.0
 10
2414.413044448049
 20
-653.0470751878502
 30
0.0
 10
2413.366101061852
 20
-659.5087362062541
 30
0.0
  0
SPLINE
  5
1AF1B
330
18
100
AcDbEntity
  8
1DIM
100
AcDbSpline
210
0.0
220
0.0
230
1.0
 70
     8
 71
     3
 72
    10
 73
     6
 74
     0
 42
0.0000000001
 43
0.0000000001
 40
1.567863582060758
 40
1.567863582060758
 40
1.567863582060758
 40
1.567863582060758
 40
10.96218243120594
 40
22.08775219293939
 40
25.58355016120244
 40
25.58355016120244
 40
25.58355016120244
 40
25.58355016120244
 10
2412.351200242772
 20
-635.5087362062541
 30
0.0
 10
2412.160702070841
 20
-638.6381467589226
 30
0.0
 10
2411.805783527112
 20
-645.473478475209
 30
0.0
 10
2412.483997548203
 20
-653.4697285869279
 30
0.0
 10
2412.494287372388
 20
-658.3433816052111
 30
0.0
 10
2412.487594051155
 20
-659.5087362062541
 30
0.0
  0
SPLINE
  5
1AF1C
330
18
100
AcDbEntity
  8
1DIM
100
AcDbSpline
210
0.0
220
0.0
230
1.0
 70
     8
 71
     3
 72
    10
 73
     6
 74
     0
 42
0.0000000001
 43
0.0000000001
 40
1.338343807819462
 40
1.338343807819462
 40
1.338343807819462
 40
1.338343807819462
 40
11.76292613365672
 40
24.22591331521301
 40
25.37808424940419
 40
25.37808424940419
 40
25.37808424940419
 40
25.37808424940419
 10
2406.452085877821
 20
-635.5087362062532
 30
0.0
 10
2406.806120787359
 20
-638.9758229773843
 30
0.0
 10
2407.496861161267
 20
-646.5881073657993
 30
0.0
 10
2406.468008203171
 20
-654.5868948868956
 30
0.0
 10
2406.426207891716
 20
-659.1246934723004
 30
0.0
 10
2406.425194350027
 20
-659.5087362062523
 30
0.0
  0
SPLINE
  5
1AF1D
330
18
100
AcDbEntity
  8
1DIM
100
AcDbSpline
210
0.0
220
0.0
230
1.0
 70
     8
 71
     3
 72
     9
 73
     5
 74
     0
 42
0.0000000001
 43
0.0000000001
 40
1.018166423753492
 40
1.018166423753492
 40
1.018166423753492
 40
1.018166423753492
 40
14.56776095549139
 40
25.02827803206339
 40
25.02827803206339
 40
25.02827803206339
 40
25.02827803206339
 10
2403.465793728948
 20
-635.5087362062504
 30
0.0
 10
2403.547914484785
 20
-640.0269607727878
 30
0.0
 10
2403.664632496771
 20
-648.0327376448213
 30
0.0
 10
2403.051128464466
 20
-656.0234597749768
 30
0.0
 10
2402.975335682569
 20
-659.5087362062495
 30
0.0
  0
SPLINE
  5
1AF1E
330
18
100
AcDbEntity
  8
1DIM
100
AcDbSpline
210
0.0
220
0.0
230
1.0
 70
     8
 71
     3
 72
     9
 73
     5
 74
     0
 42
0.0000000001
 43
0.0000000001
 40
1.35388813094919
 40
1.35388813094919
 40
1.35388813094919
 40
1.35388813094919
 40
23.19125161797683
 40
25.37936474040983
 40
25.37936474040983
 40
25.37936474040983
 40
25.37936474040983
 10
2393.83467793233
 20
-635.5087362062541
 30
0.0
 10
2393.309052536083
 20
-642.8192734107542
 30
0.0
 10
2392.827112702524
 20
-650.8565706188365
 30
0.0
 10
2394.161025045292
 20
-658.7853363728964
 30
0.0
 10
2394.260930000478
 20
-659.5087362062532
 30
0.0
  0
SPLINE
  5
1AF1F
330
18
100
AcDbEntity
  8
1DIM
100
AcDbSpline
210
0.0
220
0.0
230
1.0
 70
     8
 71
     3
 72
     9
 73
     5
 74
     0
 42
0.0000000001
 43
0.0000000001
 40
2.157351491937623
 40
2.157351491937623
 40
2.157351491937623
 40
2.157351491937623
 40
15.14258213632157
 40
26.21385198143475
 40
26.21385198143475
 40
26.21385198143475
 40
26.21385198143475
 10
2391.602832844857
 20
-635.5087362062377
 30
0.0
 10
2390.950495307066
 20
-639.7862752804622
 30
0.0
 10
2389.852564245959
 20
-647.7267476229672
 30
0.0
 10
2390.192729007219
 20
-655.8737548336112
 30
0.0
 10
2389.662392735948
 20
-659.5087362062377
 30
0.0
  0
SPLINE
  5
1AF20
330
18
100
AcDbEntity
  8
1DIM
100
AcDbSpline
210
0.0
220
0.0
230
1.0
 70
     8
 71
     3
 72
     9
 73
     5
 74
     0
 42
0.0000000001
 43
0.0000000001
 40
2.157351491937163
 40
2.157351491937163
 40
2.157351491937163
 40
2.157351491937163
 40
15.14258213632157
 40
26.21385198143475
 40
26.21385198143475
 40
26.21385198143475
 40
26.21385198143475
 10
2382.826486460915
 20
-635.5087362062541
 30
0.0
 10
2382.174148923123
 20
-639.7862752804785
 30
0.0
 10
2381.076217862017
 20
-647.7267476229836
 30
0.0
 10
2381.416382623276
 20
-655.8737548336276
 30
0.0
 10
2380.886046352005
 20
-659.5087362062541
 30
0.0
  0
SPLINE
  5
1AF21
330
18
100
AcDbEntity
  8
1DIM
100
AcDbSpline
210
0.0
220
0.0
230
1.0
 70
     8
 71
     3
 72
     9
 73
     5
 74
     0
 42
0.0000000001
 43
0.0000000001
 40
2.15735149193757
 40
2.15735149193757
 40
2.15735149193757
 40
2.15735149193757
 40
15.14258213632157
 40
26.21385198143475
 40
26.21385198143475
 40
26.21385198143475
 40
26.21385198143475
 10
2378.312062665883
 20
-635.5087362062541
 30
0.0
 10
2377.659725128092
 20
-639.7862752804785
 30
0.0
 10
2376.561794066987
 20
-647.7267476229836
 30
0.0
 10
2376.901958828246
 20
-655.8737548336276
 30
0.0
 10
2376.371622556975
 20
-659.5087362062541
 30
0.0
  0
SPLINE
  5
1AF22
330
18
100
AcDbEntity
  8
1DIM
100
AcDbSpline
210
0.0
220
0.0
230
1.0
 70
     8
 71
     3
 72
     9
 73
     5
 74
     0
 42
0.0000000001
 43
0.0000000001
 40
2.15735149193757
 40
2.15735149193757
 40
2.15735149193757
 40
2.15735149193757
 40
15.14258213632157
 40
26.21385198143475
 40
26.21385198143475
 40
26.21385198143475
 40
26.21385198143475
 10
2370.093574933063
 20
-635.508736206255
 30
0.0
 10
2369.441237395271
 20
-639.7862752804785
 30
0.0
 10
2368.343306334166
 20
-647.7267476229836
 30
0.0
 10
2368.683471095424
 20
-655.8737548336285
 30
0.0
 10
2368.153134824154
 20
-659.508736206255
 30
0.0
  0
SPLINE
  5
1AF23
330
18
100
AcDbEntity
  8
1DIM
100
AcDbSpline
210
0.0
220
0.0
230
1.0
 70
     8
 71
     3
 72
    10
 73
     6
 74
     0
 42
0.0000000001
 43
0.0000000001
 40
1.875535472082158
 40
1.875535472082158
 40
1.875535472082158
 40
1.875535472082158
 40
3.694538041174583
 40
5.44908549649201
 40
26.12304529921846
 40
26.12304529921846
 40
26.12304529921846
 40
26.12304529921846
 10
2357.380384335408
 20
-659.508736206255
 30
0.0
 10
2357.007240986396
 20
-659.0224719352427
 30
0.0
 10
2356.420542495585
 20
-658.0124541416253
 30
0.0
 10
2356.282977650338
 20
-649.7223553898584
 30
0.0
 10
2356.73395853102
 20
-642.314421560146
 30
0.0
 10
2357.20017631715
 20
-635.508736206255
 30
0.0
  0
SPLINE
  5
1AF24
330
18
100
AcDbEntity
  8
1DIM
100
AcDbSpline
210
0.0
220
0.0
230
1.0
 70
     8
 71
     3
 72
    10
 73
     6
 74
     0
 42
0.0000000001
 43
0.0000000001
 40
0.9336211519065216
 40
0.9336211519065216
 40
0.9336211519065216
 40
0.9336211519065216
 40
2.069915349509438
 40
4.311105269077146
 40
25.02010888607616
 40
25.02010888607616
 40
25.02010888607616
 40
25.02010888607616
 10
2349.22896828599
 20
-659.5087362062532
 30
0.0
 10
2349.401111474677
 20
-659.1678146111162
 30
0.0
 10
2349.833306269026
 20
-658.1359900163179
 30
0.0
 10
2349.180316015044
 20
-649.9090389047706
 30
0.0
 10
2349.799124730644
 20
-642.3310811965976
 30
0.0
 10
2350.431668855862
 20
-635.5087362062541
 30
0.0
  0
SPLINE
  5
1AF25
330
18
100
AcDbEntity
  8
1DIM
100
AcDbSpline
210
0.0
220
0.0
230
1.0
 70
     8
 71
     3
 72
    10
 73
     6
 74
     0
 42
0.0000000001
 43
0.0000000001
 40
1.567863582061012
 40
1.567863582061012
 40
1.567863582061012
 40
1.567863582061012
 40
10.96218243120594
 40
22.08775219293939
 40
25.58355016120268
 40
25.58355016120268
 40
25.58355016120268
 40
25.58355016120268
 10
2348.966828937289
 20
-635.5087362062532
 30
0.0
 10
2348.776330765359
 20
-638.6381467589226
 30
0.0
 10
2348.421412221629
 20
-645.47347847521
 30
0.0
 10
2349.09962624272
 20
-653.4697285869279
 30
0.0
 10
2349.109916066906
 20
-658.3433816052111
 30
0.0
 10
2349.103222745672
 20
-659.508736206255
 30
0.0
  0
SPLINE
  5
1AF26
330
18
100
AcDbEntity
  8
1DIM
100
AcDbSpline
210
0.0
220
0.0
230
1.0
 70
     8
 71
     3
 72
    10
 73
     6
 74
     0
 42
0.0000000001
 43
0.0000000001
 40
1.338343807819557
 40
1.338343807819557
 40
1.338343807819557
 40
1.338343807819557
 40
11.76292613365672
 40
24.22591331521301
 40
25.37808424940378
 40
25.37808424940378
 40
25.37808424940378
 40
25.37808424940378
 10
2343.426367630094
 20
-635.5087362062541
 30
0.0
 10
2343.780402539632
 20
-638.9758229773852
 30
0.0
 10
2344.471142913541
 20
-646.5881073658002
 30
0.0
 10
2343.442289955444
 20
-654.5868948868965
 30
0.0
 10
2343.400489643989
 20
-659.1246934723013
 30
0.0
 10
2343.399476102301
 20
-659.5087362062541
 30
0.0
  0
LINE
  5
1AF27
330
18
100
AcDbEntity
  8
01
100
AcDbLine
 10
2395.511287666848
 20
-659.5087362062541
 30
0.0
 11
2395.511287666848
 21
-673.5087362062559
 31
0.0
  0
LINE
  5
1AF28
330
18
100
AcDbEntity
  8
1CENTER
100
AcDbLine
 10
2164.511520346337
 20
-662.5087362062541
 30
0.0
 11
2164.511520346337
 21
-654.5087362062541
 31
0.0
  0
LINE
  5
1AF29
330
18
100
AcDbEntity
  8
01
100
AcDbLine
 10
2003.011520346337
 20
-621.0087362062559
 30
0.0
 11
2055.011520346333
 21
-621.0087362062559
 31
0.0
  0
LINE
  5
1AF2A
330
18
100
AcDbEntity
  8
01
100
AcDbLine
 10
2055.011520346333
 20
-674.0087362062559
 30
0.0
 11
2003.011520346337
 21
-674.0087362062559
 31
0.0
  0
LINE
  5
1AF2B
330
18
100
AcDbEntity
  8
01
100
AcDbLine
 10
2055.511520346333
 20
-621.5087362062559
 30
0.0
 11
2055.511520346333
 21
-673.5087362062559
 31
0.0
  0
ARC
  5
1AF2C
330
18
100
AcDbEntity
  8
01
100
AcDbCircle
 10
2055.011520346333
 20
-673.5087362062559
 30
0.0
 40
0.5
100
AcDbArc
 50
270.0
 51
0.0
  0
ARC
  5
1AF2D
330
18
100
AcDbEntity
  8
01
100
AcDbCircle
 10
2055.011520346333
 20
-621.5087362062559
 30
0.0
 40
0.5
100
AcDbArc
 50
0.0
 51
90.0
  0
LINE
  5
1AF2E
330
18
100
AcDbEntity
  8
01
100
AcDbLine
 10
2002.511520346337
 20
-621.5087362062559
 30
0.0
 11
2002.511520346337
 21
-635.5087362062541
 31
0.0
  0
ARC
  5
1AF2F
330
18
100
AcDbEntity
  8
01
100
AcDbCircle
 10
2003.011520346337
 20
-673.5087362062559
 30
0.0
 40
0.5
100
AcDbArc
 50
180.0
 51
270.0
  0
ARC
  5
1AF30
330
18
100
AcDbEntity
  8
01
100
AcDbCircle
 10
2003.011520346337
 20
-621.5087362062559
 30
0.0
 40
0.5
100
AcDbArc
 50
90.0
 51
180.0
  0
LINE
  5
1AF31
330
18
100
AcDbEntity
  8
01
100
AcDbLine
 10
2124.411520345518
 20
-659.5087362062541
 30
0.0
 11
2128.911520345518
 21
-659.5087362062541
 31
0.0
  0
ARC
  5
1AF32
330
18
100
AcDbEntity
  8
01
100
AcDbCircle
 10
2128.911520345518
 20
-659.0087362062541
 30
0.0
 40
0.5
100
AcDbArc
 50
270.0
 51
0.0
  0
ARC
  5
1AF33
330
18
100
AcDbEntity
  8
01
100
AcDbCircle
 10
2124.911520345518
 20
-658.5087362062541
 30
0.0
 40
1.0
100
AcDbArc
 50
180.0
 51
270.0
  0
LINE
  5
1AF34
330
18
100
AcDbEntity
  8
01
100
AcDbLine
 10
2123.411520345518
 20
-658.5087362062541
 30
0.0
 11
2123.411520345518
 21
-636.5087362062541
 31
0.0
  0
ARC
  5
1AF35
330
18
100
AcDbEntity
  8
01
100
AcDbCircle
 10
2124.411520345518
 20
-658.5087362062541
 30
0.0
 40
1.0
100
AcDbArc
 50
180.0
 51
270.0
  0
ARC
  5
1AF36
330
18
100
AcDbEntity
  8
01
100
AcDbCircle
 10
2124.411520345518
 20
-636.5087362062541
 30
0.0
 40
1.0
100
AcDbArc
 50
90.0
 51
180.0
  0
LINE
  5
1AF37
330
18
100
AcDbEntity
  8
01
100
AcDbLine
 10
2123.911520345518
 20
-658.5087362062541
 30
0.0
 11
2123.911520345518
 21
-636.5087362062541
 31
0.0
  0
ARC
  5
1AF38
330
18
100
AcDbEntity
  8
01
100
AcDbCircle
 10
2124.911520345518
 20
-636.5087362062541
 30
0.0
 40
1.0
100
AcDbArc
 50
90.0
 51
180.0
  0
LINE
  5
1AF39
330
18
100
AcDbEntity
  8
01
100
AcDbLine
 10
2124.411520345518
 20
-635.5087362062541
 30
0.0
 11
2128.911520345518
 21
-635.5087362062541
 31
0.0
  0
LINE
  5
1AF3A
330
18
100
AcDbEntity
  8
01
100
AcDbLine
 10
2129.411520345518
 20
-659.0087362062541
 30
0.0
 11
2129.411520345518
 21
-636.0087362062541
 31
0.0
  0
ARC
  5
1AF3B
330
18
100
AcDbEntity
  8
01
100
AcDbCircle
 10
2128.911520345518
 20
-636.0087362062541
 30
0.0
 40
0.5
100
AcDbArc
 50
0.0
 51
90.0
  0
LINE
  5
1AF3C
330
18
100
AcDbEntity
  8
01
100
AcDbLine
 10
2129.411520345518
 20
-658.5087362062541
 30
0.0
 11
2129.911520345518
 21
-658.5087362062541
 31
0.0
  0
LINE
  5
1AF3D
330
18
100
AcDbEntity
  8
01
100
AcDbLine
 10
2129.911520345518
 20
-658.5087362062541
 30
0.0
 11
2129.911520345518
 21
-636.508736206255
 31
0.0
  0
LINE
  5
1AF3E
330
18
100
AcDbEntity
  8
01
100
AcDbLine
 10
2129.411520345518
 20
-636.508736206255
 30
0.0
 11
2129.911520345518
 21
-636.508736206255
 31
0.0
  0
LINE
  5
1AF3F
330
18
100
AcDbEntity
  8
01
100
AcDbLine
 10
2170.011520346337
 20
-637.0087362062541
 30
0.0
 11
2170.011520346337
 21
-658.0087362062541
 31
0.0
  0
LINE
  5
1AF40
330
18
100
AcDbEntity
  8
01
100
AcDbLine
 10
2170.011520346337
 20
-637.0087362062541
 30
0.0
 11
2141.448012018623
 21
-637.0087362062541
 31
0.0
  0
LINE
  5
1AF41
330
18
100
AcDbEntity
  8
01
100
AcDbLine
 10
2170.011520346337
 20
-658.0087362062541
 30
0.0
 11
2141.448012018624
 21
-658.0087362062541
 31
0.0
  0
LINE
  5
1AF42
330
18
100
AcDbEntity
  8
01
100
AcDbLine
 10
2139.51152034552
 20
-659.5087362062541
 30
0.0
 11
2130.41152034552
 21
-659.5087362062532
 31
0.0
  0
LINE
  5
1AF43
330
18
100
AcDbEntity
  8
01
100
AcDbLine
 10
2139.511520345519
 20
-635.5087362062541
 30
0.0
 11
2130.41152034552
 21
-635.5087362062541
 31
0.0
  0
ARC
  5
1AF44
330
18
100
AcDbEntity
  8
01
100
AcDbCircle
 10
2139.511520345519
 20
-636.5087362062541
 30
0.0
 40
1.0
100
AcDbArc
 50
14.47751218594207
 51
90.0
  0
ARC
  5
1AF45
330
18
100
AcDbEntity
  8
01
100
AcDbCircle
 10
2141.448012018623
 20
-636.0087362062541
 30
0.0
 40
1.0
100
AcDbArc
 50
194.4775121859421
 51
270.0
  0
ARC
  5
1AF46
330
18
100
AcDbEntity
  8
01
100
AcDbCircle
 10
2130.41152034552
 20
-636.0087362062541
 30
0.0
 40
0.5
100
AcDbArc
 50
90.0
 51
180.0
  0
LINE
  5
1AF47
330
18
100
AcDbEntity
  8
01
100
AcDbLine
 10
2129.91152034552
 20
-659.0087362062532
 30
0.0
 11
2129.91152034552
 21
-636.0087362062541
 31
0.0
  0
ARC
  5
1AF48
330
18
100
AcDbEntity
  8
01
100
AcDbCircle
 10
2130.41152034552
 20
-659.0087362062532
 30
0.0
 40
0.5
100
AcDbArc
 50
180.0
 51
270.0
  0
LINE
  5
1AF49
330
18
100
AcDbEntity
  8
01
100
AcDbLine
 10
2140.511520345519
 20
-636.5087362062541
 30
0.0
 11
2140.51152034552
 21
-636.5087362062541
 31
0.0
  0
LINE
  5
1AF4A
330
18
100
AcDbEntity
  8
01
100
AcDbLine
 10
2140.51152034552
 20
-658.5087362062541
 30
0.0
 11
2140.511520345519
 21
-636.5087362062541
 31
0.0
  0
ARC
  5
1AF4B
330
18
100
AcDbEntity
  8
01
100
AcDbCircle
 10
2139.51152034552
 20
-658.5087362062541
 30
0.0
 40
1.0
100
AcDbArc
 50
270.0
 51
345.5224878140579
  0
ARC
  5
1AF4C
330
18
100
AcDbEntity
  8
01
100
AcDbCircle
 10
2141.448012018624
 20
-659.0087362062541
 30
0.0
 40
1.0
100
AcDbArc
 50
90.0
 51
165.5224878140579
  0
LINE
  5
1AF4D
330
18
100
AcDbEntity
  8
01
100
AcDbLine
 10
2002.511520346337
 20
-659.5087362062541
 30
0.0
 11
2002.511520346337
 21
-673.5087362062559
 31
0.0
  0
LINE
  5
1AF50
330
18
100
AcDbEntity
  8
01
100
AcDbLine
 10
2343.011404006591
 20
-308.4087362064647
 30
0.0
 11
2483.511404006591
 21
-308.4087362064647
 31
0.0
  0
LINE
  5
1AF51
330
18
100
AcDbEntity
  8
01
100
AcDbLine
 10
2343.511404006591
 20
-308.4087362064647
 30
0.0
 11
2343.511404006591
 21
-307.9087362064647
 31
0.0
  0
LINE
  5
1AF52
330
18
100
AcDbEntity
  8
01
100
AcDbLine
 10
2483.011404006591
 20
-308.4087362064656
 30
0.0
 11
2483.011404006591
 21
-307.9087362064656
 31
0.0
  0
LINE
  5
1AF53
330
18
100
AcDbEntity
  8
01
100
AcDbLine
 10
2484.011404006591
 20
-307.4087362064647
 30
0.0
 11
2484.011404006591
 21
-303.4087362064647
 31
0.0
  0
ARC
  5
1AF54
330
18
100
AcDbEntity
  8
01
100
AcDbCircle
 10
2483.511404006591
 20
-307.4087362064647
 30
0.0
 40
0.5
100
AcDbArc
 50
270.0
 51
0.0
  0
ARC
  5
1AF55
330
18
100
AcDbEntity
  8
01
100
AcDbCircle
 10
2483.011404006591
 20
-303.4087362064647
 30
0.0
 40
1.0
100
AcDbArc
 50
0.0
 51
90.0
  0
LINE
  5
1AF56
330
18
100
AcDbEntity
  8
01
100
AcDbLine
 10
2342.511404006591
 20
-307.4087362064647
 30
0.0
 11
2342.511404006591
 21
-303.4062345526636
 31
0.0
  0
LINE
  5
1AF57
330
18
100
AcDbEntity
  8
01
100
AcDbLine
 10
2483.511404006591
 20
-307.9087362064647
 30
0.0
 11
2343.011404006591
 21
-307.9087362064647
 31
0.0
  0
ARC
  5
1AF58
330
18
100
AcDbEntity
  8
01
100
AcDbCircle
 10
2343.011404006591
 20
-307.4087362064647
 30
0.0
 40
0.5
100
AcDbArc
 50
180.0
 51
270.0
  0
ARC
  5
1AF59
330
18
100
AcDbEntity
  8
01
100
AcDbCircle
 10
2368.153250337287
 20
-299.4087362064647
 30
0.0
 40
3.0
100
AcDbArc
 50
270.0
 51
303.5573097619437
  0
ARC
  5
1AF5A
330
18
100
AcDbEntity
  8
01
100
AcDbCircle
 10
2357.380499848542
 20
-297.4087362064638
 30
0.0
 40
5.0
100
AcDbArc
 50
244.1580672367953
 51
270.0
  0
ARC
  5
1AF5B
330
18
100
AcDbEntity
  8
01
100
AcDbCircle
 10
2376.371738070107
 20
-296.4087362064647
 30
0.0
 40
6.0
100
AcDbArc
 50
246.4435356908845
 51
270.0
  0
ARC
  5
1AF5C
330
18
100
AcDbEntity
  8
01
100
AcDbCircle
 10
2343.399591615433
 20
-300.9087362064811
 30
0.0
 40
1.5
100
AcDbArc
 50
272.5634063353481
 51
318.1896851050645
  0
ARC
  5
1AF5D
330
18
100
AcDbEntity
  8
01
100
AcDbCircle
 10
2343.511404006591
 20
-303.4062345526636
 30
0.0
 40
1.0
100
AcDbArc
 50
92.56340633533068
 51
180.0
  0
ARC
  5
1AF5E
330
18
100
AcDbEntity
  8
01
100
AcDbCircle
 10
2349.229083799124
 20
-300.9087362064811
 30
0.0
 40
1.5
100
AcDbArc
 50
270.0
 51
318.1896851050645
  0
ARC
  5
1AF5F
330
18
100
AcDbEntity
  8
01
100
AcDbCircle
 10
2349.103338258806
 20
-300.9087362064793
 30
0.0
 40
1.5
100
AcDbArc
 50
221.8103148949355
 51
270.0
  0
ARC
  5
1AF60
330
18
100
AcDbEntity
  8
01
100
AcDbCircle
 10
2389.662508249081
 20
-300.9087362064793
 30
0.0
 40
1.5
100
AcDbArc
 50
221.8103148949355
 51
270.0
  0
ARC
  5
1AF61
330
18
100
AcDbEntity
  8
01
100
AcDbCircle
 10
2412.487709564289
 20
-300.9087362064802
 30
0.0
 40
1.5
100
AcDbArc
 50
221.8103148949355
 51
270.0
  0
ARC
  5
1AF62
330
18
100
AcDbEntity
  8
01
100
AcDbCircle
 10
2428.37213199914
 20
-300.9087362064802
 30
0.0
 40
1.5
100
AcDbArc
 50
221.8103148949355
 51
270.0
  0
ARC
  5
1AF63
330
18
100
AcDbEntity
  8
01
100
AcDbCircle
 10
2450.546716986833
 20
-300.9087362064793
 30
0.0
 40
1.5
100
AcDbArc
 50
221.8103148949355
 51
270.0
  0
ARC
  5
1AF64
330
18
100
AcDbEntity
  8
01
100
AcDbCircle
 10
2471.854287492758
 20
-299.4087362064656
 30
0.0
 40
3.0
100
AcDbArc
 50
270.0
 51
303.5573097619509
  0
ARC
  5
1AF65
330
18
100
AcDbEntity
  8
01
100
AcDbCircle
 10
2451.850527863726
 20
-299.4087362064638
 30
0.0
 40
3.0
100
AcDbArc
 50
270.0
 51
303.5573097619509
  0
ARC
  5
1AF66
330
18
100
AcDbEntity
  8
01
100
AcDbCircle
 10
2423.420697596545
 20
-299.4087362064656
 30
0.0
 40
3.0
100
AcDbArc
 50
270.0
 51
303.5573097619437
  0
ARC
  5
1AF67
330
18
100
AcDbEntity
  8
01
100
AcDbCircle
 10
2380.886161865137
 20
-299.4087362064647
 30
0.0
 40
3.0
100
AcDbArc
 50
270.0
 51
303.5573097619437
  0
ARC
  5
1AF68
330
18
100
AcDbEntity
  8
01
100
AcDbCircle
 10
2445.341484803361
 20
-295.4087362064674
 30
0.0
 40
7.0
100
AcDbArc
 50
270.0
 51
291.7867892983004
  0
ARC
  5
1AF69
330
18
100
AcDbEntity
  8
01
100
AcDbCircle
 10
2461.362882983953
 20
-295.4087362064665
 30
0.0
 40
7.0
100
AcDbArc
 50
270.0
 51
291.7867892983004
  0
ARC
  5
1AF6A
330
18
100
AcDbEntity
  8
01
100
AcDbCircle
 10
2406.42530986316
 20
-297.4087362064647
 30
0.0
 40
5.0
100
AcDbArc
 50
270.0
 51
295.8419327632047
  0
ARC
  5
1AF6B
330
18
100
AcDbEntity
  8
01
100
AcDbCircle
 10
2394.261045513612
 20
-299.4087362064647
 30
0.0
 40
3.0
100
AcDbArc
 50
270.0
 51
303.5573097619437
  0
ARC
  5
1AF6C
330
18
100
AcDbEntity
  8
01
100
AcDbCircle
 10
2413.366216574985
 20
-299.4087362064656
 30
0.0
 40
3.0
100
AcDbArc
 50
270.0
 51
303.5573097619437
  0
ARC
  5
1AF6D
330
18
100
AcDbEntity
  8
01
100
AcDbCircle
 10
2432.152113032478
 20
-299.4087362064647
 30
0.0
 40
3.0
100
AcDbArc
 50
270.0
 51
303.5573097619509
  0
ARC
  5
1AF6E
330
18
100
AcDbEntity
  8
01
100
AcDbCircle
 10
2402.975451195703
 20
-295.4087362064674
 30
0.0
 40
7.0
100
AcDbArc
 50
248.2132107016996
 51
270.0
  0
ARC
  5
1AF6F
330
18
100
AcDbEntity
  8
01
100
AcDbCircle
 10
2478.041394456439
 20
-295.4087362064665
 30
0.0
 40
7.0
100
AcDbArc
 50
248.2132107016996
 51
270.0
  0
ARC
  5
1AF70
330
18
100
AcDbEntity
  8
01
100
AcDbCircle
 10
2442.859525885429
 20
-295.4087362064665
 30
0.0
 40
7.0
100
AcDbArc
 50
248.2132107016996
 51
270.0
  0
ARC
  5
1AF71
330
18
100
AcDbEntity
  8
01
100
AcDbCircle
 10
2418.199089406145
 20
-300.4087362064638
 30
0.0
 40
2.0
100
AcDbArc
 50
228.5903778907292
 51
270.0
  0
ARC
  5
1AF72
330
18
100
AcDbEntity
  8
01
100
AcDbCircle
 10
2457.59663215503
 20
-300.4087362064638
 30
0.0
 40
2.0
100
AcDbArc
 50
228.5903778907292
 51
270.0
  0
ARC
  5
1AF73
330
18
100
AcDbEntity
  8
01
100
AcDbCircle
 10
2471.754370601999
 20
-300.4087362064647
 30
0.0
 40
2.0
100
AcDbArc
 50
228.5903778907292
 51
270.0
  0
LINE
  5
1AF74
330
18
100
AcDbEntity
  8
01
100
AcDbLine
 10
2475.443318245079
 20
-301.9087362064638
 30
0.0
 11
2473.512599887938
 21
-301.9087362064638
 31
0.0
  0
LINE
  5
1AF75
330
18
100
AcDbEntity
  8
01
100
AcDbLine
 10
2470.431494946467
 20
-301.9087362064638
 30
0.0
 11
2463.960959195315
 21
-301.9087362064629
 31
0.0
  0
LINE
  5
1AF76
330
18
100
AcDbEntity
  8
01
100
AcDbLine
 10
2456.273756499498
 20
-301.9087362064638
 30
0.0
 11
2453.508840258905
 21
-301.9087362064638
 31
0.0
  0
LINE
  5
1AF77
330
18
100
AcDbEntity
  8
01
100
AcDbLine
 10
2449.428682998069
 20
-301.9087362064638
 30
0.0
 11
2447.939561014725
 21
-301.9087362064638
 31
0.0
  0
LINE
  5
1AF78
330
18
100
AcDbEntity
  8
01
100
AcDbLine
 10
2440.261449674068
 20
-301.9087362064638
 30
0.0
 11
2433.810425427656
 21
-301.9087362064638
 31
0.0
  0
LINE
  5
1AF79
330
18
100
AcDbEntity
  8
01
100
AcDbLine
 10
2427.254098010374
 20
-301.9087362064638
 30
0.0
 11
2425.079009991726
 21
-301.9087362064638
 31
0.0
  0
LINE
  5
1AF7A
330
18
100
AcDbEntity
  8
01
100
AcDbLine
 10
2416.876213750612
 20
-301.9087362064638
 30
0.0
 11
2415.024528970167
 21
-301.9087362064638
 31
0.0
  0
LINE
  5
1AF7B
330
18
100
AcDbEntity
  8
01
100
AcDbLine
 10
2411.369675575524
 20
-301.9087362064629
 30
0.0
 11
2408.604759334934
 21
-301.9087362064629
 31
0.0
  0
LINE
  5
1AF7C
330
18
100
AcDbEntity
  8
01
100
AcDbLine
 10
2400.377374984338
 20
-301.9087362064629
 30
0.0
 11
2395.919357908792
 21
-301.9087362064629
 31
0.0
  0
LINE
  5
1AF7D
330
18
100
AcDbEntity
  8
01
100
AcDbLine
 10
2388.544474260316
 20
-301.9087362064629
 30
0.0
 11
2382.544474260317
 21
-301.9087362064629
 31
0.0
  0
LINE
  5
1AF7E
330
18
100
AcDbEntity
  8
01
100
AcDbLine
 10
2373.973822308447
 20
-301.9087362064629
 30
0.0
 11
2369.811562732466
 21
-301.9087362064629
 31
0.0
  0
LINE
  5
1AF7F
330
18
100
AcDbEntity
  8
01
100
AcDbLine
 10
2355.201050376769
 20
-301.9087362064629
 30
0.0
 11
2350.34711778789
 21
-301.9087362064629
 31
0.0
  0
LINE
  5
1AF80
330
18
100
AcDbEntity
  8
01
100
AcDbLine
 10
2347.985304270041
 20
-301.9087362064629
 30
0.0
 11
2344.517625604199
 21
-301.9087362064638
 31
0.0
  0
LINE
  5
1AF81
330
18
100
AcDbEntity
  8
01
100
AcDbLine
 10
2349.103338258806
 20
-302.4087362064647
 30
0.0
 11
2349.229083799124
 21
-302.4087362064647
 31
0.0
  0
LINE
  5
1AF82
330
18
100
AcDbEntity
  8
01
100
AcDbLine
 10
2357.380499848542
 20
-302.4087362064647
 30
0.0
 11
2368.153250337287
 21
-302.4087362064647
 31
0.0
  0
LINE
  5
1AF83
330
18
100
AcDbEntity
  8
01
100
AcDbLine
 10
2376.371738070107
 20
-302.4087362064647
 30
0.0
 11
2380.886161865137
 21
-302.4087362064647
 31
0.0
  0
LINE
  5
1AF84
330
18
100
AcDbEntity
  8
01
100
AcDbLine
 10
2389.662508249081
 20
-302.4087362064647
 30
0.0
 11
2394.261045513612
 21
-302.4087362064647
 31
0.0
  0
LINE
  5
1AF85
330
18
100
AcDbEntity
  8
01
100
AcDbLine
 10
2402.975451195703
 20
-302.4087362064647
 30
0.0
 11
2406.42530986316
 21
-302.4087362064647
 31
0.0
  0
LINE
  5
1AF86
330
18
100
AcDbEntity
  8
01
100
AcDbLine
 10
2412.487709564289
 20
-302.4087362064647
 30
0.0
 11
2413.366216574985
 21
-302.4087362064647
 31
0.0
  0
LINE
  5
1AF87
330
18
100
AcDbEntity
  8
01
100
AcDbLine
 10
2418.199089406145
 20
-302.4087362064647
 30
0.0
 11
2423.420697596545
 21
-302.4087362064647
 31
0.0
  0
LINE
  5
1AF88
330
18
100
AcDbEntity
  8
01
100
AcDbLine
 10
2428.37213199914
 20
-302.4087362064647
 30
0.0
 11
2432.152113032478
 21
-302.4087362064647
 31
0.0
  0
LINE
  5
1AF89
330
18
100
AcDbEntity
  8
01
100
AcDbLine
 10
2442.859525885429
 20
-302.4087362064647
 30
0.0
 11
2445.341484803361
 21
-302.4087362064647
 31
0.0
  0
LINE
  5
1AF8A
330
18
100
AcDbEntity
  8
01
100
AcDbLine
 10
2450.546716986833
 20
-302.4087362064647
 30
0.0
 11
2451.850527863726
 21
-302.4087362064647
 31
0.0
  0
LINE
  5
1AF8B
330
18
100
AcDbEntity
  8
01
100
AcDbLine
 10
2457.59663215503
 20
-302.4087362064647
 30
0.0
 11
2461.362882983953
 21
-302.4087362064647
 31
0.0
  0
LINE
  5
1AF8C
330
18
100
AcDbEntity
  8
01
100
AcDbLine
 10
2471.754370601999
 20
-302.4087362064647
 30
0.0
 11
2471.854287492758
 21
-302.4087362064647
 31
0.0
  0
LINE
  5
1AF8D
330
18
100
AcDbEntity
  8
01
100
AcDbLine
 10
2478.041394456439
 20
-302.4087362064647
 30
0.0
 11
2483.011404006591
 21
-302.4087362064647
 31
0.0
  0
LINE
  5
1AF8E
330
18
100
AcDbEntity
  8
01
100
AcDbLine
 10
2342.511404006591
 20
-318.0087362064642
 30
0.0
 11
2342.511404006591
 21
-308.9087362064647
 31
0.0
  0
LINE
  5
1AF8F
330
18
100
AcDbEntity
  8
01
100
AcDbLine
 10
2484.011404006591
 20
-318.008736206466
 30
0.0
 11
2484.011404006591
 21
-308.9087362064656
 31
0.0
  0
ARC
  5
1AF90
330
18
100
AcDbEntity
  8
01
100
AcDbCircle
 10
2483.511404006591
 20
-308.9087362064656
 30
0.0
 40
0.5
100
AcDbArc
 50
0.0
 51
90.0
  0
ARC
  5
1AF91
330
18
100
AcDbEntity
  8
01
100
AcDbCircle
 10
2483.011404006591
 20
-318.008736206466
 30
0.0
 40
1.0
100
AcDbArc
 50
270.0
 51
0.0
  0
ARC
  5
1AF92
330
18
100
AcDbEntity
  8
01
100
AcDbCircle
 10
2343.011404006591
 20
-308.9087362064647
 30
0.0
 40
0.5
100
AcDbArc
 50
90.0
 51
180.0
  0
ARC
  5
1AF93
330
18
100
AcDbEntity
  8
01
100
AcDbCircle
 10
2343.511404006591
 20
-318.0087362064642
 30
0.0
 40
1.0
100
AcDbArc
 50
180.0
 51
270.0
  0
LINE
  5
1AF94
330
18
100
AcDbEntity
  8
01
100
AcDbLine
 10
2358.511404006591
 20
-348.5087362064651
 30
0.0
 11
2358.511404006591
 21
-320.0087362064642
 31
0.0
  0
ARC
  5
1AF95
330
18
100
AcDbEntity
  8
01
100
AcDbCircle
 10
2380.511404006591
 20
-320.0087362064642
 30
0.0
 40
1.0
100
AcDbArc
 50
90.0
 51
180.0
  0
ARC
  5
1AF96
330
18
100
AcDbEntity
  8
01
100
AcDbCircle
 10
2357.511404006591
 20
-320.0087362064642
 30
0.0
 40
1.0
100
AcDbArc
 50
0.0
 51
90.0
  0
LINE
  5
1AF97
330
18
100
AcDbEntity
  8
01
100
AcDbLine
 10
2358.511404006591
 20
-348.5087362072827
 30
0.0
 11
2379.511404006591
 21
-348.5087362072827
 31
0.0
  0
LINE
  5
1AF98
330
18
100
AcDbEntity
  8
01
100
AcDbLine
 10
2379.511404006591
 20
-348.5087362072827
 30
0.0
 11
2379.511404006591
 21
-320.0087362064642
 31
0.0
  0
LINE
  5
1AF99
330
18
100
AcDbEntity
  8
01
100
AcDbLine
 10
2343.511404006591
 20
-319.0087362064642
 30
0.0
 11
2483.011404006591
 21
-319.008736206466
 31
0.0
  0
TEXT
  5
1B227
330
18
100
AcDbEntity
  8
01
  6
CONTINUOUS
100
AcDbText
 10
2280.014448759866
 20
-434.9254028739493
 30
0.0
 40
4.55
  1
材質：亜鉛ダイキャスト
100
AcDbText
  0
TEXT
  5
1B228
330
18
100
AcDbEntity
  8
01
  6
CONTINUOUS
100
AcDbText
 10
2290.327782093199
 20
-442.5087362072827
 30
0.0
 40
4.55
  1
仕上げ：各種メッキ
100
AcDbText
  0
LINE
  5
1B229
330
18
100
AcDbEntity
  8
01
100
AcDbLine
 10
2307.011287666848
 20
-619.5087369043854
 30
0.0
 11
2307.011287666848
 21
-516.7872441215661
 31
0.0
1001
ACAD
1000
DSTYLE
1002
{
1070
    40
1040
1.3
1070
    45
1040
0.5
1002
}
  0
LINE
  5
1B22A
330
18
100
AcDbEntity
  8
01
100
AcDbLine
 10
2318.011287666848
 20
-561.6374188550965
 30
0.0
 11
2318.011287666848
 21
-516.7872441215661
 31
0.0
1001
ACAD
1000
DSTYLE
1002
{
1070
    40
1040
1.3
1070
    45
1040
0.5
1002
}
  0
LINE
  5
1B22B
330
18
100
AcDbEntity
  8
01
100
AcDbLine
 10
2309.611287666848
 20
-518.0872441215661
 30
0.0
 11
2315.411287666848
 21
-518.0872441215661
 31
0.0
1001
ACAD
1000
DSTYLE
1002
{
1070
    40
1040
1.3
1070
    45
1040
0.5
1002
}
  0
LINE
  5
1B22F
330
18
100
AcDbEntity
  8
01
100
AcDbLine
 10
2387.011287666848
 20
-589.5161087138622
 30
0.0
 11
2415.311287666848
 21
-589.5161087138622
 31
0.0
1001
ACAD
1000
DSTYLE
1002
{
1070
    40
1040
1.3
1070
    45
1040
0.5
1002
}
  0
LINE
  5
1B230
330
18
100
AcDbEntity
  8
01
100
AcDbLine
 10
2387.011287666848
 20
-663.5087362062545
 30
0.0
 11
2415.311287666848
 21
-663.5087362062545
 31
0.0
1001
ACAD
1000
DSTYLE
1002
{
1070
    40
1040
1.3
1070
    45
1040
0.5
1002
}
  0
LINE
  5
1B231
330
18
100
AcDbEntity
  8
01
100
AcDbLine
 10
2414.011287666848
 20
-592.1161087138622
 30
0.0
 11
2414.011287666848
 21
-660.9087362062545
 31
0.0
1001
ACAD
1000
DSTYLE
1002
{
1070
    40
1040
1.3
1070
    45
1040
0.5
1002
}
  0
LINE
  5
1B235
330
18
100
AcDbEntity
  8
01
100
AcDbLine
 10
2387.011287666848
 20
-589.5161087138622
 30
0.0
 11
2387.011287666848
 21
-506.7073766535179
 31
0.0
1001
ACAD
1000
DSTYLE
1002
{
1070
    40
1040
1.3
1070
    45
1040
0.5
1002
}
  0
LINE
  5
1B236
330
18
100
AcDbEntity
  8
01
100
AcDbLine
 10
2318.011287666848
 20
-561.6374188550965
 30
0.0
 11
2318.011287666848
 21
-506.7073766535179
 31
0.0
1001
ACAD
1000
DSTYLE
1002
{
1070
    40
1040
1.3
1070
    45
1040
0.5
1002
}
  0
LINE
  5
1B237
330
18
100
AcDbEntity
  8
01
100
AcDbLine
 10
2384.411287666848
 20
-508.0073766535179
 30
0.0
 11
2320.611287666848
 21
-508.0073766535179
 31
0.0
1001
ACAD
1000
DSTYLE
1002
{
1070
    40
1040
1.3
1070
    45
1040
0.5
1002
}
  0
LINE
  5
1B23B
330
18
100
AcDbEntity
  8
01
100
AcDbLine
 10
2318.011287666848
 20
-561.6374188550965
 30
0.0
 11
2318.011287666848
 21
-516.7872441215661
 31
0.0
1001
ACAD
1000
DSTYLE
1002
{
1070
    40
1040
1.3
1070
    45
1040
0.5
1002
}
  0
LINE
  5
1B23C
330
18
100
AcDbEntity
  8
01
100
AcDbLine
 10
2369.011287666848
 20
-597.5087362062541
 30
0.0
 11
2369.011287666848
 21
-516.7872441215661
 31
0.0
1001
ACAD
1000
DSTYLE
1002
{
1070
    40
1040
1.3
1070
    45
1040
0.5
1002
}
  0
LINE
  5
1B23D
330
18
100
AcDbEntity
  8
01
100
AcDbLine
 10
2320.611287666848
 20
-518.0872441215661
 30
0.0
 11
2366.411287666848
 21
-518.0872441215661
 31
0.0
1001
ACAD
1000
DSTYLE
1002
{
1070
    40
1040
1.3
1070
    45
1040
0.5
1002
}
  0
LINE
  5
1B241
330
18
100
AcDbEntity
  8
01
100
AcDbLine
 10
2204.886429414498
 20
-569.5087362062548
 30
0.0
 11
2285.172560582706
 21
-569.5087362062548
 31
0.0
1001
ACAD
1000
DSTYLE
1002
{
1070
    40
1040
1.3
1070
    45
1040
0.5
1002
}
  0
LINE
  5
1B242
330
18
100
AcDbEntity
  8
01
100
AcDbLine
 10
2204.886429414498
 20
-683.5087362062548
 30
0.0
 11
2285.172560582706
 21
-683.5087362062548
 31
0.0
1001
ACAD
1000
DSTYLE
1002
{
1070
    40
1040
1.3
1070
    45
1040
0.5
1002
}
  0
LINE
  5
1B243
330
18
100
AcDbEntity
  8
01
100
AcDbLine
 10
2283.872560582706
 20
-572.1087362062548
 30
0.0
 11
2283.872560582706
 21
-680.9087362062547
 31
0.0
1001
ACAD
1000
DSTYLE
1002
{
1070
    40
1040
1.3
1070
    45
1040
0.5
1002
}
  0
LINE
  5
1B247
330
18
100
AcDbEntity
  8
01
100
AcDbLine
 10
2205.484489811262
 20
-561.6091813506712
 30
0.0
 11
2294.536894748931
 21
-561.6091813506712
 31
0.0
1001
ACAD
1000
DSTYLE
1002
{
1070
    40
1040
1.3
1070
    45
1040
0.5
1002
}
  0
LINE
  5
1B248
330
18
100
AcDbEntity
  8
01
100
AcDbLine
 10
2205.411404006592
 20
-691.4087362062546
 30
0.0
 11
2294.536894748931
 21
-691.4087362062546
 31
0.0
1001
ACAD
1000
DSTYLE
1002
{
1070
    40
1040
1.3
1070
    45
1040
0.5
1002
}
  0
LINE
  5
1B249
330
18
100
AcDbEntity
  8
01
100
AcDbLine
 10
2293.236894748931
 20
-564.2091813506712
 30
0.0
 11
2293.236894748931
 21
-688.8087362062546
 31
0.0
1001
ACAD
1000
DSTYLE
1002
{
1070
    40
1040
1.3
1070
    45
1040
0.5
1002
}
  0
LINE
  5
1B24D
330
18
100
AcDbEntity
  8
01
100
AcDbLine
 10
2186.511404006592
 20
-567.5087362062545
 30
0.0
 11
2186.511404006592
 21
-516.7872441215663
 31
0.0
1001
ACAD
1000
DSTYLE
1002
{
1070
    40
1040
1.3
1070
    45
1040
0.5
1002
}
  0
LINE
  5
1B24E
330
18
100
AcDbEntity
  8
01
100
AcDbLine
 10
2211.511404006592
 20
-567.5087362062545
 30
0.0
 11
2211.511404006592
 21
-516.7872441215663
 31
0.0
1001
ACAD
1000
DSTYLE
1002
{
1070
    40
1040
1.3
1070
    45
1040
0.5
1002
}
  0
LINE
  5
1B24F
330
18
100
AcDbEntity
  8
01
100
AcDbLine
 10
2189.111404006592
 20
-518.0872441215663
 30
0.0
 11
2208.911404006592
 21
-518.0872441215663
 31
0.0
1001
ACAD
1000
DSTYLE
1002
{
1070
    40
1040
1.3
1070
    45
1040
0.5
1002
}
  0
LINE
  5
1B253
330
18
100
AcDbEntity
  8
01
100
AcDbLine
 10
2343.011287666851
 20
-621.0087362062559
 30
0.0
 11
2332.711287666848
 21
-621.0087362062559
 31
0.0
1001
ACAD
1000
DSTYLE
1002
{
1070
     3
1000
□<>
1070
    40
1040
1.3
1070
    45
1040
0.5
1002
}
  0
LINE
  5
1B254
330
18
100
AcDbEntity
  8
01
100
AcDbLine
 10
2343.011287666851
 20
-674.0087362062559
 30
0.0
 11
2332.711287666848
 21
-674.0087362062559
 31
0.0
1001
ACAD
1000
DSTYLE
1002
{
1070
     3
1000
□<>
1070
    40
1040
1.3
1070
    45
1040
0.5
1002
}
  0
LINE
  5
1B255
330
18
100
AcDbEntity
  8
01
100
AcDbLine
 10
2334.011287666848
 20
-623.6087362062559
 30
0.0
 11
2334.011287666848
 21
-671.4087362062559
 31
0.0
1001
ACAD
1000
DSTYLE
1002
{
1070
     3
1000
□<>
1070
    40
1040
1.3
1070
    45
1040
0.5
1002
}
  0
LINE
  5
1B259
330
18
100
AcDbEntity
  8
01
  6
BYBLOCK
100
AcDbLine
 10
2309.611287666848
 20
-518.7839120155661
 30
0.0
 11
2307.011287666848
 21
-518.0872441215661
 31
0.0
  0
LINE
  5
1B25A
330
18
100
AcDbEntity
  8
01
  6
BYBLOCK
100
AcDbLine
 10
2307.011287666848
 20
-518.0872441215661
 30
0.0
 11
2309.611287666848
 21
-517.390576227566
 31
0.0
  0
LINE
  5
1B25B
330
18
100
AcDbEntity
  8
01
  6
BYBLOCK
100
AcDbLine
 10
2307.011287666848
 20
-518.0872441215661
 30
0.0
 11
2309.611287666848
 21
-518.0872441215661
 31
0.0
  0
LINE
  5
1B25C
330
18
100
AcDbEntity
  8
01
  6
BYBLOCK
100
AcDbLine
 10
2315.411287666848
 20
-517.390576227566
 30
0.0
 11
2318.011287666848
 21
-518.0872441215661
 31
0.0
  0
LINE
  5
1B25D
330
18
100
AcDbEntity
  8
01
  6
BYBLOCK
100
AcDbLine
 10
2318.011287666848
 20
-518.0872441215661
 30
0.0
 11
2315.411287666848
 21
-518.7839120155661
 31
0.0
  0
LINE
  5
1B25E
330
18
100
AcDbEntity
  8
01
  6
BYBLOCK
100
AcDbLine
 10
2318.011287666848
 20
-518.0872441215661
 30
0.0
 11
2315.411287666848
 21
-518.0872441215661
 31
0.0
  0
TEXT
  5
1B25F
330
18
100
AcDbEntity
  8
01
  6
CONTINUOUS
100
AcDbText
 10
2310.236287666848
 20
-517.1772441215661
 30
0.0
 40
4.55
  1
11
100
AcDbText
1001
ACAD
1000
DSTYLE
1002
{
1070
    40
1040
1.3
1070
    45
1040
0.5
1002
}
  0
LINE
  5
1B260
330
18
100
AcDbEntity
  8
01
  6
BYBLOCK
100
AcDbLine
 10
2413.314619772848
 20
-592.1161087138622
 30
0.0
 11
2414.011287666848
 21
-589.5161087138622
 31
0.0
  0
LINE
  5
1B261
330
18
100
AcDbEntity
  8
01
  6
BYBLOCK
100
AcDbLine
 10
2414.011287666848
 20
-589.5161087138622
 30
0.0
 11
2414.707955560847
 21
-592.1161087138622
 31
0.0
  0
LINE
  5
1B262
330
18
100
AcDbEntity
  8
01
  6
BYBLOCK
100
AcDbLine
 10
2414.011287666848
 20
-589.5161087138622
 30
0.0
 11
2414.011287666848
 21
-592.1161087138622
 31
0.0
  0
LINE
  5
1B263
330
18
100
AcDbEntity
  8
01
  6
BYBLOCK
100
AcDbLine
 10
2414.707955560847
 20
-660.9087362062545
 30
0.0
 11
2414.011287666848
 21
-663.5087362062545
 31
0.0
  0
LINE
  5
1B264
330
18
100
AcDbEntity
  8
01
  6
BYBLOCK
100
AcDbLine
 10
2414.011287666848
 20
-663.5087362062545
 30
0.0
 11
2413.314619772848
 21
-660.9087362062545
 31
0.0
  0
LINE
  5
1B265
330
18
100
AcDbEntity
  8
01
  6
BYBLOCK
100
AcDbLine
 10
2414.011287666848
 20
-663.5087362062545
 30
0.0
 11
2414.011287666848
 21
-660.9087362062545
 31
0.0
  0
TEXT
  5
1B266
330
18
100
AcDbEntity
  8
01
  6
CONTINUOUS
100
AcDbText
 10
2413.101287666848
 20
-608.5373921202354
 30
0.0
 40
4.55
  1
74
 50
90.0
100
AcDbText
1001
ACAD
1000
DSTYLE
1002
{
1070
    40
1040
1.3
1070
    45
1040
0.5
1002
}
  0
LINE
  5
1B267
330
18
100
AcDbEntity
  8
01
  6
BYBLOCK
100
AcDbLine
 10
2384.411287666848
 20
-507.3107087595179
 30
0.0
 11
2387.011287666848
 21
-508.0073766535179
 31
0.0
  0
LINE
  5
1B268
330
18
100
AcDbEntity
  8
01
  6
BYBLOCK
100
AcDbLine
 10
2387.011287666848
 20
-508.0073766535179
 30
0.0
 11
2384.411287666848
 21
-508.7040445475179
 31
0.0
  0
LINE
  5
1B269
330
18
100
AcDbEntity
  8
01
  6
BYBLOCK
100
AcDbLine
 10
2387.011287666848
 20
-508.0073766535179
 30
0.0
 11
2384.411287666848
 21
-508.0073766535179
 31
0.0
  0
LINE
  5
1B26A
330
18
100
AcDbEntity
  8
01
  6
BYBLOCK
100
AcDbLine
 10
2320.611287666848
 20
-508.7040445475179
 30
0.0
 11
2318.011287666848
 21
-508.0073766535179
 31
0.0
  0
LINE
  5
1B26B
330
18
100
AcDbEntity
  8
01
  6
BYBLOCK
100
AcDbLine
 10
2318.011287666848
 20
-508.0073766535179
 30
0.0
 11
2320.611287666848
 21
-507.3107087595179
 31
0.0
  0
LINE
  5
1B26C
330
18
100
AcDbEntity
  8
01
  6
BYBLOCK
100
AcDbLine
 10
2318.011287666848
 20
-508.0073766535179
 30
0.0
 11
2320.611287666848
 21
-508.0073766535179
 31
0.0
  0
TEXT
  5
1B26D
330
18
100
AcDbEntity
  8
01
  6
CONTINUOUS
100
AcDbText
 10
2348.702769148329
 20
-507.0973766535179
 30
0.0
 40
4.55
  1
69
100
AcDbText
1001
ACAD
1000
DSTYLE
1002
{
1070
    40
1040
1.3
1070
    45
1040
0.5
1002
}
  0
LINE
  5
1B26E
330
18
100
AcDbEntity
  8
01
  6
BYBLOCK
100
AcDbLine
 10
2320.611287666848
 20
-518.7839120155661
 30
0.0
 11
2318.011287666848
 21
-518.0872441215661
 31
0.0
  0
LINE
  5
1B26F
330
18
100
AcDbEntity
  8
01
  6
BYBLOCK
100
AcDbLine
 10
2318.011287666848
 20
-518.0872441215661
 30
0.0
 11
2320.611287666848
 21
-517.390576227566
 31
0.0
  0
LINE
  5
1B270
330
18
100
AcDbEntity
  8
01
  6
BYBLOCK
100
AcDbLine
 10
2318.011287666848
 20
-518.0872441215661
 30
0.0
 11
2320.611287666848
 21
-518.0872441215661
 31
0.0
  0
LINE
  5
1B271
330
18
100
AcDbEntity
  8
01
  6
BYBLOCK
100
AcDbLine
 10
2366.411287666848
 20
-517.390576227566
 30
0.0
 11
2369.011287666848
 21
-518.0872441215661
 31
0.0
  0
LINE
  5
1B272
330
18
100
AcDbEntity
  8
01
  6
BYBLOCK
100
AcDbLine
 10
2369.011287666848
 20
-518.0872441215661
 30
0.0
 11
2366.411287666848
 21
-518.7839120155661
 31
0.0
  0
LINE
  5
1B273
330
18
100
AcDbEntity
  8
01
  6
BYBLOCK
100
AcDbLine
 10
2369.011287666848
 20
-518.0872441215661
 30
0.0
 11
2366.411287666848
 21
-518.0872441215661
 31
0.0
  0
TEXT
  5
1B274
330
18
100
AcDbEntity
  8
01
  6
CONTINUOUS
100
AcDbText
 10
2340.462155722403
 20
-517.1772441215661
 30
0.0
 40
4.55
  1
51
100
AcDbText
1001
ACAD
1000
DSTYLE
1002
{
1070
    40
1040
1.3
1070
    45
1040
0.5
1002
}
  0
LINE
  5
1B275
330
18
100
AcDbEntity
  8
01
  6
BYBLOCK
100
AcDbLine
 10
2283.175892688706
 20
-572.1087362062548
 30
0.0
 11
2283.872560582706
 21
-569.5087362062548
 31
0.0
  0
LINE
  5
1B276
330
18
100
AcDbEntity
  8
01
  6
BYBLOCK
100
AcDbLine
 10
2283.872560582706
 20
-569.5087362062548
 30
0.0
 11
2284.569228476706
 21
-572.1087362062548
 31
0.0
  0
LINE
  5
1B277
330
18
100
AcDbEntity
  8
01
  6
BYBLOCK
100
AcDbLine
 10
2283.872560582706
 20
-569.5087362062548
 30
0.0
 11
2283.872560582706
 21
-572.1087362062548
 31
0.0
  0
LINE
  5
1B278
330
18
100
AcDbEntity
  8
01
  6
BYBLOCK
100
AcDbLine
 10
2284.569228476706
 20
-680.9087362062547
 30
0.0
 11
2283.872560582706
 21
-683.5087362062548
 31
0.0
  0
LINE
  5
1B279
330
18
100
AcDbEntity
  8
01
  6
BYBLOCK
100
AcDbLine
 10
2283.872560582706
 20
-683.5087362062548
 30
0.0
 11
2283.175892688706
 21
-680.9087362062547
 31
0.0
  0
LINE
  5
1B27A
330
18
100
AcDbEntity
  8
01
  6
BYBLOCK
100
AcDbLine
 10
2283.872560582706
 20
-683.5087362062548
 30
0.0
 11
2283.872560582706
 21
-680.9087362062547
 31
0.0
  0
TEXT
  5
1B27B
330
18
100
AcDbEntity
  8
01
  6
CONTINUOUS
100
AcDbText
 10
2282.962560582706
 20
-601.9257138583334
 30
0.0
 40
4.55
  1
114
 50
90.0
100
AcDbText
1001
ACAD
1000
DSTYLE
1002
{
1070
    40
1040
1.3
1070
    45
1040
0.5
1002
}
  0
LINE
  5
1B27C
330
18
100
AcDbEntity
  8
01
  6
BYBLOCK
100
AcDbLine
 10
2292.540226854931
 20
-564.2091813506712
 30
0.0
 11
2293.236894748931
 21
-561.6091813506712
 31
0.0
  0
LINE
  5
1B27D
330
18
100
AcDbEntity
  8
01
  6
BYBLOCK
100
AcDbLine
 10
2293.236894748931
 20
-561.6091813506712
 30
0.0
 11
2293.933562642931
 21
-564.2091813506712
 31
0.0
  0
LINE
  5
1B27E
330
18
100
AcDbEntity
  8
01
  6
BYBLOCK
100
AcDbLine
 10
2293.236894748931
 20
-561.6091813506712
 30
0.0
 11
2293.236894748931
 21
-564.2091813506712
 31
0.0
  0
LINE
  5
1B27F
330
18
100
AcDbEntity
  8
01
  6
BYBLOCK
100
AcDbLine
 10
2293.933562642931
 20
-688.8087362062546
 30
0.0
 11
2293.236894748931
 21
-691.4087362062546
 31
0.0
  0
LINE
  5
1B280
330
18
100
AcDbEntity
  8
01
  6
BYBLOCK
100
AcDbLine
 10
2293.236894748931
 20
-691.4087362062546
 30
0.0
 11
2292.540226854931
 21
-688.8087362062546
 31
0.0
  0
LINE
  5
1B281
330
18
100
AcDbEntity
  8
01
  6
BYBLOCK
100
AcDbLine
 10
2293.236894748931
 20
-691.4087362062546
 30
0.0
 11
2293.236894748931
 21
-688.8087362062546
 31
0.0
  0
TEXT
  5
1B282
330
18
100
AcDbEntity
  8
01
  6
CONTINUOUS
100
AcDbText
 10
2292.326894748931
 20
-602.7102778611406
 30
0.0
 40
4.55
  1
130
 50
90.0
100
AcDbText
1001
ACAD
1000
DSTYLE
1002
{
1070
    40
1040
1.3
1070
    45
1040
0.5
1002
}
  0
LINE
  5
1B283
330
18
100
AcDbEntity
  8
01
  6
BYBLOCK
100
AcDbLine
 10
2189.111404006592
 20
-518.7839120155663
 30
0.0
 11
2186.511404006592
 21
-518.0872441215663
 31
0.0
  0
LINE
  5
1B284
330
18
100
AcDbEntity
  8
01
  6
BYBLOCK
100
AcDbLine
 10
2186.511404006592
 20
-518.0872441215663
 30
0.0
 11
2189.111404006592
 21
-517.3905762275663
 31
0.0
  0
LINE
  5
1B285
330
18
100
AcDbEntity
  8
01
  6
BYBLOCK
100
AcDbLine
 10
2186.511404006592
 20
-518.0872441215663
 30
0.0
 11
2189.111404006592
 21
-518.0872441215663
 31
0.0
  0
LINE
  5
1B286
330
18
100
AcDbEntity
  8
01
  6
BYBLOCK
100
AcDbLine
 10
2208.911404006592
 20
-517.3905762275663
 30
0.0
 11
2211.511404006592
 21
-518.0872441215663
 31
0.0
  0
LINE
  5
1B287
330
18
100
AcDbEntity
  8
01
  6
BYBLOCK
100
AcDbLine
 10
2211.511404006592
 20
-518.0872441215663
 30
0.0
 11
2208.911404006592
 21
-518.7839120155663
 31
0.0
  0
LINE
  5
1B288
330
18
100
AcDbEntity
  8
01
  6
BYBLOCK
100
AcDbLine
 10
2211.511404006592
 20
-518.0872441215663
 30
0.0
 11
2208.911404006592
 21
-518.0872441215663
 31
0.0
  0
TEXT
  5
1B289
330
18
100
AcDbEntity
  8
01
  6
CONTINUOUS
100
AcDbText
 10
2195.219737339926
 20
-517.1772441215663
 30
0.0
 40
4.55
  1
25
100
AcDbText
1001
ACAD
1000
DSTYLE
1002
{
1070
    40
1040
1.3
1070
    45
1040
0.5
1002
}
  0
LINE
  5
1B28A
330
18
100
AcDbEntity
  8
01
  6
BYBLOCK
100
AcDbLine
 10
2333.314619772848
 20
-623.6087362062559
 30
0.0
 11
2334.011287666848
 21
-621.0087362062559
 31
0.0
  0
LINE
  5
1B28B
330
18
100
AcDbEntity
  8
01
  6
BYBLOCK
100
AcDbLine
 10
2334.011287666848
 20
-621.0087362062559
 30
0.0
 11
2334.707955560847
 21
-623.6087362062559
 31
0.0
  0
LINE
  5
1B28C
330
18
100
AcDbEntity
  8
01
  6
BYBLOCK
100
AcDbLine
 10
2334.011287666848
 20
-621.0087362062559
 30
0.0
 11
2334.011287666848
 21
-623.6087362062559
 31
0.0
  0
LINE
  5
1B28D
330
18
100
AcDbEntity
  8
01
  6
BYBLOCK
100
AcDbLine
 10
2334.707955560847
 20
-671.4087362062559
 30
0.0
 11
2334.011287666848
 21
-674.0087362062559
 31
0.0
  0
LINE
  5
1B28E
330
18
100
AcDbEntity
  8
01
  6
BYBLOCK
100
AcDbLine
 10
2334.011287666848
 20
-674.0087362062559
 30
0.0
 11
2333.314619772848
 21
-671.4087362062559
 31
0.0
  0
LINE
  5
1B28F
330
18
100
AcDbEntity
  8
01
  6
BYBLOCK
100
AcDbLine
 10
2334.011287666848
 20
-674.0087362062559
 30
0.0
 11
2334.011287666848
 21
-671.4087362062559
 31
0.0
  0
TEXT
  5
1B290
330
18
100
AcDbEntity
  8
01
  6
CONTINUOUS
100
AcDbText
 10
2333.101287666848
 20
-655.5376141128531
 30
0.0
 40
4.55
  1
□53
 50
90.0
100
AcDbText
1001
ACAD
1000
DSTYLE
1002
{
1070
     3
1000
□<>
1070
    40
1040
1.3
1070
    45
1040
0.5
1002
}
  0
SOLID
  5
1B291
330
18
100
AcDbEntity
  8
1DIM
100
AcDbTrace
 10
2366.381137021594
 20
-423.5594932611979
 30
0.0
 11
2368.751888906908
 21
-422.4074024331576
 31
0.0
 12
2366.882936851516
 22
-424.2661105846491
 32
0.0
 13
2366.882936851516
 23
-424.2661105846491
 33
0.0
1001
ACAD
1000
DSTYLE
1002
{
1070
    40
1040
1.3
1070
    45
1040
0.5
1002
}
  0
LINE
  5
1B292
330
18
100
AcDbEntity
  8
1DIM
100
AcDbLine
 10
2366.632036936554
 20
-423.9128019229235
 30
0.0
 11
2339.164448759866
 21
-443.4187362072827
 31
0.0
1001
ACAD
1000
DSTYLE
1002
{
1070
    40
1040
1.3
1070
    45
1040
0.5
1002
}
  0
LINE
  5
1B293
330
18
100
AcDbEntity
  8
1DIM
100
AcDbLine
 10
2385.412171848907
 20
-368.0087362072827
 30
0.0
 11
2405.972562608621
 21
-368.0087362072827
 31
0.0
1001
ACAD
1000
DSTYLE
1002
{
1070
    45
1040
0.5
1070
    40
1040
1.3
1002
}
  0
LINE
  5
1B294
330
18
100
AcDbEntity
  8
1DIM
100
AcDbLine
 10
2387.012171848908
 20
-386.8087362072827
 30
0.0
 11
2405.972562608621
 21
-386.8087362072827
 31
0.0
1001
ACAD
1000
DSTYLE
1002
{
1070
    45
1040
0.5
1070
    40
1040
1.3
1002
}
  0
LINE
  5
1B295
330
18
100
AcDbEntity
  8
1DIM
100
AcDbLine
 10
2404.67256260862
 20
-370.6087362072827
 30
0.0
 11
2404.67256260862
 21
-384.2087362072826
 31
0.0
1001
ACAD
1000
DSTYLE
1002
{
1070
    45
1040
0.5
1070
    40
1040
1.3
1002
}
  0
LINE
  5
1B299
330
18
100
AcDbEntity
  8
1DIM
100
AcDbLine
 10
2369.011404006591
 20
-419.0087362072827
 30
0.0
 11
2369.011404006591
 21
-483.8087362072827
 31
0.0
1001
ACAD
1000
DSTYLE
1002
{
1070
    40
1040
1.3
1070
    45
1040
0.5
1002
}
  0
LINE
  5
1B29A
330
18
100
AcDbEntity
  8
1DIM
100
AcDbLine
 10
2484.011404006591
 20
-451.6087362081007
 30
0.0
 11
2484.011404006591
 21
-483.8087362072827
 31
0.0
1001
ACAD
1000
DSTYLE
1002
{
1070
    40
1040
1.3
1070
    45
1040
0.5
1002
}
  0
LINE
  5
1B29B
330
18
100
AcDbEntity
  8
1DIM
100
AcDbLine
 10
2371.61140400659
 20
-482.5087362072827
 30
0.0
 11
2481.411404006591
 21
-482.5087362072827
 31
0.0
1001
ACAD
1000
DSTYLE
1002
{
1070
    40
1040
1.3
1070
    45
1040
0.5
1002
}
  0
LINE
  5
1B29F
330
18
100
AcDbEntity
  8
1DIM
100
AcDbLine
 10
2342.511404006591
 20
-451.6112378619018
 30
0.0
 11
2342.511404006591
 21
-493.8087362072827
 31
0.0
1001
ACAD
1000
DSTYLE
1002
{
1070
    40
1040
1.3
1070
    45
1040
0.5
1002
}
  0
LINE
  5
1B2A0
330
18
100
AcDbEntity
  8
1DIM
100
AcDbLine
 10
2484.011404006591
 20
-451.6087362081007
 30
0.0
 11
2484.011404006591
 21
-493.8087362072827
 31
0.0
1001
ACAD
1000
DSTYLE
1002
{
1070
    40
1040
1.3
1070
    45
1040
0.5
1002
}
  0
LINE
  5
1B2A1
330
18
100
AcDbEntity
  8
1DIM
100
AcDbLine
 10
2345.11140400659
 20
-492.5087362072827
 30
0.0
 11
2481.411404006591
 21
-492.5087362072827
 31
0.0
1001
ACAD
1000
DSTYLE
1002
{
1070
    40
1040
1.3
1070
    45
1040
0.5
1002
}
  0
LINE
  5
1B2A5
330
18
100
AcDbEntity
  8
1DIM
100
AcDbLine
 10
2483.011404006591
 20
-436.0087362080994
 30
0.0
 11
2525.311404006591
 21
-436.0087362080994
 31
0.0
1001
ACAD
1000
DSTYLE
1002
{
1070
    40
1040
1.3
1070
    45
1040
0.5
1002
}
  0
LINE
  5
1B2A6
330
18
100
AcDbEntity
  8
1DIM
100
AcDbLine
 10
2471.766552003939
 20
-397.5087362072827
 30
0.0
 11
2525.311404006591
 21
-397.5087362072827
 31
0.0
1001
ACAD
1000
DSTYLE
1002
{
1070
    40
1040
1.3
1070
    45
1040
0.5
1002
}
  0
LINE
  5
1B2A7
330
18
100
AcDbEntity
  8
1DIM
100
AcDbLine
 10
2524.011404006591
 20
-433.4087362080994
 30
0.0
 11
2524.011404006591
 21
-400.1087362072827
 31
0.0
1001
ACAD
1000
DSTYLE
1002
{
1070
    40
1040
1.3
1070
    45
1040
0.5
1002
}
  0
LINE
  5
1B2AB
330
18
100
AcDbEntity
  8
1DIM
100
AcDbLine
 10
2475.44331824508
 20
-453.1087362081016
 30
0.0
 11
2535.311404006591
 21
-453.1087362081016
 31
0.0
1001
ACAD
1000
DSTYLE
1002
{
1070
    40
1040
1.3
1070
    45
1040
0.5
1002
}
  0
LINE
  5
1B2AC
330
18
100
AcDbEntity
  8
1DIM
100
AcDbLine
 10
2471.766552003939
 20
-397.5087362072827
 30
0.0
 11
2535.311404006591
 21
-397.5087362072827
 31
0.0
1001
ACAD
1000
DSTYLE
1002
{
1070
    40
1040
1.3
1070
    45
1040
0.5
1002
}
  0
LINE
  5
1B2AD
330
18
100
AcDbEntity
  8
1DIM
100
AcDbLine
 10
2534.011404006591
 20
-450.5087362081016
 30
0.0
 11
2534.011404006591
 21
-400.1087362072827
 31
0.0
1001
ACAD
1000
DSTYLE
1002
{
1070
    40
1040
1.3
1070
    45
1040
0.5
1002
}
  0
LINE
  5
1B2B1
330
18
100
AcDbEntity
  8
1DIM
100
AcDbLine
 10
2483.01128766692
 20
-659.5087400797693
 30
0.0
 11
2525.311287666848
 21
-659.5087400797693
 31
0.0
1001
ACAD
1000
DSTYLE
1002
{
1070
    40
1040
1.3
1070
    45
1040
0.5
1002
}
  0
LINE
  5
1B2B2
330
18
100
AcDbEntity
  8
1DIM
100
AcDbLine
 10
2483.011287666809
 20
-635.5087321603842
 30
0.0
 11
2525.311287666848
 21
-635.5087321603842
 31
0.0
1001
ACAD
1000
DSTYLE
1002
{
1070
    40
1040
1.3
1070
    45
1040
0.5
1002
}
  0
LINE
  5
1B2B3
330
18
100
AcDbEntity
  8
1DIM
100
AcDbLine
 10
2524.011287666848
 20
-656.9087400797692
 30
0.0
 11
2524.011287666848
 21
-638.1087321603842
 31
0.0
1001
ACAD
1000
DSTYLE
1002
{
1070
    40
1040
1.3
1070
    45
1040
0.5
1002
}
  0
TEXT
  5
1B2B7
330
18
100
AcDbEntity
  8
1DIM
  6
CONTINUOUS
100
AcDbText
 10
2419.93307283109
 20
-418.4479216774795
 30
0.0000000000563712
 40
4.55
  1
材質：亜鉛ダイキャスト
100
AcDbText
  0
TEXT
  5
1B2B8
330
18
100
AcDbEntity
  8
1DIM
  6
CONTINUOUS
100
AcDbText
 10
2420.084739497757
 20
-426.0312550108128
 30
0.0000000000563712
 40
4.55
  1
仕上げ：各種メッキ
100
AcDbText
  0
SOLID
  5
1B2B9
330
18
100
AcDbEntity
  8
1DIM
100
AcDbTrace
 10
2405.078632603908
 20
-448.4328720968516
 30
0.0000000000563712
 11
2403.422178588303
 21
-450.4832227673382
 31
0.0000000000563712
 12
2404.324115953177
 22
-448.0064735334386
 32
0.0000000000563712
 13
2404.324115953177
 23
-448.0064735334386
 33
0.0000000000563712
1001
ACAD
1000
DSTYLE
1002
{
1070
    40
1040
1.3
1070
    45
1040
0.5
1002
}
  0
LINE
  5
1B2BA
330
18
100
AcDbEntity
  8
1DIM
100
AcDbLine
 10
2404.701374278543
 20
-448.2196728151451
 30
0.0000000000563712
 11
2416.726406164424
 21
-426.9412550108129
 31
0.0000000000563712
1001
ACAD
1000
DSTYLE
1002
{
1070
    40
1040
1.3
1070
    45
1040
0.5
1002
}
  0
LINE
  5
1B2BB
330
18
100
AcDbEntity
  8
1DIM
100
AcDbLine
 10
2416.726406164424
 20
-426.9412550108129
 30
0.0000000000563712
 11
2478.17307283109
 21
-426.9412550108129
 31
0.0000000000563712
1001
ACAD
1000
DSTYLE
1002
{
1070
    40
1040
1.3
1070
    45
1040
0.5
1002
}
  0
LINE
  5
1B2BC
330
18
100
AcDbEntity
  8
0
  6
BYBLOCK
100
AcDbLine
 10
2403.975894714621
 20
-370.6087362072827
 30
0.0
 11
2404.67256260862
 21
-368.0087362072827
 31
0.0
  0
LINE
  5
1B2BD
330
18
100
AcDbEntity
  8
0
  6
BYBLOCK
100
AcDbLine
 10
2404.67256260862
 20
-368.0087362072827
 30
0.0
 11
2405.36923050262
 21
-370.6087362072827
 31
0.0
  0
LINE
  5
1B2BE
330
18
100
AcDbEntity
  8
0
  6
BYBLOCK
100
AcDbLine
 10
2404.67256260862
 20
-368.0087362072827
 30
0.0
 11
2404.67256260862
 21
-370.6087362072827
 31
0.0
  0
LINE
  5
1B2BF
330
18
100
AcDbEntity
  8
0
  6
BYBLOCK
100
AcDbLine
 10
2405.36923050262
 20
-384.2087362072826
 30
0.0
 11
2404.67256260862
 21
-386.8087362072827
 31
0.0
  0
LINE
  5
1B2C0
330
18
100
AcDbEntity
  8
0
  6
BYBLOCK
100
AcDbLine
 10
2404.67256260862
 20
-386.8087362072827
 30
0.0
 11
2403.975894714621
 21
-384.2087362072826
 31
0.0
  0
LINE
  5
1B2C1
330
18
100
AcDbEntity
  8
0
  6
BYBLOCK
100
AcDbLine
 10
2404.67256260862
 20
-386.8087362072827
 30
0.0
 11
2404.67256260862
 21
-384.2087362072826
 31
0.0
  0
TEXT
  5
1B2C2
330
18
100
AcDbEntity
  8
1DIM
  6
CONTINUOUS
100
AcDbText
 10
2403.762562608621
 20
-380.443122781357
 30
0.0
 40
4.55
  1
19
 50
90.0
100
AcDbText
1001
ACAD
1000
DSTYLE
1002
{
1070
    45
1040
0.5
1070
    40
1040
1.3
1002
}
  0
LINE
  5
1B2C3
330
18
100
AcDbEntity
  8
0
  6
BYBLOCK
100
AcDbLine
 10
2371.61140400659
 20
-483.2054041012827
 30
0.0
 11
2369.011404006591
 21
-482.5087362072827
 31
0.0
  0
LINE
  5
1B2C4
330
18
100
AcDbEntity
  8
0
  6
BYBLOCK
100
AcDbLine
 10
2369.011404006591
 20
-482.5087362072827
 30
0.0
 11
2371.61140400659
 21
-481.8120683132827
 31
0.0
  0
LINE
  5
1B2C5
330
18
100
AcDbEntity
  8
0
  6
BYBLOCK
100
AcDbLine
 10
2369.011404006591
 20
-482.5087362072827
 30
0.0
 11
2371.61140400659
 21
-482.5087362072827
 31
0.0
  0
LINE
  5
1B2C6
330
18
100
AcDbEntity
  8
0
  6
BYBLOCK
100
AcDbLine
 10
2481.411404006591
 20
-481.8120683132827
 30
0.0
 11
2484.011404006591
 21
-482.5087362072827
 31
0.0
  0
LINE
  5
1B2C7
330
18
100
AcDbEntity
  8
0
  6
BYBLOCK
100
AcDbLine
 10
2484.011404006591
 20
-482.5087362072827
 30
0.0
 11
2481.411404006591
 21
-483.2054041012827
 31
0.0
  0
LINE
  5
1B2C8
330
18
100
AcDbEntity
  8
0
  6
BYBLOCK
100
AcDbLine
 10
2484.011404006591
 20
-482.5087362072827
 30
0.0
 11
2481.411404006591
 21
-482.5087362072827
 31
0.0
  0
TEXT
  5
1B2C9
330
18
100
AcDbEntity
  8
1DIM
  6
CONTINUOUS
100
AcDbText
 10
2421.96140400659
 20
-481.5987362072827
 30
0.0
 40
4.55
  1
115
100
AcDbText
1001
ACAD
1000
DSTYLE
1002
{
1070
    40
1040
1.3
1070
    45
1040
0.5
1002
}
  0
LINE
  5
1B2CA
330
18
100
AcDbEntity
  8
0
  6
BYBLOCK
100
AcDbLine
 10
2345.11140400659
 20
-493.2054041012827
 30
0.0
 11
2342.511404006591
 21
-492.5087362072827
 31
0.0
  0
LINE
  5
1B2CB
330
18
100
AcDbEntity
  8
0
  6
BYBLOCK
100
AcDbLine
 10
2342.511404006591
 20
-492.5087362072827
 30
0.0
 11
2345.11140400659
 21
-491.8120683132827
 31
0.0
  0
LINE
  5
1B2CC
330
18
100
AcDbEntity
  8
0
  6
BYBLOCK
100
AcDbLine
 10
2342.511404006591
 20
-492.5087362072827
 30
0.0
 11
2345.11140400659
 21
-492.5087362072827
 31
0.0
  0
LINE
  5
1B2CD
330
18
100
AcDbEntity
  8
0
  6
BYBLOCK
100
AcDbLine
 10
2481.411404006591
 20
-491.8120683132827
 30
0.0
 11
2484.011404006591
 21
-492.5087362072827
 31
0.0
  0
LINE
  5
1B2CE
330
18
100
AcDbEntity
  8
0
  6
BYBLOCK
100
AcDbLine
 10
2484.011404006591
 20
-492.5087362072827
 30
0.0
 11
2481.411404006591
 21
-493.2054041012827
 31
0.0
  0
LINE
  5
1B2CF
330
18
100
AcDbEntity
  8
0
  6
BYBLOCK
100
AcDbLine
 10
2484.011404006591
 20
-492.5087362072827
 30
0.0
 11
2481.411404006591
 21
-492.5087362072827
 31
0.0
  0
TEXT
  5
1B2D0
330
18
100
AcDbEntity
  8
1DIM
  6
CONTINUOUS
100
AcDbText
 10
2405.678070673257
 20
-491.5987362072827
 30
0.0
 40
4.55
  1
141.5
100
AcDbText
1001
ACAD
1000
DSTYLE
1002
{
1070
    40
1040
1.3
1070
    45
1040
0.5
1002
}
  0
LINE
  5
1B2D1
330
18
100
AcDbEntity
  8
0
  6
BYBLOCK
100
AcDbLine
 10
2524.70807190059
 20
-433.4087362080994
 30
0.0
 11
2524.011404006591
 21
-436.0087362080994
 31
0.0
  0
LINE
  5
1B2D2
330
18
100
AcDbEntity
  8
0
  6
BYBLOCK
100
AcDbLine
 10
2524.011404006591
 20
-436.0087362080994
 30
0.0
 11
2523.314736112591
 21
-433.4087362080994
 31
0.0
  0
LINE
  5
1B2D3
330
18
100
AcDbEntity
  8
0
  6
BYBLOCK
100
AcDbLine
 10
2524.011404006591
 20
-436.0087362080994
 30
0.0
 11
2524.011404006591
 21
-433.4087362080994
 31
0.0
  0
LINE
  5
1B2D4
330
18
100
AcDbEntity
  8
0
  6
BYBLOCK
100
AcDbLine
 10
2523.314736112591
 20
-400.1087362072827
 30
0.0
 11
2524.011404006591
 21
-397.5087362072827
 31
0.0
  0
LINE
  5
1B2D5
330
18
100
AcDbEntity
  8
0
  6
BYBLOCK
100
AcDbLine
 10
2524.011404006591
 20
-397.5087362072827
 30
0.0
 11
2524.70807190059
 21
-400.1087362072827
 31
0.0
  0
LINE
  5
1B2D6
330
18
100
AcDbEntity
  8
0
  6
BYBLOCK
100
AcDbLine
 10
2524.011404006591
 20
-397.5087362072827
 30
0.0
 11
2524.011404006591
 21
-400.1087362072827
 31
0.0
  0
TEXT
  5
1B2D7
330
18
100
AcDbEntity
  8
1DIM
  6
CONTINUOUS
100
AcDbText
 10
2523.101404006591
 20
-423.5837362076909
 30
0.0
 40
4.55
  1
38.5
 50
90.0
100
AcDbText
1001
ACAD
1000
DSTYLE
1002
{
1070
    40
1040
1.3
1070
    45
1040
0.5
1002
}
  0
LINE
  5
1B2D8
330
18
100
AcDbEntity
  8
0
  6
BYBLOCK
100
AcDbLine
 10
2534.70807190059
 20
-450.5087362081016
 30
0.0
 11
2534.011404006591
 21
-453.1087362081016
 31
0.0
  0
LINE
  5
1B2D9
330
18
100
AcDbEntity
  8
0
  6
BYBLOCK
100
AcDbLine
 10
2534.011404006591
 20
-453.1087362081016
 30
0.0
 11
2533.314736112591
 21
-450.5087362081016
 31
0.0
  0
LINE
  5
1B2DA
330
18
100
AcDbEntity
  8
0
  6
BYBLOCK
100
AcDbLine
 10
2534.011404006591
 20
-453.1087362081016
 30
0.0
 11
2534.011404006591
 21
-450.5087362081016
 31
0.0
  0
LINE
  5
1B2DB
330
18
100
AcDbEntity
  8
0
  6
BYBLOCK
100
AcDbLine
 10
2533.314736112591
 20
-400.1087362072827
 30
0.0
 11
2534.011404006591
 21
-397.5087362072827
 31
0.0
  0
LINE
  5
1B2DC
330
18
100
AcDbEntity
  8
0
  6
BYBLOCK
100
AcDbLine
 10
2534.011404006591
 20
-397.5087362072827
 30
0.0
 11
2534.70807190059
 21
-400.1087362072827
 31
0.0
  0
LINE
  5
1B2DD
330
18
100
AcDbEntity
  8
0
  6
BYBLOCK
100
AcDbLine
 10
2534.011404006591
 20
-397.5087362072827
 30
0.0
 11
2534.011404006591
 21
-400.1087362072827
 31
0.0
  0
TEXT
  5
1B2DE
330
18
100
AcDbEntity
  8
1DIM
  6
CONTINUOUS
100
AcDbText
 10
2533.101404006591
 20
-432.1653334299144
 30
0.0
 40
4.55
  1
55.5
 50
90.0
100
AcDbText
1001
ACAD
1000
DSTYLE
1002
{
1070
    40
1040
1.3
1070
    45
1040
0.5
1002
}
  0
LINE
  5
1B2DF
330
18
100
AcDbEntity
  8
0
  6
BYBLOCK
100
AcDbLine
 10
2524.707955560847
 20
-656.9087400797692
 30
0.0
 11
2524.011287666848
 21
-659.5087400797693
 31
0.0
  0
LINE
  5
1B2E0
330
18
100
AcDbEntity
  8
0
  6
BYBLOCK
100
AcDbLine
 10
2524.011287666848
 20
-659.5087400797693
 30
0.0
 11
2523.314619772848
 21
-656.9087400797692
 31
0.0
  0
LINE
  5
1B2E1
330
18
100
AcDbEntity
  8
0
  6
BYBLOCK
100
AcDbLine
 10
2524.011287666848
 20
-659.5087400797693
 30
0.0
 11
2524.011287666848
 21
-656.9087400797692
 31
0.0
  0
LINE
  5
1B2E2
330
18
100
AcDbEntity
  8
0
  6
BYBLOCK
100
AcDbLine
 10
2523.314619772848
 20
-638.1087321603842
 30
0.0
 11
2524.011287666848
 21
-635.5087321603842
 31
0.0
  0
LINE
  5
1B2E3
330
18
100
AcDbEntity
  8
0
  6
BYBLOCK
100
AcDbLine
 10
2524.011287666848
 20
-635.5087321603842
 30
0.0
 11
2524.707955560847
 21
-638.1087321603842
 31
0.0
  0
LINE
  5
1B2E4
330
18
100
AcDbEntity
  8
0
  6
BYBLOCK
100
AcDbLine
 10
2524.011287666848
 20
-635.5087321603842
 30
0.0
 11
2524.011287666848
 21
-638.1087321603842
 31
0.0
  0
TEXT
  5
1B2E5
330
18
100
AcDbEntity
  8
1DIM
  6
CONTINUOUS
100
AcDbText
 10
2523.101287666848
 20
-651.3004027867432
 30
0.0
 40
4.55
  1
24
 50
90.0
100
AcDbText
1001
ACAD
1000
DSTYLE
1002
{
1070
    40
1040
1.3
1070
    45
1040
0.5
1002
}
  0
VIEWPORT
  5
57
330
15
100
AcDbEntity
 67
     1
  8
0
100
AcDbViewport
 68
     1
 10
0.0
 20
0.0
 30
0.0
 40
639.1804245283018
 41
297.0
 68
     1
 69
     1
1001
ACAD
1000
MVIEW
1002
{
1070
    16
1010
0.0
1020
0.0
1030
0.0
1010
0.0
1020
0.0
1030
1.0
1040
0.0
1040
297.0
1040
-4.171999999925333
1040
12.83903210976956
1040
50.0
1040
0.0
1040
0.0
1070
    16
1070
   100
1070
     0
1070
     1
1070
     0
1070
     0
1070
     0
1070
     0
1040
0.0
1040
0.0
1040
0.0
1040
10.0
1040
10.0
1040
10.0
1040
10.0
1070
     0
1002
{
1002
}
1002
}
  0
ENDSEC
  0
SECTION
  2
OBJECTS
  0
DICTIONARY
  5
C
330
0
100
AcDbDictionary
  3
ACAD_CIP_PREVIOUS_PRODUCT_INFO
350
1B14D
  3
ACAD_COLOR
350
18D
  3
ACAD_GROUP
350
D
  3
ACAD_LAYOUT
350
18E
  3
ACAD_MATERIAL
350
18C
  3
ACAD_MLEADERSTYLE
350
D9E7
  3
ACAD_MLINESTYLE
350
1B
  3
ACAD_PLOTSETTINGS
350
18F
  3
ACAD_SCALELIST
350
D9C5
  3
ACAD_VISUALSTYLE
350
D9B4
  3
ACDBHEADERROUNDTRIPXREC
350
1B2E6
  3
ACDBVARIABLEDICTIONARY
350
37
  3
CONTENTDICTIONARY
350
D8
  3
DRAWINGVARIABLESDICT
350
20
  3
DWGPROPS
350
1B2E9
1001
ACAD
1000
TREAT_AS_HARD
1070
     0
  0
DICTIONARY
  5
E6A6
330
2
100
AcDbDictionary
  3
ACAD_LAYERSTATES
360
E6A7
1001
ACAD
1000
TREAT_AS_HARD
1070
     1
  0
DICTIONARY
  5
DA05
330
E
100
AcDbDictionary
  3
ADSK_XREC_LAYER_RECONCILED
360
DA06
1001
ACAD
1000
TREAT_AS_HARD
1070
     1
  0
DICTIONARY
  5
DA07
330
29
100
AcDbDictionary
  3
ADSK_XREC_LAYER_RECONCILED
360
DA08
1001
ACAD
1000
TREAT_AS_HARD
1070
     1
  0
DICTIONARY
  5
DA09
330
31
100
AcDbDictionary
  3
ADSK_XREC_LAYER_RECONCILED
360
DA0A
1001
ACAD
1000
TREAT_AS_HARD
1070
     1
  0
DICTIONARY
  5
DA0F
330
243
100
AcDbDictionary
  3
ADSK_XREC_LAYER_RECONCILED
360
DA10
1001
ACAD
1000
TREAT_AS_HARD
1070
     1
  0
DICTIONARY
  5
DA15
330
24E
100
AcDbDictionary
  3
ADSK_XREC_LAYER_RECONCILED
360
DA16
1001
ACAD
1000
TREAT_AS_HARD
1070
     1
  0
DICTIONARY
  5
88F
330
18
100
AcDbDictionary
  3
ACAD_SORTENTS
360
890
1001
ACAD
1000
TREAT_AS_HARD
1070
     1
  0
XRECORD
  5
1B14D
102
{ACAD_REACTORS
330
C
102
}
330
C
100
AcDbXrecord
300
ACDLT
300
2012
300
ACDLT_F_S
  0
DICTIONARY
  5
18D
102
{ACAD_REACTORS
330
C
102
}
330
C
100
AcDbDictionary
1001
ACAD
1000
TREAT_AS_HARD
1070
     0
  0
DICTIONARY
  5
D
102
{ACAD_REACTORS
330
C
102
}
330
C
100
AcDbDictionary
1001
ACAD
1000
TREAT_AS_HARD
1070
     0
  0
DICTIONARY
  5
18E
102
{ACAD_REACTORS
330
C
102
}
330
C
100
AcDbDictionary
1001
ACAD
1000
TREAT_AS_HARD
1070
     0
  0
DICTIONARY
  5
18C
102
{ACAD_REACTORS
330
C
102
}
330
C
100
AcDbDictionary
  3
BYBLOCK
350
D9A4
  3
BYLAYER
350
D99C
  3
GLOBAL
350
D9AC
1001
ACAD
1000
TREAT_AS_HARD
1070
     0
  0
DICTIONARY
  5
D9E7
102
{ACAD_REACTORS
330
C
102
}
330
C
100
AcDbDictionary
  3
STANDARD
350
D9E8
1001
ACAD
1000
TREAT_AS_HARD
1070
     0
  0
DICTIONARY
  5
1B
102
{ACAD_REACTORS
330
C
102
}
330
C
100
AcDbDictionary
  3
STANDARD
350
1C
1001
ACAD
1000
TREAT_AS_HARD
1070
     0
  0
DICTIONARY
  5
18F
102
{ACAD_REACTORS
330
C
102
}
330
C
100
AcDbDictionary
1001
ACAD
1000
TREAT_AS_HARD
1070
     0
  0
DICTIONARY
  5
D9C5
102
{ACAD_REACTORS
330
C
102
}
330
C
100
AcDbDictionary
  3
A0
350
D9C6
  3
A1
350
D9C7
  3
A2
350
D9C8
  3
A3
350
D9C9
  3
A4
350
D9CA
  3
A5
350
D9CB
  3
A6
350
D9CC
  3
A7
350
D9CD
  3
A8
350
D9CE
  3
A9
350
D9CF
  3
B0
350
D9D0
  3
B1
350
D9D1
  3
B2
350
D9D2
  3
B3
350
D9D3
  3
B4
350
D9D4
  3
B5
350
D9D5
  3
B6
350
D9D6
  3
B7
350
D9D7
  3
B8
350
D9D8
  3
B9
350
D9D9
  3
C0
350
D9DA
  3
C1
350
D9DB
  3
C2
350
D9DC
  3
C3
350
D9DD
  3
C4
350
D9DE
  3
C5
350
D9DF
  3
C6
350
D9E0
  3
C7
350
D9E1
  3
C8
350
D9E2
  3
C9
350
D9E3
  3
D0
350
D9E4
  3
D1
350
D9E5
  3
D2
350
D9E6
1001
ACAD
1000
TREAT_AS_HARD
1070
     0
  0
DICTIONARY
  5
D9B4
102
{ACAD_REACTORS
330
C
102
}
330
C
100
AcDbDictionary
  3
2DWIREFRAME
350
D9BA
  3
3D_HIDDEN
350
D9BC
  3
3DWIREFRAME
350
D9BB
  3
BASIC
350
D9B9
  3
BRIGHTEN
350
D9C0
  3
COLORCHANGE
350
D9C4
  3
CONCEPTUAL
350
D9BD
  3
DIM
350
D9BF
  3
EDGECOLOROFF
350
19C2F
  3
FACEPATTERN
350
D9C3
  3
FLAT
350
D9B5
  3
FLATWITHEDGES
350
D9B6
  3
GOURAUD
350
D9B7
  3
GOURAUDWITHEDGES
350
D9B8
  3
HIDDEN
350
19C7E
  3
JITTEROFF
350
19C2D
  3
LINEPATTERN
350
D9C2
  3
MODELING
350
19C84
  3
OVERHANGOFF
350
19C2E
  3
REALISTIC
350
D9BE
  3
SHADED
350
19C83
  3
SHADED_WITH_EDGES
350
19C82
  3
SHADES_OF_GRAY
350
19C7F
  3
SKETCHY
350
19C80
  3
THICKEN
350
D9C1
  3
WIREFRAME
350
19C7D
  3
X-RAY
350
19C81
1001
ACAD
1000
TREAT_AS_HARD
1070
     0
  0
DICTIONARY
  5
1B2E6
102
{ACAD_REACTORS
330
C
102
}
330
C
100
AcDbDictionary
  3
COLORDICT
350
1B2E7
  3
MATERIALDICT
350
1B2E8
1001
ACAD
1000
TREAT_AS_HARD
1070
     0
  0
DICTIONARY
  5
37
102
{ACAD_REACTORS
330
C
102
}
330
C
100
AcDbDictionary
  3
CANNOSCALE
350
1A68D
  3
CMLEADERSTYLE
350
DA6A
  3
CTABLESTYLE
350
29E
  3
DIMADEC
350
38
  3
DIMASSOC
350
1CE
  3
HIDETEXT
350
704E
  3
INDEXCTL
350
DA6D
  3
INTERSECTIONCOLOR
350
7052
  3
INTERSECTIONDISPLAY
350
7051
  3
MSLTSCALE
350
1A6DD
  3
OBSCOLOR
350
704F
  3
OBSLTYPE
350
7050
  3
PROJECTNAME
350
1CF
  3
SORTENTS
350
DA6C
  3
XCLIPFRAME
350
1B18D
1001
ACAD
1000
TREAT_AS_HARD
1070
     0
  0
DICTIONARY
  5
D8
102
{ACAD_REACTORS
330
C
102
}
330
C
100
AcDbDictionary
1001
ACAD
1000
TREAT_AS_HARD
1070
     0
  0
DICTIONARY
  5
20
102
{ACAD_REACTORS
330
C
102
}
330
C
100
AcDbDictionary
1001
DRAWINGVARIABLESXDATA
1000
POLARANG
1000
0.261799387799149410000000
1000
POLARMODE
1000
1
1000
POLARSTYLE
1000
1
1001
ACAD
1000
TREAT_AS_HARD
1070
     0
  0
XRECORD
  5
1B2E9
102
{ACAD_REACTORS
330
C
102
}
330
C
100
AcDbXrecord
  1
DWGPROPS COOKIE
  2

  3

  4

  6

  7

  8
3684
  9

300
=
301
=
302
=
303
=
304
=
305
=
306
=
307
=
308
=
309
=
 40
0.0
 41
2451318.246352917
 42
2458726.010450209
  1

 90
        0
  0
DICTIONARY
  5
E6A7
102
{ACAD_REACTORS
330
E6A6
102
}
330
E6A6
100
AcDbDictionary
1001
ACAD
1000
TREAT_AS_HARD
1070
     0
  0
ACAD_PROXY_OBJECT
  5
DA06
102
{ACAD_REACTORS
330
DA05
102
}
330
DA05
100
AcDbZombieObject
 90
      499
 91
      514
 93
       34
310
40C8804040
  0
ACAD_PROXY_OBJECT
  5
DA08
102
{ACAD_REACTORS
330
DA07
102
}
330
DA07
100
AcDbZombieObject
 90
      499
 91
      514
 93
       34
310
40C8804040
  0
ACAD_PROXY_OBJECT
  5
DA0A
102
{ACAD_REACTORS
330
DA09
102
}
330
DA09
100
AcDbZombieObject
 90
      499
 91
      514
 93
       34
310
40C8804040
  0
ACAD_PROXY_OBJECT
  5
DA10
102
{ACAD_REACTORS
330
DA0F
102
}
330
DA0F
100
AcDbZombieObject
 90
      499
 91
      514
 93
       34
310
40C8804040
  0
ACAD_PROXY_OBJECT
  5
DA16
102
{ACAD_REACTORS
330
DA15
102
}
330
DA15
100
AcDbZombieObject
 90
      499
 91
      514
 93
       34
310
40C8804040
  0
SORTENTSTABLE
  5
890
102
{ACAD_REACTORS
330
88F
102
}
330
88F
100
AcDbSortentsTable
330
18
331
0
  5
5BFF
331
0
  5
1AD52
331
1AD51
  5
1AD6B
331
1AD52
  5
1AD6C
331
1AD53
  5
1AD6D
331
1AD57
  5
1AD8F
331
1AD58
  5
1AD90
331
1AD59
  5
1AD91
331
1AD5A
  5
1AD92
331
1AD5B
  5
1AD93
331
1AD5C
  5
1AD94
331
1AD5D
  5
1AD95
331
1AD5E
  5
1AD96
331
1AD5F
  5
1AD97
331
1AD60
  5
1AD98
331
1AD61
  5
1AD99
331
1AD62
  5
1AD9A
331
1AD63
  5
1AD9B
331
1AD64
  5
1AD9C
331
1AD65
  5
1AD9D
331
1AD66
  5
1AD9E
331
1AD67
  5
1AD9F
331
1AD68
  5
1ADA0
331
1AD69
  5
1ADA1
331
1AD6A
  5
1ADA2
331
1AD6B
  5
1ADA3
331
1AD6C
  5
1ADA4
331
1AD6D
  5
1ADA5
331
1AD6E
  5
1ADA6
331
1AD6F
  5
1ADA7
331
1AD70
  5
1ADA8
331
1AD71
  5
1ADA9
331
1AD72
  5
1ADAA
331
1AD73
  5
1ADAB
331
1AD74
  5
1ADAC
331
1AD75
  5
1ADAD
331
1AD76
  5
1ADAE
331
1AD77
  5
1ADAF
331
1AD78
  5
1ADB0
331
1AD79
  5
1ADB1
331
1AD7A
  5
1ADB2
331
1AD7B
  5
1ADB3
331
1AD7C
  5
1ADB4
331
1AD7D
  5
1ADB5
331
1AD7E
  5
1ADB6
331
1AD7F
  5
1ADB7
331
1AD80
  5
1ADB8
331
1AD81
  5
1ADB9
331
1AD82
  5
1ADBA
331
1AD83
  5
1ADBB
331
1AD84
  5
1ADBC
331
1AD85
  5
1ADBD
331
1AD86
  5
1ADBE
331
1AD87
  5
1ADBF
331
1AD88
  5
1ADC3
331
1AD89
  5
1ADC4
331
1AD8A
  5
1ADC5
331
1AD8B
  5
1ADC6
331
1AD8C
  5
1ADC7
331
1AD8D
  5
1ADC8
331
1AD8E
  5
1ADC9
331
1AD8F
  5
1ADCA
331
1AD90
  5
1ADCB
331
1AD91
  5
1ADCC
331
1AD92
  5
1ADCD
331
1AD93
  5
1ADCE
331
1AD94
  5
1ADCF
331
1AD95
  5
1ADD1
331
1AD96
  5
1ADD2
331
0
  5
1ADD0
331
1AD98
  5
1ADE3
331
1AD99
  5
1ADE4
331
1AD9A
  5
1ADE5
331
1AD9B
  5
1ADE9
331
1AD9C
  5
1ADEA
331
1AD9D
  5
1ADEB
331
1AD9E
  5
1ADEF
331
1AD9F
  5
1ADF0
331
1ADA0
  5
1ADF1
331
1ADA1
  5
1ADF2
331
1ADA2
  5
1ADF3
331
1ADA3
  5
1ADF4
331
1ADA4
  5
1ADF5
331
1ADA5
  5
1ADF6
331
1ADA6
  5
1ADF7
331
1ADA7
  5
1ADF8
331
1ADA8
  5
1ADF9
331
1ADA9
  5
1ADFA
331
1ADAA
  5
1ADFB
331
1ADAB
  5
1ADFC
331
1ADAC
  5
1ADFD
331
1ADAD
  5
1ADFE
331
1ADAE
  5
1ADFF
331
1ADAF
  5
1AE00
331
1ADB0
  5
1AE01
331
1ADB1
  5
1AE02
331
1ADB2
  5
1AE03
331
1ADB3
  5
1AE04
331
1ADB4
  5
1AE05
331
1ADB5
  5
1AE06
331
1ADB6
  5
1AE07
331
1ADB7
  5
1AE08
331
1ADB8
  5
1AE09
331
1ADB9
  5
1AE0A
331
1ADBA
  5
1AE0B
331
1ADBB
  5
1AE0C
331
1ADBC
  5
1AE0D
331
1ADBD
  5
1AE0E
331
1ADBE
  5
1AE0F
331
1ADBF
  5
1AE10
331
1ADC3
  5
1AE2F
331
1ADC4
  5
1AE30
331
1ADC5
  5
1AE31
331
1ADC6
  5
1AE32
331
1ADC7
  5
1AE33
331
1ADC8
  5
1AE34
331
1ADC9
  5
1AE35
331
1ADCA
  5
1AE36
331
1ADCB
  5
1AE37
331
1ADCC
  5
1AE38
331
1ADCD
  5
1AE39
331
1ADCE
  5
1AE3A
331
1ADCF
  5
1AE3B
331
1ADD0
  5
1AE3C
331
1ADD1
  5
1AE3D
331
1ADD2
  5
1AE3E
331
1ADD3
  5
1AE3F
331
1ADD4
  5
1AE40
331
1ADD5
  5
1AE41
331
1ADD6
  5
1AE42
331
1ADD7
  5
1AE43
331
1ADD8
  5
1AE44
331
1ADD9
  5
1AE45
331
1ADDA
  5
1AE46
331
1ADDB
  5
1AE47
331
1ADDC
  5
1AE48
331
1ADDD
  5
1AE49
331
1ADDE
  5
1AE4A
331
1ADDF
  5
1AE4B
331
1ADE0
  5
1AE4C
331
1ADE1
  5
1AE4D
331
1ADE2
  5
1AE4E
331
1ADE3
  5
1AE4F
331
1ADE4
  5
1AE50
331
1ADE5
  5
1AE51
331
1ADE6
  5
1AE52
331
1ADE7
  5
1AE53
331
1ADE8
  5
1AE54
331
1ADE9
  5
1AE55
331
1ADEA
  5
1AE56
331
1ADEB
  5
1AE57
331
1ADEC
  5
1AE58
331
1ADED
  5
1AE59
331
1ADEE
  5
1AE5A
331
1ADEF
  5
1AE5B
331
1ADF0
  5
1AE5C
331
1ADF1
  5
1AE61
331
1ADF2
  5
1AE62
331
1ADF3
  5
1AE63
331
1ADF4
  5
1AE64
331
1ADF5
  5
1AE65
331
1ADF6
  5
1AE66
331
1ADF7
  5
1AE67
331
1ADF8
  5
1AE68
331
1ADF9
  5
1AE69
331
1ADFA
  5
1AE6A
331
1ADFB
  5
1AE6C
331
1ADFC
  5
1AE6D
331
1ADFD
  5
1AE6E
331
1ADFE
  5
1AE6F
331
1ADFF
  5
1AE70
331
1AE00
  5
1AE71
331
1AE01
  5
1AE72
331
1AE02
  5
1AE73
331
1AE03
  5
1AE74
331
1AE04
  5
1AE75
331
1AE05
  5
1AE76
331
1AE06
  5
1AE77
331
1AE07
  5
1AE78
331
1AE08
  5
1AE79
331
1AE09
  5
1AE7A
331
1AE0A
  5
1AE7B
331
1AE0B
  5
1AE7C
331
1AE0C
  5
1AE7D
331
1AE0D
  5
1AE7E
331
1AE0E
  5
1AE7F
331
1AE0F
  5
1AE80
331
1AE10
  5
1AE81
331
1AE11
  5
1AE82
331
1AE12
  5
1AE83
331
1AE13
  5
1AE84
331
1AE14
  5
1AE85
331
1AE15
  5
1AE86
331
1AE16
  5
1AE87
331
1AE17
  5
1AE88
331
1AE18
  5
1AE89
331
1AE19
  5
1AE8A
331
1AE1A
  5
1AE8B
331
1AE1B
  5
1AE8C
331
1AE1C
  5
1AE8D
331
1AE1D
  5
1AE8E
331
1AE1E
  5
1AE8F
331
1AE1F
  5
1AE90
331
1AE20
  5
1AE91
331
1AE21
  5
1AE92
331
1AE22
  5
1AE93
331
1AE23
  5
1AE94
331
1AE24
  5
1AE95
331
1AE25
  5
1AE96
331
1AE26
  5
1AE97
331
1AE27
  5
1AE98
331
1AE28
  5
1AE99
331
1AE29
  5
1AE9A
331
1AE2A
  5
1AE9E
331
1AE2B
  5
1AE9F
331
1AE2C
  5
1AEA0
331
1AE2D
  5
1AEA1
331
1AE2E
  5
1AEA2
331
1AE2F
  5
1AEA3
331
1AE30
  5
1AEA4
331
1AE31
  5
1AEA5
331
1AE32
  5
1AEA6
331
1AE33
  5
1AEA7
331
1AE34
  5
1AEA8
331
1AE35
  5
1AEA9
331
1AE36
  5
1AEAA
331
1AE37
  5
1AEAB
331
1AE38
  5
1AEAC
331
1AE39
  5
1AEAD
331
1AE3A
  5
1AEAE
331
1AE3B
  5
1AEAF
331
1AE3C
  5
1AEB0
331
1AE3D
  5
1AEB1
331
1AE3E
  5
1AEB2
331
1AE3F
  5
1AEB3
331
1AE40
  5
1AEB4
331
1AE41
  5
1AEB5
331
1AE42
  5
1AEB6
331
1AE43
  5
1AEB7
331
1AE44
  5
1AEB8
331
1AE45
  5
1AEB9
331
1AE46
  5
1AEBA
331
1AE47
  5
1AEBB
331
1AE48
  5
1AEBC
331
1AE49
  5
1AEBD
331
1AE4A
  5
1AEBE
331
1AE4B
  5
1AEBF
331
1AE4C
  5
1AEC0
331
1AE4D
  5
1AEC1
331
1AE4E
  5
1AEC2
331
1AE4F
  5
1AEC3
331
1AE50
  5
1AEC4
331
1AE51
  5
1AEC5
331
1AE52
  5
1AEC6
331
1AE53
  5
1AEC7
331
1AE54
  5
1AEC8
331
1AE55
  5
1AEC9
331
1AE56
  5
1AECA
331
1AE57
  5
1AECB
331
1AE58
  5
1AECC
331
1AE59
  5
1AECD
331
1AE5A
  5
1AECE
331
1AE5B
  5
1AECF
331
1AE5C
  5
1AED0
331
1AE61
  5
1AED1
331
1AE62
  5
1AED2
331
1AE63
  5
1AED3
331
1AE64
  5
1AED4
331
1AE65
  5
1AED5
331
1AE66
  5
1AED6
331
1AE67
  5
1AED7
331
1AE68
  5
1AED8
331
1AE69
  5
1AED9
331
1AE6A
  5
1AEDA
331
1AE6C
  5
1AEE5
331
1AE6D
  5
1AEE6
331
1AE6E
  5
1AEE7
331
1AE6F
  5
1AEE8
331
1AE70
  5
1AEE9
331
1AE71
  5
1AEEF
331
1AE72
  5
1AEF0
331
1AE73
  5
1AEF1
331
1AE74
  5
1AEF2
331
1AE75
  5
1AEF3
331
1AE76
  5
1AEF4
331
1AE77
  5
1AEF5
331
1AE78
  5
1AEF6
331
1AE79
  5
1AEF7
331
1AE7A
  5
1AEF8
331
1AE7B
  5
1AEF9
331
1AE7C
  5
1AEFD
331
1AE7D
  5
1AEFE
331
1AE7E
  5
1AEFF
331
1AE7F
  5
1AF03
331
0
  5
1AEEA
331
0
  5
1AEEB
331
0
  5
1AEEC
331
0
  5
1AEED
331
0
  5
1AEEE
331
1AE85
  5
1AF3F
331
1AE86
  5
1AF40
331
1AE87
  5
1AF41
331
1AE88
  5
1AF42
331
1AE89
  5
1AF43
331
1AE8A
  5
1AF44
331
1AE8B
  5
1AF45
331
1AE8C
  5
1AF46
331
1AE8D
  5
1AF47
331
1AE8E
  5
1AF48
331
1AE8F
  5
1AF49
331
1AE90
  5
1AF4A
331
1AE91
  5
1AF4B
331
1AE92
  5
1AF4C
331
1AE93
  5
1AF4D
331
1AE94
  5
1AF4E
331
1AE95
  5
1AF4F
331
1AE96
  5
1AF50
331
1AE97
  5
1AF51
331
1AE98
  5
1AF52
331
1AE99
  5
1AF53
331
1AE9A
  5
1AF54
331
1AE9B
  5
1AF55
331
1AE9C
  5
1AF56
331
1AE9D
  5
1AF57
331
1AE9E
  5
1AF58
331
1AE9F
  5
1AF59
331
1AEA0
  5
1AF5A
331
1AEA1
  5
1AF5B
331
1AEA2
  5
1AF5C
331
1AEA3
  5
1AF5D
331
1AEA4
  5
1AF5E
331
1AEA5
  5
1AF5F
331
1AEA6
  5
1AF60
331
1AEA7
  5
1AF61
331
1AEA8
  5
1AF62
331
1AEA9
  5
1AF63
331
1AEAA
  5
1AF64
331
1AEAB
  5
1AF65
331
1AEAC
  5
1AF66
331
1AEAD
  5
1AF67
331
1AEAE
  5
1AF68
331
1AEAF
  5
1AF69
331
1AEB0
  5
1AF6A
331
1AEB1
  5
1AF6B
331
1AEB2
  5
1AF6C
331
1AEB3
  5
1AF6D
331
1AEB4
  5
1AF6E
331
1AEB5
  5
1AF6F
331
1AEB6
  5
1AF70
331
1AEB7
  5
1AF71
331
1AEB8
  5
1AF72
331
1AEB9
  5
1AF73
331
1AEBA
  5
1AF74
331
1AEBB
  5
1AF75
331
1AEBC
  5
1AF76
331
1AEBD
  5
1AF77
331
1AEBE
  5
1AF78
331
1AEBF
  5
1AF79
331
1AEC0
  5
1AF7A
331
1AEC1
  5
1AF7B
331
1AEC2
  5
1AF7C
331
1AEC3
  5
1AF7D
331
1AEC4
  5
1AF7E
331
1AEC5
  5
1AF7F
331
1AEC6
  5
1AF80
331
1AEC7
  5
1AF81
331
1AEC8
  5
1AF82
331
1AEC9
  5
1AF83
331
1AECA
  5
1AF84
331
1AECB
  5
1AF85
331
1AECC
  5
1AF86
331
1AECD
  5
1AF87
331
1AECE
  5
1AF88
331
1AECF
  5
1AF89
331
1AED0
  5
1AF8A
331
1AED1
  5
1AF8B
331
1AED2
  5
1AF8C
331
1AED3
  5
1AF8D
331
1AED4
  5
1AF8E
331
1AED5
  5
1AF8F
331
1AED6
  5
1AF90
331
1AED7
  5
1AF91
331
1AED8
  5
1AF92
331
1AED9
  5
1AF93
331
1AEDA
  5
1AF94
331
1AEDB
  5
1AF95
331
1AEDC
  5
1AF96
331
1AEDD
  5
1AF97
331
1AEDE
  5
1AF98
331
1AEDF
  5
1AF99
331
1AEE0
  5
1B227
331
1AEE1
  5
1B228
331
1AEE2
  5
1B229
331
1AEE3
  5
1B22A
331
1AEE4
  5
1B22B
331
1AEE5
  5
1B22C
331
1AEE6
  5
1B22D
331
1AEE7
  5
1B22E
331
1AEE8
  5
1B22F
331
1AEE9
  5
1B230
331
1AEEA
  5
1B231
331
1AEEB
  5
1B232
331
1AEEC
  5
1B233
331
1AEED
  5
1B234
331
1AEEE
  5
1B235
331
1AEEF
  5
1B236
331
1AEF0
  5
1B237
331
1AEF1
  5
1B238
331
1AEF2
  5
1B239
331
1AEF3
  5
1B23A
331
1AEF4
  5
1B23B
331
1AEF5
  5
1B23C
331
1AEF6
  5
1B23D
331
1AEF7
  5
1B23E
331
1AEF8
  5
1B23F
331
1AEF9
  5
1B240
331
1AEFA
  5
1B241
331
1AEFB
  5
1B242
331
1AEFC
  5
1B243
331
1AEFD
  5
1B244
331
1AEFE
  5
1B247
331
1AEFF
  5
1B248
331
1AF00
  5
1B249
331
1AF01
  5
1B24A
331
1AF02
  5
1B24B
331
1AF03
  5
1B24C
331
1AF04
  5
1B24D
331
1AF05
  5
1B24E
331
1AF06
  5
1B24F
331
1AF07
  5
1B250
331
1AF08
  5
1B251
331
1AF09
  5
1B252
331
1AF0A
  5
1B253
331
1AF0B
  5
1B254
331
1AF0C
  5
1B255
331
1AF0D
  5
1B256
331
1AF0E
  5
1B257
331
1AF0F
  5
1B258
331
1AF10
  5
1B259
331
1AF11
  5
1B25A
331
1AF12
  5
1B25B
331
1AF13
  5
1B25C
331
1AF14
  5
1B25D
331
1AF15
  5
1B25E
331
1AF16
  5
1B25F
331
1AF17
  5
1B260
331
1AF18
  5
1B261
331
1AF19
  5
1B262
331
1AF1A
  5
1B263
331
1AF1B
  5
1B264
331
1AF1C
  5
1B265
331
1AF1D
  5
1B266
331
1AF1E
  5
1B267
331
1AF1F
  5
1B268
331
1AF20
  5
1B269
331
1AF21
  5
1B26A
331
1AF22
  5
1B26B
331
1AF23
  5
1B26C
331
1AF24
  5
1B26D
331
1AF25
  5
1B26E
331
1AF26
  5
1B26F
331
1AF27
  5
1B270
331
1AF28
  5
1B271
331
1AF29
  5
1B272
331
1AF2A
  5
1B273
331
1AF2B
  5
1B274
331
1AF2C
  5
1B275
331
1AF2D
  5
1B276
331
1AF2E
  5
1B277
331
1AF2F
  5
1B278
331
1AF30
  5
1B279
331
1AF31
  5
1B27A
331
1AF32
  5
1B27B
331
1AF33
  5
1B27C
331
1AF34
  5
1B27D
331
1AF35
  5
1B27E
331
1AF36
  5
1B27F
331
1AF37
  5
1B280
331
1AF38
  5
1B281
331
1AF39
  5
1B282
331
1AF3A
  5
1B283
331
1AF3B
  5
1B284
331
1AF3C
  5
1B285
331
1AF3D
  5
1B286
331
1AF3E
  5
1B287
331
1AF3F
  5
1B288
331
1AF40
  5
1B289
331
1AF41
  5
1B28A
331
1AF42
  5
1B28B
331
1AF43
  5
1B28C
331
1AF44
  5
1B28D
331
1AF45
  5
1B28E
331
1AF46
  5
1B28F
331
1AF47
  5
1B290
331
1AF48
  5
1B291
331
1AF49
  5
1B292
331
1AF4A
  5
1B293
331
1AF4B
  5
1B294
331
1AF4C
  5
1B295
331
1AF4D
  5
1B296
331
0
  5
1B245
331
0
  5
1B246
331
1AF50
  5
1B29C
331
1AF51
  5
1B29D
331
1AF52
  5
1B29E
331
1AF53
  5
1B29F
331
1AF54
  5
1B2A0
331
1AF55
  5
1B2A1
331
1AF56
  5
1B2A2
331
1AF57
  5
1B2A3
331
1AF58
  5
1B2A4
331
1AF59
  5
1B2A5
331
1AF5A
  5
1B2A6
331
1AF5B
  5
1B2A7
331
1AF5C
  5
1B2A8
331
1AF5D
  5
1B2A9
331
1AF5E
  5
1B2AA
331
1AF5F
  5
1B2AB
331
1AF60
  5
1B2AC
331
1AF61
  5
1B2AD
331
1AF62
  5
1B2AE
331
1AF63
  5
1B2AF
331
1AF64
  5
1B2B0
331
1AF65
  5
1B2B1
331
1AF66
  5
1B2B2
331
1AF67
  5
1B2B3
331
1AF68
  5
1B2B4
331
1AF69
  5
1B2B5
331
1AF6A
  5
1B2B6
331
1AF6B
  5
1B2B7
331
1AF6C
  5
1B2B8
331
1AF6D
  5
1B2B9
331
1AF6E
  5
1B2BA
331
1AF6F
  5
1B2BB
331
1AF70
  5
1B2BC
331
1AF71
  5
1B2BD
331
1AF72
  5
1B2BE
331
1AF73
  5
1B2BF
331
1AF74
  5
1B2C0
331
1AF75
  5
1B2C1
331
1AF76
  5
1B2C2
331
1AF77
  5
1B2C3
331
1AF78
  5
1B2C4
331
1AF79
  5
1B2C5
331
1AF7A
  5
1B2C6
331
1AF7B
  5
1B2C7
331
1AF7C
  5
1B2C8
331
1AF7D
  5
1B2C9
331
1AF7E
  5
1B2CA
331
1AF7F
  5
1B2CB
331
1AF80
  5
1B2CC
331
1AF81
  5
1B2CD
331
1AF82
  5
1B2CE
331
1AF83
  5
1B2CF
331
1AF84
  5
1B2D0
331
1AF85
  5
1B2D1
331
1AF86
  5
1B2D2
331
1AF87
  5
1B2D3
331
1AF88
  5
1B2D4
331
1AF89
  5
1B2D5
331
1AF8A
  5
1B2D6
331
1AF8B
  5
1B2D7
331
1AF8C
  5
1B2D8
331
1AF8D
  5
1B2D9
331
1AF8E
  5
1B2DA
331
1AF8F
  5
1B2DB
331
1AF90
  5
1B2DC
331
1AF91
  5
1B2DD
331
1AF92
  5
1B2DE
331
1AF93
  5
1B2DF
331
1AF94
  5
1B2E0
331
1AF95
  5
1B2E1
331
1AF96
  5
1B2E2
331
1AF97
  5
1B2E3
331
1AF98
  5
1B2E4
331
1AF99
  5
1B2E5
331
1B227
  5
1AD4F
331
1B228
  5
1AD51
331
1B229
  5
1AD58
331
1B22A
  5
1AD5C
331
1B22B
  5
1AD5D
331
0
  5
1AD59
331
0
  5
1AD5A
331
0
  5
1AD5B
331
1B22F
  5
1AD71
331
1B230
  5
1AD72
331
1B231
  5
1AD73
331
0
  5
1AD62
331
0
  5
1AD63
331
0
  5
1AD64
331
1B235
  5
1AD7B
331
1B236
  5
1AD7C
331
1B237
  5
1AD7D
331
0
  5
1AD68
331
0
  5
1AD69
331
0
  5
1AD6A
331
1B23B
  5
1AD85
331
1B23C
  5
1AD86
331
1B23D
  5
1AD87
331
0
  5
1AD6E
331
0
  5
1AD6F
331
0
  5
1AD70
331
1B241
  5
1AE11
331
1B242
  5
1AE12
331
1B243
  5
1AE13
331
0
  5
1ADE0
331
0
  5
1ADE1
331
0
  5
1ADE2
331
1B247
  5
1AE1B
331
1B248
  5
1AE1C
331
1B249
  5
1AE1D
331
0
  5
1ADE6
331
0
  5
1ADE7
331
0
  5
1ADE8
331
1B24D
  5
1AE25
331
1B24E
  5
1AE26
331
1B24F
  5
1AE27
331
0
  5
1ADEC
331
0
  5
1ADED
331
0
  5
1ADEE
331
1B253
  5
1AEDB
331
1B254
  5
1AEDC
331
1B255
  5
1AEDD
331
0
  5
1AE9B
331
0
  5
1AE9C
331
0
  5
1AE9D
331
1B259
  5
1AD5E
331
1B25A
  5
1AD5F
331
1B25B
  5
1AD60
331
1B25C
  5
1AD61
331
1B25D
  5
1AD65
331
1B25E
  5
1AD66
331
1B25F
  5
1AD67
331
1B260
  5
1AD74
331
1B261
  5
1AD75
331
1B262
  5
1AD76
331
1B263
  5
1AD77
331
1B264
  5
1AD78
331
1B265
  5
1AD79
331
1B266
  5
1AD7A
331
1B267
  5
1AD7E
331
1B268
  5
1AD7F
331
1B269
  5
1AD80
331
1B26A
  5
1AD81
331
1B26B
  5
1AD82
331
1B26C
  5
1AD83
331
1B26D
  5
1AD84
331
1B26E
  5
1AD88
331
1B26F
  5
1AD89
331
1B270
  5
1AD8A
331
1B271
  5
1AD8B
331
1B272
  5
1AD8C
331
1B273
  5
1AD8D
331
1B274
  5
1AD8E
331
1B275
  5
1AE14
331
1B276
  5
1AE15
331
1B277
  5
1AE16
331
1B278
  5
1AE17
331
1B279
  5
1AE18
331
1B27A
  5
1AE19
331
1B27B
  5
1AE1A
331
1B27C
  5
1AE1E
331
1B27D
  5
1AE1F
331
1B27E
  5
1AE20
331
1B27F
  5
1AE21
331
1B280
  5
1AE22
331
1B281
  5
1AE23
331
1B282
  5
1AE24
331
1B283
  5
1AE28
331
1B284
  5
1AE29
331
1B285
  5
1AE2A
331
1B286
  5
1AE2B
331
1B287
  5
1AE2C
331
1B288
  5
1AE2D
331
1B289
  5
1AE2E
331
1B28A
  5
1AEDE
331
1B28B
  5
1AEDF
331
1B28C
  5
1AEE0
331
1B28D
  5
1AEE1
331
1B28E
  5
1AEE2
331
1B28F
  5
1AEE3
331
1B290
  5
1AEE4
331
1B291
  5
1AD53
331
1B292
  5
1AD57
331
1B293
  5
1ADD3
331
1B294
  5
1ADD4
331
1B295
  5
1ADD5
331
0
  5
1ADD6
331
0
  5
1ADD7
331
0
  5
1ADD8
331
1B299
  5
1AF04
331
1B29A
  5
1AF05
331
1B29B
  5
1AF09
331
0
  5
1AEFA
331
0
  5
1AEFB
331
0
  5
1AEFC
331
1B29F
  5
1AF17
331
1B2A0
  5
1AF18
331
1B2A1
  5
1AF19
331
0
  5
1AF00
331
0
  5
1AF01
331
0
  5
1AF02
331
1B2A5
  5
1AF21
331
1B2A6
  5
1AF22
331
1B2A7
  5
1AF23
331
0
  5
1AF06
331
0
  5
1AF07
331
0
  5
1AF08
331
1B2AB
  5
1AF2B
331
1B2AC
  5
1AF2C
331
1B2AD
  5
1AF2D
331
0
  5
1AF0C
331
0
  5
1AF0D
331
0
  5
1AF0E
331
1B2B1
  5
1AF35
331
1B2B2
  5
1AF36
331
1B2B3
  5
1AF37
331
0
  5
1AF12
331
0
  5
1AF13
331
0
  5
1AF14
331
1B2B7
  5
1B297
331
1B2B8
  5
1B298
331
1B2B9
  5
1B299
331
1B2BA
  5
1B29A
331
1B2BB
  5
1B29B
331
1B2BC
  5
1ADD9
331
1B2BD
  5
1ADDA
331
1B2BE
  5
1ADDB
331
1B2BF
  5
1ADDC
331
1B2C0
  5
1ADDD
331
1B2C1
  5
1ADDE
331
1B2C2
  5
1ADDF
331
1B2C3
  5
1AF0A
331
1B2C4
  5
1AF0B
331
1B2C5
  5
1AF0F
331
1B2C6
  5
1AF10
331
1B2C7
  5
1AF11
331
1B2C8
  5
1AF15
331
1B2C9
  5
1AF16
331
1B2CA
  5
1AF1A
331
1B2CB
  5
1AF1B
331
1B2CC
  5
1AF1C
331
1B2CD
  5
1AF1D
331
1B2CE
  5
1AF1E
331
1B2CF
  5
1AF1F
331
1B2D0
  5
1AF20
331
1B2D1
  5
1AF24
331
1B2D2
  5
1AF25
331
1B2D3
  5
1AF26
331
1B2D4
  5
1AF27
331
1B2D5
  5
1AF28
331
1B2D6
  5
1AF29
331
1B2D7
  5
1AF2A
331
1B2D8
  5
1AF2E
331
1B2D9
  5
1AF2F
331
1B2DA
  5
1AF30
331
1B2DB
  5
1AF31
331
1B2DC
  5
1AF32
331
1B2DD
  5
1AF33
331
1B2DE
  5
1AF34
331
1B2DF
  5
1AF38
331
1B2E0
  5
1AF39
331
1B2E1
  5
1AF3A
331
1B2E2
  5
1AF3B
331
1B2E3
  5
1AF3C
331
1B2E4
  5
1AF3D
331
1B2E5
  5
1AF3E
  0
MATERIAL
  5
D9A4
102
{ACAD_REACTORS
330
18C
102
}
102
{ACAD_XDICTIONARY
360
1B484
102
}
330
18C
100
AcDbMaterial
  1
BYBLOCK
 72
     0
 73
     2
 43
0.0208333333333333
 43
0.0
 43
0.0
 43
0.0
 43
0.0
 43
0.0208333333333333
 43
0.0
 43
0.0
 43
0.0
 43
0.0
 43
1.0
 43
0.0
 43
0.0
 43
0.0
 43
0.0
 43
1.0
 77
     0
 78
     2
 47
0.0208333333333333
 47
0.0
 47
0.0
 47
0.0
 47
0.0
 47
0.0208333333333333
 47
0.0
 47
0.0
 47
0.0
 47
0.0
 47
1.0
 47
0.0
 47
0.0
 47
0.0
 47
0.0
 47
1.0
171
     0
172
     2
 49
0.0208333333333333
 49
0.0
 49
0.0
 49
0.0
 49
0.0
 49
0.0208333333333333
 49
0.0
 49
0.0
 49
0.0
 49
0.0
 49
1.0
 49
0.0
 49
0.0
 49
0.0
 49
0.0
 49
1.0
175
     0
176
     2
142
0.0208333333333333
142
0.0
142
0.0
142
0.0
142
0.0
142
0.0208333333333333
142
0.0
142
0.0
142
0.0
142
0.0
142
1.0
142
0.0
142
0.0
142
0.0
142
0.0
142
1.0
179
     0
270
     2
144
0.0208333333333333
144
0.0
144
0.0
144
0.0
144
0.0
144
0.0208333333333333
144
0.0
144
0.0
144
0.0
144
0.0
144
1.0
144
0.0
144
0.0
144
0.0
144
0.0
144
1.0
274
     2
147
0.0208333333333333
147
0.0
147
0.0
147
0.0
147
0.0
147
0.0208333333333333
147
0.0
147
0.0
147
0.0
147
0.0
147
1.0
147
0.0
147
0.0
147
0.0
147
0.0
147
1.0
  0
MATERIAL
  5
D99C
102
{ACAD_REACTORS
330
18C
102
}
102
{ACAD_XDICTIONARY
360
1B486
102
}
330
18C
100
AcDbMaterial
  1
BYLAYER
 72
     0
 73
     2
 43
0.0208333333333333
 43
0.0
 43
0.0
 43
0.0
 43
0.0
 43
0.0208333333333333
 43
0.0
 43
0.0
 43
0.0
 43
0.0
 43
1.0
 43
0.0
 43
0.0
 43
0.0
 43
0.0
 43
1.0
 77
     0
 78
     2
 47
0.0208333333333333
 47
0.0
 47
0.0
 47
0.0
 47
0.0
 47
0.0208333333333333
 47
0.0
 47
0.0
 47
0.0
 47
0.0
 47
1.0
 47
0.0
 47
0.0
 47
0.0
 47
0.0
 47
1.0
171
     0
172
     2
 49
0.0208333333333333
 49
0.0
 49
0.0
 49
0.0
 49
0.0
 49
0.0208333333333333
 49
0.0
 49
0.0
 49
0.0
 49
0.0
 49
1.0
 49
0.0
 49
0.0
 49
0.0
 49
0.0
 49
1.0
175
     0
176
     2
142
0.0208333333333333
142
0.0
142
0.0
142
0.0
142
0.0
142
0.0208333333333333
142
0.0
142
0.0
142
0.0
142
0.0
142
1.0
142
0.0
142
0.0
142
0.0
142
0.0
142
1.0
179
     0
270
     2
144
0.0208333333333333
144
0.0
144
0.0
144
0.0
144
0.0
144
0.0208333333333333
144
0.0
144
0.0
144
0.0
144
0.0
144
1.0
144
0.0
144
0.0
144
0.0
144
0.0
144
1.0
274
     2
147
0.0208333333333333
147
0.0
147
0.0
147
0.0
147
0.0
147
0.0208333333333333
147
0.0
147
0.0
147
0.0
147
0.0
147
1.0
147
0.0
147
0.0
147
0.0
147
0.0
147
1.0
  0
MATERIAL
  5
D9AC
102
{ACAD_REACTORS
330
18C
102
}
102
{ACAD_XDICTIONARY
360
1B488
102
}
330
18C
100
AcDbMaterial
  1
GLOBAL
 72
     0
 73
     2
 43
0.0208333333333333
 43
0.0
 43
0.0
 43
0.0
 43
0.0
 43
0.0208333333333333
 43
0.0
 43
0.0
 43
0.0
 43
0.0
 43
1.0
 43
0.0
 43
0.0
 43
0.0
 43
0.0
 43
1.0
 77
     0
 78
     2
 47
0.0208333333333333
 47
0.0
 47
0.0
 47
0.0
 47
0.0
 47
0.0208333333333333
 47
0.0
 47
0.0
 47
0.0
 47
0.0
 47
1.0
 47
0.0
 47
0.0
 47
0.0
 47
0.0
 47
1.0
171
     0
172
     2
 49
0.0208333333333333
 49
0.0
 49
0.0
 49
0.0
 49
0.0
 49
0.0208333333333333
 49
0.0
 49
0.0
 49
0.0
 49
0.0
 49
1.0
 49
0.0
 49
0.0
 49
0.0
 49
0.0
 49
1.0
175
     0
176
     2
142
0.0208333333333333
142
0.0
142
0.0
142
0.0
142
0.0
142
0.0208333333333333
142
0.0
142
0.0
142
0.0
142
0.0
142
1.0
142
0.0
142
0.0
142
0.0
142
0.0
142
1.0
179
     0
270
     2
144
0.0208333333333333
144
0.0
144
0.0
144
0.0
144
0.0
144
0.0208333333333333
144
0.0
144
0.0
144
0.0
144
0.0
144
1.0
144
0.0
144
0.0
144
0.0
144
0.0
144
1.0
274
     2
147
0.0208333333333333
147
0.0
147
0.0
147
0.0
147
0.0
147
0.0208333333333333
147
0.0
147
0.0
147
0.0
147
0.0
147
1.0
147
0.0
147
0.0
147
0.0
147
0.0
147
1.0
  0
ACAD_PROXY_OBJECT
  5
D9E8
102
{ACAD_REACTORS
330
D9E7
102
}
330
D9E7
100
AcDbZombieObject
 90
      499
 91
      511
 93
      610
310
40901902A4063FBFFFFFE000000000000002040AD7A3703D0AD73F4214DD185B99185C990000000000000104090141901A00000000000004100000000000000041025764000000000000300FC0
340
12
340
0
340
F
340
0
 94
        0
1001
ACAD_MLEADERVER
1070
     2
  0
MLINESTYLE
  5
1C
102
{ACAD_REACTORS
330
1B
102
}
330
1B
100
AcDbMlineStyle
  2
STANDARD
 70
     0
  3

 62
   256
 51
90.0
 52
90.0
 71
     2
 49
0.5
 62
   256
  6
BYLAYER
 49
-0.5
 62
   256
  6
BYLAYER
  0
ACAD_PROXY_OBJECT
  5
D9C6
102
{ACAD_REACTORS
330
D9C5
102
}
330
D9C5
100
AcDbZombieObject
 90
      499
 91
      510
 93
       41
310
903313A31580
  0
ACAD_PROXY_OBJECT
  5
D9C7
102
{ACAD_REACTORS
330
D9C5
102
}
330
D9C5
100
AcDbZombieObject
 90
      499
 91
      510
 93
      105
310
903313A324000000000000004000
  0
ACAD_PROXY_OBJECT
  5
D9C8
102
{ACAD_REACTORS
330
D9C5
102
}
330
D9C5
100
AcDbZombieObject
 90
      499
 91
      510
 93
      105
310
903313A344000000000000104000
  0
ACAD_PROXY_OBJECT
  5
D9C9
102
{ACAD_REACTORS
330
D9C5
102
}
330
D9C5
100
AcDbZombieObject
 90
      499
 91
      510
 93
      105
310
903313A354000000000000144000
  0
ACAD_PROXY_OBJECT
  5
D9CA
102
{ACAD_REACTORS
330
D9C5
102
}
330
D9C5
100
AcDbZombieObject
 90
      499
 91
      510
 93
      105
310
903313A384000000000000204000
  0
ACAD_PROXY_OBJECT
  5
D9CB
102
{ACAD_REACTORS
330
D9C5
102
}
330
D9C5
100
AcDbZombieObject
 90
      499
 91
      510
 93
      113
310
904313A31304000000000000244000
  0
ACAD_PROXY_OBJECT
  5
D9CC
102
{ACAD_REACTORS
330
D9C5
102
}
330
D9C5
100
AcDbZombieObject
 90
      499
 91
      510
 93
      113
310
904313A31364000000000000304000
  0
ACAD_PROXY_OBJECT
  5
D9CD
102
{ACAD_REACTORS
330
D9C5
102
}
330
D9C5
100
AcDbZombieObject
 90
      499
 91
      510
 93
      113
310
904313A32304000000000000344000
  0
ACAD_PROXY_OBJECT
  5
D9CE
102
{ACAD_REACTORS
330
D9C5
102
}
330
D9C5
100
AcDbZombieObject
 90
      499
 91
      510
 93
      113
310
904313A333040000000000003E4000
  0
ACAD_PROXY_OBJECT
  5
D9CF
102
{ACAD_REACTORS
330
D9C5
102
}
330
D9C5
100
AcDbZombieObject
 90
      499
 91
      510
 93
      113
310
904313A34304000000000000444000
  0
ACAD_PROXY_OBJECT
  5
D9D0
102
{ACAD_REACTORS
330
D9C5
102
}
330
D9C5
100
AcDbZombieObject
 90
      499
 91
      510
 93
      113
310
904313A35304000000000000494000
  0
ACAD_PROXY_OBJECT
  5
D9D1
102
{ACAD_REACTORS
330
D9C5
102
}
330
D9C5
100
AcDbZombieObject
 90
      499
 91
      510
 93
      121
310
905313A3130304000000000000594000
  0
ACAD_PROXY_OBJECT
  5
D9D2
102
{ACAD_REACTORS
330
D9C5
102
}
330
D9C5
100
AcDbZombieObject
 90
      499
 91
      510
 93
      105
310
903323A310000000000000010100
  0
ACAD_PROXY_OBJECT
  5
D9D3
102
{ACAD_REACTORS
330
D9C5
102
}
330
D9C5
100
AcDbZombieObject
 90
      499
 91
      510
 93
      105
310
903343A310000000000000410100
  0
ACAD_PROXY_OBJECT
  5
D9D4
102
{ACAD_REACTORS
330
D9C5
102
}
330
D9C5
100
AcDbZombieObject
 90
      499
 91
      510
 93
      105
310
903383A310000000000000810100
  0
ACAD_PROXY_OBJECT
  5
D9D5
102
{ACAD_REACTORS
330
D9C5
102
}
330
D9C5
100
AcDbZombieObject
 90
      499
 91
      510
 93
      113
310
90431303A310000000000000910100
  0
ACAD_PROXY_OBJECT
  5
D9D6
102
{ACAD_REACTORS
330
D9C5
102
}
330
D9C5
100
AcDbZombieObject
 90
      499
 91
      510
 93
      121
310
9053130303A310000000000001650100
  0
ACAD_PROXY_OBJECT
  5
D9D7
102
{ACAD_REACTORS
330
D9C5
102
}
330
D9C5
100
AcDbZombieObject
 90
      499
 91
      510
 93
      257
310
90E312F31323822203D2031272D3022000000000000200FC000000000000284000
  0
ACAD_PROXY_OBJECT
  5
D9D8
102
{ACAD_REACTORS
330
D9C5
102
}
330
D9C5
100
AcDbZombieObject
 90
      499
 91
      510
 93
      249
310
90D312F363422203D2031272D3022000000000000240FC000000000000284000
  0
ACAD_PROXY_OBJECT
  5
D9D9
102
{ACAD_REACTORS
330
D9C5
102
}
330
D9C5
100
AcDbZombieObject
 90
      499
 91
      510
 93
      249
310
90D312F333222203D2031272D3022000000000000280FC000000000000284000
  0
ACAD_PROXY_OBJECT
  5
D9DA
102
{ACAD_REACTORS
330
D9C5
102
}
330
D9C5
100
AcDbZombieObject
 90
      499
 91
      510
 93
      249
310
90D312F313622203D2031272D30220000000000002C0FC000000000000284000
  0
ACAD_PROXY_OBJECT
  5
D9DB
102
{ACAD_REACTORS
330
D9C5
102
}
330
D9C5
100
AcDbZombieObject
 90
      499
 91
      510
 93
      249
310
90D332F333222203D2031272D30220000000000002E0FC000000000000284000
  0
ACAD_PROXY_OBJECT
  5
D9DC
102
{ACAD_REACTORS
330
D9C5
102
}
330
D9C5
100
AcDbZombieObject
 90
      499
 91
      510
 93
      241
310
90C312F3822203D2031272D3022000000000000300FC000000000000284000
  0
ACAD_PROXY_OBJECT
  5
D9DD
102
{ACAD_REACTORS
330
D9C5
102
}
330
D9C5
100
AcDbZombieObject
 90
      499
 91
      510
 93
      249
310
90D332F313622203D2031272D3022000000000000320FC000000000000284000
  0
ACAD_PROXY_OBJECT
  5
D9DE
102
{ACAD_REACTORS
330
D9C5
102
}
330
D9C5
100
AcDbZombieObject
 90
      499
 91
      510
 93
      241
310
90C312F3422203D2031272D3022000000000000340FC000000000000284000
  0
ACAD_PROXY_OBJECT
  5
D9DF
102
{ACAD_REACTORS
330
D9C5
102
}
330
D9C5
100
AcDbZombieObject
 90
      499
 91
      510
 93
      241
310
90C332F3822203D2031272D3022000000000000360FC000000000000284000
  0
ACAD_PROXY_OBJECT
  5
D9E0
102
{ACAD_REACTORS
330
D9C5
102
}
330
D9C5
100
AcDbZombieObject
 90
      499
 91
      510
 93
      241
310
90C312F3222203D2031272D3022000000000000380FC000000000000284000
  0
ACAD_PROXY_OBJECT
  5
D9E1
102
{ACAD_REACTORS
330
D9C5
102
}
330
D9C5
100
AcDbZombieObject
 90
      499
 91
      510
 93
      241
310
90C332F3422203D2031272D30220000000000003A0FC000000000000284000
  0
ACAD_PROXY_OBJECT
  5
D9E2
102
{ACAD_REACTORS
330
D9C5
102
}
330
D9C5
100
AcDbZombieObject
 90
      499
 91
      510
 93
      161
310
90A3122203D2031272D30224000000000000284000
  0
ACAD_PROXY_OBJECT
  5
D9E3
102
{ACAD_REACTORS
330
D9C5
102
}
330
D9C5
100
AcDbZombieObject
 90
      499
 91
      510
 93
      257
310
90E312D312F3222203D2031272D30220000000000003E0FC000000000000284000
  0
ACAD_PROXY_OBJECT
  5
D9E4
102
{ACAD_REACTORS
330
D9C5
102
}
330
D9C5
100
AcDbZombieObject
 90
      499
 91
      510
 93
      225
310
90A3322203D2031272D302200000000000002100000000000000284000
  0
ACAD_PROXY_OBJECT
  5
D9E5
102
{ACAD_REACTORS
330
D9C5
102
}
330
D9C5
100
AcDbZombieObject
 90
      499
 91
      510
 93
      225
310
90A3622203D2031272D302200000000000006100000000000000284000
  0
ACAD_PROXY_OBJECT
  5
D9E6
102
{ACAD_REACTORS
330
D9C5
102
}
330
D9C5
100
AcDbZombieObject
 90
      499
 91
      510
 93
      249
310
90D31272D3022203D2031272D30220000000000000A100000000000000284000
  0
ACAD_PROXY_OBJECT
  5
D9BA
102
{ACAD_REACTORS
330
D9B4
102
}
330
D9B4
100
AcDbZombieObject
 90
      499
 91
      509
 93
      436
310
42CC9915DA5C99599C985B595049028333333333333E3BF0000000000000FB0107901411070040501600405405064090741402480A0340
1001
ACAD
1000
AcDbSavedByObjectVersion
1070
     0
  0
ACAD_PROXY_OBJECT
  5
D9BC
102
{ACAD_REACTORS
330
D9B4
102
}
330
D9B4
100
AcDbZombieObject
 90
      499
 91
      509
 93
      500
310
424CD108121A5919195B90640502408333333333333E3BF0000000000000FB01079024090700405020000000000001110200405405064090740C02480A0340
1001
ACAD
1000
AcDbSavedByObjectVersion
1070
     0
  0
ACAD_PROXY_OBJECT
  5
D9BB
102
{ACAD_REACTORS
330
D9B4
102
}
330
D9B4
100
AcDbZombieObject
 90
      499
 91
      509
 93
      436
310
42CCD915DA5C99599C985B595059028333333333333E3BF0000000000000FB0107901411070040501600405405064090741402480A0340
1001
ACAD
1000
AcDbSavedByObjectVersion
1070
     0
  0
ACAD_PROXY_OBJECT
  5
D9B9
102
{ACAD_REACTORS
330
D9B4
102
}
330
D9B4
100
AcDbZombieObject
 90
      499
 91
      509
 93
      388
310
4150985CDA58D07406404333333333333E3BF0000000000000FB0107A41107004050150841D405064090741402480A0350
1001
ACAD
1000
AcDbSavedByObjectVersion
1070
     0
  0
ACAD_PROXY_OBJECT
  5
D9C0
102
{ACAD_REACTORS
330
D9B4
102
}
330
D9B4
100
AcDbZombieObject
 90
      499
 91
      509
 93
      428
310
42109C9A59DA1D195B90C409028333333333333E3BF0000000000000FB010790141107004050150841D405064090741402480A029950
1001
ACAD
1000
AcDbSavedByObjectVersion
1070
     0
  0
ACAD_PROXY_OBJECT
  5
D9C4
102
{ACAD_REACTORS
330
D9B4
102
}
330
D9B4
100
AcDbZombieObject
 90
      499
 91
      509
 93
      452
310
42D0DBDB1BDC90DA185B99D95104090240C333333333333E3BF0000000000000FB0108901411070040501508421405064090741402480A0350
1001
ACAD
1000
AcDbSavedByObjectVersion
1070
     0
  0
ACAD_PROXY_OBJECT
  5
D9BD
102
{ACAD_REACTORS
330
D9B4
102
}
330
D9B4
100
AcDbZombieObject
 90
      499
 91
      509
 93
      500
310
4290DBDB98D95C1D1D585B10940D028333333333333E3BF0000000000000FB0107902409070040501000000000000111010841D405064090740C02480A0340
1001
ACAD
1000
AcDbSavedByObjectVersion
1070
     0
  0
ACAD_PROXY_OBJECT
  5
D9BF
102
{ACAD_REACTORS
330
D9B4
102
}
330
D9B4
100
AcDbZombieObject
 90
      499
 91
      509
 93
      412
310
40D11A5B50B409028333333333333E3BF0000000000000FB010790141107004050150841D405064090741402480A02677FFFFFD0
1001
ACAD
1000
AcDbSavedByObjectVersion
1070
     0
  0
ACAD_PROXY_OBJECT
  5
19C2F
102
{ACAD_REACTORS
330
D9B4
102
}
330
D9B4
100
AcDbZombieObject
 90
      499
 91
      509
 93
      452
310
43115919D950DBDB1BDC93D999916409028333333333333E3BF0000000000000FB010790141107004050150841D405064090741402480A0350
1001
ACAD
1000
AcDbSavedByObjectVersion
1070
     0
  0
ACAD_PROXY_OBJECT
  5
D9C3
102
{ACAD_REACTORS
330
D9B4
102
}
330
D9B4
100
AcDbZombieObject
 90
      499
 91
      509
 93
      444
310
42D19858D95C185D1D195C9B90F409028333333333333E3BF0000000000000FB010790141107004050150841D405064090741402480A0350
1001
ACAD
1000
AcDbSavedByObjectVersion
1070
     0
  0
ACAD_PROXY_OBJECT
  5
D9B5
102
{ACAD_REACTORS
330
D9B4
102
}
330
D9B4
100
AcDbZombieObject
 90
      499
 91
      509
 93
      388
310
41119B185D240901404333333333333E3BF0000000000000F9010740A41107004050150841D405064090741402480A1B50
1001
ACAD
1000
AcDbSavedByObjectVersion
1070
     0
  0
ACAD_PROXY_OBJECT
  5
D9B6
102
{ACAD_REACTORS
330
D9B4
102
}
330
D9B4
100
AcDbZombieObject
 90
      499
 91
      509
 93
      476
310
43519B185D15DA5D1A115919D95CD0140901404333333333333E3BF0000000000000F9010740901411070040501600405405064090741402480A1B50
1001
ACAD
1000
AcDbSavedByObjectVersion
1070
     0
  0
ACAD_PROXY_OBJECT
  5
D9B7
102
{ACAD_REACTORS
330
D9B4
102
}
330
D9B4
100
AcDbZombieObject
 90
      499
 91
      509
 93
      412
310
41D1DBDD5C985D5910240902404333333333333E3BF0000000000000F9010740A411070040501641D405064090741402480A1B50
1001
ACAD
1000
AcDbSavedByObjectVersion
1070
     0
  0
ACAD_PROXY_OBJECT
  5
D9B8
102
{ACAD_REACTORS
330
D9B4
102
}
330
D9B4
100
AcDbZombieObject
 90
      499
 91
      509
 93
      500
310
4411DBDD5C985D5915DA5D1A115919D95CD0340902404333333333333E3BF0000000000000F9010740901411070040501600405405064090741402480A1B50
1001
ACAD
1000
AcDbSavedByObjectVersion
1070
     0
  0
ACAD_PROXY_OBJECT
  5
19C7E
102
{ACAD_REACTORS
330
D9B4
102
}
330
D9B4
100
AcDbZombieObject
 90
      499
 91
      509
 93
      476
310
41921A5919195B90640502408333333333333E3BF0000000000000FB01079024090700405020000000000001110200405405064090740C02480A0340
1001
ACAD
1000
AcDbSavedByObjectVersion
1070
     0
  0
ACAD_PROXY_OBJECT
  5
19C2D
102
{ACAD_REACTORS
330
D9B4
102
}
330
D9B4
100
AcDbZombieObject
 90
      499
 91
      509
 93
      428
310
42529A5D1D195C93D999914409028333333333333E3BF0000000000000FB010790141107004050150A41D405064090741402480A0350
1001
ACAD
1000
AcDbSavedByObjectVersion
1070
     0
  0
ACAD_PROXY_OBJECT
  5
D9C2
102
{ACAD_REACTORS
330
D9B4
102
}
330
D9B4
100
AcDbZombieObject
 90
      499
 91
      509
 93
      444
310
42D31A5B995C185D1D195C9B90E409028333333333333E3BF0000000000000FB010790141107004050750841D405064090741402483A0350
1001
ACAD
1000
AcDbSavedByObjectVersion
1070
     0
  0
ACAD_PROXY_OBJECT
  5
19C84
102
{ACAD_REACTORS
330
D9B4
102
}
330
D9B4
100
AcDbZombieObject
 90
      499
 91
      509
 93
      484
310
42135BD9195B1A5B99D0A409028333333333333E3BF0000000000000F901074090290700405010000000000201990108421405064090741402480A1B40
1001
ACAD
1000
AcDbSavedByObjectVersion
1070
     0
  0
ACAD_PROXY_OBJECT
  5
19C2E
102
{ACAD_REACTORS
330
D9B4
102
}
330
D9B4
100
AcDbZombieObject
 90
      499
 91
      509
 93
      444
310
42D3DD995C9A185B99D3D999915409028333333333333E3BF0000000000000FB010790141107004050150941D405064090741402480A0350
1001
ACAD
1000
AcDbSavedByObjectVersion
1070
     0
  0
ACAD_PROXY_OBJECT
  5
D9BE
102
{ACAD_REACTORS
330
D9B4
102
}
330
D9B4
100
AcDbZombieObject
 90
      499
 91
      509
 93
      420
310
425499585B1A5CDD1A58D08409028333333333333E3BF0000000000000FB01079019070040501508421405064090741402480A1B40
1001
ACAD
1000
AcDbSavedByObjectVersion
1070
     0
  0
ACAD_PROXY_OBJECT
  5
19C83
102
{ACAD_REACTORS
330
D9B4
102
}
330
D9B4
100
AcDbZombieObject
 90
      499
 91
      509
 93
      420
310
4194DA1859195911B40902404333333333333E3BF0000000000000F9010740A41107004050150800405405064090840C02480A0B40
1001
ACAD
1000
AcDbSavedByObjectVersion
1070
     0
  0
ACAD_PROXY_OBJECT
  5
19C82
102
{ACAD_REACTORS
330
D9B4
102
}
330
D9B4
100
AcDbZombieObject
 90
      499
 91
      509
 93
      516
310
4454DA18591959081DDA5D1A08195919D95CD1A40902404333333333333E3BF0000000000000F901074090142907004050250800405405064090740C02480A0B40
1001
ACAD
1000
AcDbSavedByObjectVersion
1070
     0
  0
ACAD_PROXY_OBJECT
  5
19C7F
102
{ACAD_REACTORS
330
D9B4
102
}
330
D9B4
100
AcDbZombieObject
 90
      499
 91
      509
 93
      532
310
4394DA1859195CC81BD98811DC985E5174090240C333333333333E3BF0000000000000FB01079024090741D01000000000000111010841D405064090740C02480A0340
1001
ACAD
1000
AcDbSavedByObjectVersion
1070
     0
  0
ACAD_PROXY_OBJECT
  5
19C80
102
{ACAD_REACTORS
330
D9B4
102
}
330
D9B4
100
AcDbZombieObject
 90
      499
 91
      509
 93
      476
310
41D4DAD95D18DA1E51840502408333333333333E3BF0000000000000FB01079024090741D01000000000000111010B41D405064090741802480A0340
1001
ACAD
1000
AcDbSavedByObjectVersion
1070
     0
  0
ACAD_PROXY_OBJECT
  5
D9C1
102
{ACAD_REACTORS
330
D9B4
102
}
330
D9B4
100
AcDbZombieObject
 90
      499
 91
      509
 93
      412
310
41D51A1A58DAD95B90D409028333333333333E3BF0000000000000FB010790141107004050150C41D405064090741402480A0350
1001
ACAD
1000
AcDbSavedByObjectVersion
1070
     0
  0
ACAD_PROXY_OBJECT
  5
19C7D
102
{ACAD_REACTORS
330
D9B4
102
}
330
D9B4
100
AcDbZombieObject
 90
      499
 91
      509
 93
      420
310
4255DA5C99599C985B595059028333333333333E3BF0000000000000FB0107901411070040501600405405064090740C02480A0340
1001
ACAD
1000
AcDbSavedByObjectVersion
1070
     0
  0
ACAD_PROXY_OBJECT
  5
19C81
102
{ACAD_REACTORS
330
D9B4
102
}
330
D9B4
100
AcDbZombieObject
 90
      499
 91
      509
 93
      404
310
41560B54985E51940902404000000000000E03F0000000000000FB010740501907004050150841D405064090740C02480A1B40
1001
ACAD
1000
AcDbSavedByObjectVersion
1070
     0
  0
XRECORD
  5
1B2E7
102
{ACAD_REACTORS
330
1B2E6
102
}
330
1B2E6
100
AcDbXrecord
340
18D
  0
XRECORD
  5
1B2E8
102
{ACAD_REACTORS
330
1B2E6
102
}
330
1B2E6
100
AcDbXrecord
340
18C
  0
DICTIONARYVAR
  5
1A68D
102
{ACAD_REACTORS
330
37
102
}
330
37
100
DictionaryVariables
280
     0
  1
1:1
  0
DICTIONARYVAR
  5
DA6A
102
{ACAD_REACTORS
330
37
102
}
330
37
100
DictionaryVariables
280
     0
  1
Standard
  0
DICTIONARYVAR
  5
29E
102
{ACAD_REACTORS
330
37
102
}
330
37
100
DictionaryVariables
280
     0
  1
Standard
  0
DICTIONARYVAR
  5
38
102
{ACAD_REACTORS
330
37
102
}
330
37
100
DictionaryVariables
280
     0
  1
-1
  0
DICTIONARYVAR
  5
1CE
102
{ACAD_REACTORS
330
37
102
}
330
37
100
DictionaryVariables
280
     0
  1
2
  0
DICTIONARYVAR
  5
704E
102
{ACAD_REACTORS
330
37
102
}
330
37
100
DictionaryVariables
280
     0
  1
1
  0
DICTIONARYVAR
  5
DA6D
102
{ACAD_REACTORS
330
37
102
}
330
37
100
DictionaryVariables
280
     0
  1
0
  0
DICTIONARYVAR
  5
7052
102
{ACAD_REACTORS
330
37
102
}
330
37
100
DictionaryVariables
280
     0
  1
8
  0
DICTIONARYVAR
  5
7051
102
{ACAD_REACTORS
330
37
102
}
330
37
100
DictionaryVariables
280
     0
  1
1
  0
DICTIONARYVAR
  5
1A6DD
102
{ACAD_REACTORS
330
37
102
}
330
37
100
DictionaryVariables
280
     0
  1
0
  0
DICTIONARYVAR
  5
704F
102
{ACAD_REACTORS
330
37
102
}
330
37
100
DictionaryVariables
280
     0
  1
8
  0
DICTIONARYVAR
  5
7050
102
{ACAD_REACTORS
330
37
102
}
330
37
100
DictionaryVariables
280
     0
  1
2
  0
DICTIONARYVAR
  5
1CF
102
{ACAD_REACTORS
330
37
102
}
330
37
100
DictionaryVariables
280
     0
  1

  0
DICTIONARYVAR
  5
DA6C
102
{ACAD_REACTORS
330
37
102
}
330
37
100
DictionaryVariables
280
     0
  1
127
  0
DICTIONARYVAR
  5
1B18D
102
{ACAD_REACTORS
330
37
102
}
330
37
100
DictionaryVariables
280
     0
  1
2
  0
DICTIONARY
  5
1B484
330
D9A4
100
AcDbDictionary
  3
ACAD_XREC_ROUNDTRIP
360
1B485
1001
ACAD
1000
TREAT_AS_HARD
1070
     1
  0
DICTIONARY
  5
1B486
330
D99C
100
AcDbDictionary
  3
ACAD_XREC_ROUNDTRIP
360
1B487
1001
ACAD
1000
TREAT_AS_HARD
1070
     1
  0
DICTIONARY
  5
1B488
330
D9AC
100
AcDbDictionary
  3
ACAD_XREC_ROUNDTRIP
360
1B489
1001
ACAD
1000
TREAT_AS_HARD
1070
     1
  0
XRECORD
  5
1B485
102
{ACAD_REACTORS
330
1B484
102
}
330
1B484
100
AcDbXrecord
102
MATERIAL
148
0.0
149
0.0
149
0.0
 93
        0
 94
      127
282
     0
 72
     0
 77
     0
171
     0
175
     0
179
     0
273
     0
  0
XRECORD
  5
1B487
102
{ACAD_REACTORS
330
1B486
102
}
330
1B486
100
AcDbXrecord
102
MATERIAL
148
0.0
149
0.0
149
0.0
 93
        0
 94
      127
282
     0
 72
     0
 77
     0
171
     0
175
     0
179
     0
273
     0
  0
XRECORD
  5
1B489
102
{ACAD_REACTORS
330
1B488
102
}
330
1B488
100
AcDbXrecord
102
MATERIAL
148
0.0
149
0.0
149
0.0
 93
        0
 94
      127
282
     0
 72
     0
 77
     0
171
     0
175
     0
179
     0
273
     0
  0
ENDSEC
  0
EOF
