  0
SECTION
  2
HEADER
  9
$ACADVER
  1
AC1012
  9
$DWGCODEPAGE
  3
ansi_932
  9
$INSBASE
 10
0.0
 20
0.0
 30
0.0
  9
$EXTMIN
 10
2474.838854259554
 20
-174.3842419786943
 30
0.0000000001127424
  9
$EXTMAX
 10
3109.154165558336
 20
252.6167607019056
 30
0.0000000003382273
  9
$LIMMIN
 10
0.0
 20
0.0
  9
$LIMMAX
 10
420.0
 20
297.0
  9
$ORTHOMODE
 70
     0
  9
$REGENMODE
 70
     1
  9
$FILLMODE
 70
     1
  9
$QTEXTMODE
 70
     0
  9
$MIRRTEXT
 70
     0
  9
$DRAGMODE
 70
     2
  9
$LTSCALE
 40
0.5
  9
$OSMODE
 70
 14463
  9
$ATTMODE
 70
     1
  9
$TEXTSIZE
 40
4.0
  9
$TRACEWID
 40
1.0
  9
$TEXTSTYLE
  7
STANDARD
  9
$CLAYER
  8
1TEXT
  9
$CELTYPE
  6
BYLAYER
  9
$CECOLOR
 62
   256
  9
$CELTSCALE
 40
1.0
  9
$DELOBJ
 70
     1
  9
$DISPSILH
 70
     0
  9
$DIMSCALE
 40
1.0
  9
$DIMASZ
 40
2.0
  9
$DIMEXO
 40
0.0
  9
$DIMDLI
 40
7.0
  9
$DIMRND
 40
0.0
  9
$DIMDLE
 40
0.0
  9
$DIMEXE
 40
1.0
  9
$DIMTP
 40
0.0
  9
$DIMTM
 40
0.0
  9
$DIMTXT
 40
3.5
  9
$DIMCEN
 40
0.0
  9
$DIMTSZ
 40
0.0
  9
$DIMTOL
 70
     0
  9
$DIMLIM
 70
     0
  9
$DIMTIH
 70
     0
  9
$DIMTOH
 70
     0
  9
$DIMSE1
 70
     0
  9
$DIMSE2
 70
     0
  9
$DIMTAD
 70
     1
  9
$DIMZIN
 70
     8
  9
$DIMBLK
  1

  9
$DIMASO
 70
     1
  9
$DIMSHO
 70
     1
  9
$DIMPOST
  1
 
  9
$DIMAPOST
  1

  9
$DIMALT
 70
     0
  9
$DIMALTD
 70
     2
  9
$DIMALTF
 40
25.4
  9
$DIMLFAC
 40
1.0
  9
$DIMTOFL
 70
     1
  9
$DIMTVP
 40
0.0
  9
$DIMTIX
 70
     0
  9
$DIMSOXD
 70
     0
  9
$DIMSAH
 70
     1
  9
$DIMBLK1
  1
OPEN30
  9
$DIMBLK2
  1
OPEN30
  9
$DIMSTYLE
  2
NEWX10
  9
$DIMCLRD
 70
   256
  9
$DIMCLRE
 70
   256
  9
$DIMCLRT
 70
   201
  9
$DIMTFAC
 40
0.7
  9
$DIMGAP
 40
0.7
  9
$DIMJUST
 70
     0
  9
$DIMSD1
 70
     0
  9
$DIMSD2
 70
     0
  9
$DIMTOLJ
 70
     1
  9
$DIMTZIN
 70
     8
  9
$DIMALTZ
 70
     0
  9
$DIMALTTZ
 70
     0
  9
$DIMFIT
 70
     2
  9
$DIMUPT
 70
     0
  9
$DIMUNIT
 70
     2
  9
$DIMDEC
 70
     2
  9
$DIMTDEC
 70
     4
  9
$DIMALTU
 70
     2
  9
$DIMALTTD
 70
     2
  9
$DIMTXSTY
  7
STANDARD
  9
$DIMAUNIT
 70
     0
  9
$LUNITS
 70
     2
  9
$LUPREC
 70
     4
  9
$SKETCHINC
 40
1.0
  9
$FILLETRAD
 40
0.0
  9
$AUNITS
 70
     0
  9
$AUPREC
 70
     2
  9
$MENU
  1
acad
  9
$ELEVATION
 40
0.0
  9
$PELEVATION
 40
0.0
  9
$THICKNESS
 40
0.0
  9
$LIMCHECK
 70
     0
  9
$CHAMFERA
 40
10.0
  9
$CHAMFERB
 40
10.0
  9
$CHAMFERC
 40
20.0
  9
$CHAMFERD
 40
0.0
  9
$SKPOLY
 70
     0
  9
$TDCREATE
 40
2451318.621352917
  9
$TDUPDATE
 40
2458152.62715875
  9
$TDINDWG
 40
1.6414021644
  9
$TDUSRTIMER
 40
1.6414021644
  9
$USRTIMER
 70
     1
  9
$ANGBASE
 50
0.0
  9
$ANGDIR
 70
     0
  9
$PDMODE
 70
     0
  9
$PDSIZE
 40
0.0
  9
$PLINEWID
 40
0.0
  9
$COORDS
 70
     2
  9
$SPLFRAME
 70
     0
  9
$SPLINETYPE
 70
     6
  9
$SPLINESEGS
 70
     8
  9
$ATTDIA
 70
     0
  9
$ATTREQ
 70
     1
  9
$HANDLING
 70
     1
  9
$HANDSEED
  5
1B0D8
  9
$SURFTAB1
 70
     6
  9
$SURFTAB2
 70
     6
  9
$SURFTYPE
 70
     6
  9
$SURFU
 70
     6
  9
$SURFV
 70
     6
  9
$UCSNAME
  2

  9
$UCSORG
 10
0.0
 20
0.0
 30
0.0
  9
$UCSXDIR
 10
1.0
 20
0.0
 30
0.0
  9
$UCSYDIR
 10
0.0
 20
1.0
 30
0.0
  9
$PUCSNAME
  2

  9
$PUCSORG
 10
0.0
 20
0.0
 30
0.0
  9
$PUCSXDIR
 10
1.0
 20
0.0
 30
0.0
  9
$PUCSYDIR
 10
0.0
 20
1.0
 30
0.0
  9
$USERI1
 70
     0
  9
$USERI2
 70
     0
  9
$USERI3
 70
     0
  9
$USERI4
 70
     0
  9
$USERI5
 70
     0
  9
$USERR1
 40
0.0
  9
$USERR2
 40
0.0
  9
$USERR3
 40
0.0
  9
$USERR4
 40
0.0
  9
$USERR5
 40
0.0
  9
$WORLDVIEW
 70
     1
  9
$SHADEDGE
 70
     3
  9
$SHADEDIF
 70
    70
  9
$TILEMODE
 70
     1
  9
$MAXACTVP
 70
    48
  9
$PINSBASE
 10
0.0
 20
0.0
 30
0.0
  9
$PLIMCHECK
 70
     0
  9
$PEXTMIN
 10
1.000000000000000E+20
 20
1.000000000000000E+20
 30
1.000000000000000E+20
  9
$PEXTMAX
 10
-1.000000000000000E+20
 20
-1.000000000000000E+20
 30
-1.000000000000000E+20
  9
$PLIMMIN
 10
0.0
 20
0.0
  9
$PLIMMAX
 10
420.0
 20
297.0
  9
$UNITMODE
 70
     0
  9
$VISRETAIN
 70
     1
  9
$PLINEGEN
 70
     0
  9
$PSLTSCALE
 70
     1
  9
$TREEDEPTH
 70
  3020
  9
$PICKSTYLE
 70
     1
  9
$CMLSTYLE
  2
STANDARD
  9
$CMLJUST
 70
     0
  9
$CMLSCALE
 40
20.0
  9
$SAVEIMAGES
 70
     1
  0
ENDSEC
  0
SECTION
  2
CLASSES
  0
CLASS
  1
DICTIONARYVAR
  2
AcDbDictionaryVar
  3
ObjectDBX Classes
 90
        0
280
     0
281
     0
  0
CLASS
  1
IDBUFFER
  2
AcDbIdBuffer
  3
ObjectDBX Classes
 90
    32768
280
     0
281
     0
  0
CLASS
  1
LWPOLYLINE
  2
AcDbPolyline
  3
ObjectDBX Classes
 90
    32768
280
     0
281
     1
  0
CLASS
  1
ACDBDICTIONARYWDFLT
  2
AcDbDictionaryWithDefault
  3
ObjectDBX Classes
 90
    32768
280
     0
281
     0
  0
CLASS
  1
ACDBPLACEHOLDER
  2
AcDbPlaceHolder
  3
ObjectDBX Classes
 90
        0
280
     0
281
     0
  0
CLASS
  1
LAYOUT
  2
AcDbLayout
  3
ObjectDBX Classes
 90
        0
280
     0
281
     0
  0
CLASS
  1
TABLESTYLE
  2
AcDbTableStyle
  3
ObjectDBX Classes
 90
     4095
280
     0
281
     0
  0
CLASS
  1
SORTENTSTABLE
  2
AcDbSortentsTable
  3
ObjectDBX Classes
 90
    32768
280
     0
281
     0
  0
CLASS
  1
MATERIAL
  2
AcDbMaterial
  3
ObjectDBX Classes
 90
     1153
280
     0
281
     0
  0
CLASS
  1
VISUALSTYLE
  2
AcDbVisualStyle
  3
ObjectDBX Classes
 90
     4095
280
     0
281
     0
  0
CLASS
  1
SCALE
  2
AcDbScale
  3
ObjectDBX Classes
 90
     1153
280
     0
281
     0
  0
CLASS
  1
MLEADERSTYLE
  2
AcDbMLeaderStyle
  3
ACDB_MLEADERSTYLE_CLASS
 90
     4095
280
     0
281
     0
  0
CLASS
  1
CELLSTYLEMAP
  2
AcDbCellStyleMap
  3
ObjectDBX Classes
 90
     1152
280
     0
281
     0
  0
CLASS
  1
SUN
  2
AcDbSun
  3
SCENEOE
 90
     1153
280
     0
281
     0
  0
CLASS
  1
AEC_REFEDIT_STATUS_TRACKER
  2
AecDbRefEditStatusTracker
  3
AecArchBase60|Product Desc: Autodesk Architectural Desktop 2007 |Company: Autodesk,Inc. |WEB Address: www.autodesk.com
 90
      129
280
     1
281
     0
  0
CLASS
  1
NPOCOLLECTION
  2
AcDbImpNonPersistentObjectsCollection
  3
ObjectDBX Classes
 90
     1153
280
     1
281
     0
  0
CLASS
  1
XRECORD
  2
AcDbXrecord
  3
ObjectDBX Classes
 90
    32768
280
     0
281
     0
  0
CLASS
  1
HATCH
  2
AcDbHatch
  3
ObjectDBX Classes
 90
    32768
280
     0
281
     1
  0
ENDSEC
  0
SECTION
  2
TABLES
  0
TABLE
  2
VPORT
  5
8
330
0
100
AcDbSymbolTable
 70
     1
  0
VPORT
  5
D991
330
8
100
AcDbSymbolTableRecord
100
AcDbViewportTableRecord
  2
*ACTIVE
 70
     0
 10
0.0
 20
0.0
 11
1.0
 21
1.0
 12
2791.996509908945
 22
39.11625936160567
 13
0.0
 23
0.0
 14
10.0
 24
10.0
 15
10.0
 25
10.0
 16
0.0
 26
0.0
 36
1.0
 17
0.0
 27
0.0
 37
0.0
 40
458.4642344570652
 41
2.233782129742962
 42
50.0
 43
0.0
 44
0.0
 50
0.0
 51
0.0
 71
    16
 72
   100
 73
     1
 74
     1
 75
     0
 76
     0
 77
     0
 78
     0
  0
ENDTAB
  0
TABLE
  2
LTYPE
  5
5
330
0
100
AcDbSymbolTable
 70
     2
  0
LTYPE
  5
12
330
5
100
AcDbSymbolTableRecord
100
AcDbLinetypeTableRecord
  2
BYBLOCK
 70
     0
  3

 72
    65
 73
     0
 40
0.0
  0
LTYPE
  5
13
330
5
100
AcDbSymbolTableRecord
100
AcDbLinetypeTableRecord
  2
BYLAYER
 70
     0
  3

 72
    65
 73
     0
 40
0.0
  0
LTYPE
  5
14
330
5
100
AcDbSymbolTableRecord
100
AcDbLinetypeTableRecord
  2
CONTINUOUS
 70
     0
  3
Solid line
 72
    65
 73
     0
 40
0.0
  0
LTYPE
  5
13839
330
5
100
AcDbSymbolTableRecord
100
AcDbLinetypeTableRecord
  2
CENTER2
 70
     0
  3
Center (.5x) ___ _ ___ _ ___ _ ___ _ ___ _ ___
 72
    65
 73
     4
 40
28.575
 49
19.05
 74
     0
 49
-3.175
 74
     0
 49
3.175
 74
     0
 49
-3.175
 74
     0
  0
ENDTAB
  0
TABLE
  2
LAYER
  5
2
102
{ACAD_XDICTIONARY
360
E6A6
102
}
330
0
100
AcDbSymbolTable
 70
     5
  0
LAYER
  5
E
102
{ACAD_XDICTIONARY
360
DA05
102
}
330
2
100
AcDbSymbolTableRecord
100
AcDbLayerTableRecord
  2
0
 70
     0
 62
     7
  6
CONTINUOUS
  0
LAYER
  5
29
102
{ACAD_XDICTIONARY
360
DA07
102
}
330
2
100
AcDbSymbolTableRecord
100
AcDbLayerTableRecord
  2
1CENTER
 70
     0
 62
     7
  6
CENTER2
  0
LAYER
  5
31
102
{ACAD_XDICTIONARY
360
DA09
102
}
330
2
100
AcDbSymbolTableRecord
100
AcDbLayerTableRecord
  2
1TEXT
 70
     0
 62
     7
  6
CONTINUOUS
  0
LAYER
  5
243
102
{ACAD_XDICTIONARY
360
DA0F
102
}
330
2
100
AcDbSymbolTableRecord
100
AcDbLayerTableRecord
  2
01
 70
     0
 62
     1
  6
CONTINUOUS
  0
LAYER
  5
24E
102
{ACAD_XDICTIONARY
360
DA15
102
}
330
2
100
AcDbSymbolTableRecord
100
AcDbLayerTableRecord
  2
1DIM
 70
     0
 62
     7
  6
CONTINUOUS
  0
ENDTAB
  0
TABLE
  2
STYLE
  5
3
330
0
100
AcDbSymbolTable
 70
     1
  0
STYLE
  5
F
330
3
100
AcDbSymbolTableRecord
100
AcDbTextStyleTableRecord
  2
STANDARD
 70
     0
 40
0.0
 41
1.0
 50
0.0
 71
     0
 42
4.0
  3
txt.shx
  4
extfont.shx
  0
ENDTAB
  0
TABLE
  2
VIEW
  5
6
330
0
100
AcDbSymbolTable
 70
     0
  0
ENDTAB
  0
TABLE
  2
UCS
  5
7
330
0
100
AcDbSymbolTable
 70
     0
  0
ENDTAB
  0
TABLE
  2
APPID
  5
9
330
0
100
AcDbSymbolTable
 70
    15
  0
APPID
  5
10
330
9
100
AcDbSymbolTableRecord
100
AcDbRegAppTableRecord
  2
ACAD
 70
     0
  0
APPID
  5
21
330
9
100
AcDbSymbolTableRecord
100
AcDbRegAppTableRecord
  2
DRAWINGVARIABLESXDATA
 70
     0
  0
APPID
  5
64
330
9
100
AcDbSymbolTableRecord
100
AcDbRegAppTableRecord
  2
CONTENTTABDATA
 70
     0
  0
APPID
  5
65
330
9
100
AcDbSymbolTableRecord
100
AcDbRegAppTableRecord
  2
CONTENTCURRENTTAB
 70
     0
  0
APPID
  5
66
330
9
100
AcDbSymbolTableRecord
100
AcDbRegAppTableRecord
  2
CONTENTBLOCKDESCRIPTION
 70
     0
  0
APPID
  5
67
330
9
100
AcDbSymbolTableRecord
100
AcDbRegAppTableRecord
  2
CONTENTBLOCKICON
 70
     0
  0
APPID
  5
68
330
9
100
AcDbSymbolTableRecord
100
AcDbRegAppTableRecord
  2
CONTENTLONGBLOCKNAME
 70
     0
  0
APPID
  5
2AE
330
9
100
AcDbSymbolTableRecord
100
AcDbRegAppTableRecord
  2
ACAD_PSEXT
 70
     0
  0
APPID
  5
D9E9
330
9
100
AcDbSymbolTableRecord
100
AcDbRegAppTableRecord
  2
ACAD_MLEADERVER
 70
     0
  0
APPID
  5
19CF0
330
9
100
AcDbSymbolTableRecord
100
AcDbRegAppTableRecord
  2
ACADANNOTATIVE
 70
     0
  0
APPID
  5
19CF1
330
9
100
AcDbSymbolTableRecord
100
AcDbRegAppTableRecord
  2
ACDBBLOCKREPETAG
 70
     0
  0
APPID
  5
19CF2
330
9
100
AcDbSymbolTableRecord
100
AcDbRegAppTableRecord
  2
ACLAYERTOOLS
 70
     0
  0
APPID
  5
19CF3
330
9
100
AcDbSymbolTableRecord
100
AcDbRegAppTableRecord
  2
ACAD_NAV_VCDISPLAY
 70
     0
  0
APPID
  5
1A86C
330
9
100
AcDbSymbolTableRecord
100
AcDbRegAppTableRecord
  2
ACAD_OBJECT_CHANGE_GUID
 70
     0
  0
APPID
  5
1AA08
330
9
100
AcDbSymbolTableRecord
100
AcDbRegAppTableRecord
  2
ACAECLAYERSTANDARD
 70
     0
  0
ENDTAB
  0
TABLE
  2
DIMSTYLE
  5
A
330
0
100
AcDbSymbolTable
 70
     1
  0
DIMSTYLE
105
48
330
A
100
AcDbSymbolTableRecord
100
AcDbDimStyleTableRecord
  2
NEWX10
 70
     0
  3
 
  4

  5

  6
OPEN30
  7
OPEN30
 40
1.0
 41
2.0
 42
0.0
 43
7.0
 44
1.0
 45
0.0
 46
0.0
 47
0.0
 48
0.0
140
3.5
141
0.0
142
0.0
143
25.4
144
1.0
145
0.0
146
0.7
147
0.7
 71
     0
 72
     0
 73
     0
 74
     0
 75
     0
 76
     0
 77
     1
 78
     8
170
     0
171
     2
172
     1
173
     1
174
     0
175
     0
176
   256
177
   256
178
   201
179
     2
270
     2
271
     2
272
     4
273
     2
274
     2
340
F
275
     0
280
     0
281
     0
282
     0
283
     1
284
     8
285
     0
286
     0
287
     2
288
     0
  0
ENDTAB
  0
TABLE
  2
BLOCK_RECORD
  5
1
330
0
100
AcDbSymbolTable
 70
     8
  0
BLOCK_RECORD
  5
18
102
{ACAD_XDICTIONARY
360
88F
102
}
330
1
100
AcDbSymbolTableRecord
100
AcDbBlockTableRecord
  2
*MODEL_SPACE
  0
BLOCK_RECORD
  5
15
330
1
100
AcDbSymbolTableRecord
100
AcDbBlockTableRecord
  2
*PAPER_SPACE
  0
BLOCK_RECORD
  5
42
330
1
100
AcDbSymbolTableRecord
100
AcDbBlockTableRecord
  2
_OPEN30
  0
BLOCK_RECORD
  5
19D42
330
1
100
AcDbSymbolTableRecord
100
AcDbBlockTableRecord
  2
A3WAKUKAWAJUN2017_HYOUDAI_
  0
BLOCK_RECORD
  5
1AF38
330
1
100
AcDbSymbolTableRecord
100
AcDbBlockTableRecord
  2
*X42
  0
BLOCK_RECORD
  5
1AF86
330
1
100
AcDbSymbolTableRecord
100
AcDbBlockTableRecord
  2
*X43
  0
BLOCK_RECORD
  5
1AFD8
330
1
100
AcDbSymbolTableRecord
100
AcDbBlockTableRecord
  2
*X44
  0
BLOCK_RECORD
  5
1B029
330
1
100
AcDbSymbolTableRecord
100
AcDbBlockTableRecord
  2
*X45
  0
BLOCK_RECORD
  5
1B066
330
1
100
AcDbSymbolTableRecord
100
AcDbBlockTableRecord
  2
*X46
  0
BLOCK_RECORD
  5
1B0A6
330
1
100
AcDbSymbolTableRecord
100
AcDbBlockTableRecord
  2
*X47
  0
ENDTAB
  0
ENDSEC
  0
SECTION
  2
BLOCKS
  0
BLOCK
  5
19
330
18
100
AcDbEntity
  8
0
100
AcDbBlockBegin
  2
*MODEL_SPACE
 70
     0
 10
0.0
 20
0.0
 30
0.0
  3
*MODEL_SPACE
  1

  0
ENDBLK
  5
1A
330
18
100
AcDbEntity
  8
0
100
AcDbBlockEnd
  0
BLOCK
  5
16
330
15
100
AcDbEntity
 67
     1
  8
0
100
AcDbBlockBegin
  2
*PAPER_SPACE
 70
     0
 10
0.0
 20
0.0
 30
0.0
  3
*PAPER_SPACE
  1

  0
ENDBLK
  5
17
330
15
100
AcDbEntity
 67
     1
  8
0
100
AcDbBlockEnd
  0
BLOCK
  5
43
330
42
100
AcDbEntity
  8
0
100
AcDbBlockBegin
  2
_OPEN30
 70
     0
 10
0.0
 20
0.0
 30
0.0
  3
_OPEN30
  1

  0
LINE
  5
44
330
42
100
AcDbEntity
  8
0
  6
BYBLOCK
 62
     0
100
AcDbLine
 10
-1.0
 20
0.26794919
 30
0.0
 11
0.0
 21
0.0
 31
0.0
  0
LINE
  5
45
330
42
100
AcDbEntity
  8
0
  6
BYBLOCK
 62
     0
100
AcDbLine
 10
0.0
 20
0.0
 30
0.0
 11
-1.0
 21
-0.26794919
 31
0.0
  0
LINE
  5
46
330
42
100
AcDbEntity
  8
0
  6
BYBLOCK
 62
     0
100
AcDbLine
 10
0.0
 20
0.0
 30
0.0
 11
-1.0
 21
0.0
 31
0.0
  0
ENDBLK
  5
47
330
42
100
AcDbEntity
  8
0
100
AcDbBlockEnd
  0
BLOCK
  5
1A550
330
19D42
100
AcDbEntity
  8
0
100
AcDbBlockBegin
  2
A3WAKUKAWAJUN2017_HYOUDAI_
 70
     0
 10
0.0
 20
0.0
 30
0.0
  3
A3WAKUKAWAJUN2017_HYOUDAI_
  1

  0
LINE
  5
19D44
330
19D42
100
AcDbEntity
  8
0
100
AcDbLine
 10
13.26299999998673
 20
-0.0001000000000317
 30
0.0
 11
9.236999999990758
 21
8.999899999990987
 31
0.0
1001
ACAD
1000
ASC_BOUNDS
1002
{
1070
    19
1005
19D85
1002
}
  0
LINE
  5
19D45
330
19D42
100
AcDbEntity
  8
0
100
AcDbLine
 10
5.657999999994331
 20
0.9999999999989768
 30
0.0
 11
9.236999999990758
 21
8.999999999991019
 31
0.0
1001
ACAD
1000
ASC_BOUNDS
1002
{
1070
    19
1005
19D85
1002
}
  0
LINE
  5
19D46
330
19D42
100
AcDbEntity
  8
0
100
AcDbLine
 10
18.59199999998134
 20
-0.2368999999997641
 30
0.0
 11
16.46099999998353
 21
5.432899999994561
 31
0.0
1001
ACAD
1000
ASC_BOUNDS
1002
{
1070
    19
1005
19D86
1002
}
  0
LINE
  5
19D47
330
19D42
100
AcDbEntity
  8
0
100
AcDbLine
 10
18.59199999998134
 20
-0.2368999999997641
 30
0.0
 11
22.38199999997767
 21
8.763099999991255
 31
0.0
1001
ACAD
1000
ASC_BOUNDS
1002
{
1070
    19
1005
19D86
1002
}
  0
LINE
  5
19D48
330
19D42
100
AcDbEntity
  8
0
100
AcDbLine
 10
14.32899999998563
 20
-0.2368999999997641
 30
0.0
 11
16.46099999998353
 21
5.432899999994561
 31
0.0
1001
ACAD
1000
ASC_BOUNDS
1002
{
1070
    19
1005
19D86
1002
}
  0
LINE
  5
19D49
330
19D42
100
AcDbEntity
  8
0
100
AcDbLine
 10
14.32899999998563
 20
-0.2368999999997641
 30
0.0
 11
10.53899999998941
 21
8.763099999991255
 31
0.0
1001
ACAD
1000
ASC_BOUNDS
1002
{
1070
    19
1005
19D86
1002
}
  0
LINE
  5
19D4A
330
19D42
100
AcDbEntity
  8
0
100
AcDbLine
 10
19.53899999998043
 20
-0.0001000000000317
 30
0.0
 11
23.56599999997638
 21
8.999899999990987
 31
0.0
1001
ACAD
1000
ASC_BOUNDS
1002
{
1070
    19
1005
19D87
1002
}
  0
LINE
  5
19D4B
330
19D42
100
AcDbEntity
  8
0
100
AcDbLine
 10
26.97358892824991
 20
1.383099999991202
 30
0.0
 11
23.56599999997638
 21
8.999899999990987
 31
0.0
1001
ACAD
1000
ASC_BOUNDS
1002
{
1070
    19
1005
19D87
1002
}
  0
LINE
  5
19D4C
330
19D42
100
AcDbEntity
  8
0
100
AcDbLine
 10
5.657999999994331
 20
0.9999999999989768
 30
0.0
 11
3.181999999996833
 21
4.668599999995308
 31
0.0
1001
ACAD
1000
ASC_BOUNDS
1002
{
1070
    19
1005
19D85
1002
}
  0
LINE
  5
19D4D
330
19D42
100
AcDbEntity
  8
0
100
AcDbLine
 10
4.617999999995391
 20
-0.0001000000000317
 30
0.0
 11
1.420999999998571
 21
4.736799999995242
 31
0.0
1001
ACAD
1000
ASC_BOUNDS
1002
{
1070
    19
1005
19D85
1002
}
  0
LINE
  5
19D4E
330
19D42
100
AcDbEntity
  8
0
100
AcDbLine
 10
1.420999999998571
 20
8.763099999991255
 30
0.0
 11
1.420999999998571
 21
0.0
 31
0.0
1001
ACAD
1000
ASC_BOUNDS
1002
{
1070
    19
1005
19D8A
1002
}
  0
LINE
  5
19D4F
330
19D42
100
AcDbEntity
  8
0
100
AcDbLine
 10
0.0
 20
8.763099999991255
 30
0.0
 11
0.0
 21
0.0
 31
0.0
1001
ACAD
1000
ASC_BOUNDS
1002
{
1070
    19
1005
19D8A
1002
}
  0
LINE
  5
19D50
330
19D42
100
AcDbEntity
  8
0
100
AcDbLine
 10
6.766999999993232
 20
-0.0001000000000317
 30
0.0
 11
7.826999999992154
 21
2.368399999997621
 31
0.0
1001
ACAD
1000
ASC_BOUNDS
1002
{
1070
    19
1005
19D85
1002
}
  0
LINE
  5
19D51
330
19D42
100
AcDbEntity
  8
0
100
AcDbLine
 10
0.0
 20
0.0
 30
0.0
 11
1.420999999998571
 21
0.0
 31
0.0
1001
ACAD
1000
ASC_BOUNDS
1002
{
1070
    19
1005
19D8A
1002
}
  0
LINE
  5
19D52
330
19D42
100
AcDbEntity
  8
0
100
AcDbLine
 10
4.617999999995391
 20
0.0
 30
0.0
 11
6.766999999993232
 21
0.0
 31
0.0
1001
ACAD
1000
ASC_BOUNDS
1002
{
1070
    19
1005
19D85
1002
}
  0
LINE
  5
19D53
330
19D42
100
AcDbEntity
  8
0
100
AcDbLine
 10
11.70599999998831
 20
-0.0001000000000317
 30
0.0
 11
10.64699999998936
 21
2.368399999997621
 31
0.0
1001
ACAD
1000
ASC_BOUNDS
1002
{
1070
    19
1005
19D85
1002
}
  0
LINE
  5
19D54
330
19D42
100
AcDbEntity
  8
0
100
AcDbLine
 10
7.826999999992154
 20
2.368399999997621
 30
0.0
 11
10.64699999998936
 21
2.368399999997621
 31
0.0
1001
ACAD
1000
ASC_BOUNDS
1002
{
1070
    19
1005
19D85
1002
}
  0
LINE
  5
19D55
330
19D42
100
AcDbEntity
  8
0
100
AcDbLine
 10
11.70599999998831
 20
0.0
 30
0.0
 11
13.26299999998673
 21
0.0
 31
0.0
1001
ACAD
1000
ASC_BOUNDS
1002
{
1070
    19
1005
19D85
1002
}
  0
LINE
  5
19D56
330
19D42
100
AcDbEntity
  8
0
100
AcDbLine
 10
22.15599999997789
 20
2.368399999997621
 30
0.0
 11
24.97599999997499
 21
2.368399999997621
 31
0.0
1001
ACAD
1000
ASC_BOUNDS
1002
{
1070
    19
1005
19D87
1002
}
  0
LINE
  5
19D57
330
19D42
100
AcDbEntity
  8
0
100
AcDbLine
 10
19.53899999998043
 20
0.0
 30
0.0
 11
21.09599999997886
 21
0.0
 31
0.0
1001
ACAD
1000
ASC_BOUNDS
1002
{
1070
    19
1005
19D87
1002
}
  0
LINE
  5
19D58
330
19D42
100
AcDbEntity
  8
0
100
AcDbLine
 10
21.09599999997886
 20
-0.0001000000000317
 30
0.0
 11
22.15599999997789
 21
2.368399999997621
 31
0.0
1001
ACAD
1000
ASC_BOUNDS
1002
{
1070
    19
1005
19D87
1002
}
  0
LINE
  5
19D59
330
19D42
100
AcDbEntity
  8
0
100
AcDbLine
 10
26.02015566812236
 20
0.0330999999912365
 30
0.0
 11
24.97599999997499
 21
2.368399999997621
 31
0.0
1001
ACAD
1000
ASC_BOUNDS
1002
{
1070
    19
1005
19D87
1002
}
  0
LINE
  5
19D5A
330
19D42
100
AcDbEntity
  8
0
100
AcDbLine
 10
14.32399999998563
 20
3.315799999996671
 30
0.0
 11
16.46099999998353
 21
8.999899999990987
 31
0.0
1001
ACAD
1000
ASC_BOUNDS
1002
{
1070
    19
1005
19D86
1002
}
  0
LINE
  5
19D5B
330
19D42
100
AcDbEntity
  8
0
100
AcDbLine
 10
6.432999999993513
 20
8.763099999991255
 30
0.0
 11
3.181999999996833
 21
4.668599999995308
 31
0.0
1001
ACAD
1000
ASC_BOUNDS
1002
{
1070
    19
1005
19D85
1002
}
  0
LINE
  5
19D5C
330
19D42
100
AcDbEntity
  8
0
100
AcDbLine
 10
4.617999999995391
 20
8.763099999991255
 30
0.0
 11
1.420999999998571
 21
4.736799999995242
 31
0.0
1001
ACAD
1000
ASC_BOUNDS
1002
{
1070
    19
1005
19D85
1002
}
  0
LINE
  5
19D5D
330
19D42
100
AcDbEntity
  8
0
100
AcDbLine
 10
0.0
 20
8.763099999991255
 30
0.0
 11
1.420999999998571
 21
8.763099999991255
 31
0.0
1001
ACAD
1000
ASC_BOUNDS
1002
{
1070
    19
1005
19D8A
1002
}
  0
LINE
  5
19D5E
330
19D42
100
AcDbEntity
  8
0
100
AcDbLine
 10
4.617999999995391
 20
8.763099999991255
 30
0.0
 11
6.432999999993513
 21
8.763099999991255
 31
0.0
1001
ACAD
1000
ASC_BOUNDS
1002
{
1070
    19
1005
19D85
1002
}
  0
LINE
  5
19D5F
330
19D42
100
AcDbEntity
  8
0
100
AcDbLine
 10
14.32399999998563
 20
3.315799999996671
 30
0.0
 11
12.02999999998792
 21
8.763099999991255
 31
0.0
1001
ACAD
1000
ASC_BOUNDS
1002
{
1070
    19
1005
19D86
1002
}
  0
LINE
  5
19D60
330
19D42
100
AcDbEntity
  8
0
100
AcDbLine
 10
10.06399999998996
 20
3.670999999996297
 30
0.0
 11
9.236999999990758
 21
5.5200999999945
 31
0.0
1001
ACAD
1000
ASC_BOUNDS
1002
{
1070
    19
1005
19D85
1002
}
  0
LINE
  5
19D61
330
19D42
100
AcDbEntity
  8
0
100
AcDbLine
 10
8.409999999991555
 20
3.670999999996297
 30
0.0
 11
9.236999999990758
 21
5.5200999999945
 31
0.0
1001
ACAD
1000
ASC_BOUNDS
1002
{
1070
    19
1005
19D85
1002
}
  0
LINE
  5
19D62
330
19D42
100
AcDbEntity
  8
0
100
AcDbLine
 10
8.409999999991555
 20
3.670999999996297
 30
0.0
 11
10.06399999998996
 21
3.670999999996297
 31
0.0
1001
ACAD
1000
ASC_BOUNDS
1002
{
1070
    19
1005
19D85
1002
}
  0
LINE
  5
19D63
330
19D42
100
AcDbEntity
  8
0
100
AcDbLine
 10
10.53899999998941
 20
8.763099999991255
 30
0.0
 11
12.02999999998792
 21
8.763099999991255
 31
0.0
1001
ACAD
1000
ASC_BOUNDS
1002
{
1070
    19
1005
19D86
1002
}
  0
LINE
  5
19D64
330
19D42
100
AcDbEntity
  8
0
100
AcDbLine
 10
22.7389999999773
 20
3.670999999996297
 30
0.0
 11
23.56599999997638
 21
5.5200999999945
 31
0.0
1001
ACAD
1000
ASC_BOUNDS
1002
{
1070
    19
1005
19D87
1002
}
  0
LINE
  5
19D65
330
19D42
100
AcDbEntity
  8
0
100
AcDbLine
 10
22.7389999999773
 20
3.670999999996297
 30
0.0
 11
24.39299999997559
 21
3.670999999996297
 31
0.0
1001
ACAD
1000
ASC_BOUNDS
1002
{
1070
    19
1005
19D87
1002
}
  0
LINE
  5
19D66
330
19D42
100
AcDbEntity
  8
0
100
AcDbLine
 10
18.59799999998143
 20
3.315799999996671
 30
0.0
 11
20.89099999997916
 21
8.763099999991255
 31
0.0
1001
ACAD
1000
ASC_BOUNDS
1002
{
1070
    19
1005
19D86
1002
}
  0
LINE
  5
19D67
330
19D42
100
AcDbEntity
  8
0
100
AcDbLine
 10
18.59799999998143
 20
3.315799999996671
 30
0.0
 11
16.46099999998353
 21
8.999899999990987
 31
0.0
1001
ACAD
1000
ASC_BOUNDS
1002
{
1070
    19
1005
19D86
1002
}
  0
LINE
  5
19D68
330
19D42
100
AcDbEntity
  8
0
100
AcDbLine
 10
20.89099999997916
 20
8.763099999991255
 30
0.0
 11
22.38199999997767
 21
8.763099999991255
 31
0.0
1001
ACAD
1000
ASC_BOUNDS
1002
{
1070
    19
1005
19D86
1002
}
  0
LINE
  5
19D69
330
19D42
100
AcDbEntity
  8
0
100
AcDbLine
 10
24.39299999997559
 20
3.670999999996297
 30
0.0
 11
23.56599999997638
 21
5.5200999999945
 31
0.0
1001
ACAD
1000
ASC_BOUNDS
1002
{
1070
    19
1005
19D87
1002
}
  0
LINE
  5
19D6A
330
19D42
100
AcDbEntity
  8
0
100
AcDbLine
 10
44.99999999995498
 20
-0.2368999999997641
 30
0.0
 11
40.02599999995994
 21
5.341799999994635
 31
0.0
1001
ACAD
1000
ASC_BOUNDS
1002
{
1070
    19
1005
19D89
1002
}
  0
LINE
  5
19D6B
330
19D42
100
AcDbEntity
  8
0
100
AcDbLine
 10
40.02599999995994
 20
5.341799999994635
 30
0.0
 11
40.02599999995994
 21
0.0
 31
0.0
1001
ACAD
1000
ASC_BOUNDS
1002
{
1070
    19
1005
19D89
1002
}
  0
LINE
  5
19D6C
330
19D42
100
AcDbEntity
  8
0
100
AcDbLine
 10
38.60499999996136
 20
8.999999999991019
 30
0.0
 11
38.60499999996136
 21
0.0
 31
0.0
1001
ACAD
1000
ASC_BOUNDS
1002
{
1070
    19
1005
19D89
1002
}
  0
LINE
  5
19D6D
330
19D42
100
AcDbEntity
  8
0
100
AcDbLine
 10
44.99999999995498
 20
8.763099999991255
 30
0.0
 11
44.99999999995498
 21
-0.2368999999997641
 31
0.0
1001
ACAD
1000
ASC_BOUNDS
1002
{
1070
    19
1005
19D89
1002
}
  0
LINE
  5
19D6E
330
19D42
100
AcDbEntity
  8
0
100
AcDbLine
 10
38.60499999996136
 20
0.0
 30
0.0
 11
40.02599999995994
 21
0.0
 31
0.0
1001
ACAD
1000
ASC_BOUNDS
1002
{
1070
    19
1005
19D89
1002
}
  0
LINE
  5
19D6F
330
19D42
100
AcDbEntity
  8
0
100
AcDbLine
 10
43.57899999995641
 20
3.421199999996588
 30
0.0
 11
38.60499999996136
 21
8.999899999990987
 31
0.0
1001
ACAD
1000
ASC_BOUNDS
1002
{
1070
    19
1005
19D89
1002
}
  0
LINE
  5
19D70
330
19D42
100
AcDbEntity
  8
0
100
AcDbLine
 10
43.57899999995641
 20
8.763099999991255
 30
0.0
 11
43.57899999995641
 21
3.421199999996588
 31
0.0
1001
ACAD
1000
ASC_BOUNDS
1002
{
1070
    19
1005
19D89
1002
}
  0
LINE
  5
19D71
330
19D42
100
AcDbEntity
  8
0
100
AcDbLine
 10
43.57899999995641
 20
8.763099999991255
 30
0.0
 11
44.99999999995498
 21
8.763099999991255
 31
0.0
1001
ACAD
1000
ASC_BOUNDS
1002
{
1070
    19
1005
19D89
1002
}
  0
LINE
  5
19D72
330
19D42
100
AcDbEntity
  8
0
100
AcDbLine
 10
37.67199999996831
 20
8.763099999991255
 30
0.0
 11
36.23199999996837
 21
8.763099999991255
 31
0.0
  0
LINE
  5
19D73
330
19D42
100
AcDbEntity
  8
0
100
AcDbLine
 10
31.64199999996833
 20
8.763099999991255
 30
0.0
 11
31.64199999996833
 21
2.481619422925121
 31
0.0
  0
LINE
  5
19D74
330
19D42
100
AcDbEntity
  8
0
100
AcDbLine
 10
37.67199999996831
 20
8.763099999991255
 30
0.0
 11
37.67199999996831
 21
2.481619422925121
 31
0.0
  0
LINE
  5
19D75
330
19D42
100
AcDbEntity
  8
0
100
AcDbLine
 10
36.23199999996837
 20
8.763099999991255
 30
0.0
 11
36.23199999996837
 21
2.481619422925064
 31
0.0
  0
LINE
  5
19D76
330
19D42
100
AcDbEntity
  8
0
100
AcDbLine
 10
33.08199999996839
 20
8.763099999991255
 30
0.0
 11
33.08199999996839
 21
2.481619422925121
 31
0.0
  0
ARC
  5
19D77
330
19D42
100
AcDbEntity
  8
0
100
AcDbCircle
 10
34.65699999996832
 20
3.183099999991214
 30
0.0
 40
3.420000000000007
100
AcDbArc
 50
240.0000000000255
 51
299.9999999999766
  0
ARC
  5
19D78
330
19D42
100
AcDbEntity
  8
0
100
AcDbCircle
 10
34.65699999996832
 20
3.183099999991214
 30
0.0
 40
1.97999999999999
100
AcDbArc
 50
240.000000000026
 51
299.9999999999703
  0
LINE
  5
19D79
330
19D42
100
AcDbEntity
  8
0
100
AcDbLine
 10
33.08199999996828
 20
8.763099999991255
 30
0.0
 11
31.64199999996833
 21
8.763099999991255
 31
0.0
  0
ARC
  5
19D7A
330
19D42
100
AcDbEntity
  8
0
100
AcDbCircle
 10
35.06199999996829
 20
2.481619422925064
 30
0.0
 40
1.17
100
AcDbArc
 50
299.9999999999699
 51
0.0
  0
ARC
  5
19D7B
330
19D42
100
AcDbEntity
  8
0
100
AcDbCircle
 10
34.25199999996835
 20
2.481619422925121
 30
0.0
 40
1.17
100
AcDbArc
 50
180.0
 51
240.0000000000238
  0
ARC
  5
19D7C
330
19D42
100
AcDbEntity
  8
0
100
AcDbCircle
 10
35.06199999996841
 20
2.481619422925121
 30
0.0
 40
2.61
100
AcDbArc
 50
299.9999999999756
 51
0.0
  0
ARC
  5
19D7D
330
19D42
100
AcDbEntity
  8
0
100
AcDbCircle
 10
34.25199999996835
 20
2.481619422925121
 30
0.0
 40
2.61
100
AcDbArc
 50
180.0
 51
240.0000000000244
  0
LINE
  5
19D7E
330
19D42
100
AcDbEntity
  8
0
100
AcDbLine
 10
29.30199999996933
 20
8.763099999991255
 30
0.0
 11
30.74199999996927
 21
8.763099999991255
 31
0.0
1001
ACAD
1000
ASC_BOUNDS
1002
{
1070
    19
1005
19D87
1002
}
  0
LINE
  5
19D7F
330
19D42
100
AcDbEntity
  8
0
100
AcDbLine
 10
30.74199999996927
 20
8.763099999991255
 30
0.0
 11
30.74199999996927
 21
2.373099999991211
 31
0.0
1001
ACAD
1000
ASC_BOUNDS
1002
{
1070
    19
1005
19D87
1002
}
  0
LINE
  5
19D80
330
19D42
100
AcDbEntity
  8
0
100
AcDbLine
 10
26.02015566812236
 20
0.0330999999912365
 30
0.0
 11
28.40199999996923
 21
0.0330999999912365
 31
0.0
1001
ACAD
1000
ASC_BOUNDS
1002
{
1070
    19
1005
19D87
1002
}
  0
LINE
  5
19D81
330
19D42
100
AcDbEntity
  8
0
100
AcDbLine
 10
29.30199999996933
 20
8.763099999991255
 30
0.0
 11
29.30199999996933
 21
2.283099999991236
 31
0.0
1001
ACAD
1000
ASC_BOUNDS
1002
{
1070
    19
1005
19D87
1002
}
  0
LINE
  5
19D82
330
19D42
100
AcDbEntity
  8
0
100
AcDbLine
 10
26.97358892824991
 20
1.383099999991202
 30
0.0
 11
28.40199999996923
 21
1.383099999991202
 31
0.0
1001
ACAD
1000
ASC_BOUNDS
1002
{
1070
    19
1005
19D87
1002
}
  0
ARC
  5
19D83
330
19D42
100
AcDbEntity
  8
0
100
AcDbCircle
 10
28.40199999996923
 20
2.283099999991236
 30
0.0
 40
0.9
100
AcDbArc
 50
270.0
 51
0.0
1001
ACAD
1000
ASC_BOUNDS
1002
{
1070
    19
1005
19D87
1002
}
  0
ARC
  5
19D84
330
19D42
100
AcDbEntity
  8
0
100
AcDbCircle
 10
28.40199999996923
 20
2.373099999991211
 30
0.0
 40
2.34
100
AcDbArc
 50
270.0
 51
0.0
1001
ACAD
1000
ASC_BOUNDS
1002
{
1070
    19
1005
19D87
1002
}
  0
INSERT
  5
19D85
330
19D42
100
AcDbEntity
  8
0
100
AcDbBlockReference
  2
*X42
 10
0.0
 20
0.0
 30
0.0
1001
ACAD
1000
HATCH
1002
{
1070
    19
1000
ANSI37
1040
0.15
1040
0.0
1000
ASC_BOUNDS
1070
     2
1070
     2
1070
    12
1005
19D44
1005
19D45
1005
19D4C
1005
19D5B
1005
19D5E
1005
19D5C
1005
19D4D
1005
19D52
1005
19D50
1005
19D54
1005
19D53
1005
19D55
1070
     2
1070
     3
1005
19D60
1005
19D62
1005
19D61
1000
ASC_SEEDPOINT
1011
3.614004224891801
1021
2.996669441146025
1031
0.0
1000
R14_HATCH_DATA
1000
19D85
1011
1.0
1021
0.0
1031
0.0
1011
0.0
1021
1.0
1031
0.0
1011
0.0
1021
0.0
1031
1.0
1040
0.0
1010
0.0
1020
0.0
1030
1.0
1000
ANSI37
1070
     0
1070
     1
1071
        2
1071
        7
1070
     0
1070
     1
1071
       17
1040
13.26299999998673
1040
-0.0001000000000317
1040
9.236999999990758
1040
8.999899999990987
1040
9.236999999990758
1040
8.999999999991019
1040
5.657999999994331
1040
0.9999999999989768
1040
3.181999999996833
1040
4.668599999995308
1040
6.432999999993513
1040
8.763099999991255
1040
4.617999999995391
1040
8.763099999991255
1040
1.420999999998571
1040
4.736799999995242
1040
4.617999999995391
1040
-0.0001000000000317
1040
4.617999999995391
1040
0.0
1040
6.766999999993232
1040
0.0
1040
6.766999999993232
1040
-0.0001000000000317
1040
7.826999999992154
1040
2.368399999997621
1040
10.64699999998936
1040
2.368399999997621
1040
11.70599999998831
1040
-0.0001000000000317
1040
11.70599999998831
1040
0.0
1040
13.26299999998673
1040
0.0
1071
       12
1005
19D44
1005
19D45
1005
19D4C
1005
19D5B
1005
19D5E
1005
19D5C
1005
19D4D
1005
19D52
1005
19D50
1005
19D54
1005
19D53
1005
19D55
1071
       22
1070
     0
1070
     1
1071
        3
1040
9.236999999990758
1040
5.5200999999945
1040
10.06399999998996
1040
3.670999999996297
1040
8.409999999991555
1040
3.670999999996297
1071
        3
1005
19D60
1005
19D62
1005
19D61
1070
     0
1070
     1
1040
0.0
1040
0.15
1070
     0
1070
     2
1040
0.7853981633974483
1040
49.29960901727088
1040
-10.17736998311392
1040
-0.3367596045400932
1040
0.3367596045400932
1070
     0
1040
2.356194490192345
1040
49.29960901727088
1040
-10.17736998311392
1040
-0.3367596045400932
1040
-0.3367596045400932
1070
     0
1040
0.0110235143455945
1071
        2
1040
3.614004224891801
1040
2.996669441146025
1040
0.0
1040
3.614004224891801
1040
2.996669441146025
1040
0.0
1002
}
  0
INSERT
  5
19D86
330
19D42
100
AcDbEntity
  8
0
100
AcDbBlockReference
  2
*X43
 10
0.0
 20
0.0
 30
0.0
1001
ACAD
1000
HATCH
1002
{
1070
    19
1000
ANSI37
1040
0.15
1040
0.0
1000
ASC_BOUNDS
1070
     1
1070
     2
1070
    10
1005
19D46
1005
19D47
1005
19D68
1005
19D66
1005
19D67
1005
19D5A
1005
19D5F
1005
19D63
1005
19D49
1005
19D48
1000
ASC_SEEDPOINT
1011
14.73245321214324
1021
2.798246178283421
1031
0.0
1000
R14_HATCH_DATA
1000
19D86
1011
1.0
1021
0.0
1031
0.0
1011
0.0
1021
1.0
1031
0.0
1011
0.0
1021
0.0
1031
1.0
1040
0.0
1010
0.0
1020
0.0
1030
1.0
1000
ANSI37
1070
     0
1070
     1
1071
        1
1071
        7
1070
     0
1070
     1
1071
       10
1040
16.46099999998353
1040
5.432899999994561
1040
18.59199999998134
1040
-0.2368999999997641
1040
22.38199999997767
1040
8.763099999991255
1040
20.89099999997916
1040
8.763099999991255
1040
18.59799999998143
1040
3.315799999996671
1040
16.46099999998353
1040
8.999899999990987
1040
14.32399999998563
1040
3.315799999996671
1040
12.02999999998792
1040
8.763099999991255
1040
10.53899999998941
1040
8.763099999991255
1040
14.32899999998563
1040
-0.2368999999997641
1071
       10
1005
19D46
1005
19D47
1005
19D68
1005
19D66
1005
19D67
1005
19D5A
1005
19D5F
1005
19D63
1005
19D49
1005
19D48
1070
     0
1070
     1
1040
0.0
1040
0.15
1070
     0
1070
     2
1040
0.7853981633974483
1040
49.29960901727088
1040
-10.17736998311392
1040
-0.3367596045400932
1040
0.3367596045400932
1070
     0
1040
2.356194490192345
1040
49.29960901727088
1040
-10.17736998311392
1040
-0.3367596045400932
1040
-0.3367596045400932
1070
     0
1040
0.0110235143455945
1071
        1
1040
14.73245321214324
1040
2.798246178283421
1040
0.0
1002
}
  0
INSERT
  5
19D87
330
19D42
100
AcDbEntity
  8
0
100
AcDbBlockReference
  2
*X44
 10
0.0
 20
0.0
 30
0.0
1001
ACAD
1000
HATCH
1002
{
1070
    19
1000
ANSI37
1040
0.15
1040
0.0
1000
ASC_BOUNDS
1070
     2
1070
     2
1070
    13
1005
19D4A
1005
19D57
1005
19D58
1005
19D56
1005
19D59
1005
19D80
1005
19D84
1005
19D7F
1005
19D7E
1005
19D81
1005
19D83
1005
19D82
1005
19D4B
1070
     2
1070
     3
1005
19D64
1005
19D69
1005
19D65
1000
ASC_SEEDPOINT
1011
21.97929957367762
1021
3.294304244259308
1031
0.0
1000
R14_HATCH_DATA
1000
19D87
1011
1.0
1021
0.0
1031
0.0
1011
0.0
1021
1.0
1031
0.0
1011
0.0
1021
0.0
1031
1.0
1040
0.0
1010
0.0
1020
0.0
1030
1.0
1000
ANSI37
1070
     0
1070
     1
1071
        2
1071
        7
1070
     1
1070
     1
1071
       15
1040
23.56599999997638
1040
8.999899999990987
1040
0.0
1040
19.53899999998043
1040
-0.0001000000000317
1040
0.0
1040
19.53899999998043
1040
0.0
1040
0.0
1040
21.09599999997886
1040
0.0
1040
0.0
1040
21.09599999997886
1040
-0.0001000000000317
1040
0.0
1040
22.15599999997789
1040
2.368399999997621
1040
0.0
1040
24.97599999997499
1040
2.368399999997621
1040
0.0
1040
26.02015566812236
1040
0.0330999999912365
1040
0.0
1040
28.40199999996923
1040
0.0330999999912365
1040
0.414213562373095
1040
30.74199999996923
1040
2.373099999991211
1040
0.0
1040
30.74199999996927
1040
8.763099999991255
1040
0.0
1040
29.30199999996933
1040
8.763099999991255
1040
0.0
1040
29.30199999996933
1040
2.283099999991236
1040
-0.414213562373095
1040
28.40199999996923
1040
1.383099999991237
1040
0.0
1040
26.97358892824991
1040
1.383099999991202
1040
0.0
1071
       13
1005
19D4A
1005
19D57
1005
19D58
1005
19D56
1005
19D59
1005
19D80
1005
19D84
1005
19D7F
1005
19D7E
1005
19D81
1005
19D83
1005
19D82
1005
19D4B
1071
       22
1070
     0
1070
     1
1071
        3
1040
22.7389999999773
1040
3.670999999996297
1040
23.56599999997638
1040
5.5200999999945
1040
24.39299999997559
1040
3.670999999996297
1071
        3
1005
19D64
1005
19D69
1005
19D65
1070
     0
1070
     1
1040
0.0
1040
0.15
1070
     0
1070
     2
1040
0.7853981633974483
1040
49.29960901727088
1040
-10.17736998311392
1040
-0.3367596045400932
1040
0.3367596045400932
1070
     0
1040
2.356194490192345
1040
49.29960901727088
1040
-10.17736998311392
1040
-0.3367596045400932
1040
-0.3367596045400932
1070
     0
1040
0.0110235143455945
1071
        2
1040
21.97929957367762
1040
3.294304244259308
1040
0.0
1040
21.97929957367762
1040
3.294304244259308
1040
0.0
1002
}
  0
INSERT
  5
19D88
330
19D42
100
AcDbEntity
  8
0
100
AcDbBlockReference
  2
*X45
 10
0.0
 20
0.0
 30
0.0
1001
ACAD
1000
HATCH
1002
{
1070
    19
1000
ANSI37
1040
0.15
1040
0.0
1000
R14_HATCH_DATA
1000
19D88
1011
1.0
1021
0.0
1031
0.0
1011
0.0
1021
1.0
1031
0.0
1011
0.0
1021
0.0
1031
1.0
1040
0.0
1010
0.0
1020
0.0
1030
1.0
1000
ANSI37
1070
     0
1070
     1
1071
        1
1071
        7
1070
     1
1070
     1
1071
       12
1040
31.64199999996833
1040
2.481619422925121
1040
0.2679491924310942
1040
32.94699999997067
1040
0.2212931190493919
1040
0.2679491924301353
1040
36.36699999995983
1040
0.2212931190459813
1040
0.2679491924321411
1040
37.67199999996831
1040
2.481619422928361
1040
0.0
1040
37.67199999996831
1040
8.763099999991255
1040
0.0
1040
36.23199999996837
1040
8.763099999991255
1040
0.0
1040
36.23199999996837
1040
2.481619422925064
1040
-0.2679491924310291
1040
35.64699999996708
1040
1.468369700498386
1040
-0.267949192430519
1040
33.66699999997093
1040
1.468369700497703
1040
-0.267949192431809
1040
33.08199999996839
1040
2.481619422926997
1040
0.0
1040
33.08199999996839
1040
8.763099999991255
1040
0.0
1040
31.64199999996833
1040
8.763099999991255
1040
0.0
1071
        0
1070
     0
1070
     1
1040
0.0
1040
0.15
1070
     0
1070
     2
1040
0.7853981633974483
1040
49.29960901727088
1040
-10.17736998311392
1040
-0.3367596045400932
1040
0.3367596045400932
1070
     0
1040
2.356194490192345
1040
49.29960901727088
1040
-10.17736998311392
1040
-0.3367596045400932
1040
-0.3367596045400932
1070
     0
1040
0.0110235143455945
1071
        1
1040
32.30357378967278
1040
3.988785755459219
1040
0.0
1002
}
  0
INSERT
  5
19D89
330
19D42
100
AcDbEntity
  8
0
100
AcDbBlockReference
  2
*X46
 10
0.0
 20
0.0
 30
0.0
1001
ACAD
1000
HATCH
1002
{
1070
    19
1000
ANSI37
1040
0.15
1040
0.0
1000
ASC_BOUNDS
1070
     1
1070
     2
1070
     8
1005
19D6A
1005
19D6D
1005
19D71
1005
19D70
1005
19D6F
1005
19D6C
1005
19D6E
1005
19D6B
1000
ASC_SEEDPOINT
1011
39.74896370716704
1021
4.484843821435049
1031
0.0
1000
R14_HATCH_DATA
1000
19D89
1011
1.0
1021
0.0
1031
0.0
1011
0.0
1021
1.0
1031
0.0
1011
0.0
1021
0.0
1031
1.0
1040
0.0
1010
0.0
1020
0.0
1030
1.0
1000
ANSI37
1070
     0
1070
     1
1071
        1
1071
        7
1070
     0
1070
     1
1071
        9
1040
40.02599999995994
1040
5.341799999994635
1040
44.99999999995498
1040
-0.2368999999997641
1040
44.99999999995498
1040
8.763099999991255
1040
43.57899999995641
1040
8.763099999991255
1040
43.57899999995641
1040
3.421199999996588
1040
38.60499999996136
1040
8.999899999990987
1040
38.60499999996136
1040
8.999999999991019
1040
38.60499999996136
1040
0.0
1040
40.02599999995994
1040
0.0
1071
        8
1005
19D6A
1005
19D6D
1005
19D71
1005
19D70
1005
19D6F
1005
19D6C
1005
19D6E
1005
19D6B
1070
     0
1070
     1
1040
0.0
1040
0.15
1070
     0
1070
     2
1040
0.7853981633974483
1040
49.29960901727088
1040
-10.17736998311392
1040
-0.3367596045400932
1040
0.3367596045400932
1070
     0
1040
2.356194490192345
1040
49.29960901727088
1040
-10.17736998311392
1040
-0.3367596045400932
1040
-0.3367596045400932
1070
     0
1040
0.0110235143455945
1071
        1
1040
39.74896370716704
1040
4.484843821435049
1040
0.0
1002
}
  0
INSERT
  5
19D8A
330
19D42
100
AcDbEntity
  8
0
100
AcDbBlockReference
  2
*X47
 10
0.0
 20
0.0
 30
0.0
1001
ACAD
1000
HATCH
1002
{
1070
    19
1000
ANSI37
1040
0.15
1040
0.0
1000
ASC_BOUNDS
1070
     1
1070
     2
1070
     4
1005
19D4E
1005
19D5D
1005
19D4F
1005
19D51
1000
ASC_SEEDPOINT
1011
1.079051535452663
1021
4.148538732891836
1031
0.0
1000
R14_HATCH_DATA
1000
19D8A
1011
1.0
1021
0.0
1031
0.0
1011
0.0
1021
1.0
1031
0.0
1011
0.0
1021
0.0
1031
1.0
1040
0.0
1010
0.0
1020
0.0
1030
1.0
1000
ANSI37
1070
     0
1070
     1
1071
        1
1071
        7
1070
     0
1070
     1
1071
        4
1040
1.420999999998571
1040
0.0
1040
1.420999999998571
1040
8.763099999991255
1040
0.0
1040
8.763099999991255
1040
0.0
1040
0.0
1071
        4
1005
19D4E
1005
19D5D
1005
19D4F
1005
19D51
1070
     0
1070
     1
1040
0.0
1040
0.15
1070
     0
1070
     2
1040
0.7853981633974483
1040
49.29960901727088
1040
-10.17736998311392
1040
-0.3367596045400932
1040
0.3367596045400932
1070
     0
1040
2.356194490192345
1040
49.29960901727088
1040
-10.17736998311392
1040
-0.3367596045400932
1040
-0.3367596045400932
1070
     0
1040
0.0053004257112761
1071
        1
1040
1.079051535452663
1040
4.148538732891836
1040
0.0
1002
}
  0
ENDBLK
  5
1A551
330
19D42
100
AcDbEntity
  8
0
100
AcDbBlockEnd
  0
BLOCK
  5
1B0C6
330
1AF38
100
AcDbEntity
  8
0
100
AcDbBlockBegin
  2
*X42
 70
     1
 10
0.0
 20
0.0
 30
0.0
  3
*X42
  1

  0
LINE
  5
1AF39
330
1AF38
100
AcDbEntity
  8
0
  6
CONTINUOUS
100
AcDbLine
 10
3.418023043697893
 20
7.251849696850613
 30
0.0
 11
4.929273346838536
 21
8.763099999991255
 31
0.0
  0
LINE
  5
1AF3A
330
1AF38
100
AcDbEntity
  8
0
  6
CONTINUOUS
100
AcDbLine
 10
1.483656411257782
 20
4.643963855330318
 30
0.0
 11
5.60279255591872
 21
8.763099999991255
 31
0.0
  0
LINE
  5
1AF3B
330
1AF38
100
AcDbEntity
  8
0
  6
CONTINUOUS
100
AcDbLine
 10
1.755053947328235
 20
4.241842182320584
 30
0.0
 11
6.276311764998907
 21
8.763099999991255
 31
0.0
  0
LINE
  5
1AF3C
330
1AF38
100
AcDbEntity
  8
0
  6
CONTINUOUS
100
AcDbLine
 10
2.026451483398688
 20
3.839720509310849
 30
0.0
 11
4.441040904851878
 21
6.254309930764039
 31
0.0
  0
LINE
  5
1AF3D
330
1AF38
100
AcDbEntity
  8
0
  6
CONTINUOUS
100
AcDbLine
 10
2.297849019469139
 20
3.437598836301114
 30
0.0
 11
3.321765168359338
 21
4.461514985191313
 31
0.0
  0
LINE
  5
1AF3E
330
1AF38
100
AcDbEntity
  8
0
  6
CONTINUOUS
100
AcDbLine
 10
2.569246555539591
 20
3.03547716329138
 30
0.0
 11
3.593163397972743
 21
4.059394005724531
 31
0.0
  0
LINE
  5
1AF3F
330
1AF38
100
AcDbEntity
  8
0
  6
CONTINUOUS
100
AcDbLine
 10
2.840644091610043
 20
2.633355490281646
 30
0.0
 11
3.864561627586149
 21
3.657273026257751
 31
0.0
  0
LINE
  5
1AF40
330
1AF38
100
AcDbEntity
  8
0
  6
CONTINUOUS
100
AcDbLine
 10
3.112041627680496
 20
2.231233817271911
 30
0.0
 11
4.135959857199554
 21
3.25515204679097
 31
0.0
  0
LINE
  5
1AF41
330
1AF38
100
AcDbEntity
  8
0
  6
CONTINUOUS
100
AcDbLine
 10
3.383439163750948
 20
1.829112144262177
 30
0.0
 11
4.40735808681296
 21
2.853031067324189
 31
0.0
  0
LINE
  5
1AF42
330
1AF38
100
AcDbEntity
  8
0
  6
CONTINUOUS
100
AcDbLine
 10
3.654836699821399
 20
1.426990471252442
 30
0.0
 11
4.678756316426365
 21
2.450910087857407
 31
0.0
  0
LINE
  5
1AF43
330
1AF38
100
AcDbEntity
  8
0
  6
CONTINUOUS
100
AcDbLine
 10
3.926234235891853
 20
1.024868798242709
 30
0.0
 11
4.95015454603977
 21
2.048789108390626
 31
0.0
  0
LINE
  5
1AF44
330
1AF38
100
AcDbEntity
  8
0
  6
CONTINUOUS
100
AcDbLine
 10
4.197631771962304
 20
0.6227471252329737
 30
0.0
 11
5.221552775653176
 21
1.646668128923846
 31
0.0
  0
LINE
  5
1AF45
330
1AF38
100
AcDbEntity
  8
0
  6
CONTINUOUS
100
AcDbLine
 10
8.715877546767851
 20
7.835069736359266
 30
0.0
 11
9.435953450375058
 21
8.555145639966472
 31
0.0
  0
LINE
  5
1AF46
330
1AF38
100
AcDbEntity
  8
0
  6
CONTINUOUS
100
AcDbLine
 10
8.170620868422267
 20
6.616293848933497
 30
0.0
 11
9.644120833743461
 21
8.08979381425469
 31
0.0
  0
LINE
  5
1AF47
330
1AF38
100
AcDbEntity
  8
0
  6
CONTINUOUS
100
AcDbLine
 10
7.625364190076684
 20
5.397517961507727
 30
0.0
 11
9.852288217111864
 21
7.624441988542907
 31
0.0
  0
LINE
  5
1AF48
330
1AF38
100
AcDbEntity
  8
0
  6
CONTINUOUS
100
AcDbLine
 10
7.080107511731101
 20
4.178742074081957
 30
0.0
 11
10.06045560048027
 21
7.159090162831124
 31
0.0
  0
LINE
  5
1AF49
330
1AF38
100
AcDbEntity
  8
0
  6
CONTINUOUS
100
AcDbLine
 10
6.534850833385518
 20
2.959966186656187
 30
0.0
 11
10.26862298384867
 21
6.693738337119342
 31
0.0
  0
LINE
  5
1AF4A
330
1AF38
100
AcDbEntity
  8
0
  6
CONTINUOUS
100
AcDbLine
 10
4.469029308032756
 20
0.2206254522232385
 30
0.0
 11
5.492951005266582
 21
1.244547149457064
 31
0.0
  0
LINE
  5
1AF4B
330
1AF38
100
AcDbEntity
  8
0
  6
CONTINUOUS
100
AcDbLine
 10
5.989594155039935
 20
1.741190299230417
 30
0.0
 11
8.806950407233131
 21
4.558546551423613
 31
0.0
  0
LINE
  5
1AF4C
330
1AF38
100
AcDbEntity
  8
0
  6
CONTINUOUS
100
AcDbLine
 10
9.401251593263643
 20
5.152847737454126
 30
0.0
 11
10.47679036721708
 21
6.228386511407559
 31
0.0
  0
LINE
  5
1AF4D
330
1AF38
100
AcDbEntity
  8
0
  6
CONTINUOUS
100
AcDbLine
 10
4.921837203428691
 20
-0.0000858614610131
 30
0.0
 11
8.592923064886001
 21
3.670999999996297
 31
0.0
  0
LINE
  5
1AF4E
330
1AF38
100
AcDbEntity
  8
0
  6
CONTINUOUS
100
AcDbLine
 10
9.609390446785305
 20
4.6874673818956
 30
0.0
 11
10.68495775058548
 21
5.763034685695775
 31
0.0
  0
LINE
  5
1AF4F
330
1AF38
100
AcDbEntity
  8
0
  6
CONTINUOUS
100
AcDbLine
 10
5.595387755019432
 20
-0.0000545189504582
 30
0.0
 11
7.716137258923768
 21
2.120694984953879
 31
0.0
  0
LINE
  5
1AF50
330
1AF38
100
AcDbEntity
  8
0
  6
CONTINUOUS
100
AcDbLine
 10
6.268938306610172
 20
-0.000023176439905
 30
0.0
 11
7.170485805526503
 21
0.9015243224764267
 31
0.0
  0
LINE
  5
1AF51
330
1AF38
100
AcDbEntity
  8
0
  6
CONTINUOUS
100
AcDbLine
 10
7.963842273967511
 20
2.368399999997621
 30
0.0
 11
9.266442273966188
 21
3.670999999996297
 31
0.0
  0
LINE
  5
1AF52
330
1AF38
100
AcDbEntity
  8
0
  6
CONTINUOUS
100
AcDbLine
 10
8.637361483047696
 20
2.368399999997621
 30
0.0
 11
9.939961483046375
 21
3.670999999996297
 31
0.0
  0
LINE
  5
1AF53
330
1AF38
100
AcDbEntity
  8
0
  6
CONTINUOUS
100
AcDbLine
 10
9.817529300306965
 20
4.222087026337075
 30
0.0
 11
10.89312513395388
 21
5.297682859983993
 31
0.0
  0
LINE
  5
1AF54
330
1AF38
100
AcDbEntity
  8
0
  6
CONTINUOUS
100
AcDbLine
 10
10.02566815382863
 20
3.756706670778549
 30
0.0
 11
11.10129251732229
 21
4.832331034272211
 31
0.0
  0
LINE
  5
1AF55
330
1AF38
100
AcDbEntity
  8
0
  6
CONTINUOUS
100
AcDbLine
 10
9.310880692127883
 20
2.368399999997621
 30
0.0
 11
11.30945990069069
 21
4.366979208560428
 31
0.0
  0
LINE
  5
1AF56
330
1AF38
100
AcDbEntity
  8
0
  6
CONTINUOUS
100
AcDbLine
 10
9.98439990120807
 20
2.36839999999762
 30
0.0
 11
11.5176272840591
 21
3.901627382848645
 31
0.0
  0
LINE
  5
1AF57
330
1AF38
100
AcDbEntity
  8
0
  6
CONTINUOUS
100
AcDbLine
 10
10.65037369446246
 20
2.36085458417182
 30
0.0
 11
11.7257946674275
 21
3.436275557136862
 31
0.0
  0
LINE
  5
1AF58
330
1AF38
100
AcDbEntity
  8
0
  6
CONTINUOUS
100
AcDbLine
 10
10.85847197087848
 20
1.895433651507656
 30
0.0
 11
11.9339620507959
 21
2.97092373142508
 31
0.0
  0
LINE
  5
1AF59
330
1AF38
100
AcDbEntity
  8
0
  6
CONTINUOUS
100
AcDbLine
 10
11.0665702472945
 20
1.430012718843491
 30
0.0
 11
12.14212943416431
 21
2.505571905713296
 31
0.0
  0
LINE
  5
1AF5A
330
1AF38
100
AcDbEntity
  8
0
  6
CONTINUOUS
100
AcDbLine
 10
11.27466852371052
 20
0.9645917861793256
 30
0.0
 11
12.35029681753271
 21
2.040220080001513
 31
0.0
  0
LINE
  5
1AF5B
330
1AF38
100
AcDbEntity
  8
0
  6
CONTINUOUS
100
AcDbLine
 10
11.48276680012654
 20
0.4991708535151611
 30
0.0
 11
12.55846420090111
 21
1.57486825428973
 31
0.0
  0
LINE
  5
1AF5C
330
1AF38
100
AcDbEntity
  8
0
  6
CONTINUOUS
100
AcDbLine
 10
11.69086507654257
 20
0.0337499208509957
 30
0.0
 11
12.76663158426952
 21
1.109516428577947
 31
0.0
  0
LINE
  5
1AF5D
330
1AF38
100
AcDbEntity
  8
0
  6
CONTINUOUS
100
AcDbLine
 10
12.33057447873954
 20
-0.0000598860322123
 30
0.0
 11
12.97479896763792
 21
0.6441646028661663
 31
0.0
  0
LINE
  5
1AF5E
330
1AF38
100
AcDbEntity
  8
0
  6
CONTINUOUS
100
AcDbLine
 10
13.00413694809395
 20
-0.0000166257579952
 30
0.0
 11
13.18296635100632
 21
0.1788127771543824
 31
0.0
  0
LINE
  5
1AF5F
330
1AF38
100
AcDbEntity
  8
0
  6
CONTINUOUS
100
AcDbLine
 10
4.772852165289667
 20
-0.000092794222212
 30
0.0
 11
4.296495091028902
 21
0.4762642800385528
 31
0.0
  0
LINE
  5
1AF60
330
1AF38
100
AcDbEntity
  8
0
  6
CONTINUOUS
100
AcDbLine
 10
5.446340034776103
 20
-0.0000614546284616
 30
0.0
 11
2.898195908335625
 21
2.548082671812017
 31
0.0
  0
LINE
  5
1AF61
330
1AF38
100
AcDbEntity
  8
0
  6
CONTINUOUS
100
AcDbLine
 10
6.119827904262539
 20
-0.0000301150347113
 30
0.0
 11
1.499896725642348
 21
4.61990106358548
 31
0.0
  0
LINE
  5
1AF62
330
1AF38
100
AcDbEntity
  8
0
  6
CONTINUOUS
100
AcDbLine
 10
6.775136745476159
 20
0.0181802528318542
 30
0.0
 11
5.699826040202669
 21
1.093490958105344
 31
0.0
  0
LINE
  5
1AF63
330
1AF38
100
AcDbEntity
  8
0
  6
CONTINUOUS
100
AcDbLine
 10
6.983376846288489
 20
0.4834593610997118
 30
0.0
 11
5.908008617934405
 21
1.558827589453796
 31
0.0
  0
LINE
  5
1AF64
330
1AF38
100
AcDbEntity
  8
0
  6
CONTINUOUS
100
AcDbLine
 10
5.377063484962296
 20
1.416253513345719
 30
0.0
 11
1.702276957014131
 21
5.091040041293883
 31
0.0
  0
LINE
  5
1AF65
330
1AF38
100
AcDbEntity
  8
0
  6
CONTINUOUS
100
AcDbLine
 10
3.978745891735324
 20
3.488090315652877
 30
0.0
 11
2.000373521109399
 21
5.466462686278803
 31
0.0
  0
LINE
  5
1AF66
330
1AF38
100
AcDbEntity
  8
0
  6
CONTINUOUS
100
AcDbLine
 10
7.191616947100819
 20
0.948738469367568
 30
0.0
 11
6.11619119566614
 21
2.024164220802247
 31
0.0
  0
LINE
  5
1AF67
330
1AF38
100
AcDbEntity
  8
0
  6
CONTINUOUS
100
AcDbLine
 10
7.399857047913149
 20
1.414017577635424
 30
0.0
 11
6.324373773397875
 21
2.489500852150698
 31
0.0
  0
LINE
  5
1AF68
330
1AF38
100
AcDbEntity
  8
0
  6
CONTINUOUS
100
AcDbLine
 10
7.608097148725479
 20
1.879296685903281
 30
0.0
 11
6.53255635112961
 21
2.95483748349915
 31
0.0
  0
LINE
  5
1AF69
330
1AF38
100
AcDbEntity
  8
0
  6
CONTINUOUS
100
AcDbLine
 10
7.816337249537808
 20
2.344575794171138
 30
0.0
 11
6.740738928861345
 21
3.420174114847601
 31
0.0
  0
LINE
  5
1AF6A
330
1AF38
100
AcDbEntity
  8
0
  6
CONTINUOUS
100
AcDbLine
 10
3.310241080789734
 20
4.830114335678653
 30
0.0
 11
2.298470085204666
 21
5.84188533126372
 31
0.0
  0
LINE
  5
1AF6B
330
1AF38
100
AcDbEntity
  8
0
  6
CONTINUOUS
100
AcDbLine
 10
3.60832983563551
 20
5.205544789913063
 30
0.0
 11
2.596566649299935
 21
6.217307976248638
 31
0.0
  0
LINE
  5
1AF6C
330
1AF38
100
AcDbEntity
  8
0
  6
CONTINUOUS
100
AcDbLine
 10
3.906418590481286
 20
5.580975244147473
 30
0.0
 11
2.894663213395203
 21
6.592730621233557
 31
0.0
  0
LINE
  5
1AF6D
330
1AF38
100
AcDbEntity
  8
0
  6
CONTINUOUS
100
AcDbLine
 10
4.204507345327062
 20
5.956405698381884
 30
0.0
 11
3.192759777490472
 21
6.968153266218474
 31
0.0
  0
LINE
  5
1AF6E
330
1AF38
100
AcDbEntity
  8
0
  6
CONTINUOUS
100
AcDbLine
 10
8.466032252791512
 20
2.368399999997621
 30
0.0
 11
6.948921506593081
 21
3.885510746196053
 31
0.0
  0
LINE
  5
1AF6F
330
1AF38
100
AcDbEntity
  8
0
  6
CONTINUOUS
100
AcDbLine
 10
9.139551461871699
 20
2.36839999999762
 30
0.0
 11
7.157104084324816
 21
4.350847377544504
 31
0.0
  0
LINE
  5
1AF70
330
1AF38
100
AcDbEntity
  8
0
  6
CONTINUOUS
100
AcDbLine
 10
4.502596100172839
 20
6.331836152616295
 30
0.0
 11
3.49085634158574
 21
7.343575911203393
 31
0.0
  0
LINE
  5
1AF71
330
1AF38
100
AcDbEntity
  8
0
  6
CONTINUOUS
100
AcDbLine
 10
4.800684855018615
 20
6.707266606850705
 30
0.0
 11
3.788952905681008
 21
7.718998556188312
 31
0.0
  0
LINE
  5
1AF72
330
1AF38
100
AcDbEntity
  8
0
  6
CONTINUOUS
100
AcDbLine
 10
12.18154012887317
 20
-0.0000694579236642
 30
0.0
 11
11.32140332908496
 21
0.8600673418645499
 31
0.0
  0
LINE
  5
1AF73
330
1AF38
100
AcDbEntity
  8
0
  6
CONTINUOUS
100
AcDbLine
 10
12.85501608323566
 20
-0.0000262032059659
 30
0.0
 11
10.77672456435345
 21
2.078265315676246
 31
0.0
  0
LINE
  5
1AF74
330
1AF38
100
AcDbEntity
  8
0
  6
CONTINUOUS
100
AcDbLine
 10
9.813070670951886
 20
2.36839999999762
 30
0.0
 11
8.51047067095321
 21
3.670999999996297
 31
0.0
  0
LINE
  5
1AF75
330
1AF38
100
AcDbEntity
  8
0
  6
CONTINUOUS
100
AcDbLine
 10
10.48658988003207
 20
2.36839999999762
 30
0.0
 11
9.183989880033396
 21
3.670999999996297
 31
0.0
  0
LINE
  5
1AF76
330
1AF38
100
AcDbEntity
  8
0
  6
CONTINUOUS
100
AcDbLine
 10
8.441048632286794
 20
3.740422038662712
 30
0.0
 11
7.365286662056551
 21
4.816184008892956
 31
0.0
  0
LINE
  5
1AF77
330
1AF38
100
AcDbEntity
  8
0
  6
CONTINUOUS
100
AcDbLine
 10
8.649187485808454
 20
4.205802394221237
 30
0.0
 11
7.573469239788285
 21
5.281520640241407
 31
0.0
  0
LINE
  5
1AF78
330
1AF38
100
AcDbEntity
  8
0
  6
CONTINUOUS
100
AcDbLine
 10
5.098773609864391
 20
7.082697061085115
 30
0.0
 11
4.087049469776277
 21
8.09442120117323
 31
0.0
  0
LINE
  5
1AF79
330
1AF38
100
AcDbEntity
  8
0
  6
CONTINUOUS
100
AcDbLine
 10
5.396862364710167
 20
7.458127515319526
 30
0.0
 11
4.385146033871544
 21
8.469843846158149
 31
0.0
  0
LINE
  5
1AF7A
330
1AF38
100
AcDbEntity
  8
0
  6
CONTINUOUS
100
AcDbLine
 10
13.04801363231285
 20
0.4804954567970334
 30
0.0
 11
9.85750908911358
 21
3.670999999996297
 31
0.0
  0
LINE
  5
1AF7B
330
1AF38
100
AcDbEntity
  8
0
  6
CONTINUOUS
100
AcDbLine
 10
8.857326339330116
 20
4.671182749779763
 30
0.0
 11
7.781651817520021
 21
5.746857271589858
 31
0.0
  0
LINE
  5
1AF7C
330
1AF38
100
AcDbEntity
  8
0
  6
CONTINUOUS
100
AcDbLine
 10
5.694951119555943
 20
7.833557969553937
 30
0.0
 11
4.765409089118624
 21
8.763099999991255
 31
0.0
  0
LINE
  5
1AF7D
330
1AF38
100
AcDbEntity
  8
0
  6
CONTINUOUS
100
AcDbLine
 10
12.50286117236978
 20
1.699167125820288
 30
0.0
 11
9.68611877250287
 21
4.515909525687196
 31
0.0
  0
LINE
  5
1AF7E
330
1AF38
100
AcDbEntity
  8
0
  6
CONTINUOUS
100
AcDbLine
 10
9.065465192851777
 20
5.136563105338288
 30
0.0
 11
7.989834395251757
 21
6.21219390293831
 31
0.0
  0
LINE
  5
1AF7F
330
1AF38
100
AcDbEntity
  8
0
  6
CONTINUOUS
100
AcDbLine
 10
5.993039874401719
 20
8.208988423788346
 30
0.0
 11
5.43892829819881
 21
8.763099999991255
 31
0.0
  0
LINE
  5
1AF80
330
1AF38
100
AcDbEntity
  8
0
  6
CONTINUOUS
100
AcDbLine
 10
11.95770871242671
 20
2.917838794843543
 30
0.0
 11
8.19801697298349
 21
6.677530534286761
 31
0.0
  0
LINE
  5
1AF81
330
1AF38
100
AcDbEntity
  8
0
  6
CONTINUOUS
100
AcDbLine
 10
6.291128629247495
 20
8.584418878022756
 30
0.0
 11
6.112447507278997
 21
8.763099999991255
 31
0.0
  0
LINE
  5
1AF82
330
1AF38
100
AcDbEntity
  8
0
  6
CONTINUOUS
100
AcDbLine
 10
11.41255625248364
 20
4.136510463866797
 30
0.0
 11
8.406199550715227
 21
7.142867165635211
 31
0.0
  0
LINE
  5
1AF83
330
1AF38
100
AcDbEntity
  8
0
  6
CONTINUOUS
100
AcDbLine
 10
10.86740379254057
 20
5.355182132890051
 30
0.0
 11
8.614382128446962
 21
7.608203796983664
 31
0.0
  0
LINE
  5
1AF84
330
1AF38
100
AcDbEntity
  8
0
  6
CONTINUOUS
100
AcDbLine
 10
10.3222513325975
 20
6.573853801913305
 30
0.0
 11
8.822564706178696
 21
8.073540428332114
 31
0.0
  0
LINE
  5
1AF85
330
1AF38
100
AcDbEntity
  8
0
  6
CONTINUOUS
100
AcDbLine
 10
9.777098872654436
 20
7.792525470936562
 30
0.0
 11
9.030747283910433
 21
8.538877059680566
 31
0.0
  0
ENDBLK
  5
1B0C7
330
1AF38
100
AcDbEntity
  8
0
100
AcDbBlockEnd
  0
BLOCK
  5
1B0C8
330
1AF86
100
AcDbEntity
  8
0
100
AcDbBlockBegin
  2
*X43
 70
     1
 10
0.0
 20
0.0
 30
0.0
  3
*X43
  1

  0
LINE
  5
1AF87
330
1AF86
100
AcDbEntity
  8
0
  6
CONTINUOUS
100
AcDbLine
 10
10.67292308101235
 20
8.445076852443387
 30
0.0
 11
10.99094622856022
 21
8.763099999991255
 31
0.0
  0
LINE
  5
1AF88
330
1AF86
100
AcDbEntity
  8
0
  6
CONTINUOUS
100
AcDbLine
 10
10.87250383178748
 20
7.971138394138331
 30
0.0
 11
11.6644654376404
 21
8.763099999991255
 31
0.0
  0
LINE
  5
1AF89
330
1AF86
100
AcDbEntity
  8
0
  6
CONTINUOUS
100
AcDbLine
 10
11.07208458256261
 20
7.497199935833273
 30
0.0
 11
12.12126590876355
 21
8.546381262034211
 31
0.0
  0
LINE
  5
1AF8A
330
1AF86
100
AcDbEntity
  8
0
  6
CONTINUOUS
100
AcDbLine
 10
11.27166533333774
 20
7.023261477528216
 30
0.0
 11
12.32085164573666
 21
8.072447789927136
 31
0.0
  0
LINE
  5
1AF8B
330
1AF86
100
AcDbEntity
  8
0
  6
CONTINUOUS
100
AcDbLine
 10
11.47124608411287
 20
6.549323019223158
 30
0.0
 11
12.52043738270977
 21
7.59851431782006
 31
0.0
  0
LINE
  5
1AF8C
330
1AF86
100
AcDbEntity
  8
0
  6
CONTINUOUS
100
AcDbLine
 10
11.670826834888
 20
6.075384560918101
 30
0.0
 11
12.72002311968288
 21
7.124580845712984
 31
0.0
  0
LINE
  5
1AF8D
330
1AF86
100
AcDbEntity
  8
0
  6
CONTINUOUS
100
AcDbLine
 10
11.87040758566313
 20
5.601446102613043
 30
0.0
 11
12.91960885665599
 21
6.650647373605907
 31
0.0
  0
LINE
  5
1AF8E
330
1AF86
100
AcDbEntity
  8
0
  6
CONTINUOUS
100
AcDbLine
 10
12.06998833643825
 20
5.127507644307986
 30
0.0
 11
13.1191945936291
 21
6.176713901498832
 31
0.0
  0
LINE
  5
1AF8F
330
1AF86
100
AcDbEntity
  8
0
  6
CONTINUOUS
100
AcDbLine
 10
12.26956908721338
 20
4.65356918600293
 30
0.0
 11
13.31878033060221
 21
5.702780429391757
 31
0.0
  0
LINE
  5
1AF90
330
1AF86
100
AcDbEntity
  8
0
  6
CONTINUOUS
100
AcDbLine
 10
12.46914983798851
 20
4.179630727697873
 30
0.0
 11
13.51836606757532
 21
5.228846957284683
 31
0.0
  0
LINE
  5
1AF91
330
1AF86
100
AcDbEntity
  8
0
  6
CONTINUOUS
100
AcDbLine
 10
12.66873058876364
 20
3.705692269392816
 30
0.0
 11
13.71795180454843
 21
4.754913485177607
 31
0.0
  0
LINE
  5
1AF92
330
1AF86
100
AcDbEntity
  8
0
  6
CONTINUOUS
100
AcDbLine
 10
12.86831133953877
 20
3.231753811087759
 30
0.0
 11
13.91753754152154
 21
4.280980013070531
 31
0.0
  0
LINE
  5
1AF93
330
1AF86
100
AcDbEntity
  8
0
  6
CONTINUOUS
100
AcDbLine
 10
13.0678920903139
 20
2.757815352782702
 30
0.0
 11
14.11712327849465
 21
3.807046540963456
 31
0.0
  0
LINE
  5
1AF94
330
1AF86
100
AcDbEntity
  8
0
  6
CONTINUOUS
100
AcDbLine
 10
13.26747284108903
 20
2.283876894477644
 30
0.0
 11
14.31670901546777
 21
3.333113068856379
 31
0.0
  0
LINE
  5
1AF95
330
1AF86
100
AcDbEntity
  8
0
  6
CONTINUOUS
100
AcDbLine
 10
16.36767838827179
 20
8.751678487061342
 30
0.0
 11
16.50332410898388
 21
8.887324207773432
 31
0.0
  0
LINE
  5
1AF96
330
1AF86
100
AcDbEntity
  8
0
  6
CONTINUOUS
100
AcDbLine
 10
15.96190732182191
 20
7.67238821153127
 30
0.0
 11
16.68735328004734
 21
8.397834169756699
 31
0.0
  0
LINE
  5
1AF97
330
1AF86
100
AcDbEntity
  8
0
  6
CONTINUOUS
100
AcDbLine
 10
15.55613625537202
 20
6.593097936001196
 30
0.0
 11
16.87138245111079
 21
7.908344131739965
 31
0.0
  0
LINE
  5
1AF98
330
1AF86
100
AcDbEntity
  8
0
  6
CONTINUOUS
100
AcDbLine
 10
15.15036518892213
 20
5.513807660471122
 30
0.0
 11
17.05541162217424
 21
7.418854093723231
 31
0.0
  0
LINE
  5
1AF99
330
1AF86
100
AcDbEntity
  8
0
  6
CONTINUOUS
100
AcDbLine
 10
14.74459412247225
 20
4.434517384941048
 30
0.0
 11
17.2394407932377
 21
6.929364055706499
 31
0.0
  0
LINE
  5
1AF9A
330
1AF86
100
AcDbEntity
  8
0
  6
CONTINUOUS
100
AcDbLine
 10
14.33882305602236
 20
3.355227109410975
 30
0.0
 11
17.42346996430115
 21
6.439874017689766
 31
0.0
  0
LINE
  5
1AF9B
330
1AF86
100
AcDbEntity
  8
0
  6
CONTINUOUS
100
AcDbLine
 10
13.46705359186416
 20
1.809938436172586
 30
0.0
 11
16.0819338255367
 21
4.424818669845129
 31
0.0
  0
LINE
  5
1AF9C
330
1AF86
100
AcDbEntity
  8
0
  6
CONTINUOUS
100
AcDbLine
 10
16.63283254238972
 20
4.975717386698149
 30
0.0
 11
17.60749913536461
 21
5.950383979673033
 31
0.0
  0
LINE
  5
1AF9D
330
1AF86
100
AcDbEntity
  8
0
  6
CONTINUOUS
100
AcDbLine
 10
13.66663434263929
 20
1.335999977867529
 30
0.0
 11
15.67604797733754
 21
3.345413612565779
 31
0.0
  0
LINE
  5
1AF9E
330
1AF86
100
AcDbEntity
  8
0
  6
CONTINUOUS
100
AcDbLine
 10
13.86621509341442
 20
0.8620615195624723
 30
0.0
 11
15.27016212913838
 21
2.26600855528643
 31
0.0
  0
LINE
  5
1AF9F
330
1AF86
100
AcDbEntity
  8
0
  6
CONTINUOUS
100
AcDbLine
 10
16.81682257348267
 20
4.486188208710908
 30
0.0
 11
17.79152830642806
 21
5.460893941656299
 31
0.0
  0
LINE
  5
1AFA0
330
1AF86
100
AcDbEntity
  8
0
  6
CONTINUOUS
100
AcDbLine
 10
17.00081260457561
 20
3.996659030723667
 30
0.0
 11
17.97555747749151
 21
4.971403903639565
 31
0.0
  0
LINE
  5
1AFA1
330
1AF86
100
AcDbEntity
  8
0
  6
CONTINUOUS
100
AcDbLine
 10
20.74362343514722
 20
8.412989070375462
 30
0.0
 11
21.09373436476302
 21
8.763099999991256
 31
0.0
  0
LINE
  5
1AFA2
330
1AF86
100
AcDbEntity
  8
0
  6
CONTINUOUS
100
AcDbLine
 10
20.25401257174777
 20
7.249858997895826
 30
0.0
 11
21.7672535738432
 21
8.763099999991255
 31
0.0
  0
LINE
  5
1AFA3
330
1AF86
100
AcDbEntity
  8
0
  6
CONTINUOUS
100
AcDbLine
 10
14.06579584418955
 20
0.3881230612574149
 30
0.0
 11
14.86427628093921
 21
1.186603498007082
 31
0.0
  0
LINE
  5
1AFA4
330
1AF86
100
AcDbEntity
  8
0
  6
CONTINUOUS
100
AcDbLine
 10
14.26537659496467
 20
-0.0858153970476412
 30
0.0
 11
14.45839043274005
 21
0.1071984407277329
 31
0.0
  0
LINE
  5
1AFA5
330
1AF86
100
AcDbEntity
  8
0
  6
CONTINUOUS
100
AcDbLine
 10
17.18480263566856
 20
3.507129852736426
 30
0.0
 11
18.15958664855496
 21
4.481913865622833
 31
0.0
  0
LINE
  5
1AFA6
330
1AF86
100
AcDbEntity
  8
0
  6
CONTINUOUS
100
AcDbLine
 10
17.3687926667615
 20
3.017600674749186
 30
0.0
 11
18.34361581961842
 21
3.9924238276061
 31
0.0
  0
LINE
  5
1AFA7
330
1AF86
100
AcDbEntity
  8
0
  6
CONTINUOUS
100
AcDbLine
 10
19.76440170834832
 20
6.086728925416191
 30
0.0
 11
22.33924590259489
 21
8.661573119662755
 31
0.0
  0
LINE
  5
1AFA8
330
1AF86
100
AcDbEntity
  8
0
  6
CONTINUOUS
100
AcDbLine
 10
19.27479084494887
 20
4.923598852936555
 30
0.0
 11
21.84929622842713
 21
7.498104236414807
 31
0.0
  0
LINE
  5
1AFA9
330
1AF86
100
AcDbEntity
  8
0
  6
CONTINUOUS
100
AcDbLine
 10
17.55278269785445
 20
2.528071496761945
 30
0.0
 11
18.52764499068187
 21
3.502933789589366
 31
0.0
  0
LINE
  5
1AFAA
330
1AF86
100
AcDbEntity
  8
0
  6
CONTINUOUS
100
AcDbLine
 10
18.78517998154942
 20
3.760468780456919
 30
0.0
 11
21.35934655425936
 21
6.33463535316686
 31
0.0
  0
LINE
  5
1AFAB
330
1AF86
100
AcDbEntity
  8
0
  6
CONTINUOUS
100
AcDbLine
 10
17.73677272894739
 20
2.038542318774704
 30
0.0
 11
20.8693968800916
 21
5.171166469918914
 31
0.0
  0
LINE
  5
1AFAC
330
1AF86
100
AcDbEntity
  8
0
  6
CONTINUOUS
100
AcDbLine
 10
17.92076276004034
 20
1.549013140787464
 30
0.0
 11
20.37944720592384
 21
4.007697586670968
 31
0.0
  0
LINE
  5
1AFAD
330
1AF86
100
AcDbEntity
  8
0
  6
CONTINUOUS
100
AcDbLine
 10
18.10475279113329
 20
1.059483962800223
 30
0.0
 11
19.88949753175608
 21
2.84422870342302
 31
0.0
  0
LINE
  5
1AFAE
330
1AF86
100
AcDbEntity
  8
0
  6
CONTINUOUS
100
AcDbLine
 10
18.28874282222623
 20
0.5699547848129822
 30
0.0
 11
19.39954785758832
 21
1.680759820175074
 31
0.0
  0
LINE
  5
1AFAF
330
1AF86
100
AcDbEntity
  8
0
  6
CONTINUOUS
100
AcDbLine
 10
18.47273285331918
 20
0.0804256068257416
 30
0.0
 11
18.90959818342056
 21
0.517290936927127
 31
0.0
  0
LINE
  5
1AFB0
330
1AF86
100
AcDbEntity
  8
0
  6
CONTINUOUS
100
AcDbLine
 10
14.3590401358224
 20
-0.1570118376323384
 30
0.0
 11
14.24903296539946
 21
-0.0470046672093929
 31
0.0
  0
LINE
  5
1AFB1
330
1AF86
100
AcDbEntity
  8
0
  6
CONTINUOUS
100
AcDbLine
 10
14.54309291258661
 20
0.332454594683643
 30
0.0
 11
13.75908329123172
 21
1.116464216038529
 31
0.0
  0
LINE
  5
1AFB2
330
1AF86
100
AcDbEntity
  8
0
  6
CONTINUOUS
100
AcDbLine
 10
14.72714568935081
 20
0.8219210269996244
 30
0.0
 11
13.26913361706399
 21
2.27993309928645
 31
0.0
  0
LINE
  5
1AFB3
330
1AF86
100
AcDbEntity
  8
0
  6
CONTINUOUS
100
AcDbLine
 10
14.91119846611502
 20
1.311387459315606
 30
0.0
 11
12.77918394289625
 21
3.443401982534371
 31
0.0
  0
LINE
  5
1AFB4
330
1AF86
100
AcDbEntity
  8
0
  6
CONTINUOUS
100
AcDbLine
 10
15.09525124287922
 20
1.800853891631587
 30
0.0
 11
12.28923426872852
 21
4.606870865782293
 31
0.0
  0
LINE
  5
1AFB5
330
1AF86
100
AcDbEntity
  8
0
  6
CONTINUOUS
100
AcDbLine
 10
15.27930401964343
 20
2.290320323947569
 30
0.0
 11
11.79928459456078
 21
5.770339749030213
 31
0.0
  0
LINE
  5
1AFB6
330
1AF86
100
AcDbEntity
  8
0
  6
CONTINUOUS
100
AcDbLine
 10
15.46335679640763
 20
2.77978675626355
 30
0.0
 11
14.48885470994921
 21
3.754288842721972
 31
0.0
  0
LINE
  5
1AFB7
330
1AF86
100
AcDbEntity
  8
0
  6
CONTINUOUS
100
AcDbLine
 10
13.88507249233704
 20
4.358071060334137
 30
0.0
 11
11.30933492039305
 21
6.933808632278135
 31
0.0
  0
LINE
  5
1AFB8
330
1AF86
100
AcDbEntity
  8
0
  6
CONTINUOUS
100
AcDbLine
 10
18.75840522805855
 20
0.1582575336928151
 30
0.0
 11
18.25383727664818
 21
0.6628254851031863
 31
0.0
  0
LINE
  5
1AFB9
330
1AF86
100
AcDbEntity
  8
0
  6
CONTINUOUS
100
AcDbLine
 10
15.64740957317184
 20
3.269253188579531
 30
0.0
 11
14.67288388101266
 21
4.243778880738705
 31
0.0
  0
LINE
  5
1AFBA
330
1AF86
100
AcDbEntity
  8
0
  6
CONTINUOUS
100
AcDbLine
 10
13.39509276772158
 20
5.521569994029786
 30
0.0
 11
10.81938524622531
 21
8.097277515526056
 31
0.0
  0
LINE
  5
1AFBB
330
1AF86
100
AcDbEntity
  8
0
  6
CONTINUOUS
100
AcDbLine
 10
18.95798597883369
 20
0.6321959919978686
 30
0.0
 11
17.84825644852853
 21
1.741925522303024
 31
0.0
  0
LINE
  5
1AFBC
330
1AF86
100
AcDbEntity
  8
0
  6
CONTINUOUS
100
AcDbLine
 10
19.15756672960882
 20
1.106134450302922
 30
0.0
 11
17.44267562040888
 21
2.821025559502861
 31
0.0
  0
LINE
  5
1AFBD
330
1AF86
100
AcDbEntity
  8
0
  6
CONTINUOUS
100
AcDbLine
 10
15.83146234993604
 20
3.758719620895513
 30
0.0
 11
14.85691305207612
 21
4.733268918755439
 31
0.0
  0
LINE
  5
1AFBE
330
1AF86
100
AcDbEntity
  8
0
  6
CONTINUOUS
100
AcDbLine
 10
16.01551512670025
 20
4.248186053211494
 30
0.0
 11
15.04094222313957
 21
5.222758956772172
 31
0.0
  0
LINE
  5
1AFBF
330
1AF86
100
AcDbEntity
  8
0
  6
CONTINUOUS
100
AcDbLine
 10
12.90511304310612
 20
6.685068927725435
 30
0.0
 11
10.8270819708403
 21
8.763099999991255
 31
0.0
  0
LINE
  5
1AFC0
330
1AF86
100
AcDbEntity
  8
0
  6
CONTINUOUS
100
AcDbLine
 10
12.41513331849066
 20
7.848567861421083
 30
0.0
 11
11.50060117992049
 21
8.763099999991255
 31
0.0
  0
LINE
  5
1AFC1
330
1AF86
100
AcDbEntity
  8
0
  6
CONTINUOUS
100
AcDbLine
 10
19.35714748038395
 20
1.580072908607975
 30
0.0
 11
17.03709479228923
 21
3.900125596702697
 31
0.0
  0
LINE
  5
1AFC2
330
1AF86
100
AcDbEntity
  8
0
  6
CONTINUOUS
100
AcDbLine
 10
19.55672823115909
 20
2.054011366913028
 30
0.0
 11
16.63151396416958
 21
4.979225633902534
 31
0.0
  0
LINE
  5
1AFC3
330
1AF86
100
AcDbEntity
  8
0
  6
CONTINUOUS
100
AcDbLine
 10
16.19956790346445
 20
4.737652485527476
 30
0.0
 11
15.22497139420302
 21
5.712248994788904
 31
0.0
  0
LINE
  5
1AFC4
330
1AF86
100
AcDbEntity
  8
0
  6
CONTINUOUS
100
AcDbLine
 10
16.38362068022866
 20
5.227118917843457
 30
0.0
 11
15.40900056526648
 21
6.201739032805637
 31
0.0
  0
LINE
  5
1AFC5
330
1AF86
100
AcDbEntity
  8
0
  6
CONTINUOUS
100
AcDbLine
 10
19.75630898193422
 20
2.527949825218081
 30
0.0
 11
18.70774536448286
 21
3.576513442669441
 31
0.0
  0
LINE
  5
1AFC6
330
1AF86
100
AcDbEntity
  8
0
  6
CONTINUOUS
100
AcDbLine
 10
19.95588973270936
 20
3.001888283523134
 30
0.0
 11
18.90726987211446
 21
4.050508144118028
 31
0.0
  0
LINE
  5
1AFC7
330
1AF86
100
AcDbEntity
  8
0
  6
CONTINUOUS
100
AcDbLine
 10
20.15547048348449
 20
3.475826741828186
 30
0.0
 11
19.10679437974606
 21
4.524502845566614
 31
0.0
  0
LINE
  5
1AFC8
330
1AF86
100
AcDbEntity
  8
0
  6
CONTINUOUS
100
AcDbLine
 10
20.35505123425962
 20
3.94976520013324
 30
0.0
 11
19.30631888737766
 21
4.998497547015201
 31
0.0
  0
LINE
  5
1AFC9
330
1AF86
100
AcDbEntity
  8
0
  6
CONTINUOUS
100
AcDbLine
 10
20.55463198503475
 20
4.423703658438292
 30
0.0
 11
19.50584339500926
 21
5.472492248463787
 31
0.0
  0
LINE
  5
1AFCA
330
1AF86
100
AcDbEntity
  8
0
  6
CONTINUOUS
100
AcDbLine
 10
18.37481191085755
 20
3.909446896294752
 30
0.0
 11
15.59302973632993
 21
6.691229070822371
 31
0.0
  0
LINE
  5
1AFCB
330
1AF86
100
AcDbEntity
  8
0
  6
CONTINUOUS
100
AcDbLine
 10
17.96904084440766
 20
4.988737171824825
 30
0.0
 11
15.77705890739338
 21
7.180719108839104
 31
0.0
  0
LINE
  5
1AFCC
330
1AF86
100
AcDbEntity
  8
0
  6
CONTINUOUS
100
AcDbLine
 10
17.56326977795777
 20
6.068027447354899
 30
0.0
 11
15.96108807845684
 21
7.670209146855838
 31
0.0
  0
LINE
  5
1AFCD
330
1AF86
100
AcDbEntity
  8
0
  6
CONTINUOUS
100
AcDbLine
 10
17.15749871150789
 20
7.147317722884972
 30
0.0
 11
16.14511724952029
 21
8.15969918487257
 31
0.0
  0
LINE
  5
1AFCE
330
1AF86
100
AcDbEntity
  8
0
  6
CONTINUOUS
100
AcDbLine
 10
16.751727645058
 20
8.226607998415046
 30
0.0
 11
16.32914642058374
 21
8.649189222889303
 31
0.0
  0
LINE
  5
1AFCF
330
1AF86
100
AcDbEntity
  8
0
  6
CONTINUOUS
100
AcDbLine
 10
20.75421273580989
 20
4.897642116743345
 30
0.0
 11
19.70536790264086
 21
5.946486949912374
 31
0.0
  0
LINE
  5
1AFD0
330
1AF86
100
AcDbEntity
  8
0
  6
CONTINUOUS
100
AcDbLine
 10
20.95379348658502
 20
5.371580575048398
 30
0.0
 11
19.90489241027246
 21
6.42048165136096
 31
0.0
  0
LINE
  5
1AFD1
330
1AF86
100
AcDbEntity
  8
0
  6
CONTINUOUS
100
AcDbLine
 10
21.15337423736015
 20
5.845519033353452
 30
0.0
 11
20.10441691790406
 21
6.894476352809547
 31
0.0
  0
LINE
  5
1AFD2
330
1AF86
100
AcDbEntity
  8
0
  6
CONTINUOUS
100
AcDbLine
 10
21.35295498813529
 20
6.319457491658505
 30
0.0
 11
20.30394142553566
 21
7.368471054258134
 31
0.0
  0
LINE
  5
1AFD3
330
1AF86
100
AcDbEntity
  8
0
  6
CONTINUOUS
100
AcDbLine
 10
21.55253573891042
 20
6.793395949963558
 30
0.0
 11
20.50346593316726
 21
7.842465755706721
 31
0.0
  0
LINE
  5
1AFD4
330
1AF86
100
AcDbEntity
  8
0
  6
CONTINUOUS
100
AcDbLine
 10
21.75211648968556
 20
7.267334408268612
 30
0.0
 11
20.70299044079886
 21
8.316460457155308
 31
0.0
  0
LINE
  5
1AFD5
330
1AF86
100
AcDbEntity
  8
0
  6
CONTINUOUS
100
AcDbLine
 10
21.95169724046069
 20
7.741272866573663
 30
0.0
 11
20.9298701070431
 21
8.763099999991256
 31
0.0
  0
LINE
  5
1AFD6
330
1AF86
100
AcDbEntity
  8
0
  6
CONTINUOUS
100
AcDbLine
 10
22.15127799123582
 20
8.215211324878716
 30
0.0
 11
21.60338931612328
 21
8.763099999991256
 31
0.0
  0
LINE
  5
1AFD7
330
1AF86
100
AcDbEntity
  8
0
  6
CONTINUOUS
100
AcDbLine
 10
22.35085874201096
 20
8.689149783183769
 30
0.0
 11
22.27690852520347
 21
8.763099999991255
 31
0.0
  0
ENDBLK
  5
1B0C9
330
1AF86
100
AcDbEntity
  8
0
100
AcDbBlockEnd
  0
BLOCK
  5
1B0CA
330
1AFD8
100
AcDbEntity
  8
0
100
AcDbBlockBegin
  2
*X44
 70
     1
 10
0.0
 20
0.0
 30
0.0
  3
*X44
  1

  0
LINE
  5
1AFD9
330
1AFD8
100
AcDbEntity
  8
0
  6
CONTINUOUS
100
AcDbLine
 10
23.19462913593892
 20
8.169917934846424
 30
0.0
 11
23.70775465517246
 21
8.683043454079957
 31
0.0
  0
LINE
  5
1AFDA
330
1AFD8
100
AcDbEntity
  8
0
  6
CONTINUOUS
100
AcDbLine
 10
22.64923161835078
 20
6.951001208178088
 30
0.0
 11
23.9159364069932
 21
8.217705996820516
 31
0.0
  0
LINE
  5
1AFDB
330
1AFD8
100
AcDbEntity
  8
0
  6
CONTINUOUS
100
AcDbLine
 10
22.10383410076263
 20
5.732084481509751
 30
0.0
 11
24.12411815881395
 21
7.752368539561078
 31
0.0
  0
LINE
  5
1AFDC
330
1AFD8
100
AcDbEntity
  8
0
  6
CONTINUOUS
100
AcDbLine
 10
21.55843658317447
 20
4.513167754841414
 30
0.0
 11
24.3322999106347
 21
7.287031082301639
 31
0.0
  0
LINE
  5
1AFDD
330
1AFD8
100
AcDbEntity
  8
0
  6
CONTINUOUS
100
AcDbLine
 10
21.01303906558632
 20
3.294251028173077
 30
0.0
 11
24.54048166245544
 21
6.821693625042199
 31
0.0
  0
LINE
  5
1AFDE
330
1AFD8
100
AcDbEntity
  8
0
  6
CONTINUOUS
100
AcDbLine
 10
20.46764154799817
 20
2.075334301504738
 30
0.0
 11
23.28571549467848
 21
4.89340824818505
 31
0.0
  0
LINE
  5
1AFDF
330
1AFD8
100
AcDbEntity
  8
0
  6
CONTINUOUS
100
AcDbLine
 10
19.92224403041002
 20
0.8564175748364002
 30
0.0
 11
22.74075865492779
 21
3.674932199354171
 31
0.0
  0
LINE
  5
1AFE0
330
1AFD8
100
AcDbEntity
  8
0
  6
CONTINUOUS
100
AcDbLine
 10
23.67305085490148
 20
5.280743608408048
 30
0.0
 11
24.74866341427619
 21
6.356356167782759
 31
0.0
  0
LINE
  5
1AFE1
330
1AFD8
100
AcDbEntity
  8
0
  6
CONTINUOUS
100
AcDbLine
 10
23.88118970842314
 20
4.815363252849522
 30
0.0
 11
24.95684516609694
 21
5.89101871052332
 31
0.0
  0
LINE
  5
1AFE2
330
1AFD8
100
AcDbEntity
  8
0
  6
CONTINUOUS
100
AcDbLine
 10
19.73925852647308
 20
-0.0000871381807288
 30
0.0
 11
23.4103456646501
 21
3.670999999996297
 31
0.0
  0
LINE
  5
1AFE3
330
1AFD8
100
AcDbEntity
  8
0
  6
CONTINUOUS
100
AcDbLine
 10
24.0893285619448
 20
4.349982897290997
 30
0.0
 11
25.16502691791769
 21
5.42568125326388
 31
0.0
  0
LINE
  5
1AFE4
330
1AFD8
100
AcDbEntity
  8
0
  6
CONTINUOUS
100
AcDbLine
 10
20.41282099582748
 20
-0.0000438779065108
 30
0.0
 11
21.64944178675636
 21
1.236576913022366
 31
0.0
  0
LINE
  5
1AFE5
330
1AFD8
100
AcDbEntity
  8
0
  6
CONTINUOUS
100
AcDbLine
 10
22.78126487373161
 20
2.36839999999762
 30
0.0
 11
24.08386487373029
 21
3.670999999996297
 31
0.0
  0
LINE
  5
1AFE6
330
1AFD8
100
AcDbEntity
  8
0
  6
CONTINUOUS
100
AcDbLine
 10
24.29746741546646
 20
3.884602541732471
 30
0.0
 11
25.37320866973843
 21
4.960343796004441
 31
0.0
  0
LINE
  5
1AFE7
330
1AFD8
100
AcDbEntity
  8
0
  6
CONTINUOUS
100
AcDbLine
 10
21.08638346518189
 20
-0.0000006176322938
 30
0.0
 11
21.10379033335899
 21
0.0174062505448083
 31
0.0
  0
LINE
  5
1AFE8
330
1AFD8
100
AcDbEntity
  8
0
  6
CONTINUOUS
100
AcDbLine
 10
23.4547840828118
 20
2.36839999999762
 30
0.0
 11
25.58139042155918
 21
4.495006338745002
 31
0.0
  0
LINE
  5
1AFE9
330
1AFD8
100
AcDbEntity
  8
0
  6
CONTINUOUS
100
AcDbLine
 10
29.30199999996933
 20
8.215615917155148
 30
0.0
 11
29.84948408280543
 21
8.763099999991255
 31
0.0
  0
LINE
  5
1AFEA
330
1AFD8
100
AcDbEntity
  8
0
  6
CONTINUOUS
100
AcDbLine
 10
24.12830329189199
 20
2.36839999999762
 30
0.0
 11
25.78957217337993
 21
4.029668881485562
 31
0.0
  0
LINE
  5
1AFEB
330
1AFD8
100
AcDbEntity
  8
0
  6
CONTINUOUS
100
AcDbLine
 10
29.30199999996933
 20
7.54209670807496
 30
0.0
 11
30.52300329188562
 21
8.763099999991255
 31
0.0
  0
LINE
  5
1AFEC
330
1AFD8
100
AcDbEntity
  8
0
  6
CONTINUOUS
100
AcDbLine
 10
24.80182250097217
 20
2.36839999999762
 30
0.0
 11
25.99775392520067
 21
3.564331424226122
 31
0.0
  0
LINE
  5
1AFED
330
1AFD8
100
AcDbEntity
  8
0
  6
CONTINUOUS
100
AcDbLine
 10
29.30199999996933
 20
6.868577498994774
 30
0.0
 11
30.74199999996926
 21
8.308577498994712
 31
0.0
  0
LINE
  5
1AFEE
330
1AFD8
100
AcDbEntity
  8
0
  6
CONTINUOUS
100
AcDbLine
 10
25.13028238392013
 20
2.023340673865392
 30
0.0
 11
26.20593567702142
 21
3.098993966966683
 31
0.0
  0
LINE
  5
1AFEF
330
1AFD8
100
AcDbEntity
  8
0
  6
CONTINUOUS
100
AcDbLine
 10
25.33838066033617
 20
1.557919741201244
 30
0.0
 11
26.41411742884217
 21
2.633656509707244
 31
0.0
  0
LINE
  5
1AFF0
330
1AFD8
100
AcDbEntity
  8
0
  6
CONTINUOUS
100
AcDbLine
 10
25.54647893675221
 20
1.092498808537098
 30
0.0
 11
26.62229918066291
 21
2.168319052447804
 31
0.0
  0
LINE
  5
1AFF1
330
1AFD8
100
AcDbEntity
  8
0
  6
CONTINUOUS
100
AcDbLine
 10
25.75457721316825
 20
0.62707787587295
 30
0.0
 11
26.83048093248366
 21
1.702981595188365
 31
0.0
  0
LINE
  5
1AFF2
330
1AFD8
100
AcDbEntity
  8
0
  6
CONTINUOUS
100
AcDbLine
 10
29.30199999996933
 20
6.195058289914587
 30
0.0
 11
30.74199999996926
 21
7.635058289914522
 31
0.0
  0
LINE
  5
1AFF3
330
1AFD8
100
AcDbEntity
  8
0
  6
CONTINUOUS
100
AcDbLine
 10
29.30199999996933
 20
5.521539080834401
 30
0.0
 11
30.74199999996926
 21
6.961539080834331
 31
0.0
  0
LINE
  5
1AFF4
330
1AFD8
100
AcDbEntity
  8
0
  6
CONTINUOUS
100
AcDbLine
 10
29.30199999996933
 20
4.848019871754214
 30
0.0
 11
30.74199999996925
 21
6.288019871754143
 31
0.0
  0
LINE
  5
1AFF5
330
1AFD8
100
AcDbEntity
  8
0
  6
CONTINUOUS
100
AcDbLine
 10
29.30199999996933
 20
4.174500662674028
 30
0.0
 11
30.74199999996925
 21
5.614500662673953
 31
0.0
  0
LINE
  5
1AFF6
330
1AFD8
100
AcDbEntity
  8
0
  6
CONTINUOUS
100
AcDbLine
 10
25.96267548958429
 20
0.1616569432088024
 30
0.0
 11
27.18411854636669
 21
1.383099999991207
 31
0.0
  0
LINE
  5
1AFF7
330
1AFD8
100
AcDbEntity
  8
0
  6
CONTINUOUS
100
AcDbLine
 10
29.30199999996933
 20
3.500981453593841
 30
0.0
 11
30.74199999996925
 21
4.940981453593762
 31
0.0
  0
LINE
  5
1AFF8
330
1AFD8
100
AcDbEntity
  8
0
  6
CONTINUOUS
100
AcDbLine
 10
26.50763775544691
 20
0.0330999999912356
 30
0.0
 11
27.85763775544689
 21
1.383099999991223
 31
0.0
  0
LINE
  5
1AFF9
330
1AFD8
100
AcDbEntity
  8
0
  6
CONTINUOUS
100
AcDbLine
 10
29.30199999996933
 20
2.827462244513656
 30
0.0
 11
30.74199999996925
 21
4.267462244513574
 31
0.0
  0
LINE
  5
1AFFA
330
1AFD8
100
AcDbEntity
  8
0
  6
CONTINUOUS
100
AcDbLine
 10
27.18115696452709
 20
0.0330999999912356
 30
0.0
 11
28.55073879889363
 21
1.402681834357775
 31
0.0
  0
LINE
  5
1AFFB
330
1AFD8
100
AcDbEntity
  8
0
  6
CONTINUOUS
100
AcDbLine
 10
29.28241816560272
 20
2.134361201066866
 30
0.0
 11
30.74199999996924
 21
3.593943035433383
 31
0.0
  0
LINE
  5
1AFFC
330
1AFD8
100
AcDbEntity
  8
0
  6
CONTINUOUS
100
AcDbLine
 10
27.85467617360728
 20
0.0330999999912356
 30
0.0
 11
30.74199999996924
 21
2.920423826353195
 31
0.0
  0
LINE
  5
1AFFD
330
1AFD8
100
AcDbEntity
  8
0
  6
CONTINUOUS
100
AcDbLine
 10
28.53897559587887
 20
0.0438802131826428
 30
0.0
 11
30.73121978677781
 21
2.236124404081585
 31
0.0
  0
LINE
  5
1AFFE
330
1AFD8
100
AcDbEntity
  8
0
  6
CONTINUOUS
100
AcDbLine
 10
29.45140055588722
 20
0.2827859641107988
 30
0.0
 11
30.49231403584965
 21
1.323699444073236
 31
0.0
  0
LINE
  5
1AFFF
330
1AFD8
100
AcDbEntity
  8
0
  6
CONTINUOUS
100
AcDbLine
 10
19.59027867740337
 20
-0.0000967065718083
 30
0.0
 11
19.55485265190471
 21
0.035329318926844
 31
0.0
  0
LINE
  5
1B000
330
1AFD8
100
AcDbEntity
  8
0
  6
CONTINUOUS
100
AcDbLine
 10
20.26375463176586
 20
-0.0000534518541091
 30
0.0
 11
19.76305575737534
 21
0.5006454225364014
 31
0.0
  0
LINE
  5
1B001
330
1AFD8
100
AcDbEntity
  8
0
  6
CONTINUOUS
100
AcDbLine
 10
20.93723058612834
 20
-0.0000101971364099
 30
0.0
 11
19.97125886284597
 21
0.965961526145958
 31
0.0
  0
LINE
  5
1B002
330
1AFD8
100
AcDbEntity
  8
0
  6
CONTINUOUS
100
AcDbLine
 10
21.25514828313686
 20
0.355591314935257
 30
0.0
 11
20.1794619683166
 21
1.431277629755512
 31
0.0
  0
LINE
  5
1B003
330
1AFD8
100
AcDbEntity
  8
0
  6
CONTINUOUS
100
AcDbLine
 10
21.46338838394921
 20
0.8208704232030986
 30
0.0
 11
20.38766507378723
 21
1.896593733365069
 31
0.0
  0
LINE
  5
1B004
330
1AFD8
100
AcDbEntity
  8
0
  6
CONTINUOUS
100
AcDbLine
 10
21.67162848476155
 20
1.28614953147094
 30
0.0
 11
20.59586817925786
 21
2.361909836974626
 31
0.0
  0
LINE
  5
1B005
330
1AFD8
100
AcDbEntity
  8
0
  6
CONTINUOUS
100
AcDbLine
 10
21.8798685855739
 20
1.751428639738782
 30
0.0
 11
20.80407128472849
 21
2.827225940584183
 31
0.0
  0
LINE
  5
1B006
330
1AFD8
100
AcDbEntity
  8
0
  6
CONTINUOUS
100
AcDbLine
 10
22.08810868638624
 20
2.216707748006623
 30
0.0
 11
21.01227439019912
 21
3.292542044193739
 31
0.0
  0
LINE
  5
1B007
330
1AFD8
100
AcDbEntity
  8
0
  6
CONTINUOUS
100
AcDbLine
 10
22.60993564347543
 20
2.36839999999762
 30
0.0
 11
21.22047749566975
 21
3.757858147803296
 31
0.0
  0
LINE
  5
1B008
330
1AFD8
100
AcDbEntity
  8
0
  6
CONTINUOUS
100
AcDbLine
 10
23.28345485255561
 20
2.36839999999762
 30
0.0
 11
21.42868060114038
 21
4.223174251412853
 31
0.0
  0
LINE
  5
1B009
330
1AFD8
100
AcDbEntity
  8
0
  6
CONTINUOUS
100
AcDbLine
 10
26.29227406164219
 20
0.0330999999912356
 30
0.0
 11
25.80009199592872
 21
0.5252820657046957
 31
0.0
  0
LINE
  5
1B00A
330
1AFD8
100
AcDbEntity
  8
0
  6
CONTINUOUS
100
AcDbLine
 10
23.9569740616358
 20
2.36839999999762
 30
0.0
 11
21.63688370661101
 21
4.688490355022409
 31
0.0
  0
LINE
  5
1B00B
330
1AFD8
100
AcDbEntity
  8
0
  6
CONTINUOUS
100
AcDbLine
 10
26.96579327072237
 20
0.0330999999912356
 30
0.0
 11
25.2554132311971
 21
1.743480039516508
 31
0.0
  0
LINE
  5
1B00C
330
1AFD8
100
AcDbEntity
  8
0
  6
CONTINUOUS
100
AcDbLine
 10
24.63049327071599
 20
2.36839999999762
 30
0.0
 11
23.32789327071731
 21
3.670999999996297
 31
0.0
  0
LINE
  5
1B00D
330
1AFD8
100
AcDbEntity
  8
0
  6
CONTINUOUS
100
AcDbLine
 10
22.92098674744635
 20
4.077906523267254
 30
0.0
 11
21.84508681208164
 21
5.153806458631966
 31
0.0
  0
LINE
  5
1B00E
330
1AFD8
100
AcDbEntity
  8
0
  6
CONTINUOUS
100
AcDbLine
 10
27.63931247980256
 20
0.0330999999912356
 30
0.0
 11
24.0014124797975
 21
3.670999999996297
 31
0.0
  0
LINE
  5
1B00F
330
1AFD8
100
AcDbEntity
  8
0
  6
CONTINUOUS
100
AcDbLine
 10
23.129125600968
 20
4.5432868788258
 30
0.0
 11
22.05328991755227
 21
5.619122562241522
 31
0.0
  0
LINE
  5
1B010
330
1AFD8
100
AcDbEntity
  8
0
  6
CONTINUOUS
100
AcDbLine
 10
28.31283168888275
 20
0.0330999999912356
 30
0.0
 11
24.16488385994816
 21
4.181047828925828
 31
0.0
  0
LINE
  5
1B011
330
1AFD8
100
AcDbEntity
  8
0
  6
CONTINUOUS
100
AcDbLine
 10
23.33726445448964
 20
5.008667234384345
 30
0.0
 11
22.2614930230229
 21
6.084438665851079
 31
0.0
  0
LINE
  5
1B012
330
1AFD8
100
AcDbEntity
  8
0
  6
CONTINUOUS
100
AcDbLine
 10
28.92085740005492
 20
0.0985934978992438
 30
0.0
 11
27.63635089796295
 21
1.383099999991217
 31
0.0
  0
LINE
  5
1B013
330
1AFD8
100
AcDbEntity
  8
0
  6
CONTINUOUS
100
AcDbLine
 10
26.43704649509776
 20
2.582404402856405
 30
0.0
 11
23.61992702019732
 21
5.399523877756844
 31
0.0
  0
LINE
  5
1B014
330
1AFD8
100
AcDbEntity
  8
0
  6
CONTINUOUS
100
AcDbLine
 10
23.54540330801128
 20
5.47404758994289
 30
0.0
 11
22.46969612849353
 21
6.549754769460635
 31
0.0
  0
LINE
  5
1B015
330
1AFD8
100
AcDbEntity
  8
0
  6
CONTINUOUS
100
AcDbLine
 10
29.42225615078443
 20
0.2707139562499279
 30
0.0
 11
28.30987010704312
 21
1.383099999991234
 31
0.0
  0
LINE
  5
1B016
330
1AFD8
100
AcDbEntity
  8
0
  6
CONTINUOUS
100
AcDbLine
 10
25.89179548232307
 20
3.801174624711282
 30
0.0
 11
22.67789923396416
 21
7.015070873070191
 31
0.0
  0
LINE
  5
1B017
330
1AFD8
100
AcDbEntity
  8
0
  6
CONTINUOUS
100
AcDbLine
 10
29.83624534690007
 20
0.5302439692144705
 30
0.0
 11
28.85811781497101
 21
1.508371501143527
 31
0.0
  0
LINE
  5
1B018
330
1AFD8
100
AcDbEntity
  8
0
  6
CONTINUOUS
100
AcDbLine
 10
25.34654446954838
 20
5.01994484656616
 30
0.0
 11
22.88610233943479
 21
7.480386976679748
 31
0.0
  0
LINE
  5
1B019
330
1AFD8
100
AcDbEntity
  8
0
  6
CONTINUOUS
100
AcDbLine
 10
30.17865975401872
 20
0.8613487711760022
 30
0.0
 11
29.18888744090175
 21
1.851121084292977
 31
0.0
  0
LINE
  5
1B01A
330
1AFD8
100
AcDbEntity
  8
0
  6
CONTINUOUS
100
AcDbLine
 10
24.80129345677369
 20
6.238715068421037
 30
0.0
 11
23.09430544490542
 21
7.945703080289305
 31
0.0
  0
LINE
  5
1B01B
330
1AFD8
100
AcDbEntity
  8
0
  6
CONTINUOUS
100
AcDbLine
 10
30.45496647202376
 20
1.258561262251155
 30
0.0
 11
29.30199999996933
 21
2.411527734305588
 31
0.0
  0
LINE
  5
1B01C
330
1AFD8
100
AcDbEntity
  8
0
  6
CONTINUOUS
100
AcDbLine
 10
24.256042443999
 20
7.457485290275915
 30
0.0
 11
23.30250855037605
 21
8.411019183898862
 31
0.0
  0
LINE
  5
1B01D
330
1AFD8
100
AcDbEntity
  8
0
  6
CONTINUOUS
100
AcDbLine
 10
30.64868582078271
 20
1.738361122572387
 30
0.0
 11
29.30199999996933
 21
3.085046943385775
 31
0.0
  0
LINE
  5
1B01E
330
1AFD8
100
AcDbEntity
  8
0
  6
CONTINUOUS
100
AcDbLine
 10
23.71079143122431
 20
8.676255512130794
 30
0.0
 11
23.51071165584668
 21
8.876335287508416
 31
0.0
  0
LINE
  5
1B01F
330
1AFD8
100
AcDbEntity
  8
0
  6
CONTINUOUS
100
AcDbLine
 10
30.73802122914428
 20
2.322544923291007
 30
0.0
 11
29.30199999996933
 21
3.758566152465961
 31
0.0
  0
LINE
  5
1B020
330
1AFD8
100
AcDbEntity
  8
0
  6
CONTINUOUS
100
AcDbLine
 10
30.74199999996924
 20
2.992085361546236
 30
0.0
 11
29.30199999996933
 21
4.432085361546148
 31
0.0
  0
LINE
  5
1B021
330
1AFD8
100
AcDbEntity
  8
0
  6
CONTINUOUS
100
AcDbLine
 10
30.74199999996924
 20
3.665604570626419
 30
0.0
 11
29.30199999996933
 21
5.105604570626333
 31
0.0
  0
LINE
  5
1B022
330
1AFD8
100
AcDbEntity
  8
0
  6
CONTINUOUS
100
AcDbLine
 10
30.74199999996925
 20
4.339123779706602
 30
0.0
 11
29.30199999996933
 21
5.77912377970652
 31
0.0
  0
LINE
  5
1B023
330
1AFD8
100
AcDbEntity
  8
0
  6
CONTINUOUS
100
AcDbLine
 10
30.74199999996925
 20
5.012642988786785
 30
0.0
 11
29.30199999996933
 21
6.452642988786707
 31
0.0
  0
LINE
  5
1B024
330
1AFD8
100
AcDbEntity
  8
0
  6
CONTINUOUS
100
AcDbLine
 10
30.74199999996925
 20
5.68616219786697
 30
0.0
 11
29.30199999996933
 21
7.126162197866894
 31
0.0
  0
LINE
  5
1B025
330
1AFD8
100
AcDbEntity
  8
0
  6
CONTINUOUS
100
AcDbLine
 10
30.74199999996925
 20
6.359681406947153
 30
0.0
 11
29.30199999996933
 21
7.799681406947081
 31
0.0
  0
LINE
  5
1B026
330
1AFD8
100
AcDbEntity
  8
0
  6
CONTINUOUS
100
AcDbLine
 10
30.74199999996926
 20
7.033200616027337
 30
0.0
 11
29.30199999996933
 21
8.473200616027269
 31
0.0
  0
LINE
  5
1B027
330
1AFD8
100
AcDbEntity
  8
0
  6
CONTINUOUS
100
AcDbLine
 10
30.74199999996926
 20
7.706719825107518
 30
0.0
 11
29.68561982508552
 21
8.763099999991255
 31
0.0
  0
LINE
  5
1B028
330
1AFD8
100
AcDbEntity
  8
0
  6
CONTINUOUS
100
AcDbLine
 10
30.74199999996926
 20
8.380239034187703
 30
0.0
 11
30.35913903416571
 21
8.763099999991255
 31
0.0
  0
ENDBLK
  5
1B0CB
330
1AFD8
100
AcDbEntity
  8
0
100
AcDbBlockEnd
  0
BLOCK
  5
1B0CC
330
1B029
100
AcDbEntity
  8
0
100
AcDbBlockBegin
  2
*X45
 70
     1
 10
0.0
 20
0.0
 30
0.0
  3
*X45
  1

  0
LINE
  5
1B02A
330
1B029
100
AcDbEntity
  8
0
  6
CONTINUOUS
100
AcDbLine
 10
31.64199999996833
 20
8.535058289913598
 30
0.0
 11
31.87004171004599
 21
8.763099999991255
 31
0.0
  0
LINE
  5
1B02B
330
1B029
100
AcDbEntity
  8
0
  6
CONTINUOUS
100
AcDbLine
 10
31.64199999996833
 20
7.861539080833412
 30
0.0
 11
32.54356091912618
 21
8.763099999991255
 31
0.0
  0
LINE
  5
1B02C
330
1B029
100
AcDbEntity
  8
0
  6
CONTINUOUS
100
AcDbLine
 10
31.64199999996833
 20
7.188019871753226
 30
0.0
 11
33.08199999996839
 21
8.628019871753281
 31
0.0
  0
LINE
  5
1B02D
330
1B029
100
AcDbEntity
  8
0
  6
CONTINUOUS
100
AcDbLine
 10
31.64199999996833
 20
6.51450066267304
 30
0.0
 11
33.08199999996839
 21
7.954500662673095
 31
0.0
  0
LINE
  5
1B02E
330
1B029
100
AcDbEntity
  8
0
  6
CONTINUOUS
100
AcDbLine
 10
31.64199999996833
 20
5.840981453592853
 30
0.0
 11
33.08199999996839
 21
7.280981453592908
 31
0.0
  0
LINE
  5
1B02F
330
1B029
100
AcDbEntity
  8
0
  6
CONTINUOUS
100
AcDbLine
 10
31.64199999996833
 20
5.167462244512667
 30
0.0
 11
33.08199999996839
 21
6.607462244512721
 31
0.0
  0
LINE
  5
1B030
330
1B029
100
AcDbEntity
  8
0
  6
CONTINUOUS
100
AcDbLine
 10
31.64199999996833
 20
4.493943035432481
 30
0.0
 11
33.08199999996839
 21
5.933943035432535
 31
0.0
  0
LINE
  5
1B031
330
1B029
100
AcDbEntity
  8
0
  6
CONTINUOUS
100
AcDbLine
 10
31.64199999996833
 20
3.820423826352293
 30
0.0
 11
33.08199999996839
 21
5.260423826352348
 31
0.0
  0
LINE
  5
1B032
330
1B029
100
AcDbEntity
  8
0
  6
CONTINUOUS
100
AcDbLine
 10
31.64199999996833
 20
3.146904617272106
 30
0.0
 11
33.08199999996839
 21
4.586904617272161
 31
0.0
  0
LINE
  5
1B033
330
1B029
100
AcDbEntity
  8
0
  6
CONTINUOUS
100
AcDbLine
 10
36.23199999996837
 20
8.410423826352325
 30
0.0
 11
36.5846761736073
 21
8.763099999991255
 31
0.0
  0
LINE
  5
1B034
330
1B029
100
AcDbEntity
  8
0
  6
CONTINUOUS
100
AcDbLine
 10
36.23199999996837
 20
7.73690461727214
 30
0.0
 11
37.25819538268748
 21
8.763099999991255
 31
0.0
  0
LINE
  5
1B035
330
1B029
100
AcDbEntity
  8
0
  6
CONTINUOUS
100
AcDbLine
 10
31.64257403601376
 20
2.473959444237348
 30
0.0
 11
33.08199999996839
 21
3.913385408191974
 31
0.0
  0
LINE
  5
1B036
330
1B029
100
AcDbEntity
  8
0
  6
CONTINUOUS
100
AcDbLine
 10
36.23199999996837
 20
7.063385408191953
 30
0.0
 11
37.67199999996831
 21
8.503385408191894
 31
0.0
  0
LINE
  5
1B037
330
1B029
100
AcDbEntity
  8
0
  6
CONTINUOUS
100
AcDbLine
 10
31.72013636841932
 20
1.87800256756272
 30
0.0
 11
33.08199999996839
 21
3.239866199111788
 31
0.0
  0
LINE
  5
1B038
330
1B029
100
AcDbEntity
  8
0
  6
CONTINUOUS
100
AcDbLine
 10
36.23199999996837
 20
6.389866199111767
 30
0.0
 11
37.67199999996831
 21
7.829866199111708
 31
0.0
  0
LINE
  5
1B039
330
1B029
100
AcDbEntity
  8
0
  6
CONTINUOUS
100
AcDbLine
 10
31.89042734314753
 20
1.374774333210744
 30
0.0
 11
33.08199999996839
 21
2.566346990031601
 31
0.0
  0
LINE
  5
1B03A
330
1B029
100
AcDbEntity
  8
0
  6
CONTINUOUS
100
AcDbLine
 10
36.23199999996837
 20
5.71634699003158
 30
0.0
 11
37.67199999996831
 21
7.156346990031521
 31
0.0
  0
LINE
  5
1B03B
330
1B029
100
AcDbEntity
  8
0
  6
CONTINUOUS
100
AcDbLine
 10
32.14210568064475
 20
0.952933461627778
 30
0.0
 11
33.18745552475986
 21
1.998283305742888
 31
0.0
  0
LINE
  5
1B03C
330
1B029
100
AcDbEntity
  8
0
  6
CONTINUOUS
100
AcDbLine
 10
36.23199999996837
 20
5.042827780951393
 30
0.0
 11
37.67199999996831
 21
6.482827780951334
 31
0.0
  0
LINE
  5
1B03D
330
1B029
100
AcDbEntity
  8
0
  6
CONTINUOUS
100
AcDbLine
 10
32.45820639400955
 20
0.5955149659123915
 30
0.0
 11
33.47242681921943
 21
1.60973539112227
 31
0.0
  0
LINE
  5
1B03E
330
1B029
100
AcDbEntity
  8
0
  6
CONTINUOUS
100
AcDbLine
 10
36.23199999996837
 20
4.369308571871207
 30
0.0
 11
37.67199999996831
 21
5.809308571871147
 31
0.0
  0
LINE
  5
1B03F
330
1B029
100
AcDbEntity
  8
0
  6
CONTINUOUS
100
AcDbLine
 10
32.83432456621412
 20
0.2981139290367771
 30
0.0
 11
33.89722476612215
 21
1.361014128944803
 31
0.0
  0
LINE
  5
1B040
330
1B029
100
AcDbEntity
  8
0
  6
CONTINUOUS
100
AcDbLine
 10
36.23199999996837
 20
3.69578936279102
 30
0.0
 11
37.67199999996831
 21
5.135789362790962
 31
0.0
  0
LINE
  5
1B041
330
1B029
100
AcDbEntity
  8
0
  6
CONTINUOUS
100
AcDbLine
 10
33.2711633111245
 20
0.0614334648669672
 30
0.0
 11
34.43247338014423
 21
1.222743533886696
 31
0.0
  0
LINE
  5
1B042
330
1B029
100
AcDbEntity
  8
0
  6
CONTINUOUS
100
AcDbLine
 10
36.23199999996837
 20
3.022270153710834
 30
0.0
 11
37.67199999996831
 21
4.462270153710775
 31
0.0
  0
LINE
  5
1B043
330
1B029
100
AcDbEntity
  8
0
  6
CONTINUOUS
100
AcDbLine
 10
33.76515245874577
 20
-0.1180965965919523
 30
0.0
 11
35.1587445516215
 21
1.27549549628378
 31
0.0
  0
LINE
  5
1B044
330
1B029
100
AcDbEntity
  8
0
  6
CONTINUOUS
100
AcDbLine
 10
36.21639478609585
 20
2.333145730758136
 30
0.0
 11
37.67199999996831
 21
3.788750944630588
 31
0.0
  0
LINE
  5
1B045
330
1B029
100
AcDbEntity
  8
0
  6
CONTINUOUS
100
AcDbLine
 10
34.34060583368432
 20
-0.2161624307335863
 30
0.0
 11
37.67199999996831
 21
3.115231735550401
 31
0.0
  0
LINE
  5
1B046
330
1B029
100
AcDbEntity
  8
0
  6
CONTINUOUS
100
AcDbLine
 10
35.01698193613905
 20
-0.2133055373590427
 30
0.0
 11
37.66876712070525
 21
2.438479647207154
 31
0.0
  0
LINE
  5
1B047
330
1B029
100
AcDbEntity
  8
0
  6
CONTINUOUS
100
AcDbLine
 10
35.90743367693304
 20
0.0036269943547609
 30
0.0
 11
37.51723902192366
 21
1.613432339345381
 31
0.0
  0
LINE
  5
1B048
330
1B029
100
AcDbEntity
  8
0
  6
CONTINUOUS
100
AcDbLine
 10
32.55309425579761
 20
0.5074718966376706
 30
0.0
 11
32.27784730925847
 21
0.7827188431768102
 31
0.0
  0
LINE
  5
1B049
330
1B029
100
AcDbEntity
  8
0
  6
CONTINUOUS
100
AcDbLine
 10
33.87496468909684
 20
-0.1408793275813673
 30
0.0
 11
31.67993083278052
 21
2.054154528734943
 31
0.0
  0
LINE
  5
1B04A
330
1B029
100
AcDbEntity
  8
0
  6
CONTINUOUS
100
AcDbLine
 10
34.64362813207632
 20
-0.2360235614806649
 30
0.0
 11
31.64199999996833
 21
2.765604570627322
 31
0.0
  0
LINE
  5
1B04B
330
1B029
100
AcDbEntity
  8
0
  6
CONTINUOUS
100
AcDbLine
 10
35.25801106796118
 20
-0.1768872882853429
 30
0.0
 11
31.64199999996833
 21
3.439123779707508
 31
0.0
  0
LINE
  5
1B04C
330
1B029
100
AcDbEntity
  8
0
  6
CONTINUOUS
100
AcDbLine
 10
35.79065650332146
 20
-0.0360135145654361
 30
0.0
 11
34.54143210838231
 21
1.213210880373721
 31
0.0
  0
LINE
  5
1B04D
330
1B029
100
AcDbEntity
  8
0
  6
CONTINUOUS
100
AcDbLine
 10
33.08199999996839
 20
2.67264298878764
 30
0.0
 11
31.64199999996833
 21
4.112642988787695
 31
0.0
  0
LINE
  5
1B04E
330
1B029
100
AcDbEntity
  8
0
  6
CONTINUOUS
100
AcDbLine
 10
36.25975597779143
 20
0.1684062200447833
 30
0.0
 11
35.15395110240023
 21
1.274211095435983
 31
0.0
  0
LINE
  5
1B04F
330
1B029
100
AcDbEntity
  8
0
  6
CONTINUOUS
100
AcDbLine
 10
33.08199999996839
 20
3.346162197867826
 30
0.0
 11
31.64199999996833
 21
4.786162197867881
 31
0.0
  0
LINE
  5
1B050
330
1B029
100
AcDbEntity
  8
0
  6
CONTINUOUS
100
AcDbLine
 10
36.67226329638774
 20
0.4294181105286579
 30
0.0
 11
35.63766478748767
 21
1.464016619428737
 31
0.0
  0
LINE
  5
1B051
330
1B029
100
AcDbEntity
  8
0
  6
CONTINUOUS
100
AcDbLine
 10
33.08199999996839
 20
4.019681406948012
 30
0.0
 11
31.64199999996833
 21
5.459681406948068
 31
0.0
  0
LINE
  5
1B052
330
1B029
100
AcDbEntity
  8
0
  6
CONTINUOUS
100
AcDbLine
 10
37.01677749710036
 20
0.7584231188962329
 30
0.0
 11
35.99563422741351
 21
1.779566388583076
 31
0.0
  0
LINE
  5
1B053
330
1B029
100
AcDbEntity
  8
0
  6
CONTINUOUS
100
AcDbLine
 10
33.08199999996839
 20
4.693200616028199
 30
0.0
 11
31.64199999996833
 21
6.133200616028255
 31
0.0
  0
LINE
  5
1B054
330
1B029
100
AcDbEntity
  8
0
  6
CONTINUOUS
100
AcDbLine
 10
37.29859977568887
 20
1.1501200493879
 30
0.0
 11
36.20680593341555
 21
2.241913891661226
 31
0.0
  0
LINE
  5
1B055
330
1B029
100
AcDbEntity
  8
0
  6
CONTINUOUS
100
AcDbLine
 10
33.08199999996839
 20
5.366719825108386
 30
0.0
 11
31.64199999996833
 21
6.80671982510844
 31
0.0
  0
LINE
  5
1B056
330
1B029
100
AcDbEntity
  8
0
  6
CONTINUOUS
100
AcDbLine
 10
37.5148623517228
 20
1.607376682434161
 30
0.0
 11
36.23199999996837
 21
2.890239034188594
 31
0.0
  0
LINE
  5
1B057
330
1B029
100
AcDbEntity
  8
0
  6
CONTINUOUS
100
AcDbLine
 10
33.08199999996839
 20
6.040239034188573
 30
0.0
 11
31.64199999996833
 21
7.480239034188627
 31
0.0
  0
LINE
  5
1B058
330
1B029
100
AcDbEntity
  8
0
  6
CONTINUOUS
100
AcDbLine
 10
37.64705163358367
 20
2.148706609653477
 30
0.0
 11
36.23199999996837
 21
3.56375824326878
 31
0.0
  0
LINE
  5
1B059
330
1B029
100
AcDbEntity
  8
0
  6
CONTINUOUS
100
AcDbLine
 10
33.08199999996839
 20
6.713758243268758
 30
0.0
 11
31.64199999996833
 21
8.153758243268815
 31
0.0
  0
LINE
  5
1B05A
330
1B029
100
AcDbEntity
  8
0
  6
CONTINUOUS
100
AcDbLine
 10
37.67199999996831
 20
2.797277452349026
 30
0.0
 11
36.23199999996837
 21
4.237277452348967
 31
0.0
  0
LINE
  5
1B05B
330
1B029
100
AcDbEntity
  8
0
  6
CONTINUOUS
100
AcDbLine
 10
37.67199999996831
 20
3.470796661429213
 30
0.0
 11
36.23199999996837
 21
4.910796661429154
 31
0.0
  0
LINE
  5
1B05C
330
1B029
100
AcDbEntity
  8
0
  6
CONTINUOUS
100
AcDbLine
 10
37.67199999996831
 20
4.144315870509399
 30
0.0
 11
36.23199999996837
 21
5.58431587050934
 31
0.0
  0
LINE
  5
1B05D
330
1B029
100
AcDbEntity
  8
0
  6
CONTINUOUS
100
AcDbLine
 10
33.08199999996839
 20
7.387277452348945
 30
0.0
 11
31.70617745232608
 21
8.763099999991255
 31
0.0
  0
LINE
  5
1B05E
330
1B029
100
AcDbEntity
  8
0
  6
CONTINUOUS
100
AcDbLine
 10
33.08199999996839
 20
8.060796661429132
 30
0.0
 11
32.37969666140626
 21
8.763099999991255
 31
0.0
  0
LINE
  5
1B05F
330
1B029
100
AcDbEntity
  8
0
  6
CONTINUOUS
100
AcDbLine
 10
33.08199999996839
 20
8.734315870509318
 30
0.0
 11
33.05321587048645
 21
8.763099999991255
 31
0.0
  0
LINE
  5
1B060
330
1B029
100
AcDbEntity
  8
0
  6
CONTINUOUS
100
AcDbLine
 10
37.67199999996831
 20
4.817835079589585
 30
0.0
 11
36.23199999996837
 21
6.257835079589526
 31
0.0
  0
LINE
  5
1B061
330
1B029
100
AcDbEntity
  8
0
  6
CONTINUOUS
100
AcDbLine
 10
37.67199999996831
 20
5.491354288669771
 30
0.0
 11
36.23199999996837
 21
6.931354288669713
 31
0.0
  0
LINE
  5
1B062
330
1B029
100
AcDbEntity
  8
0
  6
CONTINUOUS
100
AcDbLine
 10
37.67199999996831
 20
6.164873497749958
 30
0.0
 11
36.23199999996837
 21
7.6048734977499
 31
0.0
  0
LINE
  5
1B063
330
1B029
100
AcDbEntity
  8
0
  6
CONTINUOUS
100
AcDbLine
 10
37.67199999996831
 20
6.838392706830144
 30
0.0
 11
36.23199999996837
 21
8.278392706830086
 31
0.0
  0
LINE
  5
1B064
330
1B029
100
AcDbEntity
  8
0
  6
CONTINUOUS
100
AcDbLine
 10
37.67199999996831
 20
7.511911915910332
 30
0.0
 11
36.42081191588738
 21
8.763099999991255
 31
0.0
  0
LINE
  5
1B065
330
1B029
100
AcDbEntity
  8
0
  6
CONTINUOUS
100
AcDbLine
 10
37.67199999996831
 20
8.185431124990519
 30
0.0
 11
37.09433112496757
 21
8.763099999991255
 31
0.0
  0
ENDBLK
  5
1B0CD
330
1B029
100
AcDbEntity
  8
0
100
AcDbBlockEnd
  0
BLOCK
  5
1B0CE
330
1B066
100
AcDbEntity
  8
0
100
AcDbBlockBegin
  2
*X46
 70
     1
 10
0.0
 20
0.0
 30
0.0
  3
*X46
  1

  0
LINE
  5
1B067
330
1B066
100
AcDbEntity
  8
0
  6
CONTINUOUS
100
AcDbLine
 10
38.60499999996136
 20
8.762866199104765
 30
0.0
 11
38.71672554182345
 21
8.874591740966855
 31
0.0
  0
LINE
  5
1B068
330
1B066
100
AcDbEntity
  8
0
  6
CONTINUOUS
100
AcDbLine
 10
38.60499999996136
 20
8.089346990024577
 30
0.0
 11
39.03418785440363
 21
8.518534844466847
 31
0.0
  0
LINE
  5
1B069
330
1B066
100
AcDbEntity
  8
0
  6
CONTINUOUS
100
AcDbLine
 10
38.60499999996136
 20
7.41582778094439
 30
0.0
 11
39.35165016698382
 21
8.16247794796684
 31
0.0
  0
LINE
  5
1B06A
330
1B066
100
AcDbEntity
  8
0
  6
CONTINUOUS
100
AcDbLine
 10
38.60499999996136
 20
6.742308571864204
 30
0.0
 11
39.66911247956399
 21
7.806421051466834
 31
0.0
  0
LINE
  5
1B06B
330
1B066
100
AcDbEntity
  8
0
  6
CONTINUOUS
100
AcDbLine
 10
38.60499999996136
 20
6.068789362784018
 30
0.0
 11
39.98657479214418
 21
7.450364154966827
 31
0.0
  0
LINE
  5
1B06C
330
1B066
100
AcDbEntity
  8
0
  6
CONTINUOUS
100
AcDbLine
 10
38.60499999996136
 20
5.395270153703832
 30
0.0
 11
40.30403710472435
 21
7.09430725846682
 31
0.0
  0
LINE
  5
1B06D
330
1B066
100
AcDbEntity
  8
0
  6
CONTINUOUS
100
AcDbLine
 10
38.60499999996136
 20
4.721750944623645
 30
0.0
 11
40.62149941730453
 21
6.738250361966813
 31
0.0
  0
LINE
  5
1B06E
330
1B066
100
AcDbEntity
  8
0
  6
CONTINUOUS
100
AcDbLine
 10
38.60499999996136
 20
4.048231735543458
 30
0.0
 11
40.93896172988471
 21
6.382193465466806
 31
0.0
  0
LINE
  5
1B06F
330
1B066
100
AcDbEntity
  8
0
  6
CONTINUOUS
100
AcDbLine
 10
38.60499999996136
 20
3.374712526463272
 30
0.0
 11
40.02599999995994
 21
4.795712526461843
 31
0.0
  0
LINE
  5
1B070
330
1B066
100
AcDbEntity
  8
0
  6
CONTINUOUS
100
AcDbLine
 10
38.60499999996136
 20
2.701193317383085
 30
0.0
 11
40.02599999995994
 21
4.122193317381657
 31
0.0
  0
LINE
  5
1B071
330
1B066
100
AcDbEntity
  8
0
  6
CONTINUOUS
100
AcDbLine
 10
40.28339754687704
 20
5.053110073378947
 30
0.0
 11
41.25642404246489
 21
6.026136568966799
 31
0.0
  0
LINE
  5
1B072
330
1B066
100
AcDbEntity
  8
0
  6
CONTINUOUS
100
AcDbLine
 10
40.60085985945722
 20
4.697053176878939
 30
0.0
 11
41.57388635504507
 21
5.670079672466793
 31
0.0
  0
LINE
  5
1B073
330
1B066
100
AcDbEntity
  8
0
  6
CONTINUOUS
100
AcDbLine
 10
43.57899999995641
 20
8.348712526458318
 30
0.0
 11
43.99338747348935
 21
8.763099999991255
 31
0.0
  0
LINE
  5
1B074
330
1B066
100
AcDbEntity
  8
0
  6
CONTINUOUS
100
AcDbLine
 10
43.57899999995641
 20
7.675193317378131
 30
0.0
 11
44.66690668256953
 21
8.763099999991255
 31
0.0
  0
LINE
  5
1B075
330
1B066
100
AcDbEntity
  8
0
  6
CONTINUOUS
100
AcDbLine
 10
38.60499999996136
 20
2.027674108302898
 30
0.0
 11
40.02599999995994
 21
3.44867410830147
 31
0.0
  0
LINE
  5
1B076
330
1B066
100
AcDbEntity
  8
0
  6
CONTINUOUS
100
AcDbLine
 10
38.60499999996136
 20
1.354154899222712
 30
0.0
 11
40.02599999995994
 21
2.775154899221284
 31
0.0
  0
LINE
  5
1B077
330
1B066
100
AcDbEntity
  8
0
  6
CONTINUOUS
100
AcDbLine
 10
38.60499999996136
 20
0.6806356901425255
 30
0.0
 11
40.02599999995994
 21
2.101635690141098
 31
0.0
  0
LINE
  5
1B078
330
1B066
100
AcDbEntity
  8
0
  6
CONTINUOUS
100
AcDbLine
 10
38.60499999996136
 20
0.0071164810623383
 30
0.0
 11
40.02599999995994
 21
1.428116481060911
 31
0.0
  0
LINE
  5
1B079
330
1B066
100
AcDbEntity
  8
0
  6
CONTINUOUS
100
AcDbLine
 10
40.9183221720374
 20
4.340996280378933
 30
0.0
 11
41.89134866762525
 21
5.314022775966786
 31
0.0
  0
LINE
  5
1B07A
330
1B066
100
AcDbEntity
  8
0
  6
CONTINUOUS
100
AcDbLine
 10
41.23578448461758
 20
3.984939383878926
 30
0.0
 11
42.20881098020543
 21
4.957965879466778
 31
0.0
  0
LINE
  5
1B07B
330
1B066
100
AcDbEntity
  8
0
  6
CONTINUOUS
100
AcDbLine
 10
41.55324679719776
 20
3.628882487378919
 30
0.0
 11
42.52627329278561
 21
4.601908982966772
 31
0.0
  0
LINE
  5
1B07C
330
1B066
100
AcDbEntity
  8
0
  6
CONTINUOUS
100
AcDbLine
 10
41.87070910977793
 20
3.272825590878912
 30
0.0
 11
42.84373560536579
 21
4.245852086466765
 31
0.0
  0
LINE
  5
1B07D
330
1B066
100
AcDbEntity
  8
0
  6
CONTINUOUS
100
AcDbLine
 10
43.57899999995641
 20
7.001674108297943
 30
0.0
 11
44.99999999995498
 21
8.422674108296516
 31
0.0
  0
LINE
  5
1B07E
330
1B066
100
AcDbEntity
  8
0
  6
CONTINUOUS
100
AcDbLine
 10
43.57899999995641
 20
6.328154899217758
 30
0.0
 11
44.99999999995498
 21
7.749154899216329
 31
0.0
  0
LINE
  5
1B07F
330
1B066
100
AcDbEntity
  8
0
  6
CONTINUOUS
100
AcDbLine
 10
43.57899999995641
 20
5.654635690137571
 30
0.0
 11
44.99999999995498
 21
7.075635690136142
 31
0.0
  0
LINE
  5
1B080
330
1B066
100
AcDbEntity
  8
0
  6
CONTINUOUS
100
AcDbLine
 10
43.57899999995641
 20
4.981116481057384
 30
0.0
 11
44.99999999995498
 21
6.402116481055955
 31
0.0
  0
LINE
  5
1B081
330
1B066
100
AcDbEntity
  8
0
  6
CONTINUOUS
100
AcDbLine
 10
39.27140272797921
 20
-0.0000000000000009
 30
0.0
 11
40.02599999995994
 21
0.7545972719807246
 31
0.0
  0
LINE
  5
1B082
330
1B066
100
AcDbEntity
  8
0
  6
CONTINUOUS
100
AcDbLine
 10
39.9449219370594
 20
-0.0000000000000009
 30
0.0
 11
40.02599999995994
 21
0.0810780629005379
 31
0.0
  0
LINE
  5
1B083
330
1B066
100
AcDbEntity
  8
0
  6
CONTINUOUS
100
AcDbLine
 10
42.18817142235812
 20
2.916768694378905
 30
0.0
 11
43.16119791794597
 21
3.889795189966758
 31
0.0
  0
LINE
  5
1B084
330
1B066
100
AcDbEntity
  8
0
  6
CONTINUOUS
100
AcDbLine
 10
42.50563373493829
 20
2.560711797878898
 30
0.0
 11
43.47866023052615
 21
3.533738293466751
 31
0.0
  0
LINE
  5
1B085
330
1B066
100
AcDbEntity
  8
0
  6
CONTINUOUS
100
AcDbLine
 10
43.57899999995641
 20
4.307597271977198
 30
0.0
 11
44.99999999995498
 21
5.728597271975769
 31
0.0
  0
LINE
  5
1B086
330
1B066
100
AcDbEntity
  8
0
  6
CONTINUOUS
100
AcDbLine
 10
43.57899999995641
 20
3.634078062897011
 30
0.0
 11
44.99999999995498
 21
5.055078062895582
 31
0.0
  0
LINE
  5
1B087
330
1B066
100
AcDbEntity
  8
0
  6
CONTINUOUS
100
AcDbLine
 10
42.82309604751848
 20
2.204654901378891
 30
0.0
 11
44.99999999995498
 21
4.381558853815395
 31
0.0
  0
LINE
  5
1B088
330
1B066
100
AcDbEntity
  8
0
  6
CONTINUOUS
100
AcDbLine
 10
43.14055836009865
 20
1.848598004878885
 30
0.0
 11
44.99999999995498
 21
3.70803964473521
 31
0.0
  0
LINE
  5
1B089
330
1B066
100
AcDbEntity
  8
0
  6
CONTINUOUS
100
AcDbLine
 10
43.45802067267883
 20
1.492541108378878
 30
0.0
 11
44.99999999995498
 21
3.034520435655023
 31
0.0
  0
LINE
  5
1B08A
330
1B066
100
AcDbEntity
  8
0
  6
CONTINUOUS
100
AcDbLine
 10
43.77548298525902
 20
1.136484211878871
 30
0.0
 11
44.99999999995498
 21
2.361001226574837
 31
0.0
  0
LINE
  5
1B08B
330
1B066
100
AcDbEntity
  8
0
  6
CONTINUOUS
100
AcDbLine
 10
44.09294529783919
 20
0.7804273153788639
 30
0.0
 11
44.99999999995498
 21
1.687482017494649
 31
0.0
  0
LINE
  5
1B08C
330
1B066
100
AcDbEntity
  8
0
  6
CONTINUOUS
100
AcDbLine
 10
44.41040761041938
 20
0.4243704188788566
 30
0.0
 11
44.99999999995498
 21
1.013962808414463
 31
0.0
  0
LINE
  5
1B08D
330
1B066
100
AcDbEntity
  8
0
  6
CONTINUOUS
100
AcDbLine
 10
44.72786992299955
 20
0.0683135223788494
 30
0.0
 11
44.99999999995498
 21
0.340443599334276
 31
0.0
  0
LINE
  5
1B08E
330
1B066
100
AcDbEntity
  8
0
  6
CONTINUOUS
100
AcDbLine
 10
39.12223903415696
 20
-0.0000000000000009
 30
0.0
 11
38.60499999996136
 21
0.5172390341955961
 31
0.0
  0
LINE
  5
1B08F
330
1B066
100
AcDbEntity
  8
0
  6
CONTINUOUS
100
AcDbLine
 10
39.79575824323715
 20
-0.0000000000000009
 30
0.0
 11
38.60499999996136
 21
1.190758243275783
 31
0.0
  0
LINE
  5
1B090
330
1B066
100
AcDbEntity
  8
0
  6
CONTINUOUS
100
AcDbLine
 10
40.02599999995994
 20
0.443277452357397
 30
0.0
 11
38.60499999996136
 21
1.864277452355969
 31
0.0
  0
LINE
  5
1B091
330
1B066
100
AcDbEntity
  8
0
  6
CONTINUOUS
100
AcDbLine
 10
40.02599999995994
 20
1.116796661437583
 30
0.0
 11
38.60499999996136
 21
2.537796661436155
 31
0.0
  0
LINE
  5
1B092
330
1B066
100
AcDbEntity
  8
0
  6
CONTINUOUS
100
AcDbLine
 10
40.02599999995994
 20
1.79031587051777
 30
0.0
 11
38.60499999996136
 21
3.211315870516341
 31
0.0
  0
LINE
  5
1B093
330
1B066
100
AcDbEntity
  8
0
  6
CONTINUOUS
100
AcDbLine
 10
40.02599999995994
 20
2.463835079597956
 30
0.0
 11
38.60499999996136
 21
3.884835079596527
 31
0.0
  0
LINE
  5
1B094
330
1B066
100
AcDbEntity
  8
0
  6
CONTINUOUS
100
AcDbLine
 10
40.02599999995994
 20
3.137354288678143
 30
0.0
 11
38.60499999996136
 21
4.558354288676714
 31
0.0
  0
LINE
  5
1B095
330
1B066
100
AcDbEntity
  8
0
  6
CONTINUOUS
100
AcDbLine
 10
40.02599999995994
 20
3.810873497758329
 30
0.0
 11
38.60499999996136
 21
5.2318734977569
 31
0.0
  0
LINE
  5
1B096
330
1B066
100
AcDbEntity
  8
0
  6
CONTINUOUS
100
AcDbLine
 10
40.02599999995994
 20
4.484392706838515
 30
0.0
 11
38.60499999996136
 21
5.905392706837086
 31
0.0
  0
LINE
  5
1B097
330
1B066
100
AcDbEntity
  8
0
  6
CONTINUOUS
100
AcDbLine
 10
44.99999999995498
 20
0.183911915923658
 30
0.0
 11
41.53858364506288
 21
3.64532827081576
 31
0.0
  0
LINE
  5
1B098
330
1B066
100
AcDbEntity
  8
0
  6
CONTINUOUS
100
AcDbLine
 10
40.02599999995994
 20
5.157911915918703
 30
0.0
 11
38.60499999996136
 21
6.578911915917274
 31
0.0
  0
LINE
  5
1B099
330
1B066
100
AcDbEntity
  8
0
  6
CONTINUOUS
100
AcDbLine
 10
44.99999999995498
 20
0.8574311250038447
 30
0.0
 11
38.60499999996136
 21
7.25243112499746
 31
0.0
  0
LINE
  5
1B09A
330
1B066
100
AcDbEntity
  8
0
  6
CONTINUOUS
100
AcDbLine
 10
44.99999999995498
 20
1.530950334084031
 30
0.0
 11
38.60499999996136
 21
7.925950334077647
 31
0.0
  0
LINE
  5
1B09B
330
1B066
100
AcDbEntity
  8
0
  6
CONTINUOUS
100
AcDbLine
 10
44.99999999995498
 20
2.204469543164218
 30
0.0
 11
43.57899999995641
 21
3.625469543162789
 31
0.0
  0
LINE
  5
1B09C
330
1B066
100
AcDbEntity
  8
0
  6
CONTINUOUS
100
AcDbLine
 10
41.89876730984767
 20
5.305702233271528
 30
0.0
 11
38.60499999996136
 21
8.599469543157834
 31
0.0
  0
LINE
  5
1B09D
330
1B066
100
AcDbEntity
  8
0
  6
CONTINUOUS
100
AcDbLine
 10
44.99999999995498
 20
2.877988752244405
 30
0.0
 11
43.57899999995641
 21
4.298988752242975
 31
0.0
  0
LINE
  5
1B09E
330
1B066
100
AcDbEntity
  8
0
  6
CONTINUOUS
100
AcDbLine
 10
44.99999999995498
 20
3.551507961324591
 30
0.0
 11
43.57899999995641
 21
4.972507961323163
 31
0.0
  0
LINE
  5
1B09F
330
1B066
100
AcDbEntity
  8
0
  6
CONTINUOUS
100
AcDbLine
 10
44.99999999995498
 20
4.225027170404777
 30
0.0
 11
43.57899999995641
 21
5.646027170403348
 31
0.0
  0
LINE
  5
1B0A0
330
1B066
100
AcDbEntity
  8
0
  6
CONTINUOUS
100
AcDbLine
 10
44.99999999995498
 20
4.898546379484964
 30
0.0
 11
43.57899999995641
 21
6.319546379483535
 31
0.0
  0
LINE
  5
1B0A1
330
1B066
100
AcDbEntity
  8
0
  6
CONTINUOUS
100
AcDbLine
 10
44.99999999995498
 20
5.572065588565151
 30
0.0
 11
43.57899999995641
 21
6.993065588563722
 31
0.0
  0
LINE
  5
1B0A2
330
1B066
100
AcDbEntity
  8
0
  6
CONTINUOUS
100
AcDbLine
 10
44.99999999995498
 20
6.245584797645336
 30
0.0
 11
43.57899999995641
 21
7.666584797643908
 31
0.0
  0
LINE
  5
1B0A3
330
1B066
100
AcDbEntity
  8
0
  6
CONTINUOUS
100
AcDbLine
 10
44.99999999995498
 20
6.919104006725522
 30
0.0
 11
43.57899999995641
 21
8.340104006724093
 31
0.0
  0
LINE
  5
1B0A4
330
1B066
100
AcDbEntity
  8
0
  6
CONTINUOUS
100
AcDbLine
 10
44.99999999995498
 20
7.592623215805709
 30
0.0
 11
43.82952321576943
 21
8.763099999991255
 31
0.0
  0
LINE
  5
1B0A5
330
1B066
100
AcDbEntity
  8
0
  6
CONTINUOUS
100
AcDbLine
 10
44.99999999995498
 20
8.266142424885896
 30
0.0
 11
44.50304242484962
 21
8.763099999991255
 31
0.0
  0
ENDBLK
  5
1B0CF
330
1B066
100
AcDbEntity
  8
0
100
AcDbBlockEnd
  0
BLOCK
  5
1B0D0
330
1B0A6
100
AcDbEntity
  8
0
100
AcDbBlockBegin
  2
*X47
 70
     1
 10
0.0
 20
0.0
 30
0.0
  3
*X47
  1

  0
LINE
  5
1B0A7
330
1B0A6
100
AcDbEntity
  8
0
  6
CONTINUOUS
100
AcDbLine
 10
0.0
 20
8.548461116714023
 30
0.0
 11
0.2146388832772324
 21
8.763099999991255
 31
0.0
  0
LINE
  5
1B0A8
330
1B0A6
100
AcDbEntity
  8
0
  6
CONTINUOUS
100
AcDbLine
 10
-0.0000000000000002
 20
7.874941907633837
 30
0.0
 11
0.8881580923574184
 21
8.763099999991255
 31
0.0
  0
LINE
  5
1B0A9
330
1B0A6
100
AcDbEntity
  8
0
  6
CONTINUOUS
100
AcDbLine
 10
0.0
 20
7.20142269855365
 30
0.0
 11
1.420999999998572
 21
8.622422698552223
 31
0.0
  0
LINE
  5
1B0AA
330
1B0A6
100
AcDbEntity
  8
0
  6
CONTINUOUS
100
AcDbLine
 10
-0.0000000000000001
 20
6.527903489473465
 30
0.0
 11
1.420999999998571
 21
7.948903489472036
 31
0.0
  0
LINE
  5
1B0AB
330
1B0A6
100
AcDbEntity
  8
0
  6
CONTINUOUS
100
AcDbLine
 10
-0.0000000000000002
 20
5.854384280393278
 30
0.0
 11
1.420999999998571
 21
7.275384280391849
 31
0.0
  0
LINE
  5
1B0AC
330
1B0A6
100
AcDbEntity
  8
0
  6
CONTINUOUS
100
AcDbLine
 10
-0.0000000000000002
 20
5.180865071313091
 30
0.0
 11
1.420999999998571
 21
6.601865071311663
 31
0.0
  0
LINE
  5
1B0AD
330
1B0A6
100
AcDbEntity
  8
0
  6
CONTINUOUS
100
AcDbLine
 10
0.0
 20
4.507345862232905
 30
0.0
 11
1.420999999998571
 21
5.928345862231477
 31
0.0
  0
LINE
  5
1B0AE
330
1B0A6
100
AcDbEntity
  8
0
  6
CONTINUOUS
100
AcDbLine
 10
-0.0000000000000003
 20
3.833826653152718
 30
0.0
 11
1.420999999998571
 21
5.25482665315129
 31
0.0
  0
LINE
  5
1B0AF
330
1B0A6
100
AcDbEntity
  8
0
  6
CONTINUOUS
100
AcDbLine
 10
-0.0000000000000002
 20
3.160307444072532
 30
0.0
 11
1.420999999998571
 21
4.581307444071103
 31
0.0
  0
LINE
  5
1B0B0
330
1B0A6
100
AcDbEntity
  8
0
  6
CONTINUOUS
100
AcDbLine
 10
-0.0000000000000001
 20
2.486788234992345
 30
0.0
 11
1.420999999998571
 21
3.907788234990917
 31
0.0
  0
LINE
  5
1B0B1
330
1B0A6
100
AcDbEntity
  8
0
  6
CONTINUOUS
100
AcDbLine
 10
-0.0000000000000006
 20
1.813269025912159
 30
0.0
 11
1.420999999998571
 21
3.234269025910731
 31
0.0
  0
LINE
  5
1B0B2
330
1B0A6
100
AcDbEntity
  8
0
  6
CONTINUOUS
100
AcDbLine
 10
0.0
 20
1.139749816831973
 30
0.0
 11
1.420999999998571
 21
2.560749816830544
 31
0.0
  0
LINE
  5
1B0B3
330
1B0A6
100
AcDbEntity
  8
0
  6
CONTINUOUS
100
AcDbLine
 10
0.0000000000000002
 20
0.466230607751787
 30
0.0
 11
1.420999999998571
 21
1.887230607750358
 31
0.0
  0
LINE
  5
1B0B4
330
1B0A6
100
AcDbEntity
  8
0
  6
CONTINUOUS
100
AcDbLine
 10
0.2072886013284003
 20
-0.0000000000000009
 30
0.0
 11
1.420999999998571
 21
1.213711398670171
 31
0.0
  0
LINE
  5
1B0B5
330
1B0A6
100
AcDbEntity
  8
0
  6
CONTINUOUS
100
AcDbLine
 10
0.8808078104085864
 20
-0.0000000000000009
 30
0.0
 11
1.420999999998571
 21
0.5401921895899839
 31
0.0
  0
LINE
  5
1B0B6
330
1B0A6
100
AcDbEntity
  8
0
  6
CONTINUOUS
100
AcDbLine
 10
0.0581249075061505
 20
-0.0000000000000009
 30
0.0
 11
-0.0000000000000002
 21
0.0581249075061496
 31
0.0
  0
LINE
  5
1B0B7
330
1B0A6
100
AcDbEntity
  8
0
  6
CONTINUOUS
100
AcDbLine
 10
0.7316441165863372
 20
-0.0000000000000009
 30
0.0
 11
-0.0000000000000002
 21
0.7316441165863363
 31
0.0
  0
LINE
  5
1B0B8
330
1B0A6
100
AcDbEntity
  8
0
  6
CONTINUOUS
100
AcDbLine
 10
1.405163325666523
 20
-0.0000000000000009
 30
0.0
 11
-0.0000000000000002
 21
1.405163325666523
 31
0.0
  0
LINE
  5
1B0B9
330
1B0A6
100
AcDbEntity
  8
0
  6
CONTINUOUS
100
AcDbLine
 10
1.420999999998572
 20
0.6576825347481381
 30
0.0
 11
-0.0000000000000001
 21
2.07868253474671
 31
0.0
  0
LINE
  5
1B0BA
330
1B0A6
100
AcDbEntity
  8
0
  6
CONTINUOUS
100
AcDbLine
 10
1.420999999998571
 20
1.331201743828324
 30
0.0
 11
-0.0000000000000001
 21
2.752201743826896
 31
0.0
  0
LINE
  5
1B0BB
330
1B0A6
100
AcDbEntity
  8
0
  6
CONTINUOUS
100
AcDbLine
 10
1.420999999998571
 20
2.004720952908511
 30
0.0
 11
-0.0000000000000002
 21
3.425720952907082
 31
0.0
  0
LINE
  5
1B0BC
330
1B0A6
100
AcDbEntity
  8
0
  6
CONTINUOUS
100
AcDbLine
 10
1.420999999998571
 20
2.678240161988697
 30
0.0
 11
-0.0000000000000001
 21
4.099240161987269
 31
0.0
  0
LINE
  5
1B0BD
330
1B0A6
100
AcDbEntity
  8
0
  6
CONTINUOUS
100
AcDbLine
 10
1.420999999998572
 20
3.351759371068884
 30
0.0
 11
0.0
 21
4.772759371067455
 31
0.0
  0
LINE
  5
1B0BE
330
1B0A6
100
AcDbEntity
  8
0
  6
CONTINUOUS
100
AcDbLine
 10
1.420999999998571
 20
4.02527858014907
 30
0.0
 11
-0.0000000000000003
 21
5.446278580147642
 31
0.0
  0
LINE
  5
1B0BF
330
1B0A6
100
AcDbEntity
  8
0
  6
CONTINUOUS
100
AcDbLine
 10
1.420999999998571
 20
4.698797789229257
 30
0.0
 11
0.0
 21
6.119797789227828
 31
0.0
  0
LINE
  5
1B0C0
330
1B0A6
100
AcDbEntity
  8
0
  6
CONTINUOUS
100
AcDbLine
 10
1.420999999998571
 20
5.372316998309444
 30
0.0
 11
-0.0000000000000001
 21
6.793316998308015
 31
0.0
  0
LINE
  5
1B0C1
330
1B0A6
100
AcDbEntity
  8
0
  6
CONTINUOUS
100
AcDbLine
 10
1.420999999998572
 20
6.045836207389629
 30
0.0
 11
-0.0000000000000004
 21
7.466836207388202
 31
0.0
  0
LINE
  5
1B0C2
330
1B0A6
100
AcDbEntity
  8
0
  6
CONTINUOUS
100
AcDbLine
 10
1.420999999998571
 20
6.719355416469816
 30
0.0
 11
0.0
 21
8.140355416468388
 31
0.0
  0
LINE
  5
1B0C3
330
1B0A6
100
AcDbEntity
  8
0
  6
CONTINUOUS
100
AcDbLine
 10
1.420999999998571
 20
7.392874625550003
 30
0.0
 11
0.0507746255573185
 21
8.763099999991255
 31
0.0
  0
LINE
  5
1B0C4
330
1B0A6
100
AcDbEntity
  8
0
  6
CONTINUOUS
100
AcDbLine
 10
1.420999999998571
 20
8.06639383463019
 30
0.0
 11
0.7242938346375052
 21
8.763099999991255
 31
0.0
  0
LINE
  5
1B0C5
330
1B0A6
100
AcDbEntity
  8
0
  6
CONTINUOUS
100
AcDbLine
 10
1.420999999998571
 20
8.739913043710375
 30
0.0
 11
1.397813043717691
 21
8.763099999991255
 31
0.0
  0
ENDBLK
  5
1B0D1
330
1B0A6
100
AcDbEntity
  8
0
100
AcDbBlockEnd
  0
ENDSEC
  0
SECTION
  2
ENTITIES
  0
LINE
  5
1AB5A
330
18
100
AcDbEntity
  8
01
100
AcDbLine
 10
2886.854099969706
 20
-26.38424197869381
 30
0.0000000001127424
 11
2900.854099969706
 21
-26.38424197869381
 31
0.0000000001127424
  0
LINE
  5
1AB5B
330
18
100
AcDbEntity
  8
01
100
AcDbLine
 10
2891.854984151766
 20
185.6157580202776
 30
0.0000000001127424
 11
3045.609364306799
 21
185.6157580202776
 31
0.0000000001127424
  0
LINE
  5
1AB5C
330
18
100
AcDbEntity
  8
01
  6
BYBLOCK
100
AcDbLine
 10
2891.854984151766
 20
185.6157580202776
 30
0.0000000001127424
 11
2891.854984151766
 21
145.6157580202776
 31
0.0000000001127424
  0
LINE
  5
1AB60
330
18
100
AcDbEntity
  8
01
100
AcDbLine
 10
2942.854099969704
 20
180.6157580192489
 30
0.0000000001127424
 11
2942.854099969704
 21
211.5338382084979
 31
0.0000000001127424
  0
LINE
  5
1AB61
330
18
100
AcDbEntity
  8
01
100
AcDbLine
 10
2917.854099969706
 20
185.6157580202785
 30
0.0000000001127424
 11
2967.854099969706
 21
185.6157580202762
 31
0.0000000001127424
  0
LINE
  5
1AB62
330
18
100
AcDbEntity
  8
01
100
AcDbLine
 10
2918.354099969702
 20
194.1157580202785
 30
0.0000000001127424
 11
2967.354099969706
 21
194.1157580202748
 31
0.0000000001127424
  0
LINE
  5
1AB63
330
18
100
AcDbEntity
  8
01
100
AcDbLine
 10
2967.854099969706
 20
185.6157580202762
 30
0.0000000001127424
 11
2967.854099969706
 21
193.6157580202748
 31
0.0000000001127424
  0
ARC
  5
1AB64
330
18
100
AcDbEntity
  8
01
100
AcDbCircle
 10
2967.354099969706
 20
193.6157580202748
 30
0.0000000001127424
 40
0.5
100
AcDbArc
 50
0.0
 51
90.0
  0
LINE
  5
1AB65
330
18
100
AcDbEntity
  8
01
100
AcDbLine
 10
2917.854099969706
 20
185.6157580202785
 30
0.0000000001127424
 11
2917.854099969702
 21
193.615758020278
 31
0.0000000001127424
  0
ARC
  5
1AB66
330
18
100
AcDbEntity
  8
01
100
AcDbCircle
 10
2918.354099969702
 20
193.6157580202785
 30
0.0000000001127424
 40
0.5
100
AcDbArc
 50
90.0
 51
180.0
  0
LINE
  5
1AB67
330
18
100
AcDbEntity
  8
01
  6
BYBLOCK
100
AcDbLine
 10
2893.354099969706
 20
-18.48424197869372
 30
0.0000000001127424
 11
2893.354099969706
 21
-148.2842419786937
 31
0.0000000001127424
  0
LINE
  5
1AB68
330
18
100
AcDbEntity
  8
01
  6
BYBLOCK
100
AcDbLine
 10
2893.354099969706
 20
-147.3842419786938
 30
0.0000000001127424
 11
2895.854099969706
 21
-147.3842419786938
 31
0.0000000001127424
  0
LINE
  5
1AB69
330
18
100
AcDbEntity
  8
01
  6
BYBLOCK
100
AcDbLine
 10
2895.854099969706
 20
-147.3842419786938
 30
0.0000000001127424
 11
2895.854099969706
 21
-130.8812982535414
 31
0.0000000001127424
  0
LINE
  5
1AB6A
330
18
100
AcDbEntity
  8
01
  6
BYBLOCK
100
AcDbLine
 10
2891.854099969706
 20
-18.48424197869372
 30
0.0000000001127424
 11
2891.854099969706
 21
-148.2842419786937
 31
0.0000000001127424
  0
LINE
  5
1AB6B
330
18
100
AcDbEntity
  8
01
  6
BYBLOCK
100
AcDbLine
 10
2891.854099969706
 20
-148.2842419786937
 30
0.0000000001127424
 11
2893.354099969706
 21
-148.2842419786937
 31
0.0000000001127424
  0
LINE
  5
1AB6C
330
18
100
AcDbEntity
  8
01
  6
BYBLOCK
100
AcDbLine
 10
2893.354099969706
 20
-19.38424197869381
 30
0.0000000001127424
 11
2895.854099969706
 21
-19.38424197869381
 31
0.0000000001127424
  0
LINE
  5
1AB6D
330
18
100
AcDbEntity
  8
01
  6
BYBLOCK
100
AcDbLine
 10
2891.854099969706
 20
-18.48424197869372
 30
0.0000000001127424
 11
2893.354099969706
 21
-18.48424197869372
 31
0.0000000001127424
  0
LINE
  5
1AB6E
330
18
100
AcDbEntity
  8
01
  6
BYBLOCK
100
AcDbLine
 10
2893.354099969706
 20
-43.38424197869381
 30
0.0000000001127424
 11
2894.554099969706
 21
-43.38424197869381
 31
0.0000000001127424
  0
LINE
  5
1AB6F
330
18
100
AcDbEntity
  8
01
  6
BYBLOCK
100
AcDbLine
 10
2894.554099969706
 20
-37.68424197869354
 30
0.0000000001127424
 11
2894.554099969706
 21
-129.0842419786936
 31
0.0000000001127424
  0
LINE
  5
1AB70
330
18
100
AcDbEntity
  8
01
  6
BYBLOCK
100
AcDbLine
 10
2894.654099969706
 20
-147.3842419786938
 30
0.0000000001127424
 11
2894.654099969706
 21
-130.7842419786937
 31
0.0000000001127424
  0
LINE
  5
1AB71
330
18
100
AcDbEntity
  8
01
  6
BYBLOCK
100
AcDbLine
 10
2894.654099969706
 20
-130.7842419786937
 30
0.0000000001127424
 11
2893.705571832282
 21
-129.8357138412698
 31
0.0000000001127424
  0
LINE
  5
1AB72
330
18
100
AcDbEntity
  8
01
  6
BYBLOCK
100
AcDbLine
 10
2895.50262810713
 20
-130.0327701161175
 30
0.0000000001127424
 11
2894.554099969706
 21
-129.0842419786936
 31
0.0000000001127424
  0
ARC
  5
1AB73
330
18
100
AcDbEntity
  8
01
  6
BYBLOCK
100
AcDbCircle
 10
2894.654099969706
 20
-130.8812982535414
 30
0.0000000001127424
 40
1.2
100
AcDbArc
 50
0.0
 51
45.00000000005527
  0
ARC
  5
1AB74
330
18
100
AcDbEntity
  8
01
  6
BYBLOCK
100
AcDbCircle
 10
2894.554099969706
 20
-128.9871857038459
 30
0.0000000001127424
 40
1.2
100
AcDbArc
 50
180.0
 51
225.0000000000553
  0
LINE
  5
1AB75
330
18
100
AcDbEntity
  8
01
  6
BYBLOCK
100
AcDbLine
 10
2895.854099969706
 20
-19.38424197869381
 30
0.0000000001127424
 11
2895.854099969706
 21
-35.88718570384594
 31
0.0000000001127424
  0
LINE
  5
1AB76
330
18
100
AcDbEntity
  8
01
  6
BYBLOCK
100
AcDbLine
 10
2894.654099969706
 20
-19.38424197869381
 30
0.0000000001127424
 11
2894.654099969706
 21
-35.98424197869372
 31
0.0000000001127424
  0
LINE
  5
1AB77
330
18
100
AcDbEntity
  8
01
  6
BYBLOCK
100
AcDbLine
 10
2894.654099969706
 20
-35.98424197869372
 30
0.0000000001127424
 11
2893.705571832282
 21
-36.93277011611758
 31
0.0000000001127424
  0
LINE
  5
1AB78
330
18
100
AcDbEntity
  8
01
  6
BYBLOCK
100
AcDbLine
 10
2895.50262810713
 20
-36.7357138412699
 30
0.0000000001127424
 11
2894.554099969706
 21
-37.68424197869376
 31
0.0000000001127424
  0
ARC
  5
1AB79
330
18
100
AcDbEntity
  8
01
  6
BYBLOCK
100
AcDbCircle
 10
2894.654099969706
 20
-35.88718570384594
 30
0.0000000001127424
 40
1.2
100
AcDbArc
 50
314.9999999999447
 51
0.0
  0
ARC
  5
1AB7A
330
18
100
AcDbEntity
  8
01
  6
BYBLOCK
100
AcDbCircle
 10
2894.554099969706
 20
-37.78129825354154
 30
0.0000000001127424
 40
1.2
100
AcDbArc
 50
134.9999999999447
 51
180.0
  0
CIRCLE
  5
1AB7B
330
18
100
AcDbEntity
  8
01
  6
BYBLOCK
100
AcDbCircle
 10
2942.854099969706
 20
-54.38424197869381
 30
0.0000000001127424
 40
4.75
  0
LINE
  5
1AB7C
330
18
100
AcDbEntity
  8
01
  6
BYBLOCK
100
AcDbLine
 10
2894.554099969706
 20
-120.384241978694
 30
0.0000000001127424
 11
2923.644727257407
 21
-120.3842419786938
 31
0.0000000001127424
  0
ARC
  5
1AB7D
330
18
100
AcDbEntity
  8
01
  6
BYBLOCK
100
AcDbCircle
 10
2894.954984151766
 20
169.1770085632775
 30
0.0000000001127424
 40
1.6
100
AcDbArc
 50
115.944479772022
 51
180.0
  0
ARC
  5
1AB7E
330
18
100
AcDbEntity
  8
01
  6
BYBLOCK
100
AcDbCircle
 10
2894.954984151766
 20
162.0545074772776
 30
0.0000000001127424
 40
1.6
100
AcDbArc
 50
180.0
 51
244.055520227978
  0
ARC
  5
1AB7F
330
18
100
AcDbEntity
  8
01
  6
BYBLOCK
100
AcDbCircle
 10
2894.254984151766
 20
160.7770085632776
 30
0.0000000001127424
 40
1.6
100
AcDbArc
 50
0.0
 51
64.05552022797804
  0
ARC
  5
1AB80
330
18
100
AcDbEntity
  8
01
  6
BYBLOCK
100
AcDbCircle
 10
2894.254984151766
 20
170.4545074772775
 30
0.0000000001127424
 40
1.6
100
AcDbArc
 50
295.944479772022
 51
0.0
  0
LINE
  5
1AB81
330
18
100
AcDbEntity
  8
01
  6
BYBLOCK
100
AcDbLine
 10
2895.854984151766
 20
170.4545074772775
 30
0.0000000001127424
 11
2895.854984151766
 21
177.8157580202776
 31
0.0000000001127424
  0
LINE
  5
1AB82
330
18
100
AcDbEntity
  8
01
  6
BYBLOCK
100
AcDbLine
 10
2894.954984151766
 20
162.2157580202775
 30
0.0000000001127424
 11
2894.954984151766
 21
169.0157580202776
 31
0.0000000001127424
  0
LINE
  5
1AB83
330
18
100
AcDbEntity
  8
01
  6
BYBLOCK
100
AcDbLine
 10
2895.854984151766
 20
153.6157580202776
 30
0.0000000001127424
 11
2895.854984151766
 21
160.7770085632776
 31
0.0000000001127424
  0
LINE
  5
1AB84
330
18
100
AcDbEntity
  8
01
  6
BYBLOCK
100
AcDbLine
 10
2894.254984151766
 20
170.6157580202776
 30
0.0000000001127424
 11
2894.254984151767
 21
177.8157580202776
 31
0.0000000001127424
  0
LINE
  5
1AB85
330
18
100
AcDbEntity
  8
01
  6
BYBLOCK
100
AcDbLine
 10
2894.254984151766
 20
160.6157580202776
 30
0.0000000001127424
 11
2894.254984151766
 21
153.5157580202776
 31
0.0000000001127424
  0
ARC
  5
1AB86
330
18
100
AcDbEntity
  8
01
  6
BYBLOCK
100
AcDbCircle
 10
2959.254984151766
 20
173.5157580202776
 30
0.0000000001127424
 40
1.6
100
AcDbArc
 50
0.0
 51
90.0
  0
LINE
  5
1AB87
330
18
100
AcDbEntity
  8
01
  6
BYBLOCK
100
AcDbLine
 10
2893.354984151766
 20
178.0157580202776
 30
0.0000000001127424
 11
2893.354984151766
 21
153.2157580202777
 31
0.0000000001127424
  0
LINE
  5
1AB88
330
18
100
AcDbEntity
  8
01
  6
BYBLOCK
100
AcDbLine
 10
2959.254984151766
 20
175.1157580202776
 30
0.0000000001127424
 11
2895.854984151766
 21
175.1157580202776
 31
0.0000000001127424
  0
LINE
  5
1AB89
330
18
100
AcDbEntity
  8
01
  6
BYBLOCK
100
AcDbLine
 10
2959.254984151766
 20
157.9157580202775
 30
0.0000000001127424
 11
2959.254984151766
 21
175.1157580202776
 31
0.0000000001127424
  0
LINE
  5
1AB8A
330
18
100
AcDbEntity
  8
01
  6
BYBLOCK
100
AcDbLine
 10
2960.854984151766
 20
156.3157580202776
 30
0.0000000001127424
 11
2960.854984151766
 21
173.5157580202776
 31
0.0000000001127424
  0
LINE
  5
1AB8B
330
18
100
AcDbEntity
  8
01
  6
BYBLOCK
100
AcDbLine
 10
2893.354984151766
 20
177.8157580202776
 30
0.0000000001127424
 11
2895.854984151766
 21
177.8157580202776
 31
0.0000000001127424
  0
LINE
  5
1AB8C
330
18
100
AcDbEntity
  8
01
  6
BYBLOCK
100
AcDbLine
 10
2895.854984151766
 20
153.6157580202776
 30
0.0000000001127424
 11
2894.254984151766
 21
153.6157580202776
 31
0.0000000001127424
  0
LINE
  5
1AB8D
330
18
100
AcDbEntity
  8
01
  6
BYBLOCK
100
AcDbLine
 10
2894.254984151766
 20
153.5157580202776
 30
0.0000000001127424
 11
2893.354984151766
 21
153.5157580202776
 31
0.0000000001127424
  0
ARC
  5
1AB8E
330
18
100
AcDbEntity
  8
01
  6
BYBLOCK
100
AcDbCircle
 10
2890.555579079165
 20
159.9157580202782
 30
0.0000000001127424
 40
0.3000000000000051
100
AcDbArc
 50
232.8678058729389
 51
270.0
  0
LINE
  5
1AB8F
330
18
100
AcDbEntity
  8
01
  6
BYBLOCK
100
AcDbLine
 10
2891.354984151766
 20
159.6157580202782
 30
0.0000000001127424
 11
2890.555579079165
 21
159.6157580202782
 31
0.0000000001127424
  0
LINE
  5
1AB90
330
18
100
AcDbEntity
  8
01
  6
BYBLOCK
100
AcDbLine
 10
2880.954984151766
 20
169.2887468864824
 30
0.0000000001127424
 11
2880.954984151766
 21
169.1181248309333
 31
0.0000000001127424
  0
ARC
  5
1AB91
330
18
100
AcDbEntity
  8
01
  6
BYBLOCK
100
AcDbCircle
 10
2881.254984151766
 20
169.1181248309333
 30
0.0000000001127424
 40
0.3
100
AcDbArc
 50
180.0
 51
217.7405295629614
  0
ARC
  5
1AB92
330
18
100
AcDbEntity
  8
01
  6
BYBLOCK
100
AcDbCircle
 10
2920.55728475105
 20
199.5388277748741
 30
0.0000000001127424
 40
50.00000000000002
100
AcDbArc
 50
217.7405295629665
 51
232.8678058730001
  0
LINE
  5
1AB93
330
18
100
AcDbEntity
  8
01
  6
BYBLOCK
100
AcDbLine
 10
2880.754984151766
 20
170.4157580202777
 30
0.0000000001127424
 11
2880.754984151766
 21
171.1157580202776
 31
0.0000000001127424
  0
ARC
  5
1AB94
330
18
100
AcDbEntity
  8
01
  6
BYBLOCK
100
AcDbCircle
 10
2881.254984151766
 20
171.1157580202776
 30
0.0000000001127424
 40
0.5000000000000142
100
AcDbArc
 50
90.0
 51
180.0
  0
LINE
  5
1AB95
330
18
100
AcDbEntity
  8
01
  6
BYBLOCK
100
AcDbLine
 10
2891.354984151766
 20
171.6157580202776
 30
0.0000000001127424
 11
2881.254984151766
 21
171.6157580202776
 31
0.0000000001127424
  0
LINE
  5
1AB96
330
18
100
AcDbEntity
  8
01
  6
BYBLOCK
100
AcDbLine
 10
2880.754984151766
 20
170.0370783638373
 30
0.0000000001127424
 11
2880.754984151766
 21
170.4157580202777
 31
0.0000000001127424
  0
SPLINE
  5
1AB97
330
18
100
AcDbEntity
  8
01
  6
BYBLOCK
100
AcDbSpline
210
0.0
220
0.0
230
1.0
 70
     8
 71
     3
 72
     8
 73
     4
 74
     0
 42
0.0000000001
 43
0.0000000001
 40
0.0
 40
0.0
 40
0.0
 40
0.0
 40
1.0
 40
1.0
 40
1.0
 40
1.0
 10
2880.780716693031
 20
169.7604279343882
 30
0.0000000001127424
 10
2880.763248806919
 20
169.8535141302686
 30
0.0000000001127424
 10
2880.754984151766
 20
169.9467801411602
 30
0.0000000001127424
 10
2880.754984151766
 20
170.0370783638377
 30
0.0000000001127424
  0
ARC
  5
1AB98
330
18
100
AcDbEntity
  8
01
  6
BYBLOCK
100
AcDbCircle
 10
2882.254984151766
 20
170.0370783638373
 30
0.0000000001127424
 40
1.499999999999998
100
AcDbArc
 50
190.628112987605
 51
225.0000000000553
  0
LINE
  5
1AB99
330
18
100
AcDbEntity
  8
01
  6
BYBLOCK
100
AcDbLine
 10
2891.854984151766
 20
172.4657580202777
 30
0.0000000001127424
 11
2891.354984151766
 21
172.4657580202777
 31
0.0000000001127424
  0
LINE
  5
1AB9A
330
18
100
AcDbEntity
  8
01
  6
BYBLOCK
100
AcDbLine
 10
2891.354984151766
 20
158.7657580202776
 30
0.0000000001127424
 11
2891.854984151766
 21
158.7657580202776
 31
0.0000000001127424
  0
LINE
  5
1AB9B
330
18
100
AcDbEntity
  8
01
  6
BYBLOCK
100
AcDbLine
 10
2891.354984151766
 20
158.7657580202776
 30
0.0000000001127424
 11
2891.354984151766
 21
172.4657580202777
 31
0.0000000001127424
  0
LINE
  5
1AB9C
330
18
100
AcDbEntity
  8
01
  6
BYBLOCK
100
AcDbLine
 10
2891.854984151766
 20
178.0157580202776
 30
0.0000000001127424
 11
2893.354984151766
 21
178.0157580202776
 31
0.0000000001127424
  0
LINE
  5
1AB9D
330
18
100
AcDbEntity
  8
01
  6
BYBLOCK
100
AcDbLine
 10
2891.854984151766
 20
153.2157580202777
 30
0.0000000001127424
 11
2893.354984151766
 21
153.2157580202777
 31
0.0000000001127424
  0
LINE
  5
1AB9E
330
18
100
AcDbEntity
  8
01
  6
BYBLOCK
100
AcDbLine
 10
2891.854984151766
 20
153.2157580202777
 30
0.0000000001127424
 11
2891.854984151766
 21
178.0157580202776
 31
0.0000000001127424
  0
LINE
  5
1AB9F
330
18
100
AcDbEntity
  8
01
  6
BYBLOCK
100
AcDbLine
 10
2960.854984151766
 20
157.9157580202775
 30
0.0000000001127424
 11
2895.854984151766
 21
157.9157580202775
 31
0.0000000001127424
  0
LINE
  5
1ABA0
330
18
100
AcDbEntity
  8
01
  6
BYBLOCK
100
AcDbLine
 10
2960.854984151766
 20
156.3157580202776
 30
0.0000000001127424
 11
2910.454984151766
 21
156.3157580202776
 31
0.0000000001127424
  0
LINE
  5
1ABA1
330
18
100
AcDbEntity
  8
01
  6
BYBLOCK
100
AcDbLine
 10
2913.292242451969
 20
156.3157580202776
 30
0.0000000001127424
 11
2895.854984151766
 21
156.3157580202776
 31
0.0000000001127424
  0
LINE
  5
1ABA2
330
18
100
AcDbEntity
  8
01
  6
BYBLOCK
100
AcDbLine
 10
2890.408537542359
 20
159.7622046296842
 30
0.0000000001127424
 11
2881.194323979986
 21
168.9764181920573
 31
0.0000000001127424
  0
ARC
  5
1ABA3
330
18
100
AcDbEntity
  8
01
  6
BYBLOCK
100
AcDbCircle
 10
2890.762090932953
 20
160.1157580202776
 30
0.0000000001127424
 40
0.5
100
AcDbArc
 50
224.9999999999908
 51
270.0
  0
LINE
  5
1ABA4
330
18
100
AcDbEntity
  8
01
  6
BYBLOCK
100
AcDbLine
 10
2891.354984151766
 20
159.6157580202776
 30
0.0000000001127424
 11
2890.762090932953
 21
159.6157580202776
 31
0.0000000001127424
  0
LINE
  5
1ABA6
330
18
100
AcDbEntity
  8
01
  6
BYBLOCK
100
AcDbLine
 10
2939.247855385654
 20
-54.38424197869381
 30
0.0000000001127424
 11
2942.854099969706
 21
-50.7779973946424
 31
0.0000000001127424
  0
LINE
  5
1ABA7
330
18
100
AcDbEntity
  8
01
  6
BYBLOCK
100
AcDbLine
 10
2946.460344553758
 20
-54.38424197869381
 30
0.0000000001127424
 11
2942.854099969706
 21
-50.7779973946424
 31
0.0000000001127424
  0
LINE
  5
1ABA8
330
18
100
AcDbEntity
  8
01
  6
BYBLOCK
100
AcDbLine
 10
2939.247855385654
 20
-54.38424197869381
 30
0.0000000001127424
 11
2942.854099969706
 21
-57.99048656274499
 31
0.0000000001127424
  0
LINE
  5
1ABA9
330
18
100
AcDbEntity
  8
01
  6
BYBLOCK
100
AcDbLine
 10
2946.460344553758
 20
-54.38424197869381
 30
0.0000000001127424
 11
2942.854099969706
 21
-57.99048656274499
 31
0.0000000001127424
  0
LINE
  5
1ABAA
330
18
100
AcDbEntity
  8
01
  6
BYBLOCK
100
AcDbLine
 10
2880.854099969706
 20
-73.35257171167768
 30
0.0000000001127424
 11
2880.854099969706
 21
-91.41591224568356
 31
0.0000000001127424
  0
LINE
  5
1ABAB
330
18
100
AcDbEntity
  8
01
  6
BYBLOCK
100
AcDbLine
 10
2885.146993188519
 20
-72.38424197868062
 30
0.0000000001127424
 11
2891.854099969706
 21
-72.38424197868062
 31
0.0000000001127424
  0
LINE
  5
1ABAC
330
18
100
AcDbEntity
  8
01
  6
BYBLOCK
100
AcDbLine
 10
2885.146993188519
 20
-92.38424197868062
 30
0.0000000001127424
 11
2891.854099969706
 21
-92.38424197868062
 31
0.0000000001127424
  0
LINE
  5
1ABAD
330
18
100
AcDbEntity
  8
01
  6
BYBLOCK
100
AcDbLine
 10
2890.64699318852
 20
-77.13424197868062
 30
0.0000000001127424
 11
2890.646993188519
 21
-87.63424197868062
 31
0.0000000001127424
  0
ARC
  5
1ABAE
330
18
100
AcDbEntity
  8
01
  6
BYBLOCK
100
AcDbCircle
 10
2885.146993188519
 20
-82.38424197868062
 30
0.0000000001127424
 40
10.00000000000009
100
AcDbArc
 50
53.13010235413383
 51
115.4224671781395
  0
ARC
  5
1ABAF
330
18
100
AcDbEntity
  8
01
  6
BYBLOCK
100
AcDbCircle
 10
2885.146993188519
 20
-82.3842419786804
 30
0.0000000001127424
 40
10.00000000000009
100
AcDbArc
 50
244.5775328218606
 51
306.8698976458662
  0
LINE
  5
1ABB0
330
18
100
AcDbEntity
  8
01
  6
BYBLOCK
100
AcDbLine
 10
2891.14699318852
 20
-74.38424197868062
 30
0.0000000001127424
 11
2891.14699318852
 21
-90.38424197868062
 31
0.0000000001127424
  0
LINE
  5
1ABB1
330
18
100
AcDbEntity
  8
01
  6
BYBLOCK
100
AcDbLine
 10
2880.854099969706
 20
-77.13424197868062
 30
0.0000000001127424
 11
2890.64699318852
 21
-77.13424197868062
 31
0.0000000001127424
  0
LINE
  5
1ABB2
330
18
100
AcDbEntity
  8
01
  6
BYBLOCK
100
AcDbLine
 10
2880.854099969706
 20
-87.63424197868062
 30
0.0000000001127424
 11
2890.64699318852
 21
-87.63424197868062
 31
0.0000000001127424
  0
LINE
  5
1ABB3
330
18
100
AcDbEntity
  8
01
  6
BYBLOCK
100
AcDbLine
 10
2766.454216309451
 20
-18.4842419786944
 30
0.0000000001127424
 11
2779.25421630945
 21
-18.4842419786944
 31
0.0000000001127424
  0
LINE
  5
1ABB4
330
18
100
AcDbEntity
  8
01
  6
BYBLOCK
100
AcDbLine
 10
2766.454216309451
 20
-148.2842419786944
 30
0.0000000001127424
 11
2779.25421630945
 21
-148.2842419786944
 31
0.0000000001127424
  0
LINE
  5
1ABB5
330
18
100
AcDbEntity
  8
01
  6
BYBLOCK
100
AcDbLine
 10
2760.454216309451
 20
-24.4842419786944
 30
0.0000000001127424
 11
2760.454216309451
 21
-142.2842419786944
 31
0.0000000001127424
  0
LINE
  5
1ABB6
330
18
100
AcDbEntity
  8
01
  6
BYBLOCK
100
AcDbLine
 10
2785.25421630945
 20
-24.4842419786944
 30
0.0000000001127424
 11
2785.25421630945
 21
-142.2842419786944
 31
0.0000000001127424
  0
ARC
  5
1ABB7
330
18
100
AcDbEntity
  8
01
  6
BYBLOCK
100
AcDbCircle
 10
2766.454216309451
 20
-142.2842419786944
 30
0.0000000001127424
 40
6.0
100
AcDbArc
 50
180.0
 51
270.0
  0
ARC
  5
1ABB8
330
18
100
AcDbEntity
  8
01
  6
BYBLOCK
100
AcDbCircle
 10
2779.25421630945
 20
-142.2842419786944
 30
0.0000000001127424
 40
6.0
100
AcDbArc
 50
270.0
 51
0.0
  0
ARC
  5
1ABB9
330
18
100
AcDbEntity
  8
01
  6
BYBLOCK
100
AcDbCircle
 10
2766.454216309451
 20
-24.4842419786944
 30
0.0000000001127424
 40
6.0
100
AcDbArc
 50
90.0
 51
180.0
  0
ARC
  5
1ABBA
330
18
100
AcDbEntity
  8
01
  6
BYBLOCK
100
AcDbCircle
 10
2779.25421630945
 20
-24.4842419786944
 30
0.0000000001127424
 40
6.0
100
AcDbArc
 50
0.0
 51
90.0
  0
CIRCLE
  5
1ABBB
330
18
100
AcDbEntity
  8
01
  6
BYBLOCK
100
AcDbCircle
 10
2772.854216309451
 20
-140.3842419786943
 30
0.0000000001127424
 40
2.75
  0
CIRCLE
  5
1ABBC
330
18
100
AcDbEntity
  8
01
  6
BYBLOCK
100
AcDbCircle
 10
2772.854216309451
 20
-140.3842419786943
 30
0.0000000001127424
 40
4.25
  0
CIRCLE
  5
1ABBD
330
18
100
AcDbEntity
  8
01
  6
BYBLOCK
100
AcDbCircle
 10
2772.854216309451
 20
-26.38424197869449
 30
0.0000000001127424
 40
2.75
  0
CIRCLE
  5
1ABBE
330
18
100
AcDbEntity
  8
01
  6
BYBLOCK
100
AcDbCircle
 10
2772.854216309451
 20
-26.38424197869449
 30
0.0000000001127424
 40
4.25
  0
LINE
  5
1ABBF
330
18
100
AcDbEntity
  8
1CENTER
100
AcDbLine
 10
2778.729241717357
 20
-140.3842419786945
 30
0.0000000001127424
 11
2766.979190901545
 21
-140.3842419786945
 31
0.0000000001127424
  0
LINE
  5
1ABC0
330
18
100
AcDbEntity
  8
1CENTER
100
AcDbLine
 10
2772.854216309451
 20
-134.5092165707881
 30
0.0000000001127424
 11
2772.854216309451
 21
-146.2592673866006
 31
0.0000000001127424
  0
LINE
  5
1ABC1
330
18
100
AcDbEntity
  8
1CENTER
100
AcDbLine
 10
2778.729241717357
 20
-26.38424197869449
 30
0.0000000001127424
 11
2766.979190901545
 21
-26.38424197869449
 31
0.0000000001127424
  0
LINE
  5
1ABC2
330
18
100
AcDbEntity
  8
1CENTER
100
AcDbLine
 10
2772.854216309451
 20
-20.50921657078811
 30
0.0000000001127424
 11
2772.854216309451
 21
-32.25926738660064
 31
0.0000000001127424
  0
ARC
  5
1ABC3
330
18
100
AcDbEntity
  8
01
  6
BYBLOCK
100
AcDbCircle
 10
2772.854216309451
 20
-82.38424197869426
 30
0.0000000001127424
 40
10.15
100
AcDbArc
 50
231.9925780701392
 51
308.0074219298607
  0
LINE
  5
1ABC4
330
18
100
AcDbEntity
  8
01
  6
BYBLOCK
100
AcDbLine
 10
2766.604216309451
 20
-74.38674236944144
 30
0.0000000001127424
 11
2766.604216309451
 21
-90.38174158794709
 31
0.0000000001127424
  0
LINE
  5
1ABC5
330
18
100
AcDbEntity
  8
01
  6
BYBLOCK
100
AcDbLine
 10
2779.104216309451
 20
-74.38674236944144
 30
0.0000000001127424
 11
2779.104216309451
 21
-90.38174158794709
 31
0.0000000001127424
  0
ARC
  5
1ABC6
330
18
100
AcDbEntity
  8
01
  6
BYBLOCK
100
AcDbCircle
 10
2772.854216309451
 20
-82.38424197869426
 30
0.0000000001127424
 40
10.15
100
AcDbArc
 50
51.99257807013929
 51
128.0074219298607
  0
LINE
  5
1ABC7
330
18
100
AcDbEntity
  8
01
  6
BYBLOCK
100
AcDbLine
 10
2768.354216309451
 20
-77.13424197869426
 30
0.0000000001127424
 11
2768.354216309451
 21
-87.63424197869426
 31
0.0000000001127424
  0
LINE
  5
1ABC8
330
18
100
AcDbEntity
  8
01
  6
BYBLOCK
100
AcDbLine
 10
2778.354216309451
 20
-77.13424197869426
 30
0.0000000001127424
 11
2778.354216309451
 21
-87.63424197869426
 31
0.0000000001127424
  0
LINE
  5
1ABC9
330
18
100
AcDbEntity
  8
01
  6
BYBLOCK
100
AcDbLine
 10
2768.854216309451
 20
-73.05565687697595
 30
0.0000000001127424
 11
2768.854216309451
 21
-77.13424197869449
 31
0.0000000001127424
  0
LINE
  5
1ABCA
330
18
100
AcDbEntity
  8
01
  6
BYBLOCK
100
AcDbLine
 10
2767.354216309451
 20
-77.13424197869449
 30
0.0000000001127424
 11
2767.354216309451
 21
-87.63424197869426
 31
0.0000000001127424
  0
LINE
  5
1ABCB
330
18
100
AcDbEntity
  8
01
  6
BYBLOCK
100
AcDbLine
 10
2768.854216309451
 20
-87.63424197869426
 30
0.0000000001127424
 11
2768.854216309451
 21
-91.71282708041258
 31
0.0000000001127424
  0
LINE
  5
1ABCC
330
18
100
AcDbEntity
  8
01
  6
BYBLOCK
100
AcDbLine
 10
2767.354216309451
 20
-77.13424197869426
 30
0.0000000001127424
 11
2778.354216309451
 21
-77.13424197869426
 31
0.0000000001127424
  0
LINE
  5
1ABCD
330
18
100
AcDbEntity
  8
01
  6
BYBLOCK
100
AcDbLine
 10
2767.354216309451
 20
-87.63424197869426
 30
0.0000000001127424
 11
2778.354216309451
 21
-87.63424197869426
 31
0.0000000001127424
  0
LINE
  5
1ABCF
330
18
100
AcDbEntity
  8
01
100
AcDbLine
 10
2752.854332649194
 20
15.61575802130596
 30
0.0000000001127424
 11
2752.854332649194
 21
-174.3842419786943
 31
0.0000000001127424
  0
LINE
  5
1ABD0
330
18
100
AcDbEntity
  8
01
100
AcDbLine
 10
2752.854332649194
 20
-79.38424197869426
 30
0.0000000001127424
 11
2752.854332649194
 21
-129.3842419786943
 31
0.0000000001127424
  0
LINE
  5
1ABD1
330
18
100
AcDbEntity
  8
01
100
AcDbLine
 10
2744.354332649194
 20
-128.3842419786943
 30
0.0000000001127424
 11
2744.354332649194
 21
-80.38424197869426
 31
0.0000000001127424
  0
LINE
  5
1ABD2
330
18
100
AcDbEntity
  8
01
100
AcDbLine
 10
2752.854332649194
 20
-129.3842419786943
 30
0.0000000001127424
 11
2745.354332649194
 21
-129.3842419786943
 31
0.0000000001127424
  0
ARC
  5
1ABD3
330
18
100
AcDbEntity
  8
01
100
AcDbCircle
 10
2745.354332649194
 20
-128.3842419786943
 30
0.0000000001127424
 40
1.0
100
AcDbArc
 50
180.0
 51
270.0
  0
LINE
  5
1ABD4
330
18
100
AcDbEntity
  8
01
100
AcDbLine
 10
2752.854332649194
 20
-79.38424197869426
 30
0.0000000001127424
 11
2745.354332649194
 21
-79.38424197869426
 31
0.0000000001127424
  0
ARC
  5
1ABD5
330
18
100
AcDbEntity
  8
01
100
AcDbCircle
 10
2745.354332649194
 20
-80.38424197869426
 30
0.0000000001127424
 40
1.0
100
AcDbArc
 50
90.0
 51
180.0
  0
LINE
  5
1ABD6
330
18
100
AcDbEntity
  8
01
100
AcDbLine
 10
2754.982618031626
 20
-104.3842419786943
 30
0.0000000001127424
 11
2732.354332649194
 21
-104.3842419786943
 31
0.0000000001127424
  0
LINE
  5
1ABD7
330
18
100
AcDbEntity
  8
01
100
AcDbLine
 10
2886.854099969994
 20
-140.384241978405
 30
0.0000000001127424
 11
2900.854099969994
 21
-140.384241978405
 31
0.0000000001127424
  0
LINE
  5
1ABD8
330
18
100
AcDbEntity
  8
01
100
AcDbLine
 10
2954.165988237247
 20
-54.38424197869381
 30
0.0000000001127424
 11
2931.542211702164
 21
-54.38424197869381
 31
0.0000000001127424
  0
LINE
  5
1ABD9
330
18
100
AcDbEntity
  8
01
100
AcDbLine
 10
2942.854099969706
 20
-43.07235371115212
 30
0.0000000001127424
 11
2942.854099969706
 21
-65.6961302462355
 31
0.0000000001127424
  0
LINE
  5
1ABDA
330
18
100
AcDbEntity
  8
01
  6
BYBLOCK
100
AcDbLine
 10
2664.854332649197
 20
-73.35257171167768
 30
0.0000000001127424
 11
2664.854332649197
 21
-91.41591224568356
 31
0.0000000001127424
  0
LINE
  5
1ABDB
330
18
100
AcDbEntity
  8
01
  6
BYBLOCK
100
AcDbLine
 10
2660.561439430384
 20
-72.38424197868062
 30
0.0000000001127424
 11
2653.854332649197
 21
-72.38424197868062
 31
0.0000000001127424
  0
LINE
  5
1ABDC
330
18
100
AcDbEntity
  8
01
  6
BYBLOCK
100
AcDbLine
 10
2660.561439430384
 20
-92.38424197868062
 30
0.0000000001127424
 11
2653.854332649197
 21
-92.38424197868062
 31
0.0000000001127424
  0
ARC
  5
1ABDD
330
18
100
AcDbEntity
  8
01
  6
BYBLOCK
100
AcDbCircle
 10
2660.561439430384
 20
-82.38424197868062
 30
0.0000000001127424
 40
10.00000000000009
100
AcDbArc
 50
64.57753282186054
 51
90.0
  0
LINE
  5
1ABDE
330
18
100
AcDbEntity
  8
01
  6
CONTINUOUS
100
AcDbLine
 10
2664.354332649197
 20
-90.69903617151135
 30
0.0000000001127424
 11
2653.854332649197
 21
-90.69903617151135
 31
0.0000000001127424
  0
ARC
  5
1ABDF
330
18
100
AcDbEntity
  8
01
  6
CONTINUOUS
100
AcDbCircle
 10
2664.392912896111
 20
-90.23689694070458
 30
0.0000000001127424
 40
0.4637468103423796
100
AcDbArc
 50
265.2279066161988
 51
354.2577450626268
  0
LINE
  5
1ABE0
330
18
100
AcDbEntity
  8
01
  6
CONTINUOUS
100
AcDbLine
 10
2664.854332649197
 20
-74.90092720513258
 30
0.0000000001127424
 11
2664.854332649197
 21
-89.86755675222844
 31
0.0000000001127424
  0
ARC
  5
1ABE1
330
18
100
AcDbEntity
  8
01
  6
CONTINUOUS
100
AcDbCircle
 10
2664.392912896111
 20
-74.5315870166562
 30
0.0000000001127424
 40
0.4637468103423387
100
AcDbArc
 50
5.742254937373203
 51
94.77209338380122
  0
ARC
  5
1ABE2
330
18
100
AcDbEntity
  8
01
  6
BYBLOCK
100
AcDbCircle
 10
2660.561439430384
 20
-82.3842419786804
 30
0.0000000001127424
 40
10.00000000000009
100
AcDbArc
 50
270.0
 51
295.4224671781395
  0
LINE
  5
1ABE3
330
18
100
AcDbEntity
  8
01
  6
CONTINUOUS
100
AcDbLine
 10
2653.854332649197
 20
-74.06944778584943
 30
0.0000000001127424
 11
2664.354332649197
 21
-74.06944778584943
 31
0.0000000001127424
  0
LINE
  5
1ABE4
330
18
100
AcDbEntity
  8
01
100
AcDbLine
 10
2960.854099969706
 20
-87.03489040579666
 30
0.0000000001127424
 11
2960.854099969706
 21
-119.1842419786938
 31
0.0000000001127424
  0
ARC
  5
1ABE5
330
18
100
AcDbEntity
  8
01
100
AcDbCircle
 10
2959.854099969706
 20
-119.3842419786938
 30
0.0000000001127424
 40
1.0
100
AcDbArc
 50
270.0
 51
0.0
  0
LINE
  5
1ABE6
330
18
100
AcDbEntity
  8
01
100
AcDbLine
 10
2923.644727257408
 20
-120.3842419786938
 30
0.0000000001127424
 11
2959.854099969706
 21
-120.3842419786936
 31
0.0000000001127424
  0
LINE
  5
1ABE7
330
18
100
AcDbEntity
  8
01
100
AcDbLine
 10
2632.854332649197
 20
-104.3842419786938
 30
0.0000000001127424
 11
2572.854332649197
 21
-104.3842419786938
 31
0.0000000001127424
  0
LINE
  5
1ABE8
330
18
100
AcDbEntity
  8
01
100
AcDbLine
 10
2602.854332649197
 20
-74.38424197869381
 30
0.0000000001127424
 11
2602.854332649197
 21
-134.3842419786938
 31
0.0000000001127424
  0
LINE
  5
1ABE9
330
18
100
AcDbEntity
  8
01
  6
BYBLOCK
100
AcDbLine
 10
2960.854099969706
 20
-57.60212301111551
 30
0.0000000001128561
 11
2960.854099969706
 21
-87.03489040579666
 31
0.0000000001127424
  0
LINE
  5
1ABEA
330
18
100
AcDbEntity
  8
01
  6
BYBLOCK
100
AcDbLine
 10
2894.554099969706
 20
-46.38424197869381
 30
0.0000000001127424
 11
2923.010996891723
 21
-46.38424197869381
 31
0.0000000001128561
  0
ARC
  5
1ABEB
330
18
100
AcDbEntity
  8
01
  6
BYBLOCK
100
AcDbCircle
 10
2959.854099969706
 20
-47.38424197869381
 30
0.0000000001127424
 40
1.0
100
AcDbArc
 50
0.0
 51
90.0
  0
LINE
  5
1ABEC
330
18
100
AcDbEntity
  8
01
  6
BYBLOCK
100
AcDbLine
 10
2923.010996891723
 20
-46.38424197869381
 30
0.0000000001128561
 11
2959.854099969706
 21
-46.38424197869381
 31
0.0000000001127424
  0
LINE
  5
1ABED
330
18
100
AcDbEntity
  8
01
  6
BYBLOCK
100
AcDbLine
 10
2960.854099969706
 20
-47.38424197869381
 30
0.0000000001127424
 11
2960.854099969706
 21
-57.60212301111551
 31
0.0000000001128561
  0
LINE
  5
1ABEE
330
18
100
AcDbEntity
  8
01
100
AcDbLine
 10
2658.854332649197
 20
-26.38424197869381
 30
0.0000000001127424
 11
2644.854332649197
 21
-26.38424197869381
 31
0.0000000001127424
  0
LINE
  5
1ABEF
330
18
100
AcDbEntity
  8
01
  6
BYBLOCK
100
AcDbLine
 10
2652.354332649197
 20
-18.48424197869372
 30
0.0000000001127424
 11
2652.354332649197
 21
-148.2842419786937
 31
0.0000000001127424
  0
LINE
  5
1ABF0
330
18
100
AcDbEntity
  8
01
  6
BYBLOCK
100
AcDbLine
 10
2652.354332649197
 20
-147.3842419786938
 30
0.0000000001127424
 11
2649.854332649197
 21
-147.3842419786938
 31
0.0000000001127424
  0
LINE
  5
1ABF1
330
18
100
AcDbEntity
  8
01
  6
BYBLOCK
100
AcDbLine
 10
2649.854332649197
 20
-147.3842419786938
 30
0.0000000001127424
 11
2649.854332649197
 21
-130.8812982535414
 31
0.0000000001127424
  0
LINE
  5
1ABF2
330
18
100
AcDbEntity
  8
01
  6
BYBLOCK
100
AcDbLine
 10
2653.854332649197
 20
-18.48424197869372
 30
0.0000000001127424
 11
2653.854332649197
 21
-148.2842419786937
 31
0.0000000001127424
  0
LINE
  5
1ABF3
330
18
100
AcDbEntity
  8
01
  6
BYBLOCK
100
AcDbLine
 10
2653.854332649197
 20
-148.2842419786937
 30
0.0000000001127424
 11
2652.354332649197
 21
-148.2842419786937
 31
0.0000000001127424
  0
LINE
  5
1ABF4
330
18
100
AcDbEntity
  8
01
  6
BYBLOCK
100
AcDbLine
 10
2652.354332649197
 20
-19.38424197869381
 30
0.0000000001127424
 11
2649.854332649197
 21
-19.38424197869381
 31
0.0000000001127424
  0
LINE
  5
1ABF5
330
18
100
AcDbEntity
  8
01
  6
BYBLOCK
100
AcDbLine
 10
2653.854332649197
 20
-18.48424197869372
 30
0.0000000001127424
 11
2652.354332649197
 21
-18.48424197869372
 31
0.0000000001127424
  0
LINE
  5
1ABF6
330
18
100
AcDbEntity
  8
01
  6
BYBLOCK
100
AcDbLine
 10
2652.354332649197
 20
-43.38424197869381
 30
0.0000000001127424
 11
2651.154332649197
 21
-43.38424197869381
 31
0.0000000001127424
  0
LINE
  5
1ABF7
330
18
100
AcDbEntity
  8
01
  6
BYBLOCK
100
AcDbLine
 10
2651.154332649197
 20
-37.68424197869354
 30
0.0000000001127424
 11
2651.154332649197
 21
-129.0842419786936
 31
0.0000000001127424
  0
LINE
  5
1ABF8
330
18
100
AcDbEntity
  8
01
  6
BYBLOCK
100
AcDbLine
 10
2651.054332649197
 20
-147.3842419786938
 30
0.0000000001127424
 11
2651.054332649197
 21
-130.7842419786937
 31
0.0000000001127424
  0
LINE
  5
1ABF9
330
18
100
AcDbEntity
  8
01
  6
BYBLOCK
100
AcDbLine
 10
2651.054332649197
 20
-130.7842419786937
 30
0.0000000001127424
 11
2652.002860786622
 21
-129.8357138412698
 31
0.0000000001127424
  0
LINE
  5
1ABFA
330
18
100
AcDbEntity
  8
01
  6
BYBLOCK
100
AcDbLine
 10
2650.205804511774
 20
-130.0327701161175
 30
0.0000000001127424
 11
2651.154332649197
 21
-129.0842419786936
 31
0.0000000001127424
  0
ARC
  5
1ABFB
330
18
100
AcDbEntity
  8
01
  6
BYBLOCK
100
AcDbCircle
 10
2651.054332649197
 20
-130.8812982535414
 30
0.0000000001127424
 40
1.2
100
AcDbArc
 50
134.9999999999447
 51
180.0
  0
ARC
  5
1ABFC
330
18
100
AcDbEntity
  8
01
  6
BYBLOCK
100
AcDbCircle
 10
2651.154332649197
 20
-128.9871857038459
 30
0.0000000001127424
 40
1.2
100
AcDbArc
 50
314.9999999999447
 51
0.0
  0
LINE
  5
1ABFD
330
18
100
AcDbEntity
  8
01
  6
BYBLOCK
100
AcDbLine
 10
2649.854332649197
 20
-19.38424197869381
 30
0.0000000001127424
 11
2649.854332649197
 21
-35.88718570384594
 31
0.0000000001127424
  0
LINE
  5
1ABFE
330
18
100
AcDbEntity
  8
01
  6
BYBLOCK
100
AcDbLine
 10
2651.054332649197
 20
-19.38424197869381
 30
0.0000000001127424
 11
2651.054332649197
 21
-35.98424197869372
 31
0.0000000001127424
  0
LINE
  5
1ABFF
330
18
100
AcDbEntity
  8
01
  6
BYBLOCK
100
AcDbLine
 10
2651.054332649197
 20
-35.98424197869372
 30
0.0000000001127424
 11
2652.002860786622
 21
-36.93277011611758
 31
0.0000000001127424
  0
LINE
  5
1AC00
330
18
100
AcDbEntity
  8
01
  6
BYBLOCK
100
AcDbLine
 10
2650.205804511774
 20
-36.7357138412699
 30
0.0000000001127424
 11
2651.154332649197
 21
-37.68424197869376
 31
0.0000000001127424
  0
ARC
  5
1AC01
330
18
100
AcDbEntity
  8
01
  6
BYBLOCK
100
AcDbCircle
 10
2651.054332649197
 20
-35.88718570384594
 30
0.0000000001127424
 40
1.2
100
AcDbArc
 50
180.0
 51
225.0000000000553
  0
ARC
  5
1AC02
330
18
100
AcDbEntity
  8
01
  6
BYBLOCK
100
AcDbCircle
 10
2651.154332649197
 20
-37.78129825354154
 30
0.0000000001127424
 40
1.2
100
AcDbArc
 50
0.0
 51
45.00000000005527
  0
CIRCLE
  5
1AC03
330
18
100
AcDbEntity
  8
01
  6
BYBLOCK
100
AcDbCircle
 10
2602.854332649197
 20
-54.38424197869381
 30
0.0000000001127424
 40
4.749999999999998
  0
LINE
  5
1AC04
330
18
100
AcDbEntity
  8
01
  6
BYBLOCK
100
AcDbLine
 10
2651.154332649197
 20
-120.384241978694
 30
0.0000000001127424
 11
2622.063705361496
 21
-120.3842419786938
 31
0.0000000001127424
  0
LINE
  5
1AC05
330
18
100
AcDbEntity
  8
01
  6
BYBLOCK
100
AcDbLine
 10
2606.460577233249
 20
-54.38424197869381
 30
0.0000000001127424
 11
2602.854332649197
 21
-50.7779973946424
 31
0.0000000001127424
  0
LINE
  5
1AC06
330
18
100
AcDbEntity
  8
01
  6
BYBLOCK
100
AcDbLine
 10
2599.248088065146
 20
-54.38424197869381
 30
0.0000000001127424
 11
2602.854332649197
 21
-50.7779973946424
 31
0.0000000001127424
  0
LINE
  5
1AC07
330
18
100
AcDbEntity
  8
01
  6
BYBLOCK
100
AcDbLine
 10
2606.460577233249
 20
-54.38424197869381
 30
0.0000000001127424
 11
2602.854332649197
 21
-57.99048656274499
 31
0.0000000001127424
  0
LINE
  5
1AC08
330
18
100
AcDbEntity
  8
01
  6
BYBLOCK
100
AcDbLine
 10
2599.248088065146
 20
-54.38424197869381
 30
0.0000000001127424
 11
2602.854332649197
 21
-57.99048656274499
 31
0.0000000001127424
  0
LINE
  5
1AC09
330
18
100
AcDbEntity
  8
01
  6
BYBLOCK
100
AcDbLine
 10
2660.561439430384
 20
-72.38424197868062
 30
0.0000000001127424
 11
2653.854332649197
 21
-72.38424197868062
 31
0.0000000001127424
  0
LINE
  5
1AC0A
330
18
100
AcDbEntity
  8
01
  6
BYBLOCK
100
AcDbLine
 10
2660.561439430384
 20
-92.38424197868062
 30
0.0000000001127424
 11
2653.854332649197
 21
-92.38424197868062
 31
0.0000000001127424
  0
LINE
  5
1AC0B
330
18
100
AcDbEntity
  8
01
100
AcDbLine
 10
2658.85433264891
 20
-140.384241978405
 30
0.0000000001127424
 11
2644.85433264891
 21
-140.384241978405
 31
0.0000000001127424
  0
LINE
  5
1AC0C
330
18
100
AcDbEntity
  8
01
  6
BYBLOCK
100
AcDbLine
 10
2584.854332649197
 20
-57.60212301111551
 30
0.0000000001128561
 11
2584.854332649197
 21
-87.03489040579666
 31
0.0000000001127424
  0
LINE
  5
1AC0D
330
18
100
AcDbEntity
  8
01
  6
BYBLOCK
100
AcDbLine
 10
2651.154332649197
 20
-46.38424197869381
 30
0.0000000001127424
 11
2622.69743572718
 21
-46.38424197869381
 31
0.0000000001128561
  0
ARC
  5
1AC0E
330
18
100
AcDbEntity
  8
01
  6
BYBLOCK
100
AcDbCircle
 10
2585.854332649197
 20
-47.38424197869381
 30
0.0000000001127424
 40
0.9999999999999996
100
AcDbArc
 50
90.0
 51
180.0
  0
LINE
  5
1AC0F
330
18
100
AcDbEntity
  8
01
  6
BYBLOCK
100
AcDbLine
 10
2622.69743572718
 20
-46.38424197869381
 30
0.0000000001128561
 11
2585.854332649197
 21
-46.38424197869381
 31
0.0000000001127424
  0
LINE
  5
1AC10
330
18
100
AcDbEntity
  8
01
  6
BYBLOCK
100
AcDbLine
 10
2584.854332649197
 20
-47.38424197869381
 30
0.0000000001127424
 11
2584.854332649197
 21
-57.60212301111551
 31
0.0000000001128561
  0
TEXT
  5
1AC13
330
18
100
AcDbEntity
  8
1TEXT
100
AcDbText
 10
2584.854232309451
 20
177.1157580213062
 30
0.0000000001127424
 40
20.0
  1
1-HSC-X-LJ
100
AcDbText
  0
LINE
  5
1AC14
330
18
100
AcDbEntity
  8
1DIM
100
AcDbLine
 10
2584.854232309451
 20
115.6157580213062
 30
0.0000000001127424
 11
2742.354232309451
 21
115.6157580213062
 31
0.0000000001127424
  0
TEXT
  5
1AC15
330
18
100
AcDbEntity
  8
1TEXT
100
AcDbText
 10
2639.254232309453
 20
118.1493876039499
 30
0.0000000001127424
 40
6.0
  1
パールブラック
 72
     1
 11
2663.454232309453
 21
118.1493876039499
 31
0.0000000001127424
100
AcDbText
  0
TEXT
  5
1AC16
330
18
100
AcDbEntity
  8
1TEXT
100
AcDbText
 10
2639.554232309453
 20
138.8657580213062
 30
0.0000000001127424
 40
6.0
  1
表面処理：握り
 72
     1
 11
2663.454232309453
 21
138.8657580213062
 31
0.0000000001127424
100
AcDbText
  0
TEXT
  5
1AC17
330
18
100
AcDbEntity
  8
1TEXT
100
AcDbText
 10
2638.654232309453
 20
128.6128250320194
 30
0.0000000001127424
 40
6.0
  1
サテンニッケル
 72
     1
 11
2663.454232309453
 21
128.6128250320194
 31
0.0000000001127424
100
AcDbText
  0
LINE
  5
1AC18
330
18
100
AcDbEntity
  8
1DIM
100
AcDbLine
 10
2584.854232309451
 20
147.1157580213062
 30
0.0000000001127424
 11
2742.354232309451
 21
147.1157580213062
 31
0.0000000001127424
  0
LINE
  5
1AC19
330
18
100
AcDbEntity
  8
1DIM
100
AcDbLine
 10
2584.854232309451
 20
136.6157580213062
 30
0.0000000001127424
 11
2742.354232309451
 21
136.6157580213062
 31
0.0000000001127424
  0
LINE
  5
1AC1A
330
18
100
AcDbEntity
  8
1DIM
100
AcDbLine
 10
2584.854232309451
 20
126.1157580213062
 30
0.0000000001127424
 11
2742.354232309451
 21
126.1157580213062
 31
0.0000000001127424
  0
LINE
  5
1AC1B
330
18
100
AcDbEntity
  8
1DIM
100
AcDbLine
 10
2584.854232309451
 20
126.1157580213062
 30
0.0000000001127424
 11
2742.354232309451
 21
126.1157580213062
 31
0.0000000001127424
  0
LINE
  5
1AC1C
330
18
100
AcDbEntity
  8
1DIM
100
AcDbLine
 10
2689.854232309451
 20
147.1157580213062
 30
0.0000000001127424
 11
2689.854232309451
 21
115.6157580213062
 31
0.0000000001127424
  0
TEXT
  5
1AC1D
330
18
100
AcDbEntity
  8
1TEXT
100
AcDbText
 10
2694.254232309453
 20
128.0442225458323
 30
0.0000000001127424
 40
6.0
  1
1-HSC-CN-LJ
 41
0.7
 72
     1
 11
2715.954232309453
 21
128.0442225458323
 31
0.0000000001127424
100
AcDbText
  0
TEXT
  5
1AC1E
330
18
100
AcDbEntity
  8
1TEXT
100
AcDbText
 10
2705.654232309453
 20
138.8657580213062
 30
0.0000000001127424
 40
6.0
  1
コード
 72
     1
 11
2715.954232309453
 21
138.8657580213062
 31
0.0000000001127424
100
AcDbText
  0
LINE
  5
1AC1F
330
18
100
AcDbEntity
  8
1DIM
100
AcDbLine
 10
2637.354232309451
 20
115.6157580213062
 30
0.0000000001127424
 11
2637.354232309451
 21
147.1157580213062
 31
0.0000000001127424
  0
LINE
  5
1AC20
330
18
100
AcDbEntity
  8
1DIM
100
AcDbLine
 10
2742.354232309451
 20
115.6157580213062
 30
0.0000000001127424
 11
2742.354232309451
 21
147.1157580213062
 31
0.0000000001127424
  0
TEXT
  5
1AC21
330
18
100
AcDbEntity
  8
1TEXT
100
AcDbText
 10
2693.840690642786
 20
117.5442225458323
 30
0.0000000001127424
 40
6.0
  1
1-HSC-CGQ-LJ
 41
0.65
 72
     1
 11
2715.954232309453
 21
117.5442225458323
 31
0.0000000001127424
100
AcDbText
  0
TEXT
  5
1AC22
330
18
100
AcDbEntity
  8
1TEXT
100
AcDbText
 10
2596.754232309453
 20
118.1493876039499
 30
0.0000000001127424
 40
6.0
  1
クローム
 72
     1
 11
2610.954232309453
 21
118.1493876039499
 31
0.0000000001127424
100
AcDbText
  0
TEXT
  5
1AC23
330
18
100
AcDbEntity
  8
1TEXT
100
AcDbText
 10
2586.254232309453
 20
138.8657580213062
 30
0.0000000001127424
 40
6.0
  1
表面処理：脚部
 72
     1
 11
2610.954232309453
 21
138.8657580213062
 31
0.0000000001127424
100
AcDbText
  0
TEXT
  5
1AC24
330
18
100
AcDbEntity
  8
1TEXT
100
AcDbText
 10
2596.754232309453
 20
128.6128250320194
 30
0.0000000001127424
 40
6.0
  1
クローム
 72
     1
 11
2610.954232309453
 21
128.6128250320194
 31
0.0000000001127424
100
AcDbText
  0
LINE
  5
1AC25
330
18
100
AcDbEntity
  8
1DIM
100
AcDbLine
 10
2584.854232309451
 20
115.6157580213062
 30
0.0000000001127424
 11
2584.854232309451
 21
147.1157580213062
 31
0.0000000001127424
  0
LINE
  5
1AC26
330
18
100
AcDbEntity
  8
01
100
AcDbLine
 10
2918.854216309449
 20
137.1157580202776
 30
0.0000000001127424
 11
2966.854216309449
 21
137.1157580202776
 31
0.0000000001127424
  0
LINE
  5
1AC27
330
18
100
AcDbEntity
  8
01
100
AcDbLine
 10
2917.854216309449
 20
145.6157580202776
 30
0.0000000001127424
 11
2917.854216309449
 21
138.1157580202776
 31
0.0000000001127424
  0
ARC
  5
1AC28
330
18
100
AcDbEntity
  8
01
100
AcDbCircle
 10
2918.854216309449
 20
138.1157580202776
 30
0.0000000001127424
 40
1.0
100
AcDbArc
 50
180.0
 51
270.0
  0
LINE
  5
1AC29
330
18
100
AcDbEntity
  8
01
100
AcDbLine
 10
2967.854216309449
 20
145.6157580202776
 30
0.0000000001127424
 11
2967.854216309449
 21
138.1157580202776
 31
0.0000000001127424
  0
ARC
  5
1AC2A
330
18
100
AcDbEntity
  8
01
100
AcDbCircle
 10
2966.854216309449
 20
138.1157580202776
 30
0.0000000001127424
 40
1.0
100
AcDbArc
 50
270.0
 51
0.0
  0
ARC
  5
1AC2B
330
18
100
AcDbEntity
  8
01
100
AcDbCircle
 10
2942.854099969706
 20
-104.3829236655911
 30
0.0000000001127424
 40
25.0
100
AcDbArc
 50
19.97411561459784
 51
340.0209606814611
  0
LINE
  5
1AC2D
330
18
100
AcDbEntity
  8
01
100
AcDbLine
 10
2792.854099969706
 20
-79.38292366559108
 30
0.0000000001127424
 11
2792.854099969706
 21
-129.3829236655911
 31
0.0000000001127424
  0
LINE
  5
1AC2E
330
18
100
AcDbEntity
  8
01
100
AcDbLine
 10
2801.354099969706
 20
-128.3829236655911
 30
0.0000000001127424
 11
2801.354099969706
 21
-80.38292366559108
 31
0.0000000001127424
  0
LINE
  5
1AC2F
330
18
100
AcDbEntity
  8
01
100
AcDbLine
 10
2792.854099969706
 20
-129.3829236655911
 30
0.0000000001127424
 11
2800.354099969706
 21
-129.3829236655911
 31
0.0000000001127424
  0
ARC
  5
1AC30
330
18
100
AcDbEntity
  8
01
100
AcDbCircle
 10
2800.354099969706
 20
-128.3829236655911
 30
0.0000000001127424
 40
1.0
100
AcDbArc
 50
270.0
 51
0.0
  0
LINE
  5
1AC31
330
18
100
AcDbEntity
  8
01
100
AcDbLine
 10
2792.854099969706
 20
-79.38292366559108
 30
0.0000000001127424
 11
2800.354099969706
 21
-79.38292366559108
 31
0.0000000001127424
  0
ARC
  5
1AC32
330
18
100
AcDbEntity
  8
01
100
AcDbCircle
 10
2800.354099969706
 20
-80.38292366559108
 30
0.0000000001127424
 40
1.0
100
AcDbArc
 50
0.0
 51
90.0
  0
LINE
  5
1AC33
330
18
100
AcDbEntity
  8
01
100
AcDbLine
 10
2790.725814587276
 20
-104.3829236655911
 30
0.0000000001127424
 11
2813.354099969706
 21
-104.3829236655911
 31
0.0000000001127424
  0
LINE
  5
1AC34
330
18
100
AcDbEntity
  8
01
100
AcDbLine
 10
2917.854216309449
 20
145.6157580202776
 30
0.0000000001127424
 11
2967.854216309449
 21
145.6157580202776
 31
0.0000000001127424
  0
LINE
  5
1AC35
330
18
100
AcDbEntity
  8
01
  6
BYBLOCK
100
AcDbLine
 10
2891.854984151766
 20
145.6157580202776
 30
0.0000000001127424
 11
3045.609364306797
 21
145.6157580202776
 31
0.0000000001127424
  0
LINE
  5
1AC36
330
18
100
AcDbEntity
  8
01
100
AcDbLine
 10
2942.854216309449
 20
150.6157580202776
 30
0.0000000001127424
 11
2942.854216309449
 21
124.1157580202776
 31
0.0000000001127424
  0
LINE
  5
1AC38
330
18
100
AcDbEntity
  8
01
100
AcDbLine
 10
2792.854099969706
 20
15.61707633440892
 30
0.0000000001127424
 11
2792.854099969706
 21
-174.3829236655911
 31
0.0000000001127424
  0
LINE
  5
1AC39
330
18
100
AcDbEntity
  8
1CENTER
100
AcDbLine
 10
2807.354099969706
 20
-119.3829236655911
 30
0.0000000001127424
 11
2807.354099969706
 21
-111.3829236655911
 31
0.0000000001127424
  0
LINE
  5
1AC3A
330
18
100
AcDbEntity
  8
01
100
AcDbLine
 10
2912.854099969706
 20
-104.3829236655911
 30
0.0000000001127424
 11
2972.854099969706
 21
-104.3829236655911
 31
0.0000000001127424
  0
LINE
  5
1AC3B
330
18
100
AcDbEntity
  8
01
100
AcDbLine
 10
2942.854099969706
 20
-74.38292366559108
 30
0.0000000001127424
 11
2942.854099969706
 21
-134.3829236655911
 31
0.0000000001127424
  0
LINE
  5
1AC3C
330
18
100
AcDbEntity
  8
01
100
AcDbLine
 10
2801.854099969706
 20
-115.3829618839577
 30
0.0000000001127424
 11
2803.960802673179
 21
-115.3275275696883
 31
0.0000000001127424
  0
SPLINE
  5
1AC3D
330
18
100
AcDbEntity
  8
01
100
AcDbSpline
210
0.0
220
0.0
230
1.0
 70
     8
 71
     3
 72
   138
 73
   134
 74
     0
 42
0.0000000001
 43
0.0000000001
 40
0.0
 40
0.0
 40
0.0
 40
0.0
 40
0.1668157130194292
 40
0.3346876553454588
 40
0.5240669493630439
 40
0.7147095099200806
 40
0.8985953965508194
 40
1.083107924707542
 40
1.290805810141262
 40
1.499182253444173
 40
1.701679046967988
 40
1.904500923923147
 40
2.107508332753089
 40
2.310627511543653
 40
2.481455866649648
 40
2.6521672245704
 40
2.730720249536133
 40
2.809206602893594
 40
3.024464093987093
 40
3.239426774508367
 40
3.417629971705596
 40
3.595080099381215
 40
3.665965004232471
 40
3.736621908582423
 40
3.88058279821407
 40
4.023441446393039
 40
4.168623700254177
 40
4.312700030266428
 40
4.455773429886731
 40
4.597946448969819
 40
4.734770866870796
 40
4.871067763021014
 40
5.006134682710677
 40
5.140723777495796
 40
5.408323944773493
 40
5.673767610389495
 40
5.809212267887493
 40
5.94422000793654
 40
6.079065042884841
 40
6.213593550615947
 40
6.348626553422866
 40
6.483273594736706
 40
6.618271226934831
 40
6.752756281565293
 40
7.02047152595319
 40
7.421616657639844
 40
7.692290584559225
 40
7.827919423113985
 40
8.07845510877842
 40
8.327871015826632
 40
8.576841194451651
 40
9.323570508807586
 40
9.575017729387518
 40
10.03707551382911
 40
10.24521813234471
 40
10.87119144050196
 40
11.50512337434287
 40
12.56666713690732
 40
12.78018384205361
 40
13.21089593904656
 40
13.86369562851506
 40
14.51947296165382
 40
14.84710488477319
 40
15.33703996929068
 40
15.66039604316792
 40
15.95641160121191
 40
16.22533809107201
 40
16.35806910952146
 40
16.48946025091275
 40
16.55512360860931
 40
16.62137360057212
 40
16.67216095566956
 40
16.72509011289515
 40
16.75927672523065
 40
16.79348964335928
 40
16.82501671458787
 40
16.85655277983729
 40
16.90650187766521
 40
16.95704041767811
 40
17.00878642968656
 40
17.06051158171665
 40
18.05232509175194
 40
19.05412842030143
 40
19.59748009973429
 40
20.14662486715726
 40
20.6960570326199
 40
21.24549961502616
 40
21.79838629269784
 40
22.35447510513524
 40
22.63281640714843
 40
22.91007054045417
 40
23.18629582463462
 40
23.4615601908881
 40
24.56983334669013
 40
25.68195104993805
 40
25.88208105101144
 40
26.22966387996111
 40
26.52349607570023
 40
26.82000405908244
 40
27.10872157924958
 40
27.39227484299192
 40
27.53218939748468
 40
27.80764894116495
 40
28.06877431243479
 40
28.19319811623436
 40
28.43835210689766
 40
28.79969009877493
 40
29.39673438016384
 40
29.87957113092499
 40
30.36613776974632
 40
30.85438344271968
 40
31.34245740531411
 40
32.17723335082021
 40
33.21783413460746
 40
34.25987937571865
 40
36.00862584052744
 40
37.05883755635396
 40
37.86561754231909
 40
38.78056165034153
 40
39.69506462414768
 40
41.05495505395752
 40
42.8539749115778
 40
44.63434476152022
 40
46.71905378355459
 40
48.78012043535887
 40
50.8350599240697
 40
52.87257028749691
 40
55.92425539466682
 40
58.94112843645743
 40
59.94188621989754
 40
60.94236754650147
 40
61.50419583016652
 40
62.06303412180577
 40
62.06303412180577
 40
62.06303412180577
 40
62.06303412180577
 10
2859.879753796828
 20
-104.3829218568649
 30
0.0000000001127424
 10
2859.879742829125
 20
-104.4383241280952
 30
0.0000000001127424
 10
2859.878105007089
 20
-104.5398940749715
 30
0.0000000001127424
 10
2859.869722331646
 20
-104.7122114661165
 30
0.0000000001127424
 10
2859.858056997998
 20
-104.8566594712352
 30
0.0000000001127424
 10
2859.841449502376
 20
-105.0103784911221
 30
0.0000000001127424
 10
2859.819749477593
 20
-105.1667613533032
 30
0.0000000001127424
 10
2859.791692192442
 20
-105.330504274581
 30
0.0000000001127424
 10
2859.764161082397
 20
-105.4673448704839
 30
0.0000000001127424
 10
2859.730515126966
 20
-105.6149851639334
 30
0.0000000001127424
 10
2859.694628213253
 20
-105.7546485675516
 30
0.0000000001127424
 10
2859.656194453858
 20
-105.8907013898902
 30
0.0000000001127424
 10
2859.613656390572
 20
-106.0277040346659
 30
0.0000000001127424
 10
2859.575463906317
 20
-106.1424817313487
 30
0.0000000001127424
 10
2859.52225428958
 20
-106.2905129226333
 30
0.0000000001127424
 10
2859.483428599452
 20
-106.3909022105504
 30
0.0000000001127424
 10
2859.447912549444
 20
-106.4790069656033
 30
0.0000000001127424
 10
2859.400915285519
 20
-106.5911021415891
 30
0.0000000001127424
 10
2859.399698420103
 20
-106.5925324264631
 30
0.0000000001127424
 10
2859.375498582803
 20
-106.6488811999184
 30
0.0000000001127424
 10
2859.334024810637
 20
-106.7397570950284
 30
0.0000000001127424
 10
2859.327074962258
 20
-106.755624549231
 30
0.0000000001127424
 10
2859.275925286126
 20
-106.8628074078574
 30
0.0000000001127424
 10
2859.234921667429
 20
-106.9459609813653
 30
0.0000000001127424
 10
2859.181776538234
 20
-107.0500712813696
 30
0.0000000001127424
 10
2859.114419408602
 20
-107.1756132613177
 30
0.0000000001127424
 10
2859.046928012492
 20
-107.2958158577762
 30
0.0000000001127424
 10
2858.976364329358
 20
-107.4161453907359
 30
0.0000000001127424
 10
2858.90384053204
 20
-107.5346301992226
 30
0.0000000001127424
 10
2858.83107382121
 20
-107.6488530906358
 30
0.0000000001127424
 10
2858.754233384993
 20
-107.7648618113158
 30
0.0000000001127424
 10
2858.677594501186
 20
-107.8763011824763
 30
0.0000000001127424
 10
2858.598957567126
 20
-107.9866824481319
 30
0.0000000001127424
 10
2858.492699480991
 20
-108.1308129922131
 30
0.0000000001127424
 10
2858.356746235139
 20
-108.3064294223554
 30
0.0000000001127424
 10
2858.215594469891
 20
-108.4780061299275
 30
0.0000000001127424
 10
2858.099329064736
 20
-108.6131281288904
 30
0.0000000001127424
 10
2858.009822151264
 20
-108.7140792515324
 30
0.0000000001127424
 10
2857.919662063662
 20
-108.8128271475966
 30
0.0000000001127424
 10
2857.827642272082
 20
-108.9107350443169
 30
0.0000000001127424
 10
2857.735971732051
 20
-109.0055905384766
 30
0.0000000001127424
 10
2857.642307637362
 20
-109.099923464843
 30
0.0000000001127424
 10
2857.54900306475
 20
-109.1914477593787
 30
0.0000000001127424
 10
2857.423096058171
 20
-109.3118525539971
 30
0.0000000001127424
 10
2857.232241031533
 20
-109.4876211695359
 30
0.0000000001127424
 10
2857.002526531228
 20
-109.6861667635608
 30
0.0000000001127424
 10
2856.804971548209
 20
-109.8468855318947
 30
0.0000000001127424
 10
2856.64243248864
 20
-109.974622176363
 30
0.0000000001127424
 10
2856.484522095251
 20
-110.094719343117
 30
0.0000000001127424
 10
2856.29562676614
 20
-110.2325114506407
 30
0.0000000001127424
 10
2855.979278232554
 20
-110.4538872448315
 30
0.0000000001127424
 10
2855.655165490775
 20
-110.6625376852603
 30
0.0000000001127424
 10
2855.274247258044
 20
-110.8886196125318
 30
0.0000000001127424
 10
2855.034070363846
 20
-111.0233105412258
 30
0.0000000001127424
 10
2854.690682094796
 20
-111.2061348742232
 30
0.0000000001127424
 10
2854.299017436452
 20
-111.4007783374559
 30
0.0000000001127424
 10
2853.678447446097
 20
-111.6788216863338
 30
0.0000000001127424
 10
2853.161778705597
 20
-111.8802649573122
 30
0.0000000001127424
 10
2852.695322048236
 20
-112.0430123811834
 30
0.0000000001127424
 10
2852.342306511543
 20
-112.1593164296414
 30
0.0000000001127424
 10
2851.862094191777
 20
-112.3024781423542
 30
0.0000000001127424
 10
2851.40703480255
 20
-112.4216816793664
 30
0.0000000001127424
 10
2850.990076768002
 20
-112.5201689399178
 30
0.0000000001127424
 10
2850.66452844363
 20
-112.5902134821931
 30
0.0000000001127424
 10
2850.341106168134
 20
-112.6533635960509
 30
0.0000000001127424
 10
2850.075139265919
 20
-112.7012443989993
 30
0.0000000001127424
 10
2849.85950230145
 20
-112.7370422252711
 30
0.0000000001127424
 10
2849.690564774682
 20
-112.7634062675938
 30
0.0000000001127424
 10
2849.583150244355
 20
-112.77946984235
 30
0.0000000001127424
 10
2849.496491360192
 20
-112.7920071063431
 30
0.0000000001127424
 10
2849.435854732889
 20
-112.8005818533434
 30
0.0000000001127424
 10
2849.380816554703
 20
-112.8082128978454
 30
0.0000000001127424
 10
2849.335507938368
 20
-112.8143797020307
 30
0.0000000001127424
 10
2849.301962587387
 20
-112.8188858527342
 30
0.0000000001127424
 10
2849.271031802845
 20
-112.8229959154783
 30
0.0000000001127424
 10
2849.249123703204
 20
-112.8258803056747
 30
0.0000000001127424
 10
2849.219332616883
 20
-112.8297721826862
 30
0.0000000001127424
 10
2849.196164703725
 20
-112.8327663576679
 30
0.0000000001127424
 10
2849.172898683341
 20
-112.8357521959792
 30
0.0000000001127424
 10
2849.156679467315
 20
-112.8378205249296
 30
0.0000000001127424
 10
2849.025617849488
 20
-112.8544493438026
 30
0.0000000001127424
 10
2848.824956917421
 20
-112.8786118189823
 30
0.0000000001127424
 10
2848.523960079035
 20
-112.9119415489126
 30
0.0000000001127424
 10
2848.334693077141
 20
-112.9318998533349
 30
0.0000000001127424
 10
2848.179764597072
 20
-112.9479699671178
 30
0.0000000001127424
 10
2848.009482513872
 20
-112.9652608825904
 30
0.0000000001127424
 10
2847.823347976421
 20
-112.9837709704175
 30
0.0000000001127424
 10
2847.635402234316
 20
-113.0021213822333
 30
0.0000000001127424
 10
2847.474897579906
 20
-113.0175847873284
 30
0.0000000001127424
 10
2847.341790490697
 20
-113.0303047280672
 30
0.0000000001127424
 10
2847.235722107303
 20
-113.0403808514507
 30
0.0000000001127424
 10
2847.124519956988
 20
-113.0508669374663
 30
0.0000000001127424
 10
2846.891087885318
 20
-113.0727455454667
 30
0.0000000001127424
 10
2846.485227288408
 20
-113.1095882437644
 30
0.0000000001127424
 10
2846.283938288937
 20
-113.1285837958599
 30
0.0000000001127424
 10
2845.855930070246
 20
-113.1667812108094
 30
0.0000000001127424
 10
2845.611250794248
 20
-113.1878129653237
 30
0.0000000001127424
 10
2845.320946351684
 20
-113.2115645352528
 30
0.0000000001127424
 10
2845.05002911983
 20
-113.2327001448043
 30
0.0000000001127424
 10
2844.799488620684
 20
-113.2515932863112
 30
0.0000000001127424
 10
2844.601984241714
 20
-113.2661609702477
 30
0.0000000001127424
 10
2844.41362296944
 20
-113.2799097218845
 30
0.0000000001127424
 10
2844.235671636278
 20
-113.2927974764239
 30
0.0000000001127424
 10
2844.070626094556
 20
-113.3047165122857
 30
0.0000000001127424
 10
2843.908847742697
 20
-113.3164075485242
 30
0.0000000001127424
 10
2843.716230876164
 20
-113.3303195333779
 30
0.0000000001127424
 10
2843.385901599512
 20
-113.3541216369972
 30
0.0000000001127424
 10
2842.968296908834
 20
-113.3839899907666
 30
0.0000000001127424
 10
2842.496824790697
 20
-113.4171980859469
 30
0.0000000001127424
 10
2842.056946945845
 20
-113.4478090349025
 30
0.0000000001127424
 10
2841.61245228291
 20
-113.4784973818164
 30
0.0000000001127424
 10
2841.061039609641
 20
-113.516375873985
 30
0.0000000001127424
 10
2840.332297324262
 20
-113.5662055194312
 30
0.0000000001127424
 10
2839.41580238822
 20
-113.6281952239565
 30
0.0000000001127424
 10
2838.194908000486
 20
-113.7095951724218
 30
0.0000000001127424
 10
2836.954154910133
 20
-113.7909475595966
 30
0.0000000001127424
 10
2835.777459738295
 20
-113.8668806884084
 30
0.0000000001127424
 10
2834.864764591574
 20
-113.9248995827516
 30
0.0000000001127424
 10
2833.991201198788
 20
-113.9794998624279
 30
0.0000000001127424
 10
2832.930028262052
 20
-114.0444384632769
 30
0.0000000001127424
 10
2831.574944146164
 20
-114.1251296429159
 30
0.0000000001127424
 10
2829.933502231587
 20
-114.2215649253571
 30
0.0000000001127424
 10
2828.051033123703
 20
-114.3320580372952
 30
0.0000000001127424
 10
2826.08163956404
 20
-114.4436496161193
 30
0.0000000001127424
 10
2824.020312364845
 20
-114.5556315579365
 30
0.0000000001127424
 10
2821.973987148825
 20
-114.6616272754322
 30
0.0000000001127424
 10
2819.597915025716
 20
-114.7786763505187
 30
0.0000000001127424
 10
2816.901559028866
 20
-114.9012583338249
 30
0.0000000001127424
 10
2814.548544870967
 20
-114.9943643176243
 30
0.0000000001127424
 10
2812.877714112586
 20
-115.0549209543028
 30
0.0000000001127424
 10
2812.024225150269
 20
-115.0850063767307
 30
0.0000000001127424
 10
2811.317772693929
 20
-115.1081423927876
 30
0.0000000001127424
 10
2810.944628190668
 20
-115.1220988757391
 30
0.0000000001127424
 10
2810.758439656999
 20
-115.1271020103463
 30
0.0000000001127424
  0
SPLINE
  5
1AC3E
330
18
100
AcDbEntity
  8
01
100
AcDbSpline
210
0.0
220
0.0
230
1.0
 70
     8
 71
     3
 72
    21
 73
    17
 74
     0
 42
0.0000000001
 43
0.0000000001
 40
0.0
 40
0.0
 40
0.0
 40
0.0
 40
0.0851307068292339
 40
0.2153854175050789
 40
0.3139243314719375
 40
0.412233476593946
 40
0.5601151404401017
 40
0.9297231521164819
 40
1.151451454783988
 40
1.502743620640995
 40
1.736845939152541
 40
2.345000851588668
 40
2.730716427843832
 40
3.243685533877488
 40
4.637678957492575
 40
5.333893055117052
 40
5.333893055117052
 40
5.333893055117052
 40
5.333893055117052
 10
2803.962732809526
 20
-115.327361358341
 30
0.0000000001127424
 10
2803.978518167319
 20
-115.3269393656497
 30
0.0000000001127424
 10
2803.996005794191
 20
-115.3247350711067
 30
0.0000000001127424
 10
2804.01027226747
 20
-115.3228386008836
 30
0.0000000001127424
 10
2804.026203612376
 20
-115.3201638281857
 30
0.0000000001127424
 10
2804.044842455914
 20
-115.3167968825169
 30
0.0000000001127424
 10
2804.079553681845
 20
-115.3101238795366
 30
0.0000000001127424
 10
2804.133840174977
 20
-115.2998141980847
 30
0.0000000001127424
 10
2804.233507866303
 20
-115.282004649795
 30
0.0000000001127424
 10
2804.3399519648
 20
-115.2631324026829
 30
0.0000000001127424
 10
2804.526870026127
 20
-115.2309152408038
 30
0.0000000001127424
 10
2804.762411101093
 20
-115.192117070535
 30
0.0000000001127424
 10
2805.106691834314
 20
-115.14079595671
 30
0.0000000001127424
 10
2805.699558065689
 20
-115.0615770017098
 30
0.0000000001127424
 10
2806.513561786888
 20
-114.9825563433865
 30
0.0000000001127424
 10
2807.212522020004
 20
-114.9538699124018
 30
0.0000000001127424
 10
2807.444034137451
 20
-114.9485582401644
 30
0.0000000001127424
  0
SPLINE
  5
1AC3F
330
18
100
AcDbEntity
  8
01
100
AcDbSpline
210
0.0
220
0.0
230
1.0
 70
     8
 71
     3
 72
   161
 73
   157
 74
     0
 42
0.0000000001
 43
0.0000000001
 40
0.0
 40
0.0
 40
0.0
 40
0.0
 40
0.1753276591652896
 40
0.3519044495348527
 40
0.5296347732845289
 40
0.7084108616293461
 40
0.8823101758413803
 40
1.056860246306637
 40
1.267321473500869
 40
1.478598981410851
 40
1.698593606378595
 40
1.918963458870645
 40
2.107408618756955
 40
2.295733498234714
 40
2.461477313870521
 40
2.626961935464299
 40
2.777432642032876
 40
2.927548665257361
 40
3.00177237759288
 40
3.075878649229417
 40
3.147270802325481
 40
3.218465040601231
 40
3.364074812929046
 40
3.508723249385344
 40
3.653062580038595
 40
3.796485657768224
 40
3.939029070108194
 40
4.080726961651802
 40
4.218782162113135
 40
4.356174503276981
 40
4.492907066476416
 40
4.628986828465611
 40
4.899121683385133
 40
5.167026625407447
 40
5.300346847982976
 40
5.433238411412505
 40
5.566025713674333
 40
5.698460172232819
 40
5.831178089348829
 40
5.963607037547601
 40
6.096221802301735
 40
6.228595463666009
 40
6.436235965323256
 40
6.644073933893274
 40
6.852209702767026
 40
7.059925032818242
 40
7.268292062311387
 40
7.476250453930771
 40
7.893245666987257
 40
8.065712624877925
 40
8.238063048380367
 40
8.410811372925146
 40
8.92802287965372
 40
9.272880491136824
 40
9.619724739924168
 40
10.31752282469657
 40
10.66822216000941
 40
11.18964540534406
 40
11.45043819379522
 40
11.71289900943138
 40
11.97682335269064
 40
12.77116854795565
 40
13.03663544928481
 40
13.5697948965027
 40
14.36792165891221
 40
14.89885001030253
 40
15.2583126502101
 40
15.61079239575969
 40
15.69746829704618
 40
15.86886630374273
 40
15.95368425838593
 40
15.99600465780758
 40
16.03838648454619
 40
16.08121972553973
 40
16.12412443397156
 40
16.17033844542302
 40
16.21662766030539
 40
16.2466414232401
 40
16.27667526547951
 40
16.30484128941486
 40
16.3330147018479
 40
16.37600967978959
 40
16.41931394642792
 40
16.46371986904074
 40
16.50811001488443
 40
16.59786998379897
 40
16.68756487456678
 40
16.86851690829732
 40
17.04920229559118
 40
17.41150458881523
 40
18.03324322374408
 40
18.29683723786884
 40
18.83245571631319
 40
19.3772955531871
 40
19.65058637522725
 40
20.3122615440759
 40
20.70090138143717
 40
21.09144292122238
 40
21.48373808860526
 40
21.87748136894416
 40
22.27076176857144
 40
22.46635164106641
 40
22.66183471333888
 40
23.05083358640117
 40
23.38186736816081
 40
23.88485779616349
 40
24.05474264920091
 40
24.22585082071532
 40
24.39805743121401
 40
24.57228945751721
 40
24.74621167943534
 40
24.83046135932649
 40
24.99399742050408
 40
25.15406868498914
 40
25.39566743937679
 40
25.64621839534745
 40
25.90849182443579
 40
26.08929283538605
 40
26.26794001169155
 40
26.44333160660758
 40
26.61658700906262
 40
26.78799732060817
 40
26.95762164491552
 40
27.12529634459997
 40
27.45367866512593
 40
27.77196099452028
 40
27.92808537341424
 40
28.08271757058687
 40
28.59269882506748
 40
29.0012738236437
 40
29.20741171837419
 40
30.03812295407611
 40
30.45512700784406
 40
30.87173364194304
 40
31.28855683089697
 40
32.16709571260193
 40
32.62846021532462
 40
33.08985867115978
 40
34.94500812755368
 40
35.87622159166673
 40
37.50856175317855
 40
38.67996595723793
 40
39.50585720406737
 40
39.86286985642367
 40
41.28651074497824
 40
41.99439928761057
 40
43.39591297843097
 40
44.80370702859335
 40
46.88496279090998
 40
50.99680386293853
 40
53.0314855883046
 40
54.05069632410141
 40
57.08366503897778
 40
59.08867417229233
 40
65.06755382581002
 40
70.4615077558024
 40
70.4615077558024
 40
70.4615077558024
 40
70.4615077558024
 10
2859.879753796828
 20
-104.3829218568649
 30
0.0000000001127424
 10
2859.879765324172
 20
-104.3246926268316
 30
0.0000000001127424
 10
2859.878057738061
 20
-104.2260504448527
 30
0.0000000001127424
 10
2859.87056188
 20
-104.0653720783689
 30
0.0000000001127424
 10
2859.858211413543
 20
-103.9091275488131
 30
0.0000000001127424
 10
2859.841563401448
 20
-103.7564067513181
 30
0.0000000001127424
 10
2859.820120016747
 20
-103.6012157397322
 30
0.0000000001127424
 10
2859.790617558095
 20
-103.4296282028904
 30
0.0000000001127424
 10
2859.764632208809
 20
-103.3009545479285
 30
0.0000000001127424
 10
2859.729034573197
 20
-103.1445924236264
 30
0.0000000001127424
 10
2859.694601005537
 20
-103.0115193867282
 30
0.0000000001127424
 10
2859.660884600536
 20
-102.8907138309282
 30
0.0000000001127424
 10
2859.614545646958
 20
-102.7402467894394
 30
0.0000000001127424
 10
2859.575536377783
 20
-102.623176848912
 30
0.0000000001127424
 10
2859.524042362688
 20
-102.4797752941063
 30
0.0000000001127424
 10
2859.479027264327
 20
-102.3627701678784
 30
0.0000000001127424
 10
2859.423266274706
 20
-102.2265679201114
 30
0.0000000001127424
 10
2859.380248700766
 20
-102.1275881331117
 30
0.0000000001127424
 10
2859.340228369546
 20
-102.0391537976589
 30
0.0000000001127424
 10
2859.311347879754
 20
-101.9770890231516
 30
0.0000000001127424
 10
2859.279757542973
 20
-101.9109547649437
 30
0.0000000001127424
 10
2859.237409832168
 20
-101.8246913102244
 30
0.0000000001127424
 10
2859.184317321809
 20
-101.7205738312073
 30
0.0000000001127424
 10
2859.116968920104
 20
-101.5947701963846
 30
0.0000000001127424
 10
2859.048000499012
 20
-101.4718613511072
 30
0.0000000001127424
 10
2858.97673965509
 20
-101.3503893575385
 30
0.0000000001127424
 10
2858.903433566405
 20
-101.2306865740325
 30
0.0000000001127424
 10
2858.829236708739
 20
-101.1143300223252
 30
0.0000000001127424
 10
2858.752075727757
 20
-100.9979374789677
 30
0.0000000001127424
 10
2858.674319425177
 20
-100.8849415815744
 30
0.0000000001127424
 10
2858.59494084629
 20
-100.7735803568626
 30
0.0000000001127424
 10
2858.487527690258
 20
-100.6279328824089
 30
0.0000000001127424
 10
2858.349929587514
 20
-100.4503577727205
 30
0.0000000001127424
 10
2858.207264658563
 20
-100.2775332284232
 30
0.0000000001127424
 10
2858.091458539578
 20
-100.1434326880303
 30
0.0000000001127424
 10
2858.00332651093
 20
-100.0443269104658
 30
0.0000000001127424
 10
2857.914699519858
 20
-99.94747139467427
 30
0.0000000001127424
 10
2857.824424451727
 20
-99.8515358336731
 30
0.0000000001127424
 10
2857.734118756079
 20
-99.75814708922962
 30
0.0000000001127424
 10
2857.642171805629
 20
-99.66554926783328
 30
0.0000000001127424
 10
2857.55003017258
 20
-99.57514579710141
 30
0.0000000001127424
 10
2857.438840630083
 20
-99.46881416133556
 30
0.0000000001127424
 10
2857.309024769141
 20
-99.34864343502568
 30
0.0000000001127424
 10
2857.159313359124
 20
-99.21530184796075
 30
0.0000000001127424
 10
2857.008509116894
 20
-99.08594478590521
 30
0.0000000001127424
 10
2856.854890431642
 20
-98.95898937364154
 30
0.0000000001127424
 10
2856.701219945936
 20
-98.83655979230161
 30
0.0000000001127424
 10
2856.492875456427
 20
-98.67644799887739
 30
0.0000000001127424
 10
2856.291905993962
 20
-98.53013392380444
 30
0.0000000001127424
 10
2856.098403615363
 20
-98.39590123067637
 30
0.0000000001127424
 10
2855.965685384211
 20
-98.30639981253489
 30
0.0000000001127424
 10
2855.744530577792
 20
-98.16138890218144
 30
0.0000000001127424
 10
2855.47575989573
 20
-97.99477220470317
 30
0.0000000001127424
 10
2855.158690064681
 20
-97.81146848316484
 30
0.0000000001127424
 10
2854.792801595188
 20
-97.61136221684092
 30
0.0000000001127424
 10
2854.421093100774
 20
-97.42455118827411
 30
0.0000000001127424
 10
2854.001223539731
 20
-97.23068925291273
 30
0.0000000001127424
 10
2853.697782846081
 20
-97.1001537195466
 30
0.0000000001127424
 10
2853.414696152585
 20
-96.98606285603864
 30
0.0000000001127424
 10
2853.201526856993
 20
-96.90391491721357
 30
0.0000000001127424
 10
2852.843171170321
 20
-96.77190126687265
 30
0.0000000001127424
 10
2852.481839421168
 20
-96.65067334318837
 30
0.0000000001127424
 10
2852.043228630258
 20
-96.517129911967
 30
0.0000000001127424
 10
2851.602199718333
 20
-96.39275289135048
 30
0.0000000001127424
 10
2851.079068854918
 20
-96.26391533830292
 30
0.0000000001127424
 10
2850.595713595451
 20
-96.16133856460556
 30
0.0000000001127424
 10
2850.230266334606
 20
-96.09179156879281
 30
0.0000000001127424
 10
2849.98818226763
 20
-96.04994890748594
 30
0.0000000001127424
 10
2849.79771883866
 20
-96.0191028794784
 30
0.0000000001127424
 10
2849.688647118171
 20
-96.0021253885493
 30
0.0000000001127424
 10
2849.591746185536
 20
-95.987656491096
 30
0.0000000001127424
 10
2849.535857391163
 20
-95.9794880534987
 30
0.0000000001127424
 10
2849.493873636772
 20
-95.97344069597375
 30
0.0000000001127424
 10
2849.451844259046
 20
-95.9674731818327
 30
0.0000000001127424
 10
2849.40747196963
 20
-95.9612700058974
 30
0.0000000001127424
 10
2849.366284456107
 20
-95.95559578865368
 30
0.0000000001127424
 10
2849.325476371779
 20
-95.95006404327114
 30
0.0000000001127424
 10
2849.296997591243
 20
-95.94624944729048
 30
0.0000000001127424
 10
2849.270421276317
 20
-95.94272185093041
 30
0.0000000001127424
 10
2849.251000328401
 20
-95.94016500006865
 30
0.0000000001127424
 10
2849.225026129928
 20
-95.93676940227533
 30
0.0000000001127424
 10
2849.204970914486
 20
-95.93417154625195
 30
0.0000000001127424
 10
2849.183048098116
 20
-95.93135063959971
 30
0.0000000001127424
 10
2849.169158734029
 20
-95.9295742706031
 30
0.0000000001127424
 10
2849.14650153331
 20
-95.92668874955098
 30
0.0000000001127424
 10
2849.123950709341
 20
-95.92383828810989
 30
0.0000000001127424
 10
2849.082371181924
 20
-95.91862682612691
 30
0.0000000001127424
 10
2849.038087259799
 20
-95.91314885047586
 30
0.0000000001127424
 10
2848.958140344729
 20
-95.90341308693633
 30
0.0000000001127424
 10
2848.835740024514
 20
-95.8888504213578
 30
0.0000000001127424
 10
2848.683177940268
 20
-95.87149606029607
 30
0.0000000001127424
 10
2848.533627551918
 20
-95.85509476883772
 30
0.0000000001127424
 10
2848.402711715885
 20
-95.8410885653243
 30
0.0000000001127424
 10
2848.280297425526
 20
-95.82829022241776
 30
0.0000000001127424
 10
2848.135912813895
 20
-95.81341274767556
 30
0.0000000001127424
 10
2847.996993616292
 20
-95.7993436620277
 30
0.0000000001127424
 10
2847.834038614962
 20
-95.78316840642901
 30
0.0000000001127424
 10
2847.701594105875
 20
-95.77019119514034
 30
0.0000000001127424
 10
2847.566219271642
 20
-95.75706466406564
 30
0.0000000001127424
 10
2847.42884245288
 20
-95.74386185445337
 30
0.0000000001127424
 10
2847.309682035359
 20
-95.7324941732254
 30
0.0000000001127424
 10
2847.205942042084
 20
-95.722668436802
 30
0.0000000001127424
 10
2847.101974096223
 20
-95.71287109305149
 30
0.0000000001127424
 10
2846.9705552715
 20
-95.70058163752992
 30
0.0000000001127424
 10
2846.784321177286
 20
-95.68337489125179
 30
0.0000000001127424
 10
2846.641236256549
 20
-95.67030841922815
 30
0.0000000001127424
 10
2846.528640937203
 20
-95.66004691752323
 30
0.0000000001127424
 10
2846.463114648185
 20
-95.65407700782225
 30
0.0000000001127424
 10
2846.398482591992
 20
-95.6481838196737
 30
0.0000000001127424
 10
2846.338712343942
 20
-95.64272487957942
 30
0.0000000001127424
 10
2846.292041961035
 20
-95.63844872481286
 30
0.0000000001127424
 10
2846.232504799816
 20
-95.63299102601877
 30
0.0000000001127424
 10
2846.162256417888
 20
-95.62656450169698
 30
0.0000000001127424
 10
2846.041322697413
 20
-95.61559873316537
 30
0.0000000001127424
 10
2845.873444124719
 20
-95.60064639984421
 30
0.0000000001127424
 10
2845.65569360051
 20
-95.58187194394714
 30
0.0000000001127424
 10
2845.444918945065
 20
-95.56438517845208
 30
0.0000000001127424
 10
2845.250150996414
 20
-95.54878737687932
 30
0.0000000001127424
 10
2845.087159765518
 20
-95.536086888113
 30
0.0000000001127424
 10
2844.932051526573
 20
-95.52425496498881
 30
0.0000000001127424
 10
2844.783062594154
 20
-95.51308177879991
 30
0.0000000001127424
 10
2844.639659163447
 20
-95.50246958168236
 30
0.0000000001127424
 10
2844.501105739834
 20
-95.49231892246144
 30
0.0000000001127424
 10
2844.323496029018
 20
-95.47940068406888
 30
0.0000000001127424
 10
2844.115705459674
 20
-95.46439128889006
 30
0.0000000001127424
 10
2843.91251636287
 20
-95.44970434064862
 30
0.0000000001127424
 10
2843.745459781939
 20
-95.43764156645693
 30
0.0000000001127424
 10
2843.523408094036
 20
-95.42162767703348
 30
0.0000000001127424
 10
2843.220535991631
 20
-95.39986683037796
 30
0.0000000001127424
 10
2842.88937094946
 20
-95.37631300974272
 30
0.0000000001127424
 10
2842.455428065737
 20
-95.34572474999959
 30
0.0000000001127424
 10
2842.016344475863
 20
-95.31519755216732
 30
0.0000000001127424
 10
2841.51003028084
 20
-95.28030065983012
 30
0.0000000001127424
 10
2841.128974916356
 20
-95.2541362133129
 30
0.0000000001127424
 10
2840.602813709761
 20
-95.2181163010332
 30
0.0000000001127424
 10
2840.055814143122
 20
-95.1809011411201
 30
0.0000000001127424
 10
2839.488255657306
 20
-95.14262864739203
 30
0.0000000001127424
 10
2838.60737907382
 20
-95.08359984321623
 30
0.0000000001127424
 10
2837.563362579786
 20
-95.0146651635464
 30
0.0000000001127424
 10
2836.128278341007
 20
-94.92138083401505
 30
0.0000000001127424
 10
2834.901319835267
 20
-94.84292679539385
 30
0.0000000001127424
 10
2833.696354678333
 20
-94.7680460919405
 30
0.0000000001127424
 10
2832.912792595028
 20
-94.72054258363505
 30
0.0000000001127424
 10
2832.045619696321
 20
-94.66861636826843
 30
0.0000000001127424
 10
2831.218300047255
 20
-94.61975287767427
 30
0.0000000001127424
 10
2830.04406272402
 20
-94.55074582132283
 30
0.0000000001127424
 10
2828.874844702795
 20
-94.4819298705238
 30
0.0000000001127424
 10
2827.24984260693
 20
-94.38804923493944
 30
0.0000000001127424
 10
2824.723335737185
 20
-94.24670995528004
 30
0.0000000001127424
 10
2821.987514538075
 20
-94.10378186333901
 30
0.0000000001127424
 10
2819.604218470527
 20
-93.98847689911827
 30
0.0000000001127424
 10
2817.579618643304
 20
-93.89547005902068
 30
0.0000000001127424
 10
2815.56415349359
 20
-93.8105874670332
 30
0.0000000001127424
 10
2811.896461284753
 20
-93.67260999974178
 30
0.0000000001127424
 10
2807.440364542877
 20
-93.53155473960169
 30
0.0000000001127424
 10
2803.651283063232
 20
-93.42922184726876
 30
0.0000000001127424
 10
2801.854099969706
 20
-93.38288544722445
 30
0.0000000001127424
  0
SPLINE
  5
1AC40
330
18
100
AcDbEntity
  8
01
100
AcDbSpline
210
0.0
220
0.0
230
1.0
 70
     8
 71
     3
 72
    18
 73
    14
 74
     0
 42
0.0000000001
 43
0.0000000001
 40
0.0
 40
0.0
 40
0.0
 40
0.0
 40
0.6968103897542867
 40
1.801970234880123
 40
2.17321326497219
 40
2.423509114463025
 40
3.439835155986084
 40
3.957522063926517
 40
4.346495939257521
 40
4.56152175118824
 40
4.77720781402824
 40
4.905127338730156
 40
5.034878036177931
 40
5.034878036177931
 40
5.034878036177931
 40
5.034878036177931
 10
2807.444034137451
 20
-114.9485582401644
 30
0.0000000001127424
 10
2807.675748361828
 20
-114.9432419309092
 30
0.0000000001127424
 10
2808.275633775466
 20
-114.940461265573
 30
0.0000000001127424
 10
2808.950413059939
 20
-114.9690023305025
 30
0.0000000001127424
 10
2809.417723523414
 20
-115.0020385729654
 30
0.0000000001127424
 10
2809.829649412844
 20
-115.0355051730307
 30
0.0000000001127424
 10
2810.201764047009
 20
-115.0739131001096
 30
0.0000000001127424
 10
2810.480971466767
 20
-115.1042526208789
 30
0.0000000001127424
 10
2810.59869754412
 20
-115.1164133594471
 30
0.0000000001127424
 10
2810.663297424017
 20
-115.1226410912864
 30
0.0000000001127424
 10
2810.699121733608
 20
-115.1256077223211
 30
0.0000000001127424
 10
2810.727148360832
 20
-115.1270897252066
 30
0.0000000001127424
 10
2810.744519133988
 20
-115.1275595560605
 30
0.0000000001127424
 10
2810.757839794235
 20
-115.1271230428497
 30
0.0000000001127424
  0
LINE
  5
1AC41
330
18
100
AcDbEntity
  8
01
100
AcDbLine
 10
2801.854099969706
 20
-93.38288544722445
 30
0.0000000001127424
 11
2801.854099969706
 21
-115.3829618839577
 31
0.0000000001127424
  0
ARC
  5
1AC43
330
18
100
AcDbEntity
  8
01
  6
CONTINUOUS
100
AcDbCircle
 10
2971.354145404811
 20
-96.39123530638881
 30
0.0000000001127424
 40
0.5000152713007943
100
AcDbArc
 50
89.04565565614848
 51
179.9982666570861
  0
ARC
  5
1AC44
330
18
100
AcDbEntity
  8
01
  6
CONTINUOUS
100
AcDbCircle
 10
3068.816383321709
 20
-108.5219689546129
 30
0.0000000001127424
 40
1.525357082928538
100
AcDbArc
 50
274.6043743568678
 51
346.005394869648
  0
SPLINE
  5
1AC45
330
18
100
AcDbEntity
  8
01
  6
CONTINUOUS
100
AcDbSpline
210
0.0
220
0.0
230
1.0
 70
     8
 71
     3
 72
    19
 73
    15
 74
     0
 42
0.0000000001
 43
0.0000000001
 40
0.0
 40
0.0
 40
0.0
 40
0.0
 40
9.460161730091599
 40
15.98254808382674
 40
21.19129945756545
 40
25.09589110006226
 40
31.07976597410934
 40
37.07051130115414
 40
49.03234155557556
 40
60.99958883125357
 40
72.94987208489064
 40
78.94125269660621
 40
87.91845955628929
 40
97.64525170031928
 40
97.64525170031928
 40
97.64525170031928
 40
97.64525170031928
 10
3068.942594760764
 20
-98.73641883666733
 30
0.0000000001127424
 10
3065.80133781974
 20
-98.49249915472319
 30
0.0000000001127424
 10
3060.488059569777
 20
-98.13646467331728
 30
0.0000000001127424
 10
3053.434401441139
 20
-97.79487196393711
 30
0.0000000001127424
 10
3048.226702426974
 20
-97.60612560805566
 30
0.0000000001127424
 10
3043.196864389777
 20
-97.46254786410827
 30
0.0000000001127424
 10
3037.905463780919
 20
-97.34483975790317
 30
0.0000000001127424
 10
3029.928686543107
 20
-97.18742495653896
 30
0.0000000001127424
 10
3019.958513081977
 20
-96.96687196403036
 30
0.0000000001127424
 10
3008.002925777094
 20
-96.68531498602579
 30
0.0000000001127424
 10
2998.036857298922
 20
-96.44773350416926
 30
0.0000000001127424
 10
2989.066816055531
 20
-96.24385587441975
 30
0.0000000001127424
 10
2980.837447784684
 20
-96.06600063474662
 30
0.0000000001127424
 10
2974.604203641317
 20
-95.94536888480525
 30
0.0000000001127424
 10
2971.362473923976
 20
-95.89126396679694
 30
0.0000000001127424
  0
SPLINE
  5
1AC46
330
18
100
AcDbEntity
  8
01
  6
CONTINUOUS
100
AcDbSpline
210
0.0
220
0.0
230
1.0
 70
     8
 71
     3
 72
     8
 73
     4
 74
     0
 42
0.0000000001
 43
0.0000000001
 40
0.0
 40
0.0
 40
0.0
 40
0.0
 40
0.2577938006557611
 40
0.2577938006557611
 40
0.2577938006557611
 40
0.2577938006557611
 10
2970.854129869717
 20
-112.3754451438836
 30
0.0000000001127424
 10
2970.854132855006
 20
-112.3773479138863
 30
0.0000000001127424
 10
2970.854132406296
 20
-112.3764002083885
 30
0.0000000001127424
 10
2970.85413155002
 20
-112.3746791708727
 30
0.0000000001127424
  0
ARC
  5
1AC47
330
18
100
AcDbEntity
  8
01
  6
CONTINUOUS
100
AcDbCircle
 10
2971.354144753565
 20
-112.3746812911413
 30
0.0000000001127424
 40
0.5000153888062217
100
AcDbArc
 50
180.0017142246948
 51
270.947088851936
  0
ARC
  5
1AC48
330
18
100
AcDbEntity
  8
01
  6
CONTINUOUS
100
AcDbCircle
 10
3068.820570530755
 20
-100.2558448184291
 30
0.0000000001127424
 40
1.524291238605641
100
AcDbArc
 50
14.00382236257948
 51
85.41177810106211
  0
ARC
  5
1AC49
330
18
100
AcDbEntity
  8
01
  6
CONTINUOUS
100
AcDbCircle
 10
3052.854069246473
 20
-104.3829236548245
 30
0.0000000001127424
 40
18.01550911287495
100
AcDbArc
 50
345.5085506272671
 51
14.45129326875562
  0
SPLINE
  5
1AC4A
330
18
100
AcDbEntity
  8
01
  6
CONTINUOUS
100
AcDbSpline
210
0.0
220
0.0
230
1.0
 70
     8
 71
     3
 72
    18
 73
    14
 74
     0
 42
0.0000000001
 43
0.0000000001
 40
0.0084261242649831
 40
0.0084261242649831
 40
0.0084261242649831
 40
0.0084261242649831
 40
7.712846085700495
 40
14.65425159473615
 40
25.07157586312692
 40
31.0434317342125
 40
43.00917413402433
 40
60.95019085191205
 40
72.92347365185603
 40
75.9095362856851
 40
81.88455093582228
 40
87.86541887519844
 40
97.65001262520049
 40
97.65001262520049
 40
97.65001262520049
 40
97.65001262520049
 10
2971.362409774448
 20
-112.8746424677984
 30
0.0000000001127424
 10
2973.930128106148
 20
-112.8321106641733
 30
0.0000000001127424
 10
2978.811022903618
 20
-112.7407654748367
 30
0.0000000001127424
 10
2987.163099732089
 20
-112.5667819934856
 30
0.0000000001127424
 10
2994.937483820105
 20
-112.3925868911579
 30
0.0000000001127424
 10
3004.385834758189
 20
-112.1717143281171
 30
0.0000000001127424
 10
3016.341101993444
 20
-111.8880273964514
 30
0.0000000001127424
 10
3030.296504026998
 20
-111.5720663904467
 30
0.0000000001127424
 10
3041.260874507777
 20
-111.3668579217706
 30
0.0000000001127424
 10
3048.23547025019
 20
-111.1691772279082
 30
0.0000000001127424
 10
3053.21223544612
 20
-110.9914289413682
 30
0.0000000001127424
 10
3060.448783757102
 20
-110.6426052210591
 30
0.0000000001127424
 10
3065.690252475525
 20
-110.2943471020976
 30
0.0000000001127424
 10
3068.939436971742
 20
-110.042325885945
 30
0.0000000001127424
  0
LINE
  5
1AC4B
330
18
100
AcDbEntity
  8
01
100
AcDbLine
 10
2970.85413013374
 20
-96.39122017965656
 30
0.0000000001127424
 11
2970.854132169015
 21
-112.376110446166
 31
0.0000000001127424
  0
LINE
  5
1AC4C
330
18
100
AcDbEntity
  8
01
100
AcDbLine
 10
2970.854063162281
 20
-96.18143061946512
 30
0.0000000001127424
 11
2970.854063162281
 21
-104.3829236655911
 31
0.0000000001127424
  0
LINE
  5
1AC4D
330
18
100
AcDbEntity
  8
01
100
AcDbLine
 10
2970.854063162281
 20
-104.3829236655911
 30
0.0000000001127424
 11
2970.854063162281
 21
-112.5863228910684
 31
0.0000000001127424
  0
ARC
  5
1AC4E
330
18
100
AcDbEntity
  8
01
100
AcDbCircle
 10
2970.554003851104
 20
-112.5862678603498
 30
0.0000000001127424
 40
0.3000593162567604
100
AcDbArc
 50
270.473277023687
 51
359.9894579441742
  0
SPLINE
  5
1AC4F
330
18
100
AcDbEntity
  8
01
100
AcDbSpline
210
0.0
220
0.0
230
1.0
 70
     8
 71
     3
 72
    50
 73
    46
 74
     0
 42
0.0000000001
 43
0.0000000001
 40
40.24605889528515
 40
40.24605889528515
 40
40.24605889528515
 40
40.24605889528515
 40
40.41330824550255
 40
41.05947960633106
 40
42.10215968566057
 40
42.51026830244423
 40
43.11266884409871
 40
43.50922291673435
 40
43.98418136823029
 40
44.53538836255579
 40
45.08142471240612
 40
45.62181933743891
 40
45.88937875052035
 40
46.06066524137628
 40
46.57258251084908
 40
47.08382222064991
 40
47.42685914774938
 40
47.94939217292845
 40
48.30296108340335
 40
48.65809398927975
 40
48.91534449632767
 40
49.42903302199714
 40
49.94097800742659
 40
50.70656261856672
 40
51.21581259154242
 40
51.97875699634007
 40
52.74150980806883
 40
53.13326652189864
 40
54.3118397937692
 40
54.70465026371415
 40
55.09791575571316
 40
55.49173697177937
 40
55.88448045148156
 40
56.16708261071171
 40
56.73196250872059
 40
57.01766912717855
 40
57.30623476903798
 40
57.89114633580776
 40
58.77871620482893
 40
59.37384912472834
 40
59.96449161567381
 40
60.55313685403777
 40
64.62558942126732
 40
68.70884455955124
 40
70.4428402906394
 40
70.4428402906394
 40
70.4428402906394
 40
70.4428402906394
 10
2946.744923260875
 20
-113.5510385171901
 30
0.0000000001127424
 10
2946.744923267416
 20
-113.5510385573125
 30
0.0000000001127424
 10
2946.747305277079
 20
-113.5506630079708
 30
0.0000000001127424
 10
2946.778008718437
 20
-113.5459894086553
 30
0.0000000001127424
 10
2946.873094736396
 20
-113.5330111576477
 30
0.0000000001127424
 10
2947.020375419616
 20
-113.5150751667661
 30
0.0000000001127424
 10
2947.155051342169
 20
-113.4996555872021
 30
0.0000000001127424
 10
2947.326442009876
 20
-113.4812391082296
 30
0.0000000001127424
 10
2947.513971954003
 20
-113.4620813474012
 30
0.0000000001127424
 10
2947.753022406891
 20
-113.439033646815
 30
0.0000000001127424
 10
2948.030237067412
 20
-113.4138138291091
 30
0.0000000001127424
 10
2948.273883528574
 20
-113.3928255141927
 30
0.0000000001127424
 10
2948.465649140347
 20
-113.3769061222029
 30
0.0000000001127424
 10
2948.658377986422
 20
-113.361171991316
 30
0.0000000001127424
 10
2948.911067329203
 20
-113.341021813646
 30
0.0000000001127424
 10
2949.218086728411
 20
-113.3170584571035
 30
0.0000000001127424
 10
2949.499481161861
 20
-113.2955000130878
 30
0.0000000001127424
 10
2949.731090554943
 20
-113.2783402694149
 30
0.0000000001127424
 10
2949.959047653015
 20
-113.2622372098658
 30
0.0000000001127424
 10
2950.143887529631
 20
-113.249717063532
 30
0.0000000001127424
 10
2950.366629832631
 20
-113.2351946220588
 30
0.0000000001127424
 10
2950.631228524196
 20
-113.2187699668748
 30
0.0000000001127424
 10
2951.027425659292
 20
-113.1958148615531
 30
0.0000000001127424
 10
2951.451390807705
 20
-113.1733293860862
 30
0.0000000001127424
 10
2951.965690687818
 20
-113.1485180507525
 30
0.0000000001127424
 10
2952.507628412129
 20
-113.1247988547916
 30
0.0000000001127424
 10
2953.041606287044
 20
-113.1042985170634
 30
0.0000000001127424
 10
2953.7133608911
 20
-113.0814196376705
 30
0.0000000001127424
 10
2954.307908739303
 20
-113.0643414335245
 30
0.0000000001127424
 10
2954.918241092889
 20
-113.0494912404565
 30
0.0000000001127424
 10
2955.289341924045
 20
-113.0412236083575
 30
0.0000000001127424
 10
2955.664371652388
 20
-113.0335619219813
 30
0.0000000001127424
 10
2956.004821845841
 20
-113.0273165140306
 30
0.0000000001127424
 10
2956.401361914238
 20
-113.0209129580676
 30
0.0000000001127424
 10
2956.764982687707
 20
-113.0162590069031
 30
0.0000000001127424
 10
2957.137969309259
 20
-113.0126025877607
 30
0.0000000001127424
 10
2957.520473840393
 20
-113.0093483425826
 30
0.0000000001127424
 10
2958.106599430507
 20
-113.0050323539363
 30
0.0000000001127424
 10
2958.796046463272
 20
-112.999898521135
 30
0.0000000001127424
 10
2959.486942453551
 20
-112.9934741969955
 30
0.0000000001127424
 10
2960.078447222321
 20
-112.987331130053
 30
0.0000000001127424
 10
2961.828645627153
 20
-112.9696530349647
 30
0.0000000001127424
 10
2964.743404761078
 20
-112.9407360569303
 30
0.0000000001127424
 10
2968.039586984657
 20
-112.9079652739765
 30
0.0000000001127424
 10
2969.978502567611
 20
-112.8909351682046
 30
0.0000000001127424
 10
2970.556477184043
 20
-112.8862741624798
 30
0.0000000001127424
  0
ARC
  5
1AC50
330
18
100
AcDbEntity
  8
01
100
AcDbCircle
 10
2970.554004942956
 20
-96.18148678375064
 30
0.0000000001127424
 40
0.3000582325053063
100
AcDbArc
 50
0.0188015802829465
 51
89.52696146566508
  0
SPLINE
  5
1AC51
330
18
100
AcDbEntity
  8
01
100
AcDbSpline
210
0.0
220
0.0
230
1.0
 70
     8
 71
     3
 72
    49
 73
    45
 74
     0
 42
0.0000000001
 43
0.0000000001
 40
0.0
 40
0.0
 40
0.0
 40
0.0
 40
1.052004170098063
 40
2.114068328488348
 40
3.660643967315682
 40
5.205578484377293
 40
7.525733899751696
 40
9.841997416968454
 40
10.27670456311666
 40
10.71152584647312
 40
11.1483341883486
 40
12.02648531740571
 40
12.46242376388447
 40
13.11089356461147
 40
13.74676018385373
 40
14.16379049950606
 40
14.5810272807612
 40
14.99964071911551
 40
15.20950456042481
 40
16.04740468546638
 40
17.38165325542484
 40
18.08548826931737
 40
18.78860246884783
 40
19.25762548782302
 40
19.96217344386303
 40
21.18312281753642
 40
21.55961155680222
 40
22.31244472762127
 40
22.86998640791152
 40
23.23535997595707
 40
23.41662357783994
 40
23.64996011135596
 40
23.88319097472134
 40
24.35041982729464
 40
24.82049050931876
 40
25.05741057465696
 40
25.53505097306694
 40
26.25891944630026
 40
27.23920427015888
 40
27.98862206669473
 40
28.49788448903195
 40
29.27759755601144
 40
30.08357020682969
 40
30.14760390115131
 40
30.14760390115131
 40
30.14760390115131
 40
30.14760390115131
 10
2970.556476965771
 20
-95.88148794195831
 30
0.0000000001127424
 10
2970.205821220342
 20
-95.8786601630618
 30
0.0000000001127424
 10
2969.501160112065
 20
-95.87265440517285
 30
0.0000000001127424
 10
2968.28108845417
 20
-95.86159518573731
 30
0.0000000001127424
 10
2966.896669794855
 20
-95.84847089487721
 30
0.0000000001127424
 10
2965.092959646264
 20
-95.83062594226249
 30
0.0000000001127424
 10
2963.032725574693
 20
-95.80970582574446
 30
0.0000000001127424
 10
2961.342391356627
 20
-95.7931343835744
 30
0.0000000001127424
 10
2960.280667699349
 20
-95.7824978079916
 30
0.0000000001127424
 10
2959.845269436778
 20
-95.77798635926229
 30
0.0000000001127424
 10
2959.262015761021
 20
-95.77206012421402
 30
0.0000000001127424
 10
2958.678529248434
 20
-95.76701432794835
 30
0.0000000001127424
 10
2958.02434067684
 20
-95.762111409716
 30
0.0000000001127424
 10
2957.451566038507
 20
-95.75793740246445
 30
0.0000000001127424
 10
2956.891083802057
 20
-95.75298851102798
 30
0.0000000001127424
 10
2956.418427805919
 20
-95.74707911511587
 30
0.0000000001127424
 10
2956.017668913056
 20
-95.74071664105941
 30
0.0000000001127424
 10
2955.684744927218
 20
-95.7345377351885
 30
0.0000000001127424
 10
2955.218436874494
 20
-95.72511625116022
 30
0.0000000001127424
 10
2954.470615601583
 20
-95.7081483864904
 30
0.0000000001127424
 10
2953.598764376447
 20
-95.68317053753981
 30
0.0000000001127424
 10
2952.820599775137
 20
-95.65533631087283
 30
0.0000000001127424
 10
2952.308416825031
 20
-95.63437708795982
 30
0.0000000001127424
 10
2951.816241448206
 20
-95.61224900087018
 30
0.0000000001127424
 10
2951.219624499822
 20
-95.58289029271873
 30
0.0000000001127424
 10
2950.69929643456
 20
-95.55340058580805
 30
0.0000000001127424
 10
2950.220051428453
 20
-95.52326151345233
 30
0.0000000001127424
 10
2949.897924304571
 20
-95.5014943112842
 30
0.0000000001127424
 10
2949.587155854749
 20
-95.4788336068259
 30
0.0000000001127424
 10
2949.36612492133
 20
-95.46205831163206
 30
0.0000000001127424
 10
2949.202231258379
 20
-95.4494122690553
 30
0.0000000001127424
 10
2949.05862268383
 20
-95.43823222843366
 30
0.0000000001127424
 10
2948.8537895167
 20
-95.42216184659719
 30
0.0000000001127424
 10
2948.605333389562
 20
-95.40234953146773
 30
0.0000000001127424
 10
2948.37070717303
 20
-95.383037085257
 30
0.0000000001127424
 10
2948.150841503681
 20
-95.3643747260976
 30
0.0000000001127424
 10
2947.8973400164
 20
-95.34208481343467
 30
0.0000000001127424
 10
2947.542788577336
 20
-95.3089263846141
 30
0.0000000001127424
 10
2947.222259840611
 20
-95.27584684701287
 30
0.0000000001127424
 10
2947.00429085184
 20
-95.25089937108169
 30
0.0000000001127424
 10
2946.865077754453
 20
-95.23367546626059
 30
0.0000000001127424
 10
2946.770847772696
 20
-95.22089779878388
 30
0.0000000001127424
 10
2946.744067139506
 20
-95.2167704416579
 30
0.0000000001127424
 10
2946.743089363542
 20
-95.21661327239235
 30
0.0000000001127424
 10
2946.743089409782
 20
-95.2166129734178
 30
0.0000000001127424
  0
ELLIPSE
  5
1AC52
330
18
100
AcDbEntity
  8
01
100
AcDbEllipse
 10
2942.854099969706
 20
-104.3829236655911
 30
0.0000000001127424
 11
-15.0
 21
4.454769886308439E-14
 31
0.0
210
0.0
220
0.0
230
1.0
 40
0.7333333333333331
 41
4.063812080098634
 42
8.50224305139331
  0
SPLINE
  5
1AC56
330
18
100
AcDbEntity
  8
01
  6
CONTINUOUS
100
AcDbSpline
210
0.0
220
0.0
230
1.0
 70
     8
 71
     3
 72
    22
 73
    18
 74
     0
 42
0.0000000001
 43
0.0000000001
 40
0.4991520728132199
 40
0.4991520728132199
 40
0.4991520728132199
 40
0.4991520728132199
 40
6.6691039202251
 40
13.3382078404502
 40
20.0073117606753
 40
26.6764156809004
 40
33.3455196011255
 40
40.0146235213506
 40
46.6837274415757
 40
53.3528313618008
 40
60.0219352820259
 40
66.691039202251
 40
73.3601431224762
 40
80.0292470427013
 40
86.6983509629264
 40
93.3674548831515
 40
94.9836652134268
 40
94.9836652134268
 40
94.9836652134268
 40
94.9836652134268
 10
2971.35364362331
 20
105.6160116304081
 30
0.0000000001127424
 10
2973.41147980077
 20
105.618436637877
 30
0.0000000001127424
 10
2977.696577065526
 20
105.6194631729877
 30
0.0000000001127424
 10
2984.183542759845
 20
105.6074642144526
 30
0.0000000001127424
 10
2990.853691093214
 20
105.5795256156011
 30
0.0000000001127424
 10
2997.553992611014
 20
105.5342261725436
 30
0.0000000001127424
 10
3004.186323384727
 20
105.4709156807367
 30
0.0000000001127424
 10
3010.873645594062
 20
105.3866353982953
 30
0.0000000001127424
 10
3017.535586195827
 20
105.2800386949307
 30
0.0000000001127424
 10
3024.221486983255
 20
105.1478333209011
 30
0.0000000001127424
 10
3030.893362984985
 20
104.9875018864518
 30
0.0000000001127424
 10
3037.541035058552
 20
104.7958525895347
 30
0.0000000001127424
 10
3044.203480176498
 20
104.5671818595174
 30
0.0000000001127424
 10
3050.882951662918
 20
104.29492396256
 30
0.0000000001127424
 10
3057.529517217945
 20
103.973672708697
 30
0.0000000001127424
 10
3062.525098687394
 20
103.686354655646
 30
0.0000000001127424
 10
3065.281402137727
 20
103.5083474365292
 30
0.0000000001127424
 10
3065.8187720229
 20
103.472848783606
 30
0.0000000001127424
  0
ARC
  5
1AC57
330
18
100
AcDbEntity
  8
01
  6
CONTINUOUS
100
AcDbCircle
 10
2949.446870348482
 20
7215.853087803798
 30
0.0000000001127424
 40
7137.270364721012
100
AcDbArc
 50
270.1758777753184
 51
270.9548782576449
  0
ARC
  5
1AC58
330
18
100
AcDbEntity
  8
01
  6
CONTINUOUS
100
AcDbCircle
 10
3068.364988881918
 20
81.07443043541616
 30
0.0000000001127424
 40
1.499603363099995
100
AcDbArc
 50
270.9381582033129
 51
345.3587315262176
  0
ARC
  5
1AC59
330
18
100
AcDbEntity
  8
01
  6
CONTINUOUS
100
AcDbCircle
 10
3065.719897742565
 20
101.9761113836821
 30
0.0000000001127424
 40
1.499999655880775
100
AcDbArc
 50
53.45425968259462
 51
86.22053952126305
  0
ARC
  5
1AC5A
330
18
100
AcDbEntity
  8
01
  6
CONTINUOUS
100
AcDbCircle
 10
2971.354232813497
 20
105.1160119998553
 30
0.0000000001127424
 40
0.499999977697594
100
AcDbArc
 50
90.06751624088714
 51
179.999831839343
  0
ARC
  5
1AC5B
330
18
100
AcDbEntity
  8
01
  6
CONTINUOUS
100
AcDbCircle
 10
2971.354157454845
 20
79.11634762634685
 30
0.0000000001127424
 40
0.4999997940691604
100
AcDbArc
 50
179.9998246816932
 51
270.1759041237186
  0
LINE
  5
1AC5C
330
18
100
AcDbEntity
  8
01
  6
CONTINUOUS
100
AcDbLine
 10
2970.854158397149
 20
79.11440100180425
 30
0.0000000001127424
 11
2970.854157517422
 21
79.11689824981295
 31
0.0000000001127424
  0
ARC
  5
1AC5D
330
18
100
AcDbEntity
  8
01
  6
CONTINUOUS
100
AcDbCircle
 10
3068.364445781584
 20
81.07368362434681
 30
0.0000000001127424
 40
1.499990088713092
100
AcDbArc
 50
270.954401062321
 51
345.3694977651999
  0
SPLINE
  5
1AC5E
330
18
100
AcDbEntity
  8
01
  6
CONTINUOUS
100
AcDbSpline
210
0.0
220
0.0
230
1.0
 70
     8
 71
     3
 72
    25
 73
    21
 74
     0
 42
0.0000000001
 43
0.0000000001
 40
0.0
 40
0.0
 40
0.0
 40
0.0
 40
1.330115194272647
 40
4.576620566491306
 40
7.684101941912565
 40
9.567915124321164
 40
10.70729894620776
 40
12.61567813784874
 40
14.52128244825964
 40
16.78952030782246
 40
18.28969619871088
 40
19.22510649745568
 40
20.71628671232397
 40
21.58886866030355
 40
22.37644809635422
 40
22.82765181115517
 40
23.11832309822512
 40
23.40038767435584
 40
23.53810277539185
 40
23.6735801868277
 40
23.6735801868277
 40
23.6735801868277
 40
23.6735801868277
 10
3069.816089345388
 20
80.69592372671787
 30
0.0000000001127424
 10
3069.928049321617
 20
81.12489039515913
 30
0.0000000001127424
 10
3070.279304015154
 20
82.609974190912
 30
0.0000000001127424
 10
3070.678926961804
 20
85.1432082190131
 30
0.0000000001127424
 10
3070.861115457816
 20
87.88530567665885
 30
0.0000000001127424
 10
3070.876435299067
 20
89.929214779002
 30
0.0000000001127424
 10
3070.838452508093
 20
91.57272564672076
 30
0.0000000001127424
 10
3070.74632606761
 20
93.22179751592921
 30
0.0000000001127424
 10
3070.511468504788
 20
95.23673796411458
 30
0.0000000001127424
 10
3070.127752739267
 20
97.0918071313763
 30
0.0000000001127424
 10
3069.647625550628
 20
98.58637100528449
 30
0.0000000001127424
 10
3069.146776351265
 20
99.79644398823939
 30
0.0000000001127424
 10
3068.638132428037
 20
100.7735239995013
 30
0.0000000001127424
 10
3068.063867371933
 20
101.6541088409945
 30
0.0000000001127424
 10
3067.631186022898
 20
102.2100689603235
 30
0.0000000001127424
 10
3067.287164587562
 20
102.5867355662599
 30
0.0000000001127424
 10
3067.042773226269
 20
102.8250811276635
 30
0.0000000001127424
 10
3066.86572401683
 20
102.982615935608
 30
0.0000000001127424
 10
3066.721204669941
 20
103.0981373455611
 30
0.0000000001127424
 10
3066.650590437674
 20
103.1559167922046
 30
0.0000000001127424
 10
3066.613138978222
 20
103.1811504176421
 30
0.0000000001127424
  0
LINE
  5
1AC5F
330
18
100
AcDbEntity
  8
01
100
AcDbLine
 10
2970.854232835802
 20
105.1160134673341
 30
0.0000000001127424
 11
2970.854157517422
 21
79.11689824981295
 31
0.0000000001127424
  0
LINE
  5
1AC60
330
18
100
AcDbEntity
  8
01
100
AcDbLine
 10
2970.854159787972
 20
78.91475653616135
 30
0.0000000001127424
 11
2970.854159787972
 21
105.3160114130665
 31
0.0000000001127424
  0
ARC
  5
1AC61
330
18
100
AcDbEntity
  8
01
100
AcDbCircle
 10
2970.554159788917
 20
105.3160114121224
 30
0.0000000001127424
 40
0.2999999990551187
100
AcDbArc
 50
0.0000001803273744
 51
89.95150405611312
  0
ARC
  5
1AC62
330
18
100
AcDbEntity
  8
01
100
AcDbCircle
 10
2970.554158990612
 20
78.91475583560441
 30
0.0000000001127424
 40
0.3000007973596788
100
AcDbArc
 50
270.0810830080073
 51
0.0001337961896191
  0
LINE
  5
1AC63
330
18
100
AcDbEntity
  8
01
100
AcDbLine
 10
2970.854159784974
 20
105.3160538292541
 30
0.0000000001127424
 11
2970.85385262186
 21
105.3295836472853
 31
0.0000000001127424
  0
LINE
  5
1AC64
330
18
100
AcDbEntity
  8
01
100
AcDbLine
 10
2927.854196512009
 20
136.6157580202776
 30
0.0000000001127424
 11
2957.854236106888
 21
136.6157580202776
 31
0.0000000001127424
  0
LINE
  5
1AC65
330
18
100
AcDbEntity
  8
01
100
AcDbLine
 10
2927.854196512009
 20
136.6157580202776
 30
0.0000000001127424
 11
2927.854196512009
 21
82.61475934911095
 31
0.0000000001127424
  0
ARC
  5
1AC66
330
18
100
AcDbEntity
  8
01
100
AcDbCircle
 10
2931.854196512009
 20
82.61475934911095
 30
0.0000000001127424
 40
4.0
100
AcDbArc
 50
180.0
 51
270.0
  0
LINE
  5
1AC67
330
18
100
AcDbEntity
  8
01
100
AcDbLine
 10
2970.554932433763
 20
78.61475934911095
 30
0.0000000001127424
 11
2931.854196512009
 21
78.61475934911095
 31
0.0000000001127424
  0
LINE
  5
1AC68
330
18
100
AcDbEntity
  8
01
100
AcDbLine
 10
2970.554413713053
 20
105.6160113037149
 30
0.0000000001127424
 11
2967.854236106888
 21
105.6160113037149
 31
0.0000000001127424
  0
LINE
  5
1AC69
330
18
100
AcDbEntity
  8
01
100
AcDbLine
 10
2957.854236106888
 20
136.6157580202776
 30
0.0000000001127424
 11
2957.854236106888
 21
115.6160113037149
 31
0.0000000001127424
  0
ARC
  5
1AC6A
330
18
100
AcDbEntity
  8
01
100
AcDbCircle
 10
2967.854236106888
 20
115.6160113037149
 30
0.0000000001127424
 40
10.0
100
AcDbArc
 50
180.0
 51
270.0
  0
SPLINE
  5
1AC6B
330
18
100
AcDbEntity
  8
01
  6
CONTINUOUS
100
AcDbSpline
210
0.0
220
0.0
230
1.0
 70
     8
 71
     3
 72
    22
 73
    18
 74
     0
 42
0.0000000001
 43
0.0000000001
 40
0.4991520728132199
 40
0.4991520728132199
 40
0.4991520728132199
 40
0.4991520728132199
 40
6.6691039202251
 40
13.3382078404502
 40
20.0073117606753
 40
26.6764156809004
 40
33.3455196011255
 40
40.0146235213506
 40
46.6837274415757
 40
53.3528313618008
 40
60.0219352820259
 40
66.691039202251
 40
73.3601431224762
 40
80.0292470427013
 40
86.6983509629264
 40
93.3674548831515
 40
94.9836652134268
 40
94.9836652134268
 40
94.9836652134268
 40
94.9836652134268
 10
2971.35364362331
 20
225.615504410147
 30
0.0000000001127424
 10
2973.41147980077
 20
225.6130794026781
 30
0.0000000001127424
 10
2977.696577065526
 20
225.6120528675674
 30
0.0000000001127424
 10
2984.183542759845
 20
225.6240518261025
 30
0.0000000001127424
 10
2990.853691093214
 20
225.651990424954
 30
0.0000000001127424
 10
2997.553992611014
 20
225.6972898680115
 30
0.0000000001127424
 10
3004.186323384727
 20
225.7606003598185
 30
0.0000000001127424
 10
3010.873645594062
 20
225.8448806422598
 30
0.0000000001127424
 10
3017.535586195827
 20
225.9514773456244
 30
0.0000000001127424
 10
3024.221486983255
 20
226.083682719654
 30
0.0000000001127424
 10
3030.893362984985
 20
226.2440141541033
 30
0.0000000001127424
 10
3037.541035058552
 20
226.4356634510204
 30
0.0000000001127424
 10
3044.203480176498
 20
226.6643341810377
 30
0.0000000001127424
 10
3050.882951662918
 20
226.9365920779951
 30
0.0000000001127424
 10
3057.529517217945
 20
227.2578433318581
 30
0.0000000001127424
 10
3062.525098687394
 20
227.5451613849091
 30
0.0000000001127424
 10
3065.281402137727
 20
227.7231686040259
 30
0.0000000001127424
 10
3065.8187720229
 20
227.7586672569491
 30
0.0000000001127424
  0
ARC
  5
1AC6C
330
18
100
AcDbEntity
  8
01
  6
CONTINUOUS
100
AcDbCircle
 10
2949.446870348482
 20
-6884.621571763244
 30
0.0000000001127424
 40
7137.270364721012
100
AcDbArc
 50
89.04512174235512
 51
89.82412222468156
  0
ARC
  5
1AC6D
330
18
100
AcDbEntity
  8
01
  6
CONTINUOUS
100
AcDbCircle
 10
3068.364988881918
 20
250.1570856051389
 30
0.0000000001127424
 40
1.499603363099995
100
AcDbArc
 50
14.64126847378866
 51
89.06184179668708
  0
ARC
  5
1AC6E
330
18
100
AcDbEntity
  8
01
  6
CONTINUOUS
100
AcDbCircle
 10
3065.719897742565
 20
229.255404656873
 30
0.0000000001127424
 40
1.499999655880775
100
AcDbArc
 50
273.779460478737
 51
306.5457403174054
  0
ARC
  5
1AC6F
330
18
100
AcDbEntity
  8
01
  6
CONTINUOUS
100
AcDbCircle
 10
2971.354232813497
 20
226.1155040406998
 30
0.0000000001127424
 40
0.499999977697594
100
AcDbArc
 50
180.000168160657
 51
269.9324837591129
  0
ARC
  5
1AC70
330
18
100
AcDbEntity
  8
01
  6
CONTINUOUS
100
AcDbCircle
 10
2971.354157454845
 20
252.1151684142083
 30
0.0000000001127424
 40
0.4999997940691604
100
AcDbArc
 50
89.82409587628142
 51
180.0001753183068
  0
LINE
  5
1AC71
330
18
100
AcDbEntity
  8
01
  6
CONTINUOUS
100
AcDbLine
 10
2970.854158397149
 20
252.1171150387509
 30
0.0000000001127424
 11
2970.854157517422
 21
252.1146177907422
 31
0.0000000001127424
  0
ARC
  5
1AC72
330
18
100
AcDbEntity
  8
01
  6
CONTINUOUS
100
AcDbCircle
 10
3068.364445781584
 20
250.1578324162083
 30
0.0000000001127424
 40
1.499990088713092
100
AcDbArc
 50
14.63050223480012
 51
89.04559893767902
  0
SPLINE
  5
1AC73
330
18
100
AcDbEntity
  8
01
  6
CONTINUOUS
100
AcDbSpline
210
0.0
220
0.0
230
1.0
 70
     8
 71
     3
 72
    25
 73
    21
 74
     0
 42
0.0000000001
 43
0.0000000001
 40
0.0
 40
0.0
 40
0.0
 40
0.0
 40
1.330115194272647
 40
4.576620566491306
 40
7.684101941912565
 40
9.567915124321164
 40
10.70729894620776
 40
12.61567813784874
 40
14.52128244825964
 40
16.78952030782246
 40
18.28969619871088
 40
19.22510649745568
 40
20.71628671232397
 40
21.58886866030355
 40
22.37644809635422
 40
22.82765181115517
 40
23.11832309822512
 40
23.40038767435584
 40
23.53810277539185
 40
23.6735801868277
 40
23.6735801868277
 40
23.6735801868277
 40
23.6735801868277
 10
3069.816089345388
 20
250.5355923138372
 30
0.0000000001127424
 10
3069.928049321617
 20
250.106625645396
 30
0.0000000001127424
 10
3070.279304015154
 20
248.6215418496431
 30
0.0000000001127424
 10
3070.678926961804
 20
246.088307821542
 30
0.0000000001127424
 10
3070.861115457816
 20
243.3462103638963
 30
0.0000000001127424
 10
3070.876435299067
 20
241.3023012615531
 30
0.0000000001127424
 10
3070.838452508093
 20
239.6587903938344
 30
0.0000000001127424
 10
3070.74632606761
 20
238.0097185246259
 30
0.0000000001127424
 10
3070.511468504788
 20
235.9947780764405
 30
0.0000000001127424
 10
3070.127752739267
 20
234.1397089091788
 30
0.0000000001127424
 10
3069.647625550628
 20
232.6451450352706
 30
0.0000000001127424
 10
3069.146776351265
 20
231.4350720523157
 30
0.0000000001127424
 10
3068.638132428037
 20
230.4579920410538
 30
0.0000000001127424
 10
3068.063867371933
 20
229.5774071995606
 30
0.0000000001127424
 10
3067.631186022898
 20
229.0214470802316
 30
0.0000000001127424
 10
3067.287164587562
 20
228.6447804742952
 30
0.0000000001127424
 10
3067.042773226269
 20
228.4064349128917
 30
0.0000000001127424
 10
3066.86572401683
 20
228.2489001049471
 30
0.0000000001127424
 10
3066.721204669941
 20
228.133378694994
 30
0.0000000001127424
 10
3066.650590437674
 20
228.0755992483505
 30
0.0000000001127424
 10
3066.613138978222
 20
228.050365622913
 30
0.0000000001127424
  0
LINE
  5
1AC74
330
18
100
AcDbEntity
  8
01
100
AcDbLine
 10
2970.854232835802
 20
226.115502573221
 30
0.0000000001127424
 11
2970.854157517422
 21
252.1146177907422
 31
0.0000000001127424
  0
LINE
  5
1AC75
330
18
100
AcDbEntity
  8
01
100
AcDbLine
 10
2970.854159787972
 20
252.3167595043938
 30
0.0000000001127424
 11
2970.854159787972
 21
225.9155046274886
 31
0.0000000001127424
  0
ARC
  5
1AC76
330
18
100
AcDbEntity
  8
01
100
AcDbCircle
 10
2970.554159788917
 20
225.9155046284327
 30
0.0000000001127424
 40
0.2999999990551187
100
AcDbArc
 50
270.0484959438868
 51
359.9999998196726
  0
ARC
  5
1AC77
330
18
100
AcDbEntity
  8
01
100
AcDbCircle
 10
2970.554158990612
 20
252.3167602049507
 30
0.0000000001127424
 40
0.3000007973596788
100
AcDbArc
 50
359.9998662038104
 51
89.91891699199267
  0
LINE
  5
1AC78
330
18
100
AcDbEntity
  8
01
100
AcDbLine
 10
2970.854159784974
 20
225.915462211301
 30
0.0000000001127424
 11
2970.85385262186
 21
225.9019323932698
 31
0.0000000001127424
  0
LINE
  5
1AC79
330
18
100
AcDbEntity
  8
01
100
AcDbLine
 10
2927.854196512009
 20
194.6157580202776
 30
0.0000000001127424
 11
2957.854236106888
 21
194.6157580202776
 31
0.0000000001127424
  0
LINE
  5
1AC7A
330
18
100
AcDbEntity
  8
01
100
AcDbLine
 10
2927.854196512009
 20
194.6157580202776
 30
0.0000000001127424
 11
2927.854196512009
 21
248.6167566914442
 31
0.0000000001127424
  0
ARC
  5
1AC7B
330
18
100
AcDbEntity
  8
01
100
AcDbCircle
 10
2931.854196512009
 20
248.6167566914442
 30
0.0000000001127424
 40
4.0
100
AcDbArc
 50
90.0
 51
180.0
  0
LINE
  5
1AC7C
330
18
100
AcDbEntity
  8
01
100
AcDbLine
 10
2970.554932433763
 20
252.6167566914442
 30
0.0000000001127424
 11
2931.854196512009
 21
252.6167566914442
 31
0.0000000001127424
  0
LINE
  5
1AC7D
330
18
100
AcDbEntity
  8
01
100
AcDbLine
 10
2970.554413713053
 20
225.6155047368402
 30
0.0000000001127424
 11
2967.854236106888
 21
225.6155047368402
 31
0.0000000001127424
  0
LINE
  5
1AC7E
330
18
100
AcDbEntity
  8
01
100
AcDbLine
 10
2957.854236106888
 20
194.6157580202776
 30
0.0000000001127424
 11
2957.854236106888
 21
215.6155047368402
 31
0.0000000001127424
  0
ARC
  5
1AC7F
330
18
100
AcDbEntity
  8
01
100
AcDbCircle
 10
2967.854236106888
 20
215.6155047368402
 30
0.0000000001127424
 40
10.0
100
AcDbArc
 50
90.0
 51
180.0
  0
ARC
  5
1AC80
330
18
100
AcDbEntity
  8
01
100
AcDbCircle
 10
2602.854332649195
 20
-104.3829236655911
 30
0.0000000001127424
 40
25.0
100
AcDbArc
 50
199.9790393185539
 51
160.0258843854022
  0
LINE
  5
1AC81
330
18
100
AcDbEntity
  8
1CENTER
100
AcDbLine
 10
2738.354332649195
 20
-119.3829236655911
 30
0.0000000001127424
 11
2738.354332649195
 21
-111.3829236655911
 31
0.0000000001127424
  0
LINE
  5
1AC82
330
18
100
AcDbEntity
  8
01
100
AcDbLine
 10
2743.854332649195
 20
-115.3829618839577
 30
0.0000000001127424
 11
2741.747629945722
 21
-115.3275275696883
 31
0.0000000001127424
  0
SPLINE
  5
1AC83
330
18
100
AcDbEntity
  8
01
100
AcDbSpline
210
0.0
220
0.0
230
1.0
 70
     8
 71
     3
 72
   138
 73
   134
 74
     0
 42
0.0000000001
 43
0.0000000001
 40
0.0
 40
0.0
 40
0.0
 40
0.0
 40
0.1668157130194292
 40
0.3346876553454588
 40
0.5240669493630439
 40
0.7147095099200806
 40
0.8985953965508194
 40
1.083107924707542
 40
1.290805810141262
 40
1.499182253444173
 40
1.701679046967988
 40
1.904500923923147
 40
2.107508332753089
 40
2.310627511543653
 40
2.481455866649648
 40
2.6521672245704
 40
2.730720249536133
 40
2.809206602893594
 40
3.024464093987093
 40
3.239426774508367
 40
3.417629971705596
 40
3.595080099381215
 40
3.665965004232471
 40
3.736621908582423
 40
3.88058279821407
 40
4.023441446393039
 40
4.168623700254177
 40
4.312700030266428
 40
4.455773429886731
 40
4.597946448969819
 40
4.734770866870796
 40
4.871067763021014
 40
5.006134682710677
 40
5.140723777495796
 40
5.408323944773493
 40
5.673767610389495
 40
5.809212267887493
 40
5.94422000793654
 40
6.079065042884841
 40
6.213593550615947
 40
6.348626553422866
 40
6.483273594736706
 40
6.618271226934831
 40
6.752756281565293
 40
7.02047152595319
 40
7.421616657639844
 40
7.692290584559225
 40
7.827919423113985
 40
8.07845510877842
 40
8.327871015826632
 40
8.576841194451651
 40
9.323570508807586
 40
9.575017729387518
 40
10.03707551382911
 40
10.24521813234471
 40
10.87119144050196
 40
11.50512337434287
 40
12.56666713690732
 40
12.78018384205361
 40
13.21089593904656
 40
13.86369562851506
 40
14.51947296165382
 40
14.84710488477319
 40
15.33703996929068
 40
15.66039604316792
 40
15.95641160121191
 40
16.22533809107201
 40
16.35806910952146
 40
16.48946025091275
 40
16.55512360860931
 40
16.62137360057212
 40
16.67216095566956
 40
16.72509011289515
 40
16.75927672523065
 40
16.79348964335928
 40
16.82501671458787
 40
16.85655277983729
 40
16.90650187766521
 40
16.95704041767811
 40
17.00878642968656
 40
17.06051158171665
 40
18.05232509175194
 40
19.05412842030143
 40
19.59748009973429
 40
20.14662486715726
 40
20.6960570326199
 40
21.24549961502616
 40
21.79838629269784
 40
22.35447510513524
 40
22.63281640714843
 40
22.91007054045417
 40
23.18629582463462
 40
23.4615601908881
 40
24.56983334669013
 40
25.68195104993805
 40
25.88208105101144
 40
26.22966387996111
 40
26.52349607570023
 40
26.82000405908244
 40
27.10872157924958
 40
27.39227484299192
 40
27.53218939748468
 40
27.80764894116495
 40
28.06877431243479
 40
28.19319811623436
 40
28.43835210689766
 40
28.79969009877493
 40
29.39673438016384
 40
29.87957113092499
 40
30.36613776974632
 40
30.85438344271968
 40
31.34245740531411
 40
32.17723335082021
 40
33.21783413460746
 40
34.25987937571865
 40
36.00862584052744
 40
37.05883755635396
 40
37.86561754231909
 40
38.78056165034153
 40
39.69506462414768
 40
41.05495505395752
 40
42.8539749115778
 40
44.63434476152022
 40
46.71905378355459
 40
48.78012043535887
 40
50.8350599240697
 40
52.87257028749691
 40
55.92425539466682
 40
58.94112843645743
 40
59.94188621989754
 40
60.94236754650147
 40
61.50419583016652
 40
62.06303412180577
 40
62.06303412180577
 40
62.06303412180577
 40
62.06303412180577
 10
2685.828678822073
 20
-104.3829218568649
 30
0.0000000001127424
 10
2685.828689789777
 20
-104.4383241280952
 30
0.0000000001127424
 10
2685.830327611812
 20
-104.5398940749715
 30
0.0000000001127424
 10
2685.838710287256
 20
-104.7122114661165
 30
0.0000000001127424
 10
2685.850375620904
 20
-104.8566594712352
 30
0.0000000001127424
 10
2685.866983116525
 20
-105.0103784911221
 30
0.0000000001127424
 10
2685.888683141308
 20
-105.1667613533032
 30
0.0000000001127424
 10
2685.91674042646
 20
-105.330504274581
 30
0.0000000001127424
 10
2685.944271536505
 20
-105.4673448704839
 30
0.0000000001127424
 10
2685.977917491936
 20
-105.6149851639334
 30
0.0000000001127424
 10
2686.013804405648
 20
-105.7546485675516
 30
0.0000000001127424
 10
2686.052238165043
 20
-105.8907013898902
 30
0.0000000001127424
 10
2686.094776228329
 20
-106.0277040346659
 30
0.0000000001127424
 10
2686.132968712584
 20
-106.1424817313487
 30
0.0000000001127424
 10
2686.186178329322
 20
-106.2905129226333
 30
0.0000000001127424
 10
2686.225004019449
 20
-106.3909022105504
 30
0.0000000001127424
 10
2686.260520069457
 20
-106.4790069656033
 30
0.0000000001127424
 10
2686.307517333383
 20
-106.5911021415891
 30
0.0000000001127424
 10
2686.308734198798
 20
-106.5925324264631
 30
0.0000000001127424
 10
2686.332934036099
 20
-106.6488811999184
 30
0.0000000001127424
 10
2686.374407808265
 20
-106.7397570950284
 30
0.0000000001127424
 10
2686.381357656644
 20
-106.755624549231
 30
0.0000000001127424
 10
2686.432507332775
 20
-106.8628074078574
 30
0.0000000001127424
 10
2686.473510951472
 20
-106.9459609813653
 30
0.0000000001127424
 10
2686.526656080668
 20
-107.0500712813696
 30
0.0000000001127424
 10
2686.5940132103
 20
-107.1756132613177
 30
0.0000000001127424
 10
2686.66150460641
 20
-107.2958158577762
 30
0.0000000001127424
 10
2686.732068289543
 20
-107.4161453907359
 30
0.0000000001127424
 10
2686.804592086862
 20
-107.5346301992226
 30
0.0000000001127424
 10
2686.877358797691
 20
-107.6488530906358
 30
0.0000000001127424
 10
2686.954199233908
 20
-107.7648618113158
 30
0.0000000001127424
 10
2687.030838117716
 20
-107.8763011824763
 30
0.0000000001127424
 10
2687.109475051776
 20
-107.9866824481319
 30
0.0000000001127424
 10
2687.21573313791
 20
-108.1308129922131
 30
0.0000000001127424
 10
2687.351686383762
 20
-108.3064294223554
 30
0.0000000001127424
 10
2687.492838149011
 20
-108.4780061299275
 30
0.0000000001127424
 10
2687.609103554166
 20
-108.6131281288904
 30
0.0000000001127424
 10
2687.698610467637
 20
-108.7140792515324
 30
0.0000000001127424
 10
2687.788770555239
 20
-108.8128271475966
 30
0.0000000001127424
 10
2687.88079034682
 20
-108.9107350443169
 30
0.0000000001127424
 10
2687.97246088685
 20
-109.0055905384766
 30
0.0000000001127424
 10
2688.066124981539
 20
-109.099923464843
 30
0.0000000001127424
 10
2688.159429554152
 20
-109.1914477593787
 30
0.0000000001127424
 10
2688.285336560731
 20
-109.3118525539971
 30
0.0000000001127424
 10
2688.476191587369
 20
-109.4876211695359
 30
0.0000000001127424
 10
2688.705906087674
 20
-109.6861667635608
 30
0.0000000001127424
 10
2688.903461070692
 20
-109.8468855318947
 30
0.0000000001127424
 10
2689.066000130261
 20
-109.974622176363
 30
0.0000000001127424
 10
2689.22391052365
 20
-110.094719343117
 30
0.0000000001127424
 10
2689.412805852761
 20
-110.2325114506407
 30
0.0000000001127424
 10
2689.729154386348
 20
-110.4538872448315
 30
0.0000000001127424
 10
2690.053267128126
 20
-110.6625376852603
 30
0.0000000001127424
 10
2690.434185360858
 20
-110.8886196125318
 30
0.0000000001127424
 10
2690.674362255056
 20
-111.0233105412258
 30
0.0000000001127424
 10
2691.017750524105
 20
-111.2061348742232
 30
0.0000000001127424
 10
2691.409415182449
 20
-111.4007783374559
 30
0.0000000001127424
 10
2692.029985172804
 20
-111.6788216863338
 30
0.0000000001127424
 10
2692.546653913304
 20
-111.8802649573122
 30
0.0000000001127424
 10
2693.013110570665
 20
-112.0430123811834
 30
0.0000000001127424
 10
2693.366126107358
 20
-112.1593164296414
 30
0.0000000001127424
 10
2693.846338427124
 20
-112.3024781423542
 30
0.0000000001127424
 10
2694.301397816352
 20
-112.4216816793664
 30
0.0000000001127424
 10
2694.7183558509
 20
-112.5201689399178
 30
0.0000000001127424
 10
2695.043904175272
 20
-112.5902134821931
 30
0.0000000001127424
 10
2695.367326450768
 20
-112.6533635960509
 30
0.0000000001127424
 10
2695.633293352982
 20
-112.7012443989993
 30
0.0000000001127424
 10
2695.848930317451
 20
-112.7370422252711
 30
0.0000000001127424
 10
2696.01786784422
 20
-112.7634062675938
 30
0.0000000001127424
 10
2696.125282374546
 20
-112.77946984235
 30
0.0000000001127424
 10
2696.21194125871
 20
-112.7920071063431
 30
0.0000000001127424
 10
2696.272577886012
 20
-112.8005818533434
 30
0.0000000001127424
 10
2696.327616064199
 20
-112.8082128978454
 30
0.0000000001127424
 10
2696.372924680533
 20
-112.8143797020307
 30
0.0000000001127424
 10
2696.406470031515
 20
-112.8188858527342
 30
0.0000000001127424
 10
2696.437400816057
 20
-112.8229959154783
 30
0.0000000001127424
 10
2696.459308915698
 20
-112.8258803056747
 30
0.0000000001127424
 10
2696.489100002019
 20
-112.8297721826862
 30
0.0000000001127424
 10
2696.512267915176
 20
-112.8327663576679
 30
0.0000000001127424
 10
2696.53553393556
 20
-112.8357521959792
 30
0.0000000001127424
 10
2696.551753151586
 20
-112.8378205249296
 30
0.0000000001127424
 10
2696.682814769413
 20
-112.8544493438026
 30
0.0000000001127424
 10
2696.88347570148
 20
-112.8786118189823
 30
0.0000000001127424
 10
2697.184472539867
 20
-112.9119415489126
 30
0.0000000001127424
 10
2697.37373954176
 20
-112.9318998533349
 30
0.0000000001127424
 10
2697.52866802183
 20
-112.9479699671178
 30
0.0000000001127424
 10
2697.698950105029
 20
-112.9652608825904
 30
0.0000000001127424
 10
2697.88508464248
 20
-112.9837709704175
 30
0.0000000001127424
 10
2698.073030384586
 20
-113.0021213822333
 30
0.0000000001127424
 10
2698.233535038996
 20
-113.0175847873284
 30
0.0000000001127424
 10
2698.366642128204
 20
-113.0303047280672
 30
0.0000000001127424
 10
2698.472710511599
 20
-113.0403808514507
 30
0.0000000001127424
 10
2698.583912661913
 20
-113.0508669374663
 30
0.0000000001127424
 10
2698.817344733584
 20
-113.0727455454667
 30
0.0000000001127424
 10
2699.223205330493
 20
-113.1095882437644
 30
0.0000000001127424
 10
2699.424494329965
 20
-113.1285837958599
 30
0.0000000001127424
 10
2699.852502548655
 20
-113.1667812108094
 30
0.0000000001127424
 10
2700.097181824653
 20
-113.1878129653237
 30
0.0000000001127424
 10
2700.387486267217
 20
-113.2115645352528
 30
0.0000000001127424
 10
2700.658403499071
 20
-113.2327001448043
 30
0.0000000001127424
 10
2700.908943998217
 20
-113.2515932863112
 30
0.0000000001127424
 10
2701.106448377187
 20
-113.2661609702477
 30
0.0000000001127424
 10
2701.294809649461
 20
-113.2799097218845
 30
0.0000000001127424
 10
2701.472760982623
 20
-113.2927974764239
 30
0.0000000001127424
 10
2701.637806524345
 20
-113.3047165122857
 30
0.0000000001127424
 10
2701.799584876205
 20
-113.3164075485242
 30
0.0000000001127424
 10
2701.992201742737
 20
-113.3303195333779
 30
0.0000000001127424
 10
2702.322531019389
 20
-113.3541216369972
 30
0.0000000001127424
 10
2702.740135710067
 20
-113.3839899907666
 30
0.0000000001127424
 10
2703.211607828204
 20
-113.4171980859469
 30
0.0000000001127424
 10
2703.651485673056
 20
-113.4478090349025
 30
0.0000000001127424
 10
2704.095980335992
 20
-113.4784973818164
 30
0.0000000001127424
 10
2704.647393009261
 20
-113.516375873985
 30
0.0000000001127424
 10
2705.376135294639
 20
-113.5662055194312
 30
0.0000000001127424
 10
2706.292630230681
 20
-113.6281952239565
 30
0.0000000001127424
 10
2707.513524618415
 20
-113.7095951724218
 30
0.0000000001127424
 10
2708.754277708768
 20
-113.7909475595966
 30
0.0000000001127424
 10
2709.930972880607
 20
-113.8668806884084
 30
0.0000000001127424
 10
2710.843668027327
 20
-113.9248995827516
 30
0.0000000001127424
 10
2711.717231420113
 20
-113.9794998624279
 30
0.0000000001127424
 10
2712.778404356849
 20
-114.0444384632769
 30
0.0000000001127424
 10
2714.133488472738
 20
-114.1251296429159
 30
0.0000000001127424
 10
2715.774930387314
 20
-114.2215649253571
 30
0.0000000001127424
 10
2717.657399495199
 20
-114.3320580372952
 30
0.0000000001127424
 10
2719.626793054861
 20
-114.4436496161193
 30
0.0000000001127424
 10
2721.688120254056
 20
-114.5556315579365
 30
0.0000000001127424
 10
2723.734445470077
 20
-114.6616272754322
 30
0.0000000001127424
 10
2726.110517593185
 20
-114.7786763505187
 30
0.0000000001127424
 10
2728.806873590035
 20
-114.9012583338249
 30
0.0000000001127424
 10
2731.159887747935
 20
-114.9943643176243
 30
0.0000000001127424
 10
2732.830718506316
 20
-115.0549209543028
 30
0.0000000001127424
 10
2733.684207468633
 20
-115.0850063767307
 30
0.0000000001127424
 10
2734.390659924972
 20
-115.1081423927876
 30
0.0000000001127424
 10
2734.763804428233
 20
-115.1220988757391
 30
0.0000000001127424
 10
2734.949992961902
 20
-115.1271020103463
 30
0.0000000001127424
  0
SPLINE
  5
1AC84
330
18
100
AcDbEntity
  8
01
100
AcDbSpline
210
0.0
220
0.0
230
1.0
 70
     8
 71
     3
 72
    21
 73
    17
 74
     0
 42
0.0000000001
 43
0.0000000001
 40
0.0
 40
0.0
 40
0.0
 40
0.0
 40
0.0851307068292339
 40
0.2153854175050789
 40
0.3139243314719375
 40
0.412233476593946
 40
0.5601151404401017
 40
0.9297231521164819
 40
1.151451454783988
 40
1.502743620640995
 40
1.736845939152541
 40
2.345000851588668
 40
2.730716427843832
 40
3.243685533877488
 40
4.637678957492575
 40
5.333893055117052
 40
5.333893055117052
 40
5.333893055117052
 40
5.333893055117052
 10
2741.745699809376
 20
-115.327361358341
 30
0.0000000001127424
 10
2741.729914451583
 20
-115.3269393656497
 30
0.0000000001127424
 10
2741.712426824711
 20
-115.3247350711067
 30
0.0000000001127424
 10
2741.698160351431
 20
-115.3228386008836
 30
0.0000000001127424
 10
2741.682229006526
 20
-115.3201638281857
 30
0.0000000001127424
 10
2741.663590162988
 20
-115.3167968825169
 30
0.0000000001127424
 10
2741.628878937056
 20
-115.3101238795366
 30
0.0000000001127424
 10
2741.574592443924
 20
-115.2998141980847
 30
0.0000000001127424
 10
2741.474924752599
 20
-115.282004649795
 30
0.0000000001127424
 10
2741.368480654101
 20
-115.2631324026829
 30
0.0000000001127424
 10
2741.181562592775
 20
-115.2309152408038
 30
0.0000000001127424
 10
2740.946021517809
 20
-115.192117070535
 30
0.0000000001127424
 10
2740.601740784587
 20
-115.14079595671
 30
0.0000000001127424
 10
2740.008874553213
 20
-115.0615770017098
 30
0.0000000001127424
 10
2739.194870832013
 20
-114.9825563433865
 30
0.0000000001127424
 10
2738.495910598897
 20
-114.9538699124018
 30
0.0000000001127424
 10
2738.26439848145
 20
-114.9485582401644
 30
0.0000000001127424
  0
SPLINE
  5
1AC85
330
18
100
AcDbEntity
  8
01
100
AcDbSpline
210
0.0
220
0.0
230
1.0
 70
     8
 71
     3
 72
   161
 73
   157
 74
     0
 42
0.0000000001
 43
0.0000000001
 40
0.0
 40
0.0
 40
0.0
 40
0.0
 40
0.1753276591652896
 40
0.3519044495348527
 40
0.5296347732845289
 40
0.7084108616293461
 40
0.8823101758413803
 40
1.056860246306637
 40
1.267321473500869
 40
1.478598981410851
 40
1.698593606378595
 40
1.918963458870645
 40
2.107408618756955
 40
2.295733498234714
 40
2.461477313870521
 40
2.626961935464299
 40
2.777432642032876
 40
2.927548665257361
 40
3.00177237759288
 40
3.075878649229417
 40
3.147270802325481
 40
3.218465040601231
 40
3.364074812929046
 40
3.508723249385344
 40
3.653062580038595
 40
3.796485657768224
 40
3.939029070108194
 40
4.080726961651802
 40
4.218782162113135
 40
4.356174503276981
 40
4.492907066476416
 40
4.628986828465611
 40
4.899121683385133
 40
5.167026625407447
 40
5.300346847982976
 40
5.433238411412505
 40
5.566025713674333
 40
5.698460172232819
 40
5.831178089348829
 40
5.963607037547601
 40
6.096221802301735
 40
6.228595463666009
 40
6.436235965323256
 40
6.644073933893274
 40
6.852209702767026
 40
7.059925032818242
 40
7.268292062311387
 40
7.476250453930771
 40
7.893245666987257
 40
8.065712624877925
 40
8.238063048380367
 40
8.410811372925146
 40
8.92802287965372
 40
9.272880491136824
 40
9.619724739924168
 40
10.31752282469657
 40
10.66822216000941
 40
11.18964540534406
 40
11.45043819379522
 40
11.71289900943138
 40
11.97682335269064
 40
12.77116854795565
 40
13.03663544928481
 40
13.5697948965027
 40
14.36792165891221
 40
14.89885001030253
 40
15.2583126502101
 40
15.61079239575969
 40
15.69746829704618
 40
15.86886630374273
 40
15.95368425838593
 40
15.99600465780758
 40
16.03838648454619
 40
16.08121972553973
 40
16.12412443397156
 40
16.17033844542302
 40
16.21662766030539
 40
16.2466414232401
 40
16.27667526547951
 40
16.30484128941486
 40
16.3330147018479
 40
16.37600967978959
 40
16.41931394642792
 40
16.46371986904074
 40
16.50811001488443
 40
16.59786998379897
 40
16.68756487456678
 40
16.86851690829732
 40
17.04920229559118
 40
17.41150458881523
 40
18.03324322374408
 40
18.29683723786884
 40
18.83245571631319
 40
19.3772955531871
 40
19.65058637522725
 40
20.3122615440759
 40
20.70090138143717
 40
21.09144292122238
 40
21.48373808860526
 40
21.87748136894416
 40
22.27076176857144
 40
22.46635164106641
 40
22.66183471333888
 40
23.05083358640117
 40
23.38186736816081
 40
23.88485779616349
 40
24.05474264920091
 40
24.22585082071532
 40
24.39805743121401
 40
24.57228945751721
 40
24.74621167943534
 40
24.83046135932649
 40
24.99399742050408
 40
25.15406868498914
 40
25.39566743937679
 40
25.64621839534745
 40
25.90849182443579
 40
26.08929283538605
 40
26.26794001169155
 40
26.44333160660758
 40
26.61658700906262
 40
26.78799732060817
 40
26.95762164491552
 40
27.12529634459997
 40
27.45367866512593
 40
27.77196099452028
 40
27.92808537341424
 40
28.08271757058687
 40
28.59269882506748
 40
29.0012738236437
 40
29.20741171837419
 40
30.03812295407611
 40
30.45512700784406
 40
30.87173364194304
 40
31.28855683089697
 40
32.16709571260193
 40
32.62846021532462
 40
33.08985867115978
 40
34.94500812755368
 40
35.87622159166673
 40
37.50856175317855
 40
38.67996595723793
 40
39.50585720406737
 40
39.86286985642367
 40
41.28651074497824
 40
41.99439928761057
 40
43.39591297843097
 40
44.80370702859335
 40
46.88496279090998
 40
50.99680386293853
 40
53.0314855883046
 40
54.05069632410141
 40
57.08366503897778
 40
59.08867417229233
 40
65.06755382581002
 40
70.4615077558024
 40
70.4615077558024
 40
70.4615077558024
 40
70.4615077558024
 10
2685.828678822073
 20
-104.3829218568649
 30
0.0000000001127424
 10
2685.82866729473
 20
-104.3246926268316
 30
0.0000000001127424
 10
2685.83037488084
 20
-104.2260504448527
 30
0.0000000001127424
 10
2685.837870738901
 20
-104.0653720783689
 30
0.0000000001127424
 10
2685.850221205358
 20
-103.9091275488131
 30
0.0000000001127424
 10
2685.866869217453
 20
-103.7564067513181
 30
0.0000000001127424
 10
2685.888312602155
 20
-103.6012157397322
 30
0.0000000001127424
 10
2685.917815060807
 20
-103.4296282028904
 30
0.0000000001127424
 10
2685.943800410093
 20
-103.3009545479285
 30
0.0000000001127424
 10
2685.979398045704
 20
-103.1445924236264
 30
0.0000000001127424
 10
2686.013831613364
 20
-103.0115193867282
 30
0.0000000001127424
 10
2686.047548018366
 20
-102.8907138309282
 30
0.0000000001127424
 10
2686.093886971944
 20
-102.7402467894394
 30
0.0000000001127424
 10
2686.132896241118
 20
-102.623176848912
 30
0.0000000001127424
 10
2686.184390256213
 20
-102.4797752941063
 30
0.0000000001127424
 10
2686.229405354575
 20
-102.3627701678784
 30
0.0000000001127424
 10
2686.285166344195
 20
-102.2265679201114
 30
0.0000000001127424
 10
2686.328183918135
 20
-102.1275881331117
 30
0.0000000001127424
 10
2686.368204249356
 20
-102.0391537976589
 30
0.0000000001127424
 10
2686.397084739147
 20
-101.9770890231516
 30
0.0000000001127424
 10
2686.428675075928
 20
-101.9109547649437
 30
0.0000000001127424
 10
2686.471022786734
 20
-101.8246913102244
 30
0.0000000001127424
 10
2686.524115297093
 20
-101.7205738312073
 30
0.0000000001127424
 10
2686.591463698797
 20
-101.5947701963846
 30
0.0000000001127424
 10
2686.660432119889
 20
-101.4718613511072
 30
0.0000000001127424
 10
2686.731692963812
 20
-101.3503893575385
 30
0.0000000001127424
 10
2686.804999052497
 20
-101.2306865740325
 30
0.0000000001127424
 10
2686.879195910163
 20
-101.1143300223252
 30
0.0000000001127424
 10
2686.956356891144
 20
-100.9979374789677
 30
0.0000000001127424
 10
2687.034113193725
 20
-100.8849415815744
 30
0.0000000001127424
 10
2687.113491772611
 20
-100.7735803568626
 30
0.0000000001127424
 10
2687.220904928644
 20
-100.6279328824089
 30
0.0000000001127424
 10
2687.358503031387
 20
-100.4503577727205
 30
0.0000000001127424
 10
2687.501167960339
 20
-100.2775332284232
 30
0.0000000001127424
 10
2687.616974079324
 20
-100.1434326880303
 30
0.0000000001127424
 10
2687.705106107972
 20
-100.0443269104658
 30
0.0000000001127424
 10
2687.793733099043
 20
-99.94747139467427
 30
0.0000000001127424
 10
2687.884008167174
 20
-99.8515358336731
 30
0.0000000001127424
 10
2687.974313862823
 20
-99.75814708922962
 30
0.0000000001127424
 10
2688.066260813272
 20
-99.66554926783328
 30
0.0000000001127424
 10
2688.158402446322
 20
-99.57514579710141
 30
0.0000000001127424
 10
2688.269591988818
 20
-99.46881416133556
 30
0.0000000001127424
 10
2688.399407849761
 20
-99.34864343502568
 30
0.0000000001127424
 10
2688.549119259777
 20
-99.21530184796075
 30
0.0000000001127424
 10
2688.699923502008
 20
-99.08594478590521
 30
0.0000000001127424
 10
2688.853542187259
 20
-98.95898937364154
 30
0.0000000001127424
 10
2689.007212672966
 20
-98.83655979230161
 30
0.0000000001127424
 10
2689.215557162474
 20
-98.67644799887739
 30
0.0000000001127424
 10
2689.416526624939
 20
-98.53013392380444
 30
0.0000000001127424
 10
2689.610029003538
 20
-98.39590123067637
 30
0.0000000001127424
 10
2689.742747234691
 20
-98.30639981253489
 30
0.0000000001127424
 10
2689.96390204111
 20
-98.16138890218144
 30
0.0000000001127424
 10
2690.232672723171
 20
-97.99477220470317
 30
0.0000000001127424
 10
2690.549742554221
 20
-97.81146848316484
 30
0.0000000001127424
 10
2690.915631023713
 20
-97.61136221684092
 30
0.0000000001127424
 10
2691.287339518128
 20
-97.42455118827411
 30
0.0000000001127424
 10
2691.707209079171
 20
-97.23068925291273
 30
0.0000000001127424
 10
2692.01064977282
 20
-97.1001537195466
 30
0.0000000001127424
 10
2692.293736466317
 20
-96.98606285603864
 30
0.0000000001127424
 10
2692.506905761908
 20
-96.90391491721357
 30
0.0000000001127424
 10
2692.865261448581
 20
-96.77190126687265
 30
0.0000000001127424
 10
2693.226593197734
 20
-96.65067334318837
 30
0.0000000001127424
 10
2693.665203988644
 20
-96.517129911967
 30
0.0000000001127424
 10
2694.106232900568
 20
-96.39275289135048
 30
0.0000000001127424
 10
2694.629363763984
 20
-96.26391533830292
 30
0.0000000001127424
 10
2695.11271902345
 20
-96.16133856460556
 30
0.0000000001127424
 10
2695.478166284295
 20
-96.09179156879281
 30
0.0000000001127424
 10
2695.720250351272
 20
-96.04994890748594
 30
0.0000000001127424
 10
2695.910713780241
 20
-96.0191028794784
 30
0.0000000001127424
 10
2696.019785500731
 20
-96.0021253885493
 30
0.0000000001127424
 10
2696.116686433365
 20
-95.987656491096
 30
0.0000000001127424
 10
2696.172575227739
 20
-95.9794880534987
 30
0.0000000001127424
 10
2696.214558982129
 20
-95.97344069597375
 30
0.0000000001127424
 10
2696.256588359855
 20
-95.9674731818327
 30
0.0000000001127424
 10
2696.300960649271
 20
-95.9612700058974
 30
0.0000000001127424
 10
2696.342148162795
 20
-95.95559578865368
 30
0.0000000001127424
 10
2696.382956247123
 20
-95.95006404327114
 30
0.0000000001127424
 10
2696.411435027659
 20
-95.94624944729048
 30
0.0000000001127424
 10
2696.438011342584
 20
-95.94272185093041
 30
0.0000000001127424
 10
2696.4574322905
 20
-95.94016500006865
 30
0.0000000001127424
 10
2696.483406488974
 20
-95.93676940227533
 30
0.0000000001127424
 10
2696.503461704416
 20
-95.93417154625195
 30
0.0000000001127424
 10
2696.525384520785
 20
-95.93135063959971
 30
0.0000000001127424
 10
2696.539273884872
 20
-95.9295742706031
 30
0.0000000001127424
 10
2696.561931085592
 20
-95.92668874955098
 30
0.0000000001127424
 10
2696.584481909561
 20
-95.92383828810989
 30
0.0000000001127424
 10
2696.626061436978
 20
-95.91862682612691
 30
0.0000000001127424
 10
2696.670345359103
 20
-95.91314885047586
 30
0.0000000001127424
 10
2696.750292274172
 20
-95.90341308693633
 30
0.0000000001127424
 10
2696.872692594387
 20
-95.8888504213578
 30
0.0000000001127424
 10
2697.025254678633
 20
-95.87149606029607
 30
0.0000000001127424
 10
2697.174805066984
 20
-95.85509476883772
 30
0.0000000001127424
 10
2697.305720903017
 20
-95.8410885653243
 30
0.0000000001127424
 10
2697.428135193376
 20
-95.82829022241776
 30
0.0000000001127424
 10
2697.572519805007
 20
-95.81341274767556
 30
0.0000000001127424
 10
2697.71143900261
 20
-95.7993436620277
 30
0.0000000001127424
 10
2697.874394003939
 20
-95.78316840642901
 30
0.0000000001127424
 10
2698.006838513026
 20
-95.77019119514034
 30
0.0000000001127424
 10
2698.14221334726
 20
-95.75706466406564
 30
0.0000000001127424
 10
2698.279590166022
 20
-95.74386185445337
 30
0.0000000001127424
 10
2698.398750583542
 20
-95.7324941732254
 30
0.0000000001127424
 10
2698.502490576818
 20
-95.722668436802
 30
0.0000000001127424
 10
2698.606458522679
 20
-95.71287109305149
 30
0.0000000001127424
 10
2698.737877347402
 20
-95.70058163752992
 30
0.0000000001127424
 10
2698.924111441615
 20
-95.68337489125179
 30
0.0000000001127424
 10
2699.067196362353
 20
-95.67030841922815
 30
0.0000000001127424
 10
2699.179791681699
 20
-95.66004691752323
 30
0.0000000001127424
 10
2699.245317970716
 20
-95.65407700782225
 30
0.0000000001127424
 10
2699.30995002691
 20
-95.6481838196737
 30
0.0000000001127424
 10
2699.36972027496
 20
-95.64272487957942
 30
0.0000000001127424
 10
2699.416390657866
 20
-95.63844872481286
 30
0.0000000001127424
 10
2699.475927819086
 20
-95.63299102601877
 30
0.0000000001127424
 10
2699.546176201014
 20
-95.62656450169698
 30
0.0000000001127424
 10
2699.667109921488
 20
-95.61559873316537
 30
0.0000000001127424
 10
2699.834988494183
 20
-95.60064639984421
 30
0.0000000001127424
 10
2700.052739018392
 20
-95.58187194394714
 30
0.0000000001127424
 10
2700.263513673836
 20
-95.56438517845208
 30
0.0000000001127424
 10
2700.458281622487
 20
-95.54878737687932
 30
0.0000000001127424
 10
2700.621272853384
 20
-95.536086888113
 30
0.0000000001127424
 10
2700.776381092329
 20
-95.52425496498881
 30
0.0000000001127424
 10
2700.925370024747
 20
-95.51308177879991
 30
0.0000000001127424
 10
2701.068773455455
 20
-95.50246958168236
 30
0.0000000001127424
 10
2701.207326879067
 20
-95.49231892246144
 30
0.0000000001127424
 10
2701.384936589883
 20
-95.47940068406888
 30
0.0000000001127424
 10
2701.592727159227
 20
-95.46439128889006
 30
0.0000000001127424
 10
2701.795916256032
 20
-95.44970434064862
 30
0.0000000001127424
 10
2701.962972836963
 20
-95.43764156645693
 30
0.0000000001127424
 10
2702.185024524865
 20
-95.42162767703348
 30
0.0000000001127424
 10
2702.487896627271
 20
-95.39986683037796
 30
0.0000000001127424
 10
2702.819061669442
 20
-95.37631300974272
 30
0.0000000001127424
 10
2703.253004553165
 20
-95.34572474999959
 30
0.0000000001127424
 10
2703.692088143039
 20
-95.31519755216732
 30
0.0000000001127424
 10
2704.198402338062
 20
-95.28030065983012
 30
0.0000000001127424
 10
2704.579457702545
 20
-95.2541362133129
 30
0.0000000001127424
 10
2705.105618909141
 20
-95.2181163010332
 30
0.0000000001127424
 10
2705.652618475779
 20
-95.1809011411201
 30
0.0000000001127424
 10
2706.220176961596
 20
-95.14262864739203
 30
0.0000000001127424
 10
2707.101053545081
 20
-95.08359984321623
 30
0.0000000001127424
 10
2708.145070039115
 20
-95.0146651635464
 30
0.0000000001127424
 10
2709.580154277895
 20
-94.92138083401505
 30
0.0000000001127424
 10
2710.807112783635
 20
-94.84292679539385
 30
0.0000000001127424
 10
2712.012077940569
 20
-94.7680460919405
 30
0.0000000001127424
 10
2712.795640023874
 20
-94.72054258363505
 30
0.0000000001127424
 10
2713.66281292258
 20
-94.66861636826843
 30
0.0000000001127424
 10
2714.490132571646
 20
-94.61975287767427
 30
0.0000000001127424
 10
2715.664369894882
 20
-94.55074582132283
 30
0.0000000001127424
 10
2716.833587916107
 20
-94.4819298705238
 30
0.0000000001127424
 10
2718.458590011972
 20
-94.38804923493944
 30
0.0000000001127424
 10
2720.985096881716
 20
-94.24670995528004
 30
0.0000000001127424
 10
2723.720918080827
 20
-94.10378186333901
 30
0.0000000001127424
 10
2726.104214148375
 20
-93.98847689911827
 30
0.0000000001127424
 10
2728.128813975597
 20
-93.89547005902068
 30
0.0000000001127424
 10
2730.144279125311
 20
-93.8105874670332
 30
0.0000000001127424
 10
2733.811971334148
 20
-93.67260999974178
 30
0.0000000001127424
 10
2738.268068076025
 20
-93.53155473960169
 30
0.0000000001127424
 10
2742.05714955567
 20
-93.42922184726876
 30
0.0000000001127424
 10
2743.854332649195
 20
-93.38288544722445
 30
0.0000000001127424
  0
SPLINE
  5
1AC86
330
18
100
AcDbEntity
  8
01
100
AcDbSpline
210
0.0
220
0.0
230
1.0
 70
     8
 71
     3
 72
    18
 73
    14
 74
     0
 42
0.0000000001
 43
0.0000000001
 40
0.0
 40
0.0
 40
0.0
 40
0.0
 40
0.6968103897542867
 40
1.801970234880123
 40
2.17321326497219
 40
2.423509114463025
 40
3.439835155986084
 40
3.957522063926517
 40
4.346495939257521
 40
4.56152175118824
 40
4.77720781402824
 40
4.905127338730156
 40
5.034878036177931
 40
5.034878036177931
 40
5.034878036177931
 40
5.034878036177931
 10
2738.26439848145
 20
-114.9485582401644
 30
0.0000000001127424
 10
2738.032684257073
 20
-114.9432419309092
 30
0.0000000001127424
 10
2737.432798843435
 20
-114.940461265573
 30
0.0000000001127424
 10
2736.758019558963
 20
-114.9690023305025
 30
0.0000000001127424
 10
2736.290709095488
 20
-115.0020385729654
 30
0.0000000001127424
 10
2735.878783206058
 20
-115.0355051730307
 30
0.0000000001127424
 10
2735.506668571893
 20
-115.0739131001096
 30
0.0000000001127424
 10
2735.227461152134
 20
-115.1042526208789
 30
0.0000000001127424
 10
2735.109735074781
 20
-115.1164133594471
 30
0.0000000001127424
 10
2735.045135194884
 20
-115.1226410912864
 30
0.0000000001127424
 10
2735.009310885293
 20
-115.1256077223211
 30
0.0000000001127424
 10
2734.98128425807
 20
-115.1270897252066
 30
0.0000000001127424
 10
2734.963913484914
 20
-115.1275595560605
 30
0.0000000001127424
 10
2734.950592824666
 20
-115.1271230428497
 30
0.0000000001127424
  0
LINE
  5
1AC87
330
18
100
AcDbEntity
  8
01
100
AcDbLine
 10
2743.854332649195
 20
-93.38288544722445
 30
0.0000000001127424
 11
2743.854332649195
 21
-115.3829618839577
 31
0.0000000001127424
  0
ARC
  5
1AC88
330
18
100
AcDbEntity
  8
01
  6
CONTINUOUS
100
AcDbCircle
 10
2574.354287214091
 20
-96.39123530638881
 30
0.0000000001127424
 40
0.5000152713007943
100
AcDbArc
 50
0.0017333429139377
 51
90.9543443438515
  0
ARC
  5
1AC89
330
18
100
AcDbEntity
  8
01
  6
CONTINUOUS
100
AcDbCircle
 10
2476.892049297193
 20
-108.5219689546129
 30
0.0000000001127424
 40
1.525357082928538
100
AcDbArc
 50
193.9946051303457
 51
265.3956256431323
  0
SPLINE
  5
1AC8A
330
18
100
AcDbEntity
  8
01
  6
CONTINUOUS
100
AcDbSpline
210
0.0
220
0.0
230
1.0
 70
     8
 71
     3
 72
    19
 73
    15
 74
     0
 42
0.0000000001
 43
0.0000000001
 40
0.0
 40
0.0
 40
0.0
 40
0.0
 40
9.460161730091599
 40
15.98254808382674
 40
21.19129945756545
 40
25.09589110006226
 40
31.07976597410934
 40
37.07051130115414
 40
49.03234155557556
 40
60.99958883125357
 40
72.94987208489064
 40
78.94125269660621
 40
87.91845955628929
 40
97.64525170031928
 40
97.64525170031928
 40
97.64525170031928
 40
97.64525170031928
 10
2476.765837858137
 20
-98.73641883666733
 30
0.0000000001127424
 10
2479.907094799161
 20
-98.49249915472319
 30
0.0000000001127424
 10
2485.220373049125
 20
-98.13646467331728
 30
0.0000000001127424
 10
2492.274031177762
 20
-97.79487196393711
 30
0.0000000001127424
 10
2497.481730191927
 20
-97.60612560805566
 30
0.0000000001127424
 10
2502.511568229124
 20
-97.46254786410827
 30
0.0000000001127424
 10
2507.802968837982
 20
-97.34483975790317
 30
0.0000000001127424
 10
2515.779746075795
 20
-97.18742495653896
 30
0.0000000001127424
 10
2525.749919536925
 20
-96.96687196403036
 30
0.0000000001127424
 10
2537.705506841808
 20
-96.68531498602579
 30
0.0000000001127424
 10
2547.67157531998
 20
-96.44773350416926
 30
0.0000000001127424
 10
2556.64161656337
 20
-96.24385587441975
 30
0.0000000001127424
 10
2564.870984834218
 20
-96.06600063474662
 30
0.0000000001127424
 10
2571.104228977584
 20
-95.94536888480525
 30
0.0000000001127424
 10
2574.345958694926
 20
-95.89126396679694
 30
0.0000000001127424
  0
SPLINE
  5
1AC8B
330
18
100
AcDbEntity
  8
01
  6
CONTINUOUS
100
AcDbSpline
210
0.0
220
0.0
230
1.0
 70
     8
 71
     3
 72
     8
 73
     4
 74
     0
 42
0.0000000001
 43
0.0000000001
 40
0.0
 40
0.0
 40
0.0
 40
0.0
 40
0.2577938006557611
 40
0.2577938006557611
 40
0.2577938006557611
 40
0.2577938006557611
 10
2574.854302749184
 20
-112.3754451438836
 30
0.0000000001127424
 10
2574.854299763895
 20
-112.3773479138863
 30
0.0000000001127424
 10
2574.854300212605
 20
-112.3764002083885
 30
0.0000000001127424
 10
2574.854301068882
 20
-112.3746791708727
 30
0.0000000001127424
  0
ARC
  5
1AC8C
330
18
100
AcDbEntity
  8
01
  6
CONTINUOUS
100
AcDbCircle
 10
2574.354287865336
 20
-112.3746812911413
 30
0.0000000001127424
 40
0.5000153888062217
100
AcDbArc
 50
269.052911148064
 51
359.9982857753052
  0
ARC
  5
1AC8D
330
18
100
AcDbEntity
  8
01
  6
CONTINUOUS
100
AcDbCircle
 10
2476.887862088147
 20
-100.2558448184291
 30
0.0000000001127424
 40
1.524291238605641
100
AcDbArc
 50
94.5882218989379
 51
165.9961776374142
  0
ARC
  5
1AC8E
330
18
100
AcDbEntity
  8
01
  6
CONTINUOUS
100
AcDbCircle
 10
2492.854363372428
 20
-104.3829236548245
 30
0.0000000001127424
 40
18.01550911287495
100
AcDbArc
 50
165.5487067312381
 51
194.4914493727266
  0
SPLINE
  5
1AC8F
330
18
100
AcDbEntity
  8
01
  6
CONTINUOUS
100
AcDbSpline
210
0.0
220
0.0
230
1.0
 70
     8
 71
     3
 72
    18
 73
    14
 74
     0
 42
0.0000000001
 43
0.0000000001
 40
0.0084261242649831
 40
0.0084261242649831
 40
0.0084261242649831
 40
0.0084261242649831
 40
7.712846085700495
 40
14.65425159473615
 40
25.07157586312692
 40
31.0434317342125
 40
43.00917413402433
 40
60.95019085191205
 40
72.92347365185603
 40
75.9095362856851
 40
81.88455093582228
 40
87.86541887519844
 40
97.65001262520049
 40
97.65001262520049
 40
97.65001262520049
 40
97.65001262520049
 10
2574.346022844454
 20
-112.8746424677984
 30
0.0000000001127424
 10
2571.778304512753
 20
-112.8321106641733
 30
0.0000000001127424
 10
2566.897409715283
 20
-112.7407654748367
 30
0.0000000001127424
 10
2558.545332886813
 20
-112.5667819934856
 30
0.0000000001127424
 10
2550.770948798797
 20
-112.3925868911579
 30
0.0000000001127424
 10
2541.322597860712
 20
-112.1717143281171
 30
0.0000000001127424
 10
2529.367330625458
 20
-111.8880273964514
 30
0.0000000001127424
 10
2515.411928591903
 20
-111.5720663904467
 30
0.0000000001127424
 10
2504.447558111125
 20
-111.3668579217706
 30
0.0000000001127424
 10
2497.472962368712
 20
-111.1691772279082
 30
0.0000000001127424
 10
2492.496197172782
 20
-110.9914289413682
 30
0.0000000001127424
 10
2485.259648861799
 20
-110.6426052210591
 30
0.0000000001127424
 10
2480.018180143376
 20
-110.2943471020976
 30
0.0000000001127424
 10
2476.768995647159
 20
-110.042325885945
 30
0.0000000001127424
  0
LINE
  5
1AC90
330
18
100
AcDbEntity
  8
01
100
AcDbLine
 10
2574.854302485161
 20
-96.39122017965656
 30
0.0000000001127424
 11
2574.854300449887
 21
-112.376110446166
 31
0.0000000001127424
  0
LINE
  5
1AC91
330
18
100
AcDbEntity
  8
01
100
AcDbLine
 10
2574.854369456621
 20
-96.18143061946512
 30
0.0000000001127424
 11
2574.854369456621
 21
-104.3829236655911
 31
0.0000000001127424
  0
LINE
  5
1AC92
330
18
100
AcDbEntity
  8
01
100
AcDbLine
 10
2574.854369456621
 20
-104.3829236655911
 30
0.0000000001127424
 11
2574.854369456621
 21
-112.5863228910684
 31
0.0000000001127424
  0
ARC
  5
1AC93
330
18
100
AcDbEntity
  8
01
100
AcDbCircle
 10
2575.154428767798
 20
-112.5862678603498
 30
0.0000000001127424
 40
0.3000593162567604
100
AcDbArc
 50
180.0105420558258
 51
269.526722976313
  0
SPLINE
  5
1AC94
330
18
100
AcDbEntity
  8
01
100
AcDbSpline
210
0.0
220
0.0
230
1.0
 70
     8
 71
     3
 72
    50
 73
    46
 74
     0
 42
0.0000000001
 43
0.0000000001
 40
40.24605889528515
 40
40.24605889528515
 40
40.24605889528515
 40
40.24605889528515
 40
40.41330824550255
 40
41.05947960633106
 40
42.10215968566057
 40
42.51026830244423
 40
43.11266884409871
 40
43.50922291673435
 40
43.98418136823029
 40
44.53538836255579
 40
45.08142471240612
 40
45.62181933743891
 40
45.88937875052035
 40
46.06066524137628
 40
46.57258251084908
 40
47.08382222064991
 40
47.42685914774938
 40
47.94939217292845
 40
48.30296108340335
 40
48.65809398927975
 40
48.91534449632767
 40
49.42903302199714
 40
49.94097800742659
 40
50.70656261856672
 40
51.21581259154242
 40
51.97875699634007
 40
52.74150980806883
 40
53.13326652189864
 40
54.3118397937692
 40
54.70465026371415
 40
55.09791575571316
 40
55.49173697177937
 40
55.88448045148156
 40
56.16708261071171
 40
56.73196250872059
 40
57.01766912717855
 40
57.30623476903798
 40
57.89114633580776
 40
58.77871620482893
 40
59.37384912472834
 40
59.96449161567381
 40
60.55313685403777
 40
64.62558942126732
 40
68.70884455955124
 40
70.4428402906394
 40
70.4428402906394
 40
70.4428402906394
 40
70.4428402906394
 10
2598.963509358026
 20
-113.5510385171901
 30
0.0000000001127424
 10
2598.963509351485
 20
-113.5510385573125
 30
0.0000000001127424
 10
2598.961127341822
 20
-113.5506630079708
 30
0.0000000001127424
 10
2598.930423900464
 20
-113.5459894086553
 30
0.0000000001127424
 10
2598.835337882506
 20
-113.5330111576477
 30
0.0000000001127424
 10
2598.688057199285
 20
-113.5150751667661
 30
0.0000000001127424
 10
2598.553381276733
 20
-113.4996555872021
 30
0.0000000001127424
 10
2598.381990609026
 20
-113.4812391082296
 30
0.0000000001127424
 10
2598.194460664899
 20
-113.4620813474012
 30
0.0000000001127424
 10
2597.95541021201
 20
-113.439033646815
 30
0.0000000001127424
 10
2597.67819555149
 20
-113.4138138291091
 30
0.0000000001127424
 10
2597.434549090328
 20
-113.3928255141927
 30
0.0000000001127424
 10
2597.242783478555
 20
-113.3769061222029
 30
0.0000000001127424
 10
2597.050054632479
 20
-113.361171991316
 30
0.0000000001127424
 10
2596.797365289699
 20
-113.341021813646
 30
0.0000000001127424
 10
2596.490345890491
 20
-113.3170584571035
 30
0.0000000001127424
 10
2596.208951457041
 20
-113.2955000130878
 30
0.0000000001127424
 10
2595.977342063959
 20
-113.2783402694149
 30
0.0000000001127424
 10
2595.749384965887
 20
-113.2622372098658
 30
0.0000000001127424
 10
2595.564545089271
 20
-113.249717063532
 30
0.0000000001127424
 10
2595.341802786271
 20
-113.2351946220588
 30
0.0000000001127424
 10
2595.077204094706
 20
-113.2187699668748
 30
0.0000000001127424
 10
2594.681006959609
 20
-113.1958148615531
 30
0.0000000001127424
 10
2594.257041811196
 20
-113.1733293860862
 30
0.0000000001127424
 10
2593.742741931083
 20
-113.1485180507525
 30
0.0000000001127424
 10
2593.200804206773
 20
-113.1247988547916
 30
0.0000000001127424
 10
2592.666826331858
 20
-113.1042985170634
 30
0.0000000001127424
 10
2591.995071727802
 20
-113.0814196376705
 30
0.0000000001127424
 10
2591.400523879599
 20
-113.0643414335245
 30
0.0000000001127424
 10
2590.790191526013
 20
-113.0494912404565
 30
0.0000000001127424
 10
2590.419090694856
 20
-113.0412236083575
 30
0.0000000001127424
 10
2590.044060966514
 20
-113.0335619219813
 30
0.0000000001127424
 10
2589.703610773061
 20
-113.0273165140306
 30
0.0000000001127424
 10
2589.307070704664
 20
-113.0209129580676
 30
0.0000000001127424
 10
2588.943449931195
 20
-113.0162590069031
 30
0.0000000001127424
 10
2588.570463309642
 20
-113.0126025877607
 30
0.0000000001127424
 10
2588.187958778509
 20
-113.0093483425826
 30
0.0000000001127424
 10
2587.601833188394
 20
-113.0050323539363
 30
0.0000000001127424
 10
2586.91238615563
 20
-112.999898521135
 30
0.0000000001127424
 10
2586.221490165351
 20
-112.9934741969955
 30
0.0000000001127424
 10
2585.62998539658
 20
-112.987331130053
 30
0.0000000001127424
 10
2583.879786991748
 20
-112.9696530349647
 30
0.0000000001127424
 10
2580.965027857824
 20
-112.9407360569303
 30
0.0000000001127424
 10
2577.668845634244
 20
-112.9079652739765
 30
0.0000000001127424
 10
2575.72993005129
 20
-112.8909351682046
 30
0.0000000001127424
 10
2575.151955434859
 20
-112.8862741624798
 30
0.0000000001127424
  0
ARC
  5
1AC95
330
18
100
AcDbEntity
  8
01
100
AcDbCircle
 10
2575.154427675946
 20
-96.18148678375064
 30
0.0000000001127424
 40
0.3000582325053063
100
AcDbArc
 50
90.47303853433492
 51
179.9811984197171
  0
SPLINE
  5
1AC96
330
18
100
AcDbEntity
  8
01
100
AcDbSpline
210
0.0
220
0.0
230
1.0
 70
     8
 71
     3
 72
    49
 73
    45
 74
     0
 42
0.0000000001
 43
0.0000000001
 40
0.0
 40
0.0
 40
0.0
 40
0.0
 40
1.052004170098063
 40
2.114068328488348
 40
3.660643967315682
 40
5.205578484377293
 40
7.525733899751696
 40
9.841997416968454
 40
10.27670456311666
 40
10.71152584647312
 40
11.1483341883486
 40
12.02648531740571
 40
12.46242376388447
 40
13.11089356461147
 40
13.74676018385373
 40
14.16379049950606
 40
14.5810272807612
 40
14.99964071911551
 40
15.20950456042481
 40
16.04740468546638
 40
17.38165325542484
 40
18.08548826931737
 40
18.78860246884783
 40
19.25762548782302
 40
19.96217344386303
 40
21.18312281753642
 40
21.55961155680222
 40
22.31244472762127
 40
22.86998640791152
 40
23.23535997595707
 40
23.41662357783994
 40
23.64996011135596
 40
23.88319097472134
 40
24.35041982729464
 40
24.82049050931876
 40
25.05741057465696
 40
25.53505097306694
 40
26.25891944630026
 40
27.23920427015888
 40
27.98862206669473
 40
28.49788448903195
 40
29.27759755601144
 40
30.08357020682969
 40
30.14760390115131
 40
30.14760390115131
 40
30.14760390115131
 40
30.14760390115131
 10
2575.15195565313
 20
-95.88148794195831
 30
0.0000000001127424
 10
2575.50261139856
 20
-95.8786601630618
 30
0.0000000001127424
 10
2576.207272506836
 20
-95.87265440517285
 30
0.0000000001127424
 10
2577.427344164732
 20
-95.86159518573731
 30
0.0000000001127424
 10
2578.811762824046
 20
-95.84847089487721
 30
0.0000000001127424
 10
2580.615472972638
 20
-95.83062594226249
 30
0.0000000001127424
 10
2582.675707044208
 20
-95.80970582574446
 30
0.0000000001127424
 10
2584.366041262275
 20
-95.7931343835744
 30
0.0000000001127424
 10
2585.427764919553
 20
-95.7824978079916
 30
0.0000000001127424
 10
2585.863163182124
 20
-95.77798635926229
 30
0.0000000001127424
 10
2586.446416857881
 20
-95.77206012421402
 30
0.0000000001127424
 10
2587.029903370468
 20
-95.76701432794835
 30
0.0000000001127424
 10
2587.684091942062
 20
-95.762111409716
 30
0.0000000001127424
 10
2588.256866580395
 20
-95.75793740246445
 30
0.0000000001127424
 10
2588.817348816844
 20
-95.75298851102798
 30
0.0000000001127424
 10
2589.290004812982
 20
-95.74707911511587
 30
0.0000000001127424
 10
2589.690763705846
 20
-95.74071664105941
 30
0.0000000001127424
 10
2590.023687691683
 20
-95.7345377351885
 30
0.0000000001127424
 10
2590.489995744408
 20
-95.72511625116022
 30
0.0000000001127424
 10
2591.237817017319
 20
-95.7081483864904
 30
0.0000000001127424
 10
2592.109668242455
 20
-95.68317053753981
 30
0.0000000001127424
 10
2592.887832843765
 20
-95.65533631087283
 30
0.0000000001127424
 10
2593.400015793871
 20
-95.63437708795982
 30
0.0000000001127424
 10
2593.892191170696
 20
-95.61224900087018
 30
0.0000000001127424
 10
2594.488808119079
 20
-95.58289029271873
 30
0.0000000001127424
 10
2595.009136184342
 20
-95.55340058580805
 30
0.0000000001127424
 10
2595.488381190448
 20
-95.52326151345233
 30
0.0000000001127424
 10
2595.81050831433
 20
-95.5014943112842
 30
0.0000000001127424
 10
2596.121276764153
 20
-95.4788336068259
 30
0.0000000001127424
 10
2596.342307697571
 20
-95.46205831163206
 30
0.0000000001127424
 10
2596.506201360523
 20
-95.4494122690553
 30
0.0000000001127424
 10
2596.649809935071
 20
-95.43823222843366
 30
0.0000000001127424
 10
2596.854643102201
 20
-95.42216184659719
 30
0.0000000001127424
 10
2597.103099229339
 20
-95.40234953146773
 30
0.0000000001127424
 10
2597.337725445871
 20
-95.383037085257
 30
0.0000000001127424
 10
2597.55759111522
 20
-95.3643747260976
 30
0.0000000001127424
 10
2597.811092602501
 20
-95.34208481343467
 30
0.0000000001127424
 10
2598.165644041565
 20
-95.3089263846141
 30
0.0000000001127424
 10
2598.486172778291
 20
-95.27584684701287
 30
0.0000000001127424
 10
2598.704141767062
 20
-95.25089937108169
 30
0.0000000001127424
 10
2598.843354864449
 20
-95.23367546626059
 30
0.0000000001127424
 10
2598.937584846205
 20
-95.22089779878388
 30
0.0000000001127424
 10
2598.964365479395
 20
-95.2167704416579
 30
0.0000000001127424
 10
2598.96534325536
 20
-95.21661327239235
 30
0.0000000001127424
 10
2598.965343209119
 20
-95.2166129734178
 30
0.0000000001127424
  0
ELLIPSE
  5
1AC97
330
18
100
AcDbEntity
  8
01
100
AcDbEllipse
 10
2602.854332649195
 20
-104.3829236655911
 30
0.0000000001127424
 11
15.0
 21
4.454769886308439E-14
 31
0.0
210
0.0
220
0.0
230
-1.0
 40
0.7333333333333331
 41
4.063812080098634
 42
8.50224305139331
  0
TEXT
  5
1AE75
330
18
100
AcDbEntity
  8
01
  6
CONTINUOUS
100
AcDbText
 10
2853.857261062724
 20
108.1990913536109
 30
0.0000000001127424
 40
4.55
  1
材質：亜鉛ダイキャスト
100
AcDbText
  0
TEXT
  5
1AE76
330
18
100
AcDbEntity
  8
01
  6
CONTINUOUS
100
AcDbText
 10
2864.170594396057
 20
100.6157580202776
 30
0.0000000001127424
 40
4.55
  1
仕上げ：各種メッキ
100
AcDbText
  0
LINE
  5
1AE77
330
18
100
AcDbEntity
  8
01
100
AcDbLine
 10
2880.854099969706
 20
-76.38424267682512
 30
0.0000000002254849
 11
2880.854099969706
 21
26.33725010599419
 31
0.0000000002254849
1001
ACAD
1000
DSTYLE
1002
{
1070
    40
1040
1.3
1070
    45
1040
0.5
1002
}
  0
LINE
  5
1AE78
330
18
100
AcDbEntity
  8
01
100
AcDbLine
 10
2891.854099969706
 20
-18.51292462753622
 30
0.0000000002254849
 11
2891.854099969706
 21
26.33725010599419
 31
0.0000000002254849
1001
ACAD
1000
DSTYLE
1002
{
1070
    40
1040
1.3
1070
    45
1040
0.5
1002
}
  0
LINE
  5
1AE79
330
18
100
AcDbEntity
  8
01
100
AcDbLine
 10
2883.454099969706
 20
25.03725010599419
 30
0.0000000002254849
 11
2889.254099969706
 21
25.03725010599419
 31
0.0000000002254849
1001
ACAD
1000
DSTYLE
1002
{
1070
    40
1040
1.3
1070
    45
1040
0.5
1002
}
  0
LINE
  5
1AE7D
330
18
100
AcDbEntity
  8
01
100
AcDbLine
 10
2960.854099969706
 20
-46.38424197869381
 30
0.0000000002254849
 11
2989.154099969706
 21
-46.38424197869381
 31
0.0000000002254849
1001
ACAD
1000
DSTYLE
1002
{
1070
    40
1040
1.3
1070
    45
1040
0.5
1002
}
  0
LINE
  5
1AE7E
330
18
100
AcDbEntity
  8
01
100
AcDbLine
 10
2960.854099969706
 20
-120.3842419786943
 30
0.0000000002254849
 11
2989.154099969706
 21
-120.3842419786943
 31
0.0000000002254849
1001
ACAD
1000
DSTYLE
1002
{
1070
    40
1040
1.3
1070
    45
1040
0.5
1002
}
  0
LINE
  5
1AE7F
330
18
100
AcDbEntity
  8
01
100
AcDbLine
 10
2987.854099969706
 20
-48.98424197869381
 30
0.0000000002254849
 11
2987.854099969706
 21
-117.7842419786943
 31
0.0000000002254849
1001
ACAD
1000
DSTYLE
1002
{
1070
    40
1040
1.3
1070
    45
1040
0.5
1002
}
  0
LINE
  5
1AE83
330
18
100
AcDbEntity
  8
01
100
AcDbLine
 10
2960.854099969706
 20
-46.38424197869381
 30
0.0000000002254849
 11
2960.854099969706
 21
36.41711757404236
 31
0.0000000002254849
1001
ACAD
1000
DSTYLE
1002
{
1070
    40
1040
1.3
1070
    45
1040
0.5
1002
}
  0
LINE
  5
1AE84
330
18
100
AcDbEntity
  8
01
100
AcDbLine
 10
2891.854099969706
 20
-18.51292462753622
 30
0.0000000002254849
 11
2891.854099969706
 21
36.41711757404236
 31
0.0000000002254849
1001
ACAD
1000
DSTYLE
1002
{
1070
    40
1040
1.3
1070
    45
1040
0.5
1002
}
  0
LINE
  5
1AE85
330
18
100
AcDbEntity
  8
01
100
AcDbLine
 10
2958.254099969706
 20
35.11711757404237
 30
0.0000000002254849
 11
2894.454099969706
 21
35.11711757404237
 31
0.0000000002254849
1001
ACAD
1000
DSTYLE
1002
{
1070
    40
1040
1.3
1070
    45
1040
0.5
1002
}
  0
LINE
  5
1AE89
330
18
100
AcDbEntity
  8
01
100
AcDbLine
 10
2891.854099969706
 20
-18.51292462753622
 30
0.0000000002254849
 11
2891.854099969706
 21
26.33725010599419
 31
0.0000000002254849
1001
ACAD
1000
DSTYLE
1002
{
1070
    40
1040
1.3
1070
    45
1040
0.5
1002
}
  0
LINE
  5
1AE8A
330
18
100
AcDbEntity
  8
01
100
AcDbLine
 10
2942.854099969706
 20
-54.38424197869381
 30
0.0000000002254849
 11
2942.854099969706
 21
26.33725010599419
 31
0.0000000002254849
1001
ACAD
1000
DSTYLE
1002
{
1070
    40
1040
1.3
1070
    45
1040
0.5
1002
}
  0
LINE
  5
1AE8B
330
18
100
AcDbEntity
  8
01
100
AcDbLine
 10
2894.454099969706
 20
25.03725010599419
 30
0.0000000002254849
 11
2940.254099969706
 21
25.03725010599419
 31
0.0000000002254849
1001
ACAD
1000
DSTYLE
1002
{
1070
    40
1040
1.3
1070
    45
1040
0.5
1002
}
  0
LINE
  5
1AE8F
330
18
100
AcDbEntity
  8
01
100
AcDbLine
 10
2760.354216309451
 20
-24.38424197869426
 30
0.0000000002254849
 11
2760.354216309451
 21
26.33725010599396
 31
0.0000000002254849
1001
ACAD
1000
DSTYLE
1002
{
1070
    40
1040
1.3
1070
    45
1040
0.5
1002
}
  0
LINE
  5
1AE90
330
18
100
AcDbEntity
  8
01
100
AcDbLine
 10
2785.354216309451
 20
-24.38424197869426
 30
0.0000000002254849
 11
2785.354216309451
 21
26.33725010599396
 31
0.0000000002254849
1001
ACAD
1000
DSTYLE
1002
{
1070
    40
1040
1.3
1070
    45
1040
0.5
1002
}
  0
LINE
  5
1AE91
330
18
100
AcDbEntity
  8
01
100
AcDbLine
 10
2762.954216309451
 20
25.03725010599396
 30
0.0000000002254849
 11
2782.754216309451
 21
25.03725010599396
 31
0.0000000002254849
1001
ACAD
1000
DSTYLE
1002
{
1070
    40
1040
1.3
1070
    45
1040
0.5
1002
}
  0
LINE
  5
1AE95
330
18
100
AcDbEntity
  8
01
100
AcDbLine
 10
2778.656155912687
 20
-26.38379683427797
 30
0.0000000003382273
 11
2858.942287080895
 21
-26.38379683427799
 31
0.0000000003382273
1001
ACAD
1000
DSTYLE
1002
{
1070
    40
1040
1.3
1070
    45
1040
0.5
1002
}
  0
LINE
  5
1AE96
330
18
100
AcDbEntity
  8
01
100
AcDbLine
 10
2778.656155912687
 20
-140.383796834278
 30
0.0000000003382273
 11
2858.942287080895
 21
-140.383796834278
 31
0.0000000003382273
1001
ACAD
1000
DSTYLE
1002
{
1070
    40
1040
1.3
1070
    45
1040
0.5
1002
}
  0
LINE
  5
1AE97
330
18
100
AcDbEntity
  8
01
100
AcDbLine
 10
2857.642287080895
 20
-28.983796834278
 30
0.0000000003382273
 11
2857.642287080895
 21
-137.783796834278
 31
0.0000000003382273
1001
ACAD
1000
DSTYLE
1002
{
1070
    40
1040
1.3
1070
    45
1040
0.5
1002
}
  0
LINE
  5
1AE9B
330
18
100
AcDbEntity
  8
01
100
AcDbLine
 10
2779.25421630945
 20
-18.4842419786944
 30
0.0000000003382273
 11
2868.306621247119
 21
-18.48424197869442
 31
0.0000000003382273
1001
ACAD
1000
DSTYLE
1002
{
1070
    40
1040
1.3
1070
    45
1040
0.5
1002
}
  0
LINE
  5
1AE9C
330
18
100
AcDbEntity
  8
01
100
AcDbLine
 10
2779.18113050478
 20
-148.2837968342778
 30
0.0000000003382273
 11
2868.306621247119
 21
-148.2837968342778
 31
0.0000000003382273
1001
ACAD
1000
DSTYLE
1002
{
1070
    40
1040
1.3
1070
    45
1040
0.5
1002
}
  0
LINE
  5
1AE9D
330
18
100
AcDbEntity
  8
01
100
AcDbLine
 10
2867.006621247119
 20
-21.08424197869443
 30
0.0000000003382273
 11
2867.006621247119
 21
-145.6837968342778
 31
0.0000000003382273
1001
ACAD
1000
DSTYLE
1002
{
1070
    40
1040
1.3
1070
    45
1040
0.5
1002
}
  0
LINE
  5
1AEA1
330
18
100
AcDbEntity
  8
01
100
AcDbLine
 10
2942.854099969706
 20
-79.38292366559108
 30
0.0000000002254849
 11
2906.554099969706
 21
-79.38292366559106
 31
0.0000000002254849
1001
ACAD
1000
DSTYLE
1002
{
1070
     3
1000
φ<>
1070
    40
1040
1.3
1070
    45
1040
0.5
1002
}
  0
LINE
  5
1AEA2
330
18
100
AcDbEntity
  8
01
100
AcDbLine
 10
2942.854099969706
 20
-129.3829236655902
 30
0.0000000002254849
 11
2906.554099969706
 21
-129.3829236655902
 31
0.0000000002254849
1001
ACAD
1000
DSTYLE
1002
{
1070
     3
1000
φ<>
1070
    40
1040
1.3
1070
    45
1040
0.5
1002
}
  0
LINE
  5
1AEA3
330
18
100
AcDbEntity
  8
01
100
AcDbLine
 10
2907.854099969706
 20
-81.98292366559106
 30
0.0000000002254849
 11
2907.854099969706
 21
-126.7829236655902
 31
0.0000000002254849
1001
ACAD
1000
DSTYLE
1002
{
1070
     3
1000
φ<>
1070
    40
1040
1.3
1070
    45
1040
0.5
1002
}
  0
LINE
  5
1AEA7
330
18
100
AcDbEntity
  8
01
  6
BYBLOCK
100
AcDbLine
 10
2883.454099969706
 20
24.34058221199419
 30
0.0000000002254849
 11
2880.854099969706
 21
25.03725010599419
 31
0.0000000002254849
  0
LINE
  5
1AEA8
330
18
100
AcDbEntity
  8
01
  6
BYBLOCK
100
AcDbLine
 10
2880.854099969706
 20
25.03725010599419
 30
0.0000000002254849
 11
2883.454099969706
 21
25.73391799999419
 31
0.0000000002254849
  0
LINE
  5
1AEA9
330
18
100
AcDbEntity
  8
01
  6
BYBLOCK
100
AcDbLine
 10
2880.854099969706
 20
25.03725010599419
 30
0.0000000002254849
 11
2883.454099969706
 21
25.03725010599419
 31
0.0000000002254849
  0
LINE
  5
1AEAA
330
18
100
AcDbEntity
  8
01
  6
BYBLOCK
100
AcDbLine
 10
2889.254099969706
 20
25.73391799999419
 30
0.0000000002254849
 11
2891.854099969706
 21
25.03725010599419
 31
0.0000000002254849
  0
LINE
  5
1AEAB
330
18
100
AcDbEntity
  8
01
  6
BYBLOCK
100
AcDbLine
 10
2891.854099969706
 20
25.03725010599419
 30
0.0000000002254849
 11
2889.254099969706
 21
24.34058221199419
 31
0.0000000002254849
  0
LINE
  5
1AEAC
330
18
100
AcDbEntity
  8
01
  6
BYBLOCK
100
AcDbLine
 10
2891.854099969706
 20
25.03725010599419
 30
0.0000000002254849
 11
2889.254099969706
 21
25.03725010599419
 31
0.0000000002254849
  0
TEXT
  5
1AEAD
330
18
100
AcDbEntity
  8
01
  6
CONTINUOUS
100
AcDbText
 10
2884.079099969706
 20
25.94725010599419
 30
0.0000000002254849
 40
4.55
  1
11
100
AcDbText
1001
ACAD
1000
DSTYLE
1002
{
1070
    40
1040
1.3
1070
    45
1040
0.5
1002
}
  0
LINE
  5
1AEAE
330
18
100
AcDbEntity
  8
01
  6
BYBLOCK
100
AcDbLine
 10
2987.157432075706
 20
-48.98424197869381
 30
0.0000000002254849
 11
2987.854099969706
 21
-46.38424197869381
 31
0.0000000002254849
  0
LINE
  5
1AEAF
330
18
100
AcDbEntity
  8
01
  6
BYBLOCK
100
AcDbLine
 10
2987.854099969706
 20
-46.38424197869381
 30
0.0000000002254849
 11
2988.550767863706
 21
-48.98424197869381
 31
0.0000000002254849
  0
LINE
  5
1AEB0
330
18
100
AcDbEntity
  8
01
  6
BYBLOCK
100
AcDbLine
 10
2987.854099969706
 20
-46.38424197869381
 30
0.0000000002254849
 11
2987.854099969706
 21
-48.98424197869381
 31
0.0000000002254849
  0
LINE
  5
1AEB1
330
18
100
AcDbEntity
  8
01
  6
BYBLOCK
100
AcDbLine
 10
2988.550767863706
 20
-117.7842419786943
 30
0.0000000002254849
 11
2987.854099969706
 21
-120.3842419786943
 31
0.0000000002254849
  0
LINE
  5
1AEB2
330
18
100
AcDbEntity
  8
01
  6
BYBLOCK
100
AcDbLine
 10
2987.854099969706
 20
-120.3842419786943
 30
0.0000000002254849
 11
2987.157432075706
 21
-117.7842419786943
 31
0.0000000002254849
  0
LINE
  5
1AEB3
330
18
100
AcDbEntity
  8
01
  6
BYBLOCK
100
AcDbLine
 10
2987.854099969706
 20
-120.3842419786943
 30
0.0000000002254849
 11
2987.854099969706
 21
-117.7842419786943
 31
0.0000000002254849
  0
TEXT
  5
1AEB4
330
18
100
AcDbEntity
  8
01
  6
CONTINUOUS
100
AcDbText
 10
2986.944099969706
 20
-65.41289789267512
 30
0.0000000002254849
 40
4.55
  1
74
 50
90.0
100
AcDbText
1001
ACAD
1000
DSTYLE
1002
{
1070
    40
1040
1.3
1070
    45
1040
0.5
1002
}
  0
LINE
  5
1AEB5
330
18
100
AcDbEntity
  8
01
  6
BYBLOCK
100
AcDbLine
 10
2958.254099969706
 20
35.81378546804237
 30
0.0000000002254849
 11
2960.854099969706
 21
35.11711757404237
 31
0.0000000002254849
  0
LINE
  5
1AEB6
330
18
100
AcDbEntity
  8
01
  6
BYBLOCK
100
AcDbLine
 10
2960.854099969706
 20
35.11711757404237
 30
0.0000000002254849
 11
2958.254099969706
 21
34.42044968004237
 31
0.0000000002254849
  0
LINE
  5
1AEB7
330
18
100
AcDbEntity
  8
01
  6
BYBLOCK
100
AcDbLine
 10
2960.854099969706
 20
35.11711757404237
 30
0.0000000002254849
 11
2958.254099969706
 21
35.11711757404237
 31
0.0000000002254849
  0
LINE
  5
1AEB8
330
18
100
AcDbEntity
  8
01
  6
BYBLOCK
100
AcDbLine
 10
2894.454099969706
 20
34.42044968004237
 30
0.0000000002254849
 11
2891.854099969706
 21
35.11711757404237
 31
0.0000000002254849
  0
LINE
  5
1AEB9
330
18
100
AcDbEntity
  8
01
  6
BYBLOCK
100
AcDbLine
 10
2891.854099969706
 20
35.11711757404237
 30
0.0000000002254849
 11
2894.454099969706
 21
35.81378546804237
 31
0.0000000002254849
  0
LINE
  5
1AEBA
330
18
100
AcDbEntity
  8
01
  6
BYBLOCK
100
AcDbLine
 10
2891.854099969706
 20
35.11711757404237
 30
0.0000000002254849
 11
2894.454099969706
 21
35.11711757404237
 31
0.0000000002254849
  0
TEXT
  5
1AEBB
330
18
100
AcDbEntity
  8
01
  6
CONTINUOUS
100
AcDbText
 10
2922.545581451187
 20
36.02711757404237
 30
0.0000000002254849
 40
4.55
  1
69
100
AcDbText
1001
ACAD
1000
DSTYLE
1002
{
1070
    40
1040
1.3
1070
    45
1040
0.5
1002
}
  0
LINE
  5
1AEBC
330
18
100
AcDbEntity
  8
01
  6
BYBLOCK
100
AcDbLine
 10
2894.454099969706
 20
24.34058221199419
 30
0.0000000002254849
 11
2891.854099969706
 21
25.03725010599419
 31
0.0000000002254849
  0
LINE
  5
1AEBD
330
18
100
AcDbEntity
  8
01
  6
BYBLOCK
100
AcDbLine
 10
2891.854099969706
 20
25.03725010599419
 30
0.0000000002254849
 11
2894.454099969706
 21
25.73391799999419
 31
0.0000000002254849
  0
LINE
  5
1AEBE
330
18
100
AcDbEntity
  8
01
  6
BYBLOCK
100
AcDbLine
 10
2891.854099969706
 20
25.03725010599419
 30
0.0000000002254849
 11
2894.454099969706
 21
25.03725010599419
 31
0.0000000002254849
  0
LINE
  5
1AEBF
330
18
100
AcDbEntity
  8
01
  6
BYBLOCK
100
AcDbLine
 10
2940.254099969706
 20
25.73391799999419
 30
0.0000000002254849
 11
2942.854099969706
 21
25.03725010599419
 31
0.0000000002254849
  0
LINE
  5
1AEC0
330
18
100
AcDbEntity
  8
01
  6
BYBLOCK
100
AcDbLine
 10
2942.854099969706
 20
25.03725010599419
 30
0.0000000002254849
 11
2940.254099969706
 21
24.34058221199419
 31
0.0000000002254849
  0
LINE
  5
1AEC1
330
18
100
AcDbEntity
  8
01
  6
BYBLOCK
100
AcDbLine
 10
2942.854099969706
 20
25.03725010599419
 30
0.0000000002254849
 11
2940.254099969706
 21
25.03725010599419
 31
0.0000000002254849
  0
TEXT
  5
1AEC2
330
18
100
AcDbEntity
  8
01
  6
CONTINUOUS
100
AcDbText
 10
2914.304968025262
 20
25.94725010599419
 30
0.0000000002254849
 40
4.55
  1
51
100
AcDbText
1001
ACAD
1000
DSTYLE
1002
{
1070
    40
1040
1.3
1070
    45
1040
0.5
1002
}
  0
LINE
  5
1AEC3
330
18
100
AcDbEntity
  8
01
  6
BYBLOCK
100
AcDbLine
 10
2762.954216309451
 20
24.34058221199396
 30
0.0000000002254849
 11
2760.354216309451
 21
25.03725010599396
 31
0.0000000002254849
  0
LINE
  5
1AEC4
330
18
100
AcDbEntity
  8
01
  6
BYBLOCK
100
AcDbLine
 10
2760.354216309451
 20
25.03725010599396
 30
0.0000000002254849
 11
2762.954216309451
 21
25.73391799999396
 31
0.0000000002254849
  0
LINE
  5
1AEC5
330
18
100
AcDbEntity
  8
01
  6
BYBLOCK
100
AcDbLine
 10
2760.354216309451
 20
25.03725010599396
 30
0.0000000002254849
 11
2762.954216309451
 21
25.03725010599396
 31
0.0000000002254849
  0
LINE
  5
1AEC6
330
18
100
AcDbEntity
  8
01
  6
BYBLOCK
100
AcDbLine
 10
2782.754216309451
 20
25.73391799999396
 30
0.0000000002254849
 11
2785.354216309451
 21
25.03725010599396
 31
0.0000000002254849
  0
LINE
  5
1AEC7
330
18
100
AcDbEntity
  8
01
  6
BYBLOCK
100
AcDbLine
 10
2785.354216309451
 20
25.03725010599396
 30
0.0000000002254849
 11
2782.754216309451
 21
24.34058221199396
 31
0.0000000002254849
  0
LINE
  5
1AEC8
330
18
100
AcDbEntity
  8
01
  6
BYBLOCK
100
AcDbLine
 10
2785.354216309451
 20
25.03725010599396
 30
0.0000000002254849
 11
2782.754216309451
 21
25.03725010599396
 31
0.0000000002254849
  0
TEXT
  5
1AEC9
330
18
100
AcDbEntity
  8
01
  6
CONTINUOUS
100
AcDbText
 10
2769.062549642784
 20
25.94725010599396
 30
0.0000000002254849
 40
4.55
  1
25
100
AcDbText
1001
ACAD
1000
DSTYLE
1002
{
1070
    40
1040
1.3
1070
    45
1040
0.5
1002
}
  0
LINE
  5
1AECA
330
18
100
AcDbEntity
  8
01
  6
BYBLOCK
100
AcDbLine
 10
2856.945619186895
 20
-28.983796834278
 30
0.0000000003382273
 11
2857.642287080895
 21
-26.38379683427799
 31
0.0000000003382273
  0
LINE
  5
1AECB
330
18
100
AcDbEntity
  8
01
  6
BYBLOCK
100
AcDbLine
 10
2857.642287080895
 20
-26.38379683427799
 30
0.0000000003382273
 11
2858.338954974894
 21
-28.983796834278
 31
0.0000000003382273
  0
LINE
  5
1AECC
330
18
100
AcDbEntity
  8
01
  6
BYBLOCK
100
AcDbLine
 10
2857.642287080895
 20
-26.38379683427799
 30
0.0000000003382273
 11
2857.642287080895
 21
-28.983796834278
 31
0.0000000003382273
  0
LINE
  5
1AECD
330
18
100
AcDbEntity
  8
01
  6
BYBLOCK
100
AcDbLine
 10
2858.338954974894
 20
-137.783796834278
 30
0.0000000003382273
 11
2857.642287080895
 21
-140.383796834278
 31
0.0000000003382273
  0
LINE
  5
1AECE
330
18
100
AcDbEntity
  8
01
  6
BYBLOCK
100
AcDbLine
 10
2857.642287080895
 20
-140.383796834278
 30
0.0000000003382273
 11
2856.945619186895
 21
-137.783796834278
 31
0.0000000003382273
  0
LINE
  5
1AECF
330
18
100
AcDbEntity
  8
01
  6
BYBLOCK
100
AcDbLine
 10
2857.642287080895
 20
-140.383796834278
 30
0.0000000003382273
 11
2857.642287080895
 21
-137.783796834278
 31
0.0000000003382273
  0
TEXT
  5
1AED0
330
18
100
AcDbEntity
  8
01
  6
CONTINUOUS
100
AcDbText
 10
2856.732287080895
 20
-58.80077448635666
 30
0.0000000003382273
 40
4.55
  1
114
 50
90.0
100
AcDbText
1001
ACAD
1000
DSTYLE
1002
{
1070
    40
1040
1.3
1070
    45
1040
0.5
1002
}
  0
LINE
  5
1AED1
330
18
100
AcDbEntity
  8
01
  6
BYBLOCK
100
AcDbLine
 10
2866.309953353119
 20
-21.08424197869443
 30
0.0000000003382273
 11
2867.006621247119
 21
-18.48424197869442
 31
0.0000000003382273
  0
LINE
  5
1AED2
330
18
100
AcDbEntity
  8
01
  6
BYBLOCK
100
AcDbLine
 10
2867.006621247119
 20
-18.48424197869442
 30
0.0000000003382273
 11
2867.703289141119
 21
-21.08424197869443
 31
0.0000000003382273
  0
LINE
  5
1AED3
330
18
100
AcDbEntity
  8
01
  6
BYBLOCK
100
AcDbLine
 10
2867.006621247119
 20
-18.48424197869442
 30
0.0000000003382273
 11
2867.006621247119
 21
-21.08424197869443
 31
0.0000000003382273
  0
LINE
  5
1AED4
330
18
100
AcDbEntity
  8
01
  6
BYBLOCK
100
AcDbLine
 10
2867.703289141119
 20
-145.6837968342778
 30
0.0000000003382273
 11
2867.006621247119
 21
-148.2837968342778
 31
0.0000000003382273
  0
LINE
  5
1AED5
330
18
100
AcDbEntity
  8
01
  6
BYBLOCK
100
AcDbLine
 10
2867.006621247119
 20
-148.2837968342778
 30
0.0000000003382273
 11
2866.309953353119
 21
-145.6837968342778
 31
0.0000000003382273
  0
LINE
  5
1AED6
330
18
100
AcDbEntity
  8
01
  6
BYBLOCK
100
AcDbLine
 10
2867.006621247119
 20
-148.2837968342778
 30
0.0000000003382273
 11
2867.006621247119
 21
-145.6837968342778
 31
0.0000000003382273
  0
TEXT
  5
1AED7
330
18
100
AcDbEntity
  8
01
  6
CONTINUOUS
100
AcDbText
 10
2866.096621247119
 20
-59.58533848916386
 30
0.0000000003382273
 40
4.55
  1
130
 50
90.0
100
AcDbText
1001
ACAD
1000
DSTYLE
1002
{
1070
    40
1040
1.3
1070
    45
1040
0.5
1002
}
  0
LINE
  5
1AED8
330
18
100
AcDbEntity
  8
01
  6
BYBLOCK
100
AcDbLine
 10
2907.157432075706
 20
-81.98292366559106
 30
0.0000000002254849
 11
2907.854099969706
 21
-79.38292366559106
 31
0.0000000002254849
  0
LINE
  5
1AED9
330
18
100
AcDbEntity
  8
01
  6
BYBLOCK
100
AcDbLine
 10
2907.854099969706
 20
-79.38292366559106
 30
0.0000000002254849
 11
2908.550767863706
 21
-81.98292366559106
 31
0.0000000002254849
  0
LINE
  5
1AEDA
330
18
100
AcDbEntity
  8
01
  6
BYBLOCK
100
AcDbLine
 10
2907.854099969706
 20
-79.38292366559106
 30
0.0000000002254849
 11
2907.854099969706
 21
-81.98292366559106
 31
0.0000000002254849
  0
LINE
  5
1AEDB
330
18
100
AcDbEntity
  8
01
  6
BYBLOCK
100
AcDbLine
 10
2908.550767863706
 20
-126.7829236655902
 30
0.0000000002254849
 11
2907.854099969706
 21
-129.3829236655902
 31
0.0000000002254849
  0
LINE
  5
1AEDC
330
18
100
AcDbEntity
  8
01
  6
BYBLOCK
100
AcDbLine
 10
2907.854099969706
 20
-129.3829236655902
 30
0.0000000002254849
 11
2907.157432075706
 21
-126.7829236655902
 31
0.0000000002254849
  0
LINE
  5
1AEDD
330
18
100
AcDbEntity
  8
01
  6
BYBLOCK
100
AcDbLine
 10
2907.854099969706
 20
-129.3829236655902
 30
0.0000000002254849
 11
2907.854099969706
 21
-126.7829236655902
 31
0.0000000002254849
  0
TEXT
  5
1AEDE
330
18
100
AcDbEntity
  8
01
  6
CONTINUOUS
100
AcDbText
 10
2906.944099969706
 20
-112.5824265721899
 30
0.0000000002254849
 40
4.55
  1
φ50
 50
90.0
100
AcDbText
1001
ACAD
1000
DSTYLE
1002
{
1070
     3
1000
φ<>
1070
    40
1040
1.3
1070
    45
1040
0.5
1002
}
  0
SOLID
  5
1AEDF
330
18
100
AcDbEntity
  8
1DIM
100
AcDbTrace
 10
2940.223949324452
 20
119.5650009663624
 30
0.0000000001127424
 11
2942.594701209767
 21
120.7170917944027
 31
0.0000000001127424
 12
2940.725749154374
 22
118.8583836429111
 32
0.0000000001127424
 13
2940.725749154374
 23
118.8583836429111
 33
0.0000000001127424
1001
ACAD
1000
DSTYLE
1002
{
1070
    40
1040
1.3
1070
    45
1040
0.5
1002
}
  0
LINE
  5
1AEE0
330
18
100
AcDbEntity
  8
1DIM
100
AcDbLine
 10
2940.474849239413
 20
119.2116923046367
 30
0.0000000001127424
 11
2913.007261062724
 21
99.70575802027756
 31
0.0000000001127424
1001
ACAD
1000
DSTYLE
1002
{
1070
    40
1040
1.3
1070
    45
1040
0.5
1002
}
  0
TEXT
  5
1AEE1
330
18
100
AcDbEntity
  8
1DIM
  6
CONTINUOUS
100
AcDbText
 10
2998.989570719764
 20
124.6765725511094
 30
0.0000000001127424
 40
4.55
  1
材質：亜鉛ダイキャスト
100
AcDbText
  0
TEXT
  5
1AEE2
330
18
100
AcDbEntity
  8
1DIM
  6
CONTINUOUS
100
AcDbText
 10
2999.14123738643
 20
117.093239217776
 30
0.0000000001127424
 40
4.55
  1
仕上げ：各種メッキ
100
AcDbText
  0
SOLID
  5
1AEE3
330
18
100
AcDbEntity
  8
1DIM
100
AcDbTrace
 10
2984.495844309809
 20
102.2858308404277
 30
0.0000000001127424
 11
2982.478676476977
 21
100.5891247044206
 31
0.0000000001127424
 12
2983.8365251396
 22
102.8483335896702
 32
0.0000000001127424
 13
2983.8365251396
 23
102.8483335896702
 33
0.0000000001127424
1001
ACAD
1000
DSTYLE
1002
{
1070
    40
1040
1.3
1070
    45
1040
0.5
1002
}
  0
LINE
  5
1AEE4
330
18
100
AcDbEntity
  8
1DIM
100
AcDbLine
 10
2984.166184724705
 20
102.5670822150489
 30
0.0000000001127424
 11
2995.782904053097
 21
116.183239217776
 31
0.0000000001127424
1001
ACAD
1000
DSTYLE
1002
{
1070
    40
1040
1.3
1070
    45
1040
0.5
1002
}
  0
LINE
  5
1AEE5
330
18
100
AcDbEntity
  8
1DIM
100
AcDbLine
 10
2995.782904053097
 20
116.183239217776
 30
0.0000000001127424
 11
3057.229570719764
 21
116.183239217776
 31
0.0000000001127424
1001
ACAD
1000
DSTYLE
1002
{
1070
    40
1040
1.3
1070
    45
1040
0.5
1002
}
  0
LINE
  5
1AEE6
330
18
100
AcDbEntity
  8
1DIM
100
AcDbLine
 10
2959.254984151766
 20
175.1157580202776
 30
0.0000000002254849
 11
2979.815374911479
 21
175.1157580202776
 31
0.0000000002254849
1001
ACAD
1000
DSTYLE
1002
{
1070
    45
1040
0.5
1070
    40
1040
1.3
1002
}
  0
LINE
  5
1AEE7
330
18
100
AcDbEntity
  8
1DIM
100
AcDbLine
 10
2960.854984151766
 20
156.3157580202776
 30
0.0000000002254849
 11
2979.815374911479
 21
156.3157580202776
 31
0.0000000002254849
1001
ACAD
1000
DSTYLE
1002
{
1070
    45
1040
0.5
1070
    40
1040
1.3
1002
}
  0
LINE
  5
1AEE8
330
18
100
AcDbEntity
  8
1DIM
100
AcDbLine
 10
2978.515374911479
 20
172.5157580202776
 30
0.0000000002254849
 11
2978.515374911479
 21
158.9157580202776
 31
0.0000000002254849
1001
ACAD
1000
DSTYLE
1002
{
1070
    45
1040
0.5
1070
    40
1040
1.3
1002
}
  0
LINE
  5
1AEEC
330
18
100
AcDbEntity
  8
1DIM
100
AcDbLine
 10
2971.370166826481
 20
105.6157580202776
 30
0.0000000002254849
 11
3099.154216309449
 21
105.6157580202775
 31
0.0000000002254849
1001
ACAD
1000
DSTYLE
1002
{
1070
    40
1040
1.3
1070
    45
1040
0.5
1002
}
  0
LINE
  5
1AEED
330
18
100
AcDbEntity
  8
1DIM
100
AcDbLine
 10
3045.609364306797
 20
145.6157580202776
 30
0.0000000002254849
 11
3099.154216309449
 21
145.6157580202776
 31
0.0000000002254849
1001
ACAD
1000
DSTYLE
1002
{
1070
    40
1040
1.3
1070
    45
1040
0.5
1002
}
  0
LINE
  5
1AEEE
330
18
100
AcDbEntity
  8
1DIM
100
AcDbLine
 10
3097.854216309449
 20
108.2157580202775
 30
0.0000000002254849
 11
3097.854216309449
 21
143.0157580202776
 31
0.0000000002254849
1001
ACAD
1000
DSTYLE
1002
{
1070
    40
1040
1.3
1070
    45
1040
0.5
1002
}
  0
LINE
  5
1AEF2
330
18
100
AcDbEntity
  8
1DIM
100
AcDbLine
 10
2971.354144753565
 20
-112.8746966799476
 30
0.0000000002254849
 11
3099.154099969706
 21
-112.8746966799477
 31
0.0000000002254849
1001
ACAD
1000
DSTYLE
1002
{
1070
    40
1040
1.3
1070
    45
1040
0.5
1002
}
  0
LINE
  5
1AEF3
330
18
100
AcDbEntity
  8
1DIM
100
AcDbLine
 10
2971.362473923976
 20
-95.8912639667974
 30
0.0000000002254849
 11
3099.154099969706
 21
-95.89126396679744
 31
0.0000000002254849
1001
ACAD
1000
DSTYLE
1002
{
1070
    40
1040
1.3
1070
    45
1040
0.5
1002
}
  0
LINE
  5
1AEF4
330
18
100
AcDbEntity
  8
1DIM
100
AcDbLine
 10
3097.854099969706
 20
-110.2746966799477
 30
0.0000000002254849
 11
3097.854099969706
 21
-98.49126396679743
 31
0.0000000002254849
1001
ACAD
1000
DSTYLE
1002
{
1070
    40
1040
1.3
1070
    45
1040
0.5
1002
}
  0
LINE
  5
1AEF8
330
18
100
AcDbEntity
  8
1DIM
100
AcDbLine
 10
2942.854165558336
 20
124.3157580202774
 30
0.0000000002254849
 11
2942.854165558336
 21
59.51575802027737
 31
0.0000000002254849
1001
ACAD
1000
DSTYLE
1002
{
1070
    40
1040
1.3
1070
    45
1040
0.5
1002
}
  0
LINE
  5
1AEF9
330
18
100
AcDbEntity
  8
1DIM
100
AcDbLine
 10
3070.86941927971
 20
89.74084656521427
 30
0.0000000002254849
 11
3070.86941927971
 21
59.51575802027737
 31
0.0000000002254849
1001
ACAD
1000
DSTYLE
1002
{
1070
    40
1040
1.3
1070
    45
1040
0.5
1002
}
  0
LINE
  5
1AEFA
330
18
100
AcDbEntity
  8
1DIM
100
AcDbLine
 10
2945.454165558336
 20
60.81575802027737
 30
0.0000000002254849
 11
3068.26941927971
 21
60.81575802027737
 31
0.0000000002254849
1001
ACAD
1000
DSTYLE
1002
{
1070
    40
1040
1.3
1070
    45
1040
0.5
1002
}
  0
LINE
  5
1AEFE
330
18
100
AcDbEntity
  8
1DIM
100
AcDbLine
 10
2927.854196512009
 20
82.61475934911095
 30
0.0000000002254849
 11
2927.854196512009
 21
49.51575802027737
 31
0.0000000002254849
1001
ACAD
1000
DSTYLE
1002
{
1070
    40
1040
1.3
1070
    45
1040
0.5
1002
}
  0
LINE
  5
1AEFF
330
18
100
AcDbEntity
  8
1DIM
100
AcDbLine
 10
3070.86941927971
 20
89.74084656521427
 30
0.0000000002254849
 11
3070.86941927971
 21
49.51575802027737
 31
0.0000000002254849
1001
ACAD
1000
DSTYLE
1002
{
1070
    40
1040
1.3
1070
    45
1040
0.5
1002
}
  0
LINE
  5
1AF00
330
18
100
AcDbEntity
  8
1DIM
100
AcDbLine
 10
2930.454196512009
 20
50.81575802027737
 30
0.0000000002254849
 11
3068.26941927971
 21
50.81575802027737
 31
0.0000000002254849
1001
ACAD
1000
DSTYLE
1002
{
1070
    40
1040
1.3
1070
    45
1040
0.5
1002
}
  0
LINE
  5
1AF04
330
18
100
AcDbEntity
  8
1DIM
100
AcDbLine
 10
2931.854196512009
 20
78.61475934911095
 30
0.0000000002254849
 11
3109.154165558336
 21
78.6147593491109
 31
0.0000000002254849
1001
ACAD
1000
DSTYLE
1002
{
1070
    40
1040
1.3
1070
    45
1040
0.5
1002
}
  0
LINE
  5
1AF05
330
18
100
AcDbEntity
  8
1DIM
100
AcDbLine
 10
3045.609313555684
 20
145.6157580202776
 30
0.0000000002254849
 11
3109.154165558336
 21
145.6157580202776
 31
0.0000000002254849
1001
ACAD
1000
DSTYLE
1002
{
1070
    40
1040
1.3
1070
    45
1040
0.5
1002
}
  0
LINE
  5
1AF06
330
18
100
AcDbEntity
  8
1DIM
100
AcDbLine
 10
3107.854165558336
 20
81.21475934911089
 30
0.0000000002254849
 11
3107.854165558336
 21
143.0157580202776
 31
0.0000000002254849
1001
ACAD
1000
DSTYLE
1002
{
1070
    40
1040
1.3
1070
    45
1040
0.5
1002
}
  0
LINE
  5
1AF0A
330
18
100
AcDbEntity
  8
0
  6
BYBLOCK
100
AcDbLine
 10
2977.818707017479
 20
172.5157580202776
 30
0.0000000002254849
 11
2978.515374911479
 21
175.1157580202776
 31
0.0000000002254849
  0
LINE
  5
1AF0B
330
18
100
AcDbEntity
  8
0
  6
BYBLOCK
100
AcDbLine
 10
2978.515374911479
 20
175.1157580202776
 30
0.0000000002254849
 11
2979.212042805479
 21
172.5157580202776
 31
0.0000000002254849
  0
LINE
  5
1AF0C
330
18
100
AcDbEntity
  8
0
  6
BYBLOCK
100
AcDbLine
 10
2978.515374911479
 20
175.1157580202776
 30
0.0000000002254849
 11
2978.515374911479
 21
172.5157580202776
 31
0.0000000002254849
  0
LINE
  5
1AF0D
330
18
100
AcDbEntity
  8
0
  6
BYBLOCK
100
AcDbLine
 10
2979.212042805479
 20
158.9157580202776
 30
0.0000000002254849
 11
2978.515374911479
 21
156.3157580202776
 31
0.0000000002254849
  0
LINE
  5
1AF0E
330
18
100
AcDbEntity
  8
0
  6
BYBLOCK
100
AcDbLine
 10
2978.515374911479
 20
156.3157580202776
 30
0.0000000002254849
 11
2977.818707017479
 21
158.9157580202776
 31
0.0000000002254849
  0
LINE
  5
1AF0F
330
18
100
AcDbEntity
  8
0
  6
BYBLOCK
100
AcDbLine
 10
2978.515374911479
 20
156.3157580202776
 30
0.0000000002254849
 11
2978.515374911479
 21
158.9157580202776
 31
0.0000000002254849
  0
TEXT
  5
1AF10
330
18
100
AcDbEntity
  8
1DIM
  6
CONTINUOUS
100
AcDbText
 10
2977.605374911479
 20
162.6813714462032
 30
0.0000000002254849
 40
4.55
  1
19
 50
90.0
100
AcDbText
1001
ACAD
1000
DSTYLE
1002
{
1070
    45
1040
0.5
1070
    40
1040
1.3
1002
}
  0
LINE
  5
1AF11
330
18
100
AcDbEntity
  8
0
  6
BYBLOCK
100
AcDbLine
 10
3098.550884203449
 20
108.2157580202775
 30
0.0000000002254849
 11
3097.854216309449
 21
105.6157580202775
 31
0.0000000002254849
  0
LINE
  5
1AF12
330
18
100
AcDbEntity
  8
0
  6
BYBLOCK
100
AcDbLine
 10
3097.854216309449
 20
105.6157580202775
 30
0.0000000002254849
 11
3097.157548415449
 21
108.2157580202775
 31
0.0000000002254849
  0
LINE
  5
1AF13
330
18
100
AcDbEntity
  8
0
  6
BYBLOCK
100
AcDbLine
 10
3097.854216309449
 20
105.6157580202775
 30
0.0000000002254849
 11
3097.854216309449
 21
108.2157580202775
 31
0.0000000002254849
  0
LINE
  5
1AF14
330
18
100
AcDbEntity
  8
0
  6
BYBLOCK
100
AcDbLine
 10
3097.157548415449
 20
143.0157580202776
 30
0.0000000002254849
 11
3097.854216309449
 21
145.6157580202776
 31
0.0000000002254849
  0
LINE
  5
1AF15
330
18
100
AcDbEntity
  8
0
  6
BYBLOCK
100
AcDbLine
 10
3097.854216309449
 20
145.6157580202776
 30
0.0000000002254849
 11
3098.550884203449
 21
143.0157580202776
 31
0.0000000002254849
  0
LINE
  5
1AF16
330
18
100
AcDbEntity
  8
0
  6
BYBLOCK
100
AcDbLine
 10
3097.854216309449
 20
145.6157580202776
 30
0.0000000002254849
 11
3097.854216309449
 21
143.0157580202776
 31
0.0000000002254849
  0
TEXT
  5
1AF17
330
18
100
AcDbEntity
  8
1DIM
  6
CONTINUOUS
100
AcDbText
 10
3096.944216309449
 20
122.1084663536112
 30
0.0000000002254849
 40
4.55
  1
40
 50
90.0
100
AcDbText
1001
ACAD
1000
DSTYLE
1002
{
1070
    40
1040
1.3
1070
    45
1040
0.5
1002
}
  0
LINE
  5
1AF18
330
18
100
AcDbEntity
  8
0
  6
BYBLOCK
100
AcDbLine
 10
3098.550767863706
 20
-110.2746966799477
 30
0.0000000002254849
 11
3097.854099969706
 21
-112.8746966799477
 31
0.0000000002254849
  0
LINE
  5
1AF19
330
18
100
AcDbEntity
  8
0
  6
BYBLOCK
100
AcDbLine
 10
3097.854099969706
 20
-112.8746966799477
 30
0.0000000002254849
 11
3097.157432075706
 21
-110.2746966799477
 31
0.0000000002254849
  0
LINE
  5
1AF1A
330
18
100
AcDbEntity
  8
0
  6
BYBLOCK
100
AcDbLine
 10
3097.854099969706
 20
-112.8746966799477
 30
0.0000000002254849
 11
3097.854099969706
 21
-110.2746966799477
 31
0.0000000002254849
  0
LINE
  5
1AF1B
330
18
100
AcDbEntity
  8
0
  6
BYBLOCK
100
AcDbLine
 10
3097.157432075706
 20
-98.49126396679743
 30
0.0000000002254849
 11
3097.854099969706
 21
-95.89126396679744
 31
0.0000000002254849
  0
LINE
  5
1AF1C
330
18
100
AcDbEntity
  8
0
  6
BYBLOCK
100
AcDbLine
 10
3097.854099969706
 20
-95.89126396679744
 30
0.0000000002254849
 11
3098.550767863706
 21
-98.49126396679743
 31
0.0000000002254849
  0
LINE
  5
1AF1D
330
18
100
AcDbEntity
  8
0
  6
BYBLOCK
100
AcDbLine
 10
3097.854099969706
 20
-95.89126396679744
 30
0.0000000002254849
 11
3097.854099969706
 21
-98.49126396679743
 31
0.0000000002254849
  0
TEXT
  5
1AF1E
330
18
100
AcDbEntity
  8
1DIM
  6
CONTINUOUS
100
AcDbText
 10
3096.944099969706
 20
-107.4163136567054
 30
0.0000000002254849
 40
4.55
  1
17
 50
90.0
100
AcDbText
1001
ACAD
1000
DSTYLE
1002
{
1070
    40
1040
1.3
1070
    45
1040
0.5
1002
}
  0
LINE
  5
1AF1F
330
18
100
AcDbEntity
  8
0
  6
BYBLOCK
100
AcDbLine
 10
2945.454165558336
 20
60.11909012627737
 30
0.0000000002254849
 11
2942.854165558336
 21
60.81575802027737
 31
0.0000000002254849
  0
LINE
  5
1AF20
330
18
100
AcDbEntity
  8
0
  6
BYBLOCK
100
AcDbLine
 10
2942.854165558336
 20
60.81575802027737
 30
0.0000000002254849
 11
2945.454165558336
 21
61.51242591427737
 31
0.0000000002254849
  0
LINE
  5
1AF21
330
18
100
AcDbEntity
  8
0
  6
BYBLOCK
100
AcDbLine
 10
2942.854165558336
 20
60.81575802027737
 30
0.0000000002254849
 11
2945.454165558336
 21
60.81575802027737
 31
0.0000000002254849
  0
LINE
  5
1AF22
330
18
100
AcDbEntity
  8
0
  6
BYBLOCK
100
AcDbLine
 10
3068.26941927971
 20
61.51242591427737
 30
0.0000000002254849
 11
3070.86941927971
 21
60.81575802027737
 31
0.0000000002254849
  0
LINE
  5
1AF23
330
18
100
AcDbEntity
  8
0
  6
BYBLOCK
100
AcDbLine
 10
3070.86941927971
 20
60.81575802027737
 30
0.0000000002254849
 11
3068.26941927971
 21
60.11909012627737
 31
0.0000000002254849
  0
LINE
  5
1AF24
330
18
100
AcDbEntity
  8
0
  6
BYBLOCK
100
AcDbLine
 10
3070.86941927971
 20
60.81575802027737
 30
0.0000000002254849
 11
3068.26941927971
 21
60.81575802027737
 31
0.0000000002254849
  0
TEXT
  5
1AF25
330
18
100
AcDbEntity
  8
1DIM
  6
CONTINUOUS
100
AcDbText
 10
3001.55345908569
 20
61.72575802027738
 30
0.0000000002254849
 40
4.55
  1
128
100
AcDbText
1001
ACAD
1000
DSTYLE
1002
{
1070
    40
1040
1.3
1070
    45
1040
0.5
1002
}
  0
LINE
  5
1AF26
330
18
100
AcDbEntity
  8
0
  6
BYBLOCK
100
AcDbLine
 10
2930.454196512009
 20
50.11909012627737
 30
0.0000000002254849
 11
2927.854196512009
 21
50.81575802027737
 31
0.0000000002254849
  0
LINE
  5
1AF27
330
18
100
AcDbEntity
  8
0
  6
BYBLOCK
100
AcDbLine
 10
2927.854196512009
 20
50.81575802027737
 30
0.0000000002254849
 11
2930.454196512009
 21
51.51242591427737
 31
0.0000000002254849
  0
LINE
  5
1AF28
330
18
100
AcDbEntity
  8
0
  6
BYBLOCK
100
AcDbLine
 10
2927.854196512009
 20
50.81575802027737
 30
0.0000000002254849
 11
2930.454196512009
 21
50.81575802027737
 31
0.0000000002254849
  0
LINE
  5
1AF29
330
18
100
AcDbEntity
  8
0
  6
BYBLOCK
100
AcDbLine
 10
3068.26941927971
 20
51.51242591427737
 30
0.0000000002254849
 11
3070.86941927971
 21
50.81575802027737
 31
0.0000000002254849
  0
LINE
  5
1AF2A
330
18
100
AcDbEntity
  8
0
  6
BYBLOCK
100
AcDbLine
 10
3070.86941927971
 20
50.81575802027737
 30
0.0000000002254849
 11
3068.26941927971
 21
50.11909012627737
 31
0.0000000002254849
  0
LINE
  5
1AF2B
330
18
100
AcDbEntity
  8
0
  6
BYBLOCK
100
AcDbLine
 10
3070.86941927971
 20
50.81575802027737
 30
0.0000000002254849
 11
3068.26941927971
 21
50.81575802027737
 31
0.0000000002254849
  0
TEXT
  5
1AF2C
330
18
100
AcDbEntity
  8
1DIM
  6
CONTINUOUS
100
AcDbText
 10
2994.053474562526
 20
51.72575802027738
 30
0.0000000002254849
 40
4.55
  1
143
100
AcDbText
1001
ACAD
1000
DSTYLE
1002
{
1070
    40
1040
1.3
1070
    45
1040
0.5
1002
}
  0
LINE
  5
1AF2D
330
18
100
AcDbEntity
  8
0
  6
BYBLOCK
100
AcDbLine
 10
3108.550833452336
 20
81.21475934911089
 30
0.0000000002254849
 11
3107.854165558336
 21
78.6147593491109
 31
0.0000000002254849
  0
LINE
  5
1AF2E
330
18
100
AcDbEntity
  8
0
  6
BYBLOCK
100
AcDbLine
 10
3107.854165558336
 20
78.6147593491109
 30
0.0000000002254849
 11
3107.157497664336
 21
81.21475934911089
 31
0.0000000002254849
  0
LINE
  5
1AF2F
330
18
100
AcDbEntity
  8
0
  6
BYBLOCK
100
AcDbLine
 10
3107.854165558336
 20
78.6147593491109
 30
0.0000000002254849
 11
3107.854165558336
 21
81.21475934911089
 31
0.0000000002254849
  0
LINE
  5
1AF30
330
18
100
AcDbEntity
  8
0
  6
BYBLOCK
100
AcDbLine
 10
3107.157497664336
 20
143.0157580202776
 30
0.0000000002254849
 11
3107.854165558336
 21
145.6157580202776
 31
0.0000000002254849
  0
LINE
  5
1AF31
330
18
100
AcDbEntity
  8
0
  6
BYBLOCK
100
AcDbLine
 10
3107.854165558336
 20
145.6157580202776
 30
0.0000000002254849
 11
3108.550833452336
 21
143.0157580202776
 31
0.0000000002254849
  0
LINE
  5
1AF32
330
18
100
AcDbEntity
  8
0
  6
BYBLOCK
100
AcDbLine
 10
3107.854165558336
 20
145.6157580202776
 30
0.0000000002254849
 11
3107.854165558336
 21
143.0157580202776
 31
0.0000000002254849
  0
TEXT
  5
1AF33
330
18
100
AcDbEntity
  8
1DIM
  6
CONTINUOUS
100
AcDbText
 10
3106.944165558336
 20
108.307793406917
 30
0.0000000002254849
 40
4.55
  1
67
 50
90.0
100
AcDbText
1001
ACAD
1000
DSTYLE
1002
{
1070
    40
1040
1.3
1070
    45
1040
0.5
1002
}
  0
VIEWPORT
  5
57
330
15
100
AcDbEntity
 67
     1
  8
0
100
AcDbViewport
 68
     1
 10
0.0
 20
0.0
 30
0.0
 40
663.4332925336597
 41
297.0
 68
     1
 69
     1
1001
ACAD
1000
MVIEW
1002
{
1070
    16
1010
0.0
1020
0.0
1030
0.0
1010
0.0
1020
0.0
1030
1.0
1040
0.0
1040
297.0
1040
-4.171999999925333
1040
12.83903210976956
1040
50.0
1040
0.0
1040
0.0
1070
    16
1070
   100
1070
     0
1070
     1
1070
     0
1070
     0
1070
     0
1070
     0
1040
0.0
1040
0.0
1040
0.0
1040
10.0
1040
10.0
1040
10.0
1040
10.0
1070
     0
1002
{
1002
}
1002
}
  0
ENDSEC
  0
SECTION
  2
OBJECTS
  0
DICTIONARY
  5
C
330
0
100
AcDbDictionary
  3
ACAD_COLOR
350
18D
  3
ACAD_GROUP
350
D
  3
ACAD_LAYOUT
350
18E
  3
ACAD_MATERIAL
350
18C
  3
ACAD_MLEADERSTYLE
350
D9E7
  3
ACAD_MLINESTYLE
350
1B
  3
ACAD_PLOTSETTINGS
350
18F
  3
ACAD_SCALELIST
350
D9C5
  3
ACAD_VISUALSTYLE
350
D9B4
  3
ACDBHEADERROUNDTRIPXREC
350
1AF34
  3
ACDBVARIABLEDICTIONARY
350
37
  3
AEC_PROPERTY_SET_DEFS
350
1AB51
  3
CONTENTDICTIONARY
350
D8
  3
DRAWINGVARIABLESDICT
350
20
  3
DWGPROPS
350
1AF37
1001
ACAD
1000
TREAT_AS_HARD
1070
     0
  0
DICTIONARY
  5
E6A6
330
2
100
AcDbDictionary
  3
ACAD_LAYERSTATES
360
E6A7
1001
ACAD
1000
TREAT_AS_HARD
1070
     1
  0
DICTIONARY
  5
DA05
330
E
100
AcDbDictionary
  3
ADSK_XREC_LAYER_RECONCILED
360
DA06
1001
ACAD
1000
TREAT_AS_HARD
1070
     1
  0
DICTIONARY
  5
DA07
330
29
100
AcDbDictionary
  3
ADSK_XREC_LAYER_RECONCILED
360
DA08
1001
ACAD
1000
TREAT_AS_HARD
1070
     1
  0
DICTIONARY
  5
DA09
330
31
100
AcDbDictionary
  3
ADSK_XREC_LAYER_RECONCILED
360
DA0A
1001
ACAD
1000
TREAT_AS_HARD
1070
     1
  0
DICTIONARY
  5
DA0F
330
243
100
AcDbDictionary
  3
ADSK_XREC_LAYER_RECONCILED
360
DA10
1001
ACAD
1000
TREAT_AS_HARD
1070
     1
  0
DICTIONARY
  5
DA15
330
24E
100
AcDbDictionary
  3
ADSK_XREC_LAYER_RECONCILED
360
DA16
1001
ACAD
1000
TREAT_AS_HARD
1070
     1
  0
DICTIONARY
  5
88F
330
18
100
AcDbDictionary
  3
ACAD_SORTENTS
360
890
1001
ACAD
1000
TREAT_AS_HARD
1070
     1
  0
DICTIONARY
  5
18D
102
{ACAD_REACTORS
330
C
102
}
330
C
100
AcDbDictionary
1001
ACAD
1000
TREAT_AS_HARD
1070
     0
  0
DICTIONARY
  5
D
102
{ACAD_REACTORS
330
C
102
}
330
C
100
AcDbDictionary
1001
ACAD
1000
TREAT_AS_HARD
1070
     0
  0
DICTIONARY
  5
18E
102
{ACAD_REACTORS
330
C
102
}
330
C
100
AcDbDictionary
1001
ACAD
1000
TREAT_AS_HARD
1070
     0
  0
DICTIONARY
  5
18C
102
{ACAD_REACTORS
330
C
102
}
330
C
100
AcDbDictionary
  3
BYBLOCK
350
D9A4
  3
BYLAYER
350
D99C
  3
GLOBAL
350
D9AC
1001
ACAD
1000
TREAT_AS_HARD
1070
     0
  0
DICTIONARY
  5
D9E7
102
{ACAD_REACTORS
330
C
102
}
330
C
100
AcDbDictionary
  3
STANDARD
350
D9E8
1001
ACAD
1000
TREAT_AS_HARD
1070
     0
  0
DICTIONARY
  5
1B
102
{ACAD_REACTORS
330
C
102
}
330
C
100
AcDbDictionary
  3
STANDARD
350
1C
1001
ACAD
1000
TREAT_AS_HARD
1070
     0
  0
DICTIONARY
  5
18F
102
{ACAD_REACTORS
330
C
102
}
330
C
100
AcDbDictionary
1001
ACAD
1000
TREAT_AS_HARD
1070
     0
  0
DICTIONARY
  5
D9C5
102
{ACAD_REACTORS
330
C
102
}
330
C
100
AcDbDictionary
  3
A0
350
D9C6
  3
A1
350
D9C7
  3
A2
350
D9C8
  3
A3
350
D9C9
  3
A4
350
D9CA
  3
A5
350
D9CB
  3
A6
350
D9CC
  3
A7
350
D9CD
  3
A8
350
D9CE
  3
A9
350
D9CF
  3
B0
350
D9D0
  3
B1
350
D9D1
  3
B2
350
D9D2
  3
B3
350
D9D3
  3
B4
350
D9D4
  3
B5
350
D9D5
  3
B6
350
D9D6
  3
B7
350
D9D7
  3
B8
350
D9D8
  3
B9
350
D9D9
  3
C0
350
D9DA
  3
C1
350
D9DB
  3
C2
350
D9DC
  3
C3
350
D9DD
  3
C4
350
D9DE
  3
C5
350
D9DF
  3
C6
350
D9E0
  3
C7
350
D9E1
  3
C8
350
D9E2
  3
C9
350
D9E3
  3
D0
350
D9E4
  3
D1
350
D9E5
  3
D2
350
D9E6
1001
ACAD
1000
TREAT_AS_HARD
1070
     0
  0
DICTIONARY
  5
D9B4
102
{ACAD_REACTORS
330
C
102
}
330
C
100
AcDbDictionary
  3
2DWIREFRAME
350
D9BA
  3
3D_HIDDEN
350
D9BC
  3
3DWIREFRAME
350
D9BB
  3
BASIC
350
D9B9
  3
BRIGHTEN
350
D9C0
  3
COLORCHANGE
350
D9C4
  3
CONCEPTUAL
350
D9BD
  3
DIM
350
D9BF
  3
EDGECOLOROFF
350
19C2F
  3
FACEPATTERN
350
D9C3
  3
FLAT
350
D9B5
  3
FLATWITHEDGES
350
D9B6
  3
GOURAUD
350
D9B7
  3
GOURAUDWITHEDGES
350
D9B8
  3
HIDDEN
350
19C7E
  3
JITTEROFF
350
19C2D
  3
LINEPATTERN
350
D9C2
  3
MODELING
350
19C84
  3
OVERHANGOFF
350
19C2E
  3
REALISTIC
350
D9BE
  3
SHADED
350
19C83
  3
SHADED_WITH_EDGES
350
19C82
  3
SHADES_OF_GRAY
350
19C7F
  3
SKETCHY
350
19C80
  3
THICKEN
350
D9C1
  3
WIREFRAME
350
19C7D
  3
X-RAY
350
19C81
1001
ACAD
1000
TREAT_AS_HARD
1070
     0
  0
DICTIONARY
  5
1AF34
102
{ACAD_REACTORS
330
C
102
}
330
C
100
AcDbDictionary
  3
COLORDICT
350
1AF35
  3
MATERIALDICT
350
1AF36
1001
ACAD
1000
TREAT_AS_HARD
1070
     0
  0
DICTIONARY
  5
37
102
{ACAD_REACTORS
330
C
102
}
330
C
100
AcDbDictionary
  3
CANNOSCALE
350
1ADFC
  3
CMLEADERSTYLE
350
DA6A
  3
CTABLESTYLE
350
29E
  3
DIMADEC
350
38
  3
DIMASSOC
350
1CE
  3
HIDETEXT
350
704E
  3
INDEXCTL
350
DA6D
  3
INTERSECTIONCOLOR
350
7052
  3
INTERSECTIONDISPLAY
350
7051
  3
MSLTSCALE
350
1A6DD
  3
OBSCOLOR
350
704F
  3
OBSLTYPE
350
7050
  3
PROJECTNAME
350
1CF
  3
SORTENTS
350
DA6C
  3
XCLIPFRAME
350
1ADD7
1001
ACAD
1000
TREAT_AS_HARD
1070
     0
  0
DICTIONARY
  5
1AB51
102
{ACAD_REACTORS
330
C
102
}
330
C
100
AcDbDictionary
1001
ACAD
1000
TREAT_AS_HARD
1070
     0
  0
DICTIONARY
  5
D8
102
{ACAD_REACTORS
330
C
102
}
330
C
100
AcDbDictionary
1001
ACAD
1000
TREAT_AS_HARD
1070
     0
  0
DICTIONARY
  5
20
102
{ACAD_REACTORS
330
C
102
}
330
C
100
AcDbDictionary
1001
DRAWINGVARIABLESXDATA
1000
POLARANG
1000
0.261799387799149410000000
1000
POLARMODE
1000
1
1000
POLARSTYLE
1000
1
1001
ACAD
1000
TREAT_AS_HARD
1070
     0
  0
XRECORD
  5
1AF37
102
{ACAD_REACTORS
330
C
102
}
330
C
100
AcDbXrecord
  1
DWGPROPS COOKIE
  2

  3

  4

  6

  7

  8
3684
  9

300
=
301
=
302
=
303
=
304
=
305
=
306
=
307
=
308
=
309
=
 40
0.0
 41
2451318.246352917
 42
2458152.25215875
  1

 90
        0
  0
DICTIONARY
  5
E6A7
102
{ACAD_REACTORS
330
E6A6
102
}
330
E6A6
100
AcDbDictionary
1001
ACAD
1000
TREAT_AS_HARD
1070
     0
  0
ACAD_PROXY_OBJECT
  5
DA06
102
{ACAD_REACTORS
330
DA05
102
}
330
DA05
100
AcDbZombieObject
 90
      499
 91
      516
 93
       34
310
40C8804040
  0
ACAD_PROXY_OBJECT
  5
DA08
102
{ACAD_REACTORS
330
DA07
102
}
330
DA07
100
AcDbZombieObject
 90
      499
 91
      516
 93
       34
310
40C8804040
  0
ACAD_PROXY_OBJECT
  5
DA0A
102
{ACAD_REACTORS
330
DA09
102
}
330
DA09
100
AcDbZombieObject
 90
      499
 91
      516
 93
       34
310
40C8804040
  0
ACAD_PROXY_OBJECT
  5
DA10
102
{ACAD_REACTORS
330
DA0F
102
}
330
DA0F
100
AcDbZombieObject
 90
      499
 91
      516
 93
       34
310
40C8804040
  0
ACAD_PROXY_OBJECT
  5
DA16
102
{ACAD_REACTORS
330
DA15
102
}
330
DA15
100
AcDbZombieObject
 90
      499
 91
      516
 93
       34
310
40C8804040
  0
SORTENTSTABLE
  5
890
102
{ACAD_REACTORS
330
88F
102
}
330
88F
100
AcDbSortentsTable
330
18
331
0
  5
5BFF
331
0
  5
1AB58
331
0
  5
1AB5A
331
0
  5
1AB5B
331
1AB5A
  5
1AB7C
331
1AB5B
  5
1AB7D
331
1AB5C
  5
1AB7E
331
1AB60
  5
1AB9D
331
1AB61
  5
1AB9E
331
1AB62
  5
1AB9F
331
1AB63
  5
1ABA0
331
1AB64
  5
1ABA1
331
1AB65
  5
1ABA2
331
1AB66
  5
1ABA3
331
1AB67
  5
1ABA4
331
1AB68
  5
1ABA5
331
1AB69
  5
1ABA6
331
1AB6A
  5
1ABA7
331
1AB6B
  5
1ABA8
331
1AB6C
  5
1ABA9
331
1AB6D
  5
1ABAA
331
1AB6E
  5
1ABAB
331
1AB6F
  5
1ABAC
331
1AB70
  5
1ABAD
331
1AB71
  5
1ABAE
331
1AB72
  5
1ABAF
331
1AB73
  5
1ABB0
331
1AB74
  5
1ABB1
331
1AB75
  5
1ABB2
331
1AB76
  5
1ABB3
331
1AB77
  5
1ABB4
331
1AB78
  5
1ABB5
331
1AB79
  5
1ABB6
331
1AB7A
  5
1ABB7
331
1AB7B
  5
1ABB8
331
1AB7C
  5
1ABB9
331
1AB7D
  5
1ABBA
331
1AB7E
  5
1ABBB
331
1AB7F
  5
1ABBC
331
1AB80
  5
1ABBD
331
1AB81
  5
1ABBE
331
1AB82
  5
1ABBF
331
1AB83
  5
1ABC0
331
1AB84
  5
1ABC1
331
1AB85
  5
1ABC2
331
1AB86
  5
1ABC3
331
1AB87
  5
1ABC4
331
1AB88
  5
1ABC5
331
1AB89
  5
1ABC6
331
1AB8A
  5
1ABC7
331
1AB8B
  5
1ABC8
331
1AB8C
  5
1ABC9
331
1AB8D
  5
1ABCA
331
1AB8E
  5
1ABCB
331
1AB8F
  5
1ABCC
331
1AB90
  5
1ABCD
331
1AB91
  5
1ABCF
331
1AB92
  5
1ABD0
331
1AB93
  5
1ABD1
331
1AB94
  5
1ABD2
331
1AB95
  5
1ABD3
331
1AB96
  5
1ABD4
331
1AB97
  5
1ABD5
331
1AB98
  5
1ABD6
331
1AB99
  5
1ABD7
331
1AB9A
  5
1ABD8
331
1AB9B
  5
1ABD9
331
1AB9C
  5
1ABDA
331
1AB9D
  5
1ABDB
331
1AB9E
  5
1ABDD
331
1AB9F
  5
1ABDE
331
1ABA0
  5
1ABDF
331
1ABA1
  5
1ABE0
331
1ABA2
  5
1ABE1
331
1ABA3
  5
1ABE2
331
1ABA4
  5
1ABE3
331
0
  5
1ABDC
331
1ABA6
  5
1ABF4
331
1ABA7
  5
1ABF5
331
1ABA8
  5
1ABF6
331
1ABA9
  5
1ABF7
331
1ABAA
  5
1ABF8
331
1ABAB
  5
1ABF9
331
1ABAC
  5
1ABFA
331
1ABAD
  5
1ABFB
331
1ABAE
  5
1ABFC
331
1ABAF
  5
1ABFD
331
1ABB0
  5
1ABFE
331
1ABB1
  5
1ABFF
331
1ABB2
  5
1AC00
331
1ABB3
  5
1AC01
331
1ABB4
  5
1AC02
331
1ABB5
  5
1AC03
331
1ABB6
  5
1AC04
331
1ABB7
  5
1AC05
331
1ABB8
  5
1AC06
331
1ABB9
  5
1AC07
331
1ABBA
  5
1AC08
331
1ABBB
  5
1AC09
331
1ABBC
  5
1AC0A
331
1ABBD
  5
1AC0B
331
1ABBE
  5
1AC0C
331
1ABBF
  5
1AC0D
331
1ABC0
  5
1AC0E
331
1ABC1
  5
1AC0F
331
1ABC2
  5
1AC10
331
1ABC3
  5
1AC13
331
1ABC4
  5
1AC14
331
1ABC5
  5
1AC15
331
1ABC6
  5
1AC16
331
1ABC7
  5
1AC17
331
1ABC8
  5
1AC18
331
1ABC9
  5
1AC19
331
1ABCA
  5
1AC1A
331
1ABCB
  5
1AC1B
331
1ABCC
  5
1AC1C
331
1ABCD
  5
1AC1D
331
1ABCF
  5
1AC28
331
1ABD0
  5
1AC29
331
1ABD1
  5
1AC2A
331
1ABD2
  5
1AC2B
331
1ABD3
  5
1AC2D
331
1ABD4
  5
1AC2E
331
1ABD5
  5
1AC2F
331
1ABD6
  5
1AC30
331
1ABD7
  5
1AC31
331
1ABD8
  5
1AC32
331
1ABD9
  5
1AC33
331
1ABDA
  5
1AC34
331
1ABDB
  5
1AC35
331
1ABDC
  5
1AC36
331
1ABDD
  5
1AC3A
331
1ABDE
  5
1AC3B
331
1ABDF
  5
1AC3C
331
1ABE0
  5
1AC40
331
1ABE1
  5
1AC41
331
1ABE2
  5
1AC42
331
1ABE3
  5
1AC43
331
1ABE4
  5
1AC44
331
1ABE5
  5
1AC45
331
1ABE6
  5
1AC46
331
1ABE7
  5
1AC47
331
1ABE8
  5
1AC48
331
1ABE9
  5
1AC49
331
1ABEA
  5
1AC4A
331
1ABEB
  5
1AC4B
331
1ABEC
  5
1AC4C
331
1ABED
  5
1AC4D
331
1ABEE
  5
1AC4E
331
1ABEF
  5
1AC4F
331
1ABF0
  5
1AC50
331
1ABF1
  5
1AC51
331
1ABF2
  5
1AC52
331
1ABF3
  5
1AC53
331
1ABF4
  5
1AC54
331
1ABF5
  5
1AC55
331
1ABF6
  5
1AC56
331
1ABF7
  5
1AC57
331
1ABF8
  5
1AC58
331
1ABF9
  5
1AC59
331
1ABFA
  5
1AC5A
331
1ABFB
  5
1AC5B
331
1ABFC
  5
1AC5F
331
1ABFD
  5
1AC60
331
1ABFE
  5
1AC61
331
1ABFF
  5
1AC62
331
1AC00
  5
1AC63
331
1AC01
  5
1AC64
331
1AC02
  5
1AC65
331
1AC03
  5
1AC66
331
1AC04
  5
1AC67
331
1AC05
  5
1AC68
331
1AC06
  5
1AC69
331
1AC07
  5
1AC6A
331
1AC08
  5
1AC6B
331
1AC09
  5
1AC6C
331
1AC0A
  5
1AC6D
331
1AC0B
  5
1AC6E
331
1AC0C
  5
1AC6F
331
1AC0D
  5
1AC70
331
1AC0E
  5
1AC71
331
1AC0F
  5
1AC72
331
1AC10
  5
1AC73
331
1AC13
  5
1AC88
331
1AC14
  5
1AC89
331
1AC15
  5
1AC8A
331
1AC16
  5
1AC8B
331
1AC17
  5
1AC8C
331
1AC18
  5
1AC8D
331
1AC19
  5
1AC8E
331
1AC1A
  5
1AC8F
331
1AC1B
  5
1AC90
331
1AC1C
  5
1AC91
331
1AC1D
  5
1AC92
331
1AC1E
  5
1AC93
331
1AC1F
  5
1AC94
331
1AC20
  5
1AC95
331
1AC21
  5
1AC96
331
1AC22
  5
1AC97
331
1AC23
  5
1AE75
331
1AC24
  5
1AE76
331
1AC25
  5
1AE77
331
1AC26
  5
1AE78
331
1AC27
  5
1AE79
331
1AC28
  5
1AE7A
331
1AC29
  5
1AE7B
331
1AC2A
  5
1AE7C
331
1AC2B
  5
1AE7D
331
1AC2D
  5
1AE8A
331
1AC2E
  5
1AE8B
331
1AC2F
  5
1AE8C
331
1AC30
  5
1AE8D
331
1AC31
  5
1AE8E
331
1AC32
  5
1AE8F
331
1AC33
  5
1AE93
331
1AC34
  5
1AE94
331
1AC35
  5
1AE95
331
1AC36
  5
1AE96
331
0
  5
1AE7E
331
1AC38
  5
1AEA7
331
1AC39
  5
1AEA8
331
1AC3A
  5
1AEA9
331
1AC3B
  5
1AEAA
331
1AC3C
  5
1AEAB
331
1AC3D
  5
1AEAC
331
1AC3E
  5
1AEAD
331
1AC3F
  5
1AEAE
331
1AC40
  5
1AEAF
331
1AC41
  5
1AEB0
331
0
  5
1AE89
331
1AC43
  5
1AEBE
331
1AC44
  5
1AEC2
331
1AC45
  5
1AEC3
331
1AC46
  5
1AEC4
331
1AC47
  5
1AEC8
331
1AC48
  5
1AEC9
331
1AC49
  5
1AECA
331
1AC4A
  5
1AECB
331
1AC4B
  5
1AECC
331
1AC4C
  5
1AECD
331
1AC4D
  5
1AECE
331
1AC4E
  5
1AECF
331
1AC4F
  5
1AED0
331
1AC50
  5
1AED1
331
1AC51
  5
1AED2
331
1AC52
  5
1AED3
331
0
  5
1AE9A
331
0
  5
1AE9B
331
0
  5
1AE9C
331
1AC56
  5
1AEF2
331
1AC57
  5
1AEF3
331
1AC58
  5
1AEF4
331
1AC59
  5
1AEF5
331
1AC5A
  5
1AEF6
331
1AC5B
  5
1AEF7
331
1AC5C
  5
1AEF8
331
1AC5D
  5
1AEF9
331
1AC5E
  5
1AEFA
331
1AC5F
  5
1AEFB
331
1AC60
  5
1AEFC
331
1AC61
  5
1AEFD
331
1AC62
  5
1AEFE
331
1AC63
  5
1AEFF
331
1AC64
  5
1AF00
331
1AC65
  5
1AF01
331
1AC66
  5
1AF02
331
1AC67
  5
1AF03
331
1AC68
  5
1AF04
331
1AC69
  5
1AF05
331
1AC6A
  5
1AF06
331
1AC6B
  5
1AF07
331
1AC6C
  5
1AF08
331
1AC6D
  5
1AF09
331
1AC6E
  5
1AF0A
331
1AC6F
  5
1AF0B
331
1AC70
  5
1AF0C
331
1AC71
  5
1AF0D
331
1AC72
  5
1AF0E
331
1AC73
  5
1AF0F
331
1AC74
  5
1AF10
331
1AC75
  5
1AF11
331
1AC76
  5
1AF12
331
1AC77
  5
1AF13
331
1AC78
  5
1AF14
331
1AC79
  5
1AF15
331
1AC7A
  5
1AF16
331
1AC7B
  5
1AF17
331
1AC7C
  5
1AF18
331
1AC7D
  5
1AF19
331
1AC7E
  5
1AF1A
331
1AC7F
  5
1AF1B
331
1AC80
  5
1AF1C
331
1AC81
  5
1AF1D
331
1AC82
  5
1AF1E
331
1AC83
  5
1AF1F
331
1AC84
  5
1AF20
331
1AC85
  5
1AF21
331
1AC86
  5
1AF22
331
1AC87
  5
1AF23
331
1AC88
  5
1AF24
331
1AC89
  5
1AF25
331
1AC8A
  5
1AF26
331
1AC8B
  5
1AF27
331
1AC8C
  5
1AF28
331
1AC8D
  5
1AF29
331
1AC8E
  5
1AF2A
331
1AC8F
  5
1AF2B
331
1AC90
  5
1AF2C
331
1AC91
  5
1AF2D
331
1AC92
  5
1AF2E
331
1AC93
  5
1AF2F
331
1AC94
  5
1AF30
331
1AC95
  5
1AF31
331
1AC96
  5
1AF32
331
1AC97
  5
1AF33
331
1AE75
  5
1AB56
331
1AE76
  5
1AB57
331
1AE77
  5
1AB69
331
1AE78
  5
1AB6A
331
1AE79
  5
1AB6E
331
0
  5
1AB62
331
0
  5
1AB63
331
0
  5
1AB64
331
1AE7D
  5
1AB7F
331
1AE7E
  5
1AB80
331
1AE7F
  5
1AB81
331
0
  5
1AB6B
331
0
  5
1AB6C
331
0
  5
1AB6D
331
1AE83
  5
1AB89
331
1AE84
  5
1AB8A
331
1AE85
  5
1AB8B
331
0
  5
1AB71
331
0
  5
1AB72
331
0
  5
1AB73
331
1AE89
  5
1AB93
331
1AE8A
  5
1AB94
331
1AE8B
  5
1AB95
331
0
  5
1AB77
331
0
  5
1AB78
331
0
  5
1AB79
331
1AE8F
  5
1AC1E
331
1AE90
  5
1AC1F
331
1AE91
  5
1AC20
331
0
  5
1ABEC
331
0
  5
1ABED
331
0
  5
1ABEE
331
1AE95
  5
1AC74
331
1AE96
  5
1AC75
331
1AE97
  5
1AC76
331
0
  5
1AC37
331
0
  5
1AC38
331
0
  5
1AC39
331
1AE9B
  5
1AC7E
331
1AE9C
  5
1AC7F
331
1AE9D
  5
1AC80
331
0
  5
1AC3D
331
0
  5
1AC3E
331
0
  5
1AC3F
331
1AEA1
  5
1AE7F
331
1AEA2
  5
1AE80
331
1AEA3
  5
1AE81
331
0
  5
1AC5C
331
0
  5
1AC5D
331
0
  5
1AC5E
331
1AEA7
  5
1AB6F
331
1AEA8
  5
1AB70
331
1AEA9
  5
1AB74
331
1AEAA
  5
1AB75
331
1AEAB
  5
1AB76
331
1AEAC
  5
1AB7A
331
1AEAD
  5
1AB7B
331
1AEAE
  5
1AB82
331
1AEAF
  5
1AB83
331
1AEB0
  5
1AB84
331
1AEB1
  5
1AB85
331
1AEB2
  5
1AB86
331
1AEB3
  5
1AB87
331
1AEB4
  5
1AB88
331
1AEB5
  5
1AB8C
331
1AEB6
  5
1AB8D
331
1AEB7
  5
1AB8E
331
1AEB8
  5
1AB8F
331
1AEB9
  5
1AB90
331
1AEBA
  5
1AB91
331
1AEBB
  5
1AB92
331
1AEBC
  5
1AB96
331
1AEBD
  5
1AB97
331
1AEBE
  5
1AB98
331
1AEBF
  5
1AB99
331
1AEC0
  5
1AB9A
331
1AEC1
  5
1AB9B
331
1AEC2
  5
1AB9C
331
1AEC3
  5
1AC21
331
1AEC4
  5
1AC22
331
1AEC5
  5
1AC23
331
1AEC6
  5
1AC24
331
1AEC7
  5
1AC25
331
1AEC8
  5
1AC26
331
1AEC9
  5
1AC27
331
1AECA
  5
1AC77
331
1AECB
  5
1AC78
331
1AECC
  5
1AC79
331
1AECD
  5
1AC7A
331
1AECE
  5
1AC7B
331
1AECF
  5
1AC7C
331
1AED0
  5
1AC7D
331
1AED1
  5
1AC81
331
1AED2
  5
1AC82
331
1AED3
  5
1AC83
331
1AED4
  5
1AC84
331
1AED5
  5
1AC85
331
1AED6
  5
1AC86
331
1AED7
  5
1AC87
331
1AED8
  5
1AE82
331
1AED9
  5
1AE83
331
1AEDA
  5
1AE84
331
1AEDB
  5
1AE85
331
1AEDC
  5
1AE86
331
1AEDD
  5
1AE87
331
1AEDE
  5
1AE88
331
1AEDF
  5
1AB5C
331
1AEE0
  5
1AB60
331
1AEE1
  5
1AB61
331
1AEE2
  5
1AB65
331
1AEE3
  5
1AB66
331
1AEE4
  5
1AB67
331
1AEE5
  5
1AB68
331
1AEE6
  5
1ABE4
331
1AEE7
  5
1ABE5
331
1AEE8
  5
1ABE6
331
0
  5
1ABE7
331
0
  5
1ABE8
331
0
  5
1ABE9
331
1AEEC
  5
1AE97
331
1AEED
  5
1AE98
331
1AEEE
  5
1AE99
331
0
  5
1AE90
331
0
  5
1AE91
331
0
  5
1AE92
331
1AEF2
  5
1AEB1
331
1AEF3
  5
1AEB2
331
1AEF4
  5
1AEB3
331
0
  5
1AEA3
331
0
  5
1AEA4
331
0
  5
1AEA5
331
1AEF8
  5
1AED4
331
1AEF9
  5
1AED5
331
1AEFA
  5
1AED6
331
0
  5
1AEB9
331
0
  5
1AEBA
331
0
  5
1AEBB
331
1AEFE
  5
1AEDE
331
1AEFF
  5
1AEDF
331
1AF00
  5
1AEE0
331
0
  5
1AEBF
331
0
  5
1AEC0
331
0
  5
1AEC1
331
1AF04
  5
1AEE8
331
1AF05
  5
1AEE9
331
1AF06
  5
1AEEA
331
0
  5
1AEC5
331
0
  5
1AEC6
331
0
  5
1AEC7
331
1AF0A
  5
1ABEA
331
1AF0B
  5
1ABEB
331
1AF0C
  5
1ABEF
331
1AF0D
  5
1ABF0
331
1AF0E
  5
1ABF1
331
1AF0F
  5
1ABF2
331
1AF10
  5
1ABF3
331
1AF11
  5
1AE9D
331
1AF12
  5
1AE9E
331
1AF13
  5
1AE9F
331
1AF14
  5
1AEA0
331
1AF15
  5
1AEA1
331
1AF16
  5
1AEA2
331
1AF17
  5
1AEA6
331
1AF18
  5
1AEB4
331
1AF19
  5
1AEB5
331
1AF1A
  5
1AEB6
331
1AF1B
  5
1AEB7
331
1AF1C
  5
1AEB8
331
1AF1D
  5
1AEBC
331
1AF1E
  5
1AEBD
331
1AF1F
  5
1AED7
331
1AF20
  5
1AED8
331
1AF21
  5
1AED9
331
1AF22
  5
1AEDA
331
1AF23
  5
1AEDB
331
1AF24
  5
1AEDC
331
1AF25
  5
1AEDD
331
1AF26
  5
1AEE1
331
1AF27
  5
1AEE2
331
1AF28
  5
1AEE3
331
1AF29
  5
1AEE4
331
1AF2A
  5
1AEE5
331
1AF2B
  5
1AEE6
331
1AF2C
  5
1AEE7
331
1AF2D
  5
1AEEB
331
1AF2E
  5
1AEEC
331
1AF2F
  5
1AEED
331
1AF30
  5
1AEEE
331
1AF31
  5
1AEEF
331
1AF32
  5
1AEF0
331
1AF33
  5
1AEF1
  0
MATERIAL
  5
D9A4
102
{ACAD_REACTORS
330
18C
102
}
102
{ACAD_XDICTIONARY
360
1B0D2
102
}
330
18C
100
AcDbMaterial
  1
BYBLOCK
 72
     0
 73
     2
 43
0.0208333333333333
 43
0.0
 43
0.0
 43
0.0
 43
0.0
 43
0.0208333333333333
 43
0.0
 43
0.0
 43
0.0
 43
0.0
 43
1.0
 43
0.0
 43
0.0
 43
0.0
 43
0.0
 43
1.0
 77
     0
 78
     2
 47
0.0208333333333333
 47
0.0
 47
0.0
 47
0.0
 47
0.0
 47
0.0208333333333333
 47
0.0
 47
0.0
 47
0.0
 47
0.0
 47
1.0
 47
0.0
 47
0.0
 47
0.0
 47
0.0
 47
1.0
171
     0
172
     2
 49
0.0208333333333333
 49
0.0
 49
0.0
 49
0.0
 49
0.0
 49
0.0208333333333333
 49
0.0
 49
0.0
 49
0.0
 49
0.0
 49
1.0
 49
0.0
 49
0.0
 49
0.0
 49
0.0
 49
1.0
175
     0
176
     2
142
0.0208333333333333
142
0.0
142
0.0
142
0.0
142
0.0
142
0.0208333333333333
142
0.0
142
0.0
142
0.0
142
0.0
142
1.0
142
0.0
142
0.0
142
0.0
142
0.0
142
1.0
179
     0
270
     2
144
0.0208333333333333
144
0.0
144
0.0
144
0.0
144
0.0
144
0.0208333333333333
144
0.0
144
0.0
144
0.0
144
0.0
144
1.0
144
0.0
144
0.0
144
0.0
144
0.0
144
1.0
274
     2
147
0.0208333333333333
147
0.0
147
0.0
147
0.0
147
0.0
147
0.0208333333333333
147
0.0
147
0.0
147
0.0
147
0.0
147
1.0
147
0.0
147
0.0
147
0.0
147
0.0
147
1.0
  0
MATERIAL
  5
D99C
102
{ACAD_REACTORS
330
18C
102
}
102
{ACAD_XDICTIONARY
360
1B0D4
102
}
330
18C
100
AcDbMaterial
  1
BYLAYER
 72
     0
 73
     2
 43
0.0208333333333333
 43
0.0
 43
0.0
 43
0.0
 43
0.0
 43
0.0208333333333333
 43
0.0
 43
0.0
 43
0.0
 43
0.0
 43
1.0
 43
0.0
 43
0.0
 43
0.0
 43
0.0
 43
1.0
 77
     0
 78
     2
 47
0.0208333333333333
 47
0.0
 47
0.0
 47
0.0
 47
0.0
 47
0.0208333333333333
 47
0.0
 47
0.0
 47
0.0
 47
0.0
 47
1.0
 47
0.0
 47
0.0
 47
0.0
 47
0.0
 47
1.0
171
     0
172
     2
 49
0.0208333333333333
 49
0.0
 49
0.0
 49
0.0
 49
0.0
 49
0.0208333333333333
 49
0.0
 49
0.0
 49
0.0
 49
0.0
 49
1.0
 49
0.0
 49
0.0
 49
0.0
 49
0.0
 49
1.0
175
     0
176
     2
142
0.0208333333333333
142
0.0
142
0.0
142
0.0
142
0.0
142
0.0208333333333333
142
0.0
142
0.0
142
0.0
142
0.0
142
1.0
142
0.0
142
0.0
142
0.0
142
0.0
142
1.0
179
     0
270
     2
144
0.0208333333333333
144
0.0
144
0.0
144
0.0
144
0.0
144
0.0208333333333333
144
0.0
144
0.0
144
0.0
144
0.0
144
1.0
144
0.0
144
0.0
144
0.0
144
0.0
144
1.0
274
     2
147
0.0208333333333333
147
0.0
147
0.0
147
0.0
147
0.0
147
0.0208333333333333
147
0.0
147
0.0
147
0.0
147
0.0
147
1.0
147
0.0
147
0.0
147
0.0
147
0.0
147
1.0
  0
MATERIAL
  5
D9AC
102
{ACAD_REACTORS
330
18C
102
}
102
{ACAD_XDICTIONARY
360
1B0D6
102
}
330
18C
100
AcDbMaterial
  1
GLOBAL
 72
     0
 73
     2
 43
0.0208333333333333
 43
0.0
 43
0.0
 43
0.0
 43
0.0
 43
0.0208333333333333
 43
0.0
 43
0.0
 43
0.0
 43
0.0
 43
1.0
 43
0.0
 43
0.0
 43
0.0
 43
0.0
 43
1.0
 77
     0
 78
     2
 47
0.0208333333333333
 47
0.0
 47
0.0
 47
0.0
 47
0.0
 47
0.0208333333333333
 47
0.0
 47
0.0
 47
0.0
 47
0.0
 47
1.0
 47
0.0
 47
0.0
 47
0.0
 47
0.0
 47
1.0
171
     0
172
     2
 49
0.0208333333333333
 49
0.0
 49
0.0
 49
0.0
 49
0.0
 49
0.0208333333333333
 49
0.0
 49
0.0
 49
0.0
 49
0.0
 49
1.0
 49
0.0
 49
0.0
 49
0.0
 49
0.0
 49
1.0
175
     0
176
     2
142
0.0208333333333333
142
0.0
142
0.0
142
0.0
142
0.0
142
0.0208333333333333
142
0.0
142
0.0
142
0.0
142
0.0
142
1.0
142
0.0
142
0.0
142
0.0
142
0.0
142
1.0
179
     0
270
     2
144
0.0208333333333333
144
0.0
144
0.0
144
0.0
144
0.0
144
0.0208333333333333
144
0.0
144
0.0
144
0.0
144
0.0
144
1.0
144
0.0
144
0.0
144
0.0
144
0.0
144
1.0
274
     2
147
0.0208333333333333
147
0.0
147
0.0
147
0.0
147
0.0
147
0.0208333333333333
147
0.0
147
0.0
147
0.0
147
0.0
147
1.0
147
0.0
147
0.0
147
0.0
147
0.0
147
1.0
  0
ACAD_PROXY_OBJECT
  5
D9E8
102
{ACAD_REACTORS
330
D9E7
102
}
330
D9E7
100
AcDbZombieObject
 90
      499
 91
      511
 93
      610
310
40901902A4063FBFFFFFE000000000000002040AD7A3703D0AD73F4214DD185B99185C990000000000000104090141901A00000000000004100000000000000041025764000000000000300FC0
340
12
340
0
340
F
340
0
 94
        0
1001
ACAD_MLEADERVER
1070
     2
  0
MLINESTYLE
  5
1C
102
{ACAD_REACTORS
330
1B
102
}
330
1B
100
AcDbMlineStyle
  2
STANDARD
 70
     0
  3

 62
   256
 51
90.0
 52
90.0
 71
     2
 49
0.5
 62
   256
  6
BYLAYER
 49
-0.5
 62
   256
  6
BYLAYER
  0
ACAD_PROXY_OBJECT
  5
D9C6
102
{ACAD_REACTORS
330
D9C5
102
}
330
D9C5
100
AcDbZombieObject
 90
      499
 91
      510
 93
       41
310
903313A31580
  0
ACAD_PROXY_OBJECT
  5
D9C7
102
{ACAD_REACTORS
330
D9C5
102
}
330
D9C5
100
AcDbZombieObject
 90
      499
 91
      510
 93
      105
310
903313A324000000000000004000
  0
ACAD_PROXY_OBJECT
  5
D9C8
102
{ACAD_REACTORS
330
D9C5
102
}
330
D9C5
100
AcDbZombieObject
 90
      499
 91
      510
 93
      105
310
903313A344000000000000104000
  0
ACAD_PROXY_OBJECT
  5
D9C9
102
{ACAD_REACTORS
330
D9C5
102
}
330
D9C5
100
AcDbZombieObject
 90
      499
 91
      510
 93
      105
310
903313A354000000000000144000
  0
ACAD_PROXY_OBJECT
  5
D9CA
102
{ACAD_REACTORS
330
D9C5
102
}
330
D9C5
100
AcDbZombieObject
 90
      499
 91
      510
 93
      105
310
903313A384000000000000204000
  0
ACAD_PROXY_OBJECT
  5
D9CB
102
{ACAD_REACTORS
330
D9C5
102
}
330
D9C5
100
AcDbZombieObject
 90
      499
 91
      510
 93
      113
310
904313A31304000000000000244000
  0
ACAD_PROXY_OBJECT
  5
D9CC
102
{ACAD_REACTORS
330
D9C5
102
}
330
D9C5
100
AcDbZombieObject
 90
      499
 91
      510
 93
      113
310
904313A31364000000000000304000
  0
ACAD_PROXY_OBJECT
  5
D9CD
102
{ACAD_REACTORS
330
D9C5
102
}
330
D9C5
100
AcDbZombieObject
 90
      499
 91
      510
 93
      113
310
904313A32304000000000000344000
  0
ACAD_PROXY_OBJECT
  5
D9CE
102
{ACAD_REACTORS
330
D9C5
102
}
330
D9C5
100
AcDbZombieObject
 90
      499
 91
      510
 93
      113
310
904313A333040000000000003E4000
  0
ACAD_PROXY_OBJECT
  5
D9CF
102
{ACAD_REACTORS
330
D9C5
102
}
330
D9C5
100
AcDbZombieObject
 90
      499
 91
      510
 93
      113
310
904313A34304000000000000444000
  0
ACAD_PROXY_OBJECT
  5
D9D0
102
{ACAD_REACTORS
330
D9C5
102
}
330
D9C5
100
AcDbZombieObject
 90
      499
 91
      510
 93
      113
310
904313A35304000000000000494000
  0
ACAD_PROXY_OBJECT
  5
D9D1
102
{ACAD_REACTORS
330
D9C5
102
}
330
D9C5
100
AcDbZombieObject
 90
      499
 91
      510
 93
      121
310
905313A3130304000000000000594000
  0
ACAD_PROXY_OBJECT
  5
D9D2
102
{ACAD_REACTORS
330
D9C5
102
}
330
D9C5
100
AcDbZombieObject
 90
      499
 91
      510
 93
      105
310
903323A310000000000000010100
  0
ACAD_PROXY_OBJECT
  5
D9D3
102
{ACAD_REACTORS
330
D9C5
102
}
330
D9C5
100
AcDbZombieObject
 90
      499
 91
      510
 93
      105
310
903343A310000000000000410100
  0
ACAD_PROXY_OBJECT
  5
D9D4
102
{ACAD_REACTORS
330
D9C5
102
}
330
D9C5
100
AcDbZombieObject
 90
      499
 91
      510
 93
      105
310
903383A310000000000000810100
  0
ACAD_PROXY_OBJECT
  5
D9D5
102
{ACAD_REACTORS
330
D9C5
102
}
330
D9C5
100
AcDbZombieObject
 90
      499
 91
      510
 93
      113
310
90431303A310000000000000910100
  0
ACAD_PROXY_OBJECT
  5
D9D6
102
{ACAD_REACTORS
330
D9C5
102
}
330
D9C5
100
AcDbZombieObject
 90
      499
 91
      510
 93
      121
310
9053130303A310000000000001650100
  0
ACAD_PROXY_OBJECT
  5
D9D7
102
{ACAD_REACTORS
330
D9C5
102
}
330
D9C5
100
AcDbZombieObject
 90
      499
 91
      510
 93
      257
310
90E312F31323822203D2031272D3022000000000000200FC000000000000284000
  0
ACAD_PROXY_OBJECT
  5
D9D8
102
{ACAD_REACTORS
330
D9C5
102
}
330
D9C5
100
AcDbZombieObject
 90
      499
 91
      510
 93
      249
310
90D312F363422203D2031272D3022000000000000240FC000000000000284000
  0
ACAD_PROXY_OBJECT
  5
D9D9
102
{ACAD_REACTORS
330
D9C5
102
}
330
D9C5
100
AcDbZombieObject
 90
      499
 91
      510
 93
      249
310
90D312F333222203D2031272D3022000000000000280FC000000000000284000
  0
ACAD_PROXY_OBJECT
  5
D9DA
102
{ACAD_REACTORS
330
D9C5
102
}
330
D9C5
100
AcDbZombieObject
 90
      499
 91
      510
 93
      249
310
90D312F313622203D2031272D30220000000000002C0FC000000000000284000
  0
ACAD_PROXY_OBJECT
  5
D9DB
102
{ACAD_REACTORS
330
D9C5
102
}
330
D9C5
100
AcDbZombieObject
 90
      499
 91
      510
 93
      249
310
90D332F333222203D2031272D30220000000000002E0FC000000000000284000
  0
ACAD_PROXY_OBJECT
  5
D9DC
102
{ACAD_REACTORS
330
D9C5
102
}
330
D9C5
100
AcDbZombieObject
 90
      499
 91
      510
 93
      241
310
90C312F3822203D2031272D3022000000000000300FC000000000000284000
  0
ACAD_PROXY_OBJECT
  5
D9DD
102
{ACAD_REACTORS
330
D9C5
102
}
330
D9C5
100
AcDbZombieObject
 90
      499
 91
      510
 93
      249
310
90D332F313622203D2031272D3022000000000000320FC000000000000284000
  0
ACAD_PROXY_OBJECT
  5
D9DE
102
{ACAD_REACTORS
330
D9C5
102
}
330
D9C5
100
AcDbZombieObject
 90
      499
 91
      510
 93
      241
310
90C312F3422203D2031272D3022000000000000340FC000000000000284000
  0
ACAD_PROXY_OBJECT
  5
D9DF
102
{ACAD_REACTORS
330
D9C5
102
}
330
D9C5
100
AcDbZombieObject
 90
      499
 91
      510
 93
      241
310
90C332F3822203D2031272D3022000000000000360FC000000000000284000
  0
ACAD_PROXY_OBJECT
  5
D9E0
102
{ACAD_REACTORS
330
D9C5
102
}
330
D9C5
100
AcDbZombieObject
 90
      499
 91
      510
 93
      241
310
90C312F3222203D2031272D3022000000000000380FC000000000000284000
  0
ACAD_PROXY_OBJECT
  5
D9E1
102
{ACAD_REACTORS
330
D9C5
102
}
330
D9C5
100
AcDbZombieObject
 90
      499
 91
      510
 93
      241
310
90C332F3422203D2031272D30220000000000003A0FC000000000000284000
  0
ACAD_PROXY_OBJECT
  5
D9E2
102
{ACAD_REACTORS
330
D9C5
102
}
330
D9C5
100
AcDbZombieObject
 90
      499
 91
      510
 93
      161
310
90A3122203D2031272D30224000000000000284000
  0
ACAD_PROXY_OBJECT
  5
D9E3
102
{ACAD_REACTORS
330
D9C5
102
}
330
D9C5
100
AcDbZombieObject
 90
      499
 91
      510
 93
      257
310
90E312D312F3222203D2031272D30220000000000003E0FC000000000000284000
  0
ACAD_PROXY_OBJECT
  5
D9E4
102
{ACAD_REACTORS
330
D9C5
102
}
330
D9C5
100
AcDbZombieObject
 90
      499
 91
      510
 93
      225
310
90A3322203D2031272D302200000000000002100000000000000284000
  0
ACAD_PROXY_OBJECT
  5
D9E5
102
{ACAD_REACTORS
330
D9C5
102
}
330
D9C5
100
AcDbZombieObject
 90
      499
 91
      510
 93
      225
310
90A3622203D2031272D302200000000000006100000000000000284000
  0
ACAD_PROXY_OBJECT
  5
D9E6
102
{ACAD_REACTORS
330
D9C5
102
}
330
D9C5
100
AcDbZombieObject
 90
      499
 91
      510
 93
      249
310
90D31272D3022203D2031272D30220000000000000A100000000000000284000
  0
ACAD_PROXY_OBJECT
  5
D9BA
102
{ACAD_REACTORS
330
D9B4
102
}
330
D9B4
100
AcDbZombieObject
 90
      499
 91
      509
 93
      436
310
42CC9915DA5C99599C985B595049028333333333333E3BF0000000000000FB0107901411070040501600405405064090741402480A0340
1001
ACAD
1000
AcDbSavedByObjectVersion
1070
     0
  0
ACAD_PROXY_OBJECT
  5
D9BC
102
{ACAD_REACTORS
330
D9B4
102
}
330
D9B4
100
AcDbZombieObject
 90
      499
 91
      509
 93
      500
310
424CD108121A5919195B90640502408333333333333E3BF0000000000000FB01079024090700405020000000000001110200405405064090740C02480A0340
1001
ACAD
1000
AcDbSavedByObjectVersion
1070
     0
  0
ACAD_PROXY_OBJECT
  5
D9BB
102
{ACAD_REACTORS
330
D9B4
102
}
330
D9B4
100
AcDbZombieObject
 90
      499
 91
      509
 93
      436
310
42CCD915DA5C99599C985B595059028333333333333E3BF0000000000000FB0107901411070040501600405405064090741402480A0340
1001
ACAD
1000
AcDbSavedByObjectVersion
1070
     0
  0
ACAD_PROXY_OBJECT
  5
D9B9
102
{ACAD_REACTORS
330
D9B4
102
}
330
D9B4
100
AcDbZombieObject
 90
      499
 91
      509
 93
      388
310
4150985CDA58D07406404333333333333E3BF0000000000000FB0107A41107004050150841D405064090741402480A0350
1001
ACAD
1000
AcDbSavedByObjectVersion
1070
     0
  0
ACAD_PROXY_OBJECT
  5
D9C0
102
{ACAD_REACTORS
330
D9B4
102
}
330
D9B4
100
AcDbZombieObject
 90
      499
 91
      509
 93
      428
310
42109C9A59DA1D195B90C409028333333333333E3BF0000000000000FB010790141107004050150841D405064090741402480A029950
1001
ACAD
1000
AcDbSavedByObjectVersion
1070
     0
  0
ACAD_PROXY_OBJECT
  5
D9C4
102
{ACAD_REACTORS
330
D9B4
102
}
330
D9B4
100
AcDbZombieObject
 90
      499
 91
      509
 93
      452
310
42D0DBDB1BDC90DA185B99D95104090240C333333333333E3BF0000000000000FB0108901411070040501508421405064090741402480A0350
1001
ACAD
1000
AcDbSavedByObjectVersion
1070
     0
  0
ACAD_PROXY_OBJECT
  5
D9BD
102
{ACAD_REACTORS
330
D9B4
102
}
330
D9B4
100
AcDbZombieObject
 90
      499
 91
      509
 93
      500
310
4290DBDB98D95C1D1D585B10940D028333333333333E3BF0000000000000FB0107902409070040501000000000000111010841D405064090740C02480A0340
1001
ACAD
1000
AcDbSavedByObjectVersion
1070
     0
  0
ACAD_PROXY_OBJECT
  5
D9BF
102
{ACAD_REACTORS
330
D9B4
102
}
330
D9B4
100
AcDbZombieObject
 90
      499
 91
      509
 93
      412
310
40D11A5B50B409028333333333333E3BF0000000000000FB010790141107004050150841D405064090741402480A02677FFFFFD0
1001
ACAD
1000
AcDbSavedByObjectVersion
1070
     0
  0
ACAD_PROXY_OBJECT
  5
19C2F
102
{ACAD_REACTORS
330
D9B4
102
}
330
D9B4
100
AcDbZombieObject
 90
      499
 91
      509
 93
      452
310
43115919D950DBDB1BDC93D999916409028333333333333E3BF0000000000000FB010790141107004050150841D405064090741402480A0350
1001
ACAD
1000
AcDbSavedByObjectVersion
1070
     0
  0
ACAD_PROXY_OBJECT
  5
D9C3
102
{ACAD_REACTORS
330
D9B4
102
}
330
D9B4
100
AcDbZombieObject
 90
      499
 91
      509
 93
      444
310
42D19858D95C185D1D195C9B90F409028333333333333E3BF0000000000000FB010790141107004050150841D405064090741402480A0350
1001
ACAD
1000
AcDbSavedByObjectVersion
1070
     0
  0
ACAD_PROXY_OBJECT
  5
D9B5
102
{ACAD_REACTORS
330
D9B4
102
}
330
D9B4
100
AcDbZombieObject
 90
      499
 91
      509
 93
      388
310
41119B185D240901404333333333333E3BF0000000000000F9010740A41107004050150841D405064090741402480A1B50
1001
ACAD
1000
AcDbSavedByObjectVersion
1070
     0
  0
ACAD_PROXY_OBJECT
  5
D9B6
102
{ACAD_REACTORS
330
D9B4
102
}
330
D9B4
100
AcDbZombieObject
 90
      499
 91
      509
 93
      476
310
43519B185D15DA5D1A115919D95CD0140901404333333333333E3BF0000000000000F9010740901411070040501600405405064090741402480A1B50
1001
ACAD
1000
AcDbSavedByObjectVersion
1070
     0
  0
ACAD_PROXY_OBJECT
  5
D9B7
102
{ACAD_REACTORS
330
D9B4
102
}
330
D9B4
100
AcDbZombieObject
 90
      499
 91
      509
 93
      412
310
41D1DBDD5C985D5910240902404333333333333E3BF0000000000000F9010740A411070040501641D405064090741402480A1B50
1001
ACAD
1000
AcDbSavedByObjectVersion
1070
     0
  0
ACAD_PROXY_OBJECT
  5
D9B8
102
{ACAD_REACTORS
330
D9B4
102
}
330
D9B4
100
AcDbZombieObject
 90
      499
 91
      509
 93
      500
310
4411DBDD5C985D5915DA5D1A115919D95CD0340902404333333333333E3BF0000000000000F9010740901411070040501600405405064090741402480A1B50
1001
ACAD
1000
AcDbSavedByObjectVersion
1070
     0
  0
ACAD_PROXY_OBJECT
  5
19C7E
102
{ACAD_REACTORS
330
D9B4
102
}
330
D9B4
100
AcDbZombieObject
 90
      499
 91
      509
 93
      476
310
41921A5919195B90640502408333333333333E3BF0000000000000FB01079024090700405020000000000001110200405405064090740C02480A0340
1001
ACAD
1000
AcDbSavedByObjectVersion
1070
     0
  0
ACAD_PROXY_OBJECT
  5
19C2D
102
{ACAD_REACTORS
330
D9B4
102
}
330
D9B4
100
AcDbZombieObject
 90
      499
 91
      509
 93
      428
310
42529A5D1D195C93D999914409028333333333333E3BF0000000000000FB010790141107004050150A41D405064090741402480A0350
1001
ACAD
1000
AcDbSavedByObjectVersion
1070
     0
  0
ACAD_PROXY_OBJECT
  5
D9C2
102
{ACAD_REACTORS
330
D9B4
102
}
330
D9B4
100
AcDbZombieObject
 90
      499
 91
      509
 93
      444
310
42D31A5B995C185D1D195C9B90E409028333333333333E3BF0000000000000FB010790141107004050750841D405064090741402483A0350
1001
ACAD
1000
AcDbSavedByObjectVersion
1070
     0
  0
ACAD_PROXY_OBJECT
  5
19C84
102
{ACAD_REACTORS
330
D9B4
102
}
330
D9B4
100
AcDbZombieObject
 90
      499
 91
      509
 93
      484
310
42135BD9195B1A5B99D0A409028333333333333E3BF0000000000000F901074090290700405010000000000201990108421405064090741402480A1B40
1001
ACAD
1000
AcDbSavedByObjectVersion
1070
     0
  0
ACAD_PROXY_OBJECT
  5
19C2E
102
{ACAD_REACTORS
330
D9B4
102
}
330
D9B4
100
AcDbZombieObject
 90
      499
 91
      509
 93
      444
310
42D3DD995C9A185B99D3D999915409028333333333333E3BF0000000000000FB010790141107004050150941D405064090741402480A0350
1001
ACAD
1000
AcDbSavedByObjectVersion
1070
     0
  0
ACAD_PROXY_OBJECT
  5
D9BE
102
{ACAD_REACTORS
330
D9B4
102
}
330
D9B4
100
AcDbZombieObject
 90
      499
 91
      509
 93
      420
310
425499585B1A5CDD1A58D08409028333333333333E3BF0000000000000FB01079019070040501508421405064090741402480A1B40
1001
ACAD
1000
AcDbSavedByObjectVersion
1070
     0
  0
ACAD_PROXY_OBJECT
  5
19C83
102
{ACAD_REACTORS
330
D9B4
102
}
330
D9B4
100
AcDbZombieObject
 90
      499
 91
      509
 93
      420
310
4194DA1859195911B40902404333333333333E3BF0000000000000F9010740A41107004050150800405405064090840C02480A0B40
1001
ACAD
1000
AcDbSavedByObjectVersion
1070
     0
  0
ACAD_PROXY_OBJECT
  5
19C82
102
{ACAD_REACTORS
330
D9B4
102
}
330
D9B4
100
AcDbZombieObject
 90
      499
 91
      509
 93
      516
310
4454DA18591959081DDA5D1A08195919D95CD1A40902404333333333333E3BF0000000000000F901074090142907004050250800405405064090740C02480A0B40
1001
ACAD
1000
AcDbSavedByObjectVersion
1070
     0
  0
ACAD_PROXY_OBJECT
  5
19C7F
102
{ACAD_REACTORS
330
D9B4
102
}
330
D9B4
100
AcDbZombieObject
 90
      499
 91
      509
 93
      532
310
4394DA1859195CC81BD98811DC985E5174090240C333333333333E3BF0000000000000FB01079024090741D01000000000000111010841D405064090740C02480A0340
1001
ACAD
1000
AcDbSavedByObjectVersion
1070
     0
  0
ACAD_PROXY_OBJECT
  5
19C80
102
{ACAD_REACTORS
330
D9B4
102
}
330
D9B4
100
AcDbZombieObject
 90
      499
 91
      509
 93
      476
310
41D4DAD95D18DA1E51840502408333333333333E3BF0000000000000FB01079024090741D01000000000000111010B41D405064090741802480A0340
1001
ACAD
1000
AcDbSavedByObjectVersion
1070
     0
  0
ACAD_PROXY_OBJECT
  5
D9C1
102
{ACAD_REACTORS
330
D9B4
102
}
330
D9B4
100
AcDbZombieObject
 90
      499
 91
      509
 93
      412
310
41D51A1A58DAD95B90D409028333333333333E3BF0000000000000FB010790141107004050150C41D405064090741402480A0350
1001
ACAD
1000
AcDbSavedByObjectVersion
1070
     0
  0
ACAD_PROXY_OBJECT
  5
19C7D
102
{ACAD_REACTORS
330
D9B4
102
}
330
D9B4
100
AcDbZombieObject
 90
      499
 91
      509
 93
      420
310
4255DA5C99599C985B595059028333333333333E3BF0000000000000FB0107901411070040501600405405064090740C02480A0340
1001
ACAD
1000
AcDbSavedByObjectVersion
1070
     0
  0
ACAD_PROXY_OBJECT
  5
19C81
102
{ACAD_REACTORS
330
D9B4
102
}
330
D9B4
100
AcDbZombieObject
 90
      499
 91
      509
 93
      404
310
41560B54985E51940902404000000000000E03F0000000000000FB010740501907004050150841D405064090740C02480A1B40
1001
ACAD
1000
AcDbSavedByObjectVersion
1070
     0
  0
XRECORD
  5
1AF35
102
{ACAD_REACTORS
330
1AF34
102
}
330
1AF34
100
AcDbXrecord
340
18D
  0
XRECORD
  5
1AF36
102
{ACAD_REACTORS
330
1AF34
102
}
330
1AF34
100
AcDbXrecord
340
18C
  0
DICTIONARYVAR
  5
1ADFC
102
{ACAD_REACTORS
330
37
102
}
330
37
100
DictionaryVariables
280
     0
  1
1:1
  0
DICTIONARYVAR
  5
DA6A
102
{ACAD_REACTORS
330
37
102
}
330
37
100
DictionaryVariables
280
     0
  1
Standard
  0
DICTIONARYVAR
  5
29E
102
{ACAD_REACTORS
330
37
102
}
330
37
100
DictionaryVariables
280
     0
  1
Standard
  0
DICTIONARYVAR
  5
38
102
{ACAD_REACTORS
330
37
102
}
330
37
100
DictionaryVariables
280
     0
  1
-1
  0
DICTIONARYVAR
  5
1CE
102
{ACAD_REACTORS
330
37
102
}
330
37
100
DictionaryVariables
280
     0
  1
2
  0
DICTIONARYVAR
  5
704E
102
{ACAD_REACTORS
330
37
102
}
330
37
100
DictionaryVariables
280
     0
  1
1
  0
DICTIONARYVAR
  5
DA6D
102
{ACAD_REACTORS
330
37
102
}
330
37
100
DictionaryVariables
280
     0
  1
0
  0
DICTIONARYVAR
  5
7052
102
{ACAD_REACTORS
330
37
102
}
330
37
100
DictionaryVariables
280
     0
  1
8
  0
DICTIONARYVAR
  5
7051
102
{ACAD_REACTORS
330
37
102
}
330
37
100
DictionaryVariables
280
     0
  1
1
  0
DICTIONARYVAR
  5
1A6DD
102
{ACAD_REACTORS
330
37
102
}
330
37
100
DictionaryVariables
280
     0
  1
0
  0
DICTIONARYVAR
  5
704F
102
{ACAD_REACTORS
330
37
102
}
330
37
100
DictionaryVariables
280
     0
  1
8
  0
DICTIONARYVAR
  5
7050
102
{ACAD_REACTORS
330
37
102
}
330
37
100
DictionaryVariables
280
     0
  1
2
  0
DICTIONARYVAR
  5
1CF
102
{ACAD_REACTORS
330
37
102
}
330
37
100
DictionaryVariables
280
     0
  1

  0
DICTIONARYVAR
  5
DA6C
102
{ACAD_REACTORS
330
37
102
}
330
37
100
DictionaryVariables
280
     0
  1
127
  0
DICTIONARYVAR
  5
1ADD7
102
{ACAD_REACTORS
330
37
102
}
330
37
100
DictionaryVariables
280
     0
  1
2
  0
DICTIONARY
  5
1B0D2
330
D9A4
100
AcDbDictionary
  3
ACAD_XREC_ROUNDTRIP
360
1B0D3
1001
ACAD
1000
TREAT_AS_HARD
1070
     1
  0
DICTIONARY
  5
1B0D4
330
D99C
100
AcDbDictionary
  3
ACAD_XREC_ROUNDTRIP
360
1B0D5
1001
ACAD
1000
TREAT_AS_HARD
1070
     1
  0
DICTIONARY
  5
1B0D6
330
D9AC
100
AcDbDictionary
  3
ACAD_XREC_ROUNDTRIP
360
1B0D7
1001
ACAD
1000
TREAT_AS_HARD
1070
     1
  0
XRECORD
  5
1B0D3
102
{ACAD_REACTORS
330
1B0D2
102
}
330
1B0D2
100
AcDbXrecord
102
MATERIAL
148
0.0
149
0.0
149
0.0
 93
        0
 94
      127
282
     0
 72
     0
 77
     0
171
     0
175
     0
179
     0
273
     0
  0
XRECORD
  5
1B0D5
102
{ACAD_REACTORS
330
1B0D4
102
}
330
1B0D4
100
AcDbXrecord
102
MATERIAL
148
0.0
149
0.0
149
0.0
 93
        0
 94
      127
282
     0
 72
     0
 77
     0
171
     0
175
     0
179
     0
273
     0
  0
XRECORD
  5
1B0D7
102
{ACAD_REACTORS
330
1B0D6
102
}
330
1B0D6
100
AcDbXrecord
102
MATERIAL
148
0.0
149
0.0
149
0.0
 93
        0
 94
      127
282
     0
 72
     0
 77
     0
171
     0
175
     0
179
     0
273
     0
  0
ENDSEC
  0
EOF
