  0
SECTION
  2
HEADER
  9
$ACADVER
  1
AC1009
  9
$INSBASE
 10
0.0
 20
0.0
 30
0.0
  9
$EXTMIN
 10
2301.9231736978099
 20
1046.4358093169551
 30
0.0
  9
$EXTMAX
 10
2912.423016244702
 20
1438.359304068626
 30
0.0
  9
$LIMMIN
 10
0.0
 20
0.0
  9
$LIMMAX
 10
420.0
 20
297.0
  9
$ORTHOMODE
 70
     0
  9
$REGENMODE
 70
     1
  9
$FILLMODE
 70
     1
  9
$QTEXTMODE
 70
     0
  9
$MIRRTEXT
 70
     0
  9
$DRAGMODE
 70
     2
  9
$LTSCALE
 40
0.5
  9
$OSMODE
 70
  2079
  9
$ATTMODE
 70
     1
  9
$TEXTSIZE
 40
4.0
  9
$TRACEWID
 40
1.0
  9
$TEXTSTYLE
  7
STANDARD
  9
$CLAYER
  8
1TEXT
  9
$CELTYPE
  6
BYLAYER
  9
$CECOLOR
 62
   256
  9
$DIMSCALE
 40
1.0
  9
$DIMASZ
 40
2.0
  9
$DIMEXO
 40
0.0
  9
$DIMDLI
 40
7.0
  9
$DIMRND
 40
0.0
  9
$DIMDLE
 40
0.0
  9
$DIMEXE
 40
1.0
  9
$DIMTP
 40
0.0
  9
$DIMTM
 40
0.0
  9
$DIMTXT
 40
3.5
  9
$DIMCEN
 40
0.0
  9
$DIMTSZ
 40
0.0
  9
$DIMTOL
 70
     0
  9
$DIMLIM
 70
     0
  9
$DIMTIH
 70
     0
  9
$DIMTOH
 70
     0
  9
$DIMSE1
 70
     0
  9
$DIMSE2
 70
     0
  9
$DIMTAD
 70
     1
  9
$DIMZIN
 70
     8
  9
$DIMBLK
  1

  9
$DIMASO
 70
     1
  9
$DIMSHO
 70
     1
  9
$DIMPOST
  1
 
  9
$DIMAPOST
  1

  9
$DIMALT
 70
     0
  9
$DIMALTD
 70
     2
  9
$DIMALTF
 40
25.399999999999999
  9
$DIMLFAC
 40
1.0
  9
$DIMTOFL
 70
     1
  9
$DIMTVP
 40
0.0
  9
$DIMTIX
 70
     0
  9
$DIMSOXD
 70
     0
  9
$DIMSAH
 70
     1
  9
$DIMBLK1
  1
OPEN30
  9
$DIMBLK2
  1
OPEN30
  9
$DIMSTYLE
  2
NEWX10
  9
$DIMCLRD
 70
   256
  9
$DIMCLRE
 70
   256
  9
$DIMCLRT
 70
   201
  9
$DIMTFAC
 40
0.7
  9
$DIMGAP
 40
0.7
  9
$LUNITS
 70
     2
  9
$LUPREC
 70
     4
  9
$SKETCHINC
 40
1.0
  9
$FILLETRAD
 40
0.0
  9
$AUNITS
 70
     0
  9
$AUPREC
 70
     2
  9
$MENU
  1
acad
  9
$ELEVATION
 40
0.0
  9
$PELEVATION
 40
0.0
  9
$THICKNESS
 40
0.0
  9
$LIMCHECK
 70
     0
  9
$BLIPMODE
 70
     0
  9
$CHAMFERA
 40
10.0
  9
$CHAMFERB
 40
10.0
  9
$SKPOLY
 70
     0
  9
$TDCREATE
 40
2451318.621352917
  9
$TDUPDATE
 40
2457064.7078535422
  9
$TDINDWG
 40
1.2169380556
  9
$TDUSRTIMER
 40
1.2169380556
  9
$USRTIMER
 70
     1
  9
$ANGBASE
 50
0.0
  9
$ANGDIR
 70
     0
  9
$PDMODE
 70
     0
  9
$PDSIZE
 40
0.0
  9
$PLINEWID
 40
0.0
  9
$COORDS
 70
     0
  9
$SPLFRAME
 70
     0
  9
$SPLINETYPE
 70
     6
  9
$SPLINESEGS
 70
     8
  9
$ATTDIA
 70
     0
  9
$ATTREQ
 70
     1
  9
$HANDLING
 70
     1
  9
$HANDSEED
  5
1267A
  9
$SURFTAB1
 70
     6
  9
$SURFTAB2
 70
     6
  9
$SURFTYPE
 70
     6
  9
$SURFU
 70
     6
  9
$SURFV
 70
     6
  9
$UCSNAME
  2

  9
$UCSORG
 10
0.0
 20
0.0
 30
0.0
  9
$UCSXDIR
 10
1.0
 20
0.0
 30
0.0
  9
$UCSYDIR
 10
0.0
 20
1.0
 30
0.0
  9
$PUCSNAME
  2

  9
$PUCSORG
 10
0.0
 20
0.0
 30
0.0
  9
$PUCSXDIR
 10
1.0
 20
0.0
 30
0.0
  9
$PUCSYDIR
 10
0.0
 20
1.0
 30
0.0
  9
$USERI1
 70
     0
  9
$USERI2
 70
     0
  9
$USERI3
 70
     0
  9
$USERI4
 70
     0
  9
$USERI5
 70
     0
  9
$USERR1
 40
0.0
  9
$USERR2
 40
0.0
  9
$USERR3
 40
0.0
  9
$USERR4
 40
0.0
  9
$USERR5
 40
0.0
  9
$WORLDVIEW
 70
     1
  9
$SHADEDGE
 70
     3
  9
$SHADEDIF
 70
    70
  9
$TILEMODE
 70
     1
  9
$MAXACTVP
 70
    48
  9
$PLIMCHECK
 70
     0
  9
$PEXTMIN
 10
1.0000000000000000E+020
 20
1.0000000000000000E+020
 30
1.0000000000000000E+020
  9
$PEXTMAX
 10
-1.0000000000000000E+020
 20
-1.0000000000000000E+020
 30
-1.0000000000000000E+020
  9
$PLIMMIN
 10
0.0
 20
0.0
  9
$PLIMMAX
 10
420.0
 20
297.0
  9
$UNITMODE
 70
     0
  9
$VISRETAIN
 70
     1
  9
$PLINEGEN
 70
     0
  9
$PSLTSCALE
 70
     1
  0
ENDSEC
  0
SECTION
  2
TABLES
  0
TABLE
  2
VPORT
 70
     1
  0
VPORT
  2
*ACTIVE
 70
     0
 10
0.0
 20
0.0
 11
1.0
 21
1.0
 12
2607.2087715035832
 22
1242.4109458024959
 13
0.0
 23
0.0
 14
10.0
 24
10.0
 15
10.0
 25
10.0
 16
0.0
 26
0.0
 36
1.0
 17
0.0
 27
0.0
 37
0.0
 40
415.75701828720167
 41
2.2630241423125792
 42
50.0
 43
0.0
 44
0.0
 50
0.0
 51
0.0
 71
     0
 72
   100
 73
     1
 74
     1
 75
     0
 76
     0
 77
     0
 78
     0
  0
ENDTAB
  0
TABLE
  2
LTYPE
 70
    13
  0
LTYPE
  2
CONTINUOUS
 70
     0
  3
Solid line
 72
    65
 73
     0
 40
0.0
  0
LTYPE
  2
XREF1|CENTER2
 70
    48
  3
Center (.5x) ___ _ ___ _ ___ _ ___ _ ___ _ ___
 72
    65
 73
     4
 40
28.574999999999999
 49
19.050000000000001
 49
-3.1749999999999989
 49
3.1749999999999989
 49
-3.1749999999999989
  0
LTYPE
  2
A3WAKUDAKE|CENTER2
 70
    48
  3
Center (.5x) ___ _ ___ _ ___ _ ___ _ ___ _ ___
 72
    65
 73
     4
 40
28.574999999999999
 49
19.050000000000001
 49
-3.1749999999999989
 49
3.1749999999999989
 49
-3.1749999999999989
  0
ENDTAB
  0
TABLE
  2
LAYER
 70
    52
  0
LAYER
  2
0
 70
     0
 62
     7
  6
CONTINUOUS
  0
LAYER
  2
1TEXT
 70
     0
 62
     7
  6
CONTINUOUS
  0
LAYER
  2
01
 70
     0
 62
     1
  6
CONTINUOUS
  0
LAYER
  2
A3WAKUDAKE|THICK
 70
    48
 62
     7
  6
CONTINUOUS
  0
LAYER
  2
A3WAKUDAKE|POINT
 70
    48
 62
     7
  6
CONTINUOUS
  0
LAYER
  2
A3WAKUDAKE|1CENTER
 70
    48
 62
     7
  6
A3WAKUDAKE|CENTER2
  0
LAYER
  2
A3WAKUDAKE|0-6
 70
    48
 62
     7
  6
CONTINUOUS
  0
LAYER
  2
A3WAKUDAKE|1DIM
 70
    48
 62
     7
  6
CONTINUOUS
  0
LAYER
  2
XREF1|1CENTER
 70
    48
 62
     7
  6
XREF1|CENTER2
  0
ENDTAB
  0
TABLE
  2
STYLE
 70
     5
  0
STYLE
  2
STANDARD
 70
     0
 40
0.0
 41
1.0
 50
0.0
 71
     0
 42
4.0
  3
romans.shx
  4
extfont.shx
  0
ENDTAB
  0
TABLE
  2
VIEW
 70
     5
  0
ENDTAB
  0
TABLE
  2
UCS
 70
     0
  0
ENDTAB
  0
TABLE
  2
APPID
 70
    13
  0
APPID
  2
ACAD
 70
     0
  0
APPID
  2
DRAWINGVARIABLESXDATA
 70
     0
  0
APPID
  2
CONTENTTABDATA
 70
     0
  0
APPID
  2
CONTENTCURRENTTAB
 70
     0
  0
APPID
  2
CONTENTBLOCKDESCRIPTION
 70
     0
  0
APPID
  2
CONTENTBLOCKICON
 70
     0
  0
APPID
  2
CONTENTLONGBLOCKNAME
 70
     0
  0
APPID
  2
ACAD_PSEXT
 70
     0
  0
APPID
  2
ACAD_MLEADERVER
 70
     0
  0
APPID
  2
ACAD_DSTYLE_DIMRADIAL_EXTENSION
 70
     0
  0
APPID
  2
ACLAYERTOOLS
 70
     0
  0
APPID
  2
ACAD_EXEMPT_FROM_CAD_STANDARDS
 70
     0
  0
APPID
  2
ACAECLAYERSTANDARD
 70
     0
  0
ENDTAB
  0
TABLE
  2
DIMSTYLE
 70
     6
  0
DIMSTYLE
  2
NEWX10
 70
     0
  3
 
  4

  5

  6
OPEN30
  7
OPEN30
 40
1.0
 41
2.0
 42
0.0
 43
7.0
 44
1.0
 45
0.0
 46
0.0
 47
0.0
 48
0.0
140
3.5
141
0.0
142
0.0
143
25.399999999999999
144
1.0
145
0.0
146
0.7
147
0.7
 71
     0
 72
     0
 73
     0
 74
     0
 75
     0
 76
     0
 77
     1
 78
     8
170
     0
171
     2
172
     1
173
     1
174
     0
175
     0
176
   256
177
   256
178
   201
  0
ENDTAB
  0
ENDSEC
  0
SECTION
  2
BLOCKS
  0
BLOCK
  8
0
  2
$MODEL_SPACE
 70
     0
 10
0.0
 20
0.0
 30
0.0
  3
$MODEL_SPACE
  1

  0
ENDBLK
  5
1A
  8
0
  0
BLOCK
 67
     1
  8
0
  2
$PAPER_SPACE
 70
     0
 10
0.0
 20
0.0
 30
0.0
  3
$PAPER_SPACE
  1

  0
ENDBLK
  5
17
 67
     1
  8
0
  0
BLOCK
  8
0
  2
_OPEN30
 70
     0
 10
0.0
 20
0.0
 30
0.0
  3
_OPEN30
  1

  0
LINE
  5
44
  8
0
  6
BYBLOCK
 62
     0
 10
-1.0
 20
0.26794919
 30
0.0
 11
0.0
 21
0.0
 31
0.0
  0
LINE
  5
45
  8
0
  6
BYBLOCK
 62
     0
 10
0.0
 20
0.0
 30
0.0
 11
-1.0
 21
-0.26794919
 31
0.0
  0
LINE
  5
46
  8
0
  6
BYBLOCK
 62
     0
 10
0.0
 20
0.0
 30
0.0
 11
-1.0
 21
0.0
 31
0.0
  0
ENDBLK
  5
47
  8
0
  0
BLOCK
  8
0
  2
XREF1
 70
    36
 10
0.0
 20
0.0
 30
0.0
  3
XREF1
  1
D:\ACLT\FORMAT\KAWAJUN(9)図面用.dwg
  0
ENDBLK
  5
5D
  8
0
  0
BLOCK
  8
0
  2
A3WAKUDAKE
 70
    36
 10
0.0
 20
0.0
 30
0.0
  3
A3WAKUDAKE
  1
D:\ACLT\FORMAT\A3WAKUdake.dwg
  0
ENDBLK
  5
6A0
  8
0
  0
ENDSEC
  0
SECTION
  2
ENTITIES
  0
TEXT
  5
FB8E
  8
01
 10
2413.693516081024
 20
1386.271749316955
 30
0.0
 40
20.0
  1
1-HZB-X-LW
  0
LINE
  5
FB9A
  8
01
 10
2710.6934960810249
 20
1133.271749316955
 30
0.0
 11
2717.6934960810249
 21
1133.271749316955
 31
0.0
  0
LINE
  5
FB9B
  8
01
 10
2710.6934960810249
 20
1113.271749316955
 30
0.0
 11
2717.6934960810249
 21
1113.271749316955
 31
0.0
  0
LINE
  5
FB9C
  8
01
 10
2706.7755960810241
 20
1116.465479316955
 30
0.0
 11
2717.6934960810249
 21
1116.465479316955
 31
0.0
  0
LINE
  5
FB9D
  8
01
 10
2706.7755960810241
 20
1130.0780293169551
 30
0.0
 11
2717.6934960810249
 21
1130.0780293169551
 31
0.0
  0
LINE
  5
FB9E
  8
01
 10
2706.6934960810249
 20
1129.271749316955
 30
0.0
 11
2706.6934960810249
 21
1117.271749316955
 31
0.0
  0
ARC
  5
FB9F
  8
01
 10
2710.6934960810249
 20
1117.271749316955
 30
0.0
 40
4.0
 50
179.999989999999
 51
270.0
  0
ARC
  5
FBA0
  8
01
 10
2710.6934960810249
 20
1129.271749316955
 30
0.0
 40
4.0
 50
90.000002999984659
 51
180.000010000001
  0
LINE
  5
FC1A
  8
01
 10
2550.193500081024
 20
1101.271749316955
 30
0.0
 11
2585.193500081024
 21
1101.271749316955
 31
0.0
  0
LINE
  5
FC1B
  8
01
 10
2615.193500081024
 20
1101.271749316955
 30
0.0
 11
2650.193500081024
 21
1101.271749316955
 31
0.0
  0
POINT
  5
FC26
  8
01
 10
2620.193500081024
 20
1101.271749316955
 30
0.0
  0
LINE
  5
FC27
  8
01
 10
2620.193500081024
 20
1076.271749316955
 30
0.0
 11
2620.193500081024
 21
1126.2716493169539
 31
0.0
  0
LINE
  5
FC2A
  8
01
 10
2620.193500081024
 20
1126.271749316955
 30
0.0
 11
2620.193500081024
 21
1076.271749316955
 31
0.0
  0
POINT
  5
FC30
  8
01
 10
2580.193500081024
 20
1101.271749316955
 30
0.0
  0
LINE
  5
FC31
  8
01
 10
2580.193500081024
 20
1076.271749316955
 30
0.0
 11
2580.193500081024
 21
1126.2716493169539
 31
0.0
  0
LINE
  5
FC32
  8
01
 10
2580.193500081024
 20
1126.271749316955
 30
0.0
 11
2580.193500081024
 21
1076.271749316955
 31
0.0
  0
LINE
  5
FC38
  8
01
 10
2793.6936124207691
 20
1354.7717493159259
 30
0.0
 11
2743.6936124207691
 21
1354.7717493159259
 31
0.0
  0
LINE
  5
FC3E
  8
01
 10
2793.6936124207691
 20
1394.7717493159259
 30
0.0
 11
2743.6936124207691
 21
1394.7717493159259
 31
0.0
  0
LINE
  5
FC44
  8
01
 10
2745.108543250883
 20
1085.271749316955
 30
0.0
 11
2786.6934960810249
 21
1085.271749316955
 31
0.0
  0
LINE
  5
FC45
  8
01
 10
2786.6934960810249
 20
1123.3681291109201
 30
0.0
 11
2786.6934960810249
 21
1085.271749316955
 31
0.0
  0
LINE
  5
FC4C
  8
01
 10
2413.693516081024
 20
1345.771749316955
 30
0.0
 11
2518.693516081024
 21
1345.7717493169539
 31
0.0
  0
LINE
  5
FC4D
  8
01
 10
2413.693516081024
 20
1356.271749316955
 30
0.0
 11
2518.693516081024
 21
1356.271749316955
 31
0.0
  0
TEXT
  5
FC4E
  8
01
 10
2482.093516081025
 20
1348.021749316955
 30
0.0
 40
6.0
  1
コード
 72
     1
 11
2492.2935160810248
 21
1348.021749316955
 31
0.0
  0
LINE
  5
FC4F
  8
01
 10
2413.693516081024
 20
1314.2717493169559
 30
0.0
 11
2518.693516081024
 21
1314.271749316955
 31
0.0
  0
TEXT
  5
FC50
  8
01
 10
2425.7935160810262
 20
1337.2002138414809
 30
0.0
 40
6.0
  1
クローム
 72
     1
 11
2439.7935160810248
 21
1337.2002138414809
 31
0.0
  0
LINE
  5
FC51
  8
01
 10
2413.693516081024
 20
1356.271749316955
 30
0.0
 11
2413.693516081024
 21
1314.2717493169559
 31
0.0
  0
LINE
  5
FC52
  8
01
 10
2466.1935160810231
 20
1356.271749316955
 30
0.0
 11
2466.1935160810258
 21
1314.271749316955
 31
0.0
  0
LINE
  5
FC53
  8
01
 10
2518.693516081024
 20
1356.271749316955
 30
0.0
 11
2518.693516081024
 21
1314.271749316955
 31
0.0
  0
LINE
  5
FC54
  8
01
 10
2413.693516081024
 20
1335.271749316955
 30
0.0
 11
2518.693516081024
 21
1335.2717493169539
 31
0.0
  0
LINE
  5
FC55
  8
01
 10
2413.693516081024
 20
1324.771749316955
 30
0.0
 11
2518.693516081024
 21
1324.7717493169539
 31
0.0
  0
TEXT
  5
FC56
  8
01
 10
2469.593516081025
 20
1337.20021384148
 30
0.0
 40
6.0
  1
1-HZB-C-LW
 41
0.7
 72
     1
 11
2492.2935160810248
 21
1337.20021384148
 31
0.0
  0
TEXT
  5
FC57
  8
01
 10
2469.593516081025
 20
1326.70021384148
 30
0.0
 40
6.0
  1
1-HZB-D-LW
 41
0.7
 72
     1
 11
2492.2935160810248
 21
1326.70021384148
 31
0.0
  0
TEXT
  5
FC58
  8
01
 10
2467.4935160810242
 20
1316.20021384148
 30
0.0
 40
6.0
  1
1-HZB-4Q-LW
 41
0.7
 72
     1
 11
2492.2935160810248
 21
1316.20021384148
 31
0.0
  0
TEXT
  5
FC59
  8
01
 10
2414.9935160810219
 20
1327.305378899599
 30
0.0
 40
6.0
  1
ミラーニッケル
 72
     1
 11
2439.793516081023
 21
1327.305378899599
 31
0.0
  0
TEXT
  5
FC5A
  8
01
 10
2415.1935160810231
 20
1316.805378899599
 30
0.0
 40
6.0
  1
ダークアンバー
 72
     1
 11
2439.793516081023
 21
1316.805378899599
 31
0.0
  0
TEXT
  5
FC5C
  8
01
 10
2423.8220875095949
 20
1348.021749316955
 30
0.0
 40
6.0
  1
表面処理：
 72
     1
 11
2439.7935160810239
 21
1348.021749316955
 31
0.0
  0
LINE
  5
109C6
  8
01
 10
2556.2158667698541
 20
1095.5665846353779
 30
0.0
 11
2556.2571148633729
 21
1095.566481831253
 31
0.0
  0
LINE
  5
109C7
  8
01
 10
2571.1948571181488
 20
1112.2857552632349
 30
0.0
 11
2571.1948590414499
 21
1090.285758302012
 31
0.0
  0
ARC
  5
109D2
  8
01
 10
2565.6948566987512
 20
1101.2717468172391
 30
0.0
 40
3.1000003278882531
 50
0.2362094896805362
 51
179.7637987978149
  0
ARC
  5
109D3
  8
01
 10
2565.6948567405711
 20
1101.271835530843
 30
0.0
 40
3.1000000052570829
 50
179.7654384375347
 51
359.99962796290959
  0
ARC
  5
109D8
  8
01
 10
2567.4442211219748
 20
1101.2849086786509
 30
0.0
 40
30.838306539929579
 50
179.998432644513
 51
190.9479386286209
  0
LINE
  5
109DA
  8
01
 10
2537.293642009578
 20
1095.180827598427
 30
0.0
 11
2540.771148002932
 21
1091.4766790910451
 31
0.0
  0
ARC
  5
109DB
  8
01
 10
2537.6582998522199
 20
1095.5232886810679
 30
0.0
 40
0.5002546161745057
 50
190.95854324065689
 51
223.2020915777496
  0
ARC
  5
109DE
  8
01
 10
2552.2000628673518
 20
-822.74440475112362
 30
0.0
 40
1913.1244619817089
 50
89.431119325069332
 51
90.029023383873636
  0
ARC
  5
109DF
  8
01
 10
2567.444221010323
 20
1101.2866012695961
 30
0.0
 40
30.838306428425931
 50
169.05207136943341
 51
180.00157737997981
  0
LINE
  5
109E1
  8
01
 10
2537.29364094216
 20
1107.3906770643989
 30
0.0
 11
2540.7711462878592
 21
1111.0948260949269
 31
0.0
  0
ARC
  5
109E2
  8
01
 10
2537.6582988334608
 20
1107.048216050222
 30
0.0
 40
0.5002546048395635
 50
136.7979179457071
 51
169.0414667232279
  0
ARC
  5
109E5
  8
01
 10
2552.1997264567381
 20
3025.3157028778178
 30
0.0
 40
1913.1242498748211
 50
269.9709866309019
 51
270.5688907559923
  0
LINE
  5
109E6
  8
01
 10
2556.2158640790381
 20
1107.004927545699
 30
0.0
 11
2556.2571121725568
 21
1107.0050303498231
 31
0.0
  0
LINE
  5
109E7
  8
01
 10
2544.8381592306632
 20
1090.2985121766051
 30
0.0
 11
2544.9070068869132
 21
1090.297551826568
 31
0.0
  0
LINE
  5
109E8
  8
01
 10
2544.907003072215
 20
1112.273956970306
 30
0.0
 11
2544.8381592306632
 21
1112.2729956665951
 31
0.0
  0
LINE
  5
10A0A
  8
01
 10
2644.1711333921949
 20
1095.566582135662
 30
0.0
 11
2644.1298852986761
 21
1095.5664793315379
 31
0.0
  0
LINE
  5
10A0B
  8
01
 10
2629.1921430439002
 20
1112.2857527635199
 30
0.0
 11
2629.192141120599
 21
1090.2857558022961
 31
0.0
  0
ARC
  5
10A16
  8
01
 10
2634.6921434632968
 20
1101.2717443175241
 30
0.0
 40
3.1000003278882531
 50
0.2362012021850358
 51
179.76379051031941
  0
ARC
  5
10A17
  8
01
 10
2634.6921434214778
 20
1101.271833031127
 30
0.0
 40
3.1000000052570829
 50
180.00037203709039
 51
0.2345615624652999
  0
ARC
  5
10A1C
  8
01
 10
2632.942779040075
 20
1101.284906178935
 30
0.0
 40
30.838306539929579
 50
349.05206137137912
 51
0.0015673554869885
  0
LINE
  5
10A1E
  8
01
 10
2663.09335815247
 20
1095.180825098711
 30
0.0
 11
2659.6158521591169
 21
1091.4766765913289
 31
0.0
  0
ARC
  5
10A1F
  8
01
 10
2662.728700309829
 20
1095.523286181352
 30
0.0
 40
0.5002546161745057
 50
316.79790842225037
 51
349.04145675934302
  0
ARC
  5
10A22
  8
01
 10
2648.1869372946958
 20
-822.74440725083923
 30
0.0
 40
1913.1244619817089
 50
89.970976616126379
 51
90.568880674930654
  0
ARC
  5
10A23
  8
01
 10
2632.942779151726
 20
1101.286598769881
 30
0.0
 40
30.838306428425931
 50
359.99842262002022
 51
10.94792863056653
  0
LINE
  5
10A25
  8
01
 10
2663.093359219889
 20
1107.390674564683
 30
0.0
 11
2659.6158538741902
 21
1111.094823595211
 31
0.0
  0
ARC
  5
10A26
  8
01
 10
2662.7287013285882
 20
1107.0482135505069
 30
0.0
 40
0.5002546048395635
 50
10.958533276772039
 51
43.202082054292823
  0
ARC
  5
10A29
  8
01
 10
2648.1872737053109
 20
3025.315700378103
 30
0.0
 40
1913.1242498748211
 50
269.43110924400759
 51
270.0290133690981
  0
LINE
  5
10A2A
  8
01
 10
2644.1711360830118
 20
1107.0049250459831
 30
0.0
 11
2644.1298879894912
 21
1107.0050278501069
 31
0.0
  0
LINE
  5
10A2B
  8
01
 10
2655.5488409313862
 20
1090.2985096768889
 30
0.0
 11
2655.4799932751362
 21
1090.297549326853
 31
0.0
  0
LINE
  5
10A2C
  8
01
 10
2655.479997089833
 20
1112.273954470591
 30
0.0
 11
2655.5488409313862
 21
1112.27299316688
 31
0.0
  0
CIRCLE
  5
10A34
  8
01
 10
2565.6948610821628
 20
1101.2718182124811
 30
0.0
 40
2.5
  0
LINE
  5
10A36
  8
01
 10
2564.7972949274981
 20
1102.8264483955149
 30
0.0
 11
2566.5924272368279
 21
1102.8264483955149
 31
0.0
  0
LINE
  5
10A37
  8
01
 10
2566.5924272368279
 20
1102.8264483955149
 30
0.0
 11
2567.489993391493
 21
1101.2718182124811
 31
0.0
  0
LINE
  5
10A38
  8
01
 10
2567.489993391493
 20
1101.2718182124811
 30
0.0
 11
2566.5924272368279
 21
1099.717188029447
 31
0.0
  0
LINE
  5
10A39
  8
01
 10
2566.5924272368279
 20
1099.717188029447
 30
0.0
 11
2564.7972949274981
 21
1099.717188029447
 31
0.0
  0
LINE
  5
10A3A
  8
01
 10
2564.7972949274981
 20
1099.717188029447
 30
0.0
 11
2563.899728772833
 21
1101.2718182124811
 31
0.0
  0
LINE
  5
10A3B
  8
01
 10
2563.899728772833
 20
1101.2718182124811
 30
0.0
 11
2564.7972949274981
 21
1102.8264483955149
 31
0.0
  0
LINE
  5
10A3C
  8
01
 10
2632.9421390798861
 20
1100.8718157027649
 30
0.0
 11
2633.7921390998858
 21
1100.8718157027649
 31
0.0
  0
LINE
  5
10A3D
  8
01
 10
2632.9421390798861
 20
1101.6718157227649
 30
0.0
 11
2633.7921390998858
 21
1101.6718157227649
 31
0.0
  0
LINE
  5
10A3E
  8
01
 10
2634.2921390698862
 20
1100.3718157327651
 30
0.0
 11
2634.2921390698862
 21
1099.5218157127649
 31
0.0
  0
LINE
  5
10A3F
  8
01
 10
2635.0921390898861
 20
1100.3718157327651
 30
0.0
 11
2635.0921390898861
 21
1099.5218157127649
 31
0.0
  0
LINE
  5
10A40
  8
01
 10
2634.2921390698862
 20
1099.5218157127649
 30
0.0
 11
2635.0921390898861
 21
1099.5218157127649
 31
0.0
  0
LINE
  5
10A41
  8
01
 10
2632.9421390798861
 20
1101.6718157227649
 30
0.0
 11
2632.9421390798861
 21
1100.8718157027649
 31
0.0
  0
LINE
  5
10A42
  8
01
 10
2636.4421390798861
 20
1101.6718157227649
 30
0.0
 11
2635.592139059886
 21
1101.6718157227649
 31
0.0
  0
LINE
  5
10A43
  8
01
 10
2636.4421390798861
 20
1100.8718157027649
 30
0.0
 11
2635.592139059886
 21
1100.8718157027649
 31
0.0
  0
LINE
  5
10A44
  8
01
 10
2635.0921390898861
 20
1102.171815692765
 30
0.0
 11
2635.0921390898861
 21
1103.0218157127649
 31
0.0
  0
LINE
  5
10A45
  8
01
 10
2634.2921390698862
 20
1102.171815692765
 30
0.0
 11
2634.2921390698862
 21
1103.0218157127649
 31
0.0
  0
LINE
  5
10A46
  8
01
 10
2635.0921390898861
 20
1103.0218157127649
 30
0.0
 11
2634.2921390698862
 21
1103.0218157127649
 31
0.0
  0
LINE
  5
10A47
  8
01
 10
2636.4421390798861
 20
1100.8718157027649
 30
0.0
 11
2636.4421390798861
 21
1101.6718157227649
 31
0.0
  0
CIRCLE
  5
10A48
  8
01
 10
2634.6921390798861
 20
1101.2718157127649
 30
0.0
 40
2.5
  0
ARC
  5
10A49
  8
01
 10
2635.592139059886
 20
1102.171815692765
 30
0.0
 40
0.5
 50
180.0
 51
270.000010000001
  0
ARC
  5
10A4A
  8
01
 10
2633.7921390998858
 20
1102.171815692765
 30
0.0
 40
0.5
 50
269.999989999999
 51
359.99999700000228
  0
ARC
  5
10A4B
  8
01
 10
2633.7921390998858
 20
1100.3718157327651
 30
0.0
 40
0.5
 50
359.99999700000228
 51
90.0
  0
ARC
  5
10A4C
  8
01
 10
2635.592139059886
 20
1100.3718157327651
 30
0.0
 40
0.5
 50
90.0
 51
180.0
  0
LINE
  5
10A4E
  8
01
 10
2634.6921434632982
 20
1097.241743891384
 30
0.0
 11
2634.6921434632982
 21
1105.301744743663
 31
0.0
  0
LINE
  5
10A4F
  8
01
 10
2565.6948566987512
 20
1097.241746391099
 30
0.0
 11
2565.6948566987512
 21
1105.3017472433789
 31
0.0
  0
ARC
  5
10BAB
  8
01
 10
2768.695799529914
 20
1101.27173127428
 30
0.0
 40
10.99998034214814
 50
238.11602229011609
 51
274.21121210862299
  0
ARC
  5
10BB0
  8
01
 10
2768.695799529914
 20
1101.2717673596289
 30
0.0
 40
10.99998034214814
 50
85.788787891376955
 51
121.88397770988379
  0
ARC
  5
10BB5
  8
01
 10
2895.648956805584
 20
1106.187370957181
 30
0.0
 40
1.3998914131742239
 50
32.363701625072039
 51
61.327957787759203
  0
ARC
  5
10BB6
  8
01
 10
2894.4427951752018
 20
1106.5600601145529
 30
0.0
 40
1.6672319512724709
 50
60.427071289103829
 51
86.214878048290885
  0
ARC
  5
10BB9
  8
01
 10
2839.2968066642752
 20
1007.452139830077
 30
0.0
 40
115.0843608343518
 50
60.297554055829011
 51
60.900444944097863
  0
ARC
  5
10BBA
  8
01
 10
2752.6438682488401
 20
1106.890749592319
 30
0.0
 40
0.4997520469483679
 50
108.312413211045
 51
169.58276560856081
  0
ARC
  5
10BBB
  8
01
 10
2783.1428055557221
 20
1101.272431231675
 30
0.0
 40
31.511878824571561
 50
169.5626830246384
 51
180.00123987641521
  0
ARC
  5
10BBF
  8
01
 10
2895.6489568055822
 20
1096.35612767673
 30
0.0
 40
1.3998914131767279
 50
298.6720422122408
 51
327.63629837490731
  0
ARC
  5
10BC0
  8
01
 10
2894.4427951752018
 20
1095.9834385193569
 30
0.0
 40
1.6672319512724709
 50
273.78512195165689
 51
299.57292871089618
  0
ARC
  5
10BC3
  8
01
 10
2839.2968066642752
 20
1195.091358803832
 30
0.0
 40
115.0843608343518
 50
299.09955505590221
 51
299.70244594417102
  0
ARC
  5
10BC4
  8
01
 10
2752.6438682488401
 20
1095.6527490415899
 30
0.0
 40
0.4997520469483679
 50
190.41723439143919
 51
251.687586788955
  0
ARC
  5
10BC5
  8
01
 10
2783.1428055557221
 20
1101.2710674022339
 30
0.0
 40
31.511878824571561
 50
179.99876012357819
 51
190.43731697536151
  0
ARC
  5
10BC8
  8
01
 10
2785.6959620547818
 20
1330.5513880686281
 30
0.0
 40
6.0000555138408611
 50
180.00046435907819
 51
262.9442339748465
  0
LINE
  5
10BC9
  8
01
 10
2779.6959065411388
 20
1330.551339440631
 30
0.0
 11
2779.695906541137
 21
1345.7731073260261
 31
0.0
  0
LINE
  5
10BCA
  8
01
 10
2757.0938793158221
 20
1345.773107305278
 30
0.0
 11
2779.695906541137
 21
1345.7731073260261
 31
0.0
  0
ARC
  5
10BD0
  8
01
 10
2895.42705072329
 20
1334.893591715891
 30
0.0
 40
1.5
 50
22.58167306276507
 51
109.1138544034026
  0
ARC
  5
10BD3
  8
01
 10
2896.963929347417
 20
1331.1978949823549
 30
0.0
 40
1.499980718270038
 50
292.20273360447669
 51
22.585587351032618
  0
ARC
  5
10BD4
  8
01
 10
2802.609430040889
 20
1562.378172650099
 30
0.0
 40
251.19397808687299
 50
263.748689480167
 51
292.20246090501269
  0
LINE
  5
10BD5
  8
01
 10
2752.4044618273092
 20
1330.889013164109
 30
0.0
 11
2754.31823657839
 21
1336.9632864890691
 31
0.0
  0
LINE
  5
10BD6
  8
01
 10
2756.4606424679268
 20
1343.7632293447839
 30
0.0
 11
2757.0938793158221
 21
1345.773107305278
 31
0.0
  0
LINE
  5
10BD8
  8
01
 10
2896.812050362279
 20
1335.4695917158911
 30
0.0
 11
2898.3489788823599
 21
1331.7740267064071
 31
0.0
  0
LINE
  5
10BD9
  8
01
 10
2897.5307494978988
 20
1329.8091339978109
 30
0.0
 11
2897.5330116627392
 21
1329.810059452024
 31
0.0
  0
LINE
  5
10BFE
  8
01
 10
2763.6178985901038
 20
1336.80849814058
 30
0.0
 11
2762.7404925283909
 21
1345.773107310461
 31
0.0
  0
ARC
  5
10C02
  8
01
 10
2885.362627200393
 20
1340.6997282103889
 30
0.0
 40
11.54409200247191
 50
331.10927687772238
 51
336.22279684928412
  0
ARC
  5
10C03
  8
01
 10
2833.949788527028
 20
1296.399342111423
 30
0.0
 40
72.52729444790819
 50
28.15645961791887
 51
31.939886766999209
  0
ARC
  5
10CC8
  8
01
 10
2785.6959620547818
 20
1418.9921105632241
 30
0.0
 40
6.0000555138408611
 50
97.055766025152238
 51
179.99953564093479
  0
LINE
  5
10CC9
  8
01
 10
2779.6959065411388
 20
1418.9921591912209
 30
0.0
 11
2779.695906541137
 21
1403.770391305826
 31
0.0
  0
LINE
  5
10CCA
  8
01
 10
2757.0938793158221
 20
1403.770391326573
 30
0.0
 11
2779.695906541137
 21
1403.770391305826
 31
0.0
  0
ARC
  5
10CD0
  8
01
 10
2895.42705072329
 20
1414.6499069159599
 30
0.0
 40
1.5
 50
250.88614559659851
 51
337.41832693723859
  0
ARC
  5
10CD3
  8
01
 10
2896.963929347417
 20
1418.3456036494979
 30
0.0
 40
1.499980718270038
 50
337.41441264897111
 51
67.797266395521419
  0
ARC
  5
10CD4
  8
01
 10
2802.609430040889
 20
1187.1653259817531
 30
0.0
 40
251.19397808687299
 50
67.797539094987684
 51
96.251310519832927
  0
LINE
  5
10CD5
  8
01
 10
2752.4044618273092
 20
1418.6544854677429
 30
0.0
 11
2754.31823657839
 21
1412.580212142783
 31
0.0
  0
LINE
  5
10CD6
  8
01
 10
2756.4606424679268
 20
1405.7802692870689
 30
0.0
 11
2757.0938793158221
 21
1403.770391326573
 31
0.0
  0
LINE
  5
10CD8
  8
01
 10
2896.812050362279
 20
1414.0739069159611
 30
0.0
 11
2898.3489788823599
 21
1417.769471925445
 31
0.0
  0
LINE
  5
10CD9
  8
01
 10
2897.5307494978988
 20
1419.734364634041
 30
0.0
 11
2897.5330116627392
 21
1419.7334391798281
 31
0.0
  0
LINE
  5
10CDA
  8
01
 10
2763.6178985901038
 20
1412.7350004912721
 30
0.0
 11
2762.7404925283909
 21
1403.7703913213909
 31
0.0
  0
ARC
  5
10CDE
  8
01
 10
2885.362627200393
 20
1408.843770421463
 30
0.0
 40
11.54409200247191
 50
23.777203150718961
 51
28.89072312227426
  0
ARC
  5
10CDF
  8
01
 10
2833.949788527028
 20
1453.1441565204279
 30
0.0
 40
72.52729444790819
 50
328.06011323299867
 51
331.8435403820726
  0
ARC
  5
10CF7
  8
01
 10
2431.691200632134
 20
1101.27173127428
 30
0.0
 40
10.99998034214814
 50
265.78878789137701
 51
301.88397770988388
  0
ARC
  5
10CFC
  8
01
 10
2431.691200632134
 20
1101.2717673596289
 30
0.0
 40
10.99998034214814
 50
58.116022290116049
 51
94.211212108622945
  0
ARC
  5
10D01
  8
01
 10
2304.7380433564649
 20
1106.187370957181
 30
0.0
 40
1.3998914131742239
 50
118.6720422122406
 51
147.6362983749236
  0
ARC
  5
10D02
  8
01
 10
2305.9442049868462
 20
1106.5600601145529
 30
0.0
 40
1.6672319512724709
 50
93.785121951709229
 51
119.57292871089589
  0
ARC
  5
10D05
  8
01
 10
2361.0901934977728
 20
1007.452139830077
 30
0.0
 40
115.0843608343518
 50
119.0995550559019
 51
119.7024459441711
  0
ARC
  5
10D06
  8
01
 10
2447.7431319132079
 20
1106.890749592319
 30
0.0
 40
0.4997520469483679
 50
10.41723439143963
 51
71.687586788955372
  0
ARC
  5
10D07
  8
01
 10
2417.2441946063259
 20
1101.272431231675
 30
0.0
 40
31.511878824571561
 50
359.99876012358482
 51
10.437316975363251
  0
ARC
  5
10D0B
  8
01
 10
2304.7380433564658
 20
1096.35612767673
 30
0.0
 40
1.3998914131767279
 50
212.3637016250911
 51
241.3279577877594
  0
ARC
  5
10D0C
  8
01
 10
2305.9442049868462
 20
1095.9834385193569
 30
0.0
 40
1.6672319512724709
 50
240.42707128910411
 51
266.214878048343
  0
ARC
  5
10D0F
  8
01
 10
2361.0901934977728
 20
1195.091358803832
 30
0.0
 40
115.0843608343518
 50
240.29755405582881
 51
240.90044494409801
  0
ARC
  5
10D10
  8
01
 10
2447.7431319132079
 20
1095.6527490415899
 30
0.0
 40
0.4997520469483679
 50
288.31241321104471
 51
349.58276560856029
  0
ARC
  5
10D11
  8
01
 10
2417.2441946063259
 20
1101.2710674022339
 30
0.0
 40
31.511878824571561
 50
349.56268302463678
 51
0.0012398764217857
  0
LINE
  5
11365
  8
01
 10
2620.193500081024
 20
1193.7691293169551
 30
0.0
 11
2620.193500081024
 21
1046.4358093169551
 31
0.0
  0
LINE
  5
11366
  8
01
 10
2580.193500081024
 20
1193.7691293169551
 30
0.0
 11
2580.193500081024
 21
1046.4358093169551
 31
0.0
  0
LINE
  5
11367
  8
01
 10
2480.293506081025
 20
1187.271749316955
 30
0.0
 11
2480.293506081025
 21
1164.1717793169551
 31
0.0
  0
LINE
  5
11368
  8
01
 10
2478.693500081024
 20
1187.271749316955
 30
0.0
 11
2478.693500081024
 21
1164.271749316955
 31
0.0
  0
LINE
  5
11369
  8
01
 10
2481.0935090810249
 20
1187.271749316955
 30
0.0
 11
2481.0935090810249
 21
1057.271749316955
 31
0.0
  0
LINE
  5
1136A
  8
01
 10
2482.693500081024
 20
1187.271749316955
 30
0.0
 11
2482.693500081024
 21
1057.271749316955
 31
0.0
  0
LINE
  5
1136B
  8
01
 10
2479.693500081024
 20
1085.271749316955
 30
0.0
 11
2455.2785692509151
 21
1085.271749316955
 31
0.0
  0
LINE
  5
1136C
  8
01
 10
2413.693516081024
 20
1159.771749316955
 30
0.0
 11
2413.693516081024
 21
1123.3680473724689
 31
0.0
  0
LINE
  5
1136D
  8
01
 10
2488.6935000810222
 20
1133.271749316955
 30
0.0
 11
2482.693500081024
 21
1133.271749316955
 31
0.0
  0
LINE
  5
1136E
  8
01
 10
2493.693500081024
 20
1128.2717493169539
 30
0.0
 11
2483.693500081024
 21
1128.2717493169539
 31
0.0
  0
POLYLINE
  5
1136F
  8
01
 10
2493.693500081024
 20
1129.703329316955
 30
0.0
 66
     1
 70
     8
  0
VERTEX
  8
01
  5
12576
 10
2493.69
 20
1129.70
 30
0.000000
  70
    32
  0
VERTEX
  8
01
  5
12577
 10
2493.69
 20
1129.79
 30
0.000000
  70
    32
  0
VERTEX
  8
01
  5
12578
 10
2493.69
 20
1129.88
 30
0.000000
  70
    32
  0
VERTEX
  8
01
  5
12579
 10
2493.68
 20
1129.97
 30
0.000000
  70
    32
  0
VERTEX
  8
01
  5
1257A
 10
2493.67
 20
1130.05
 30
0.000000
  70
    32
  0
VERTEX
  8
01
  5
1257B
 10
2493.66
 20
1130.14
 30
0.000000
  70
    32
  0
VERTEX
  8
01
  5
1257C
 10
2493.64
 20
1130.23
 30
0.000000
  70
    32
  0
VERTEX
  8
01
  5
1257D
 10
2493.62
 20
1130.31
 30
0.000000
  70
    32
  0
VERTEX
  8
01
  5
1257E
 10
2493.60
 20
1130.40
 30
0.000000
  70
    32
  0
VERTEX
  8
01
  5
1257F
 10
2493.57
 20
1130.49
 30
0.000000
  70
    32
  0
VERTEX
  8
01
  5
12580
 10
2493.54
 20
1130.57
 30
0.000000
  70
    32
  0
VERTEX
  8
01
  5
12581
 10
2493.51
 20
1130.66
 30
0.000000
  70
    32
  0
VERTEX
  8
01
  5
12582
 10
2493.48
 20
1130.74
 30
0.000000
  70
    32
  0
VERTEX
  8
01
  5
12583
 10
2493.44
 20
1130.82
 30
0.000000
  70
    32
  0
VERTEX
  8
01
  5
12584
 10
2493.40
 20
1130.91
 30
0.000000
  70
    32
  0
VERTEX
  8
01
  5
12585
 10
2493.36
 20
1130.99
 30
0.000000
  70
    32
  0
VERTEX
  8
01
  5
12586
 10
2493.31
 20
1131.07
 30
0.000000
  70
    32
  0
VERTEX
  8
01
  5
12587
 10
2493.26
 20
1131.15
 30
0.000000
  70
    32
  0
VERTEX
  8
01
  5
12588
 10
2493.21
 20
1131.23
 30
0.000000
  70
    32
  0
VERTEX
  8
01
  5
12589
 10
2493.16
 20
1131.31
 30
0.000000
  70
    32
  0
VERTEX
  8
01
  5
1258A
 10
2493.10
 20
1131.39
 30
0.000000
  70
    32
  0
VERTEX
  8
01
  5
1258B
 10
2493.04
 20
1131.46
 30
0.000000
  70
    32
  0
VERTEX
  8
01
  5
1258C
 10
2492.98
 20
1131.54
 30
0.000000
  70
    32
  0
VERTEX
  8
01
  5
1258D
 10
2492.92
 20
1131.61
 30
0.000000
  70
    32
  0
VERTEX
  8
01
  5
1258E
 10
2492.85
 20
1131.69
 30
0.000000
  70
    32
  0
VERTEX
  8
01
  5
1258F
 10
2492.78
 20
1131.76
 30
0.000000
  70
    32
  0
VERTEX
  8
01
  5
12590
 10
2492.71
 20
1131.83
 30
0.000000
  70
    32
  0
VERTEX
  8
01
  5
12591
 10
2492.64
 20
1131.90
 30
0.000000
  70
    32
  0
VERTEX
  8
01
  5
12592
 10
2492.56
 20
1131.97
 30
0.000000
  70
    32
  0
VERTEX
  8
01
  5
12593
 10
2492.48
 20
1132.03
 30
0.000000
  70
    32
  0
VERTEX
  8
01
  5
12594
 10
2492.40
 20
1132.10
 30
0.000000
  70
    32
  0
VERTEX
  8
01
  5
12595
 10
2492.31
 20
1132.16
 30
0.000000
  70
    32
  0
VERTEX
  8
01
  5
12596
 10
2492.23
 20
1132.23
 30
0.000000
  70
    32
  0
VERTEX
  8
01
  5
12597
 10
2492.14
 20
1132.29
 30
0.000000
  70
    32
  0
VERTEX
  8
01
  5
12598
 10
2492.05
 20
1132.35
 30
0.000000
  70
    32
  0
VERTEX
  8
01
  5
12599
 10
2491.96
 20
1132.41
 30
0.000000
  70
    32
  0
VERTEX
  8
01
  5
1259A
 10
2491.87
 20
1132.46
 30
0.000000
  70
    32
  0
VERTEX
  8
01
  5
1259B
 10
2491.77
 20
1132.52
 30
0.000000
  70
    32
  0
VERTEX
  8
01
  5
1259C
 10
2491.67
 20
1132.57
 30
0.000000
  70
    32
  0
VERTEX
  8
01
  5
1259D
 10
2491.57
 20
1132.62
 30
0.000000
  70
    32
  0
VERTEX
  8
01
  5
1259E
 10
2491.47
 20
1132.67
 30
0.000000
  70
    32
  0
VERTEX
  8
01
  5
1259F
 10
2491.37
 20
1132.72
 30
0.000000
  70
    32
  0
VERTEX
  8
01
  5
125A0
 10
2491.26
 20
1132.76
 30
0.000000
  70
    32
  0
VERTEX
  8
01
  5
125A1
 10
2491.16
 20
1132.81
 30
0.000000
  70
    32
  0
VERTEX
  8
01
  5
125A2
 10
2491.05
 20
1132.85
 30
0.000000
  70
    32
  0
VERTEX
  8
01
  5
125A3
 10
2490.94
 20
1132.89
 30
0.000000
  70
    32
  0
VERTEX
  8
01
  5
125A4
 10
2490.83
 20
1132.93
 30
0.000000
  70
    32
  0
VERTEX
  8
01
  5
125A5
 10
2490.72
 20
1132.97
 30
0.000000
  70
    32
  0
VERTEX
  8
01
  5
125A6
 10
2490.61
 20
1133.00
 30
0.000000
  70
    32
  0
VERTEX
  8
01
  5
125A7
 10
2490.49
 20
1133.03
 30
0.000000
  70
    32
  0
VERTEX
  8
01
  5
125A8
 10
2490.38
 20
1133.06
 30
0.000000
  70
    32
  0
VERTEX
  8
01
  5
125A9
 10
2490.26
 20
1133.09
 30
0.000000
  70
    32
  0
VERTEX
  8
01
  5
125AA
 10
2490.14
 20
1133.12
 30
0.000000
  70
    32
  0
VERTEX
  8
01
  5
125AB
 10
2490.03
 20
1133.14
 30
0.000000
  70
    32
  0
VERTEX
  8
01
  5
125AC
 10
2489.91
 20
1133.16
 30
0.000000
  70
    32
  0
VERTEX
  8
01
  5
125AD
 10
2489.79
 20
1133.19
 30
0.000000
  70
    32
  0
VERTEX
  8
01
  5
125AE
 10
2489.67
 20
1133.20
 30
0.000000
  70
    32
  0
VERTEX
  8
01
  5
125AF
 10
2489.55
 20
1133.22
 30
0.000000
  70
    32
  0
VERTEX
  8
01
  5
125B0
 10
2489.43
 20
1133.23
 30
0.000000
  70
    32
  0
VERTEX
  8
01
  5
125B1
 10
2489.31
 20
1133.24
 30
0.000000
  70
    32
  0
VERTEX
  8
01
  5
125B2
 10
2489.18
 20
1133.25
 30
0.000000
  70
    32
  0
VERTEX
  8
01
  5
125B3
 10
2489.06
 20
1133.26
 30
0.000000
  70
    32
  0
VERTEX
  8
01
  5
125B4
 10
2488.94
 20
1133.27
 30
0.000000
  70
    32
  0
VERTEX
  8
01
  5
125B5
 10
2488.82
 20
1133.27
 30
0.000000
  70
    32
  0
VERTEX
  8
01
  5
125B6
 10
2488.69
 20
1133.27
 30
0.000000
  70
    32
  0
VERTEX
  8
01
  5
125B7
 10
2488.57
 20
1133.27
 30
0.000000
  70
    32
  0
VERTEX
  8
01
  5
125B8
 10
2488.45
 20
1133.27
 30
0.000000
  70
    32
  0
VERTEX
  8
01
  5
125B9
 10
2488.33
 20
1133.26
 30
0.000000
  70
    32
  0
VERTEX
  8
01
  5
125BA
 10
2488.20
 20
1133.25
 30
0.000000
  70
    32
  0
VERTEX
  8
01
  5
125BB
 10
2488.08
 20
1133.24
 30
0.000000
  70
    32
  0
VERTEX
  8
01
  5
125BC
 10
2487.96
 20
1133.23
 30
0.000000
  70
    32
  0
VERTEX
  8
01
  5
125BD
 10
2487.84
 20
1133.22
 30
0.000000
  70
    32
  0
VERTEX
  8
01
  5
125BE
 10
2487.72
 20
1133.20
 30
0.000000
  70
    32
  0
VERTEX
  8
01
  5
125BF
 10
2487.60
 20
1133.19
 30
0.000000
  70
    32
  0
VERTEX
  8
01
  5
125C0
 10
2487.48
 20
1133.16
 30
0.000000
  70
    32
  0
VERTEX
  8
01
  5
125C1
 10
2487.36
 20
1133.14
 30
0.000000
  70
    32
  0
VERTEX
  8
01
  5
125C2
 10
2487.24
 20
1133.12
 30
0.000000
  70
    32
  0
VERTEX
  8
01
  5
125C3
 10
2487.13
 20
1133.09
 30
0.000000
  70
    32
  0
VERTEX
  8
01
  5
125C4
 10
2487.01
 20
1133.06
 30
0.000000
  70
    32
  0
VERTEX
  8
01
  5
125C5
 10
2486.89
 20
1133.03
 30
0.000000
  70
    32
  0
VERTEX
  8
01
  5
125C6
 10
2486.78
 20
1133.00
 30
0.000000
  70
    32
  0
VERTEX
  8
01
  5
125C7
 10
2486.67
 20
1132.97
 30
0.000000
  70
    32
  0
VERTEX
  8
01
  5
125C8
 10
2486.56
 20
1132.93
 30
0.000000
  70
    32
  0
VERTEX
  8
01
  5
125C9
 10
2486.45
 20
1132.89
 30
0.000000
  70
    32
  0
VERTEX
  8
01
  5
125CA
 10
2486.34
 20
1132.85
 30
0.000000
  70
    32
  0
VERTEX
  8
01
  5
125CB
 10
2486.23
 20
1132.81
 30
0.000000
  70
    32
  0
VERTEX
  8
01
  5
125CC
 10
2486.12
 20
1132.76
 30
0.000000
  70
    32
  0
VERTEX
  8
01
  5
125CD
 10
2486.02
 20
1132.72
 30
0.000000
  70
    32
  0
VERTEX
  8
01
  5
125CE
 10
2485.92
 20
1132.67
 30
0.000000
  70
    32
  0
VERTEX
  8
01
  5
125CF
 10
2485.81
 20
1132.62
 30
0.000000
  70
    32
  0
VERTEX
  8
01
  5
125D0
 10
2485.72
 20
1132.57
 30
0.000000
  70
    32
  0
VERTEX
  8
01
  5
125D1
 10
2485.62
 20
1132.52
 30
0.000000
  70
    32
  0
VERTEX
  8
01
  5
125D2
 10
2485.52
 20
1132.46
 30
0.000000
  70
    32
  0
VERTEX
  8
01
  5
125D3
 10
2485.43
 20
1132.41
 30
0.000000
  70
    32
  0
VERTEX
  8
01
  5
125D4
 10
2485.34
 20
1132.35
 30
0.000000
  70
    32
  0
VERTEX
  8
01
  5
125D5
 10
2485.25
 20
1132.29
 30
0.000000
  70
    32
  0
VERTEX
  8
01
  5
125D6
 10
2485.16
 20
1132.23
 30
0.000000
  70
    32
  0
VERTEX
  8
01
  5
125D7
 10
2485.07
 20
1132.16
 30
0.000000
  70
    32
  0
VERTEX
  8
01
  5
125D8
 10
2484.99
 20
1132.10
 30
0.000000
  70
    32
  0
VERTEX
  8
01
  5
125D9
 10
2484.91
 20
1132.03
 30
0.000000
  70
    32
  0
VERTEX
  8
01
  5
125DA
 10
2484.83
 20
1131.97
 30
0.000000
  70
    32
  0
VERTEX
  8
01
  5
125DB
 10
2484.75
 20
1131.90
 30
0.000000
  70
    32
  0
VERTEX
  8
01
  5
125DC
 10
2484.68
 20
1131.83
 30
0.000000
  70
    32
  0
VERTEX
  8
01
  5
125DD
 10
2484.61
 20
1131.76
 30
0.000000
  70
    32
  0
VERTEX
  8
01
  5
125DE
 10
2484.54
 20
1131.69
 30
0.000000
  70
    32
  0
VERTEX
  8
01
  5
125DF
 10
2484.47
 20
1131.61
 30
0.000000
  70
    32
  0
VERTEX
  8
01
  5
125E0
 10
2484.40
 20
1131.54
 30
0.000000
  70
    32
  0
VERTEX
  8
01
  5
125E1
 10
2484.34
 20
1131.46
 30
0.000000
  70
    32
  0
VERTEX
  8
01
  5
125E2
 10
2484.28
 20
1131.39
 30
0.000000
  70
    32
  0
VERTEX
  8
01
  5
125E3
 10
2484.23
 20
1131.31
 30
0.000000
  70
    32
  0
VERTEX
  8
01
  5
125E4
 10
2484.17
 20
1131.23
 30
0.000000
  70
    32
  0
VERTEX
  8
01
  5
125E5
 10
2484.12
 20
1131.15
 30
0.000000
  70
    32
  0
VERTEX
  8
01
  5
125E6
 10
2484.07
 20
1131.07
 30
0.000000
  70
    32
  0
VERTEX
  8
01
  5
125E7
 10
2484.03
 20
1130.99
 30
0.000000
  70
    32
  0
VERTEX
  8
01
  5
125E8
 10
2483.99
 20
1130.91
 30
0.000000
  70
    32
  0
VERTEX
  8
01
  5
125E9
 10
2483.95
 20
1130.82
 30
0.000000
  70
    32
  0
VERTEX
  8
01
  5
125EA
 10
2483.91
 20
1130.74
 30
0.000000
  70
    32
  0
VERTEX
  8
01
  5
125EB
 10
2483.87
 20
1130.66
 30
0.000000
  70
    32
  0
VERTEX
  8
01
  5
125EC
 10
2483.84
 20
1130.57
 30
0.000000
  70
    32
  0
VERTEX
  8
01
  5
125ED
 10
2483.81
 20
1130.49
 30
0.000000
  70
    32
  0
VERTEX
  8
01
  5
125EE
 10
2483.79
 20
1130.40
 30
0.000000
  70
    32
  0
VERTEX
  8
01
  5
125EF
 10
2483.77
 20
1130.31
 30
0.000000
  70
    32
  0
VERTEX
  8
01
  5
125F0
 10
2483.75
 20
1130.23
 30
0.000000
  70
    32
  0
VERTEX
  8
01
  5
125F1
 10
2483.73
 20
1130.14
 30
0.000000
  70
    32
  0
VERTEX
  8
01
  5
125F2
 10
2483.72
 20
1130.05
 30
0.000000
  70
    32
  0
VERTEX
  8
01
  5
125F3
 10
2483.71
 20
1129.97
 30
0.000000
  70
    32
  0
VERTEX
  8
01
  5
125F4
 10
2483.70
 20
1129.88
 30
0.000000
  70
    32
  0
VERTEX
  8
01
  5
125F5
 10
2483.70
 20
1129.79
 30
0.000000
  70
    32
  0
VERTEX
  8
01
  5
125F6
 10
2483.69
 20
1129.70
 30
0.000000
  70
    32
  0
SEQEND
  8
01
  5
125F7
  0
LINE
  5
11370
  8
01
 10
2488.693500081024
 20
1113.271749316955
 30
0.0
 11
2482.693500081024
 21
1113.271749316955
 31
0.0
  0
LINE
  5
11371
  8
01
 10
2493.693500081024
 20
1118.271749316955
 30
0.0
 11
2483.693500081024
 21
1118.271749316955
 31
0.0
  0
POLYLINE
  5
11372
  8
01
 10
2493.693500081024
 20
1116.8401693169551
 30
0.0
 66
     1
 70
     8
  0
VERTEX
  8
01
  5
125F8
 10
2493.69
 20
1116.84
 30
0.000000
  70
    32
  0
VERTEX
  8
01
  5
125F9
 10
2493.69
 20
1116.75
 30
0.000000
  70
    32
  0
VERTEX
  8
01
  5
125FA
 10
2493.69
 20
1116.67
 30
0.000000
  70
    32
  0
VERTEX
  8
01
  5
125FB
 10
2493.68
 20
1116.58
 30
0.000000
  70
    32
  0
VERTEX
  8
01
  5
125FC
 10
2493.67
 20
1116.49
 30
0.000000
  70
    32
  0
VERTEX
  8
01
  5
125FD
 10
2493.66
 20
1116.40
 30
0.000000
  70
    32
  0
VERTEX
  8
01
  5
125FE
 10
2493.64
 20
1116.32
 30
0.000000
  70
    32
  0
VERTEX
  8
01
  5
125FF
 10
2493.62
 20
1116.23
 30
0.000000
  70
    32
  0
VERTEX
  8
01
  5
12600
 10
2493.60
 20
1116.14
 30
0.000000
  70
    32
  0
VERTEX
  8
01
  5
12601
 10
2493.57
 20
1116.06
 30
0.000000
  70
    32
  0
VERTEX
  8
01
  5
12602
 10
2493.54
 20
1115.97
 30
0.000000
  70
    32
  0
VERTEX
  8
01
  5
12603
 10
2493.51
 20
1115.89
 30
0.000000
  70
    32
  0
VERTEX
  8
01
  5
12604
 10
2493.48
 20
1115.80
 30
0.000000
  70
    32
  0
VERTEX
  8
01
  5
12605
 10
2493.44
 20
1115.72
 30
0.000000
  70
    32
  0
VERTEX
  8
01
  5
12606
 10
2493.40
 20
1115.64
 30
0.000000
  70
    32
  0
VERTEX
  8
01
  5
12607
 10
2493.36
 20
1115.56
 30
0.000000
  70
    32
  0
VERTEX
  8
01
  5
12608
 10
2493.31
 20
1115.47
 30
0.000000
  70
    32
  0
VERTEX
  8
01
  5
12609
 10
2493.26
 20
1115.39
 30
0.000000
  70
    32
  0
VERTEX
  8
01
  5
1260A
 10
2493.21
 20
1115.31
 30
0.000000
  70
    32
  0
VERTEX
  8
01
  5
1260B
 10
2493.16
 20
1115.24
 30
0.000000
  70
    32
  0
VERTEX
  8
01
  5
1260C
 10
2493.10
 20
1115.16
 30
0.000000
  70
    32
  0
VERTEX
  8
01
  5
1260D
 10
2493.04
 20
1115.08
 30
0.000000
  70
    32
  0
VERTEX
  8
01
  5
1260E
 10
2492.98
 20
1115.01
 30
0.000000
  70
    32
  0
VERTEX
  8
01
  5
1260F
 10
2492.92
 20
1114.93
 30
0.000000
  70
    32
  0
VERTEX
  8
01
  5
12610
 10
2492.85
 20
1114.86
 30
0.000000
  70
    32
  0
VERTEX
  8
01
  5
12611
 10
2492.78
 20
1114.79
 30
0.000000
  70
    32
  0
VERTEX
  8
01
  5
12612
 10
2492.71
 20
1114.71
 30
0.000000
  70
    32
  0
VERTEX
  8
01
  5
12613
 10
2492.64
 20
1114.64
 30
0.000000
  70
    32
  0
VERTEX
  8
01
  5
12614
 10
2492.56
 20
1114.58
 30
0.000000
  70
    32
  0
VERTEX
  8
01
  5
12615
 10
2492.48
 20
1114.51
 30
0.000000
  70
    32
  0
VERTEX
  8
01
  5
12616
 10
2492.40
 20
1114.44
 30
0.000000
  70
    32
  0
VERTEX
  8
01
  5
12617
 10
2492.31
 20
1114.38
 30
0.000000
  70
    32
  0
VERTEX
  8
01
  5
12618
 10
2492.23
 20
1114.32
 30
0.000000
  70
    32
  0
VERTEX
  8
01
  5
12619
 10
2492.14
 20
1114.26
 30
0.000000
  70
    32
  0
VERTEX
  8
01
  5
1261A
 10
2492.05
 20
1114.20
 30
0.000000
  70
    32
  0
VERTEX
  8
01
  5
1261B
 10
2491.96
 20
1114.14
 30
0.000000
  70
    32
  0
VERTEX
  8
01
  5
1261C
 10
2491.87
 20
1114.08
 30
0.000000
  70
    32
  0
VERTEX
  8
01
  5
1261D
 10
2491.77
 20
1114.03
 30
0.000000
  70
    32
  0
VERTEX
  8
01
  5
1261E
 10
2491.67
 20
1113.97
 30
0.000000
  70
    32
  0
VERTEX
  8
01
  5
1261F
 10
2491.57
 20
1113.92
 30
0.000000
  70
    32
  0
VERTEX
  8
01
  5
12620
 10
2491.47
 20
1113.87
 30
0.000000
  70
    32
  0
VERTEX
  8
01
  5
12621
 10
2491.37
 20
1113.83
 30
0.000000
  70
    32
  0
VERTEX
  8
01
  5
12622
 10
2491.26
 20
1113.78
 30
0.000000
  70
    32
  0
VERTEX
  8
01
  5
12623
 10
2491.16
 20
1113.74
 30
0.000000
  70
    32
  0
VERTEX
  8
01
  5
12624
 10
2491.05
 20
1113.69
 30
0.000000
  70
    32
  0
VERTEX
  8
01
  5
12625
 10
2490.94
 20
1113.65
 30
0.000000
  70
    32
  0
VERTEX
  8
01
  5
12626
 10
2490.83
 20
1113.61
 30
0.000000
  70
    32
  0
VERTEX
  8
01
  5
12627
 10
2490.72
 20
1113.58
 30
0.000000
  70
    32
  0
VERTEX
  8
01
  5
12628
 10
2490.61
 20
1113.54
 30
0.000000
  70
    32
  0
VERTEX
  8
01
  5
12629
 10
2490.49
 20
1113.51
 30
0.000000
  70
    32
  0
VERTEX
  8
01
  5
1262A
 10
2490.38
 20
1113.48
 30
0.000000
  70
    32
  0
VERTEX
  8
01
  5
1262B
 10
2490.26
 20
1113.45
 30
0.000000
  70
    32
  0
VERTEX
  8
01
  5
1262C
 10
2490.14
 20
1113.43
 30
0.000000
  70
    32
  0
VERTEX
  8
01
  5
1262D
 10
2490.03
 20
1113.40
 30
0.000000
  70
    32
  0
VERTEX
  8
01
  5
1262E
 10
2489.91
 20
1113.38
 30
0.000000
  70
    32
  0
VERTEX
  8
01
  5
1262F
 10
2489.79
 20
1113.36
 30
0.000000
  70
    32
  0
VERTEX
  8
01
  5
12630
 10
2489.67
 20
1113.34
 30
0.000000
  70
    32
  0
VERTEX
  8
01
  5
12631
 10
2489.55
 20
1113.32
 30
0.000000
  70
    32
  0
VERTEX
  8
01
  5
12632
 10
2489.43
 20
1113.31
 30
0.000000
  70
    32
  0
VERTEX
  8
01
  5
12633
 10
2489.31
 20
1113.30
 30
0.000000
  70
    32
  0
VERTEX
  8
01
  5
12634
 10
2489.18
 20
1113.29
 30
0.000000
  70
    32
  0
VERTEX
  8
01
  5
12635
 10
2489.06
 20
1113.28
 30
0.000000
  70
    32
  0
VERTEX
  8
01
  5
12636
 10
2488.94
 20
1113.28
 30
0.000000
  70
    32
  0
VERTEX
  8
01
  5
12637
 10
2488.82
 20
1113.27
 30
0.000000
  70
    32
  0
VERTEX
  8
01
  5
12638
 10
2488.69
 20
1113.27
 30
0.000000
  70
    32
  0
VERTEX
  8
01
  5
12639
 10
2488.57
 20
1113.27
 30
0.000000
  70
    32
  0
VERTEX
  8
01
  5
1263A
 10
2488.45
 20
1113.28
 30
0.000000
  70
    32
  0
VERTEX
  8
01
  5
1263B
 10
2488.33
 20
1113.28
 30
0.000000
  70
    32
  0
VERTEX
  8
01
  5
1263C
 10
2488.20
 20
1113.29
 30
0.000000
  70
    32
  0
VERTEX
  8
01
  5
1263D
 10
2488.08
 20
1113.30
 30
0.000000
  70
    32
  0
VERTEX
  8
01
  5
1263E
 10
2487.96
 20
1113.31
 30
0.000000
  70
    32
  0
VERTEX
  8
01
  5
1263F
 10
2487.84
 20
1113.32
 30
0.000000
  70
    32
  0
VERTEX
  8
01
  5
12640
 10
2487.72
 20
1113.34
 30
0.000000
  70
    32
  0
VERTEX
  8
01
  5
12641
 10
2487.60
 20
1113.36
 30
0.000000
  70
    32
  0
VERTEX
  8
01
  5
12642
 10
2487.48
 20
1113.38
 30
0.000000
  70
    32
  0
VERTEX
  8
01
  5
12643
 10
2487.36
 20
1113.40
 30
0.000000
  70
    32
  0
VERTEX
  8
01
  5
12644
 10
2487.24
 20
1113.43
 30
0.000000
  70
    32
  0
VERTEX
  8
01
  5
12645
 10
2487.13
 20
1113.45
 30
0.000000
  70
    32
  0
VERTEX
  8
01
  5
12646
 10
2487.01
 20
1113.48
 30
0.000000
  70
    32
  0
VERTEX
  8
01
  5
12647
 10
2486.89
 20
1113.51
 30
0.000000
  70
    32
  0
VERTEX
  8
01
  5
12648
 10
2486.78
 20
1113.54
 30
0.000000
  70
    32
  0
VERTEX
  8
01
  5
12649
 10
2486.67
 20
1113.58
 30
0.000000
  70
    32
  0
VERTEX
  8
01
  5
1264A
 10
2486.56
 20
1113.61
 30
0.000000
  70
    32
  0
VERTEX
  8
01
  5
1264B
 10
2486.45
 20
1113.65
 30
0.000000
  70
    32
  0
VERTEX
  8
01
  5
1264C
 10
2486.34
 20
1113.69
 30
0.000000
  70
    32
  0
VERTEX
  8
01
  5
1264D
 10
2486.23
 20
1113.74
 30
0.000000
  70
    32
  0
VERTEX
  8
01
  5
1264E
 10
2486.12
 20
1113.78
 30
0.000000
  70
    32
  0
VERTEX
  8
01
  5
1264F
 10
2486.02
 20
1113.83
 30
0.000000
  70
    32
  0
VERTEX
  8
01
  5
12650
 10
2485.92
 20
1113.87
 30
0.000000
  70
    32
  0
VERTEX
  8
01
  5
12651
 10
2485.81
 20
1113.92
 30
0.000000
  70
    32
  0
VERTEX
  8
01
  5
12652
 10
2485.72
 20
1113.97
 30
0.000000
  70
    32
  0
VERTEX
  8
01
  5
12653
 10
2485.62
 20
1114.03
 30
0.000000
  70
    32
  0
VERTEX
  8
01
  5
12654
 10
2485.52
 20
1114.08
 30
0.000000
  70
    32
  0
VERTEX
  8
01
  5
12655
 10
2485.43
 20
1114.14
 30
0.000000
  70
    32
  0
VERTEX
  8
01
  5
12656
 10
2485.34
 20
1114.20
 30
0.000000
  70
    32
  0
VERTEX
  8
01
  5
12657
 10
2485.25
 20
1114.26
 30
0.000000
  70
    32
  0
VERTEX
  8
01
  5
12658
 10
2485.16
 20
1114.32
 30
0.000000
  70
    32
  0
VERTEX
  8
01
  5
12659
 10
2485.07
 20
1114.38
 30
0.000000
  70
    32
  0
VERTEX
  8
01
  5
1265A
 10
2484.99
 20
1114.44
 30
0.000000
  70
    32
  0
VERTEX
  8
01
  5
1265B
 10
2484.91
 20
1114.51
 30
0.000000
  70
    32
  0
VERTEX
  8
01
  5
1265C
 10
2484.83
 20
1114.58
 30
0.000000
  70
    32
  0
VERTEX
  8
01
  5
1265D
 10
2484.75
 20
1114.64
 30
0.000000
  70
    32
  0
VERTEX
  8
01
  5
1265E
 10
2484.68
 20
1114.71
 30
0.000000
  70
    32
  0
VERTEX
  8
01
  5
1265F
 10
2484.61
 20
1114.79
 30
0.000000
  70
    32
  0
VERTEX
  8
01
  5
12660
 10
2484.54
 20
1114.86
 30
0.000000
  70
    32
  0
VERTEX
  8
01
  5
12661
 10
2484.47
 20
1114.93
 30
0.000000
  70
    32
  0
VERTEX
  8
01
  5
12662
 10
2484.40
 20
1115.01
 30
0.000000
  70
    32
  0
VERTEX
  8
01
  5
12663
 10
2484.34
 20
1115.08
 30
0.000000
  70
    32
  0
VERTEX
  8
01
  5
12664
 10
2484.28
 20
1115.16
 30
0.000000
  70
    32
  0
VERTEX
  8
01
  5
12665
 10
2484.23
 20
1115.24
 30
0.000000
  70
    32
  0
VERTEX
  8
01
  5
12666
 10
2484.17
 20
1115.31
 30
0.000000
  70
    32
  0
VERTEX
  8
01
  5
12667
 10
2484.12
 20
1115.39
 30
0.000000
  70
    32
  0
VERTEX
  8
01
  5
12668
 10
2484.07
 20
1115.47
 30
0.000000
  70
    32
  0
VERTEX
  8
01
  5
12669
 10
2484.03
 20
1115.56
 30
0.000000
  70
    32
  0
VERTEX
  8
01
  5
1266A
 10
2483.99
 20
1115.64
 30
0.000000
  70
    32
  0
VERTEX
  8
01
  5
1266B
 10
2483.95
 20
1115.72
 30
0.000000
  70
    32
  0
VERTEX
  8
01
  5
1266C
 10
2483.91
 20
1115.80
 30
0.000000
  70
    32
  0
VERTEX
  8
01
  5
1266D
 10
2483.87
 20
1115.89
 30
0.000000
  70
    32
  0
VERTEX
  8
01
  5
1266E
 10
2483.84
 20
1115.97
 30
0.000000
  70
    32
  0
VERTEX
  8
01
  5
1266F
 10
2483.81
 20
1116.06
 30
0.000000
  70
    32
  0
VERTEX
  8
01
  5
12670
 10
2483.79
 20
1116.14
 30
0.000000
  70
    32
  0
VERTEX
  8
01
  5
12671
 10
2483.77
 20
1116.23
 30
0.000000
  70
    32
  0
VERTEX
  8
01
  5
12672
 10
2483.75
 20
1116.32
 30
0.000000
  70
    32
  0
VERTEX
  8
01
  5
12673
 10
2483.73
 20
1116.40
 30
0.000000
  70
    32
  0
VERTEX
  8
01
  5
12674
 10
2483.72
 20
1116.49
 30
0.000000
  70
    32
  0
VERTEX
  8
01
  5
12675
 10
2483.71
 20
1116.58
 30
0.000000
  70
    32
  0
VERTEX
  8
01
  5
12676
 10
2483.70
 20
1116.67
 30
0.000000
  70
    32
  0
VERTEX
  8
01
  5
12677
 10
2483.70
 20
1116.75
 30
0.000000
  70
    32
  0
VERTEX
  8
01
  5
12678
 10
2483.69
 20
1116.84
 30
0.000000
  70
    32
  0
SEQEND
  8
01
  5
12679
  0
LINE
  5
11373
  8
01
 10
2493.693500081024
 20
1129.703329316955
 30
0.0
 11
2493.693500081024
 21
1116.840169316954
 31
0.0
  0
LINE
  5
11374
  8
01
 10
2483.693500081024
 20
1129.703329316955
 30
0.0
 11
2483.693500081024
 21
1116.8401693169569
 31
0.0
  0
LINE
  5
11375
  8
01
 10
2479.6934850810248
 20
1163.271749316955
 30
0.0
 11
2478.6934850810239
 21
1164.271749316955
 31
0.0
  0
LINE
  5
11376
  8
01
 10
2481.0935020810248
 20
1163.3717293169541
 30
0.0
 11
2480.2935210810251
 21
1164.171709316955
 31
0.0
  0
LINE
  5
11377
  8
01
 10
2481.0935020810248
 20
1081.1717393169549
 30
0.0
 11
2480.293499081024
 21
1080.3717593169549
 31
0.0
  0
LINE
  5
11378
  8
01
 10
2479.6934470810238
 20
1081.2717193169549
 30
0.0
 11
2478.6934620810239
 21
1080.2717193169549
 31
0.0
  0
LINE
  5
11379
  8
01
 10
2482.693500081024
 20
1057.271749316955
 30
0.0
 11
2478.693500081024
 21
1057.271749316955
 31
0.0
  0
LINE
  5
1137A
  8
01
 10
2480.293506081025
 20
1057.271749316955
 30
0.0
 11
2480.293506081025
 21
1080.3717593169549
 31
0.0
  0
LINE
  5
1137B
  8
01
 10
2478.693500081024
 20
1057.271749316955
 30
0.0
 11
2478.693500081024
 21
1080.271749316955
 31
0.0
  0
LINE
  5
1137C
  8
01
 10
2479.693500081024
 20
1163.271749316955
 30
0.0
 11
2479.693500081024
 21
1081.271749316955
 31
0.0
  0
LINE
  5
1137D
  8
01
 10
2482.693500081024
 20
1187.271749316955
 30
0.0
 11
2478.693500081024
 21
1187.271749316955
 31
0.0
  0
LINE
  5
11380
  8
01
 10
2587.693500081024
 20
1181.271749316955
 30
0.0
 11
2587.693500081024
 21
1063.271749316955
 31
0.0
  0
LINE
  5
11381
  8
01
 10
2612.693500081024
 20
1181.271749316955
 30
0.0
 11
2612.693500081024
 21
1063.271749316955
 31
0.0
  0
ARC
  5
11382
  8
01
 10
2606.693500081024
 20
1063.271749316955
 30
0.0
 40
6.0
 50
270.0
 51
0.0
  0
ARC
  5
11383
  8
01
 10
2593.693500081024
 20
1063.271749316955
 30
0.0
 40
6.0
 50
180.0
 51
270.0
  0
LINE
  5
11384
  8
01
 10
2607.943500081024
 20
1129.703329316955
 30
0.0
 11
2607.943500081024
 21
1116.8401693169551
 31
0.0
  0
LINE
  5
11385
  8
01
 10
2606.943500081024
 20
1128.2717493169539
 30
0.0
 11
2606.943500081024
 21
1118.271749316955
 31
0.0
  0
LINE
  5
11386
  8
01
 10
2593.443500081024
 20
1128.2717493169539
 30
0.0
 11
2593.443500081024
 21
1118.271749316955
 31
0.0
  0
LINE
  5
11387
  8
01
 10
2592.443500081024
 20
1129.703329316955
 30
0.0
 11
2592.443500081024
 21
1116.8401693169551
 31
0.0
  0
ARC
  5
11388
  8
01
 10
2600.1935000810249
 20
1123.4717593169551
 30
0.0
 40
10.199999999999999
 50
220.55307999997561
 51
319.44692000002442
  0
LINE
  5
11389
  8
01
 10
2593.443500081024
 20
1118.271749316955
 30
0.0
 11
2606.943500081024
 21
1118.271749316955
 31
0.0
  0
LINE
  5
1138A
  8
01
 10
2593.443500081024
 20
1128.2717493169539
 30
0.0
 11
2606.943500081024
 21
1128.2717493169539
 31
0.0
  0
ARC
  5
1138B
  8
01
 10
2600.1935000810249
 20
1123.071739316955
 30
0.0
 40
10.199999999999999
 50
40.55308399998232
 51
139.44692000002431
  0
CIRCLE
  5
1138C
  8
01
 10
2600.1935000810249
 20
1065.271749316955
 30
0.0
 40
4.5
  0
CIRCLE
  5
1138D
  8
01
 10
2600.1935000810249
 20
1065.271749316955
 30
0.0
 40
2.75
  0
LINE
  5
1138E
  8
01
 10
2593.693500081024
 20
1057.271749316955
 30
0.0
 11
2606.693500081024
 21
1057.271749316955
 31
0.0
  0
ARC
  5
1138F
  8
01
 10
2606.693500081024
 20
1181.271749316955
 30
0.0
 40
6.0
 50
0.0
 51
90.0
  0
ARC
  5
11391
  8
01
 10
2593.693500081024
 20
1181.271749316955
 30
0.0
 40
6.0
 50
90.0
 51
180.0
  0
LINE
  5
11392
  8
01
 10
2593.693500081024
 20
1187.271749316955
 30
0.0
 11
2606.693500081024
 21
1187.271749316955
 31
0.0
  0
CIRCLE
  5
11393
  8
01
 10
2600.1935000810249
 20
1179.271749316955
 30
0.0
 40
4.5
  0
CIRCLE
  5
11394
  8
01
 10
2600.1935000810249
 20
1179.271749316955
 30
0.0
 40
2.75
  0
LINE
  5
11399
  8
01
 10
2720.0935060810239
 20
1187.271749316955
 30
0.0
 11
2720.0935060810239
 21
1164.1717793169551
 31
0.0
  0
LINE
  5
1139A
  8
01
 10
2721.6934960810249
 20
1187.271749316955
 30
0.0
 11
2721.6934960810249
 21
1164.271749316955
 31
0.0
  0
LINE
  5
1139B
  8
01
 10
2719.293506081025
 20
1187.271749316955
 30
0.0
 11
2719.293506081025
 21
1057.271749316955
 31
0.0
  0
LINE
  5
1139C
  8
01
 10
2717.6934960810249
 20
1187.271749316955
 30
0.0
 11
2717.6934960810249
 21
1057.271749316955
 31
0.0
  0
LINE
  5
1139D
  8
01
 10
2720.693496081024
 20
1085.271749316955
 30
0.0
 11
2745.108543250883
 21
1085.271749316955
 31
0.0
  0
LINE
  5
1139E
  8
01
 10
2720.6935060810242
 20
1163.271749316955
 30
0.0
 11
2721.6935060810242
 21
1164.271749316955
 31
0.0
  0
LINE
  5
1139F
  8
01
 10
2719.2934960810248
 20
1163.3717293169541
 30
0.0
 11
2720.0935060810239
 21
1164.1717793169551
 31
0.0
  0
LINE
  5
113A0
  8
01
 10
2710.6934960810249
 20
1133.271749316955
 30
0.0
 11
2717.6934960810249
 21
1133.271749316955
 31
0.0
  0
LINE
  5
113A1
  8
01
 10
2710.6934960810249
 20
1113.271749316955
 30
0.0
 11
2717.6934960810249
 21
1113.271749316955
 31
0.0
  0
LINE
  5
113A2
  8
01
 10
2706.7755960810241
 20
1116.465479316955
 30
0.0
 11
2717.6934960810249
 21
1116.465479316955
 31
0.0
  0
LINE
  5
113A3
  8
01
 10
2706.7755960810241
 20
1130.0780293169551
 30
0.0
 11
2717.6934960810249
 21
1130.0780293169551
 31
0.0
  0
LINE
  5
113A4
  8
01
 10
2706.6934960810249
 20
1129.271749316955
 30
0.0
 11
2706.6934960810249
 21
1117.271749316955
 31
0.0
  0
ARC
  5
113A5
  8
01
 10
2710.6934960810249
 20
1117.271749316955
 30
0.0
 40
4.0
 50
179.999989999999
 51
270.0
  0
ARC
  5
113A6
  8
01
 10
2710.6934960810249
 20
1129.271749316955
 30
0.0
 40
4.0
 50
90.000002999984659
 51
180.000010000001
  0
LINE
  5
113A7
  8
01
 10
2719.2934960810248
 20
1081.1717393169549
 30
0.0
 11
2720.0935060810239
 21
1080.3717593169549
 31
0.0
  0
LINE
  5
113A8
  8
01
 10
2720.693546081025
 20
1081.2717193169549
 30
0.0
 11
2721.6935260810242
 21
1080.271749316955
 31
0.0
  0
LINE
  5
113A9
  8
01
 10
2712.6934960810249
 20
1065.271749316955
 30
0.0
 11
2726.6934960810249
 21
1065.271749316955
 31
0.0
  0
LINE
  5
113AA
  8
01
 10
2717.6934960810249
 20
1057.271749316955
 30
0.0
 11
2721.6934960810249
 21
1057.271749316955
 31
0.0
  0
LINE
  5
113AB
  8
01
 10
2720.0935060810239
 20
1057.271749316955
 30
0.0
 11
2720.0935060810239
 21
1080.3717593169549
 31
0.0
  0
LINE
  5
113AC
  8
01
 10
2721.6934960810249
 20
1057.271749316955
 30
0.0
 11
2721.6934960810249
 21
1080.271749316955
 31
0.0
  0
LINE
  5
113AD
  8
01
 10
2720.693496081024
 20
1163.271749316955
 30
0.0
 11
2720.693496081024
 21
1081.271749316955
 31
0.0
  0
LINE
  5
113AE
  8
01
 10
2786.6934960810249
 20
1159.771749316955
 30
0.0
 11
2786.6934960810249
 21
1123.3681291109201
 31
0.0
  0
LINE
  5
113B0
  8
01
 10
2717.6934960810249
 20
1187.271749316955
 30
0.0
 11
2721.6934960810249
 21
1187.271749316955
 31
0.0
  0
LINE
  5
113B1
  8
01
 10
2712.6934960810249
 20
1179.271749316955
 30
0.0
 11
2726.6934960810249
 21
1179.271749316955
 31
0.0
  0
LINE
  5
113B2
  8
01
 10
2721.694380263084
 20
1384.2717493159259
 30
0.0
 11
2787.6943802630849
 21
1384.2717493159259
 31
0.0
  0
LINE
  5
113B3
  8
01
 10
2721.694380263084
 20
1382.6717793159271
 30
0.0
 11
2787.6943802630849
 21
1382.6717793159271
 31
0.0
  0
LINE
  5
113B4
  8
01
 10
2719.294390263085
 20
1365.2717493159259
 30
0.0
 11
2787.6943802630849
 21
1365.2717493159259
 31
0.0
  0
LINE
  5
113B5
  8
01
 10
2720.894370263085
 20
1379.7717493159259
 30
0.0
 11
2721.694380263084
 21
1380.571769315927
 31
0.0
  0
LINE
  5
113B6
  8
01
 10
2721.694380263084
 20
1385.2717493159259
 30
0.0
 11
2721.694380263084
 21
1380.571769315927
 31
0.0
  0
LINE
  5
113B7
  8
01
 10
2719.294390263085
 20
1379.7717793159261
 30
0.0
 11
2720.0943802630859
 21
1380.5717393159259
 31
0.0
  0
LINE
  5
113B8
  8
01
 10
2706.6943802630849
 20
1367.0217493159259
 30
0.0
 11
2717.6943802630849
 21
1367.0217493159259
 31
0.0
  0
LINE
  5
113B9
  8
01
 10
2706.6943802630849
 20
1367.0217493159259
 30
0.0
 11
2706.6943802630849
 21
1369.0217493159259
 31
0.0
  0
LINE
  5
113BA
  8
01
 10
2717.6943802630849
 20
1387.2717493159259
 30
0.0
 11
2719.294390263085
 21
1387.2717493159259
 31
0.0
  0
LINE
  5
113BB
  8
01
 10
2719.294390263085
 20
1387.2717493159259
 30
0.0
 11
2719.294390263085
 21
1379.7717493159259
 31
0.0
  0
LINE
  5
113BC
  8
01
 10
2720.0943902630861
 20
1385.2717493159259
 30
0.0
 11
2720.0943902630861
 21
1380.571769315927
 31
0.0
  0
LINE
  5
113BD
  8
01
 10
2719.294390263085
 20
1385.2717493159259
 30
0.0
 11
2721.694380263084
 21
1385.2717493159259
 31
0.0
  0
LINE
  5
113BE
  8
01
 10
2721.694380263084
 20
1368.971759315926
 30
0.0
 11
2721.694380263084
 21
1365.2717493159259
 31
0.0
  0
LINE
  5
113BF
  8
01
 10
2720.8943902630849
 20
1369.7717793159261
 30
0.0
 11
2721.694380263084
 21
1368.971759315926
 31
0.0
  0
LINE
  5
113C0
  8
01
 10
2721.694380263084
 20
1366.8717593159261
 30
0.0
 11
2726.294390263085
 21
1366.8717593159261
 31
0.0
  0
LINE
  5
113C1
  8
01
 10
2719.2943802630848
 20
1369.7717793159261
 30
0.0
 11
2720.0943902630861
 21
1368.971759315926
 31
0.0
  0
LINE
  5
113C2
  8
01
 10
2719.294390263085
 20
1369.7717493159259
 30
0.0
 11
2719.294390263085
 21
1362.2717493159259
 31
0.0
  0
LINE
  5
113C3
  8
01
 10
2717.6943802630849
 20
1362.2717493159259
 30
0.0
 11
2719.294390263085
 21
1362.2717493159259
 31
0.0
  0
LINE
  5
113C4
  8
01
 10
2720.0943902630861
 20
1368.971759315926
 30
0.0
 11
2720.0943902630861
 21
1365.2717493159259
 31
0.0
  0
LINE
  5
113C5
  8
01
 10
2717.6943802630849
 20
1394.7717493159259
 30
0.0
 11
2717.6943802630849
 21
1354.7717493159259
 31
0.0
  0
LINE
  5
113C6
  8
01
 10
2726.294390263085
 20
1382.6717793159271
 30
0.0
 11
2726.294390263085
 21
1365.2717493159259
 31
0.0
  0
LINE
  5
113C7
  8
01
 10
2720.8943802630852
 20
1379.7717493159259
 30
0.0
 11
2720.8943802630852
 21
1369.7717493159259
 31
0.0
  0
LINE
  5
113C8
  8
01
 10
2719.294390263085
 20
1379.7717493159259
 30
0.0
 11
2719.294390263085
 21
1369.7717493159259
 31
0.0
  0
ARC
  5
113C9
  8
01
 10
2750.3638802630849
 20
1344.6706693159269
 30
0.0
 40
50.0
 50
130.79769000003111
 51
150.85500000002861
  0
LINE
  5
113CA
  8
01
 10
2750.0557288093169
 20
1340.271718315927
 30
0.0
 11
2765.6783654207679
 21
1340.271718315927
 31
0.0
  0
LINE
  5
113CB
  8
01
 10
2786.0943802630859
 20
1382.6717793159271
 30
0.0
 11
2786.0943802630859
 21
1365.2717493159259
 31
0.0
  0
LINE
  5
113CC
  8
01
 10
2787.6943802630849
 20
1384.2717493159259
 30
0.0
 11
2787.6943802630849
 21
1365.2717493159259
 31
0.0
  0
LINE
  5
113CD
  8
01
 10
2750.0557288093169
 20
1409.2717803159251
 30
0.0
 11
2765.6783654207679
 21
1409.2717803159251
 31
0.0
  0
POINT
  5
113CE
  8
01
 10
2620.193500081024
 20
1101.271749316955
 30
0.0
  0
LINE
  5
113CF
  8
01
 10
2620.193500081024
 20
1076.271749316955
 30
0.0
 11
2620.193500081024
 21
1126.2716493169539
 31
0.0
  0
LINE
  5
113D0
  8
01
 10
2487.693504081024
 20
1065.271749316955
 30
0.0
 11
2473.693504081024
 21
1065.271749316955
 31
0.0
  0
LINE
  5
113D1
  8
01
 10
2487.693504081024
 20
1179.271749316955
 30
0.0
 11
2473.693504081024
 21
1179.271749316955
 31
0.0
  0
LINE
  5
113D2
  8
01
 10
2606.693500081024
 20
1179.271749316955
 30
0.0
 11
2593.693500081024
 21
1179.271749316955
 31
0.0
  0
LINE
  5
113D3
  8
01
 10
2600.1935000810249
 20
1185.771749316955
 30
0.0
 11
2600.1935000810249
 21
1172.771749316955
 31
0.0
  0
LINE
  5
113D4
  8
01
 10
2606.693500081024
 20
1065.271749316955
 30
0.0
 11
2593.693500081024
 21
1065.271749316955
 31
0.0
  0
LINE
  5
113D5
  8
01
 10
2600.1935000810249
 20
1071.771749316955
 30
0.0
 11
2600.1935000810249
 21
1058.771749316955
 31
0.0
  0
LINE
  5
113D6
  8
01
 10
2461.693504081024
 20
1101.271749316955
 30
0.0
 11
2401.693504081024
 21
1101.271749316955
 31
0.0
  0
LINE
  5
113D7
  8
01
 10
2431.693504081024
 20
1131.271749316955
 30
0.0
 11
2431.693504081024
 21
1071.271749316955
 31
0.0
  0
LINE
  5
113D8
  8
01
 10
2738.6934960810249
 20
1101.271749316955
 30
0.0
 11
2798.6934960810249
 21
1101.271749316955
 31
0.0
  0
LINE
  5
113D9
  8
01
 10
2768.693496081024
 20
1131.271749316955
 30
0.0
 11
2768.693496081024
 21
1071.271749316955
 31
0.0
  0
LINE
  5
11404
  8
01
 10
2550.193500081024
 20
1101.271749316955
 30
0.0
 11
2585.193500081024
 21
1101.271749316955
 31
0.0
  0
LINE
  5
11405
  8
01
 10
2615.193500081024
 20
1101.271749316955
 30
0.0
 11
2650.193500081024
 21
1101.271749316955
 31
0.0
  0
LINE
  5
1140B
  8
01
 10
2717.6943802630849
 20
1354.7717493159259
 30
0.0
 11
2871.4487604181159
 21
1354.7717493159259
 31
0.0
  0
LINE
  5
1140C
  8
01
 10
2717.6943802630849
 20
1394.7717493159259
 30
0.0
 11
2871.4487604181159
 21
1394.7717493159259
 31
0.0
  0
LINE
  5
1140D
  8
01
 10
2768.6936124207691
 20
1359.7717493159259
 30
0.0
 11
2768.6936124207691
 21
1317.814384812669
 31
0.0
  0
LINE
  5
1157B
  8
01
  6
BYBLOCK
 10
2434.693504081024
 20
1159.771749316955
 30
0.0
 11
2428.693504081024
 21
1159.771749316955
 31
0.0
  0
LINE
  5
1157C
  8
01
  6
BYBLOCK
 10
2421.6935040810231
 20
1159.771749316955
 30
0.0
 11
2413.693516081024
 21
1159.771749316955
 31
0.0
  0
LINE
  5
1157D
  8
01
  6
BYBLOCK
 10
2434.693504081024
 20
1158.7717493169559
 30
0.0
 11
2434.693504081024
 21
1159.771749316955
 31
0.0
  0
LINE
  5
1157E
  8
01
  6
BYBLOCK
 10
2428.693504081024
 20
1158.7717493169539
 30
0.0
 11
2428.693504081024
 21
1159.771749316955
 31
0.0
  0
ARC
  5
1157F
  8
01
  6
BYBLOCK
 10
2438.193504081024
 20
1158.7717493169539
 30
0.0
 40
3.5
 50
179.99999999997391
 51
0.0
  0
ARC
  5
11580
  8
01
  6
BYBLOCK
 10
2425.193504081024
 20
1158.7717493169539
 30
0.0
 40
3.5
 50
180.0
 51
0.0
  0
CIRCLE
  5
11581
  8
01
  6
BYBLOCK
 10
2431.6935040813119
 20
1151.271749316666
 30
0.0
 40
6.0
  0
LINE
  5
11582
  8
01
  6
BYBLOCK
 10
2441.693504081024
 20
1159.771749316955
 30
0.0
 11
2479.693504081024
 21
1159.771749316955
 31
0.0
  0
LINE
  5
11583
  8
01
  6
BYBLOCK
 10
2441.693504081024
 20
1158.7717493169559
 30
0.0
 11
2441.693504081024
 21
1159.771749316955
 31
0.0
  0
LINE
  5
11584
  8
01
  6
BYBLOCK
 10
2421.6935040810231
 20
1158.7717493169539
 30
0.0
 11
2421.6935040810231
 21
1159.771749316955
 31
0.0
  0
LINE
  5
11585
  8
01
  6
BYBLOCK
 10
2431.6935040813119
 20
1147.7217494099841
 30
0.0
 11
2428.1435041746308
 21
1151.271749316666
 31
0.0
  0
LINE
  5
11586
  8
01
  6
BYBLOCK
 10
2428.1435041746308
 20
1151.271749316666
 30
0.0
 11
2431.6935040813119
 21
1154.8217492233471
 31
0.0
  0
LINE
  5
11587
  8
01
  6
BYBLOCK
 10
2435.2435039879938
 20
1151.271749316666
 30
0.0
 11
2431.6935040813119
 21
1147.7217494099841
 31
0.0
  0
LINE
  5
11588
  8
01
  6
BYBLOCK
 10
2431.6935040813119
 20
1154.8217492233471
 30
0.0
 11
2435.2435039879938
 21
1151.271749316666
 31
0.0
  0
LINE
  5
11589
  8
01
  6
BYBLOCK
 10
2765.6934960810249
 20
1159.771749316955
 30
0.0
 11
2771.6934960810249
 21
1159.771749316955
 31
0.0
  0
LINE
  5
1158A
  8
01
  6
BYBLOCK
 10
2778.6934960810249
 20
1159.771749316955
 30
0.0
 11
2786.6934960810249
 21
1159.771749316955
 31
0.0
  0
LINE
  5
1158B
  8
01
  6
BYBLOCK
 10
2765.6934960810249
 20
1158.7717493169559
 30
0.0
 11
2765.6934960810249
 21
1159.771749316955
 31
0.0
  0
LINE
  5
1158C
  8
01
  6
BYBLOCK
 10
2771.6934960810249
 20
1158.7717493169539
 30
0.0
 11
2771.6934960810249
 21
1159.771749316955
 31
0.0
  0
ARC
  5
1158D
  8
01
  6
BYBLOCK
 10
2762.1934960810249
 20
1158.7717493169539
 30
0.0
 40
3.5
 50
179.99999999997391
 51
0.0
  0
ARC
  5
1158E
  8
01
  6
BYBLOCK
 10
2775.1934960810249
 20
1158.7717493169539
 30
0.0
 40
3.5
 50
180.0
 51
0.0
  0
CIRCLE
  5
1158F
  8
01
  6
BYBLOCK
 10
2768.6934960807348
 20
1151.271749316666
 30
0.0
 40
6.0
  0
LINE
  5
11590
  8
01
  6
BYBLOCK
 10
2758.6934960810249
 20
1159.771749316955
 30
0.0
 11
2720.693496081024
 21
1159.771749316955
 31
0.0
  0
LINE
  5
11591
  8
01
  6
BYBLOCK
 10
2758.693496081024
 20
1158.7717493169559
 30
0.0
 11
2758.6934960810249
 21
1159.771749316955
 31
0.0
  0
LINE
  5
11592
  8
01
  6
BYBLOCK
 10
2778.6934960810249
 20
1158.7717493169539
 30
0.0
 11
2778.6934960810249
 21
1159.771749316955
 31
0.0
  0
LINE
  5
11593
  8
01
  6
BYBLOCK
 10
2768.6934960807348
 20
1147.7217494099841
 30
0.0
 11
2772.2434959874172
 21
1151.271749316666
 31
0.0
  0
LINE
  5
11594
  8
01
  6
BYBLOCK
 10
2772.2434959874172
 20
1151.271749316666
 30
0.0
 11
2768.6934960807348
 21
1154.8217492233471
 31
0.0
  0
LINE
  5
11595
  8
01
  6
BYBLOCK
 10
2765.1434961740538
 20
1151.271749316666
 30
0.0
 11
2768.6934960807348
 21
1147.7217494099841
 31
0.0
  0
LINE
  5
11596
  8
01
  6
BYBLOCK
 10
2768.6934960807348
 20
1154.8217492233471
 30
0.0
 11
2765.1434961740538
 21
1151.271749316666
 31
0.0
  0
LINE
  5
11597
  8
01
 10
2780.0053843482769
 20
1151.271749316666
 30
0.0
 11
2757.381607813194
 21
1151.271749316666
 31
0.0
  0
LINE
  5
11598
  8
01
 10
2768.6934960807348
 20
1162.583637584208
 30
0.0
 11
2768.6934960807348
 21
1139.9598610491239
 31
0.0
  0
LINE
  5
11599
  8
01
  6
BYBLOCK
 10
2774.6943802627961
 20
1385.0217493159259
 30
0.0
 11
2762.6943802627952
 21
1385.0217493159259
 31
0.0
  0
LINE
  5
1159A
  8
01
  6
BYBLOCK
 10
2762.6943802627952
 20
1364.5217493159259
 30
0.0
 11
2774.6943802627961
 21
1364.5217493159259
 31
0.0
  0
LINE
  5
1159B
  8
01
  6
BYBLOCK
 10
2762.6943802627952
 20
1364.5217493159259
 30
0.0
 11
2762.6943802627952
 21
1365.2717493159259
 31
0.0
  0
LINE
  5
1159C
  8
01
  6
BYBLOCK
 10
2762.6943802627952
 20
1384.2717493159259
 30
0.0
 11
2762.6943802627952
 21
1385.0217493159259
 31
0.0
  0
LINE
  5
1159D
  8
01
  6
BYBLOCK
 10
2774.6943802627961
 20
1364.5217493159259
 30
0.0
 11
2774.6943802627961
 21
1365.2717493159259
 31
0.0
  0
LINE
  5
1159E
  8
01
  6
BYBLOCK
 10
2774.6943802627961
 20
1384.2717493159259
 30
0.0
 11
2774.6943802627961
 21
1385.0217493159259
 31
0.0
  0
LINE
  5
1198D
  8
01
 10
2768.6936124207691
 20
1389.7717493159259
 30
0.0
 11
2768.6936124207691
 21
1431.7291138191831
 31
0.0
  0
LINE
  5
11D5A
  8
01
 10
2740.1936124207682
 20
1394.7717493159259
 30
0.0
 11
2740.1936124207682
 21
1398.3042429079569
 31
0.0
  0
ARC
  5
11D5B
  8
01
 10
2740.6936124207682
 20
1398.3042429079569
 30
0.0
 40
0.5
 50
123.7052957882927
 51
180.0
  0
LINE
  5
11D5C
  8
01
 10
2743.9127154845751
 20
1402.7050959710821
 30
0.0
 11
2743.7080346281132
 21
1401.7615101872609
 31
0.0
  0
LINE
  5
11D5D
  8
01
 10
2797.1936124207709
 20
1394.7717493159259
 30
0.0
 11
2797.19361242077
 21
1398.313952966635
 31
0.0
  0
LINE
  5
11D5F
  8
01
 10
2742.6521572937472
 20
1400.21172325662
 30
0.0
 11
2740.4161517599091
 21
1398.720194325404
 31
0.0
  0
ARC
  5
11D60
  8
01
 10
2741.264853989454
 20
1402.2914803438539
 30
0.0
 40
2.5
 50
303.7052957882928
 51
347.7611167116894
  0
ARC
  5
11D61
  8
01
 10
2796.69361242077
 20
1398.313952966635
 30
0.0
 40
0.5
 50
0.0
 51
56.420016547950397
  0
ARC
  5
11D62
  8
01
 10
2758.1642489671558
 20
1203.57439830627
 30
0.0
 40
200.0
 50
89.705107790683684
 51
93.955803299356518
  0
ARC
  5
11D63
  8
01
 10
2744.4013516123068
 20
1402.5991019397629
 30
0.0
 40
0.5
 50
93.955803299356518
 51
167.7611167116427
  0
ARC
  5
11D64
  8
01
 10
2779.2229758743861
 20
1203.57439830627
 30
0.0
 40
200.0
 50
86.044196700643468
 51
90.294892209316316
  0
LINE
  5
11D65
  8
01
 10
2740.271190449635
 20
1398.5717493159259
 30
0.0
 11
2797.122029323205
 21
1398.5717493159259
 31
0.0
  0
LINE
  5
11D66
  8
01
 10
2743.2508719590478
 20
1400.7730164409411
 30
0.0
 11
2794.119758715764
 21
1400.7730164409411
 31
0.0
  0
LINE
  5
11D67
  8
01
 10
2744.238242882293
 20
1403.0717493159259
 30
0.0
 11
2793.1489819592489
 21
1403.0717493159259
 31
0.0
  0
ARC
  5
11D68
  8
01
 10
2792.9858814123149
 20
1402.5991019397629
 30
0.0
 40
0.5
 50
12.238883288357281
 51
86.044196700643468
  0
LINE
  5
11D69
  8
01
 10
2794.735075730875
 20
1400.21172325662
 30
0.0
 11
2796.9710812647131
 21
1398.720194325404
 31
0.0
  0
ARC
  5
11D6A
  8
01
 10
2796.1223790351678
 20
1402.2914803438539
 30
0.0
 40
2.5
 50
192.23888328831049
 51
236.29470421170731
  0
LINE
  5
11D6B
  8
01
 10
2793.4745175400471
 20
1402.7050959710821
 30
0.0
 11
2793.679198396509
 21
1401.7615101872609
 31
0.0
  0
LINE
  5
11D6C
  8
01
 10
2740.1936124207682
 20
1394.7717493159259
 30
0.0
 11
2797.1936124207709
 21
1394.7717493159259
 31
0.0
  0
LINE
  5
11D6D
  8
01
 10
2580.1937327605142
 20
1129.7716993169561
 30
0.0
 11
2576.6612391684821
 21
1129.7716993169561
 31
0.0
  0
ARC
  5
11D6E
  8
01
 10
2576.6612391684821
 20
1129.2716993169561
 30
0.0
 40
0.5
 50
90.0
 51
146.29470421170731
  0
LINE
  5
11D6F
  8
01
 10
2572.2603861053572
 20
1126.0525962531481
 30
0.0
 11
2573.2039718891788
 21
1126.25727710961
 31
0.0
  0
LINE
  5
11D70
  8
01
 10
2580.1937327605142
 20
1072.7716993169529
 30
0.0
 11
2576.651529109804
 21
1072.7716993169529
 31
0.0
  0
LINE
  5
11D72
  8
01
 10
2574.7537588198188
 20
1127.3131544439771
 30
0.0
 11
2576.2452877510359
 21
1129.549159977814
 31
0.0
  0
ARC
  5
11D73
  8
01
 10
2572.674001732586
 20
1128.7004577482689
 30
0.0
 40
2.5
 50
282.23888328830537
 51
326.2947042117072
  0
ARC
  5
11D74
  8
01
 10
2576.651529109804
 20
1073.2716993169529
 30
0.0
 40
0.5
 50
213.57998345202159
 51
270.0
  0
ARC
  5
11D75
  8
01
 10
2771.3910837701701
 20
1111.8010627705669
 30
0.0
 40
200.0
 50
176.0441967006694
 51
180.29489220931629
  0
ARC
  5
11D76
  8
01
 10
2572.3663801366761
 20
1125.563960125417
 30
0.0
 40
0.5
 50
102.23888328835871
 51
176.0441967006694
  0
ARC
  5
11D77
  8
01
 10
2771.3910837701701
 20
1090.742335863338
 30
0.0
 40
200.0
 50
179.70510779065759
 51
183.95580329933051
  0
LINE
  5
11D78
  8
01
 10
2576.3937327605131
 20
1129.6941212880879
 30
0.0
 11
2576.3937327605131
 21
1072.843282414517
 31
0.0
  0
LINE
  5
11D79
  8
01
 10
2574.192465635499
 20
1126.714439778676
 30
0.0
 11
2574.192465635499
 21
1075.8455530219589
 31
0.0
  0
LINE
  5
11D7A
  8
01
 10
2571.893732760514
 20
1125.7270688554299
 30
0.0
 11
2571.893732760514
 21
1076.816329778474
 31
0.0
  0
ARC
  5
11D7B
  8
01
 10
2572.3663801366761
 20
1076.979430325408
 30
0.0
 40
0.5
 50
183.95580329933051
 51
257.76111671164119
  0
LINE
  5
11D7C
  8
01
 10
2574.7537588198188
 20
1075.2302360068479
 30
0.0
 11
2576.2452877510359
 21
1072.9942304730109
 31
0.0
  0
ARC
  5
11D7D
  8
01
 10
2572.674001732586
 20
1073.8429327025549
 30
0.0
 40
2.5
 50
33.70529578829273
 51
77.761116711694569
  0
LINE
  5
11D7E
  8
01
 10
2572.2603861053572
 20
1076.4907941976769
 30
0.0
 11
2573.2039718891788
 21
1076.286113341215
 31
0.0
  0
LINE
  5
11D7F
  8
01
 10
2580.1937327605142
 20
1129.7716993169561
 30
0.0
 11
2580.1937327605142
 21
1072.7716993169529
 31
0.0
  0
LINE
  5
11DA3
  8
01
 10
2740.1937282776571
 20
1354.7717493159259
 30
0.0
 11
2740.1937282776571
 21
1351.239255723895
 31
0.0
  0
ARC
  5
11DA4
  8
01
 10
2740.6937282776571
 20
1351.239255723895
 30
0.0
 40
0.5
 50
180.0
 51
236.29470421170731
  0
LINE
  5
11DA5
  8
01
 10
2743.9128313414649
 20
1346.83840266077
 30
0.0
 11
2743.708150485003
 21
1347.7819884445919
 31
0.0
  0
LINE
  5
11DA6
  8
01
 10
2797.1937282776598
 20
1354.7717493159259
 30
0.0
 11
2797.1937282776589
 21
1351.2295456652171
 31
0.0
  0
LINE
  5
11DA7
  8
01
 10
2778.193728277653
 20
1345.9717493159239
 30
0.0
 11
2759.1937282776639
 21
1345.9717493159289
 31
0.0
  0
LINE
  5
11DA8
  8
01
 10
2742.6522731506361
 20
1349.3317753752319
 30
0.0
 11
2740.4162676167989
 21
1350.8233043064481
 31
0.0
  0
ARC
  5
11DA9
  8
01
 10
2741.2649698463429
 20
1347.252018287998
 30
0.0
 40
2.5
 50
12.238883288310539
 51
56.294704211707277
  0
ARC
  5
11DAA
  8
01
 10
2796.6937282776598
 20
1351.2295456652171
 30
0.0
 40
0.5
 50
303.57998345204959
 51
0.0
  0
ARC
  5
11DAB
  8
01
 10
2758.1643648240461
 20
1545.9691003255821
 30
0.0
 40
200.0
 50
266.0441967006434
 51
270.29489220931629
  0
ARC
  5
11DAC
  8
01
 10
2744.4014674691962
 20
1346.944396692089
 30
0.0
 40
0.5
 50
192.2388832883573
 51
266.0441967006434
  0
ARC
  5
11DAD
  8
01
 10
2779.223091731275
 20
1545.9691003255821
 30
0.0
 40
200.0
 50
269.70510779063159
 51
273.95580329935649
  0
LINE
  5
11DAE
  8
01
 10
2740.2713063065248
 20
1350.971749315926
 30
0.0
 11
2797.1221451800948
 21
1350.971749315926
 31
0.0
  0
LINE
  5
11DAF
  8
01
 10
2743.2509878159372
 20
1348.770482190911
 30
0.0
 11
2794.1198745726542
 21
1348.770482190911
 31
0.0
  0
LINE
  5
11DB0
  8
01
 10
2744.2383587391819
 20
1346.471749315926
 30
0.0
 11
2793.1490978161378
 21
1346.471749315926
 31
0.0
  0
ARC
  5
11DB1
  8
01
 10
2792.9859972692038
 20
1346.944396692089
 30
0.0
 40
0.5
 50
273.95580329935649
 51
347.76111671164273
  0
LINE
  5
11DB2
  8
01
 10
2794.7351915877639
 20
1349.3317753752319
 30
0.0
 11
2796.971197121602
 21
1350.8233043064481
 31
0.0
  0
ARC
  5
11DB3
  8
01
 10
2796.1224948920571
 20
1347.252018287998
 30
0.0
 40
2.5
 50
123.7052957882927
 51
167.7611167116894
  0
LINE
  5
11DB4
  8
01
 10
2793.474633396936
 20
1346.83840266077
 30
0.0
 11
2793.6793142533979
 21
1347.7819884445919
 31
0.0
  0
LINE
  5
11DB5
  8
01
 10
2740.1937282776571
 20
1354.7717493159259
 30
0.0
 11
2797.1937282776598
 21
1354.7717493159259
 31
0.0
  0
LINE
  5
11DB6
  8
01
 10
2620.193500081024
 20
1129.7716993169561
 30
0.0
 11
2623.7259936730552
 21
1129.7716993169561
 31
0.0
  0
ARC
  5
11DB7
  8
01
 10
2623.7259936730552
 20
1129.2716993169561
 30
0.0
 40
0.5
 50
33.70529578829273
 51
90.0
  0
LINE
  5
11DB8
  8
01
 10
2628.1268467361801
 20
1126.0525962531481
 30
0.0
 11
2627.183260952359
 21
1126.25727710961
 31
0.0
  0
LINE
  5
11DB9
  8
01
 10
2620.193500081024
 20
1072.7716993169529
 30
0.0
 11
2623.7357037317338
 21
1072.771699316954
 31
0.0
  0
LINE
  5
11DBA
  8
01
 10
2628.993500081026
 20
1091.7716993169599
 30
0.0
 11
2628.993500081021
 21
1110.771699316949
 31
0.0
  0
LINE
  5
11DBB
  8
01
 10
2625.633474021718
 20
1127.3131544439771
 30
0.0
 11
2624.1419450905032
 21
1129.549159977814
 31
0.0
  0
ARC
  5
11DBC
  8
01
 10
2627.7132311089522
 20
1128.7004577482701
 30
0.0
 40
2.5
 50
213.70529578829269
 51
257.76111671169463
  0
ARC
  5
11DBD
  8
01
 10
2623.7357037317338
 20
1073.2716993169529
 30
0.0
 40
0.5
 50
270.0
 51
326.4200165479715
  0
ARC
  5
11DBE
  8
01
 10
2428.9961490713681
 20
1111.8010627705669
 30
0.0
 40
200.0
 50
359.70510779068371
 51
3.9558032993305372
  0
ARC
  5
11DBF
  8
01
 10
2628.0208527048621
 20
1125.563960125417
 30
0.0
 40
0.5
 50
3.9558032993305372
 51
77.76111671164125
  0
ARC
  5
11DC0
  8
01
 10
2428.9961490713681
 20
1090.742335863338
 30
0.0
 40
200.0
 50
356.04419670066949
 51
0.2948922093423577
  0
LINE
  5
11DC1
  8
01
 10
2623.9935000810242
 20
1129.694121288089
 30
0.0
 11
2623.9935000810242
 21
1072.8432824145179
 31
0.0
  0
LINE
  5
11DC2
  8
01
 10
2626.1947672060392
 20
1126.714439778676
 30
0.0
 11
2626.1947672060392
 21
1075.8455530219601
 31
0.0
  0
LINE
  5
11DC3
  8
01
 10
2628.4935000810242
 20
1125.7270688554299
 30
0.0
 11
2628.4935000810242
 21
1076.8163297784749
 31
0.0
  0
ARC
  5
11DC4
  8
01
 10
2628.0208527048621
 20
1076.9794303254091
 30
0.0
 40
0.5
 50
282.23888328835869
 51
356.04419670066949
  0
LINE
  5
11DC5
  8
01
 10
2625.633474021718
 20
1075.2302360068479
 30
0.0
 11
2624.1419450905032
 21
1072.9942304730109
 31
0.0
  0
ARC
  5
11DC6
  8
01
 10
2627.7132311089522
 20
1073.8429327025549
 30
0.0
 40
2.5
 50
102.2388832883054
 51
146.29470421170731
  0
LINE
  5
11DC7
  8
01
 10
2628.1268467361801
 20
1076.4907941976769
 30
0.0
 11
2627.183260952359
 21
1076.286113341215
 31
0.0
  0
LINE
  5
11DC8
  8
01
 10
2620.193500081024
 20
1129.7716993169561
 30
0.0
 11
2620.193500081024
 21
1072.7716993169529
 31
0.0
  0
ARC
  5
11DC9
  8
01
 10
2768.6934960810022
 20
1101.271749316968
 30
0.0
 40
28.499999999989321
 50
22.31295992861185
 51
337.68704007133113
  0
ARC
  5
11DCA
  8
01
 10
2768.693496081024
 20
1101.271749316955
 30
0.0
 40
24.700000000002781
 50
26.115671078293801
 51
333.88432892170619
  0
ARC
  5
11DCB
  8
01
 10
2768.693496081024
 20
1101.271749316955
 30
0.0
 40
25.200000000017781
 50
25.54215492002961
 51
334.45784507997041
  0
LINE
  5
11E0D
  8
01
 10
2778.193728277653
 20
1403.5717493159279
 30
0.0
 11
2759.1937282776639
 21
1403.571749315922
 31
0.0
  0
LINE
  5
11E29
  8
01
 10
2571.3937327605149
 20
1091.7716993169599
 30
0.0
 11
2571.3937327605208
 21
1110.771699316949
 31
0.0
  0
ARC
  5
11E2A
  8
01
 10
2431.693616420795
 20
1101.271749316968
 30
0.0
 40
28.499999999989321
 50
202.31296298139929
 51
157.68703701865931
  0
ARC
  5
11E2B
  8
01
 10
2431.6936164207732
 20
1101.271749316955
 30
0.0
 40
24.700000000002781
 50
206.1156747110694
 51
153.88432528893151
  0
ARC
  5
11E2C
  8
01
 10
2431.6936164207732
 20
1101.271749316955
 30
0.0
 40
25.200000000017781
 50
205.54215846296739
 51
154.45784153703349
  0
LINE
  5
120EE
  8
01
 10
2774.6943802627961
 20
1385.0217493159259
 30
0.0
 11
2809.8547710227972
 21
1385.0217493159259
 31
0.0
  0
LINE
  5
120F1
  8
01
 10
2774.6943802627961
 20
1364.5217493159259
 30
0.0
 11
2809.8547710227972
 21
1364.5217493159259
 31
0.0
  0
LINE
  5
120F2
  8
01
 10
2808.554771022797
 20
1382.421749315926
 30
0.0
 11
2808.554771022797
 21
1367.1217493159261
 31
0.0
  0
LINE
  5
120F6
  8
01
 10
2717.6934960810249
 20
1187.271749316955
 30
0.0
 11
2717.6934960810249
 21
1208.571749316955
 31
0.0
  0
LINE
  5
120F7
  8
01
 10
2768.693496081024
 20
1131.271749316955
 30
0.0
 11
2768.693496081024
 21
1208.571749316955
 31
0.0
  0
LINE
  5
120F8
  8
01
 10
2720.2934960810239
 20
1207.271749316955
 30
0.0
 11
2766.093496081025
 21
1207.271749316955
 31
0.0
  0
LINE
  5
120FC
  8
01
 10
2786.6934960810249
 20
1159.771749316955
 30
0.0
 11
2786.6934960810249
 21
1218.571749316955
 31
0.0
  0
LINE
  5
120FD
  8
01
 10
2717.6934960810249
 20
1187.271749316955
 30
0.0
 11
2717.6934960810249
 21
1218.571749316955
 31
0.0
  0
LINE
  5
120FE
  8
01
 10
2784.093496081025
 20
1217.271749316955
 30
0.0
 11
2720.2934960810239
 21
1217.271749316955
 31
0.0
  0
LINE
  5
12102
  8
01
 10
2706.6934960810249
 20
1129.2717486188239
 30
0.0
 11
2706.6934960810249
 21
1208.571749316955
 31
0.0
  0
LINE
  5
12103
  8
01
 10
2717.6934960810249
 20
1187.271749316955
 30
0.0
 11
2717.6934960810249
 21
1208.571749316955
 31
0.0
  0
LINE
  5
12104
  8
01
 10
2709.2934960810239
 20
1207.271749316955
 30
0.0
 11
2715.093496081025
 21
1207.271749316955
 31
0.0
  0
LINE
  5
12108
  8
01
 10
2786.6934960810249
 20
1159.771749316955
 30
0.0
 11
2814.9934960810242
 21
1159.771749316955
 31
0.0
  0
LINE
  5
12109
  8
01
 10
2786.6934960810249
 20
1085.271749316955
 30
0.0
 11
2814.9934960810242
 21
1085.271749316955
 31
0.0
  0
LINE
  5
1210A
  8
01
 10
2813.693496081024
 20
1157.1717493169549
 30
0.0
 11
2813.693496081024
 21
1087.871749316954
 31
0.0
  0
LINE
  5
1210E
  8
01
 10
2587.693500081024
 20
1181.271749316955
 30
0.0
 11
2587.693500081024
 21
1208.571749316955
 31
0.0
  0
LINE
  5
1210F
  8
01
 10
2612.693500081024
 20
1181.271749316955
 30
0.0
 11
2612.693500081024
 21
1208.571749316955
 31
0.0
  0
LINE
  5
12110
  8
01
 10
2590.2935000810239
 20
1207.271749316955
 30
0.0
 11
2610.093500081025
 21
1207.271749316955
 31
0.0
  0
LINE
  5
12114
  8
01
 10
2606.693500081024
 20
1187.271749316955
 30
0.0
 11
2661.4935000810251
 21
1187.271749316955
 31
0.0
  0
LINE
  5
12115
  8
01
 10
2606.693500081024
 20
1057.271749316955
 30
0.0
 11
2661.4935000810251
 21
1057.271749316955
 31
0.0
  0
LINE
  5
12116
  8
01
 10
2660.1935000810249
 20
1184.6717493169549
 30
0.0
 11
2660.1935000810249
 21
1059.871749316954
 31
0.0
  0
LINE
  5
1211A
  8
01
 10
2606.693500081024
 20
1179.271749316955
 30
0.0
 11
2645.9970911175819
 21
1179.271749316955
 31
0.0
  0
LINE
  5
1211B
  8
01
 10
2606.693500081024
 20
1065.271749316955
 30
0.0
 11
2645.9970911175819
 21
1065.271749316955
 31
0.0
  0
LINE
  5
1211C
  8
01
 10
2644.6970911175822
 20
1176.6717493169549
 30
0.0
 11
2644.6970911175822
 21
1067.871749316954
 31
0.0
  0
LINE
  5
12123
  8
01
 10
2430.8834351331579
 20
1090.3014494900101
 30
0.0
 11
2430.553754133291
 21
1090.268245484169
 31
0.0
  0
LINE
  5
12124
  8
01
 10
2430.553754133291
 20
1090.268245484169
 30
0.0
 11
2429.4017808755448
 21
1090.249917804503
 31
0.0
  0
LINE
  5
12125
  8
01
 10
2429.4017808755448
 20
1090.249917804503
 30
0.0
 11
2428.1802003701741
 21
1090.257760822082
 31
0.0
  0
LINE
  5
12126
  8
01
 10
2428.1802003701741
 20
1090.257760822082
 30
0.0
 11
2426.905153067928
 21
1090.272088825011
 31
0.0
  0
LINE
  5
12127
  8
01
 10
2426.905153067928
 20
1090.272088825011
 30
0.0
 11
2425.585069449764
 21
1090.2812669866321
 31
0.0
  0
LINE
  5
12128
  8
01
 10
2425.585069449764
 20
1090.2812669866321
 30
0.0
 11
2424.2322252114832
 21
1090.2835405462031
 31
0.0
  0
LINE
  5
12129
  8
01
 10
2447.900117667537
 20
1095.1783083074331
 30
0.0
 11
2447.5485818704178
 21
1095.0631960027461
 31
0.0
  0
LINE
  5
1212A
  8
01
 10
2447.5485818704178
 20
1095.0631960027461
 30
0.0
 11
2447.1963250955159
 21
1094.950265704894
 31
0.0
  0
LINE
  5
1212B
  8
01
 10
2447.1963250955159
 20
1094.950265704894
 30
0.0
 11
2446.8434312661698
 21
1094.8393190496211
 31
0.0
  0
LINE
  5
1212C
  8
01
 10
2446.8434312661698
 20
1094.8393190496211
 30
0.0
 11
2446.4899690469319
 21
1094.730119525695
 31
0.0
  0
LINE
  5
1212D
  8
01
 10
2446.4899690469319
 20
1094.730119525695
 30
0.0
 11
2446.1360261758382
 21
1094.6224611394639
 31
0.0
  0
LINE
  5
1212E
  8
01
 10
2446.1360261758382
 20
1094.6224611394639
 30
0.0
 11
2445.7816789468338
 21
1094.516122638488
 31
0.0
  0
LINE
  5
1212F
  8
01
 10
2445.7816789468338
 20
1094.516122638488
 30
0.0
 11
2445.426996024471
 21
1094.410890399718
 31
0.0
  0
LINE
  5
12130
  8
01
 10
2445.426996024471
 20
1094.410890399718
 30
0.0
 11
2445.0720689614818
 21
1094.306558429503
 31
0.0
  0
LINE
  5
12131
  8
01
 10
2445.0720689614818
 20
1094.306558429503
 30
0.0
 11
2444.7169359048421
 21
1094.20293599298
 31
0.0
  0
LINE
  5
12132
  8
01
 10
2444.7169359048421
 20
1094.20293599298
 30
0.0
 11
2444.3616655190999
 21
1094.0998323552849
 31
0.0
  0
LINE
  5
12133
  8
01
 10
2444.3616655190999
 20
1094.0998323552849
 30
0.0
 11
2444.006318839412
 21
1093.997056781554
 31
0.0
  0
LINE
  5
12134
  8
01
 10
2444.006318839412
 20
1093.997056781554
 30
0.0
 11
2443.6509492715409
 21
1093.894410907531
 31
0.0
  0
LINE
  5
12135
  8
01
 10
2443.6509492715409
 20
1093.894410907531
 30
0.0
 11
2443.295625480037
 21
1093.7917192571399
 31
0.0
  0
LINE
  5
12136
  8
01
 10
2443.295625480037
 20
1093.7917192571399
 30
0.0
 11
2442.940400870662
 21
1093.6888063543081
 31
0.0
  0
LINE
  5
12137
  8
01
 10
2442.940400870662
 20
1093.6888063543081
 30
0.0
 11
2442.5853517373612
 21
1093.5854890935659
 31
0.0
  0
LINE
  5
12138
  8
01
 10
2442.5853517373612
 20
1093.5854890935659
 30
0.0
 11
2442.2305543740799
 21
1093.481584369445
 31
0.0
  0
LINE
  5
12139
  8
01
 10
2442.2305543740799
 20
1093.481584369445
 30
0.0
 11
2441.876100333553
 21
1093.376939594054
 31
0.0
  0
LINE
  5
1213A
  8
01
 10
2441.876100333553
 20
1093.376939594054
 30
0.0
 11
2441.522081168514
 21
1093.27137929132
 31
0.0
  0
LINE
  5
1213B
  8
01
 10
2441.522081168514
 20
1093.27137929132
 30
0.0
 11
2441.1685884316971
 21
1093.164735614562
 31
0.0
  0
LINE
  5
1213C
  8
01
 10
2441.1685884316971
 20
1093.164735614562
 30
0.0
 11
2440.8157441934159
 21
1093.0568483464949
 31
0.0
  0
LINE
  5
1213D
  8
01
 10
2440.8157441934159
 20
1093.0568483464949
 30
0.0
 11
2440.4637163003499
 21
1092.947580158019
 31
0.0
  0
LINE
  5
1213E
  8
01
 10
2440.4637163003499
 20
1092.947580158019
 30
0.0
 11
2440.1126802285721
 21
1092.8367784612419
 31
0.0
  0
LINE
  5
1213F
  8
01
 10
2440.1126802285721
 20
1092.8367784612419
 30
0.0
 11
2439.7628419717371
 21
1092.724313556457
 31
0.0
  0
LINE
  5
12140
  8
01
 10
2439.7628419717371
 20
1092.724313556457
 30
0.0
 11
2439.4144914468338
 21
1092.6100710027461
 31
0.0
  0
LINE
  5
12141
  8
01
 10
2439.4144914468338
 20
1092.6100710027461
 30
0.0
 11
2439.0679643472249
 21
1092.493966876769
 31
0.0
  0
LINE
  5
12142
  8
01
 10
2439.0679643472249
 20
1092.493966876769
 30
0.0
 11
2438.7236650308182
 21
1092.3759325139761
 31
0.0
  0
LINE
  5
12143
  8
01
 10
2438.7236650308182
 20
1092.3759325139761
 30
0.0
 11
2438.3821199258382
 21
1092.2559679143669
 31
0.0
  0
LINE
  5
12144
  8
01
 10
2438.3821199258382
 20
1092.2559679143669
 30
0.0
 11
2438.0438936074788
 21
1092.1340654485459
 31
0.0
  0
LINE
  5
12145
  8
01
 10
2438.0438936074788
 20
1092.1340654485459
 30
0.0
 11
2437.7096498330652
 21
1092.01031666925
 31
0.0
  0
LINE
  5
12146
  8
01
 10
2437.7096498330652
 20
1092.01031666925
 30
0.0
 11
2437.4996689207092
 21
1091.9303575172651
 31
0.0
  0
LINE
  5
12147
  8
01
 10
2301.9231736978099
 20
1101.2717607610459
 30
0.0
 11
2301.949205191951
 21
1100.534990131164
 31
0.0
  0
LINE
  5
12148
  8
01
 10
2301.949205191951
 20
1100.534990131164
 30
0.0
 11
2302.0265214761312
 21
1099.8017137639761
 31
0.0
  0
LINE
  5
12149
  8
01
 10
2302.0265214761312
 20
1099.8017137639761
 30
0.0
 11
2302.1545427163651
 21
1099.075685321593
 31
0.0
  0
LINE
  5
1214A
  8
01
 10
2302.1545427163651
 20
1099.075685321593
 30
0.0
 11
2302.3325670083568
 21
1098.360299884582
 31
0.0
  0
LINE
  5
1214B
  8
01
 10
2302.3325670083568
 20
1098.360299884582
 30
0.0
 11
2302.5595720132401
 21
1097.659005939269
 31
0.0
  0
LINE
  5
1214C
  8
01
 10
2302.5595720132401
 20
1097.659005939269
 30
0.0
 11
2302.8338792642171
 21
1096.9749391668081
 31
0.0
  0
LINE
  5
1214D
  8
01
 10
2302.8338792642171
 20
1096.9749391668081
 30
0.0
 11
2303.153550895076
 21
1096.311021625304
 31
0.0
  0
LINE
  5
1214E
  8
01
 10
2303.153550895076
 20
1096.311021625304
 30
0.0
 11
2303.5556199868729
 21
1095.606752216125
 31
0.0
  0
LINE
  5
1214F
  8
01
 10
2305.8329332192948
 20
1094.319581805968
 30
0.0
 11
2316.112413199764
 21
1093.6973665349719
 31
0.0
  0
LINE
  5
12150
  8
01
 10
2316.112413199764
 20
1093.6973665349719
 30
0.0
 11
2326.526826651912
 21
1093.108156024718
 31
0.0
  0
LINE
  5
12151
  8
01
 10
2326.526826651912
 20
1093.108156024718
 30
0.0
 11
2337.0651414712479
 21
1092.5653932683711
 31
0.0
  0
LINE
  5
12152
  8
01
 10
2337.0651414712479
 20
1092.5653932683711
 30
0.0
 11
2347.7104966958568
 21
1092.0752809636831
 31
0.0
  0
LINE
  5
12153
  8
01
 10
2347.7104966958568
 20
1092.0752809636831
 30
0.0
 11
2358.4436815103099
 21
1091.6411531560659
 31
0.0
  0
LINE
  5
12154
  8
01
 10
2358.4436815103099
 20
1091.6411531560659
 30
0.0
 11
2369.244233878474
 21
1091.264970599914
 31
0.0
  0
LINE
  5
12155
  8
01
 10
2369.244233878474
 20
1091.264970599914
 30
0.0
 11
2380.0909898599198
 21
1090.947946368957
 31
0.0
  0
LINE
  5
12156
  8
01
 10
2380.0909898599198
 20
1090.947946368957
 30
0.0
 11
2390.962373526912
 21
1090.6909807317491
 31
0.0
  0
LINE
  5
12157
  8
01
 10
2390.962373526912
 20
1090.6909807317491
 30
0.0
 11
2401.8365953286698
 21
1090.4947145574331
 31
0.0
  0
LINE
  5
12158
  8
01
 10
2401.8365953286698
 20
1090.4947145574331
 30
0.0
 11
2412.6916978677318
 21
1090.359666644835
 31
0.0
  0
LINE
  5
12159
  8
01
 10
2412.6916978677318
 20
1090.359666644835
 30
0.0
 11
2424.2316224893152
 21
1090.2835481755969
 31
0.0
  0
LINE
  5
1215A
  8
01
 10
2430.5536363442948
 20
1112.2752550237419
 30
0.0
 11
2429.4017808755448
 21
1112.293580829406
 31
0.0
  0
LINE
  5
1215B
  8
01
 10
2429.4017808755448
 20
1112.293580829406
 30
0.0
 11
2428.1802003701741
 21
1112.2857378118281
 31
0.0
  0
LINE
  5
1215C
  8
01
 10
2428.1802003701741
 20
1112.2857378118281
 30
0.0
 11
2426.905153067928
 21
1112.2714098088979
 31
0.0
  0
LINE
  5
1215D
  8
01
 10
2426.905153067928
 20
1112.2714098088979
 30
0.0
 11
2425.585069449764
 21
1112.2622316472771
 31
0.0
  0
LINE
  5
1215E
  8
01
 10
2425.585069449764
 20
1112.2622316472771
 30
0.0
 11
2424.2322252114832
 21
1112.259958087707
 31
0.0
  0
LINE
  5
12162
  8
01
 10
2430.8834351331579
 20
1112.2420491439
 30
0.0
 11
2430.5537355264241
 21
1112.2752550237419
 31
0.0
  0
LINE
  5
12163
  8
01
 10
2447.900117667537
 20
1107.3651903264761
 30
0.0
 11
2447.5485818704178
 21
1107.480302631164
 31
0.0
  0
LINE
  5
12164
  8
01
 10
2447.5485818704178
 20
1107.480302631164
 30
0.0
 11
2447.1963250955159
 21
1107.5932329290149
 31
0.0
  0
LINE
  5
12165
  8
01
 10
2447.1963250955159
 20
1107.5932329290149
 30
0.0
 11
2446.8434312661698
 21
1107.704179584289
 31
0.0
  0
LINE
  5
12166
  8
01
 10
2446.8434312661698
 20
1107.704179584289
 30
0.0
 11
2446.4899690469319
 21
1107.8133791082139
 31
0.0
  0
LINE
  5
12167
  8
01
 10
2446.4899690469319
 20
1107.8133791082139
 30
0.0
 11
2446.1360261758382
 21
1107.921037494445
 31
0.0
  0
LINE
  5
12168
  8
01
 10
2446.1360261758382
 20
1107.921037494445
 30
0.0
 11
2445.7816789468338
 21
1108.0273759954221
 31
0.0
  0
LINE
  5
12169
  8
01
 10
2445.7816789468338
 20
1108.0273759954221
 30
0.0
 11
2445.426996024471
 21
1108.1326082341909
 31
0.0
  0
LINE
  5
1216A
  8
01
 10
2445.426996024471
 20
1108.1326082341909
 30
0.0
 11
2445.0720689614818
 21
1108.236940204406
 31
0.0
  0
LINE
  5
1216B
  8
01
 10
2445.0720689614818
 20
1108.236940204406
 30
0.0
 11
2444.7169359048421
 21
1108.340562640929
 31
0.0
  0
LINE
  5
1216C
  8
01
 10
2444.7169359048421
 20
1108.340562640929
 30
0.0
 11
2444.3616655190999
 21
1108.443666278625
 31
0.0
  0
LINE
  5
1216D
  8
01
 10
2444.3616655190999
 20
1108.443666278625
 30
0.0
 11
2444.006318839412
 21
1108.546441852355
 31
0.0
  0
LINE
  5
1216E
  8
01
 10
2444.006318839412
 20
1108.546441852355
 30
0.0
 11
2443.6509492715409
 21
1108.649087726378
 31
0.0
  0
LINE
  5
1216F
  8
01
 10
2443.6509492715409
 20
1108.649087726378
 30
0.0
 11
2443.295625480037
 21
1108.751779376769
 31
0.0
  0
LINE
  5
12170
  8
01
 10
2443.295625480037
 20
1108.751779376769
 30
0.0
 11
2442.940400870662
 21
1108.8546922796011
 31
0.0
  0
LINE
  5
12171
  8
01
 10
2442.940400870662
 20
1108.8546922796011
 30
0.0
 11
2442.5853517373612
 21
1108.958009540343
 31
0.0
  0
LINE
  5
12172
  8
01
 10
2442.5853517373612
 20
1108.958009540343
 30
0.0
 11
2442.2305543740799
 21
1109.0619142644639
 31
0.0
  0
LINE
  5
12173
  8
01
 10
2442.2305543740799
 20
1109.0619142644639
 30
0.0
 11
2441.876100333553
 21
1109.166559039855
 31
0.0
  0
LINE
  5
12174
  8
01
 10
2441.876100333553
 20
1109.166559039855
 30
0.0
 11
2441.522081168514
 21
1109.2721193425889
 31
0.0
  0
LINE
  5
12175
  8
01
 10
2441.522081168514
 20
1109.2721193425889
 30
0.0
 11
2441.1685884316971
 21
1109.3787630193469
 31
0.0
  0
LINE
  5
12176
  8
01
 10
2441.1685884316971
 20
1109.3787630193469
 30
0.0
 11
2440.8157441934159
 21
1109.486650287414
 31
0.0
  0
LINE
  5
12177
  8
01
 10
2440.8157441934159
 20
1109.486650287414
 30
0.0
 11
2440.4637163003499
 21
1109.5959184758899
 31
0.0
  0
LINE
  5
12178
  8
01
 10
2440.4637163003499
 20
1109.5959184758899
 30
0.0
 11
2440.1126802285721
 21
1109.7067201726679
 31
0.0
  0
LINE
  5
12179
  8
01
 10
2440.1126802285721
 20
1109.7067201726679
 30
0.0
 11
2439.7628419717371
 21
1109.8191850774531
 31
0.0
  0
LINE
  5
1217A
  8
01
 10
2439.7628419717371
 20
1109.8191850774531
 30
0.0
 11
2439.4144914468338
 21
1109.933427631164
 31
0.0
  0
LINE
  5
1217B
  8
01
 10
2439.4144914468338
 20
1109.933427631164
 30
0.0
 11
2439.0679643472249
 21
1110.0495317571399
 31
0.0
  0
LINE
  5
1217C
  8
01
 10
2439.0679643472249
 20
1110.0495317571399
 30
0.0
 11
2438.7236650308182
 21
1110.1675661199331
 31
0.0
  0
LINE
  5
1217D
  8
01
 10
2438.7236650308182
 20
1110.1675661199331
 30
0.0
 11
2438.3821199258382
 21
1110.2875307195429
 31
0.0
  0
LINE
  5
1217E
  8
01
 10
2438.3821199258382
 20
1110.2875307195429
 30
0.0
 11
2438.0438936074788
 21
1110.409433185363
 31
0.0
  0
LINE
  5
1217F
  8
01
 10
2438.0438936074788
 20
1110.409433185363
 30
0.0
 11
2437.7096498330652
 21
1110.5331819646599
 31
0.0
  0
LINE
  5
12180
  8
01
 10
2437.7096498330652
 20
1110.5331819646599
 30
0.0
 11
2437.4996689207092
 21
1110.613141116645
 31
0.0
  0
LINE
  5
12181
  8
01
 10
2301.9231736978099
 20
1101.271737872863
 30
0.0
 11
2301.949205191951
 21
1102.0085085027461
 31
0.0
  0
LINE
  5
12182
  8
01
 10
2301.949205191951
 20
1102.0085085027461
 30
0.0
 11
2302.0265214761312
 21
1102.7417848699331
 31
0.0
  0
LINE
  5
12183
  8
01
 10
2302.0265214761312
 20
1102.7417848699331
 30
0.0
 11
2302.1545427163651
 21
1103.4678133123159
 31
0.0
  0
LINE
  5
12184
  8
01
 10
2302.1545427163651
 20
1103.4678133123159
 30
0.0
 11
2302.3325670083568
 21
1104.1831987493281
 31
0.0
  0
LINE
  5
12185
  8
01
 10
2302.3325670083568
 20
1104.1831987493281
 30
0.0
 11
2302.5595720132401
 21
1104.8844926946399
 31
0.0
  0
LINE
  5
12186
  8
01
 10
2302.5595720132401
 20
1104.8844926946399
 30
0.0
 11
2302.8338792642171
 21
1105.5685594671011
 31
0.0
  0
LINE
  5
12187
  8
01
 10
2302.8338792642171
 20
1105.5685594671011
 30
0.0
 11
2303.153550895076
 21
1106.232477008605
 31
0.0
  0
LINE
  5
12188
  8
01
 10
2303.153550895076
 20
1106.232477008605
 30
0.0
 11
2303.5556199868729
 21
1106.9367464177849
 31
0.0
  0
LINE
  5
12189
  8
01
 10
2305.8329332192948
 20
1108.2239168279409
 30
0.0
 11
2316.112413199764
 21
1108.846132098937
 31
0.0
  0
LINE
  5
1218A
  8
01
 10
2316.112413199764
 20
1108.846132098937
 30
0.0
 11
2326.526826651912
 21
1109.4353426091909
 31
0.0
  0
LINE
  5
1218B
  8
01
 10
2326.526826651912
 20
1109.4353426091909
 30
0.0
 11
2337.0651414712479
 21
1109.978105365539
 31
0.0
  0
LINE
  5
1218C
  8
01
 10
2337.0651414712479
 20
1109.978105365539
 30
0.0
 11
2347.7104966958568
 21
1110.4682176702261
 31
0.0
  0
LINE
  5
1218D
  8
01
 10
2347.7104966958568
 20
1110.4682176702261
 30
0.0
 11
2358.4436815103099
 21
1110.902345477843
 31
0.0
  0
LINE
  5
1218E
  8
01
 10
2358.4436815103099
 20
1110.902345477843
 30
0.0
 11
2369.244233878474
 21
1111.2785280339961
 31
0.0
  0
LINE
  5
1218F
  8
01
 10
2369.244233878474
 20
1111.2785280339961
 30
0.0
 11
2380.0909898599198
 21
1111.5955522649531
 31
0.0
  0
LINE
  5
12190
  8
01
 10
2380.0909898599198
 20
1111.5955522649531
 30
0.0
 11
2390.962373526912
 21
1111.8525179021599
 31
0.0
  0
LINE
  5
12191
  8
01
 10
2390.962373526912
 20
1111.8525179021599
 30
0.0
 11
2401.8365953286698
 21
1112.0487840764761
 31
0.0
  0
LINE
  5
12192
  8
01
 10
2401.8365953286698
 20
1112.0487840764761
 30
0.0
 11
2412.6916978677318
 21
1112.183831989074
 31
0.0
  0
LINE
  5
12193
  8
01
 10
2412.6916978677318
 20
1112.183831989074
 30
0.0
 11
2424.2316224893152
 21
1112.259950458312
 31
0.0
  0
LINE
  5
12194
  8
01
 10
2304.6513841470291
 20
1106.9806306951291
 30
0.0
 11
2304.4156053384349
 21
1107.0057619207139
 31
0.0
  0
LINE
  5
12195
  8
01
 10
2304.4156053384349
 20
1107.0057619207139
 30
0.0
 11
2304.2110917886312
 21
1107.008172809386
 31
0.0
  0
LINE
  5
12196
  8
01
 10
2304.2110917886312
 20
1107.008172809386
 30
0.0
 11
2304.0365465005448
 21
1107.001756488585
 31
0.0
  0
LINE
  5
12197
  8
01
 10
2304.0365465005448
 20
1107.001756488585
 30
0.0
 11
2303.8869035562088
 21
1106.9927385442491
 31
0.0
  0
LINE
  5
12198
  8
01
 10
2303.8869035562088
 20
1106.9927385442491
 30
0.0
 11
2303.7574785073812
 21
1106.9825075261831
 31
0.0
  0
LINE
  5
12199
  8
01
 10
2303.7574785073812
 20
1106.9825075261831
 30
0.0
 11
2303.6459367593338
 21
1106.9692552678821
 31
0.0
  0
LINE
  5
1219A
  8
01
 10
2303.6459367593338
 20
1106.9692552678821
 30
0.0
 11
2303.5556047280838
 21
1106.9367235296011
 31
0.0
  0
LINE
  5
1219B
  8
01
 10
2425.067491324764
 20
1107.1200807683699
 30
0.0
 11
2414.9126527627518
 21
1107.1247194402461
 31
0.0
  0
LINE
  5
1219C
  8
01
 10
2414.9126527627518
 20
1107.1247194402461
 30
0.0
 11
2404.729242118221
 21
1107.1279619329209
 31
0.0
  0
LINE
  5
1219D
  8
01
 10
2404.729242118221
 20
1107.1279619329209
 30
0.0
 11
2394.534166129451
 21
1107.1296556585071
 31
0.0
  0
LINE
  5
1219E
  8
01
 10
2394.534166129451
 20
1107.1296556585071
 30
0.0
 11
2384.344339164119
 21
1107.129579364562
 31
0.0
  0
LINE
  5
1219F
  8
01
 10
2384.344339164119
 20
1107.129579364562
 30
0.0
 11
2374.1766832192948
 21
1107.1274126165149
 31
0.0
  0
LINE
  5
121A0
  8
01
 10
2374.1766832192948
 20
1107.1274126165149
 30
0.0
 11
2364.0480363687088
 21
1107.1227281682729
 31
0.0
  0
LINE
  5
121A1
  8
01
 10
2364.0480363687088
 20
1107.1227281682729
 30
0.0
 11
2353.9752061685131
 21
1107.1149004094841
 31
0.0
  0
LINE
  5
121A2
  8
01
 10
2353.9752061685131
 20
1107.1149004094841
 30
0.0
 11
2343.974824698787
 21
1107.1030748479609
 31
0.0
  0
LINE
  5
121A3
  8
01
 10
2343.974824698787
 20
1107.1030748479609
 30
0.0
 11
2334.0634324868729
 21
1107.086000263
 31
0.0
  0
LINE
  5
121A4
  8
01
 10
2334.0634324868729
 20
1107.086000263
 30
0.0
 11
2324.257310660701
 21
1107.0619371526479
 31
0.0
  0
LINE
  5
121A5
  8
01
 10
2324.257310660701
 20
1107.0619371526479
 30
0.0
 11
2314.5725267251541
 21
1107.028497516417
 31
0.0
  0
LINE
  5
121A6
  8
01
 10
2314.5725267251541
 20
1107.028497516417
 30
0.0
 11
2304.6513841470291
 21
1106.9806306951291
 31
0.0
  0
LINE
  5
121A7
  8
01
 10
2440.3796937783768
 20
1107.0385454290149
 30
0.0
 11
2441.1439302285721
 21
1107.0320451848741
 31
0.0
  0
LINE
  5
121A8
  8
01
 10
2441.1439302285721
 20
1107.0320451848741
 30
0.0
 11
2441.8963945230062
 21
1107.0256059758899
 31
0.0
  0
LINE
  5
121A9
  8
01
 10
2441.8963945230062
 20
1107.0256059758899
 30
0.0
 11
2442.635377677303
 21
1107.0192354314561
 31
0.0
  0
LINE
  5
121AA
  8
01
 10
2442.635377677303
 20
1107.0192354314561
 30
0.0
 11
2443.359124930721
 21
1107.0129793279409
 31
0.0
  0
LINE
  5
121AB
  8
01
 10
2443.359124930721
 20
1107.0129793279409
 30
0.0
 11
2444.0650194009359
 21
1107.0068681829209
 31
0.0
  0
LINE
  5
121AC
  8
01
 10
2444.0650194009359
 20
1107.0068681829209
 30
0.0
 11
2444.7494600137279
 21
1107.0009554021599
 31
0.0
  0
LINE
  5
121AD
  8
01
 10
2444.7494600137279
 20
1107.0009554021599
 30
0.0
 11
2445.4075334390218
 21
1106.995302020812
 31
0.0
  0
LINE
  5
121AE
  8
01
 10
2445.4075334390218
 20
1106.995302020812
 30
0.0
 11
2446.0325181802318
 21
1106.990060626769
 31
0.0
  0
LINE
  5
121AF
  8
01
 10
2446.0325181802318
 20
1106.990060626769
 30
0.0
 11
2446.6149347146561
 21
1106.9854524724719
 31
0.0
  0
LINE
  5
121B0
  8
01
 10
2446.6149347146561
 20
1106.9854524724719
 30
0.0
 11
2447.1410920938069
 21
1106.9817216985459
 31
0.0
  0
LINE
  5
121B1
  8
01
 10
2447.1410920938069
 20
1106.9817216985459
 30
0.0
 11
2447.5904252847249
 21
1106.9792879216909
 31
0.0
  0
LINE
  5
121B2
  8
01
 10
2447.5904252847249
 20
1106.9792879216909
 30
0.0
 11
2447.9383600076249
 21
1106.978433429503
 31
0.0
  0
LINE
  5
121B3
  8
01
 10
2447.9383600076249
 20
1106.978433429503
 30
0.0
 11
2448.1578538735921
 21
1106.979142963195
 31
0.0
  0
LINE
  5
121B4
  8
01
 10
2448.1578538735921
 20
1106.979142963195
 30
0.0
 11
2448.2346475442459
 21
1106.9811037175889
 31
0.0
  0
LINE
  5
121B5
  8
01
 10
2425.0673082192948
 20
1107.1200807683699
 30
0.0
 11
2428.1720445474198
 21
1107.1159227483511
 31
0.0
  0
LINE
  5
121B6
  8
01
 10
2428.1720445474198
 20
1107.1159227483511
 30
0.0
 11
2431.2520845254471
 21
1107.104326068664
 31
0.0
  0
LINE
  5
121B7
  8
01
 10
2431.2520845254471
 20
1107.104326068664
 30
0.0
 11
2434.2724778970291
 21
1107.086358844542
 31
0.0
  0
LINE
  5
121B8
  8
01
 10
2434.2724778970291
 20
1107.086358844542
 30
0.0
 11
2437.2140138467362
 21
1107.0645540349719
 31
0.0
  0
LINE
  5
121B9
  8
01
 10
2437.2140138467362
 20
1107.0645540349719
 30
0.0
 11
2440.3796937783768
 21
1107.0385454290149
 31
0.0
  0
LINE
  5
121BA
  8
01
 10
2304.6513841470291
 20
1095.562867938781
 30
0.0
 11
2304.4156053384349
 21
1095.537736713195
 31
0.0
  0
LINE
  5
121BB
  8
01
 10
2304.4156053384349
 20
1095.537736713195
 30
0.0
 11
2304.2110917886312
 21
1095.5353258245229
 31
0.0
  0
LINE
  5
121BC
  8
01
 10
2304.2110917886312
 20
1095.5353258245229
 30
0.0
 11
2304.0365465005448
 21
1095.541742145324
 31
0.0
  0
LINE
  5
121BD
  8
01
 10
2304.0365465005448
 20
1095.541742145324
 30
0.0
 11
2303.8869035562088
 21
1095.5507600896599
 31
0.0
  0
LINE
  5
121BE
  8
01
 10
2303.8869035562088
 20
1095.5507600896599
 30
0.0
 11
2303.7574785073812
 21
1095.5609911077261
 31
0.0
  0
LINE
  5
121BF
  8
01
 10
2303.7574785073812
 20
1095.5609911077261
 30
0.0
 11
2303.6459367593338
 21
1095.5742433660271
 31
0.0
  0
LINE
  5
121C0
  8
01
 10
2303.6459367593338
 20
1095.5742433660271
 30
0.0
 11
2303.5556047280838
 21
1095.6067751043081
 31
0.0
  0
LINE
  5
121C1
  8
01
 10
2425.067491324764
 20
1095.423417865539
 30
0.0
 11
2414.9126527627518
 21
1095.418779193664
 31
0.0
  0
LINE
  5
121C2
  8
01
 10
2414.9126527627518
 20
1095.418779193664
 30
0.0
 11
2404.729242118221
 21
1095.415536700988
 31
0.0
  0
LINE
  5
121C3
  8
01
 10
2404.729242118221
 20
1095.415536700988
 30
0.0
 11
2394.534166129451
 21
1095.4138429754021
 31
0.0
  0
LINE
  5
121C4
  8
01
 10
2394.534166129451
 20
1095.4138429754021
 30
0.0
 11
2384.344339164119
 21
1095.4139192693469
 31
0.0
  0
LINE
  5
121C5
  8
01
 10
2384.344339164119
 20
1095.4139192693469
 30
0.0
 11
2374.1766832192948
 21
1095.416086017394
 31
0.0
  0
LINE
  5
121C6
  8
01
 10
2374.1766832192948
 20
1095.416086017394
 30
0.0
 11
2364.0480363687088
 21
1095.420770465636
 31
0.0
  0
LINE
  5
121C7
  8
01
 10
2364.0480363687088
 20
1095.420770465636
 30
0.0
 11
2353.9752061685131
 21
1095.4285982244251
 31
0.0
  0
LINE
  5
121C8
  8
01
 10
2353.9752061685131
 20
1095.4285982244251
 30
0.0
 11
2343.974824698787
 21
1095.440423785949
 31
0.0
  0
LINE
  5
121C9
  8
01
 10
2343.974824698787
 20
1095.440423785949
 30
0.0
 11
2334.0634324868729
 21
1095.4574983709099
 31
0.0
  0
LINE
  5
121CA
  8
01
 10
2334.0634324868729
 20
1095.4574983709099
 30
0.0
 11
2324.257310660701
 21
1095.481561481261
 31
0.0
  0
LINE
  5
121CB
  8
01
 10
2324.257310660701
 20
1095.481561481261
 30
0.0
 11
2314.5725267251541
 21
1095.5150011174919
 31
0.0
  0
LINE
  5
121CC
  8
01
 10
2314.5725267251541
 20
1095.5150011174919
 30
0.0
 11
2304.6513841470291
 21
1095.562867938781
 31
0.0
  0
LINE
  5
121CD
  8
01
 10
2440.3796937783768
 20
1095.504953204894
 30
0.0
 11
2441.1439302285721
 21
1095.5114534490349
 31
0.0
  0
LINE
  5
121CE
  8
01
 10
2441.1439302285721
 20
1095.5114534490349
 30
0.0
 11
2441.8963945230062
 21
1095.517892658019
 31
0.0
  0
LINE
  5
121CF
  8
01
 10
2441.8963945230062
 20
1095.517892658019
 30
0.0
 11
2442.635377677303
 21
1095.5242632024531
 31
0.0
  0
LINE
  5
121D0
  8
01
 10
2442.635377677303
 20
1095.5242632024531
 30
0.0
 11
2443.359124930721
 21
1095.530519305968
 31
0.0
  0
LINE
  5
121D1
  8
01
 10
2443.359124930721
 20
1095.530519305968
 30
0.0
 11
2444.0650194009359
 21
1095.536630450988
 31
0.0
  0
LINE
  5
121D2
  8
01
 10
2444.0650194009359
 20
1095.536630450988
 30
0.0
 11
2444.7494600137279
 21
1095.54254323175
 31
0.0
  0
LINE
  5
121D3
  8
01
 10
2444.7494600137279
 20
1095.54254323175
 30
0.0
 11
2445.4075334390218
 21
1095.5481966130969
 31
0.0
  0
LINE
  5
121D4
  8
01
 10
2445.4075334390218
 20
1095.5481966130969
 30
0.0
 11
2446.0325181802318
 21
1095.5534380071399
 31
0.0
  0
LINE
  5
121D5
  8
01
 10
2446.0325181802318
 20
1095.5534380071399
 30
0.0
 11
2446.6149347146561
 21
1095.558046161437
 31
0.0
  0
LINE
  5
121D6
  8
01
 10
2446.6149347146561
 20
1095.558046161437
 30
0.0
 11
2447.1410920938069
 21
1095.561776935363
 31
0.0
  0
LINE
  5
121D7
  8
01
 10
2447.1410920938069
 20
1095.561776935363
 30
0.0
 11
2447.5904252847249
 21
1095.564210712218
 31
0.0
  0
LINE
  5
121D8
  8
01
 10
2447.5904252847249
 20
1095.564210712218
 30
0.0
 11
2447.9383600076249
 21
1095.565065204406
 31
0.0
  0
LINE
  5
121D9
  8
01
 10
2447.9383600076249
 20
1095.565065204406
 30
0.0
 11
2448.1578538735921
 21
1095.5643556707139
 31
0.0
  0
LINE
  5
121DA
  8
01
 10
2448.1578538735921
 20
1095.5643556707139
 30
0.0
 11
2448.2346475442459
 21
1095.56239491632
 31
0.0
  0
LINE
  5
121DB
  8
01
 10
2425.0673082192948
 20
1095.423417865539
 30
0.0
 11
2428.1720445474198
 21
1095.4275758855581
 31
0.0
  0
LINE
  5
121DC
  8
01
 10
2428.1720445474198
 20
1095.4275758855581
 30
0.0
 11
2431.2520845254471
 21
1095.4391725652461
 31
0.0
  0
LINE
  5
121DD
  8
01
 10
2431.2520845254471
 20
1095.4391725652461
 30
0.0
 11
2434.2724778970291
 21
1095.4571397893669
 31
0.0
  0
LINE
  5
121DE
  8
01
 10
2434.2724778970291
 20
1095.4571397893669
 30
0.0
 11
2437.2140138467362
 21
1095.478944598937
 31
0.0
  0
LINE
  5
121DF
  8
01
 10
2437.2140138467362
 20
1095.478944598937
 30
0.0
 11
2440.3796937783768
 21
1095.504953204894
 31
0.0
  0
LINE
  5
121E0
  8
01
 10
2895.2125061642018
 20
1414.6563650058399
 30
0.0
 11
2888.1134232495128
 21
1417.1434578192909
 31
0.0
  0
LINE
  5
121E1
  8
01
 10
2888.1134232495128
 20
1417.1434578192909
 30
0.0
 11
2882.1313981030289
 21
1419.0703262580109
 31
0.0
  0
LINE
  5
121E2
  8
01
 10
2882.1313981030289
 20
1419.0703262580109
 30
0.0
 11
2876.107838532716
 21
1420.8446525824741
 31
0.0
  0
LINE
  5
121E3
  8
01
 10
2876.107838532716
 20
1420.8446525824741
 30
0.0
 11
2870.0465287182628
 21
1422.465601373978
 31
0.0
  0
LINE
  5
121E4
  8
01
 10
2870.0465287182628
 20
1422.465601373978
 30
0.0
 11
2863.9512680981461
 21
1423.9324287665561
 31
0.0
  0
LINE
  5
121E5
  8
01
 10
2863.9512680981461
 20
1423.9324287665561
 30
0.0
 11
2857.8259171459972
 21
1425.244478632279
 31
0.0
  0
LINE
  5
121E6
  8
01
 10
2857.8259171459972
 20
1425.244478632279
 30
0.0
 11
2851.6742905590831
 21
1426.4011978400431
 31
0.0
  0
LINE
  5
121E7
  8
01
 10
2851.6742905590831
 20
1426.4011978400431
 30
0.0
 11
2845.5002335522472
 21
1427.4021209967809
 31
0.0
  0
LINE
  5
121E8
  8
01
 10
2845.5002335522472
 20
1427.4021209967809
 30
0.0
 11
2839.3076218579122
 21
1428.246874262162
 31
0.0
  0
LINE
  5
121E9
  8
01
 10
2839.3076218579122
 20
1428.246874262162
 30
0.0
 11
2833.10028543213
 21
1428.9351715338901
 31
0.0
  0
LINE
  5
121EA
  8
01
 10
2833.10028543213
 20
1428.9351715338901
 30
0.0
 11
2826.8821152661139
 21
1429.466833521195
 31
0.0
  0
LINE
  5
121EB
  8
01
 10
2826.8821152661139
 20
1429.466833521195
 30
0.0
 11
2820.6569413159191
 21
1429.841757227249
 31
0.0
  0
LINE
  5
121EC
  8
01
 10
2820.6569413159191
 20
1429.841757227249
 30
0.0
 11
2814.42864694336
 21
1430.0599388373571
 31
0.0
  0
LINE
  5
121ED
  8
01
 10
2814.42864694336
 20
1430.0599388373571
 30
0.0
 11
2808.2010697338878
 21
1430.1214660895539
 31
0.0
  0
LINE
  5
121EE
  8
01
 10
2808.2010697338878
 20
1430.1214660895539
 30
0.0
 11
2801.9780625317399
 21
1430.026518274613
 31
0.0
  0
LINE
  5
121EF
  8
01
 10
2801.9780625317399
 20
1430.026518274613
 30
0.0
 11
2795.7634629223639
 21
1429.775358606644
 31
0.0
  0
LINE
  5
121F0
  8
01
 10
2795.7634629223639
 20
1429.775358606644
 30
0.0
 11
2789.5611008618171
 21
1429.3683494818879
 31
0.0
  0
LINE
  5
121F1
  8
01
 10
2789.5611008618171
 20
1429.3683494818879
 30
0.0
 11
2783.3747757885749
 21
1428.80594484932
 31
0.0
  0
LINE
  5
121F2
  8
01
 10
2783.3747757885749
 20
1428.80594484932
 30
0.0
 11
2777.175465485841
 21
1428.084440637894
 31
0.0
  0
LINE
  5
121F3
  8
01
 10
2772.1442612622081
 20
1426.280001093216
 30
0.0
 11
2773.0217026684581
 21
1426.7992500556179
 31
0.0
  0
LINE
  5
121F4
  8
01
 10
2773.0217026684581
 20
1426.7992500556179
 30
0.0
 11
2773.957096955568
 21
1427.2631897223671
 31
0.0
  0
LINE
  5
121F5
  8
01
 10
2773.957096955568
 20
1427.2631897223671
 30
0.0
 11
2774.940861604005
 21
1427.6334480536659
 31
0.0
  0
LINE
  5
121F6
  8
01
 10
2774.940861604005
 20
1427.6334480536659
 30
0.0
 11
2775.9575699780289
 21
1427.894133020706
 31
0.0
  0
LINE
  5
121F7
  8
01
 10
2775.9575699780289
 20
1427.894133020706
 30
0.0
 11
2777.175465485841
 21
1428.084440637894
 31
0.0
  0
LINE
  5
121F8
  8
01
 10
2772.1442612622081
 20
1426.280001093216
 30
0.0
 11
2771.0094040844742
 21
1425.524465967484
 31
0.0
  0
LINE
  5
121F9
  8
01
 10
2771.0094040844742
 20
1425.524465967484
 30
0.0
 11
2769.9082230541999
 21
1424.683378626175
 31
0.0
  0
LINE
  5
121FA
  8
01
 10
2769.9082230541999
 20
1424.683378626175
 30
0.0
 11
2768.8533143017589
 21
1423.769258905716
 31
0.0
  0
LINE
  5
121FB
  8
01
 10
2768.8533143017589
 20
1423.769258905716
 30
0.0
 11
2767.8591736767589
 21
1422.78860323555
 31
0.0
  0
LINE
  5
121FC
  8
01
 10
2767.8591736767589
 20
1422.78860323555
 30
0.0
 11
2766.9411515209981
 21
1421.743071008988
 31
0.0
  0
LINE
  5
121FD
  8
01
 10
2766.9411515209981
 20
1421.743071008988
 30
0.0
 11
2766.1148804638692
 21
1420.6311058295439
 31
0.0
  0
LINE
  5
121FE
  8
01
 10
2766.1148804638692
 20
1420.6311058295439
 30
0.0
 11
2765.3959778759781
 21
1419.451929498978
 31
0.0
  0
LINE
  5
121FF
  8
01
 10
2765.3959778759781
 20
1419.451929498978
 30
0.0
 11
2764.7987870190441
 21
1418.2071518195351
 31
0.0
  0
LINE
  5
12200
  8
01
 10
2764.7987870190441
 20
1418.2071518195351
 30
0.0
 11
2764.3338440869152
 21
1416.9041275275431
 31
0.0
  0
LINE
  5
12201
  8
01
 10
2764.3338440869152
 20
1416.9041275275431
 30
0.0
 11
2763.999089143068
 21
1415.5560573828891
 31
0.0
  0
LINE
  5
12202
  8
01
 10
2763.999089143068
 20
1415.5560573828891
 30
0.0
 11
2763.7757996533219
 21
1414.1818012488559
 31
0.0
  0
LINE
  5
12203
  8
01
 10
2763.7757996533219
 20
1414.1818012488559
 30
0.0
 11
2763.6179017041031
 21
1412.7350010169221
 31
0.0
  0
LINE
  5
12204
  8
01
 10
2754.3182343457052
 20
1412.580212045975
 30
0.0
 11
2754.3363388989269
 21
1412.5339741004179
 31
0.0
  0
LINE
  5
12205
  8
01
 10
2754.3363388989269
 20
1412.5339741004179
 30
0.0
 11
2754.3595169995128
 21
1412.479666162797
 31
0.0
  0
LINE
  5
12206
  8
01
 10
2754.3595169995128
 20
1412.479666162797
 30
0.0
 11
2754.397282502443
 21
1412.3908638251501
 31
0.0
  0
LINE
  5
12207
  8
01
 10
2754.397282502443
 20
1412.3908638251501
 30
0.0
 11
2754.4488190625011
 21
1412.2688888800819
 31
0.0
  0
LINE
  5
12208
  8
01
 10
2754.4488190625011
 20
1412.2688888800819
 30
0.0
 11
2754.5128449414078
 21
1412.115702081986
 31
0.0
  0
LINE
  5
12209
  8
01
 10
2754.5128449414078
 20
1412.115702081986
 30
0.0
 11
2754.5880326245128
 21
1411.9333633673859
 31
0.0
  0
LINE
  5
1220A
  8
01
 10
2754.5880326245128
 20
1411.9333633673859
 30
0.0
 11
2754.6728943798839
 21
1411.724190164872
 31
0.0
  0
LINE
  5
1220B
  8
01
 10
2754.6728943798839
 20
1411.724190164872
 30
0.0
 11
2754.7658432934581
 21
1411.490702081986
 31
0.0
  0
LINE
  5
1220C
  8
01
 10
2754.7658432934581
 20
1411.490702081986
 30
0.0
 11
2754.8653305981461
 21
1411.235426355667
 31
0.0
  0
LINE
  5
1220D
  8
01
 10
2754.8653305981461
 20
1411.235426355667
 30
0.0
 11
2754.9698227856461
 21
1410.960894037552
 31
0.0
  0
LINE
  5
1220E
  8
01
 10
2754.9698227856461
 20
1410.960894037552
 30
0.0
 11
2755.0778397534191
 21
1410.669659067459
 31
0.0
  0
LINE
  5
1220F
  8
01
 10
2755.0778397534191
 20
1410.669659067459
 30
0.0
 11
2755.1879242871109
 21
1410.364265848465
 31
0.0
  0
LINE
  5
12210
  8
01
 10
2755.1879242871109
 20
1410.364265848465
 30
0.0
 11
2755.2987641308609
 21
1410.047396112747
 31
0.0
  0
LINE
  5
12211
  8
01
 10
2755.2987641308609
 20
1410.047396112747
 30
0.0
 11
2755.4090775463878
 21
1409.7217792762001
 31
0.0
  0
LINE
  5
12212
  8
01
 10
2755.4090775463878
 20
1409.7217792762001
 30
0.0
 11
2755.5176133129889
 21
1409.3901752722929
 31
0.0
  0
LINE
  5
12213
  8
01
 10
2755.5176133129889
 20
1409.3901752722929
 30
0.0
 11
2755.6233109448249
 21
1409.0555843604279
 31
0.0
  0
LINE
  5
12214
  8
01
 10
2755.6233109448249
 20
1409.0555843604279
 30
0.0
 11
2755.7252091381852
 21
1408.721147943802
 31
0.0
  0
LINE
  5
12215
  8
01
 10
2755.7252091381852
 20
1408.721147943802
 30
0.0
 11
2755.8223618481461
 21
1408.390001703568
 31
0.0
  0
LINE
  5
12216
  8
01
 10
2755.8223618481461
 20
1408.390001703568
 30
0.0
 11
2755.9138993237311
 21
1408.0653747809599
 31
0.0
  0
LINE
  5
12217
  8
01
 10
2755.9138993237311
 20
1408.0653747809599
 30
0.0
 11
2755.9992341015641
 21
1407.7506965888219
 31
0.0
  0
LINE
  5
12218
  8
01
 10
2755.9992341015641
 20
1407.7506965888219
 30
0.0
 11
2756.0778168652359
 21
1407.449406076737
 31
0.0
  0
LINE
  5
12219
  8
01
 10
2756.0778168652359
 20
1407.449406076737
 30
0.0
 11
2756.1492203686539
 21
1407.16484491951
 31
0.0
  0
LINE
  5
1221A
  8
01
 10
2756.1492203686539
 20
1407.16484491951
 30
0.0
 11
2756.2132081005871
 21
1406.900265146561
 31
0.0
  0
LINE
  5
1221B
  8
01
 10
2756.2132081005871
 20
1406.900265146561
 30
0.0
 11
2756.2695740673839
 21
1406.658775736161
 31
0.0
  0
LINE
  5
1221C
  8
01
 10
2756.2695740673839
 20
1406.658775736161
 30
0.0
 11
2756.3182724926769
 21
1406.4431728614049
 31
0.0
  0
LINE
  5
1221D
  8
01
 10
2756.3182724926769
 20
1406.4431728614049
 30
0.0
 11
2756.359333894045
 21
1406.2559589637001
 31
0.0
  0
LINE
  5
1221E
  8
01
 10
2756.359333894045
 20
1406.2559589637001
 30
0.0
 11
2756.3928040478531
 21
1406.0994323981481
 31
0.0
  0
LINE
  5
1221F
  8
01
 10
2756.3928040478531
 20
1406.0994323981481
 30
0.0
 11
2756.4187897656261
 21
1405.9753727210241
 31
0.0
  0
LINE
  5
12220
  8
01
 10
2756.4187897656261
 20
1405.9753727210241
 30
0.0
 11
2756.43745126465
 21
1405.885021616288
 31
0.0
  0
LINE
  5
12221
  8
01
 10
2756.43745126465
 20
1405.885021616288
 30
0.0
 11
2756.450032136232
 21
1405.8253235114289
 31
0.0
  0
LINE
  5
12222
  8
01
 10
2756.450032136232
 20
1405.8253235114289
 30
0.0
 11
2756.460644624025
 21
1405.7802700293739
 31
0.0
  0
LINE
  5
12223
  8
01
 10
2775.2570160839859
 20
1436.8656677497099
 30
0.0
 11
2774.2823380444352
 21
1436.7531952155309
 31
0.0
  0
LINE
  5
12224
  8
01
 10
2774.2823380444352
 20
1436.7531952155309
 30
0.0
 11
2773.3097046826192
 21
1436.6243805182651
 31
0.0
  0
LINE
  5
12225
  8
01
 10
2773.3097046826192
 20
1436.6243805182651
 30
0.0
 11
2772.3402451489269
 21
1436.473532129593
 31
0.0
  0
LINE
  5
12226
  8
01
 10
2772.3402451489269
 20
1436.473532129593
 30
0.0
 11
2771.3749207470719
 21
1436.2981552375029
 31
0.0
  0
LINE
  5
12227
  8
01
 10
2771.3749207470719
 20
1436.2981552375029
 30
0.0
 11
2770.4145020459
 21
1436.097696710892
 31
0.0
  0
LINE
  5
12228
  8
01
 10
2770.4145020459
 20
1436.097696710892
 30
0.0
 11
2769.4597062084972
 21
1435.8720115912629
 31
0.0
  0
LINE
  5
12229
  8
01
 10
2769.4597062084972
 20
1435.8720115912629
 30
0.0
 11
2768.511174104005
 21
1435.6212906134799
 31
0.0
  0
LINE
  5
1222A
  8
01
 10
2768.511174104005
 20
1435.6212906134799
 30
0.0
 11
2767.5693711254889
 21
1435.346285272904
 31
0.0
  0
LINE
  5
1222B
  8
01
 10
2767.5693711254889
 20
1435.346285272904
 30
0.0
 11
2766.6347474072281
 21
1435.0478004706581
 31
0.0
  0
LINE
  5
1222C
  8
01
 10
2766.6347474072281
 20
1435.0478004706581
 30
0.0
 11
2765.7077683422872
 21
1434.726419855423
 31
0.0
  0
LINE
  5
1222D
  8
01
 10
2765.7077683422872
 20
1434.726419855423
 30
0.0
 11
2764.788899323732
 21
1434.3825172675331
 31
0.0
  0
LINE
  5
1222E
  8
01
 10
2764.788899323732
 20
1434.3825172675331
 30
0.0
 11
2763.87860574463
 21
1434.016458917923
 31
0.0
  0
LINE
  5
1222F
  8
01
 10
2763.87860574463
 20
1434.016458917923
 30
0.0
 11
2762.977360627443
 21
1433.6286072028349
 31
0.0
  0
LINE
  5
12230
  8
01
 10
2762.977360627443
 20
1433.6286072028349
 30
0.0
 11
2762.085774323732
 21
1433.2190536750029
 31
0.0
  0
LINE
  5
12231
  8
01
 10
2762.085774323732
 20
1433.2190536750029
 30
0.0
 11
2761.2047165844742
 21
1432.787401605912
 31
0.0
  0
LINE
  5
12232
  8
01
 10
2761.2047165844742
 20
1432.787401605912
 30
0.0
 11
2760.3350953076192
 21
1432.3331817877961
 31
0.0
  0
LINE
  5
12233
  8
01
 10
2760.3350953076192
 20
1432.3331817877961
 30
0.0
 11
2759.4779175732442
 21
1431.8558487189489
 31
0.0
  0
LINE
  5
12234
  8
01
 10
2759.4779175732442
 20
1431.8558487189489
 30
0.0
 11
2758.634709260255
 21
1431.354280878372
 31
0.0
  0
LINE
  5
12235
  8
01
 10
2758.634709260255
 20
1431.354280878372
 30
0.0
 11
2757.8072937939469
 21
1430.8270668280791
 31
0.0
  0
LINE
  5
12236
  8
01
 10
2757.8072937939469
 20
1430.8270668280791
 30
0.0
 11
2756.9980668042008
 21
1430.2723411811071
 31
0.0
  0
LINE
  5
12237
  8
01
 10
2756.9980668042008
 20
1430.2723411811071
 30
0.0
 11
2756.2101563427741
 21
1429.687735010453
 31
0.0
  0
LINE
  5
12238
  8
01
 10
2756.2101563427741
 20
1429.687735010453
 30
0.0
 11
2755.448086640627
 21
1429.0699600470739
 31
0.0
  0
LINE
  5
12239
  8
01
 10
2755.448086640627
 20
1429.0699600470739
 30
0.0
 11
2754.7169770214859
 21
1428.415460993119
 31
0.0
  0
LINE
  5
1223A
  8
01
 10
2754.7169770214859
 20
1428.415460993119
 30
0.0
 11
2754.0257081005871
 21
1427.719465662308
 31
0.0
  0
LINE
  5
1223B
  8
01
 10
2754.0257081005871
 20
1427.719465662308
 30
0.0
 11
2753.3853463146979
 21
1426.9765228522499
 31
0.0
  0
LINE
  5
1223C
  8
01
 10
2753.3853463146979
 20
1426.9765228522499
 30
0.0
 11
2752.8109330151378
 21
1426.181555200882
 31
0.0
  0
LINE
  5
1223D
  8
01
 10
2752.8109330151378
 20
1426.181555200882
 30
0.0
 11
2752.323853394777
 21
1425.3305076850129
 31
0.0
  0
LINE
  5
1223E
  8
01
 10
2752.323853394777
 20
1425.3305076850129
 30
0.0
 11
2751.9502190563981
 21
1424.4240707648471
 31
0.0
  0
LINE
  5
1223F
  8
01
 10
2751.9502190563981
 20
1424.4240707648471
 30
0.0
 11
2751.714730164796
 21
1423.4727806342321
 31
0.0
  0
LINE
  5
12240
  8
01
 10
2751.714730164796
 20
1423.4727806342321
 30
0.0
 11
2751.6313141796891
 21
1422.4961113227091
 31
0.0
  0
LINE
  5
12241
  8
01
 10
2751.6313141796891
 20
1422.4961113227091
 30
0.0
 11
2751.6912354443371
 21
1421.517839838333
 31
0.0
  0
LINE
  5
12242
  8
01
 10
2751.6912354443371
 20
1421.517839838333
 30
0.0
 11
2751.8643502209479
 21
1420.552271295853
 31
0.0
  0
LINE
  5
12243
  8
01
 10
2751.8643502209479
 20
1420.552271295853
 30
0.0
 11
2752.113346955568
 21
1419.6035217536171
 31
0.0
  0
LINE
  5
12244
  8
01
 10
2752.113346955568
 20
1419.6035217536171
 30
0.0
 11
2752.4044617626969
 21
1418.6544861090849
 31
0.0
  0
LINE
  5
12245
  8
01
 10
2784.9589432690441
 20
1424.9467186225129
 30
0.0
 11
2791.0494126293961
 21
1425.6221870673371
 31
0.0
  0
LINE
  5
12246
  8
01
 10
2791.0494126293961
 20
1425.6221870673371
 30
0.0
 11
2797.1628464672872
 21
1426.143663812943
 31
0.0
  0
LINE
  5
12247
  8
01
 10
2797.1628464672872
 20
1426.143663812943
 30
0.0
 11
2803.2954071972672
 21
1426.510416437455
 31
0.0
  0
LINE
  5
12248
  8
01
 10
2803.2954071972672
 20
1426.510416437455
 30
0.0
 11
2809.4432419750992
 21
1426.7218078864289
 31
0.0
  0
LINE
  5
12249
  8
01
 10
2809.4432419750992
 20
1426.7218078864289
 30
0.0
 11
2815.602482697755
 21
1426.7772888434599
 31
0.0
  0
LINE
  5
1224A
  8
01
 10
2815.602482697755
 20
1426.7772888434599
 30
0.0
 11
2821.76923074463
 21
1426.676412988968
 31
0.0
  0
LINE
  5
1224B
  8
01
 10
2821.76923074463
 20
1426.676412988968
 30
0.0
 11
2827.9395951245128
 21
1426.4188217414101
 31
0.0
  0
LINE
  5
1224C
  8
01
 10
2827.9395951245128
 20
1426.4188217414101
 30
0.0
 11
2834.1096390698258
 21
1426.004259516068
 31
0.0
  0
LINE
  5
1224D
  8
01
 10
2834.1096390698258
 20
1426.004259516068
 30
0.0
 11
2840.2754258129899
 21
1425.432550836869
 31
0.0
  0
LINE
  5
1224E
  8
01
 10
2840.2754258129899
 20
1425.432550836869
 30
0.0
 11
2846.433033845216
 21
1424.7036346686559
 31
0.0
  0
LINE
  5
1224F
  8
01
 10
2846.433033845216
 20
1424.7036346686559
 30
0.0
 11
2852.5784958813492
 21
1423.8175300849159
 31
0.0
  0
LINE
  5
12250
  8
01
 10
2852.5784958813492
 20
1423.8175300849159
 30
0.0
 11
2858.7078598950211
 21
1422.774370600052
 31
0.0
  0
LINE
  5
12251
  8
01
 10
2858.7078598950211
 20
1422.774370600052
 30
0.0
 11
2864.8171738598649
 21
1421.574369837113
 31
0.0
  0
LINE
  5
12252
  8
01
 10
2864.8171738598649
 20
1421.574369837113
 30
0.0
 11
2870.9025010083019
 21
1420.2178520453649
 31
0.0
  0
LINE
  5
12253
  8
01
 10
2870.9025010083019
 20
1420.2178520453649
 30
0.0
 11
2876.9598587963878
 21
1418.705229212113
 31
0.0
  0
LINE
  5
12254
  8
01
 10
2876.9598587963878
 20
1418.705229212113
 30
0.0
 11
2882.9853104565441
 21
1417.0370277655791
 31
0.0
  0
LINE
  5
12255
  8
01
 10
2882.9853104565441
 20
1417.0370277655791
 30
0.0
 11
2888.974934479982
 21
1415.2138618720251
 31
0.0
  0
LINE
  5
12256
  8
01
 10
2888.974934479982
 20
1415.2138618720251
 30
0.0
 11
2894.9358872387711
 21
1413.232601572342
 31
0.0
  0
LINE
  5
12257
  8
01
 10
2895.2125061642018
 20
1334.887133626012
 30
0.0
 11
2888.1134232495128
 21
1332.4000408125621
 31
0.0
  0
LINE
  5
12258
  8
01
 10
2888.1134232495128
 20
1332.4000408125621
 30
0.0
 11
2882.1313981030289
 21
1330.473172373841
 31
0.0
  0
LINE
  5
12259
  8
01
 10
2882.1313981030289
 20
1330.473172373841
 30
0.0
 11
2876.107838532716
 21
1328.6988460493781
 31
0.0
  0
LINE
  5
1225A
  8
01
 10
2876.107838532716
 20
1328.6988460493781
 30
0.0
 11
2870.0465287182628
 21
1327.0778972578739
 31
0.0
  0
LINE
  5
1225B
  8
01
 10
2870.0465287182628
 20
1327.0778972578739
 30
0.0
 11
2863.9512680981461
 21
1325.611069865296
 31
0.0
  0
LINE
  5
1225C
  8
01
 10
2863.9512680981461
 20
1325.611069865296
 30
0.0
 11
2857.8259171459972
 21
1324.2990199995729
 31
0.0
  0
LINE
  5
1225D
  8
01
 10
2857.8259171459972
 20
1324.2990199995729
 30
0.0
 11
2851.6742905590831
 21
1323.1423007918099
 31
0.0
  0
LINE
  5
1225E
  8
01
 10
2851.6742905590831
 20
1323.1423007918099
 30
0.0
 11
2845.5002335522472
 21
1322.141377635071
 31
0.0
  0
LINE
  5
1225F
  8
01
 10
2845.5002335522472
 20
1322.141377635071
 30
0.0
 11
2839.3076218579122
 21
1321.2966243696901
 31
0.0
  0
LINE
  5
12260
  8
01
 10
2839.3076218579122
 20
1321.2966243696901
 30
0.0
 11
2833.10028543213
 21
1320.608327097962
 31
0.0
  0
LINE
  5
12261
  8
01
 10
2833.10028543213
 20
1320.608327097962
 30
0.0
 11
2826.8821152661139
 21
1320.0766651106569
 31
0.0
  0
LINE
  5
12262
  8
01
 10
2826.8821152661139
 20
1320.0766651106569
 30
0.0
 11
2820.6569413159191
 21
1319.7017414046029
 31
0.0
  0
LINE
  5
12263
  8
01
 10
2820.6569413159191
 20
1319.7017414046029
 30
0.0
 11
2814.42864694336
 21
1319.483559794495
 31
0.0
  0
LINE
  5
12264
  8
01
 10
2814.42864694336
 20
1319.483559794495
 30
0.0
 11
2808.2010697338878
 21
1319.422032542298
 31
0.0
  0
LINE
  5
12265
  8
01
 10
2808.2010697338878
 20
1319.422032542298
 30
0.0
 11
2801.9780625317399
 21
1319.5169803572389
 31
0.0
  0
LINE
  5
12266
  8
01
 10
2801.9780625317399
 20
1319.5169803572389
 30
0.0
 11
2795.7634629223639
 21
1319.7681400252079
 31
0.0
  0
LINE
  5
12267
  8
01
 10
2795.7634629223639
 20
1319.7681400252079
 30
0.0
 11
2789.5611008618171
 21
1320.175149149964
 31
0.0
  0
LINE
  5
12268
  8
01
 10
2789.5611008618171
 20
1320.175149149964
 30
0.0
 11
2783.3747757885749
 21
1320.7375537825319
 31
0.0
  0
LINE
  5
12269
  8
01
 10
2783.3747757885749
 20
1320.7375537825319
 30
0.0
 11
2777.175465485841
 21
1321.4590579939579
 31
0.0
  0
LINE
  5
1226A
  8
01
 10
2772.1442612622081
 20
1323.2634975386361
 30
0.0
 11
2773.0217026684581
 21
1322.7442485762331
 31
0.0
  0
LINE
  5
1226B
  8
01
 10
2773.0217026684581
 20
1322.7442485762331
 30
0.0
 11
2773.957096955568
 21
1322.280308909485
 31
0.0
  0
LINE
  5
1226C
  8
01
 10
2773.957096955568
 20
1322.280308909485
 30
0.0
 11
2774.940861604005
 21
1321.9100505781871
 31
0.0
  0
LINE
  5
1226D
  8
01
 10
2774.940861604005
 20
1321.9100505781871
 30
0.0
 11
2775.9575699780289
 21
1321.649365611145
 31
0.0
  0
LINE
  5
1226E
  8
01
 10
2775.9575699780289
 20
1321.649365611145
 30
0.0
 11
2777.175465485841
 21
1321.4590579939579
 31
0.0
  0
LINE
  5
1226F
  8
01
 10
2772.1442612622081
 20
1323.2634975386361
 30
0.0
 11
2771.0094040844742
 21
1324.0190326643681
 31
0.0
  0
LINE
  5
12270
  8
01
 10
2771.0094040844742
 20
1324.0190326643681
 30
0.0
 11
2769.9082230541999
 21
1324.8601200056769
 31
0.0
  0
LINE
  5
12271
  8
01
 10
2769.9082230541999
 20
1324.8601200056769
 30
0.0
 11
2768.8533143017589
 21
1325.7742397261361
 31
0.0
  0
LINE
  5
12272
  8
01
 10
2768.8533143017589
 20
1325.7742397261361
 30
0.0
 11
2767.8591736767589
 21
1326.7548953963019
 31
0.0
  0
LINE
  5
12273
  8
01
 10
2767.8591736767589
 20
1326.7548953963019
 30
0.0
 11
2766.9411515209981
 21
1327.8004276228639
 31
0.0
  0
LINE
  5
12274
  8
01
 10
2766.9411515209981
 20
1327.8004276228639
 30
0.0
 11
2766.1148804638692
 21
1328.912392802308
 31
0.0
  0
LINE
  5
12275
  8
01
 10
2766.1148804638692
 20
1328.912392802308
 30
0.0
 11
2765.3959778759781
 21
1330.0915691328739
 31
0.0
  0
LINE
  5
12276
  8
01
 10
2765.3959778759781
 20
1330.0915691328739
 30
0.0
 11
2764.7987870190441
 21
1331.3363468123171
 31
0.0
  0
LINE
  5
12277
  8
01
 10
2764.7987870190441
 20
1331.3363468123171
 30
0.0
 11
2764.3338440869152
 21
1332.6393711043099
 31
0.0
  0
LINE
  5
12278
  8
01
 10
2764.3338440869152
 20
1332.6393711043099
 30
0.0
 11
2763.999089143068
 21
1333.987441248963
 31
0.0
  0
LINE
  5
12279
  8
01
 10
2763.999089143068
 20
1333.987441248963
 30
0.0
 11
2763.7757996533219
 21
1335.361697382996
 31
0.0
  0
LINE
  5
1227A
  8
01
 10
2763.7757996533219
 20
1335.361697382996
 30
0.0
 11
2763.6179017041031
 21
1336.80849761493
 31
0.0
  0
LINE
  5
1227B
  8
01
 10
2754.3182343457052
 20
1336.9632865858771
 30
0.0
 11
2754.3363388989269
 21
1337.009524531433
 31
0.0
  0
LINE
  5
1227C
  8
01
 10
2754.3363388989269
 20
1337.009524531433
 30
0.0
 11
2754.3595169995128
 21
1337.063832469056
 31
0.0
  0
LINE
  5
1227D
  8
01
 10
2754.3595169995128
 20
1337.063832469056
 30
0.0
 11
2754.397282502443
 21
1337.1526348067021
 31
0.0
  0
LINE
  5
1227E
  8
01
 10
2754.397282502443
 20
1337.1526348067021
 30
0.0
 11
2754.4488190625011
 21
1337.27460975177
 31
0.0
  0
LINE
  5
1227F
  8
01
 10
2754.4488190625011
 20
1337.27460975177
 30
0.0
 11
2754.5128449414078
 21
1337.4277965498659
 31
0.0
  0
LINE
  5
12280
  8
01
 10
2754.5128449414078
 20
1337.4277965498659
 30
0.0
 11
2754.5880326245128
 21
1337.610135264466
 31
0.0
  0
LINE
  5
12281
  8
01
 10
2754.5880326245128
 20
1337.610135264466
 30
0.0
 11
2754.6728943798839
 21
1337.8193084669799
 31
0.0
  0
LINE
  5
12282
  8
01
 10
2754.6728943798839
 20
1337.8193084669799
 30
0.0
 11
2754.7658432934581
 21
1338.0527965498659
 31
0.0
  0
LINE
  5
12283
  8
01
 10
2754.7658432934581
 20
1338.0527965498659
 30
0.0
 11
2754.8653305981461
 21
1338.308072276184
 31
0.0
  0
LINE
  5
12284
  8
01
 10
2754.8653305981461
 20
1338.308072276184
 30
0.0
 11
2754.9698227856461
 21
1338.5826045942999
 31
0.0
  0
LINE
  5
12285
  8
01
 10
2754.9698227856461
 20
1338.5826045942999
 30
0.0
 11
2755.0778397534191
 21
1338.873839564392
 31
0.0
  0
LINE
  5
12286
  8
01
 10
2755.0778397534191
 20
1338.873839564392
 30
0.0
 11
2755.1879242871109
 21
1339.1792327833871
 31
0.0
  0
LINE
  5
12287
  8
01
 10
2755.1879242871109
 20
1339.1792327833871
 30
0.0
 11
2755.2987641308609
 21
1339.4961025191051
 31
0.0
  0
LINE
  5
12288
  8
01
 10
2755.2987641308609
 20
1339.4961025191051
 30
0.0
 11
2755.4090775463878
 21
1339.821719355652
 31
0.0
  0
LINE
  5
12289
  8
01
 10
2755.4090775463878
 20
1339.821719355652
 30
0.0
 11
2755.5176133129889
 21
1340.153323359559
 31
0.0
  0
LINE
  5
1228A
  8
01
 10
2755.5176133129889
 20
1340.153323359559
 30
0.0
 11
2755.6233109448249
 21
1340.487914271424
 31
0.0
  0
LINE
  5
1228B
  8
01
 10
2755.6233109448249
 20
1340.487914271424
 30
0.0
 11
2755.7252091381852
 21
1340.8223506880499
 31
0.0
  0
LINE
  5
1228C
  8
01
 10
2755.7252091381852
 20
1340.8223506880499
 30
0.0
 11
2755.8223618481461
 21
1341.1534969282841
 31
0.0
  0
LINE
  5
1228D
  8
01
 10
2755.8223618481461
 20
1341.1534969282841
 30
0.0
 11
2755.9138993237311
 21
1341.4781238508911
 31
0.0
  0
LINE
  5
1228E
  8
01
 10
2755.9138993237311
 20
1341.4781238508911
 30
0.0
 11
2755.9992341015641
 21
1341.79280204303
 31
0.0
  0
LINE
  5
1228F
  8
01
 10
2755.9992341015641
 20
1341.79280204303
 30
0.0
 11
2756.0778168652359
 21
1342.0940925551149
 31
0.0
  0
LINE
  5
12290
  8
01
 10
2756.0778168652359
 20
1342.0940925551149
 30
0.0
 11
2756.1492203686539
 21
1342.3786537123419
 31
0.0
  0
LINE
  5
12291
  8
01
 10
2756.1492203686539
 20
1342.3786537123419
 30
0.0
 11
2756.2132081005871
 21
1342.6432334852909
 31
0.0
  0
LINE
  5
12292
  8
01
 10
2756.2132081005871
 20
1342.6432334852909
 30
0.0
 11
2756.2695740673839
 21
1342.8847228956911
 31
0.0
  0
LINE
  5
12293
  8
01
 10
2756.2695740673839
 20
1342.8847228956911
 30
0.0
 11
2756.3182724926769
 21
1343.1003257704469
 31
0.0
  0
LINE
  5
12294
  8
01
 10
2756.3182724926769
 20
1343.1003257704469
 30
0.0
 11
2756.359333894045
 21
1343.287539668152
 31
0.0
  0
LINE
  5
12295
  8
01
 10
2756.359333894045
 20
1343.287539668152
 30
0.0
 11
2756.3928040478531
 21
1343.444066233704
 31
0.0
  0
LINE
  5
12296
  8
01
 10
2756.3928040478531
 20
1343.444066233704
 30
0.0
 11
2756.4187897656261
 21
1343.568125910828
 31
0.0
  0
LINE
  5
12297
  8
01
 10
2756.4187897656261
 20
1343.568125910828
 30
0.0
 11
2756.43745126465
 21
1343.6584770155639
 31
0.0
  0
LINE
  5
12298
  8
01
 10
2756.43745126465
 20
1343.6584770155639
 30
0.0
 11
2756.450032136232
 21
1343.718175120423
 31
0.0
  0
LINE
  5
12299
  8
01
 10
2756.450032136232
 20
1343.718175120423
 30
0.0
 11
2756.460644624025
 21
1343.763228602478
 31
0.0
  0
LINE
  5
1229A
  8
01
 10
2775.2570160839859
 20
1312.677830882142
 30
0.0
 11
2774.2823380444352
 21
1312.790303416321
 31
0.0
  0
LINE
  5
1229B
  8
01
 10
2774.2823380444352
 20
1312.790303416321
 30
0.0
 11
2773.3097046826192
 21
1312.919118113587
 31
0.0
  0
LINE
  5
1229C
  8
01
 10
2773.3097046826192
 20
1312.919118113587
 30
0.0
 11
2772.3402451489269
 21
1313.0699665022589
 31
0.0
  0
LINE
  5
1229D
  8
01
 10
2772.3402451489269
 20
1313.0699665022589
 30
0.0
 11
2771.3749207470719
 21
1313.2453433943481
 31
0.0
  0
LINE
  5
1229E
  8
01
 10
2771.3749207470719
 20
1313.2453433943481
 30
0.0
 11
2770.4145020459
 21
1313.4458019209601
 31
0.0
  0
LINE
  5
1229F
  8
01
 10
2770.4145020459
 20
1313.4458019209601
 30
0.0
 11
2769.4597062084972
 21
1313.671487040589
 31
0.0
  0
LINE
  5
122A0
  8
01
 10
2769.4597062084972
 20
1313.671487040589
 30
0.0
 11
2768.511174104005
 21
1313.922208018372
 31
0.0
  0
LINE
  5
122A1
  8
01
 10
2768.511174104005
 20
1313.922208018372
 30
0.0
 11
2767.5693711254889
 21
1314.1972133589479
 31
0.0
  0
LINE
  5
122A2
  8
01
 10
2767.5693711254889
 20
1314.1972133589479
 30
0.0
 11
2766.6347474072281
 21
1314.495698161194
 31
0.0
  0
LINE
  5
122A3
  8
01
 10
2766.6347474072281
 20
1314.495698161194
 30
0.0
 11
2765.7077683422872
 21
1314.8170787764291
 31
0.0
  0
LINE
  5
122A4
  8
01
 10
2765.7077683422872
 20
1314.8170787764291
 30
0.0
 11
2764.788899323732
 21
1315.160981364319
 31
0.0
  0
LINE
  5
122A5
  8
01
 10
2764.788899323732
 20
1315.160981364319
 30
0.0
 11
2763.87860574463
 21
1315.5270397139291
 31
0.0
  0
LINE
  5
122A6
  8
01
 10
2763.87860574463
 20
1315.5270397139291
 30
0.0
 11
2762.977360627443
 21
1315.914891429017
 31
0.0
  0
LINE
  5
122A7
  8
01
 10
2762.977360627443
 20
1315.914891429017
 30
0.0
 11
2762.085774323732
 21
1316.324444956849
 31
0.0
  0
LINE
  5
122A8
  8
01
 10
2762.085774323732
 20
1316.324444956849
 30
0.0
 11
2761.2047165844742
 21
1316.7560970259401
 31
0.0
  0
LINE
  5
122A9
  8
01
 10
2761.2047165844742
 20
1316.7560970259401
 30
0.0
 11
2760.3350953076192
 21
1317.210316844056
 31
0.0
  0
LINE
  5
122AA
  8
01
 10
2760.3350953076192
 20
1317.210316844056
 30
0.0
 11
2759.4779175732442
 21
1317.687649912903
 31
0.0
  0
LINE
  5
122AB
  8
01
 10
2759.4779175732442
 20
1317.687649912903
 30
0.0
 11
2758.634709260255
 21
1318.1892177534789
 31
0.0
  0
LINE
  5
122AC
  8
01
 10
2758.634709260255
 20
1318.1892177534789
 30
0.0
 11
2757.8072937939469
 21
1318.7164318037719
 31
0.0
  0
LINE
  5
122AD
  8
01
 10
2757.8072937939469
 20
1318.7164318037719
 30
0.0
 11
2756.9980668042008
 21
1319.271157450745
 31
0.0
  0
LINE
  5
122AE
  8
01
 10
2756.9980668042008
 20
1319.271157450745
 30
0.0
 11
2756.2101563427741
 21
1319.8557636213991
 31
0.0
  0
LINE
  5
122AF
  8
01
 10
2756.2101563427741
 20
1319.8557636213991
 30
0.0
 11
2755.448086640627
 21
1320.473538584778
 31
0.0
  0
LINE
  5
122B0
  8
01
 10
2755.448086640627
 20
1320.473538584778
 30
0.0
 11
2754.7169770214859
 21
1321.1280376387331
 31
0.0
  0
LINE
  5
122B1
  8
01
 10
2754.7169770214859
 20
1321.1280376387331
 30
0.0
 11
2754.0257081005871
 21
1321.8240329695441
 31
0.0
  0
LINE
  5
122B2
  8
01
 10
2754.0257081005871
 20
1321.8240329695441
 30
0.0
 11
2753.3853463146979
 21
1322.5669757796029
 31
0.0
  0
LINE
  5
122B3
  8
01
 10
2753.3853463146979
 20
1322.5669757796029
 30
0.0
 11
2752.8109330151378
 21
1323.3619434309701
 31
0.0
  0
LINE
  5
122B4
  8
01
 10
2752.8109330151378
 20
1323.3619434309701
 30
0.0
 11
2752.323853394777
 21
1324.212990946839
 31
0.0
  0
LINE
  5
122B5
  8
01
 10
2752.323853394777
 20
1324.212990946839
 30
0.0
 11
2751.9502190563981
 21
1325.119427867005
 31
0.0
  0
LINE
  5
122B6
  8
01
 10
2751.9502190563981
 20
1325.119427867005
 30
0.0
 11
2751.714730164796
 21
1326.07071799762
 31
0.0
  0
LINE
  5
122B7
  8
01
 10
2751.714730164796
 20
1326.07071799762
 30
0.0
 11
2751.6313141796891
 21
1327.047387309143
 31
0.0
  0
LINE
  5
122B8
  8
01
 10
2751.6313141796891
 20
1327.047387309143
 30
0.0
 11
2751.6912354443371
 21
1328.025658793518
 31
0.0
  0
LINE
  5
122B9
  8
01
 10
2751.6912354443371
 20
1328.025658793518
 30
0.0
 11
2751.8643502209479
 21
1328.9912273359989
 31
0.0
  0
LINE
  5
122BA
  8
01
 10
2751.8643502209479
 20
1328.9912273359989
 30
0.0
 11
2752.113346955568
 21
1329.939976878235
 31
0.0
  0
LINE
  5
122BB
  8
01
 10
2752.113346955568
 20
1329.939976878235
 30
0.0
 11
2752.4044617626969
 21
1330.889012522767
 31
0.0
  0
LINE
  5
122BC
  8
01
 10
2784.9589432690441
 20
1324.596780009339
 30
0.0
 11
2791.0494126293961
 21
1323.921311564515
 31
0.0
  0
LINE
  5
122BD
  8
01
 10
2791.0494126293961
 20
1323.921311564515
 30
0.0
 11
2797.1628464672872
 21
1323.3998348189091
 31
0.0
  0
LINE
  5
122BE
  8
01
 10
2797.1628464672872
 20
1323.3998348189091
 30
0.0
 11
2803.2954071972672
 21
1323.0330821943969
 31
0.0
  0
LINE
  5
122BF
  8
01
 10
2803.2954071972672
 20
1323.0330821943969
 30
0.0
 11
2809.4432419750992
 21
1322.821690745423
 31
0.0
  0
LINE
  5
122C0
  8
01
 10
2809.4432419750992
 20
1322.821690745423
 30
0.0
 11
2815.602482697755
 21
1322.766209788392
 31
0.0
  0
LINE
  5
122C1
  8
01
 10
2815.602482697755
 20
1322.766209788392
 30
0.0
 11
2821.76923074463
 21
1322.8670856428839
 31
0.0
  0
LINE
  5
122C2
  8
01
 10
2821.76923074463
 20
1322.8670856428839
 30
0.0
 11
2827.9395951245128
 21
1323.1246768904421
 31
0.0
  0
LINE
  5
122C3
  8
01
 10
2827.9395951245128
 20
1323.1246768904421
 30
0.0
 11
2834.1096390698258
 21
1323.5392391157841
 31
0.0
  0
LINE
  5
122C4
  8
01
 10
2834.1096390698258
 20
1323.5392391157841
 30
0.0
 11
2840.2754258129899
 21
1324.1109477949831
 31
0.0
  0
LINE
  5
122C5
  8
01
 10
2840.2754258129899
 20
1324.1109477949831
 30
0.0
 11
2846.433033845216
 21
1324.839863963196
 31
0.0
  0
LINE
  5
122C6
  8
01
 10
2846.433033845216
 20
1324.839863963196
 30
0.0
 11
2852.5784958813492
 21
1325.725968546936
 31
0.0
  0
LINE
  5
122C7
  8
01
 10
2852.5784958813492
 20
1325.725968546936
 30
0.0
 11
2858.7078598950211
 21
1326.7691280317999
 31
0.0
  0
LINE
  5
122C8
  8
01
 10
2858.7078598950211
 20
1326.7691280317999
 30
0.0
 11
2864.8171738598649
 21
1327.9691287947389
 31
0.0
  0
LINE
  5
122C9
  8
01
 10
2864.8171738598649
 20
1327.9691287947389
 30
0.0
 11
2870.9025010083019
 21
1329.325646586487
 31
0.0
  0
LINE
  5
122CA
  8
01
 10
2870.9025010083019
 20
1329.325646586487
 30
0.0
 11
2876.9598587963878
 21
1330.8382694197389
 31
0.0
  0
LINE
  5
122CB
  8
01
 10
2876.9598587963878
 20
1330.8382694197389
 30
0.0
 11
2882.9853104565441
 21
1332.5064708662719
 31
0.0
  0
LINE
  5
122CC
  8
01
 10
2882.9853104565441
 20
1332.5064708662719
 30
0.0
 11
2888.974934479982
 21
1334.3296367598271
 31
0.0
  0
LINE
  5
122CD
  8
01
 10
2888.974934479982
 20
1334.3296367598271
 30
0.0
 11
2894.9358872387711
 21
1336.3108970595099
 31
0.0
  0
LINE
  5
122D1
  8
01
 10
2769.5035650288901
 20
1090.3014494900101
 30
0.0
 11
2769.8332460287579
 21
1090.268245484169
 31
0.0
  0
LINE
  5
122D2
  8
01
 10
2769.8332460287579
 20
1090.268245484169
 30
0.0
 11
2770.9852192865028
 21
1090.249917804503
 31
0.0
  0
LINE
  5
122D3
  8
01
 10
2770.9852192865028
 20
1090.249917804503
 30
0.0
 11
2772.2067997918739
 21
1090.257760822082
 31
0.0
  0
LINE
  5
122D4
  8
01
 10
2772.2067997918739
 20
1090.257760822082
 30
0.0
 11
2773.4818470941209
 21
1090.272088825011
 31
0.0
  0
LINE
  5
122D5
  8
01
 10
2773.4818470941209
 20
1090.272088825011
 30
0.0
 11
2774.801930712285
 21
1090.2812669866321
 31
0.0
  0
LINE
  5
122D6
  8
01
 10
2774.801930712285
 20
1090.2812669866321
 30
0.0
 11
2776.1547749505662
 21
1090.2835405462031
 31
0.0
  0
LINE
  5
122D7
  8
01
 10
2752.4868824945111
 20
1095.1783083074331
 30
0.0
 11
2752.8384182916302
 21
1095.0631960027461
 31
0.0
  0
LINE
  5
122D8
  8
01
 10
2752.8384182916302
 20
1095.0631960027461
 30
0.0
 11
2753.1906750665321
 21
1094.950265704894
 31
0.0
  0
LINE
  5
122D9
  8
01
 10
2753.1906750665321
 20
1094.950265704894
 30
0.0
 11
2753.5435688958778
 21
1094.8393190496211
 31
0.0
  0
LINE
  5
122DA
  8
01
 10
2753.5435688958778
 20
1094.8393190496211
 30
0.0
 11
2753.8970311151161
 21
1094.730119525695
 31
0.0
  0
LINE
  5
122DB
  8
01
 10
2753.8970311151161
 20
1094.730119525695
 30
0.0
 11
2754.2509739862112
 21
1094.6224611394639
 31
0.0
  0
LINE
  5
122DC
  8
01
 10
2754.2509739862112
 20
1094.6224611394639
 30
0.0
 11
2754.6053212152142
 21
1094.516122638488
 31
0.0
  0
LINE
  5
122DD
  8
01
 10
2754.6053212152142
 20
1094.516122638488
 30
0.0
 11
2754.9600041375779
 21
1094.410890399718
 31
0.0
  0
LINE
  5
122DE
  8
01
 10
2754.9600041375779
 20
1094.410890399718
 30
0.0
 11
2755.3149312005662
 21
1094.306558429503
 31
0.0
  0
LINE
  5
122DF
  8
01
 10
2755.3149312005662
 20
1094.306558429503
 30
0.0
 11
2755.6700642572059
 21
1094.20293599298
 31
0.0
  0
LINE
  5
122E0
  8
01
 10
2755.6700642572059
 20
1094.20293599298
 30
0.0
 11
2756.025334642949
 21
1094.0998323552849
 31
0.0
  0
LINE
  5
122E1
  8
01
 10
2756.025334642949
 20
1094.0998323552849
 30
0.0
 11
2756.3806813226361
 21
1093.997056781554
 31
0.0
  0
LINE
  5
122E2
  8
01
 10
2756.3806813226361
 20
1093.997056781554
 30
0.0
 11
2756.7360508905072
 21
1093.894410907531
 31
0.0
  0
LINE
  5
122E3
  8
01
 10
2756.7360508905072
 20
1093.894410907531
 30
0.0
 11
2757.0913746820111
 21
1093.7917192571399
 31
0.0
  0
LINE
  5
122E4
  8
01
 10
2757.0913746820111
 20
1093.7917192571399
 30
0.0
 11
2757.4465992913861
 21
1093.6888063543081
 31
0.0
  0
LINE
  5
122E5
  8
01
 10
2757.4465992913861
 20
1093.6888063543081
 30
0.0
 11
2757.8016484246868
 21
1093.5854890935659
 31
0.0
  0
LINE
  5
122E6
  8
01
 10
2757.8016484246868
 20
1093.5854890935659
 30
0.0
 11
2758.1564457879681
 21
1093.481584369445
 31
0.0
  0
LINE
  5
122E7
  8
01
 10
2758.1564457879681
 20
1093.481584369445
 30
0.0
 11
2758.510899828495
 21
1093.376939594054
 31
0.0
  0
LINE
  5
122E8
  8
01
 10
2758.510899828495
 20
1093.376939594054
 30
0.0
 11
2758.864918993535
 21
1093.27137929132
 31
0.0
  0
LINE
  5
122E9
  8
01
 10
2758.864918993535
 20
1093.27137929132
 30
0.0
 11
2759.2184117303509
 21
1093.164735614562
 31
0.0
  0
LINE
  5
122EA
  8
01
 10
2759.2184117303509
 20
1093.164735614562
 30
0.0
 11
2759.5712559686322
 21
1093.0568483464949
 31
0.0
  0
LINE
  5
122EB
  8
01
 10
2759.5712559686322
 20
1093.0568483464949
 30
0.0
 11
2759.923283861699
 21
1092.947580158019
 31
0.0
  0
LINE
  5
122EC
  8
01
 10
2759.923283861699
 20
1092.947580158019
 30
0.0
 11
2760.2743199334759
 21
1092.8367784612419
 31
0.0
  0
LINE
  5
122ED
  8
01
 10
2760.2743199334759
 20
1092.8367784612419
 30
0.0
 11
2760.6241581903118
 21
1092.724313556457
 31
0.0
  0
LINE
  5
122EE
  8
01
 10
2760.6241581903118
 20
1092.724313556457
 30
0.0
 11
2760.9725087152151
 21
1092.6100710027461
 31
0.0
  0
LINE
  5
122EF
  8
01
 10
2760.9725087152151
 20
1092.6100710027461
 30
0.0
 11
2761.319035814824
 21
1092.493966876769
 31
0.0
  0
LINE
  5
122F0
  8
01
 10
2761.319035814824
 20
1092.493966876769
 30
0.0
 11
2761.6633351312298
 21
1092.3759325139761
 31
0.0
  0
LINE
  5
122F1
  8
01
 10
2761.6633351312298
 20
1092.3759325139761
 30
0.0
 11
2762.0048802362098
 21
1092.2559679143669
 31
0.0
  0
LINE
  5
122F2
  8
01
 10
2762.0048802362098
 20
1092.2559679143669
 30
0.0
 11
2762.3431065545701
 21
1092.1340654485459
 31
0.0
  0
LINE
  5
122F3
  8
01
 10
2762.3431065545701
 20
1092.1340654485459
 30
0.0
 11
2762.6773503289842
 21
1092.01031666925
 31
0.0
  0
LINE
  5
122F4
  8
01
 10
2762.6773503289842
 20
1092.01031666925
 30
0.0
 11
2762.8873312413389
 21
1091.9303575172651
 31
0.0
  0
LINE
  5
122F5
  8
01
 10
2898.4638264642381
 20
1101.2717607610459
 30
0.0
 11
2898.437794970097
 21
1100.534990131164
 31
0.0
  0
LINE
  5
122F6
  8
01
 10
2898.437794970097
 20
1100.534990131164
 30
0.0
 11
2898.3604786859182
 21
1099.8017137639761
 31
0.0
  0
LINE
  5
122F7
  8
01
 10
2898.3604786859182
 20
1099.8017137639761
 30
0.0
 11
2898.2324574456829
 21
1099.075685321593
 31
0.0
  0
LINE
  5
122F8
  8
01
 10
2898.2324574456829
 20
1099.075685321593
 30
0.0
 11
2898.0544331536912
 21
1098.360299884582
 31
0.0
  0
LINE
  5
122F9
  8
01
 10
2898.0544331536912
 20
1098.360299884582
 30
0.0
 11
2897.8274281488079
 21
1097.659005939269
 31
0.0
  0
LINE
  5
122FA
  8
01
 10
2897.8274281488079
 20
1097.659005939269
 30
0.0
 11
2897.5531208978318
 21
1096.9749391668081
 31
0.0
  0
LINE
  5
122FB
  8
01
 10
2897.5531208978318
 20
1096.9749391668081
 30
0.0
 11
2897.233449266972
 21
1096.311021625304
 31
0.0
  0
LINE
  5
122FC
  8
01
 10
2897.233449266972
 20
1096.311021625304
 30
0.0
 11
2896.8313801751751
 21
1095.606752216125
 31
0.0
  0
LINE
  5
122FD
  8
01
 10
2894.5540669427528
 20
1094.319581805968
 30
0.0
 11
2884.274586962284
 21
1093.6973665349719
 31
0.0
  0
LINE
  5
122FE
  8
01
 10
2884.274586962284
 20
1093.6973665349719
 30
0.0
 11
2873.8601735101361
 21
1093.108156024718
 31
0.0
  0
LINE
  5
122FF
  8
01
 10
2873.8601735101361
 20
1093.108156024718
 30
0.0
 11
2863.3218586908001
 21
1092.5653932683711
 31
0.0
  0
LINE
  5
12300
  8
01
 10
2863.3218586908001
 20
1092.5653932683711
 30
0.0
 11
2852.6765034661912
 21
1092.0752809636831
 31
0.0
  0
LINE
  5
12301
  8
01
 10
2852.6765034661912
 20
1092.0752809636831
 30
0.0
 11
2841.9433186517381
 21
1091.6411531560659
 31
0.0
  0
LINE
  5
12302
  8
01
 10
2841.9433186517381
 20
1091.6411531560659
 30
0.0
 11
2831.142766283574
 21
1091.264970599914
 31
0.0
  0
LINE
  5
12303
  8
01
 10
2831.142766283574
 20
1091.264970599914
 30
0.0
 11
2820.2960103021278
 21
1090.947946368957
 31
0.0
  0
LINE
  5
12304
  8
01
 10
2820.2960103021278
 20
1090.947946368957
 30
0.0
 11
2809.4246266351361
 21
1090.6909807317491
 31
0.0
  0
LINE
  5
12305
  8
01
 10
2809.4246266351361
 20
1090.6909807317491
 30
0.0
 11
2798.5504048333778
 21
1090.4947145574331
 31
0.0
  0
LINE
  5
12306
  8
01
 10
2798.5504048333778
 20
1090.4947145574331
 30
0.0
 11
2787.6953022943162
 21
1090.359666644835
 31
0.0
  0
LINE
  5
12307
  8
01
 10
2787.6953022943162
 20
1090.359666644835
 30
0.0
 11
2776.1553776727342
 21
1090.2835481755969
 31
0.0
  0
LINE
  5
12308
  8
01
 10
2769.8333638177528
 20
1112.2752550237419
 30
0.0
 11
2770.9852192865028
 21
1112.293580829406
 31
0.0
  0
LINE
  5
12309
  8
01
 10
2770.9852192865028
 20
1112.293580829406
 30
0.0
 11
2772.2067997918739
 21
1112.2857378118281
 31
0.0
  0
LINE
  5
1230A
  8
01
 10
2772.2067997918739
 20
1112.2857378118281
 30
0.0
 11
2773.4818470941209
 21
1112.2714098088979
 31
0.0
  0
LINE
  5
1230B
  8
01
 10
2773.4818470941209
 20
1112.2714098088979
 30
0.0
 11
2774.801930712285
 21
1112.2622316472771
 31
0.0
  0
LINE
  5
1230C
  8
01
 10
2774.801930712285
 20
1112.2622316472771
 30
0.0
 11
2776.1547749505662
 21
1112.259958087707
 31
0.0
  0
LINE
  5
12310
  8
01
 10
2769.5035650288901
 20
1112.2420491439
 30
0.0
 11
2769.8332646356248
 21
1112.2752550237419
 31
0.0
  0
LINE
  5
12311
  8
01
 10
2752.4868824945111
 20
1107.3651903264761
 30
0.0
 11
2752.8384182916302
 21
1107.480302631164
 31
0.0
  0
LINE
  5
12312
  8
01
 10
2752.8384182916302
 20
1107.480302631164
 30
0.0
 11
2753.1906750665321
 21
1107.5932329290149
 31
0.0
  0
LINE
  5
12313
  8
01
 10
2753.1906750665321
 20
1107.5932329290149
 30
0.0
 11
2753.5435688958778
 21
1107.704179584289
 31
0.0
  0
LINE
  5
12314
  8
01
 10
2753.5435688958778
 20
1107.704179584289
 30
0.0
 11
2753.8970311151161
 21
1107.8133791082139
 31
0.0
  0
LINE
  5
12315
  8
01
 10
2753.8970311151161
 20
1107.8133791082139
 30
0.0
 11
2754.2509739862112
 21
1107.921037494445
 31
0.0
  0
LINE
  5
12316
  8
01
 10
2754.2509739862112
 20
1107.921037494445
 30
0.0
 11
2754.6053212152142
 21
1108.0273759954221
 31
0.0
  0
LINE
  5
12317
  8
01
 10
2754.6053212152142
 20
1108.0273759954221
 30
0.0
 11
2754.9600041375779
 21
1108.1326082341909
 31
0.0
  0
LINE
  5
12318
  8
01
 10
2754.9600041375779
 20
1108.1326082341909
 30
0.0
 11
2755.3149312005662
 21
1108.236940204406
 31
0.0
  0
LINE
  5
12319
  8
01
 10
2755.3149312005662
 20
1108.236940204406
 30
0.0
 11
2755.6700642572059
 21
1108.340562640929
 31
0.0
  0
LINE
  5
1231A
  8
01
 10
2755.6700642572059
 20
1108.340562640929
 30
0.0
 11
2756.025334642949
 21
1108.443666278625
 31
0.0
  0
LINE
  5
1231B
  8
01
 10
2756.025334642949
 20
1108.443666278625
 30
0.0
 11
2756.3806813226361
 21
1108.546441852355
 31
0.0
  0
LINE
  5
1231C
  8
01
 10
2756.3806813226361
 20
1108.546441852355
 30
0.0
 11
2756.7360508905072
 21
1108.649087726378
 31
0.0
  0
LINE
  5
1231D
  8
01
 10
2756.7360508905072
 20
1108.649087726378
 30
0.0
 11
2757.0913746820111
 21
1108.751779376769
 31
0.0
  0
LINE
  5
1231E
  8
01
 10
2757.0913746820111
 20
1108.751779376769
 30
0.0
 11
2757.4465992913861
 21
1108.8546922796011
 31
0.0
  0
LINE
  5
1231F
  8
01
 10
2757.4465992913861
 20
1108.8546922796011
 30
0.0
 11
2757.8016484246868
 21
1108.958009540343
 31
0.0
  0
LINE
  5
12320
  8
01
 10
2757.8016484246868
 20
1108.958009540343
 30
0.0
 11
2758.1564457879681
 21
1109.0619142644639
 31
0.0
  0
LINE
  5
12321
  8
01
 10
2758.1564457879681
 20
1109.0619142644639
 30
0.0
 11
2758.510899828495
 21
1109.166559039855
 31
0.0
  0
LINE
  5
12322
  8
01
 10
2758.510899828495
 20
1109.166559039855
 30
0.0
 11
2758.864918993535
 21
1109.2721193425889
 31
0.0
  0
LINE
  5
12323
  8
01
 10
2758.864918993535
 20
1109.2721193425889
 30
0.0
 11
2759.2184117303509
 21
1109.3787630193469
 31
0.0
  0
LINE
  5
12324
  8
01
 10
2759.2184117303509
 20
1109.3787630193469
 30
0.0
 11
2759.5712559686322
 21
1109.486650287414
 31
0.0
  0
LINE
  5
12325
  8
01
 10
2759.5712559686322
 20
1109.486650287414
 30
0.0
 11
2759.923283861699
 21
1109.5959184758899
 31
0.0
  0
LINE
  5
12326
  8
01
 10
2759.923283861699
 20
1109.5959184758899
 30
0.0
 11
2760.2743199334759
 21
1109.7067201726679
 31
0.0
  0
LINE
  5
12327
  8
01
 10
2760.2743199334759
 20
1109.7067201726679
 30
0.0
 11
2760.6241581903118
 21
1109.8191850774531
 31
0.0
  0
LINE
  5
12328
  8
01
 10
2760.6241581903118
 20
1109.8191850774531
 30
0.0
 11
2760.9725087152151
 21
1109.933427631164
 31
0.0
  0
LINE
  5
12329
  8
01
 10
2760.9725087152151
 20
1109.933427631164
 30
0.0
 11
2761.319035814824
 21
1110.0495317571399
 31
0.0
  0
LINE
  5
1232A
  8
01
 10
2761.319035814824
 20
1110.0495317571399
 30
0.0
 11
2761.6633351312298
 21
1110.1675661199331
 31
0.0
  0
LINE
  5
1232B
  8
01
 10
2761.6633351312298
 20
1110.1675661199331
 30
0.0
 11
2762.0048802362098
 21
1110.2875307195429
 31
0.0
  0
LINE
  5
1232C
  8
01
 10
2762.0048802362098
 20
1110.2875307195429
 30
0.0
 11
2762.3431065545701
 21
1110.409433185363
 31
0.0
  0
LINE
  5
1232D
  8
01
 10
2762.3431065545701
 20
1110.409433185363
 30
0.0
 11
2762.6773503289842
 21
1110.5331819646599
 31
0.0
  0
LINE
  5
1232E
  8
01
 10
2762.6773503289842
 20
1110.5331819646599
 30
0.0
 11
2762.8873312413389
 21
1110.613141116645
 31
0.0
  0
LINE
  5
1232F
  8
01
 10
2898.4638264642381
 20
1101.271737872863
 30
0.0
 11
2898.437794970097
 21
1102.0085085027461
 31
0.0
  0
LINE
  5
12330
  8
01
 10
2898.437794970097
 20
1102.0085085027461
 30
0.0
 11
2898.3604786859182
 21
1102.7417848699331
 31
0.0
  0
LINE
  5
12331
  8
01
 10
2898.3604786859182
 20
1102.7417848699331
 30
0.0
 11
2898.2324574456829
 21
1103.4678133123159
 31
0.0
  0
LINE
  5
12332
  8
01
 10
2898.2324574456829
 20
1103.4678133123159
 30
0.0
 11
2898.0544331536912
 21
1104.1831987493281
 31
0.0
  0
LINE
  5
12333
  8
01
 10
2898.0544331536912
 20
1104.1831987493281
 30
0.0
 11
2897.8274281488079
 21
1104.8844926946399
 31
0.0
  0
LINE
  5
12334
  8
01
 10
2897.8274281488079
 20
1104.8844926946399
 30
0.0
 11
2897.5531208978318
 21
1105.5685594671011
 31
0.0
  0
LINE
  5
12335
  8
01
 10
2897.5531208978318
 20
1105.5685594671011
 30
0.0
 11
2897.233449266972
 21
1106.232477008605
 31
0.0
  0
LINE
  5
12336
  8
01
 10
2897.233449266972
 20
1106.232477008605
 30
0.0
 11
2896.8313801751751
 21
1106.9367464177849
 31
0.0
  0
LINE
  5
12337
  8
01
 10
2894.5540669427528
 20
1108.2239168279409
 30
0.0
 11
2884.274586962284
 21
1108.846132098937
 31
0.0
  0
LINE
  5
12338
  8
01
 10
2884.274586962284
 20
1108.846132098937
 30
0.0
 11
2873.8601735101361
 21
1109.4353426091909
 31
0.0
  0
LINE
  5
12339
  8
01
 10
2873.8601735101361
 20
1109.4353426091909
 30
0.0
 11
2863.3218586908001
 21
1109.978105365539
 31
0.0
  0
LINE
  5
1233A
  8
01
 10
2863.3218586908001
 20
1109.978105365539
 30
0.0
 11
2852.6765034661912
 21
1110.4682176702261
 31
0.0
  0
LINE
  5
1233B
  8
01
 10
2852.6765034661912
 20
1110.4682176702261
 30
0.0
 11
2841.9433186517381
 21
1110.902345477843
 31
0.0
  0
LINE
  5
1233C
  8
01
 10
2841.9433186517381
 20
1110.902345477843
 30
0.0
 11
2831.142766283574
 21
1111.2785280339961
 31
0.0
  0
LINE
  5
1233D
  8
01
 10
2831.142766283574
 20
1111.2785280339961
 30
0.0
 11
2820.2960103021278
 21
1111.5955522649531
 31
0.0
  0
LINE
  5
1233E
  8
01
 10
2820.2960103021278
 20
1111.5955522649531
 30
0.0
 11
2809.4246266351361
 21
1111.8525179021599
 31
0.0
  0
LINE
  5
1233F
  8
01
 10
2809.4246266351361
 20
1111.8525179021599
 30
0.0
 11
2798.5504048333778
 21
1112.0487840764761
 31
0.0
  0
LINE
  5
12340
  8
01
 10
2798.5504048333778
 20
1112.0487840764761
 30
0.0
 11
2787.6953022943162
 21
1112.183831989074
 31
0.0
  0
LINE
  5
12341
  8
01
 10
2787.6953022943162
 20
1112.183831989074
 30
0.0
 11
2776.1553776727342
 21
1112.259950458312
 31
0.0
  0
LINE
  5
12342
  8
01
 10
2895.7356160150189
 20
1106.9806306951291
 30
0.0
 11
2895.9713948236131
 21
1107.0057619207139
 31
0.0
  0
LINE
  5
12343
  8
01
 10
2895.9713948236131
 20
1107.0057619207139
 30
0.0
 11
2896.1759083734169
 21
1107.008172809386
 31
0.0
  0
LINE
  5
12344
  8
01
 10
2896.1759083734169
 20
1107.008172809386
 30
0.0
 11
2896.3504536615028
 21
1107.001756488585
 31
0.0
  0
LINE
  5
12345
  8
01
 10
2896.3504536615028
 20
1107.001756488585
 30
0.0
 11
2896.5000966058392
 21
1106.9927385442491
 31
0.0
  0
LINE
  5
12346
  8
01
 10
2896.5000966058392
 20
1106.9927385442491
 30
0.0
 11
2896.6295216546669
 21
1106.9825075261831
 31
0.0
  0
LINE
  5
12347
  8
01
 10
2896.6295216546669
 20
1106.9825075261831
 30
0.0
 11
2896.7410634027142
 21
1106.9692552678821
 31
0.0
  0
LINE
  5
12348
  8
01
 10
2896.7410634027142
 20
1106.9692552678821
 30
0.0
 11
2896.8313954339642
 21
1106.9367235296011
 31
0.0
  0
LINE
  5
12349
  8
01
 10
2775.319508837285
 20
1107.1200807683699
 30
0.0
 11
2785.4743473992962
 21
1107.1247194402461
 31
0.0
  0
LINE
  5
1234A
  8
01
 10
2785.4743473992962
 20
1107.1247194402461
 30
0.0
 11
2795.657758043827
 21
1107.1279619329209
 31
0.0
  0
LINE
  5
1234B
  8
01
 10
2795.657758043827
 20
1107.1279619329209
 30
0.0
 11
2805.852834032597
 21
1107.1296556585071
 31
0.0
  0
LINE
  5
1234C
  8
01
 10
2805.852834032597
 20
1107.1296556585071
 30
0.0
 11
2816.042660997929
 21
1107.129579364562
 31
0.0
  0
LINE
  5
1234D
  8
01
 10
2816.042660997929
 20
1107.129579364562
 30
0.0
 11
2826.2103169427542
 21
1107.1274126165149
 31
0.0
  0
LINE
  5
1234E
  8
01
 10
2826.2103169427542
 20
1107.1274126165149
 30
0.0
 11
2836.3389637933392
 21
1107.1227281682729
 31
0.0
  0
LINE
  5
1234F
  8
01
 10
2836.3389637933392
 20
1107.1227281682729
 30
0.0
 11
2846.411793993535
 21
1107.1149004094841
 31
0.0
  0
LINE
  5
12350
  8
01
 10
2846.411793993535
 20
1107.1149004094841
 30
0.0
 11
2856.4121754632611
 21
1107.1030748479609
 31
0.0
  0
LINE
  5
12351
  8
01
 10
2856.4121754632611
 20
1107.1030748479609
 30
0.0
 11
2866.323567675176
 21
1107.086000263
 31
0.0
  0
LINE
  5
12352
  8
01
 10
2866.323567675176
 20
1107.086000263
 30
0.0
 11
2876.129689501347
 21
1107.0619371526479
 31
0.0
  0
LINE
  5
12353
  8
01
 10
2876.129689501347
 20
1107.0619371526479
 30
0.0
 11
2885.8144734368939
 21
1107.028497516417
 31
0.0
  0
LINE
  5
12354
  8
01
 10
2885.8144734368939
 20
1107.028497516417
 30
0.0
 11
2895.7356160150189
 21
1106.9806306951291
 31
0.0
  0
LINE
  5
12355
  8
01
 10
2760.0073063836721
 20
1107.0385454290149
 30
0.0
 11
2759.2430699334759
 21
1107.0320451848741
 31
0.0
  0
LINE
  5
12356
  8
01
 10
2759.2430699334759
 20
1107.0320451848741
 30
0.0
 11
2758.4906056390432
 21
1107.0256059758899
 31
0.0
  0
LINE
  5
12357
  8
01
 10
2758.4906056390432
 20
1107.0256059758899
 30
0.0
 11
2757.751622484745
 21
1107.0192354314561
 31
0.0
  0
LINE
  5
12358
  8
01
 10
2757.751622484745
 20
1107.0192354314561
 30
0.0
 11
2757.0278752313279
 21
1107.0129793279409
 31
0.0
  0
LINE
  5
12359
  8
01
 10
2757.0278752313279
 20
1107.0129793279409
 30
0.0
 11
2756.3219807611131
 21
1107.0068681829209
 31
0.0
  0
LINE
  5
1235A
  8
01
 10
2756.3219807611131
 20
1107.0068681829209
 30
0.0
 11
2755.6375401483201
 21
1107.0009554021599
 31
0.0
  0
LINE
  5
1235B
  8
01
 10
2755.6375401483201
 20
1107.0009554021599
 30
0.0
 11
2754.9794667230271
 21
1106.995302020812
 31
0.0
  0
LINE
  5
1235C
  8
01
 10
2754.9794667230271
 20
1106.995302020812
 30
0.0
 11
2754.3544819818162
 21
1106.990060626769
 31
0.0
  0
LINE
  5
1235D
  8
01
 10
2754.3544819818162
 20
1106.990060626769
 30
0.0
 11
2753.7720654473919
 21
1106.9854524724719
 31
0.0
  0
LINE
  5
1235E
  8
01
 10
2753.7720654473919
 20
1106.9854524724719
 30
0.0
 11
2753.245908068242
 21
1106.9817216985459
 31
0.0
  0
LINE
  5
1235F
  8
01
 10
2753.245908068242
 20
1106.9817216985459
 30
0.0
 11
2752.796574877324
 21
1106.9792879216909
 31
0.0
  0
LINE
  5
12360
  8
01
 10
2752.796574877324
 20
1106.9792879216909
 30
0.0
 11
2752.4486401544232
 21
1106.978433429503
 31
0.0
  0
LINE
  5
12361
  8
01
 10
2752.4486401544232
 20
1106.978433429503
 30
0.0
 11
2752.2291462884568
 21
1106.979142963195
 31
0.0
  0
LINE
  5
12362
  8
01
 10
2752.2291462884568
 20
1106.979142963195
 30
0.0
 11
2752.1523526178021
 21
1106.9811037175889
 31
0.0
  0
LINE
  5
12363
  8
01
 10
2775.3196919427528
 20
1107.1200807683699
 30
0.0
 11
2772.2149556146292
 21
1107.1159227483511
 31
0.0
  0
LINE
  5
12364
  8
01
 10
2772.2149556146292
 20
1107.1159227483511
 30
0.0
 11
2769.1349156366009
 21
1107.104326068664
 31
0.0
  0
LINE
  5
12365
  8
01
 10
2769.1349156366009
 20
1107.104326068664
 30
0.0
 11
2766.1145222650189
 21
1107.086358844542
 31
0.0
  0
LINE
  5
12366
  8
01
 10
2766.1145222650189
 20
1107.086358844542
 30
0.0
 11
2763.1729863153118
 21
1107.0645540349719
 31
0.0
  0
LINE
  5
12367
  8
01
 10
2763.1729863153118
 20
1107.0645540349719
 30
0.0
 11
2760.0073063836721
 21
1107.0385454290149
 31
0.0
  0
LINE
  5
12368
  8
01
 10
2895.7356160150189
 20
1095.562867938781
 30
0.0
 11
2895.9713948236131
 21
1095.537736713195
 31
0.0
  0
LINE
  5
12369
  8
01
 10
2895.9713948236131
 20
1095.537736713195
 30
0.0
 11
2896.1759083734169
 21
1095.5353258245229
 31
0.0
  0
LINE
  5
1236A
  8
01
 10
2896.1759083734169
 20
1095.5353258245229
 30
0.0
 11
2896.3504536615028
 21
1095.541742145324
 31
0.0
  0
LINE
  5
1236B
  8
01
 10
2896.3504536615028
 20
1095.541742145324
 30
0.0
 11
2896.5000966058392
 21
1095.5507600896599
 31
0.0
  0
LINE
  5
1236C
  8
01
 10
2896.5000966058392
 20
1095.5507600896599
 30
0.0
 11
2896.6295216546669
 21
1095.5609911077261
 31
0.0
  0
LINE
  5
1236D
  8
01
 10
2896.6295216546669
 20
1095.5609911077261
 30
0.0
 11
2896.7410634027142
 21
1095.5742433660271
 31
0.0
  0
LINE
  5
1236E
  8
01
 10
2896.7410634027142
 20
1095.5742433660271
 30
0.0
 11
2896.8313954339642
 21
1095.6067751043081
 31
0.0
  0
LINE
  5
1236F
  8
01
 10
2775.319508837285
 20
1095.423417865539
 30
0.0
 11
2785.4743473992962
 21
1095.418779193664
 31
0.0
  0
LINE
  5
12370
  8
01
 10
2785.4743473992962
 20
1095.418779193664
 30
0.0
 11
2795.657758043827
 21
1095.415536700988
 31
0.0
  0
LINE
  5
12371
  8
01
 10
2795.657758043827
 20
1095.415536700988
 30
0.0
 11
2805.852834032597
 21
1095.4138429754021
 31
0.0
  0
LINE
  5
12372
  8
01
 10
2805.852834032597
 20
1095.4138429754021
 30
0.0
 11
2816.042660997929
 21
1095.4139192693469
 31
0.0
  0
LINE
  5
12373
  8
01
 10
2816.042660997929
 20
1095.4139192693469
 30
0.0
 11
2826.2103169427542
 21
1095.416086017394
 31
0.0
  0
LINE
  5
12374
  8
01
 10
2826.2103169427542
 20
1095.416086017394
 30
0.0
 11
2836.3389637933392
 21
1095.420770465636
 31
0.0
  0
LINE
  5
12375
  8
01
 10
2836.3389637933392
 20
1095.420770465636
 30
0.0
 11
2846.411793993535
 21
1095.4285982244251
 31
0.0
  0
LINE
  5
12376
  8
01
 10
2846.411793993535
 20
1095.4285982244251
 30
0.0
 11
2856.4121754632611
 21
1095.440423785949
 31
0.0
  0
LINE
  5
12377
  8
01
 10
2856.4121754632611
 20
1095.440423785949
 30
0.0
 11
2866.323567675176
 21
1095.4574983709099
 31
0.0
  0
LINE
  5
12378
  8
01
 10
2866.323567675176
 20
1095.4574983709099
 30
0.0
 11
2876.129689501347
 21
1095.481561481261
 31
0.0
  0
LINE
  5
12379
  8
01
 10
2876.129689501347
 20
1095.481561481261
 30
0.0
 11
2885.8144734368939
 21
1095.5150011174919
 31
0.0
  0
LINE
  5
1237A
  8
01
 10
2885.8144734368939
 20
1095.5150011174919
 30
0.0
 11
2895.7356160150189
 21
1095.562867938781
 31
0.0
  0
LINE
  5
1237B
  8
01
 10
2760.0073063836721
 20
1095.504953204894
 30
0.0
 11
2759.2430699334759
 21
1095.5114534490349
 31
0.0
  0
LINE
  5
1237C
  8
01
 10
2759.2430699334759
 20
1095.5114534490349
 30
0.0
 11
2758.4906056390432
 21
1095.517892658019
 31
0.0
  0
LINE
  5
1237D
  8
01
 10
2758.4906056390432
 20
1095.517892658019
 30
0.0
 11
2757.751622484745
 21
1095.5242632024531
 31
0.0
  0
LINE
  5
1237E
  8
01
 10
2757.751622484745
 20
1095.5242632024531
 30
0.0
 11
2757.0278752313279
 21
1095.530519305968
 31
0.0
  0
LINE
  5
1237F
  8
01
 10
2757.0278752313279
 20
1095.530519305968
 30
0.0
 11
2756.3219807611131
 21
1095.536630450988
 31
0.0
  0
LINE
  5
12380
  8
01
 10
2756.3219807611131
 20
1095.536630450988
 30
0.0
 11
2755.6375401483201
 21
1095.54254323175
 31
0.0
  0
LINE
  5
12381
  8
01
 10
2755.6375401483201
 20
1095.54254323175
 30
0.0
 11
2754.9794667230271
 21
1095.5481966130969
 31
0.0
  0
LINE
  5
12382
  8
01
 10
2754.9794667230271
 20
1095.5481966130969
 30
0.0
 11
2754.3544819818162
 21
1095.5534380071399
 31
0.0
  0
LINE
  5
12383
  8
01
 10
2754.3544819818162
 20
1095.5534380071399
 30
0.0
 11
2753.7720654473919
 21
1095.558046161437
 31
0.0
  0
LINE
  5
12384
  8
01
 10
2753.7720654473919
 20
1095.558046161437
 30
0.0
 11
2753.245908068242
 21
1095.561776935363
 31
0.0
  0
LINE
  5
12385
  8
01
 10
2753.245908068242
 20
1095.561776935363
 30
0.0
 11
2752.796574877324
 21
1095.564210712218
 31
0.0
  0
LINE
  5
12386
  8
01
 10
2752.796574877324
 20
1095.564210712218
 30
0.0
 11
2752.4486401544232
 21
1095.565065204406
 31
0.0
  0
LINE
  5
12387
  8
01
 10
2752.4486401544232
 20
1095.565065204406
 30
0.0
 11
2752.2291462884568
 21
1095.5643556707139
 31
0.0
  0
LINE
  5
12388
  8
01
 10
2752.2291462884568
 20
1095.5643556707139
 30
0.0
 11
2752.1523526178021
 21
1095.56239491632
 31
0.0
  0
LINE
  5
12389
  8
01
 10
2775.3196919427528
 20
1095.423417865539
 30
0.0
 11
2772.2149556146292
 21
1095.4275758855581
 31
0.0
  0
LINE
  5
1238A
  8
01
 10
2772.2149556146292
 20
1095.4275758855581
 30
0.0
 11
2769.1349156366009
 21
1095.4391725652461
 31
0.0
  0
LINE
  5
1238B
  8
01
 10
2769.1349156366009
 20
1095.4391725652461
 30
0.0
 11
2766.1145222650189
 21
1095.4571397893669
 31
0.0
  0
LINE
  5
1238C
  8
01
 10
2766.1145222650189
 20
1095.4571397893669
 30
0.0
 11
2763.1729863153118
 21
1095.478944598937
 31
0.0
  0
LINE
  5
1238D
  8
01
 10
2763.1729863153118
 20
1095.478944598937
 30
0.0
 11
2760.0073063836721
 21
1095.504953204894
 31
0.0
  0
CIRCLE
  5
1238E
  8
01
 10
2634.6921390798861
 20
1101.2718157127649
 30
0.0
 40
3.0
  0
CIRCLE
  5
1238F
  8
01
 10
2565.6948610821628
 20
1101.2718182124811
 30
0.0
 40
3.0
  0
LINE
  5
12390
  8
01
 10
2653.1631941113178
 20
1112.2912941770121
 30
0.0
 11
2653.559365681142
 21
1112.303817828134
 31
0.0
  0
LINE
  5
12391
  8
01
 10
2653.559365681142
 20
1112.303817828134
 30
0.0
 11
2653.8771223339741
 21
1112.3073082761321
 31
0.0
  0
LINE
  5
12392
  8
01
 10
2653.8771223339741
 20
1112.3073082761321
 30
0.0
 11
2654.1642774853408
 21
1112.306705553965
 31
0.0
  0
LINE
  5
12393
  8
01
 10
2654.1642774853408
 20
1112.306705553965
 30
0.0
 11
2654.4287542614638
 21
1112.3031559781591
 31
0.0
  0
LINE
  5
12394
  8
01
 10
2654.4287542614638
 20
1112.3031559781591
 30
0.0
 11
2654.6687788281138
 21
1112.29755981727
 31
0.0
  0
LINE
  5
12395
  8
01
 10
2654.6687788281138
 20
1112.29755981727
 30
0.0
 11
2654.8799833569228
 21
1112.2911244229831
 31
0.0
  0
LINE
  5
12396
  8
01
 10
2654.8799833569228
 20
1112.2911244229831
 30
0.0
 11
2655.0583433422739
 21
1112.2850666837251
 31
0.0
  0
LINE
  5
12397
  8
01
 10
2655.0583433422739
 20
1112.2850666837251
 30
0.0
 11
2655.202538898915
 21
1112.2801819638771
 31
0.0
  0
LINE
  5
12398
  8
01
 10
2655.202538898915
 20
1112.2801819638771
 30
0.0
 11
2655.3125623974502
 21
1112.2768383817231
 31
0.0
  0
LINE
  5
12399
  8
01
 10
2655.3125623974502
 20
1112.2768383817231
 30
0.0
 11
2655.3906187328998
 21
1112.274890978769
 31
0.0
  0
LINE
  5
1239A
  8
01
 10
2655.3906187328998
 20
1112.274890978769
 30
0.0
 11
2655.4385847363178
 21
1112.274086077646
 31
0.0
  0
LINE
  5
1239B
  8
01
 10
2655.4385847363178
 20
1112.274086077646
 30
0.0
 11
2655.479997089833
 21
1112.273954470591
 31
0.0
  0
LINE
  5
1239C
  8
01
 10
2649.156045368642
 20
1112.191696246103
 30
0.0
 11
2649.7506078991591
 21
1112.1925392941989
 31
0.0
  0
LINE
  5
1239D
  8
01
 10
2649.7506078991591
 20
1112.1925392941989
 30
0.0
 11
2650.3387846264541
 21
1112.191663821176
 31
0.0
  0
LINE
  5
1239E
  8
01
 10
2650.3387846264541
 20
1112.191663821176
 30
0.0
 11
2650.9175314221088
 21
1112.189664919809
 31
0.0
  0
LINE
  5
1239F
  8
01
 10
2650.9175314221088
 20
1112.189664919809
 30
0.0
 11
2651.4852422985732
 21
1112.1912937955419
 31
0.0
  0
LINE
  5
123A0
  8
01
 10
2651.4852422985732
 20
1112.1912937955419
 30
0.0
 11
2652.0409940991099
 21
1112.205078204111
 31
0.0
  0
LINE
  5
123A1
  8
01
 10
2652.0409940991099
 20
1112.205078204111
 30
0.0
 11
2652.5799001965229
 21
1112.240406115488
 31
0.0
  0
LINE
  5
123A2
  8
01
 10
2652.5799001965229
 20
1112.240406115488
 30
0.0
 11
2653.1630911144912
 21
1112.291269381479
 31
0.0
  0
LINE
  5
123A3
  8
01
 10
2659.6164030346572
 20
1111.0942326383149
 30
0.0
 11
2659.255109241933
 21
1111.4235382871191
 31
0.0
  0
LINE
  5
123A4
  8
01
 10
2659.255109241933
 20
1111.4235382871191
 30
0.0
 11
2658.941796711415
 21
1111.635393221811
 31
0.0
  0
LINE
  5
123A5
  8
01
 10
2658.941796711415
 20
1111.635393221811
 30
0.0
 11
2658.6756300244028
 21
1111.7758370236911
 31
0.0
  0
LINE
  5
123A6
  8
01
 10
2658.6756300244028
 20
1111.7758370236911
 30
0.0
 11
2658.446736744374
 21
1111.8737831906831
 31
0.0
  0
LINE
  5
123A7
  8
01
 10
2658.446736744374
 20
1111.8737831906831
 30
0.0
 11
2658.2449430737202
 21
1111.945207674936
 31
0.0
  0
LINE
  5
123A8
  8
01
 10
2658.2449430737202
 20
1111.945207674936
 30
0.0
 11
2658.0619863781631
 21
1111.999881823496
 31
0.0
  0
LINE
  5
123A9
  8
01
 10
2658.0619863781631
 20
1111.999881823496
 30
0.0
 11
2657.891992023915
 21
1112.0430203275239
 31
0.0
  0
LINE
  5
123AA
  8
01
 10
2657.891992023915
 20
1112.0430203275239
 30
0.0
 11
2657.7302374157612
 21
1112.0783959226169
 31
0.0
  0
LINE
  5
123AB
  8
01
 10
2657.7302374157612
 20
1112.0783959226169
 30
0.0
 11
2657.573453358144
 21
1112.108074267343
 31
0.0
  0
LINE
  5
123AC
  8
01
 10
2657.573453358144
 20
1112.108074267343
 30
0.0
 11
2657.4190801891982
 21
1112.133516390757
 31
0.0
  0
LINE
  5
123AD
  8
01
 10
2657.4190801891982
 20
1112.133516390757
 30
0.0
 11
2657.2654890331928
 21
1112.1555081204931
 31
0.0
  0
LINE
  5
123AE
  8
01
 10
2657.2654890331928
 20
1112.1555081204931
 30
0.0
 11
2657.111173084706
 21
1112.1747494535009
 31
0.0
  0
LINE
  5
123AF
  8
01
 10
2657.111173084706
 20
1112.1747494535009
 30
0.0
 11
2656.9548353466689
 21
1112.191810687021
 31
0.0
  0
LINE
  5
123B0
  8
01
 10
2656.9548353466689
 20
1112.191810687021
 30
0.0
 11
2656.7956899914439
 21
1112.2069550351659
 31
0.0
  0
LINE
  5
123B1
  8
01
 10
2656.7956899914439
 20
1112.2069550351659
 30
0.0
 11
2656.633038929433
 21
1112.2203923062841
 31
0.0
  0
LINE
  5
123B2
  8
01
 10
2656.633038929433
 20
1112.2203923062841
 30
0.0
 11
2656.4663137707412
 21
1112.2323113278901
 31
0.0
  0
LINE
  5
123B3
  8
01
 10
2656.4663137707412
 20
1112.2323113278901
 30
0.0
 11
2656.295197895497
 21
1112.2428494290871
 31
0.0
  0
LINE
  5
123B4
  8
01
 10
2656.295197895497
 20
1112.2428494290871
 30
0.0
 11
2656.1192831310932
 21
1112.252111514048
 31
0.0
  0
LINE
  5
123B5
  8
01
 10
2656.1192831310932
 20
1112.252111514048
 30
0.0
 11
2655.9377569470112
 21
1112.2600861386809
 31
0.0
  0
LINE
  5
123B6
  8
01
 10
2655.9377569470112
 20
1112.2600861386809
 30
0.0
 11
2655.7517675671279
 21
1112.267057497934
 31
0.0
  0
LINE
  5
123B7
  8
01
 10
2655.7517675671279
 20
1112.267057497934
 30
0.0
 11
2655.5488409313862
 21
1112.27299316688
 31
0.0
  0
LINE
  5
123B8
  8
01
 10
2653.1631941113178
 20
1090.2802105741059
 30
0.0
 11
2653.5593618664439
 21
1090.267685969309
 31
0.0
  0
LINE
  5
123B9
  8
01
 10
2653.5593618664439
 20
1090.267685969309
 30
0.0
 11
2653.8771185192768
 21
1090.2641945676371
 31
0.0
  0
LINE
  5
123BA
  8
01
 10
2653.8771185192768
 20
1090.2641945676371
 30
0.0
 11
2654.164273670644
 21
1090.2647972898039
 31
0.0
  0
LINE
  5
123BB
  8
01
 10
2654.164273670644
 20
1090.2647972898039
 30
0.0
 11
2654.4287542614638
 21
1090.2683478192839
 31
0.0
  0
LINE
  5
123BC
  8
01
 10
2654.4287542614638
 20
1090.2683478192839
 30
0.0
 11
2654.6687788281138
 21
1090.273943980173
 31
0.0
  0
LINE
  5
123BD
  8
01
 10
2654.6687788281138
 20
1090.273943980173
 30
0.0
 11
2654.8799833569228
 21
1090.2803793744599
 31
0.0
  0
LINE
  5
123BE
  8
01
 10
2654.8799833569228
 20
1090.2803793744599
 30
0.0
 11
2655.0583433422739
 21
1090.286437113718
 31
0.0
  0
LINE
  5
123BF
  8
01
 10
2655.0583433422739
 20
1090.286437113718
 30
0.0
 11
2655.2025350842182
 21
1090.2913208798921
 31
0.0
  0
LINE
  5
123C0
  8
01
 10
2655.2025350842182
 20
1090.2913208798921
 30
0.0
 11
2655.3125623974502
 21
1090.2946654157199
 31
0.0
  0
LINE
  5
123C1
  8
01
 10
2655.3125623974502
 20
1090.2946654157199
 30
0.0
 11
2655.3906149182021
 21
1090.2966137723481
 31
0.0
  0
LINE
  5
123C2
  8
01
 10
2655.3906149182021
 20
1090.2966137723481
 30
0.0
 11
2655.4385847363178
 21
1090.297416766123
 31
0.0
  0
LINE
  5
123C3
  8
01
 10
2655.4385847363178
 20
1090.297416766123
 30
0.0
 11
2655.4799932751362
 21
1090.297549326853
 31
0.0
  0
LINE
  5
123C4
  8
01
 10
2649.1560415539439
 20
1090.3798094586889
 30
0.0
 11
2649.7506078991591
 21
1090.3789654569191
 31
0.0
  0
LINE
  5
123C5
  8
01
 10
2649.7506078991591
 20
1090.3789654569191
 30
0.0
 11
2650.3387846264541
 21
1090.379841883615
 31
0.0
  0
LINE
  5
123C6
  8
01
 10
2650.3387846264541
 20
1090.379841883615
 30
0.0
 11
2650.9175276074111
 21
1090.381838877634
 31
0.0
  0
LINE
  5
123C7
  8
01
 10
2650.9175276074111
 20
1090.381838877634
 30
0.0
 11
2651.4852422985732
 21
1090.3802100019011
 31
0.0
  0
LINE
  5
123C8
  8
01
 10
2651.4852422985732
 20
1090.3802100019011
 30
0.0
 11
2652.0409902844131
 21
1090.366425593332
 31
0.0
  0
LINE
  5
123C9
  8
01
 10
2652.0409902844131
 20
1090.366425593332
 30
0.0
 11
2652.5799001965229
 21
1090.33109863563
 31
0.0
  0
LINE
  5
123CA
  8
01
 10
2652.5799001965229
 20
1090.33109863563
 30
0.0
 11
2653.1630911144912
 21
1090.2802344159641
 31
0.0
  0
LINE
  5
123CB
  8
01
 10
2659.6164030346572
 20
1091.4772673444311
 30
0.0
 11
2659.255109241933
 21
1091.147962649301
 31
0.0
  0
LINE
  5
123CC
  8
01
 10
2659.255109241933
 20
1091.147962649301
 30
0.0
 11
2658.941796711415
 21
1090.936106760935
 31
0.0
  0
LINE
  5
123CD
  8
01
 10
2658.941796711415
 20
1090.936106760935
 30
0.0
 11
2658.675626209706
 21
1090.7956629590551
 31
0.0
  0
LINE
  5
123CE
  8
01
 10
2658.675626209706
 20
1090.7956629590551
 30
0.0
 11
2658.446736744374
 21
1090.697717745737
 31
0.0
  0
LINE
  5
123CF
  8
01
 10
2658.446736744374
 20
1090.697717745737
 30
0.0
 11
2658.2449430737202
 21
1090.6262942151591
 31
0.0
  0
LINE
  5
123D0
  8
01
 10
2658.2449430737202
 20
1090.6262942151591
 30
0.0
 11
2658.0619863781631
 21
1090.57161815925
 31
0.0
  0
LINE
  5
123D1
  8
01
 10
2658.0619863781631
 20
1090.57161815925
 30
0.0
 11
2657.891992023915
 21
1090.528480608896
 31
0.0
  0
LINE
  5
123D2
  8
01
 10
2657.891992023915
 20
1090.528480608896
 30
0.0
 11
2657.7302336010639
 21
1090.493105967478
 31
0.0
  0
LINE
  5
123D3
  8
01
 10
2657.7302336010639
 20
1090.493105967478
 30
0.0
 11
2657.573453358144
 21
1090.4634266690771
 31
0.0
  0
LINE
  5
123D4
  8
01
 10
2657.573453358144
 20
1090.4634266690771
 30
0.0
 11
2657.4190801891982
 21
1090.437984545664
 31
0.0
  0
LINE
  5
123D5
  8
01
 10
2657.4190801891982
 20
1090.437984545664
 30
0.0
 11
2657.2654890331928
 21
1090.415993769602
 31
0.0
  0
LINE
  5
123D6
  8
01
 10
2657.2654890331928
 20
1090.415993769602
 30
0.0
 11
2657.1111692700092
 21
1090.396753390268
 31
0.0
  0
LINE
  5
123D7
  8
01
 10
2657.1111692700092
 20
1090.396753390268
 30
0.0
 11
2656.9548315319721
 21
1090.379691203073
 31
0.0
  0
LINE
  5
123D8
  8
01
 10
2656.9548315319721
 20
1090.379691203073
 30
0.0
 11
2656.7956899914439
 21
1090.364547808603
 31
0.0
  0
LINE
  5
123D9
  8
01
 10
2656.7956899914439
 20
1090.364547808603
 30
0.0
 11
2656.6330351147349
 21
1090.351109583811
 31
0.0
  0
LINE
  5
123DA
  8
01
 10
2656.6330351147349
 20
1090.351109583811
 30
0.0
 11
2656.4663137707412
 21
1090.3391905622041
 31
0.0
  0
LINE
  5
123DB
  8
01
 10
2656.4663137707412
 20
1090.3391905622041
 30
0.0
 11
2656.295197895497
 21
1090.3286534146821
 31
0.0
  0
LINE
  5
123DC
  8
01
 10
2656.295197895497
 20
1090.3286534146821
 30
0.0
 11
2656.1192831310932
 21
1090.3193913297209
 31
0.0
  0
LINE
  5
123DD
  8
01
 10
2656.1192831310932
 20
1090.3193913297209
 30
0.0
 11
2655.9377569470112
 21
1090.311416705088
 31
0.0
  0
LINE
  5
123DE
  8
01
 10
2655.9377569470112
 20
1090.311416705088
 30
0.0
 11
2655.7517637524311
 21
1090.3044453458349
 31
0.0
  0
LINE
  5
123DF
  8
01
 10
2655.7517637524311
 20
1090.3044453458349
 30
0.0
 11
2655.5488409313862
 21
1090.2985096768889
 31
0.0
  0
LINE
  5
123E0
  8
01
 10
2661.7191671642959
 20
1095.437417109446
 30
0.0
 11
2662.2405332836811
 21
1095.4348555402321
 31
0.0
  0
LINE
  5
123E1
  8
01
 10
2662.2405332836811
 20
1095.4348555402321
 30
0.0
 11
2662.6512159619028
 21
1095.4326487378639
 31
0.0
  0
LINE
  5
123E2
  8
01
 10
2662.6512159619028
 20
1095.4326487378639
 30
0.0
 11
2662.9510282787978
 21
1095.4308119611301
 31
0.0
  0
LINE
  5
123E3
  8
01
 10
2662.9510282787978
 20
1095.4308119611301
 30
0.0
 11
2663.1398481640522
 21
1095.4293671445409
 31
0.0
  0
LINE
  5
123E4
  8
01
 10
2663.1398481640522
 20
1095.4293671445409
 30
0.0
 11
2663.2198347363178
 21
1095.42818935676
 31
0.0
  0
LINE
  5
123E5
  8
01
 10
2657.1704954418842
 20
1095.5189581708471
 30
0.0
 11
2656.5046934399311
 21
1095.5288716153659
 31
0.0
  0
LINE
  5
123E6
  8
01
 10
2656.5046934399311
 20
1095.5288716153659
 30
0.0
 11
2655.7845014843638
 21
1095.538626749948
 31
0.0
  0
LINE
  5
123E7
  8
01
 10
2655.7845014843638
 20
1095.538626749948
 30
0.0
 11
2655.0031446728408
 21
1095.5481301145121
 31
0.0
  0
LINE
  5
123E8
  8
01
 10
2655.0031446728408
 20
1095.5481301145121
 30
0.0
 11
2654.1501898083388
 21
1095.5572148160491
 31
0.0
  0
LINE
  5
123E9
  8
01
 10
2654.1501898083388
 20
1095.5572148160491
 30
0.0
 11
2653.2111524853408
 21
1095.5656348065891
 31
0.0
  0
LINE
  5
123EA
  8
01
 10
2653.2111524853408
 20
1095.5656348065891
 30
0.0
 11
2652.165917805165
 21
1095.5727692441501
 31
0.0
  0
LINE
  5
123EB
  8
01
 10
2652.165917805165
 20
1095.5727692441501
 30
0.0
 11
2650.9911817822158
 21
1095.5776491956269
 31
0.0
  0
LINE
  5
123EC
  8
01
 10
2650.9911817822158
 20
1095.5776491956269
 30
0.0
 11
2649.6756376537978
 21
1095.579042513803
 31
0.0
  0
LINE
  5
123ED
  8
01
 10
2649.6756376537978
 20
1095.579042513803
 30
0.0
 11
2648.261994770497
 21
1095.577023585276
 31
0.0
  0
LINE
  5
123EE
  8
01
 10
2648.261994770497
 20
1095.577023585276
 30
0.0
 11
2646.8516706738178
 21
1095.573402483896
 31
0.0
  0
LINE
  5
123EF
  8
01
 10
2646.8516706738178
 20
1095.573402483896
 30
0.0
 11
2645.5088667187388
 21
1095.5698853330171
 31
0.0
  0
LINE
  5
123F0
  8
01
 10
2645.5088667187388
 20
1095.5698853330171
 30
0.0
 11
2644.1711324963271
 21
1095.566581805185
 31
0.0
  0
LINE
  5
123F1
  8
01
 10
2661.7191862377822
 20
1095.437416155771
 30
0.0
 11
2661.4417776379291
 21
1095.439739306406
 31
0.0
  0
LINE
  5
123F2
  8
01
 10
2661.4417776379291
 20
1095.439739306406
 30
0.0
 11
2661.058747700185
 21
1095.445818980173
 31
0.0
  0
LINE
  5
123F3
  8
01
 10
2661.058747700185
 20
1095.445818980173
 30
0.0
 11
2660.5482305798241
 21
1095.4558144406831
 31
0.0
  0
LINE
  5
123F4
  8
01
 10
2660.5482305798241
 20
1095.4558144406831
 30
0.0
 11
2659.9109930309951
 21
1095.468947489695
 31
0.0
  0
LINE
  5
123F5
  8
01
 10
2659.9109930309951
 20
1095.468947489695
 30
0.0
 11
2659.1501478466689
 21
1095.4842606381931
 31
0.0
  0
LINE
  5
123F6
  8
01
 10
2659.1501478466689
 20
1095.4842606381931
 30
0.0
 11
2658.2665266308481
 21
1095.5007115201511
 31
0.0
  0
LINE
  5
123F7
  8
01
 10
2658.2665266308481
 20
1095.5007115201511
 30
0.0
 11
2657.1704954418842
 21
1095.5189581708471
 31
0.0
  0
LINE
  5
123F8
  8
01
 10
2644.1298841747939
 20
1095.5664797620329
 30
0.0
 11
2642.64590590331
 21
1095.562539179758
 31
0.0
  0
LINE
  5
123F9
  8
01
 10
2642.64590590331
 20
1095.562539179758
 30
0.0
 11
2629.192141941518
 21
1095.492643435434
 31
0.0
  0
LINE
  5
123FA
  8
01
 10
2661.7191709789931
 20
1107.1340847806489
 30
0.0
 11
2662.2405332836811
 21
1107.136646349863
 31
0.0
  0
LINE
  5
123FB
  8
01
 10
2662.2405332836811
 20
1107.136646349863
 30
0.0
 11
2662.6512159619028
 21
1107.1388531522309
 31
0.0
  0
LINE
  5
123FC
  8
01
 10
2662.6512159619028
 20
1107.1388531522309
 30
0.0
 11
2662.9510282787978
 21
1107.140689928965
 31
0.0
  0
LINE
  5
123FD
  8
01
 10
2662.9510282787978
 20
1107.140689928965
 30
0.0
 11
2663.1398481640522
 21
1107.142131884531
 31
0.0
  0
LINE
  5
123FE
  8
01
 10
2663.1398481640522
 20
1107.142131884531
 30
0.0
 11
2663.2198347363178
 21
1107.143310625986
 31
0.0
  0
LINE
  5
123FF
  8
01
 10
2644.1298879894912
 20
1107.0050278501069
 30
0.0
 11
2642.64590590331
 21
1107.0089684323821
 31
0.0
  0
LINE
  5
12400
  8
01
 10
2642.64590590331
 20
1107.0089684323821
 30
0.0
 11
2629.1921438488662
 21
1107.078867037729
 31
0.0
  0
LINE
  5
12401
  8
01
 10
2657.1704954418842
 20
1107.0525456265959
 30
0.0
 11
2656.5046972546279
 21
1107.0426331357521
 31
0.0
  0
LINE
  5
12402
  8
01
 10
2656.5046972546279
 20
1107.0426331357521
 30
0.0
 11
2655.7845014843638
 21
1107.032877047495
 31
0.0
  0
LINE
  5
12403
  8
01
 10
2655.7845014843638
 20
1107.032877047495
 30
0.0
 11
2655.0031446728408
 21
1107.0233746366059
 31
0.0
  0
LINE
  5
12404
  8
01
 10
2655.0031446728408
 20
1107.0233746366059
 30
0.0
 11
2654.1501936230361
 21
1107.0142899350681
 31
0.0
  0
LINE
  5
12405
  8
01
 10
2654.1501936230361
 20
1107.0142899350681
 30
0.0
 11
2653.2111524853408
 21
1107.0058708982031
 31
0.0
  0
LINE
  5
12406
  8
01
 10
2653.2111524853408
 20
1107.0058708982031
 30
0.0
 11
2652.165917805165
 21
1106.9987355069679
 31
0.0
  0
LINE
  5
12407
  8
01
 10
2652.165917805165
 20
1106.9987355069679
 30
0.0
 11
2650.9911817822158
 21
1106.993856509165
 31
0.0
  0
LINE
  5
12408
  8
01
 10
2650.9911817822158
 20
1106.993856509165
 30
0.0
 11
2649.6756376537978
 21
1106.992464144663
 31
0.0
  0
LINE
  5
12409
  8
01
 10
2649.6756376537978
 20
1106.992464144663
 30
0.0
 11
2648.261994770497
 21
1106.9944840268649
 31
0.0
  0
LINE
  5
1240A
  8
01
 10
2648.261994770497
 20
1106.9944840268649
 30
0.0
 11
2646.8516706738178
 21
1106.99810417457
 31
0.0
  0
LINE
  5
1240B
  8
01
 10
2646.8516706738178
 20
1106.99810417457
 30
0.0
 11
2645.5088667187388
 21
1107.0016213254489
 31
0.0
  0
LINE
  5
1240C
  8
01
 10
2645.5088667187388
 20
1107.0016213254489
 30
0.0
 11
2644.1711324963271
 21
1107.004924853281
 31
0.0
  0
LINE
  5
1240D
  8
01
 10
2661.7191900524799
 20
1107.134086687998
 30
0.0
 11
2661.4417814526259
 21
1107.131763537363
 31
0.0
  0
LINE
  5
1240E
  8
01
 10
2661.4417814526259
 20
1107.131763537363
 30
0.0
 11
2661.0587515148818
 21
1107.125682909922
 31
0.0
  0
LINE
  5
1240F
  8
01
 10
2661.0587515148818
 20
1107.125682909922
 30
0.0
 11
2660.5482305798241
 21
1107.1156884030861
 31
0.0
  0
LINE
  5
12410
  8
01
 10
2660.5482305798241
 20
1107.1156884030861
 30
0.0
 11
2659.9109930309951
 21
1107.102556307749
 31
0.0
  0
LINE
  5
12411
  8
01
 10
2659.9109930309951
 20
1107.102556307749
 30
0.0
 11
2659.1501478466689
 21
1107.0872422055761
 31
0.0
  0
LINE
  5
12412
  8
01
 10
2659.1501478466689
 20
1107.0872422055761
 30
0.0
 11
2658.2665266308481
 21
1107.070793230967
 31
0.0
  0
LINE
  5
12413
  8
01
 10
2658.2665266308481
 20
1107.070793230967
 30
0.0
 11
2657.1704954418842
 21
1107.0525456265959
 31
0.0
  0
LINE
  5
12414
  8
01
 10
2547.2238060507311
 20
1112.2912966767269
 30
0.0
 11
2546.8276344809069
 21
1112.30382032785
 31
0.0
  0
LINE
  5
12415
  8
01
 10
2546.8276344809069
 20
1112.30382032785
 30
0.0
 11
2546.5098778280749
 21
1112.307310775848
 31
0.0
  0
LINE
  5
12416
  8
01
 10
2546.5098778280749
 20
1112.307310775848
 30
0.0
 11
2546.2227226767081
 21
1112.30670805368
 31
0.0
  0
LINE
  5
12417
  8
01
 10
2546.2227226767081
 20
1112.30670805368
 30
0.0
 11
2545.9582459005842
 21
1112.3031584778739
 31
0.0
  0
LINE
  5
12418
  8
01
 10
2545.9582459005842
 20
1112.3031584778739
 30
0.0
 11
2545.7182213339338
 21
1112.2975623169859
 31
0.0
  0
LINE
  5
12419
  8
01
 10
2545.7182213339338
 20
1112.2975623169859
 30
0.0
 11
2545.5070168051252
 21
1112.2911269226979
 31
0.0
  0
LINE
  5
1241A
  8
01
 10
2545.5070168051252
 20
1112.2911269226979
 30
0.0
 11
2545.3286568197741
 21
1112.285069183441
 31
0.0
  0
LINE
  5
1241B
  8
01
 10
2545.3286568197741
 20
1112.285069183441
 30
0.0
 11
2545.184461263133
 21
1112.2801844635919
 31
0.0
  0
LINE
  5
1241C
  8
01
 10
2545.184461263133
 20
1112.2801844635919
 30
0.0
 11
2545.0744377645979
 21
1112.2768408814391
 31
0.0
  0
LINE
  5
1241D
  8
01
 10
2545.0744377645979
 20
1112.2768408814391
 30
0.0
 11
2544.9963814291491
 21
1112.274893478485
 31
0.0
  0
LINE
  5
1241E
  8
01
 10
2544.9963814291491
 20
1112.274893478485
 30
0.0
 11
2544.9484154257311
 21
1112.2740885773619
 31
0.0
  0
LINE
  5
1241F
  8
01
 10
2544.9484154257311
 20
1112.2740885773619
 30
0.0
 11
2544.907003072215
 21
1112.273956970306
 31
0.0
  0
LINE
  5
12420
  8
01
 10
2551.2309547934069
 20
1112.1916987458189
 30
0.0
 11
2550.6363922628889
 21
1112.192541793914
 31
0.0
  0
LINE
  5
12421
  8
01
 10
2550.6363922628889
 20
1112.192541793914
 30
0.0
 11
2550.048215535594
 21
1112.191666320892
 31
0.0
  0
LINE
  5
12422
  8
01
 10
2550.048215535594
 20
1112.191666320892
 30
0.0
 11
2549.4694687399401
 21
1112.189667419525
 31
0.0
  0
LINE
  5
12423
  8
01
 10
2549.4694687399401
 20
1112.189667419525
 30
0.0
 11
2548.9017578634748
 21
1112.191296295257
 31
0.0
  0
LINE
  5
12424
  8
01
 10
2548.9017578634748
 20
1112.191296295257
 30
0.0
 11
2548.3460060629382
 21
1112.205080703827
 31
0.0
  0
LINE
  5
12425
  8
01
 10
2548.3460060629382
 20
1112.205080703827
 30
0.0
 11
2547.807099965526
 21
1112.2404086152039
 31
0.0
  0
LINE
  5
12426
  8
01
 10
2547.807099965526
 20
1112.2404086152039
 30
0.0
 11
2547.2239090475568
 21
1112.2912718811949
 31
0.0
  0
LINE
  5
12427
  8
01
 10
2540.7705971273908
 20
1111.0942351380311
 30
0.0
 11
2541.1318909201159
 21
1111.4235407868341
 31
0.0
  0
LINE
  5
12428
  8
01
 10
2541.1318909201159
 20
1111.4235407868341
 30
0.0
 11
2541.445203450633
 21
1111.6353957215269
 31
0.0
  0
LINE
  5
12429
  8
01
 10
2541.445203450633
 20
1111.6353957215269
 30
0.0
 11
2541.7113701376452
 21
1111.7758395234059
 31
0.0
  0
LINE
  5
1242A
  8
01
 10
2541.7113701376452
 20
1111.7758395234059
 30
0.0
 11
2541.940263417674
 21
1111.873785690399
 31
0.0
  0
LINE
  5
1242B
  8
01
 10
2541.940263417674
 20
1111.873785690399
 30
0.0
 11
2542.1420570883288
 21
1111.9452101746519
 31
0.0
  0
LINE
  5
1242C
  8
01
 10
2542.1420570883288
 20
1111.9452101746519
 30
0.0
 11
2542.325013783885
 21
1111.9998843232111
 31
0.0
  0
LINE
  5
1242D
  8
01
 10
2542.325013783885
 20
1111.9998843232111
 30
0.0
 11
2542.495008138133
 21
1112.0430228272401
 31
0.0
  0
LINE
  5
1242E
  8
01
 10
2542.495008138133
 20
1112.0430228272401
 30
0.0
 11
2542.6567627462869
 21
1112.0783984223319
 31
0.0
  0
LINE
  5
1242F
  8
01
 10
2542.6567627462869
 20
1112.0783984223319
 30
0.0
 11
2542.813546803905
 21
1112.1080767670589
 31
0.0
  0
LINE
  5
12430
  8
01
 10
2542.813546803905
 20
1112.1080767670589
 30
0.0
 11
2542.9679199728498
 21
1112.133518890472
 31
0.0
  0
LINE
  5
12431
  8
01
 10
2542.9679199728498
 20
1112.133518890472
 30
0.0
 11
2543.1215111288561
 21
1112.1555106202079
 31
0.0
  0
LINE
  5
12432
  8
01
 10
2543.1215111288561
 20
1112.1555106202079
 30
0.0
 11
2543.275827077342
 21
1112.1747519532159
 31
0.0
  0
LINE
  5
12433
  8
01
 10
2543.275827077342
 20
1112.1747519532159
 30
0.0
 11
2543.4321648153791
 21
1112.1918131867369
 31
0.0
  0
LINE
  5
12434
  8
01
 10
2543.4321648153791
 20
1112.1918131867369
 30
0.0
 11
2543.5913101706042
 21
1112.206957534881
 31
0.0
  0
LINE
  5
12435
  8
01
 10
2543.5913101706042
 20
1112.206957534881
 30
0.0
 11
2543.7539612326159
 21
1112.2203948059989
 31
0.0
  0
LINE
  5
12436
  8
01
 10
2543.7539612326159
 20
1112.2203948059989
 30
0.0
 11
2543.9206863913068
 21
1112.232313827606
 31
0.0
  0
LINE
  5
12437
  8
01
 10
2543.9206863913068
 20
1112.232313827606
 30
0.0
 11
2544.091802266551
 21
1112.2428519288021
 31
0.0
  0
LINE
  5
12438
  8
01
 10
2544.091802266551
 20
1112.2428519288021
 30
0.0
 11
2544.2677170309548
 21
1112.252114013763
 31
0.0
  0
LINE
  5
12439
  8
01
 10
2544.2677170309548
 20
1112.252114013763
 30
0.0
 11
2544.4492432150382
 21
1112.2600886383971
 31
0.0
  0
LINE
  5
1243A
  8
01
 10
2544.4492432150382
 20
1112.2600886383971
 30
0.0
 11
2544.635232594921
 21
1112.26705999765
 31
0.0
  0
LINE
  5
1243B
  8
01
 10
2544.635232594921
 20
1112.26705999765
 30
0.0
 11
2544.8381592306632
 21
1112.2729956665951
 31
0.0
  0
LINE
  5
1243C
  8
01
 10
2547.2238060507311
 20
1090.2802130738221
 30
0.0
 11
2546.8276382956042
 21
1090.2676884690241
 31
0.0
  0
LINE
  5
1243D
  8
01
 10
2546.8276382956042
 20
1090.2676884690241
 30
0.0
 11
2546.5098816427721
 21
1090.2641970673519
 31
0.0
  0
LINE
  5
1243E
  8
01
 10
2546.5098816427721
 20
1090.2641970673519
 30
0.0
 11
2546.222726491405
 21
1090.2647997895201
 31
0.0
  0
LINE
  5
1243F
  8
01
 10
2546.222726491405
 20
1090.2647997895201
 30
0.0
 11
2545.9582459005842
 21
1090.2683503190001
 31
0.0
  0
LINE
  5
12440
  8
01
 10
2545.9582459005842
 20
1090.2683503190001
 30
0.0
 11
2545.7182213339338
 21
1090.273946479889
 31
0.0
  0
LINE
  5
12441
  8
01
 10
2545.7182213339338
 20
1090.273946479889
 30
0.0
 11
2545.5070168051252
 21
1090.2803818741761
 31
0.0
  0
LINE
  5
12442
  8
01
 10
2545.5070168051252
 20
1090.2803818741761
 30
0.0
 11
2545.3286568197741
 21
1090.2864396134339
 31
0.0
  0
LINE
  5
12443
  8
01
 10
2545.3286568197741
 20
1090.2864396134339
 30
0.0
 11
2545.1844650778298
 21
1090.291323379608
 31
0.0
  0
LINE
  5
12444
  8
01
 10
2545.1844650778298
 20
1090.291323379608
 30
0.0
 11
2545.0744377645979
 21
1090.2946679154361
 31
0.0
  0
LINE
  5
12445
  8
01
 10
2545.0744377645979
 20
1090.2946679154361
 30
0.0
 11
2544.9963852438459
 21
1090.2966162720641
 31
0.0
  0
LINE
  5
12446
  8
01
 10
2544.9963852438459
 20
1090.2966162720641
 30
0.0
 11
2544.9484154257311
 21
1090.2974192658389
 31
0.0
  0
LINE
  5
12447
  8
01
 10
2544.9484154257311
 20
1090.2974192658389
 30
0.0
 11
2544.9070068869132
 21
1090.297551826568
 31
0.0
  0
LINE
  5
12448
  8
01
 10
2551.2309586081042
 20
1090.3798119584039
 30
0.0
 11
2550.6363922628889
 21
1090.3789679566339
 31
0.0
  0
LINE
  5
12449
  8
01
 10
2550.6363922628889
 20
1090.3789679566339
 30
0.0
 11
2550.048215535594
 21
1090.3798443833309
 31
0.0
  0
LINE
  5
1244A
  8
01
 10
2550.048215535594
 20
1090.3798443833309
 30
0.0
 11
2549.4694725546369
 21
1090.3818413773499
 31
0.0
  0
LINE
  5
1244B
  8
01
 10
2549.4694725546369
 20
1090.3818413773499
 30
0.0
 11
2548.9017578634748
 21
1090.3802125016171
 31
0.0
  0
LINE
  5
1244C
  8
01
 10
2548.9017578634748
 20
1090.3802125016171
 30
0.0
 11
2548.346009877635
 21
1090.3664280930479
 31
0.0
  0
LINE
  5
1244D
  8
01
 10
2548.346009877635
 20
1090.3664280930479
 30
0.0
 11
2547.807099965526
 21
1090.3311011353451
 31
0.0
  0
LINE
  5
1244E
  8
01
 10
2547.807099965526
 20
1090.3311011353451
 30
0.0
 11
2547.2239090475568
 21
1090.28023691568
 31
0.0
  0
LINE
  5
1244F
  8
01
 10
2540.7705971273908
 20
1091.477269844147
 30
0.0
 11
2541.1318909201159
 21
1091.147965149017
 31
0.0
  0
LINE
  5
12450
  8
01
 10
2541.1318909201159
 20
1091.147965149017
 30
0.0
 11
2541.445203450633
 21
1090.9361092606509
 31
0.0
  0
LINE
  5
12451
  8
01
 10
2541.445203450633
 20
1090.9361092606509
 30
0.0
 11
2541.711373952342
 21
1090.7956654587711
 31
0.0
  0
LINE
  5
12452
  8
01
 10
2541.711373952342
 20
1090.7956654587711
 30
0.0
 11
2541.940263417674
 21
1090.697720245453
 31
0.0
  0
LINE
  5
12453
  8
01
 10
2541.940263417674
 20
1090.697720245453
 30
0.0
 11
2542.1420570883288
 21
1090.6262967148739
 31
0.0
  0
LINE
  5
12454
  8
01
 10
2542.1420570883288
 20
1090.6262967148739
 30
0.0
 11
2542.325013783885
 21
1090.5716206589659
 31
0.0
  0
LINE
  5
12455
  8
01
 10
2542.325013783885
 20
1090.5716206589659
 30
0.0
 11
2542.495008138133
 21
1090.5284831086119
 31
0.0
  0
LINE
  5
12456
  8
01
 10
2542.495008138133
 20
1090.5284831086119
 30
0.0
 11
2542.6567665609841
 21
1090.493108467193
 31
0.0
  0
LINE
  5
12457
  8
01
 10
2542.6567665609841
 20
1090.493108467193
 30
0.0
 11
2542.813546803905
 21
1090.463429168793
 31
0.0
  0
LINE
  5
12458
  8
01
 10
2542.813546803905
 20
1090.463429168793
 30
0.0
 11
2542.9679199728498
 21
1090.437987045379
 31
0.0
  0
LINE
  5
12459
  8
01
 10
2542.9679199728498
 20
1090.437987045379
 30
0.0
 11
2543.1215111288561
 21
1090.415996269317
 31
0.0
  0
LINE
  5
1245A
  8
01
 10
2543.1215111288561
 20
1090.415996269317
 30
0.0
 11
2543.2758308920402
 21
1090.396755889984
 31
0.0
  0
LINE
  5
1245B
  8
01
 10
2543.2758308920402
 20
1090.396755889984
 30
0.0
 11
2543.4321686300759
 21
1090.3796937027889
 31
0.0
  0
LINE
  5
1245C
  8
01
 10
2543.4321686300759
 20
1090.3796937027889
 30
0.0
 11
2543.5913101706042
 21
1090.3645503083189
 31
0.0
  0
LINE
  5
1245D
  8
01
 10
2543.5913101706042
 20
1090.3645503083189
 30
0.0
 11
2543.7539650473132
 21
1090.351112083526
 31
0.0
  0
LINE
  5
1245E
  8
01
 10
2543.7539650473132
 20
1090.351112083526
 30
0.0
 11
2543.9206863913068
 21
1090.33919306192
 31
0.0
  0
LINE
  5
1245F
  8
01
 10
2543.9206863913068
 20
1090.33919306192
 30
0.0
 11
2544.091802266551
 21
1090.328655914398
 31
0.0
  0
LINE
  5
12460
  8
01
 10
2544.091802266551
 20
1090.328655914398
 30
0.0
 11
2544.2677170309548
 21
1090.3193938294371
 31
0.0
  0
LINE
  5
12461
  8
01
 10
2544.2677170309548
 20
1090.3193938294371
 30
0.0
 11
2544.4492432150382
 21
1090.3114192048031
 31
0.0
  0
LINE
  5
12462
  8
01
 10
2544.4492432150382
 20
1090.3114192048031
 30
0.0
 11
2544.6352364096178
 21
1090.3044478455499
 31
0.0
  0
LINE
  5
12463
  8
01
 10
2544.6352364096178
 20
1090.3044478455499
 30
0.0
 11
2544.8381592306632
 21
1090.2985121766051
 31
0.0
  0
LINE
  5
12464
  8
01
 10
2538.6678329977522
 20
1095.437419609161
 30
0.0
 11
2538.1464668783678
 21
1095.4348580399469
 31
0.0
  0
LINE
  5
12465
  8
01
 10
2538.1464668783678
 20
1095.4348580399469
 30
0.0
 11
2537.7357842001452
 21
1095.432651237579
 31
0.0
  0
LINE
  5
12466
  8
01
 10
2537.7357842001452
 20
1095.432651237579
 30
0.0
 11
2537.4359718832502
 21
1095.430814460846
 31
0.0
  0
LINE
  5
12467
  8
01
 10
2537.4359718832502
 20
1095.430814460846
 30
0.0
 11
2537.2471519979972
 21
1095.429369644256
 31
0.0
  0
LINE
  5
12468
  8
01
 10
2537.2471519979972
 20
1095.429369644256
 30
0.0
 11
2537.1671654257311
 21
1095.4281918564759
 31
0.0
  0
LINE
  5
12469
  8
01
 10
2543.2165047201638
 20
1095.518960670563
 30
0.0
 11
2543.8823067221178
 21
1095.5288741150821
 31
0.0
  0
LINE
  5
1246A
  8
01
 10
2543.8823067221178
 20
1095.5288741150821
 30
0.0
 11
2544.6024986776838
 21
1095.5386292496639
 31
0.0
  0
LINE
  5
1246B
  8
01
 10
2544.6024986776838
 20
1095.5386292496639
 30
0.0
 11
2545.3838554892081
 21
1095.5481326142269
 31
0.0
  0
LINE
  5
1246C
  8
01
 10
2545.3838554892081
 20
1095.5481326142269
 30
0.0
 11
2546.2368103537092
 21
1095.557217315765
 31
0.0
  0
LINE
  5
1246D
  8
01
 10
2546.2368103537092
 20
1095.557217315765
 30
0.0
 11
2547.1758476767068
 21
1095.565637306305
 31
0.0
  0
LINE
  5
1246E
  8
01
 10
2547.1758476767068
 20
1095.565637306305
 30
0.0
 11
2548.221082356883
 21
1095.572771743866
 31
0.0
  0
LINE
  5
1246F
  8
01
 10
2548.221082356883
 20
1095.572771743866
 30
0.0
 11
2549.3958183798318
 21
1095.5776516953431
 31
0.0
  0
LINE
  5
12470
  8
01
 10
2549.3958183798318
 20
1095.5776516953431
 30
0.0
 11
2550.7113625082511
 21
1095.5790450135189
 31
0.0
  0
LINE
  5
12471
  8
01
 10
2550.7113625082511
 20
1095.5790450135189
 30
0.0
 11
2552.125005391551
 21
1095.5770260849911
 31
0.0
  0
LINE
  5
12472
  8
01
 10
2552.125005391551
 20
1095.5770260849911
 30
0.0
 11
2553.5353294882311
 21
1095.5734049836119
 31
0.0
  0
LINE
  5
12473
  8
01
 10
2553.5353294882311
 20
1095.5734049836119
 30
0.0
 11
2554.8781334433088
 21
1095.569887832733
 31
0.0
  0
LINE
  5
12474
  8
01
 10
2554.8781334433088
 20
1095.569887832733
 30
0.0
 11
2556.2158676657209
 21
1095.566584304901
 31
0.0
  0
LINE
  5
12475
  8
01
 10
2538.6678139242658
 20
1095.4374186554869
 30
0.0
 11
2538.9452225241198
 21
1095.4397418061219
 31
0.0
  0
LINE
  5
12476
  8
01
 10
2538.9452225241198
 20
1095.4397418061219
 30
0.0
 11
2539.3282524618639
 21
1095.445821479889
 31
0.0
  0
LINE
  5
12477
  8
01
 10
2539.3282524618639
 20
1095.445821479889
 30
0.0
 11
2539.8387695822248
 21
1095.455816940399
 31
0.0
  0
LINE
  5
12478
  8
01
 10
2539.8387695822248
 20
1095.455816940399
 30
0.0
 11
2540.4760071310529
 21
1095.46894998941
 31
0.0
  0
LINE
  5
12479
  8
01
 10
2540.4760071310529
 20
1095.46894998941
 30
0.0
 11
2541.2368523153791
 21
1095.484263137909
 31
0.0
  0
LINE
  5
1247A
  8
01
 10
2541.2368523153791
 20
1095.484263137909
 30
0.0
 11
2542.1204735311999
 21
1095.500714019867
 31
0.0
  0
LINE
  5
1247B
  8
01
 10
2542.1204735311999
 20
1095.500714019867
 30
0.0
 11
2543.2165047201638
 21
1095.518960670563
 31
0.0
  0
LINE
  5
1247C
  8
01
 10
2556.2571159872541
 20
1095.5664822617489
 30
0.0
 11
2557.7410942587389
 21
1095.562541679474
 31
0.0
  0
LINE
  5
1247D
  8
01
 10
2557.7410942587389
 20
1095.562541679474
 30
0.0
 11
2571.1948582205309
 21
1095.49264593515
 31
0.0
  0
LINE
  5
1247E
  8
01
 10
2538.6678291830549
 20
1107.1340872803651
 30
0.0
 11
2538.1464668783678
 21
1107.1366488495789
 31
0.0
  0
LINE
  5
1247F
  8
01
 10
2538.1464668783678
 20
1107.1366488495789
 30
0.0
 11
2537.7357842001452
 21
1107.1388556519471
 31
0.0
  0
LINE
  5
12480
  8
01
 10
2537.7357842001452
 20
1107.1388556519471
 30
0.0
 11
2537.4359718832502
 21
1107.14069242868
 31
0.0
  0
LINE
  5
12481
  8
01
 10
2537.4359718832502
 20
1107.14069242868
 30
0.0
 11
2537.2471519979972
 21
1107.1421343842469
 31
0.0
  0
LINE
  5
12482
  8
01
 10
2537.2471519979972
 20
1107.1421343842469
 30
0.0
 11
2537.1671654257311
 21
1107.143313125702
 31
0.0
  0
LINE
  5
12483
  8
01
 10
2556.2571121725568
 20
1107.0050303498231
 30
0.0
 11
2557.7410942587389
 21
1107.008970932098
 31
0.0
  0
LINE
  5
12484
  8
01
 10
2557.7410942587389
 20
1107.008970932098
 30
0.0
 11
2571.1948563131818
 21
1107.0788695374449
 31
0.0
  0
LINE
  5
12485
  8
01
 10
2543.2165047201638
 20
1107.0525481263121
 30
0.0
 11
2543.8823029074201
 21
1107.0426356354669
 31
0.0
  0
LINE
  5
12486
  8
01
 10
2543.8823029074201
 20
1107.0426356354669
 30
0.0
 11
2544.6024986776838
 21
1107.032879547211
 31
0.0
  0
LINE
  5
12487
  8
01
 10
2544.6024986776838
 20
1107.032879547211
 30
0.0
 11
2545.3838554892081
 21
1107.0233771363221
 31
0.0
  0
LINE
  5
12488
  8
01
 10
2545.3838554892081
 20
1107.0233771363221
 30
0.0
 11
2546.2368065390119
 21
1107.014292434784
 31
0.0
  0
LINE
  5
12489
  8
01
 10
2546.2368065390119
 20
1107.014292434784
 30
0.0
 11
2547.1758476767068
 21
1107.005873397919
 31
0.0
  0
LINE
  5
1248A
  8
01
 10
2547.1758476767068
 20
1107.005873397919
 30
0.0
 11
2548.221082356883
 21
1106.998738006683
 31
0.0
  0
LINE
  5
1248B
  8
01
 10
2548.221082356883
 20
1106.998738006683
 30
0.0
 11
2549.3958183798318
 21
1106.9938590088809
 31
0.0
  0
LINE
  5
1248C
  8
01
 10
2549.3958183798318
 20
1106.9938590088809
 30
0.0
 11
2550.7113625082511
 21
1106.992466644379
 31
0.0
  0
LINE
  5
1248D
  8
01
 10
2550.7113625082511
 20
1106.992466644379
 30
0.0
 11
2552.125005391551
 21
1106.9944865265811
 31
0.0
  0
LINE
  5
1248E
  8
01
 10
2552.125005391551
 20
1106.9944865265811
 30
0.0
 11
2553.5353294882311
 21
1106.998106674286
 31
0.0
  0
LINE
  5
1248F
  8
01
 10
2553.5353294882311
 20
1106.998106674286
 30
0.0
 11
2554.8781334433088
 21
1107.0016238251651
 31
0.0
  0
LINE
  5
12490
  8
01
 10
2554.8781334433088
 20
1107.0016238251651
 30
0.0
 11
2556.2158676657209
 21
1107.0049273529969
 31
0.0
  0
LINE
  5
12491
  8
01
 10
2538.667810109569
 20
1107.134089187713
 30
0.0
 11
2538.9452187094221
 21
1107.1317660370789
 31
0.0
  0
LINE
  5
12492
  8
01
 10
2538.9452187094221
 20
1107.1317660370789
 30
0.0
 11
2539.3282486471662
 21
1107.1256854096371
 31
0.0
  0
LINE
  5
12493
  8
01
 10
2539.3282486471662
 20
1107.1256854096371
 30
0.0
 11
2539.8387695822248
 21
1107.1156909028009
 31
0.0
  0
LINE
  5
12494
  8
01
 10
2539.8387695822248
 20
1107.1156909028009
 30
0.0
 11
2540.4760071310529
 21
1107.102558807464
 31
0.0
  0
LINE
  5
12495
  8
01
 10
2540.4760071310529
 20
1107.102558807464
 30
0.0
 11
2541.2368523153791
 21
1107.0872447052921
 31
0.0
  0
LINE
  5
12496
  8
01
 10
2541.2368523153791
 20
1107.0872447052921
 30
0.0
 11
2542.1204735311999
 21
1107.070795730682
 31
0.0
  0
LINE
  5
12497
  8
01
 10
2542.1204735311999
 20
1107.070795730682
 30
0.0
 11
2543.2165047201638
 21
1107.0525481263121
 31
0.0
  0
TEXT
  5
12498
  8
01
 10
2679.9999905073742
 20
1334.3550826492601
 30
0.0
 40
4.5499999999999989
  1
材質：亜鉛ダイキャスト
  0
TEXT
  5
12499
  8
01
 10
2690.6166571740409
 20
1326.7717493159259
 30
0.0
 40
4.5499999999999989
  1
仕上げ：各種メッキ
  0
SOLID
  5
1249A
  8
01
 10
2765.8630652014481
 20
1336.2920739527981
 30
0.0
 11
2768.4340973210851
 21
1336.8730830900511
 31
0.0
 12
2766.1904753064832
 22
1335.4896315970921
 32
0.0
 13
2766.1904753064832
 23
1335.4896315970921
 33
0.0
1001
ACAD
1000
DSTYLE
1002
{
1070
    40
1040
1.3
1002
}
  0
LINE
  5
1249C
  8
01
 10
2768.6936124207691
 20
1317.814384812669
 30
0.0
 11
2768.6936124207691
 21
1288.4851014336821
 31
0.0
  0
LINE
  5
1249D
  8
01
 10
2898.4639100656868
 20
1331.1978949823549
 30
0.0
 11
2898.4639100656868
 21
1288.4851014336821
 31
0.0
  0
LINE
  5
1249E
  8
01
 10
2771.293612420769
 20
1289.7851014336809
 30
0.0
 11
2895.8639100656869
 21
1289.7851014336809
 31
0.0
  0
LINE
  5
124A2
  8
01
 10
2871.4486109094851
 20
1354.7731073159259
 30
0.0
 11
2902.4230162447029
 21
1354.7731073159259
 31
0.0
  0
LINE
  5
124A3
  8
01
 10
2895.42705072329
 20
1336.393591715891
 30
0.0
 11
2902.4230162447029
 21
1336.393591715891
 31
0.0
  0
LINE
  5
124A4
  8
01
 10
2901.1230162447032
 20
1352.173107315926
 30
0.0
 11
2901.1230162447032
 21
1338.9935917158909
 31
0.0
  0
LINE
  5
124A8
  8
01
 10
2896.151741764309
 20
1108.1272098277871
 30
0.0
 11
2912.4229194977338
 21
1108.1272098277871
 31
0.0
  0
LINE
  5
124A9
  8
01
 10
2896.151741764309
 20
1094.416288806123
 30
0.0
 11
2912.4229194977338
 21
1094.416288806123
 31
0.0
  0
LINE
  5
124AA
  8
01
 10
2911.1229194977341
 20
1105.5272098277869
 30
0.0
 11
2911.1229194977341
 21
1097.0162888061229
 31
0.0
  0
LINE
  5
124AE
  8
01
 10
2871.4486109094851
 20
1354.7731073159259
 30
0.0
 11
2912.423016244702
 21
1354.7731073159259
 31
0.0
  0
LINE
  5
124AF
  8
01
 10
2802.609430040889
 20
1311.1841945632259
 30
0.0
 11
2912.423016244702
 21
1311.1841945632259
 31
0.0
  0
LINE
  5
124B0
  8
01
 10
2911.1230162447018
 20
1352.173107315926
 30
0.0
 11
2911.1230162447018
 21
1313.784194563226
 31
0.0
  0
LINE
  5
124B4
  8
01
 10
2751.6313141796891
 20
1327.047387309143
 30
0.0
 11
2751.6313141796891
 21
1278.4851014336809
 31
0.0
  0
LINE
  5
124B5
  8
01
 10
2898.4639100656868
 20
1331.1978949823549
 30
0.0
 11
2898.4639100656868
 21
1278.4851014336809
 31
0.0
  0
LINE
  5
124B6
  8
01
 10
2754.231314179689
 20
1279.7851014336809
 30
0.0
 11
2895.8639100656869
 21
1279.7851014336809
 31
0.0
  0
LINE
  5
124BA
  8
01
 10
2768.693496081024
 20
1126.271749316955
 30
0.0
 11
2732.3934960810252
 21
1126.271749316955
 31
0.0
  0
LINE
  5
124BB
  8
01
 10
2768.693496081024
 20
1076.271749316955
 30
0.0
 11
2732.3934960810252
 21
1076.271749316955
 31
0.0
  0
LINE
  5
124BC
  8
01
 10
2733.6934960810249
 20
1123.6717493169549
 30
0.0
 11
2733.6934960810249
 21
1078.8717493169549
 31
0.0
  0
TEXT
  5
124C0
  8
01
 10
2732.7834960810251
 20
1094.0784159836221
 30
0.0
 40
4.5499999999999989
  1
\U+03C650
 50
90.0
  0
LINE
  5
124C1
  8
01
  6
BYBLOCK
 10
2734.3901639750238
 20
1078.8717493169549
 30
0.0
 11
2733.6934960810249
 21
1076.271749316955
 31
0.0
  0
LINE
  5
124C2
  8
01
  6
BYBLOCK
 10
2733.6934960810249
 20
1076.271749316955
 30
0.0
 11
2732.9968281870251
 21
1078.8717493169549
 31
0.0
  0
LINE
  5
124C3
  8
01
  6
BYBLOCK
 10
2733.6934960810249
 20
1076.271749316955
 30
0.0
 11
2733.6934960810249
 21
1078.8717493169549
 31
0.0
  0
LINE
  5
124C4
  8
01
  6
BYBLOCK
 10
2732.9968281870251
 20
1123.6717493169549
 30
0.0
 11
2733.6934960810249
 21
1126.271749316955
 31
0.0
  0
LINE
  5
124C5
  8
01
  6
BYBLOCK
 10
2733.6934960810249
 20
1126.271749316955
 30
0.0
 11
2734.3901639750238
 21
1123.6717493169549
 31
0.0
  0
LINE
  5
124C6
  8
01
  6
BYBLOCK
 10
2733.6934960810249
 20
1126.271749316955
 30
0.0
 11
2733.6934960810249
 21
1123.6717493169549
 31
0.0
  0
TEXT
  5
124C7
  8
01
 10
2818.2226121226872
 20
1280.6951014336821
 30
0.0
 40
4.5499999999999989
  1
147
  0
LINE
  5
124C8
  8
01
  6
BYBLOCK
 10
2895.8639100656869
 20
1280.4817693276809
 30
0.0
 11
2898.4639100656868
 21
1279.7851014336809
 31
0.0
  0
LINE
  5
124C9
  8
01
  6
BYBLOCK
 10
2898.4639100656868
 20
1279.7851014336809
 30
0.0
 11
2895.8639100656869
 21
1279.0884335396811
 31
0.0
  0
LINE
  5
124CA
  8
01
  6
BYBLOCK
 10
2898.4639100656868
 20
1279.7851014336809
 30
0.0
 11
2895.8639100656869
 21
1279.7851014336809
 31
0.0
  0
LINE
  5
124CB
  8
01
  6
BYBLOCK
 10
2754.231314179689
 20
1279.0884335396811
 30
0.0
 11
2751.6313141796891
 21
1279.7851014336809
 31
0.0
  0
LINE
  5
124CC
  8
01
  6
BYBLOCK
 10
2751.6313141796891
 20
1279.7851014336809
 30
0.0
 11
2754.231314179689
 21
1280.4817693276809
 31
0.0
  0
LINE
  5
124CD
  8
01
  6
BYBLOCK
 10
2751.6313141796891
 20
1279.7851014336809
 30
0.0
 11
2754.231314179689
 21
1279.7851014336809
 31
0.0
  0
TEXT
  5
124CE
  8
01
 10
2910.213016244702
 20
1325.395317606243
 30
0.0
 40
4.5499999999999989
  1
43.5
 50
90.0
  0
LINE
  5
124CF
  8
01
  6
BYBLOCK
 10
2911.8196841387021
 20
1313.784194563226
 30
0.0
 11
2911.1230162447018
 21
1311.1841945632259
 31
0.0
  0
LINE
  5
124D0
  8
01
  6
BYBLOCK
 10
2911.1230162447018
 20
1311.1841945632259
 30
0.0
 11
2910.4263483507029
 21
1313.784194563226
 31
0.0
  0
LINE
  5
124D1
  8
01
  6
BYBLOCK
 10
2911.1230162447018
 20
1311.1841945632259
 30
0.0
 11
2911.1230162447018
 21
1313.784194563226
 31
0.0
  0
LINE
  5
124D2
  8
01
  6
BYBLOCK
 10
2910.4263483507029
 20
1352.173107315926
 30
0.0
 11
2911.1230162447018
 21
1354.7731073159259
 31
0.0
  0
LINE
  5
124D3
  8
01
  6
BYBLOCK
 10
2911.1230162447018
 20
1354.7731073159259
 30
0.0
 11
2911.8196841387021
 21
1352.173107315926
 31
0.0
  0
LINE
  5
124D4
  8
01
  6
BYBLOCK
 10
2911.1230162447018
 20
1354.7731073159259
 30
0.0
 11
2911.1230162447018
 21
1352.173107315926
 31
0.0
  0
TEXT
  5
124D5
  8
01
 10
2910.2129194977342
 20
1096.5050826502879
 30
0.0
 40
4.5499999999999989
  1
14
 50
90.0
  0
LINE
  5
124D6
  8
01
  6
BYBLOCK
 10
2911.819587391733
 20
1097.0162888061229
 30
0.0
 11
2911.1229194977341
 21
1094.416288806123
 31
0.0
  0
LINE
  5
124D7
  8
01
  6
BYBLOCK
 10
2911.1229194977341
 20
1094.416288806123
 30
0.0
 11
2910.4262516037338
 21
1097.0162888061229
 31
0.0
  0
LINE
  5
124D8
  8
01
  6
BYBLOCK
 10
2911.1229194977341
 20
1094.416288806123
 30
0.0
 11
2911.1229194977341
 21
1097.0162888061229
 31
0.0
  0
LINE
  5
124D9
  8
01
  6
BYBLOCK
 10
2910.4262516037338
 20
1105.5272098277869
 30
0.0
 11
2911.1229194977341
 21
1108.1272098277871
 31
0.0
  0
LINE
  5
124DA
  8
01
  6
BYBLOCK
 10
2911.1229194977341
 20
1108.1272098277871
 30
0.0
 11
2911.819587391733
 21
1105.5272098277869
 31
0.0
  0
LINE
  5
124DB
  8
01
  6
BYBLOCK
 10
2911.1229194977341
 20
1108.1272098277871
 30
0.0
 11
2911.1229194977341
 21
1105.5272098277869
 31
0.0
  0
TEXT
  5
124DC
  8
01
 10
2900.213016244702
 20
1340.925016182576
 30
0.0
 40
4.5499999999999989
  1
18
 50
90.0
  0
LINE
  5
124DD
  8
01
  6
BYBLOCK
 10
2901.8196841387021
 20
1338.9935917158909
 30
0.0
 11
2901.1230162447032
 21
1336.393591715891
 31
0.0
  0
LINE
  5
124DE
  8
01
  6
BYBLOCK
 10
2901.1230162447032
 20
1336.393591715891
 30
0.0
 11
2900.426348350702
 21
1338.9935917158909
 31
0.0
  0
LINE
  5
124DF
  8
01
  6
BYBLOCK
 10
2901.1230162447032
 20
1336.393591715891
 30
0.0
 11
2901.1230162447032
 21
1338.9935917158909
 31
0.0
  0
LINE
  5
124E0
  8
01
  6
BYBLOCK
 10
2900.426348350702
 20
1352.173107315926
 30
0.0
 11
2901.1230162447032
 21
1354.7731073159259
 31
0.0
  0
LINE
  5
124E1
  8
01
  6
BYBLOCK
 10
2901.1230162447032
 20
1354.7731073159259
 30
0.0
 11
2901.8196841387021
 21
1352.173107315926
 31
0.0
  0
LINE
  5
124E2
  8
01
  6
BYBLOCK
 10
2901.1230162447032
 20
1354.7731073159259
 30
0.0
 11
2901.1230162447032
 21
1352.173107315926
 31
0.0
  0
TEXT
  5
124E3
  8
01
 10
2826.7537612432279
 20
1290.6951014336821
 30
0.0
 40
4.5499999999999989
  1
130
  0
LINE
  5
124E4
  8
01
  6
BYBLOCK
 10
2895.8639100656869
 20
1290.4817693276821
 30
0.0
 11
2898.4639100656868
 21
1289.7851014336809
 31
0.0
  0
LINE
  5
124E5
  8
01
  6
BYBLOCK
 10
2898.4639100656868
 20
1289.7851014336809
 30
0.0
 11
2895.8639100656869
 21
1289.0884335396811
 31
0.0
  0
LINE
  5
124E6
  8
01
  6
BYBLOCK
 10
2898.4639100656868
 20
1289.7851014336809
 30
0.0
 11
2895.8639100656869
 21
1289.7851014336809
 31
0.0
  0
LINE
  5
124E7
  8
01
  6
BYBLOCK
 10
2771.293612420769
 20
1289.0884335396811
 30
0.0
 11
2768.6936124207691
 21
1289.7851014336809
 31
0.0
  0
LINE
  5
124E8
  8
01
  6
BYBLOCK
 10
2768.6936124207691
 20
1289.7851014336809
 30
0.0
 11
2771.293612420769
 21
1290.4817693276821
 31
0.0
  0
LINE
  5
124E9
  8
01
  6
BYBLOCK
 10
2768.6936124207691
 20
1289.7851014336809
 30
0.0
 11
2771.293612420769
 21
1289.7851014336809
 31
0.0
  0
LINE
  5
124EA
  8
01
 10
2766.0267702539659
 20
1335.890852774945
 30
0.0
 11
2741.4466571740409
 21
1325.8617493159261
 31
0.0
1001
ACAD
1000
DSTYLE
1002
{
1070
    40
1040
1.3
1002
}
  0
LINE
  5
124EB
  8
01
 10
2741.4466571740409
 20
1325.8617493159261
 30
0.0
 11
2737.9366571740411
 21
1325.8617493159261
 31
0.0
1001
ACAD
1000
DSTYLE
1002
{
1070
    40
1040
1.3
1002
}
  0
TEXT
  5
124EC
  8
01
 10
2643.787091117581
 20
1133.1521366639361
 30
0.0
 40
4.5499999999999989
  1
114
 50
90.0
  0
LINE
  5
124ED
  8
01
  6
BYBLOCK
 10
2645.3937590115811
 20
1067.871749316954
 30
0.0
 11
2644.6970911175822
 21
1065.271749316955
 31
0.0
  0
LINE
  5
124EE
  8
01
  6
BYBLOCK
 10
2644.6970911175822
 20
1065.271749316955
 30
0.0
 11
2644.0004232235819
 21
1067.871749316954
 31
0.0
  0
LINE
  5
124EF
  8
01
  6
BYBLOCK
 10
2644.6970911175822
 20
1065.271749316955
 30
0.0
 11
2644.6970911175822
 21
1067.871749316954
 31
0.0
  0
LINE
  5
124F0
  8
01
  6
BYBLOCK
 10
2644.0004232235819
 20
1176.6717493169549
 30
0.0
 11
2644.6970911175822
 21
1179.271749316955
 31
0.0
  0
LINE
  5
124F1
  8
01
  6
BYBLOCK
 10
2644.6970911175822
 20
1179.271749316955
 30
0.0
 11
2645.3937590115811
 21
1176.6717493169549
 31
0.0
  0
LINE
  5
124F2
  8
01
  6
BYBLOCK
 10
2644.6970911175822
 20
1179.271749316955
 30
0.0
 11
2644.6970911175822
 21
1176.6717493169549
 31
0.0
  0
TEXT
  5
124F3
  8
01
 10
2659.2835000810242
 20
1133.260469997269
 30
0.0
 40
4.5499999999999989
  1
130
 50
90.0
  0
LINE
  5
124F4
  8
01
  6
BYBLOCK
 10
2660.8901679750238
 20
1059.871749316954
 30
0.0
 11
2660.1935000810249
 21
1057.271749316955
 31
0.0
  0
LINE
  5
124F5
  8
01
  6
BYBLOCK
 10
2660.1935000810249
 20
1057.271749316955
 30
0.0
 11
2659.4968321870251
 21
1059.871749316954
 31
0.0
  0
LINE
  5
124F6
  8
01
  6
BYBLOCK
 10
2660.1935000810249
 20
1057.271749316955
 30
0.0
 11
2660.1935000810249
 21
1059.871749316954
 31
0.0
  0
LINE
  5
124F7
  8
01
  6
BYBLOCK
 10
2659.4968321870251
 20
1184.6717493169549
 30
0.0
 11
2660.1935000810249
 21
1187.271749316955
 31
0.0
  0
LINE
  5
124F8
  8
01
  6
BYBLOCK
 10
2660.1935000810249
 20
1187.271749316955
 30
0.0
 11
2660.8901679750238
 21
1184.6717493169549
 31
0.0
  0
LINE
  5
124F9
  8
01
  6
BYBLOCK
 10
2660.1935000810249
 20
1187.271749316955
 30
0.0
 11
2660.1935000810249
 21
1184.6717493169549
 31
0.0
  0
TEXT
  5
124FA
  8
01
 10
2595.860166747691
 20
1208.1817493169549
 30
0.0
 40
4.5499999999999989
  1
25
  0
LINE
  5
124FB
  8
01
  6
BYBLOCK
 10
2610.093500081025
 20
1207.9684172109551
 30
0.0
 11
2612.693500081024
 21
1207.271749316955
 31
0.0
  0
LINE
  5
124FC
  8
01
  6
BYBLOCK
 10
2612.693500081024
 20
1207.271749316955
 30
0.0
 11
2610.093500081025
 21
1206.5750814229541
 31
0.0
  0
LINE
  5
124FD
  8
01
  6
BYBLOCK
 10
2612.693500081024
 20
1207.271749316955
 30
0.0
 11
2610.093500081025
 21
1207.271749316955
 31
0.0
  0
LINE
  5
124FE
  8
01
  6
BYBLOCK
 10
2590.2935000810239
 20
1206.5750814229541
 30
0.0
 11
2587.693500081024
 21
1207.271749316955
 31
0.0
  0
LINE
  5
124FF
  8
01
  6
BYBLOCK
 10
2587.693500081024
 20
1207.271749316955
 30
0.0
 11
2590.2935000810239
 21
1207.9684172109551
 31
0.0
  0
LINE
  5
12500
  8
01
  6
BYBLOCK
 10
2587.693500081024
 20
1207.271749316955
 30
0.0
 11
2590.2935000810239
 21
1207.271749316955
 31
0.0
  0
TEXT
  5
12501
  8
01
 10
2812.7834960810251
 20
1114.938415983622
 30
0.0
 40
4.5499999999999989
  1
74.5
 50
90.0
  0
LINE
  5
12502
  8
01
  6
BYBLOCK
 10
2814.3901639750252
 20
1087.871749316954
 30
0.0
 11
2813.693496081024
 21
1085.271749316955
 31
0.0
  0
LINE
  5
12503
  8
01
  6
BYBLOCK
 10
2813.693496081024
 20
1085.271749316955
 30
0.0
 11
2812.9968281870251
 21
1087.871749316954
 31
0.0
  0
LINE
  5
12504
  8
01
  6
BYBLOCK
 10
2813.693496081024
 20
1085.271749316955
 30
0.0
 11
2813.693496081024
 21
1087.871749316954
 31
0.0
  0
LINE
  5
12505
  8
01
  6
BYBLOCK
 10
2812.9968281870251
 20
1157.1717493169549
 30
0.0
 11
2813.693496081024
 21
1159.771749316955
 31
0.0
  0
LINE
  5
12506
  8
01
  6
BYBLOCK
 10
2813.693496081024
 20
1159.771749316955
 30
0.0
 11
2814.3901639750252
 21
1157.1717493169549
 31
0.0
  0
LINE
  5
12507
  8
01
  6
BYBLOCK
 10
2813.693496081024
 20
1159.771749316955
 30
0.0
 11
2813.693496081024
 21
1157.1717493169549
 31
0.0
  0
TEXT
  5
12508
  8
01
 10
2708.1851627476908
 20
1208.1817493169549
 30
0.0
 40
4.5499999999999989
  1
11
  0
LINE
  5
12509
  8
01
  6
BYBLOCK
 10
2715.093496081025
 20
1207.9684172109551
 30
0.0
 11
2717.6934960810249
 21
1207.271749316955
 31
0.0
  0
LINE
  5
1250A
  8
01
  6
BYBLOCK
 10
2717.6934960810249
 20
1207.271749316955
 30
0.0
 11
2715.093496081025
 21
1206.5750814229541
 31
0.0
  0
LINE
  5
1250B
  8
01
  6
BYBLOCK
 10
2717.6934960810249
 20
1207.271749316955
 30
0.0
 11
2715.093496081025
 21
1207.271749316955
 31
0.0
  0
LINE
  5
1250C
  8
01
  6
BYBLOCK
 10
2709.2934960810239
 20
1206.5750814229541
 30
0.0
 11
2706.6934960810249
 21
1207.271749316955
 31
0.0
  0
LINE
  5
1250D
  8
01
  6
BYBLOCK
 10
2706.6934960810249
 20
1207.271749316955
 30
0.0
 11
2709.2934960810239
 21
1207.9684172109551
 31
0.0
  0
LINE
  5
1250E
  8
01
  6
BYBLOCK
 10
2706.6934960810249
 20
1207.271749316955
 30
0.0
 11
2709.2934960810239
 21
1207.271749316955
 31
0.0
  0
TEXT
  5
1250F
  8
01
 10
2747.860162747691
 20
1218.1817493169549
 30
0.0
 40
4.5499999999999989
  1
69
  0
LINE
  5
12510
  8
01
  6
BYBLOCK
 10
2720.2934960810239
 20
1216.575081422955
 30
0.0
 11
2717.6934960810249
 21
1217.271749316955
 31
0.0
  0
LINE
  5
12511
  8
01
  6
BYBLOCK
 10
2717.6934960810249
 20
1217.271749316955
 30
0.0
 11
2720.2934960810239
 21
1217.9684172109551
 31
0.0
  0
LINE
  5
12512
  8
01
  6
BYBLOCK
 10
2717.6934960810249
 20
1217.271749316955
 30
0.0
 11
2720.2934960810239
 21
1217.271749316955
 31
0.0
  0
LINE
  5
12513
  8
01
  6
BYBLOCK
 10
2784.093496081025
 20
1217.9684172109551
 30
0.0
 11
2786.6934960810249
 21
1217.271749316955
 31
0.0
  0
LINE
  5
12514
  8
01
  6
BYBLOCK
 10
2786.6934960810249
 20
1217.271749316955
 30
0.0
 11
2784.093496081025
 21
1216.575081422955
 31
0.0
  0
LINE
  5
12515
  8
01
  6
BYBLOCK
 10
2786.6934960810249
 20
1217.271749316955
 30
0.0
 11
2784.093496081025
 21
1217.271749316955
 31
0.0
  0
TEXT
  5
12516
  8
01
 10
2739.5101627476911
 20
1208.1817493169549
 30
0.0
 40
4.5499999999999989
  1
51
  0
LINE
  5
12517
  8
01
  6
BYBLOCK
 10
2766.093496081025
 20
1207.9684172109551
 30
0.0
 11
2768.693496081024
 21
1207.271749316955
 31
0.0
  0
LINE
  5
12518
  8
01
  6
BYBLOCK
 10
2768.693496081024
 20
1207.271749316955
 30
0.0
 11
2766.093496081025
 21
1206.5750814229541
 31
0.0
  0
LINE
  5
12519
  8
01
  6
BYBLOCK
 10
2768.693496081024
 20
1207.271749316955
 30
0.0
 11
2766.093496081025
 21
1207.271749316955
 31
0.0
  0
LINE
  5
1251A
  8
01
  6
BYBLOCK
 10
2720.2934960810239
 20
1206.5750814229541
 30
0.0
 11
2717.6934960810249
 21
1207.271749316955
 31
0.0
  0
LINE
  5
1251B
  8
01
  6
BYBLOCK
 10
2717.6934960810249
 20
1207.271749316955
 30
0.0
 11
2720.2934960810239
 21
1207.9684172109551
 31
0.0
  0
LINE
  5
1251C
  8
01
  6
BYBLOCK
 10
2717.6934960810249
 20
1207.271749316955
 30
0.0
 11
2720.2934960810239
 21
1207.271749316955
 31
0.0
  0
TEXT
  5
1251D
  8
01
 10
2807.6447710227972
 20
1367.1884159825929
 30
0.0
 40
4.5499999999999989
  1
20.5
 50
90.0
  0
LINE
  5
1251E
  8
01
  6
BYBLOCK
 10
2809.2514389167968
 20
1367.1217493159261
 30
0.0
 11
2808.554771022797
 21
1364.5217493159259
 31
0.0
  0
LINE
  5
1251F
  8
01
  6
BYBLOCK
 10
2808.554771022797
 20
1364.5217493159259
 30
0.0
 11
2807.8581031287972
 21
1367.1217493159261
 31
0.0
  0
LINE
  5
12520
  8
01
  6
BYBLOCK
 10
2808.554771022797
 20
1364.5217493159259
 30
0.0
 11
2808.554771022797
 21
1367.1217493159261
 31
0.0
  0
LINE
  5
12521
  8
01
  6
BYBLOCK
 10
2807.8581031287972
 20
1382.421749315926
 30
0.0
 11
2808.554771022797
 21
1385.0217493159259
 31
0.0
  0
LINE
  5
12522
  8
01
  6
BYBLOCK
 10
2808.554771022797
 20
1385.0217493159259
 30
0.0
 11
2809.2514389167968
 21
1382.421749315926
 31
0.0
  0
LINE
  5
12523
  8
01
  6
BYBLOCK
 10
2808.554771022797
 20
1385.0217493159259
 30
0.0
 11
2808.554771022797
 21
1382.421749315926
 31
0.0
  0
VIEWPORT
  5
57
 67
     1
  8
0
 10
76.474516246473584
 20
9.8414951468432577
 30
0.0
 40
571.81280432340145
 41
252.6764048301612
 68
     1
 69
     1
1001
ACAD
1000
MVIEW
1002
{
1070
    16
1010
0.0
1020
0.0
1030
0.0
1010
0.0
1020
0.0
1030
1.0
1040
0.0
1040
252.6764048301612
1040
76.474516246473584
1040
9.8414951468432577
1040
50.0
1040
0.0
1040
0.0
1070
     0
1070
   100
1070
     1
1070
     1
1070
     0
1070
     0
1070
     0
1070
     0
1040
0.0
1040
0.0
1040
0.0
1040
10.0
1040
10.0
1040
10.0
1040
10.0
1070
     0
1002
{
1002
}
1002
}
  0
ENDSEC
  0
EOF
