  0
SECTION
  2
HEADER
  9
$ACADVER
  1
AC1012
  9
$DWGCODEPAGE
  3
ansi_932
  9
$INSBASE
 10
0.0
 20
0.0
 30
0.0
  9
$EXTMIN
 10
4780.840003528744
 20
2180.034411655984
 30
0.0
  9
$EXTMAX
 10
5412.139770849256
 20
2604.056130810146
 30
0.0000000001127424
  9
$LIMMIN
 10
0.0
 20
0.0
  9
$LIMMAX
 10
420.0
 20
297.0
  9
$ORTHOMODE
 70
     0
  9
$REGENMODE
 70
     1
  9
$FILLMODE
 70
     1
  9
$QTEXTMODE
 70
     0
  9
$MIRRTEXT
 70
     0
  9
$DRAGMODE
 70
     2
  9
$LTSCALE
 40
0.5
  9
$OSMODE
 70
 14463
  9
$ATTMODE
 70
     1
  9
$TEXTSIZE
 40
4.0
  9
$TRACEWID
 40
1.0
  9
$TEXTSTYLE
  7
STANDARD
  9
$CLAYER
  8
1TEXT
  9
$CELTYPE
  6
BYLAYER
  9
$CECOLOR
 62
   256
  9
$CELTSCALE
 40
1.0
  9
$DELOBJ
 70
     1
  9
$DISPSILH
 70
     0
  9
$DIMSCALE
 40
1.0
  9
$DIMASZ
 40
2.0
  9
$DIMEXO
 40
0.0
  9
$DIMDLI
 40
7.0
  9
$DIMRND
 40
0.0
  9
$DIMDLE
 40
0.0
  9
$DIMEXE
 40
1.0
  9
$DIMTP
 40
0.0
  9
$DIMTM
 40
0.0
  9
$DIMTXT
 40
3.5
  9
$DIMCEN
 40
0.0
  9
$DIMTSZ
 40
0.0
  9
$DIMTOL
 70
     0
  9
$DIMLIM
 70
     0
  9
$DIMTIH
 70
     0
  9
$DIMTOH
 70
     0
  9
$DIMSE1
 70
     0
  9
$DIMSE2
 70
     0
  9
$DIMTAD
 70
     1
  9
$DIMZIN
 70
     8
  9
$DIMBLK
  1

  9
$DIMASO
 70
     1
  9
$DIMSHO
 70
     1
  9
$DIMPOST
  1
 
  9
$DIMAPOST
  1

  9
$DIMALT
 70
     0
  9
$DIMALTD
 70
     2
  9
$DIMALTF
 40
25.4
  9
$DIMLFAC
 40
1.0
  9
$DIMTOFL
 70
     1
  9
$DIMTVP
 40
0.0
  9
$DIMTIX
 70
     0
  9
$DIMSOXD
 70
     0
  9
$DIMSAH
 70
     1
  9
$DIMBLK1
  1
OPEN30
  9
$DIMBLK2
  1
OPEN30
  9
$DIMSTYLE
  2
NEWX10
  9
$DIMCLRD
 70
   256
  9
$DIMCLRE
 70
   256
  9
$DIMCLRT
 70
   201
  9
$DIMTFAC
 40
0.7
  9
$DIMGAP
 40
0.7
  9
$DIMJUST
 70
     0
  9
$DIMSD1
 70
     0
  9
$DIMSD2
 70
     0
  9
$DIMTOLJ
 70
     1
  9
$DIMTZIN
 70
     8
  9
$DIMALTZ
 70
     0
  9
$DIMALTTZ
 70
     0
  9
$DIMFIT
 70
     2
  9
$DIMUPT
 70
     0
  9
$DIMUNIT
 70
     2
  9
$DIMDEC
 70
     2
  9
$DIMTDEC
 70
     4
  9
$DIMALTU
 70
     2
  9
$DIMALTTD
 70
     2
  9
$DIMTXSTY
  7
STANDARD
  9
$DIMAUNIT
 70
     0
  9
$LUNITS
 70
     2
  9
$LUPREC
 70
     4
  9
$SKETCHINC
 40
1.0
  9
$FILLETRAD
 40
0.0
  9
$AUNITS
 70
     0
  9
$AUPREC
 70
     2
  9
$MENU
  1
acad
  9
$ELEVATION
 40
0.0
  9
$PELEVATION
 40
0.0
  9
$THICKNESS
 40
0.0
  9
$LIMCHECK
 70
     0
  9
$CHAMFERA
 40
10.0
  9
$CHAMFERB
 40
10.0
  9
$CHAMFERC
 40
20.0
  9
$CHAMFERD
 40
0.0
  9
$SKPOLY
 70
     0
  9
$TDCREATE
 40
2451318.621352917
  9
$TDUPDATE
 40
2458159.435035
  9
$TDINDWG
 40
1.4829359838
  9
$TDUSRTIMER
 40
1.4829359838
  9
$USRTIMER
 70
     1
  9
$ANGBASE
 50
0.0
  9
$ANGDIR
 70
     0
  9
$PDMODE
 70
     0
  9
$PDSIZE
 40
0.0
  9
$PLINEWID
 40
0.0
  9
$COORDS
 70
     2
  9
$SPLFRAME
 70
     0
  9
$SPLINETYPE
 70
     6
  9
$SPLINESEGS
 70
     8
  9
$ATTDIA
 70
     0
  9
$ATTREQ
 70
     1
  9
$HANDLING
 70
     1
  9
$HANDSEED
  5
FF94
  9
$SURFTAB1
 70
     6
  9
$SURFTAB2
 70
     6
  9
$SURFTYPE
 70
     6
  9
$SURFU
 70
     6
  9
$SURFV
 70
     6
  9
$UCSNAME
  2

  9
$UCSORG
 10
0.0
 20
0.0
 30
0.0
  9
$UCSXDIR
 10
1.0
 20
0.0
 30
0.0
  9
$UCSYDIR
 10
0.0
 20
1.0
 30
0.0
  9
$PUCSNAME
  2

  9
$PUCSORG
 10
0.0
 20
0.0
 30
0.0
  9
$PUCSXDIR
 10
1.0
 20
0.0
 30
0.0
  9
$PUCSYDIR
 10
0.0
 20
1.0
 30
0.0
  9
$USERI1
 70
     0
  9
$USERI2
 70
     0
  9
$USERI3
 70
     0
  9
$USERI4
 70
     0
  9
$USERI5
 70
     0
  9
$USERR1
 40
0.0
  9
$USERR2
 40
0.0
  9
$USERR3
 40
0.0
  9
$USERR4
 40
0.0
  9
$USERR5
 40
0.0
  9
$WORLDVIEW
 70
     1
  9
$SHADEDGE
 70
     3
  9
$SHADEDIF
 70
    70
  9
$TILEMODE
 70
     1
  9
$MAXACTVP
 70
    48
  9
$PINSBASE
 10
0.0
 20
0.0
 30
0.0
  9
$PLIMCHECK
 70
     0
  9
$PEXTMIN
 10
1.000000000000000E+20
 20
1.000000000000000E+20
 30
1.000000000000000E+20
  9
$PEXTMAX
 10
-1.000000000000000E+20
 20
-1.000000000000000E+20
 30
-1.000000000000000E+20
  9
$PLIMMIN
 10
0.0
 20
0.0
  9
$PLIMMAX
 10
420.0
 20
297.0
  9
$UNITMODE
 70
     0
  9
$VISRETAIN
 70
     1
  9
$PLINEGEN
 70
     0
  9
$PSLTSCALE
 70
     1
  9
$TREEDEPTH
 70
  3020
  9
$PICKSTYLE
 70
     1
  9
$CMLSTYLE
  2
STANDARD
  9
$CMLJUST
 70
     0
  9
$CMLSCALE
 40
20.0
  9
$SAVEIMAGES
 70
     1
  0
ENDSEC
  0
SECTION
  2
CLASSES
  0
CLASS
  1
DICTIONARYVAR
  2
AcDbDictionaryVar
  3
ObjectDBX Classes
 90
        0
280
     0
281
     0
  0
CLASS
  1
IDBUFFER
  2
AcDbIdBuffer
  3
ObjectDBX Classes
 90
    32768
280
     0
281
     0
  0
CLASS
  1
LWPOLYLINE
  2
AcDbPolyline
  3
ObjectDBX Classes
 90
    32768
280
     0
281
     1
  0
CLASS
  1
ACDBDICTIONARYWDFLT
  2
AcDbDictionaryWithDefault
  3
ObjectDBX Classes
 90
    32768
280
     0
281
     0
  0
CLASS
  1
ACDBPLACEHOLDER
  2
AcDbPlaceHolder
  3
ObjectDBX Classes
 90
        0
280
     0
281
     0
  0
CLASS
  1
LAYOUT
  2
AcDbLayout
  3
ObjectDBX Classes
 90
        0
280
     0
281
     0
  0
CLASS
  1
TABLESTYLE
  2
AcDbTableStyle
  3
ObjectDBX Classes
 90
     4095
280
     0
281
     0
  0
CLASS
  1
SORTENTSTABLE
  2
AcDbSortentsTable
  3
ObjectDBX Classes
 90
    32768
280
     0
281
     0
  0
CLASS
  1
MATERIAL
  2
AcDbMaterial
  3
ObjectDBX Classes
 90
     1153
280
     0
281
     0
  0
CLASS
  1
VISUALSTYLE
  2
AcDbVisualStyle
  3
ObjectDBX Classes
 90
     4095
280
     0
281
     0
  0
CLASS
  1
SCALE
  2
AcDbScale
  3
ObjectDBX Classes
 90
     1153
280
     0
281
     0
  0
CLASS
  1
MLEADERSTYLE
  2
AcDbMLeaderStyle
  3
ACDB_MLEADERSTYLE_CLASS
 90
     4095
280
     0
281
     0
  0
CLASS
  1
CELLSTYLEMAP
  2
AcDbCellStyleMap
  3
ObjectDBX Classes
 90
     1152
280
     0
281
     0
  0
CLASS
  1
SUN
  2
AcDbSun
  3
SCENEOE
 90
     1153
280
     0
281
     0
  0
CLASS
  1
XRECORD
  2
AcDbXrecord
  3
ObjectDBX Classes
 90
    32768
280
     0
281
     0
  0
CLASS
  1
HATCH
  2
AcDbHatch
  3
ObjectDBX Classes
 90
    32768
280
     0
281
     1
  0
ENDSEC
  0
SECTION
  2
TABLES
  0
TABLE
  2
VPORT
  5
8
330
0
100
AcDbSymbolTable
 70
     1
  0
VPORT
  5
952D
330
8
100
AcDbSymbolTableRecord
100
AcDbViewportTableRecord
  2
*ACTIVE
 70
     0
 10
0.0
 20
0.0
 11
1.0
 21
1.0
 12
5096.489887189
 22
2392.045271233065
 13
0.0
 23
0.0
 14
10.0
 24
10.0
 15
10.0
 25
10.0
 16
0.0
 26
0.0
 36
1.0
 17
0.0
 27
0.0
 37
0.0
 40
455.2654247760471
 41
1.871481028151775
 42
50.0
 43
0.0
 44
0.0
 50
0.0
 51
0.0
 71
    16
 72
   100
 73
     1
 74
     1
 75
     0
 76
     0
 77
     0
 78
     0
1001
ACAD_NAV_VCDISPLAY
1070
     3
  0
ENDTAB
  0
TABLE
  2
LTYPE
  5
5
330
0
100
AcDbSymbolTable
 70
     2
  0
LTYPE
  5
12
330
5
100
AcDbSymbolTableRecord
100
AcDbLinetypeTableRecord
  2
BYBLOCK
 70
     0
  3

 72
    65
 73
     0
 40
0.0
  0
LTYPE
  5
13
330
5
100
AcDbSymbolTableRecord
100
AcDbLinetypeTableRecord
  2
BYLAYER
 70
     0
  3

 72
    65
 73
     0
 40
0.0
  0
LTYPE
  5
14
330
5
100
AcDbSymbolTableRecord
100
AcDbLinetypeTableRecord
  2
CONTINUOUS
 70
     0
  3
Solid line
 72
    65
 73
     0
 40
0.0
  0
LTYPE
  5
9837
330
5
100
AcDbSymbolTableRecord
100
AcDbLinetypeTableRecord
  2
CENTER2
 70
     0
  3
Center (.5x) ___ _ ___ _ ___ _ ___ _ ___ _ ___
 72
    65
 73
     4
 40
28.575
 49
19.05
 74
     0
 49
-3.175
 74
     0
 49
3.175
 74
     0
 49
-3.175
 74
     0
  0
ENDTAB
  0
TABLE
  2
LAYER
  5
2
102
{ACAD_XDICTIONARY
360
96D9
102
}
330
0
100
AcDbSymbolTable
 70
     5
  0
LAYER
  5
E
102
{ACAD_XDICTIONARY
360
9593
102
}
330
2
100
AcDbSymbolTableRecord
100
AcDbLayerTableRecord
  2
0
 70
     0
 62
     7
  6
CONTINUOUS
  0
LAYER
  5
29
102
{ACAD_XDICTIONARY
360
9595
102
}
330
2
100
AcDbSymbolTableRecord
100
AcDbLayerTableRecord
  2
1CENTER
 70
     0
 62
     7
  6
CENTER2
  0
LAYER
  5
31
102
{ACAD_XDICTIONARY
360
9597
102
}
330
2
100
AcDbSymbolTableRecord
100
AcDbLayerTableRecord
  2
1TEXT
 70
     0
 62
     7
  6
CONTINUOUS
  0
LAYER
  5
243
102
{ACAD_XDICTIONARY
360
959D
102
}
330
2
100
AcDbSymbolTableRecord
100
AcDbLayerTableRecord
  2
01
 70
     0
 62
     1
  6
CONTINUOUS
  0
LAYER
  5
24E
102
{ACAD_XDICTIONARY
360
95A3
102
}
330
2
100
AcDbSymbolTableRecord
100
AcDbLayerTableRecord
  2
1DIM
 70
     0
 62
     7
  6
CONTINUOUS
  0
ENDTAB
  0
TABLE
  2
STYLE
  5
3
330
0
100
AcDbSymbolTable
 70
     1
  0
STYLE
  5
F
330
3
100
AcDbSymbolTableRecord
100
AcDbTextStyleTableRecord
  2
STANDARD
 70
     0
 40
0.0
 41
1.0
 50
0.0
 71
     0
 42
4.0
  3
txt.shx
  4
extfont.shx
  0
ENDTAB
  0
TABLE
  2
VIEW
  5
6
330
0
100
AcDbSymbolTable
 70
     0
  0
ENDTAB
  0
TABLE
  2
UCS
  5
7
330
0
100
AcDbSymbolTable
 70
     0
  0
ENDTAB
  0
TABLE
  2
APPID
  5
9
330
0
100
AcDbSymbolTable
 70
    14
  0
APPID
  5
10
330
9
100
AcDbSymbolTableRecord
100
AcDbRegAppTableRecord
  2
ACAD
 70
     0
  0
APPID
  5
21
330
9
100
AcDbSymbolTableRecord
100
AcDbRegAppTableRecord
  2
DRAWINGVARIABLESXDATA
 70
     0
  0
APPID
  5
64
330
9
100
AcDbSymbolTableRecord
100
AcDbRegAppTableRecord
  2
CONTENTTABDATA
 70
     0
  0
APPID
  5
65
330
9
100
AcDbSymbolTableRecord
100
AcDbRegAppTableRecord
  2
CONTENTCURRENTTAB
 70
     0
  0
APPID
  5
66
330
9
100
AcDbSymbolTableRecord
100
AcDbRegAppTableRecord
  2
CONTENTBLOCKDESCRIPTION
 70
     0
  0
APPID
  5
67
330
9
100
AcDbSymbolTableRecord
100
AcDbRegAppTableRecord
  2
CONTENTBLOCKICON
 70
     0
  0
APPID
  5
68
330
9
100
AcDbSymbolTableRecord
100
AcDbRegAppTableRecord
  2
CONTENTLONGBLOCKNAME
 70
     0
  0
APPID
  5
2AE
330
9
100
AcDbSymbolTableRecord
100
AcDbRegAppTableRecord
  2
ACAD_PSEXT
 70
     0
  0
APPID
  5
9585
330
9
100
AcDbSymbolTableRecord
100
AcDbRegAppTableRecord
  2
ACAD_MLEADERVER
 70
     0
  0
APPID
  5
A2E3
330
9
100
AcDbSymbolTableRecord
100
AcDbRegAppTableRecord
  2
ACADANNOTATIVE
 70
     0
  0
APPID
  5
A2E4
330
9
100
AcDbSymbolTableRecord
100
AcDbRegAppTableRecord
  2
ACDBBLOCKREPETAG
 70
     0
  0
APPID
  5
AEB1
330
9
100
AcDbSymbolTableRecord
100
AcDbRegAppTableRecord
  2
ACAD_NAV_VCDISPLAY
 70
     0
  0
APPID
  5
B6A4
330
9
100
AcDbSymbolTableRecord
100
AcDbRegAppTableRecord
  2
ACAECLAYERSTANDARD
 70
     0
  0
APPID
  5
E1EF
330
9
100
AcDbSymbolTableRecord
100
AcDbRegAppTableRecord
  2
ACAD_EXEMPT_FROM_CAD_STAND
 70
     0
  0
ENDTAB
  0
TABLE
  2
DIMSTYLE
  5
A
330
0
100
AcDbSymbolTable
 70
     1
  0
DIMSTYLE
105
48
330
A
100
AcDbSymbolTableRecord
100
AcDbDimStyleTableRecord
  2
NEWX10
 70
     0
  3
 
  4

  5

  6
OPEN30
  7
OPEN30
 40
1.0
 41
2.0
 42
0.0
 43
7.0
 44
1.0
 45
0.0
 46
0.0
 47
0.0
 48
0.0
140
3.5
141
0.0
142
0.0
143
25.4
144
1.0
145
0.0
146
0.7
147
0.7
 71
     0
 72
     0
 73
     0
 74
     0
 75
     0
 76
     0
 77
     1
 78
     8
170
     0
171
     2
172
     1
173
     1
174
     0
175
     0
176
   256
177
   256
178
   201
179
     2
270
     2
271
     2
272
     4
273
     2
274
     2
340
F
275
     0
280
     0
281
     0
282
     0
283
     1
284
     8
285
     0
286
     0
287
     2
288
     0
  0
ENDTAB
  0
TABLE
  2
BLOCK_RECORD
  5
1
330
0
100
AcDbSymbolTable
 70
     8
  0
BLOCK_RECORD
  5
18
102
{ACAD_XDICTIONARY
360
88F
102
}
330
1
100
AcDbSymbolTableRecord
100
AcDbBlockTableRecord
  2
*MODEL_SPACE
  0
BLOCK_RECORD
  5
15
330
1
100
AcDbSymbolTableRecord
100
AcDbBlockTableRecord
  2
*PAPER_SPACE
  0
BLOCK_RECORD
  5
42
330
1
100
AcDbSymbolTableRecord
100
AcDbBlockTableRecord
  2
_OPEN30
  0
BLOCK_RECORD
  5
A333
330
1
100
AcDbSymbolTableRecord
100
AcDbBlockTableRecord
  2
A3WAKUKAWAJUN2017_HYOUDAI_
  0
BLOCK_RECORD
  5
FDF4
330
1
100
AcDbSymbolTableRecord
100
AcDbBlockTableRecord
  2
*X21
  0
BLOCK_RECORD
  5
FE42
330
1
100
AcDbSymbolTableRecord
100
AcDbBlockTableRecord
  2
*X22
  0
BLOCK_RECORD
  5
FE94
330
1
100
AcDbSymbolTableRecord
100
AcDbBlockTableRecord
  2
*X23
  0
BLOCK_RECORD
  5
FEE5
330
1
100
AcDbSymbolTableRecord
100
AcDbBlockTableRecord
  2
*X24
  0
BLOCK_RECORD
  5
FF22
330
1
100
AcDbSymbolTableRecord
100
AcDbBlockTableRecord
  2
*X25
  0
BLOCK_RECORD
  5
FF62
330
1
100
AcDbSymbolTableRecord
100
AcDbBlockTableRecord
  2
*X26
  0
ENDTAB
  0
ENDSEC
  0
SECTION
  2
BLOCKS
  0
BLOCK
  5
19
330
18
100
AcDbEntity
  8
0
100
AcDbBlockBegin
  2
*MODEL_SPACE
 70
     0
 10
0.0
 20
0.0
 30
0.0
  3
*MODEL_SPACE
  1

  0
ENDBLK
  5
1A
330
18
100
AcDbEntity
  8
0
100
AcDbBlockEnd
  0
BLOCK
  5
16
330
15
100
AcDbEntity
 67
     1
  8
0
100
AcDbBlockBegin
  2
*PAPER_SPACE
 70
     0
 10
0.0
 20
0.0
 30
0.0
  3
*PAPER_SPACE
  1

  0
ENDBLK
  5
17
330
15
100
AcDbEntity
 67
     1
  8
0
100
AcDbBlockEnd
  0
BLOCK
  5
43
330
42
100
AcDbEntity
  8
0
100
AcDbBlockBegin
  2
_OPEN30
 70
     0
 10
0.0
 20
0.0
 30
0.0
  3
_OPEN30
  1

  0
LINE
  5
44
330
42
100
AcDbEntity
  8
0
  6
BYBLOCK
 62
     0
100
AcDbLine
 10
-1.0
 20
0.26794919
 30
0.0
 11
0.0
 21
0.0
 31
0.0
  0
LINE
  5
45
330
42
100
AcDbEntity
  8
0
  6
BYBLOCK
 62
     0
100
AcDbLine
 10
0.0
 20
0.0
 30
0.0
 11
-1.0
 21
-0.26794919
 31
0.0
  0
LINE
  5
46
330
42
100
AcDbEntity
  8
0
  6
BYBLOCK
 62
     0
100
AcDbLine
 10
0.0
 20
0.0
 30
0.0
 11
-1.0
 21
0.0
 31
0.0
  0
ENDBLK
  5
47
330
42
100
AcDbEntity
  8
0
100
AcDbBlockEnd
  0
BLOCK
  5
AA56
330
A333
100
AcDbEntity
  8
0
100
AcDbBlockBegin
  2
A3WAKUKAWAJUN2017_HYOUDAI_
 70
     0
 10
0.0
 20
0.0
 30
0.0
  3
A3WAKUKAWAJUN2017_HYOUDAI_
  1

  0
LINE
  5
A335
330
A333
100
AcDbEntity
  8
0
100
AcDbLine
 10
13.26299999998673
 20
-0.0001000000000317
 30
0.0
 11
9.236999999990758
 21
8.999899999990987
 31
0.0
1001
ACAD
1000
ASC_BOUNDS
1002
{
1070
    19
1005
A376
1002
}
  0
LINE
  5
A336
330
A333
100
AcDbEntity
  8
0
100
AcDbLine
 10
5.657999999994331
 20
0.9999999999989768
 30
0.0
 11
9.236999999990758
 21
8.999999999991019
 31
0.0
1001
ACAD
1000
ASC_BOUNDS
1002
{
1070
    19
1005
A376
1002
}
  0
LINE
  5
A337
330
A333
100
AcDbEntity
  8
0
100
AcDbLine
 10
18.59199999998134
 20
-0.2368999999997641
 30
0.0
 11
16.46099999998353
 21
5.432899999994561
 31
0.0
1001
ACAD
1000
ASC_BOUNDS
1002
{
1070
    19
1005
A377
1002
}
  0
LINE
  5
A338
330
A333
100
AcDbEntity
  8
0
100
AcDbLine
 10
18.59199999998134
 20
-0.2368999999997641
 30
0.0
 11
22.38199999997767
 21
8.763099999991255
 31
0.0
1001
ACAD
1000
ASC_BOUNDS
1002
{
1070
    19
1005
A377
1002
}
  0
LINE
  5
A339
330
A333
100
AcDbEntity
  8
0
100
AcDbLine
 10
14.32899999998563
 20
-0.2368999999997641
 30
0.0
 11
16.46099999998353
 21
5.432899999994561
 31
0.0
1001
ACAD
1000
ASC_BOUNDS
1002
{
1070
    19
1005
A377
1002
}
  0
LINE
  5
A33A
330
A333
100
AcDbEntity
  8
0
100
AcDbLine
 10
14.32899999998563
 20
-0.2368999999997641
 30
0.0
 11
10.53899999998941
 21
8.763099999991255
 31
0.0
1001
ACAD
1000
ASC_BOUNDS
1002
{
1070
    19
1005
A377
1002
}
  0
LINE
  5
A33B
330
A333
100
AcDbEntity
  8
0
100
AcDbLine
 10
19.53899999998043
 20
-0.0001000000000317
 30
0.0
 11
23.56599999997638
 21
8.999899999990987
 31
0.0
1001
ACAD
1000
ASC_BOUNDS
1002
{
1070
    19
1005
A378
1002
}
  0
LINE
  5
A33C
330
A333
100
AcDbEntity
  8
0
100
AcDbLine
 10
26.97358892824991
 20
1.383099999991202
 30
0.0
 11
23.56599999997638
 21
8.999899999990987
 31
0.0
1001
ACAD
1000
ASC_BOUNDS
1002
{
1070
    19
1005
A378
1002
}
  0
LINE
  5
A33D
330
A333
100
AcDbEntity
  8
0
100
AcDbLine
 10
5.657999999994331
 20
0.9999999999989768
 30
0.0
 11
3.181999999996833
 21
4.668599999995308
 31
0.0
1001
ACAD
1000
ASC_BOUNDS
1002
{
1070
    19
1005
A376
1002
}
  0
LINE
  5
A33E
330
A333
100
AcDbEntity
  8
0
100
AcDbLine
 10
4.617999999995391
 20
-0.0001000000000317
 30
0.0
 11
1.420999999998571
 21
4.736799999995242
 31
0.0
1001
ACAD
1000
ASC_BOUNDS
1002
{
1070
    19
1005
A376
1002
}
  0
LINE
  5
A33F
330
A333
100
AcDbEntity
  8
0
100
AcDbLine
 10
1.420999999998571
 20
8.763099999991255
 30
0.0
 11
1.420999999998571
 21
0.0
 31
0.0
1001
ACAD
1000
ASC_BOUNDS
1002
{
1070
    19
1005
A37B
1002
}
  0
LINE
  5
A340
330
A333
100
AcDbEntity
  8
0
100
AcDbLine
 10
0.0
 20
8.763099999991255
 30
0.0
 11
0.0
 21
0.0
 31
0.0
1001
ACAD
1000
ASC_BOUNDS
1002
{
1070
    19
1005
A37B
1002
}
  0
LINE
  5
A341
330
A333
100
AcDbEntity
  8
0
100
AcDbLine
 10
6.766999999993232
 20
-0.0001000000000317
 30
0.0
 11
7.826999999992154
 21
2.368399999997621
 31
0.0
1001
ACAD
1000
ASC_BOUNDS
1002
{
1070
    19
1005
A376
1002
}
  0
LINE
  5
A342
330
A333
100
AcDbEntity
  8
0
100
AcDbLine
 10
0.0
 20
0.0
 30
0.0
 11
1.420999999998571
 21
0.0
 31
0.0
1001
ACAD
1000
ASC_BOUNDS
1002
{
1070
    19
1005
A37B
1002
}
  0
LINE
  5
A343
330
A333
100
AcDbEntity
  8
0
100
AcDbLine
 10
4.617999999995391
 20
0.0
 30
0.0
 11
6.766999999993232
 21
0.0
 31
0.0
1001
ACAD
1000
ASC_BOUNDS
1002
{
1070
    19
1005
A376
1002
}
  0
LINE
  5
A344
330
A333
100
AcDbEntity
  8
0
100
AcDbLine
 10
11.70599999998831
 20
-0.0001000000000317
 30
0.0
 11
10.64699999998936
 21
2.368399999997621
 31
0.0
1001
ACAD
1000
ASC_BOUNDS
1002
{
1070
    19
1005
A376
1002
}
  0
LINE
  5
A345
330
A333
100
AcDbEntity
  8
0
100
AcDbLine
 10
7.826999999992154
 20
2.368399999997621
 30
0.0
 11
10.64699999998936
 21
2.368399999997621
 31
0.0
1001
ACAD
1000
ASC_BOUNDS
1002
{
1070
    19
1005
A376
1002
}
  0
LINE
  5
A346
330
A333
100
AcDbEntity
  8
0
100
AcDbLine
 10
11.70599999998831
 20
0.0
 30
0.0
 11
13.26299999998673
 21
0.0
 31
0.0
1001
ACAD
1000
ASC_BOUNDS
1002
{
1070
    19
1005
A376
1002
}
  0
LINE
  5
A347
330
A333
100
AcDbEntity
  8
0
100
AcDbLine
 10
22.15599999997789
 20
2.368399999997621
 30
0.0
 11
24.97599999997499
 21
2.368399999997621
 31
0.0
1001
ACAD
1000
ASC_BOUNDS
1002
{
1070
    19
1005
A378
1002
}
  0
LINE
  5
A348
330
A333
100
AcDbEntity
  8
0
100
AcDbLine
 10
19.53899999998043
 20
0.0
 30
0.0
 11
21.09599999997886
 21
0.0
 31
0.0
1001
ACAD
1000
ASC_BOUNDS
1002
{
1070
    19
1005
A378
1002
}
  0
LINE
  5
A349
330
A333
100
AcDbEntity
  8
0
100
AcDbLine
 10
21.09599999997886
 20
-0.0001000000000317
 30
0.0
 11
22.15599999997789
 21
2.368399999997621
 31
0.0
1001
ACAD
1000
ASC_BOUNDS
1002
{
1070
    19
1005
A378
1002
}
  0
LINE
  5
A34A
330
A333
100
AcDbEntity
  8
0
100
AcDbLine
 10
26.02015566812236
 20
0.0330999999912365
 30
0.0
 11
24.97599999997499
 21
2.368399999997621
 31
0.0
1001
ACAD
1000
ASC_BOUNDS
1002
{
1070
    19
1005
A378
1002
}
  0
LINE
  5
A34B
330
A333
100
AcDbEntity
  8
0
100
AcDbLine
 10
14.32399999998563
 20
3.315799999996671
 30
0.0
 11
16.46099999998353
 21
8.999899999990987
 31
0.0
1001
ACAD
1000
ASC_BOUNDS
1002
{
1070
    19
1005
A377
1002
}
  0
LINE
  5
A34C
330
A333
100
AcDbEntity
  8
0
100
AcDbLine
 10
6.432999999993513
 20
8.763099999991255
 30
0.0
 11
3.181999999996833
 21
4.668599999995308
 31
0.0
1001
ACAD
1000
ASC_BOUNDS
1002
{
1070
    19
1005
A376
1002
}
  0
LINE
  5
A34D
330
A333
100
AcDbEntity
  8
0
100
AcDbLine
 10
4.617999999995391
 20
8.763099999991255
 30
0.0
 11
1.420999999998571
 21
4.736799999995242
 31
0.0
1001
ACAD
1000
ASC_BOUNDS
1002
{
1070
    19
1005
A376
1002
}
  0
LINE
  5
A34E
330
A333
100
AcDbEntity
  8
0
100
AcDbLine
 10
0.0
 20
8.763099999991255
 30
0.0
 11
1.420999999998571
 21
8.763099999991255
 31
0.0
1001
ACAD
1000
ASC_BOUNDS
1002
{
1070
    19
1005
A37B
1002
}
  0
LINE
  5
A34F
330
A333
100
AcDbEntity
  8
0
100
AcDbLine
 10
4.617999999995391
 20
8.763099999991255
 30
0.0
 11
6.432999999993513
 21
8.763099999991255
 31
0.0
1001
ACAD
1000
ASC_BOUNDS
1002
{
1070
    19
1005
A376
1002
}
  0
LINE
  5
A350
330
A333
100
AcDbEntity
  8
0
100
AcDbLine
 10
14.32399999998563
 20
3.315799999996671
 30
0.0
 11
12.02999999998792
 21
8.763099999991255
 31
0.0
1001
ACAD
1000
ASC_BOUNDS
1002
{
1070
    19
1005
A377
1002
}
  0
LINE
  5
A351
330
A333
100
AcDbEntity
  8
0
100
AcDbLine
 10
10.06399999998996
 20
3.670999999996297
 30
0.0
 11
9.236999999990758
 21
5.5200999999945
 31
0.0
1001
ACAD
1000
ASC_BOUNDS
1002
{
1070
    19
1005
A376
1002
}
  0
LINE
  5
A352
330
A333
100
AcDbEntity
  8
0
100
AcDbLine
 10
8.409999999991555
 20
3.670999999996297
 30
0.0
 11
9.236999999990758
 21
5.5200999999945
 31
0.0
1001
ACAD
1000
ASC_BOUNDS
1002
{
1070
    19
1005
A376
1002
}
  0
LINE
  5
A353
330
A333
100
AcDbEntity
  8
0
100
AcDbLine
 10
8.409999999991555
 20
3.670999999996297
 30
0.0
 11
10.06399999998996
 21
3.670999999996297
 31
0.0
1001
ACAD
1000
ASC_BOUNDS
1002
{
1070
    19
1005
A376
1002
}
  0
LINE
  5
A354
330
A333
100
AcDbEntity
  8
0
100
AcDbLine
 10
10.53899999998941
 20
8.763099999991255
 30
0.0
 11
12.02999999998792
 21
8.763099999991255
 31
0.0
1001
ACAD
1000
ASC_BOUNDS
1002
{
1070
    19
1005
A377
1002
}
  0
LINE
  5
A355
330
A333
100
AcDbEntity
  8
0
100
AcDbLine
 10
22.7389999999773
 20
3.670999999996297
 30
0.0
 11
23.56599999997638
 21
5.5200999999945
 31
0.0
1001
ACAD
1000
ASC_BOUNDS
1002
{
1070
    19
1005
A378
1002
}
  0
LINE
  5
A356
330
A333
100
AcDbEntity
  8
0
100
AcDbLine
 10
22.7389999999773
 20
3.670999999996297
 30
0.0
 11
24.39299999997559
 21
3.670999999996297
 31
0.0
1001
ACAD
1000
ASC_BOUNDS
1002
{
1070
    19
1005
A378
1002
}
  0
LINE
  5
A357
330
A333
100
AcDbEntity
  8
0
100
AcDbLine
 10
18.59799999998143
 20
3.315799999996671
 30
0.0
 11
20.89099999997916
 21
8.763099999991255
 31
0.0
1001
ACAD
1000
ASC_BOUNDS
1002
{
1070
    19
1005
A377
1002
}
  0
LINE
  5
A358
330
A333
100
AcDbEntity
  8
0
100
AcDbLine
 10
18.59799999998143
 20
3.315799999996671
 30
0.0
 11
16.46099999998353
 21
8.999899999990987
 31
0.0
1001
ACAD
1000
ASC_BOUNDS
1002
{
1070
    19
1005
A377
1002
}
  0
LINE
  5
A359
330
A333
100
AcDbEntity
  8
0
100
AcDbLine
 10
20.89099999997916
 20
8.763099999991255
 30
0.0
 11
22.38199999997767
 21
8.763099999991255
 31
0.0
1001
ACAD
1000
ASC_BOUNDS
1002
{
1070
    19
1005
A377
1002
}
  0
LINE
  5
A35A
330
A333
100
AcDbEntity
  8
0
100
AcDbLine
 10
24.39299999997559
 20
3.670999999996297
 30
0.0
 11
23.56599999997638
 21
5.5200999999945
 31
0.0
1001
ACAD
1000
ASC_BOUNDS
1002
{
1070
    19
1005
A378
1002
}
  0
LINE
  5
A35B
330
A333
100
AcDbEntity
  8
0
100
AcDbLine
 10
44.99999999995498
 20
-0.2368999999997641
 30
0.0
 11
40.02599999995994
 21
5.341799999994635
 31
0.0
1001
ACAD
1000
ASC_BOUNDS
1002
{
1070
    19
1005
A37A
1002
}
  0
LINE
  5
A35C
330
A333
100
AcDbEntity
  8
0
100
AcDbLine
 10
40.02599999995994
 20
5.341799999994635
 30
0.0
 11
40.02599999995994
 21
0.0
 31
0.0
1001
ACAD
1000
ASC_BOUNDS
1002
{
1070
    19
1005
A37A
1002
}
  0
LINE
  5
A35D
330
A333
100
AcDbEntity
  8
0
100
AcDbLine
 10
38.60499999996136
 20
8.999999999991019
 30
0.0
 11
38.60499999996136
 21
0.0
 31
0.0
1001
ACAD
1000
ASC_BOUNDS
1002
{
1070
    19
1005
A37A
1002
}
  0
LINE
  5
A35E
330
A333
100
AcDbEntity
  8
0
100
AcDbLine
 10
44.99999999995498
 20
8.763099999991255
 30
0.0
 11
44.99999999995498
 21
-0.2368999999997641
 31
0.0
1001
ACAD
1000
ASC_BOUNDS
1002
{
1070
    19
1005
A37A
1002
}
  0
LINE
  5
A35F
330
A333
100
AcDbEntity
  8
0
100
AcDbLine
 10
38.60499999996136
 20
0.0
 30
0.0
 11
40.02599999995994
 21
0.0
 31
0.0
1001
ACAD
1000
ASC_BOUNDS
1002
{
1070
    19
1005
A37A
1002
}
  0
LINE
  5
A360
330
A333
100
AcDbEntity
  8
0
100
AcDbLine
 10
43.57899999995641
 20
3.421199999996588
 30
0.0
 11
38.60499999996136
 21
8.999899999990987
 31
0.0
1001
ACAD
1000
ASC_BOUNDS
1002
{
1070
    19
1005
A37A
1002
}
  0
LINE
  5
A361
330
A333
100
AcDbEntity
  8
0
100
AcDbLine
 10
43.57899999995641
 20
8.763099999991255
 30
0.0
 11
43.57899999995641
 21
3.421199999996588
 31
0.0
1001
ACAD
1000
ASC_BOUNDS
1002
{
1070
    19
1005
A37A
1002
}
  0
LINE
  5
A362
330
A333
100
AcDbEntity
  8
0
100
AcDbLine
 10
43.57899999995641
 20
8.763099999991255
 30
0.0
 11
44.99999999995498
 21
8.763099999991255
 31
0.0
1001
ACAD
1000
ASC_BOUNDS
1002
{
1070
    19
1005
A37A
1002
}
  0
LINE
  5
A363
330
A333
100
AcDbEntity
  8
0
100
AcDbLine
 10
37.67199999996831
 20
8.763099999991255
 30
0.0
 11
36.23199999996837
 21
8.763099999991255
 31
0.0
  0
LINE
  5
A364
330
A333
100
AcDbEntity
  8
0
100
AcDbLine
 10
31.64199999996833
 20
8.763099999991255
 30
0.0
 11
31.64199999996833
 21
2.481619422925121
 31
0.0
  0
LINE
  5
A365
330
A333
100
AcDbEntity
  8
0
100
AcDbLine
 10
37.67199999996831
 20
8.763099999991255
 30
0.0
 11
37.67199999996831
 21
2.481619422925121
 31
0.0
  0
LINE
  5
A366
330
A333
100
AcDbEntity
  8
0
100
AcDbLine
 10
36.23199999996837
 20
8.763099999991255
 30
0.0
 11
36.23199999996837
 21
2.481619422925064
 31
0.0
  0
LINE
  5
A367
330
A333
100
AcDbEntity
  8
0
100
AcDbLine
 10
33.08199999996839
 20
8.763099999991255
 30
0.0
 11
33.08199999996839
 21
2.481619422925121
 31
0.0
  0
ARC
  5
A368
330
A333
100
AcDbEntity
  8
0
100
AcDbCircle
 10
34.65699999996832
 20
3.183099999991214
 30
0.0
 40
3.420000000000007
100
AcDbArc
 50
240.0000000000255
 51
299.9999999999766
  0
ARC
  5
A369
330
A333
100
AcDbEntity
  8
0
100
AcDbCircle
 10
34.65699999996832
 20
3.183099999991214
 30
0.0
 40
1.97999999999999
100
AcDbArc
 50
240.000000000026
 51
299.9999999999703
  0
LINE
  5
A36A
330
A333
100
AcDbEntity
  8
0
100
AcDbLine
 10
33.08199999996828
 20
8.763099999991255
 30
0.0
 11
31.64199999996833
 21
8.763099999991255
 31
0.0
  0
ARC
  5
A36B
330
A333
100
AcDbEntity
  8
0
100
AcDbCircle
 10
35.06199999996829
 20
2.481619422925064
 30
0.0
 40
1.17
100
AcDbArc
 50
299.9999999999699
 51
0.0
  0
ARC
  5
A36C
330
A333
100
AcDbEntity
  8
0
100
AcDbCircle
 10
34.25199999996835
 20
2.481619422925121
 30
0.0
 40
1.17
100
AcDbArc
 50
180.0
 51
240.0000000000238
  0
ARC
  5
A36D
330
A333
100
AcDbEntity
  8
0
100
AcDbCircle
 10
35.06199999996841
 20
2.481619422925121
 30
0.0
 40
2.61
100
AcDbArc
 50
299.9999999999756
 51
0.0
  0
ARC
  5
A36E
330
A333
100
AcDbEntity
  8
0
100
AcDbCircle
 10
34.25199999996835
 20
2.481619422925121
 30
0.0
 40
2.61
100
AcDbArc
 50
180.0
 51
240.0000000000244
  0
LINE
  5
A36F
330
A333
100
AcDbEntity
  8
0
100
AcDbLine
 10
29.30199999996933
 20
8.763099999991255
 30
0.0
 11
30.74199999996927
 21
8.763099999991255
 31
0.0
1001
ACAD
1000
ASC_BOUNDS
1002
{
1070
    19
1005
A378
1002
}
  0
LINE
  5
A370
330
A333
100
AcDbEntity
  8
0
100
AcDbLine
 10
30.74199999996927
 20
8.763099999991255
 30
0.0
 11
30.74199999996927
 21
2.373099999991211
 31
0.0
1001
ACAD
1000
ASC_BOUNDS
1002
{
1070
    19
1005
A378
1002
}
  0
LINE
  5
A371
330
A333
100
AcDbEntity
  8
0
100
AcDbLine
 10
26.02015566812236
 20
0.0330999999912365
 30
0.0
 11
28.40199999996923
 21
0.0330999999912365
 31
0.0
1001
ACAD
1000
ASC_BOUNDS
1002
{
1070
    19
1005
A378
1002
}
  0
LINE
  5
A372
330
A333
100
AcDbEntity
  8
0
100
AcDbLine
 10
29.30199999996933
 20
8.763099999991255
 30
0.0
 11
29.30199999996933
 21
2.283099999991236
 31
0.0
1001
ACAD
1000
ASC_BOUNDS
1002
{
1070
    19
1005
A378
1002
}
  0
LINE
  5
A373
330
A333
100
AcDbEntity
  8
0
100
AcDbLine
 10
26.97358892824991
 20
1.383099999991202
 30
0.0
 11
28.40199999996923
 21
1.383099999991202
 31
0.0
1001
ACAD
1000
ASC_BOUNDS
1002
{
1070
    19
1005
A378
1002
}
  0
ARC
  5
A374
330
A333
100
AcDbEntity
  8
0
100
AcDbCircle
 10
28.40199999996923
 20
2.283099999991236
 30
0.0
 40
0.9
100
AcDbArc
 50
270.0
 51
0.0
1001
ACAD
1000
ASC_BOUNDS
1002
{
1070
    19
1005
A378
1002
}
  0
ARC
  5
A375
330
A333
100
AcDbEntity
  8
0
100
AcDbCircle
 10
28.40199999996923
 20
2.373099999991211
 30
0.0
 40
2.34
100
AcDbArc
 50
270.0
 51
0.0
1001
ACAD
1000
ASC_BOUNDS
1002
{
1070
    19
1005
A378
1002
}
  0
INSERT
  5
A376
330
A333
100
AcDbEntity
  8
0
100
AcDbBlockReference
  2
*X21
 10
0.0
 20
0.0
 30
0.0
1001
ACAD
1000
HATCH
1002
{
1070
    19
1000
ANSI37
1040
0.15
1040
0.0
1000
ASC_BOUNDS
1070
     2
1070
     2
1070
    12
1005
A335
1005
A336
1005
A33D
1005
A34C
1005
A34F
1005
A34D
1005
A33E
1005
A343
1005
A341
1005
A345
1005
A344
1005
A346
1070
     2
1070
     3
1005
A351
1005
A353
1005
A352
1000
ASC_SEEDPOINT
1011
3.614004224891801
1021
2.996669441146025
1031
0.0
1000
R14_HATCH_DATA
1000
A376
1011
1.0
1021
0.0
1031
0.0
1011
0.0
1021
1.0
1031
0.0
1011
0.0
1021
0.0
1031
1.0
1040
0.0
1010
0.0
1020
0.0
1030
1.0
1000
ANSI37
1070
     0
1070
     1
1071
        2
1071
        7
1070
     0
1070
     1
1071
       17
1040
13.26299999998673
1040
-0.0001000000000317
1040
9.236999999990758
1040
8.999899999990987
1040
9.236999999990758
1040
8.999999999991019
1040
5.657999999994331
1040
0.9999999999989768
1040
3.181999999996833
1040
4.668599999995308
1040
6.432999999993513
1040
8.763099999991255
1040
4.617999999995391
1040
8.763099999991255
1040
1.420999999998571
1040
4.736799999995242
1040
4.617999999995391
1040
-0.0001000000000317
1040
4.617999999995391
1040
0.0
1040
6.766999999993232
1040
0.0
1040
6.766999999993232
1040
-0.0001000000000317
1040
7.826999999992154
1040
2.368399999997621
1040
10.64699999998936
1040
2.368399999997621
1040
11.70599999998831
1040
-0.0001000000000317
1040
11.70599999998831
1040
0.0
1040
13.26299999998673
1040
0.0
1071
       12
1005
A335
1005
A336
1005
A33D
1005
A34C
1005
A34F
1005
A34D
1005
A33E
1005
A343
1005
A341
1005
A345
1005
A344
1005
A346
1071
       22
1070
     0
1070
     1
1071
        3
1040
9.236999999990758
1040
5.5200999999945
1040
10.06399999998996
1040
3.670999999996297
1040
8.409999999991555
1040
3.670999999996297
1071
        3
1005
A351
1005
A353
1005
A352
1070
     0
1070
     1
1040
0.0
1040
0.15
1070
     0
1070
     2
1040
0.7853981633974483
1040
49.29960901727088
1040
-10.17736998311392
1040
-0.3367596045400932
1040
0.3367596045400932
1070
     0
1040
2.356194490192345
1040
49.29960901727088
1040
-10.17736998311392
1040
-0.3367596045400932
1040
-0.3367596045400932
1070
     0
1040
0.0110235143455945
1071
        2
1040
3.614004224891801
1040
2.996669441146025
1040
0.0
1040
3.614004224891801
1040
2.996669441146025
1040
0.0
1002
}
  0
INSERT
  5
A377
330
A333
100
AcDbEntity
  8
0
100
AcDbBlockReference
  2
*X22
 10
0.0
 20
0.0
 30
0.0
1001
ACAD
1000
HATCH
1002
{
1070
    19
1000
ANSI37
1040
0.15
1040
0.0
1000
ASC_BOUNDS
1070
     1
1070
     2
1070
    10
1005
A337
1005
A338
1005
A359
1005
A357
1005
A358
1005
A34B
1005
A350
1005
A354
1005
A33A
1005
A339
1000
ASC_SEEDPOINT
1011
14.73245321214324
1021
2.798246178283421
1031
0.0
1000
R14_HATCH_DATA
1000
A377
1011
1.0
1021
0.0
1031
0.0
1011
0.0
1021
1.0
1031
0.0
1011
0.0
1021
0.0
1031
1.0
1040
0.0
1010
0.0
1020
0.0
1030
1.0
1000
ANSI37
1070
     0
1070
     1
1071
        1
1071
        7
1070
     0
1070
     1
1071
       10
1040
16.46099999998353
1040
5.432899999994561
1040
18.59199999998134
1040
-0.2368999999997641
1040
22.38199999997767
1040
8.763099999991255
1040
20.89099999997916
1040
8.763099999991255
1040
18.59799999998143
1040
3.315799999996671
1040
16.46099999998353
1040
8.999899999990987
1040
14.32399999998563
1040
3.315799999996671
1040
12.02999999998792
1040
8.763099999991255
1040
10.53899999998941
1040
8.763099999991255
1040
14.32899999998563
1040
-0.2368999999997641
1071
       10
1005
A337
1005
A338
1005
A359
1005
A357
1005
A358
1005
A34B
1005
A350
1005
A354
1005
A33A
1005
A339
1070
     0
1070
     1
1040
0.0
1040
0.15
1070
     0
1070
     2
1040
0.7853981633974483
1040
49.29960901727088
1040
-10.17736998311392
1040
-0.3367596045400932
1040
0.3367596045400932
1070
     0
1040
2.356194490192345
1040
49.29960901727088
1040
-10.17736998311392
1040
-0.3367596045400932
1040
-0.3367596045400932
1070
     0
1040
0.0110235143455945
1071
        1
1040
14.73245321214324
1040
2.798246178283421
1040
0.0
1002
}
  0
INSERT
  5
A378
330
A333
100
AcDbEntity
  8
0
100
AcDbBlockReference
  2
*X23
 10
0.0
 20
0.0
 30
0.0
1001
ACAD
1000
HATCH
1002
{
1070
    19
1000
ANSI37
1040
0.15
1040
0.0
1000
ASC_BOUNDS
1070
     2
1070
     2
1070
    13
1005
A33B
1005
A348
1005
A349
1005
A347
1005
A34A
1005
A371
1005
A375
1005
A370
1005
A36F
1005
A372
1005
A374
1005
A373
1005
A33C
1070
     2
1070
     3
1005
A355
1005
A35A
1005
A356
1000
ASC_SEEDPOINT
1011
21.97929957367762
1021
3.294304244259308
1031
0.0
1000
R14_HATCH_DATA
1000
A378
1011
1.0
1021
0.0
1031
0.0
1011
0.0
1021
1.0
1031
0.0
1011
0.0
1021
0.0
1031
1.0
1040
0.0
1010
0.0
1020
0.0
1030
1.0
1000
ANSI37
1070
     0
1070
     1
1071
        2
1071
        7
1070
     1
1070
     1
1071
       15
1040
23.56599999997638
1040
8.999899999990987
1040
0.0
1040
19.53899999998043
1040
-0.0001000000000317
1040
0.0
1040
19.53899999998043
1040
0.0
1040
0.0
1040
21.09599999997886
1040
0.0
1040
0.0
1040
21.09599999997886
1040
-0.0001000000000317
1040
0.0
1040
22.15599999997789
1040
2.368399999997621
1040
0.0
1040
24.97599999997499
1040
2.368399999997621
1040
0.0
1040
26.02015566812236
1040
0.0330999999912365
1040
0.0
1040
28.40199999996923
1040
0.0330999999912365
1040
0.414213562373095
1040
30.74199999996923
1040
2.373099999991211
1040
0.0
1040
30.74199999996927
1040
8.763099999991255
1040
0.0
1040
29.30199999996933
1040
8.763099999991255
1040
0.0
1040
29.30199999996933
1040
2.283099999991236
1040
-0.414213562373095
1040
28.40199999996923
1040
1.383099999991237
1040
0.0
1040
26.97358892824991
1040
1.383099999991202
1040
0.0
1071
       13
1005
A33B
1005
A348
1005
A349
1005
A347
1005
A34A
1005
A371
1005
A375
1005
A370
1005
A36F
1005
A372
1005
A374
1005
A373
1005
A33C
1071
       22
1070
     0
1070
     1
1071
        3
1040
22.7389999999773
1040
3.670999999996297
1040
23.56599999997638
1040
5.5200999999945
1040
24.39299999997559
1040
3.670999999996297
1071
        3
1005
A355
1005
A35A
1005
A356
1070
     0
1070
     1
1040
0.0
1040
0.15
1070
     0
1070
     2
1040
0.7853981633974483
1040
49.29960901727088
1040
-10.17736998311392
1040
-0.3367596045400932
1040
0.3367596045400932
1070
     0
1040
2.356194490192345
1040
49.29960901727088
1040
-10.17736998311392
1040
-0.3367596045400932
1040
-0.3367596045400932
1070
     0
1040
0.0110235143455945
1071
        2
1040
21.97929957367762
1040
3.294304244259308
1040
0.0
1040
21.97929957367762
1040
3.294304244259308
1040
0.0
1002
}
  0
INSERT
  5
A379
330
A333
100
AcDbEntity
  8
0
100
AcDbBlockReference
  2
*X24
 10
0.0
 20
0.0
 30
0.0
1001
ACAD
1000
HATCH
1002
{
1070
    19
1000
ANSI37
1040
0.15
1040
0.0
1000
R14_HATCH_DATA
1000
A379
1011
1.0
1021
0.0
1031
0.0
1011
0.0
1021
1.0
1031
0.0
1011
0.0
1021
0.0
1031
1.0
1040
0.0
1010
0.0
1020
0.0
1030
1.0
1000
ANSI37
1070
     0
1070
     1
1071
        1
1071
        7
1070
     1
1070
     1
1071
       12
1040
31.64199999996833
1040
2.481619422925121
1040
0.2679491924310942
1040
32.94699999997067
1040
0.2212931190493919
1040
0.2679491924301353
1040
36.36699999995983
1040
0.2212931190459813
1040
0.2679491924321411
1040
37.67199999996831
1040
2.481619422928361
1040
0.0
1040
37.67199999996831
1040
8.763099999991255
1040
0.0
1040
36.23199999996837
1040
8.763099999991255
1040
0.0
1040
36.23199999996837
1040
2.481619422925064
1040
-0.2679491924310291
1040
35.64699999996708
1040
1.468369700498386
1040
-0.267949192430519
1040
33.66699999997093
1040
1.468369700497703
1040
-0.267949192431809
1040
33.08199999996839
1040
2.481619422926997
1040
0.0
1040
33.08199999996839
1040
8.763099999991255
1040
0.0
1040
31.64199999996833
1040
8.763099999991255
1040
0.0
1071
        0
1070
     0
1070
     1
1040
0.0
1040
0.15
1070
     0
1070
     2
1040
0.7853981633974483
1040
49.29960901727088
1040
-10.17736998311392
1040
-0.3367596045400932
1040
0.3367596045400932
1070
     0
1040
2.356194490192345
1040
49.29960901727088
1040
-10.17736998311392
1040
-0.3367596045400932
1040
-0.3367596045400932
1070
     0
1040
0.0110235143455945
1071
        1
1040
32.30357378967278
1040
3.988785755459219
1040
0.0
1002
}
  0
INSERT
  5
A37A
330
A333
100
AcDbEntity
  8
0
100
AcDbBlockReference
  2
*X25
 10
0.0
 20
0.0
 30
0.0
1001
ACAD
1000
HATCH
1002
{
1070
    19
1000
ANSI37
1040
0.15
1040
0.0
1000
ASC_BOUNDS
1070
     1
1070
     2
1070
     8
1005
A35B
1005
A35E
1005
A362
1005
A361
1005
A360
1005
A35D
1005
A35F
1005
A35C
1000
ASC_SEEDPOINT
1011
39.74896370716704
1021
4.484843821435049
1031
0.0
1000
R14_HATCH_DATA
1000
A37A
1011
1.0
1021
0.0
1031
0.0
1011
0.0
1021
1.0
1031
0.0
1011
0.0
1021
0.0
1031
1.0
1040
0.0
1010
0.0
1020
0.0
1030
1.0
1000
ANSI37
1070
     0
1070
     1
1071
        1
1071
        7
1070
     0
1070
     1
1071
        9
1040
40.02599999995994
1040
5.341799999994635
1040
44.99999999995498
1040
-0.2368999999997641
1040
44.99999999995498
1040
8.763099999991255
1040
43.57899999995641
1040
8.763099999991255
1040
43.57899999995641
1040
3.421199999996588
1040
38.60499999996136
1040
8.999899999990987
1040
38.60499999996136
1040
8.999999999991019
1040
38.60499999996136
1040
0.0
1040
40.02599999995994
1040
0.0
1071
        8
1005
A35B
1005
A35E
1005
A362
1005
A361
1005
A360
1005
A35D
1005
A35F
1005
A35C
1070
     0
1070
     1
1040
0.0
1040
0.15
1070
     0
1070
     2
1040
0.7853981633974483
1040
49.29960901727088
1040
-10.17736998311392
1040
-0.3367596045400932
1040
0.3367596045400932
1070
     0
1040
2.356194490192345
1040
49.29960901727088
1040
-10.17736998311392
1040
-0.3367596045400932
1040
-0.3367596045400932
1070
     0
1040
0.0110235143455945
1071
        1
1040
39.74896370716704
1040
4.484843821435049
1040
0.0
1002
}
  0
INSERT
  5
A37B
330
A333
100
AcDbEntity
  8
0
100
AcDbBlockReference
  2
*X26
 10
0.0
 20
0.0
 30
0.0
1001
ACAD
1000
HATCH
1002
{
1070
    19
1000
ANSI37
1040
0.15
1040
0.0
1000
ASC_BOUNDS
1070
     1
1070
     2
1070
     4
1005
A33F
1005
A34E
1005
A340
1005
A342
1000
ASC_SEEDPOINT
1011
1.079051535452663
1021
4.148538732891836
1031
0.0
1000
R14_HATCH_DATA
1000
A37B
1011
1.0
1021
0.0
1031
0.0
1011
0.0
1021
1.0
1031
0.0
1011
0.0
1021
0.0
1031
1.0
1040
0.0
1010
0.0
1020
0.0
1030
1.0
1000
ANSI37
1070
     0
1070
     1
1071
        1
1071
        7
1070
     0
1070
     1
1071
        4
1040
1.420999999998571
1040
0.0
1040
1.420999999998571
1040
8.763099999991255
1040
0.0
1040
8.763099999991255
1040
0.0
1040
0.0
1071
        4
1005
A33F
1005
A34E
1005
A340
1005
A342
1070
     0
1070
     1
1040
0.0
1040
0.15
1070
     0
1070
     2
1040
0.7853981633974483
1040
49.29960901727088
1040
-10.17736998311392
1040
-0.3367596045400932
1040
0.3367596045400932
1070
     0
1040
2.356194490192345
1040
49.29960901727088
1040
-10.17736998311392
1040
-0.3367596045400932
1040
-0.3367596045400932
1070
     0
1040
0.0053004257112761
1071
        1
1040
1.079051535452663
1040
4.148538732891836
1040
0.0
1002
}
  0
ENDBLK
  5
AA57
330
A333
100
AcDbEntity
  8
0
100
AcDbBlockEnd
  0
BLOCK
  5
FF82
330
FDF4
100
AcDbEntity
  8
0
100
AcDbBlockBegin
  2
*X21
 70
     1
 10
0.0
 20
0.0
 30
0.0
  3
*X21
  1

  0
LINE
  5
FDF5
330
FDF4
100
AcDbEntity
  8
0
  6
CONTINUOUS
100
AcDbLine
 10
3.418023043697893
 20
7.251849696850613
 30
0.0
 11
4.929273346838536
 21
8.763099999991255
 31
0.0
  0
LINE
  5
FDF6
330
FDF4
100
AcDbEntity
  8
0
  6
CONTINUOUS
100
AcDbLine
 10
1.483656411257782
 20
4.643963855330318
 30
0.0
 11
5.60279255591872
 21
8.763099999991255
 31
0.0
  0
LINE
  5
FDF7
330
FDF4
100
AcDbEntity
  8
0
  6
CONTINUOUS
100
AcDbLine
 10
1.755053947328235
 20
4.241842182320584
 30
0.0
 11
6.276311764998907
 21
8.763099999991255
 31
0.0
  0
LINE
  5
FDF8
330
FDF4
100
AcDbEntity
  8
0
  6
CONTINUOUS
100
AcDbLine
 10
2.026451483398688
 20
3.839720509310849
 30
0.0
 11
4.441040904851878
 21
6.254309930764039
 31
0.0
  0
LINE
  5
FDF9
330
FDF4
100
AcDbEntity
  8
0
  6
CONTINUOUS
100
AcDbLine
 10
2.297849019469139
 20
3.437598836301114
 30
0.0
 11
3.321765168359338
 21
4.461514985191313
 31
0.0
  0
LINE
  5
FDFA
330
FDF4
100
AcDbEntity
  8
0
  6
CONTINUOUS
100
AcDbLine
 10
2.569246555539591
 20
3.03547716329138
 30
0.0
 11
3.593163397972743
 21
4.059394005724531
 31
0.0
  0
LINE
  5
FDFB
330
FDF4
100
AcDbEntity
  8
0
  6
CONTINUOUS
100
AcDbLine
 10
2.840644091610043
 20
2.633355490281646
 30
0.0
 11
3.864561627586149
 21
3.657273026257751
 31
0.0
  0
LINE
  5
FDFC
330
FDF4
100
AcDbEntity
  8
0
  6
CONTINUOUS
100
AcDbLine
 10
3.112041627680496
 20
2.231233817271911
 30
0.0
 11
4.135959857199554
 21
3.25515204679097
 31
0.0
  0
LINE
  5
FDFD
330
FDF4
100
AcDbEntity
  8
0
  6
CONTINUOUS
100
AcDbLine
 10
3.383439163750948
 20
1.829112144262177
 30
0.0
 11
4.40735808681296
 21
2.853031067324189
 31
0.0
  0
LINE
  5
FDFE
330
FDF4
100
AcDbEntity
  8
0
  6
CONTINUOUS
100
AcDbLine
 10
3.654836699821399
 20
1.426990471252442
 30
0.0
 11
4.678756316426365
 21
2.450910087857407
 31
0.0
  0
LINE
  5
FDFF
330
FDF4
100
AcDbEntity
  8
0
  6
CONTINUOUS
100
AcDbLine
 10
3.926234235891853
 20
1.024868798242709
 30
0.0
 11
4.95015454603977
 21
2.048789108390626
 31
0.0
  0
LINE
  5
FE00
330
FDF4
100
AcDbEntity
  8
0
  6
CONTINUOUS
100
AcDbLine
 10
4.197631771962304
 20
0.6227471252329737
 30
0.0
 11
5.221552775653176
 21
1.646668128923846
 31
0.0
  0
LINE
  5
FE01
330
FDF4
100
AcDbEntity
  8
0
  6
CONTINUOUS
100
AcDbLine
 10
8.715877546767851
 20
7.835069736359266
 30
0.0
 11
9.435953450375058
 21
8.555145639966472
 31
0.0
  0
LINE
  5
FE02
330
FDF4
100
AcDbEntity
  8
0
  6
CONTINUOUS
100
AcDbLine
 10
8.170620868422267
 20
6.616293848933497
 30
0.0
 11
9.644120833743461
 21
8.08979381425469
 31
0.0
  0
LINE
  5
FE03
330
FDF4
100
AcDbEntity
  8
0
  6
CONTINUOUS
100
AcDbLine
 10
7.625364190076684
 20
5.397517961507727
 30
0.0
 11
9.852288217111864
 21
7.624441988542907
 31
0.0
  0
LINE
  5
FE04
330
FDF4
100
AcDbEntity
  8
0
  6
CONTINUOUS
100
AcDbLine
 10
7.080107511731101
 20
4.178742074081957
 30
0.0
 11
10.06045560048027
 21
7.159090162831124
 31
0.0
  0
LINE
  5
FE05
330
FDF4
100
AcDbEntity
  8
0
  6
CONTINUOUS
100
AcDbLine
 10
6.534850833385518
 20
2.959966186656187
 30
0.0
 11
10.26862298384867
 21
6.693738337119342
 31
0.0
  0
LINE
  5
FE06
330
FDF4
100
AcDbEntity
  8
0
  6
CONTINUOUS
100
AcDbLine
 10
4.469029308032756
 20
0.2206254522232385
 30
0.0
 11
5.492951005266582
 21
1.244547149457064
 31
0.0
  0
LINE
  5
FE07
330
FDF4
100
AcDbEntity
  8
0
  6
CONTINUOUS
100
AcDbLine
 10
5.989594155039935
 20
1.741190299230417
 30
0.0
 11
8.806950407233131
 21
4.558546551423613
 31
0.0
  0
LINE
  5
FE08
330
FDF4
100
AcDbEntity
  8
0
  6
CONTINUOUS
100
AcDbLine
 10
9.401251593263643
 20
5.152847737454126
 30
0.0
 11
10.47679036721708
 21
6.228386511407559
 31
0.0
  0
LINE
  5
FE09
330
FDF4
100
AcDbEntity
  8
0
  6
CONTINUOUS
100
AcDbLine
 10
4.921837203428691
 20
-0.0000858614610131
 30
0.0
 11
8.592923064886001
 21
3.670999999996297
 31
0.0
  0
LINE
  5
FE0A
330
FDF4
100
AcDbEntity
  8
0
  6
CONTINUOUS
100
AcDbLine
 10
9.609390446785305
 20
4.6874673818956
 30
0.0
 11
10.68495775058548
 21
5.763034685695775
 31
0.0
  0
LINE
  5
FE0B
330
FDF4
100
AcDbEntity
  8
0
  6
CONTINUOUS
100
AcDbLine
 10
5.595387755019432
 20
-0.0000545189504582
 30
0.0
 11
7.716137258923768
 21
2.120694984953879
 31
0.0
  0
LINE
  5
FE0C
330
FDF4
100
AcDbEntity
  8
0
  6
CONTINUOUS
100
AcDbLine
 10
6.268938306610172
 20
-0.000023176439905
 30
0.0
 11
7.170485805526503
 21
0.9015243224764267
 31
0.0
  0
LINE
  5
FE0D
330
FDF4
100
AcDbEntity
  8
0
  6
CONTINUOUS
100
AcDbLine
 10
7.963842273967511
 20
2.368399999997621
 30
0.0
 11
9.266442273966188
 21
3.670999999996297
 31
0.0
  0
LINE
  5
FE0E
330
FDF4
100
AcDbEntity
  8
0
  6
CONTINUOUS
100
AcDbLine
 10
8.637361483047696
 20
2.368399999997621
 30
0.0
 11
9.939961483046375
 21
3.670999999996297
 31
0.0
  0
LINE
  5
FE0F
330
FDF4
100
AcDbEntity
  8
0
  6
CONTINUOUS
100
AcDbLine
 10
9.817529300306965
 20
4.222087026337075
 30
0.0
 11
10.89312513395388
 21
5.297682859983993
 31
0.0
  0
LINE
  5
FE10
330
FDF4
100
AcDbEntity
  8
0
  6
CONTINUOUS
100
AcDbLine
 10
10.02566815382863
 20
3.756706670778549
 30
0.0
 11
11.10129251732229
 21
4.832331034272211
 31
0.0
  0
LINE
  5
FE11
330
FDF4
100
AcDbEntity
  8
0
  6
CONTINUOUS
100
AcDbLine
 10
9.310880692127883
 20
2.368399999997621
 30
0.0
 11
11.30945990069069
 21
4.366979208560428
 31
0.0
  0
LINE
  5
FE12
330
FDF4
100
AcDbEntity
  8
0
  6
CONTINUOUS
100
AcDbLine
 10
9.98439990120807
 20
2.36839999999762
 30
0.0
 11
11.5176272840591
 21
3.901627382848645
 31
0.0
  0
LINE
  5
FE13
330
FDF4
100
AcDbEntity
  8
0
  6
CONTINUOUS
100
AcDbLine
 10
10.65037369446246
 20
2.36085458417182
 30
0.0
 11
11.7257946674275
 21
3.436275557136862
 31
0.0
  0
LINE
  5
FE14
330
FDF4
100
AcDbEntity
  8
0
  6
CONTINUOUS
100
AcDbLine
 10
10.85847197087848
 20
1.895433651507656
 30
0.0
 11
11.9339620507959
 21
2.97092373142508
 31
0.0
  0
LINE
  5
FE15
330
FDF4
100
AcDbEntity
  8
0
  6
CONTINUOUS
100
AcDbLine
 10
11.0665702472945
 20
1.430012718843491
 30
0.0
 11
12.14212943416431
 21
2.505571905713296
 31
0.0
  0
LINE
  5
FE16
330
FDF4
100
AcDbEntity
  8
0
  6
CONTINUOUS
100
AcDbLine
 10
11.27466852371052
 20
0.9645917861793256
 30
0.0
 11
12.35029681753271
 21
2.040220080001513
 31
0.0
  0
LINE
  5
FE17
330
FDF4
100
AcDbEntity
  8
0
  6
CONTINUOUS
100
AcDbLine
 10
11.48276680012654
 20
0.4991708535151611
 30
0.0
 11
12.55846420090111
 21
1.57486825428973
 31
0.0
  0
LINE
  5
FE18
330
FDF4
100
AcDbEntity
  8
0
  6
CONTINUOUS
100
AcDbLine
 10
11.69086507654257
 20
0.0337499208509957
 30
0.0
 11
12.76663158426952
 21
1.109516428577947
 31
0.0
  0
LINE
  5
FE19
330
FDF4
100
AcDbEntity
  8
0
  6
CONTINUOUS
100
AcDbLine
 10
12.33057447873954
 20
-0.0000598860322123
 30
0.0
 11
12.97479896763792
 21
0.6441646028661663
 31
0.0
  0
LINE
  5
FE1A
330
FDF4
100
AcDbEntity
  8
0
  6
CONTINUOUS
100
AcDbLine
 10
13.00413694809395
 20
-0.0000166257579952
 30
0.0
 11
13.18296635100632
 21
0.1788127771543824
 31
0.0
  0
LINE
  5
FE1B
330
FDF4
100
AcDbEntity
  8
0
  6
CONTINUOUS
100
AcDbLine
 10
4.772852165289667
 20
-0.000092794222212
 30
0.0
 11
4.296495091028902
 21
0.4762642800385528
 31
0.0
  0
LINE
  5
FE1C
330
FDF4
100
AcDbEntity
  8
0
  6
CONTINUOUS
100
AcDbLine
 10
5.446340034776103
 20
-0.0000614546284616
 30
0.0
 11
2.898195908335625
 21
2.548082671812017
 31
0.0
  0
LINE
  5
FE1D
330
FDF4
100
AcDbEntity
  8
0
  6
CONTINUOUS
100
AcDbLine
 10
6.119827904262539
 20
-0.0000301150347113
 30
0.0
 11
1.499896725642348
 21
4.61990106358548
 31
0.0
  0
LINE
  5
FE1E
330
FDF4
100
AcDbEntity
  8
0
  6
CONTINUOUS
100
AcDbLine
 10
6.775136745476159
 20
0.0181802528318542
 30
0.0
 11
5.699826040202669
 21
1.093490958105344
 31
0.0
  0
LINE
  5
FE1F
330
FDF4
100
AcDbEntity
  8
0
  6
CONTINUOUS
100
AcDbLine
 10
6.983376846288489
 20
0.4834593610997118
 30
0.0
 11
5.908008617934405
 21
1.558827589453796
 31
0.0
  0
LINE
  5
FE20
330
FDF4
100
AcDbEntity
  8
0
  6
CONTINUOUS
100
AcDbLine
 10
5.377063484962296
 20
1.416253513345719
 30
0.0
 11
1.702276957014131
 21
5.091040041293883
 31
0.0
  0
LINE
  5
FE21
330
FDF4
100
AcDbEntity
  8
0
  6
CONTINUOUS
100
AcDbLine
 10
3.978745891735324
 20
3.488090315652877
 30
0.0
 11
2.000373521109399
 21
5.466462686278803
 31
0.0
  0
LINE
  5
FE22
330
FDF4
100
AcDbEntity
  8
0
  6
CONTINUOUS
100
AcDbLine
 10
7.191616947100819
 20
0.948738469367568
 30
0.0
 11
6.11619119566614
 21
2.024164220802247
 31
0.0
  0
LINE
  5
FE23
330
FDF4
100
AcDbEntity
  8
0
  6
CONTINUOUS
100
AcDbLine
 10
7.399857047913149
 20
1.414017577635424
 30
0.0
 11
6.324373773397875
 21
2.489500852150698
 31
0.0
  0
LINE
  5
FE24
330
FDF4
100
AcDbEntity
  8
0
  6
CONTINUOUS
100
AcDbLine
 10
7.608097148725479
 20
1.879296685903281
 30
0.0
 11
6.53255635112961
 21
2.95483748349915
 31
0.0
  0
LINE
  5
FE25
330
FDF4
100
AcDbEntity
  8
0
  6
CONTINUOUS
100
AcDbLine
 10
7.816337249537808
 20
2.344575794171138
 30
0.0
 11
6.740738928861345
 21
3.420174114847601
 31
0.0
  0
LINE
  5
FE26
330
FDF4
100
AcDbEntity
  8
0
  6
CONTINUOUS
100
AcDbLine
 10
3.310241080789734
 20
4.830114335678653
 30
0.0
 11
2.298470085204666
 21
5.84188533126372
 31
0.0
  0
LINE
  5
FE27
330
FDF4
100
AcDbEntity
  8
0
  6
CONTINUOUS
100
AcDbLine
 10
3.60832983563551
 20
5.205544789913063
 30
0.0
 11
2.596566649299935
 21
6.217307976248638
 31
0.0
  0
LINE
  5
FE28
330
FDF4
100
AcDbEntity
  8
0
  6
CONTINUOUS
100
AcDbLine
 10
3.906418590481286
 20
5.580975244147473
 30
0.0
 11
2.894663213395203
 21
6.592730621233557
 31
0.0
  0
LINE
  5
FE29
330
FDF4
100
AcDbEntity
  8
0
  6
CONTINUOUS
100
AcDbLine
 10
4.204507345327062
 20
5.956405698381884
 30
0.0
 11
3.192759777490472
 21
6.968153266218474
 31
0.0
  0
LINE
  5
FE2A
330
FDF4
100
AcDbEntity
  8
0
  6
CONTINUOUS
100
AcDbLine
 10
8.466032252791512
 20
2.368399999997621
 30
0.0
 11
6.948921506593081
 21
3.885510746196053
 31
0.0
  0
LINE
  5
FE2B
330
FDF4
100
AcDbEntity
  8
0
  6
CONTINUOUS
100
AcDbLine
 10
9.139551461871699
 20
2.36839999999762
 30
0.0
 11
7.157104084324816
 21
4.350847377544504
 31
0.0
  0
LINE
  5
FE2C
330
FDF4
100
AcDbEntity
  8
0
  6
CONTINUOUS
100
AcDbLine
 10
4.502596100172839
 20
6.331836152616295
 30
0.0
 11
3.49085634158574
 21
7.343575911203393
 31
0.0
  0
LINE
  5
FE2D
330
FDF4
100
AcDbEntity
  8
0
  6
CONTINUOUS
100
AcDbLine
 10
4.800684855018615
 20
6.707266606850705
 30
0.0
 11
3.788952905681008
 21
7.718998556188312
 31
0.0
  0
LINE
  5
FE2E
330
FDF4
100
AcDbEntity
  8
0
  6
CONTINUOUS
100
AcDbLine
 10
12.18154012887317
 20
-0.0000694579236642
 30
0.0
 11
11.32140332908496
 21
0.8600673418645499
 31
0.0
  0
LINE
  5
FE2F
330
FDF4
100
AcDbEntity
  8
0
  6
CONTINUOUS
100
AcDbLine
 10
12.85501608323566
 20
-0.0000262032059659
 30
0.0
 11
10.77672456435345
 21
2.078265315676246
 31
0.0
  0
LINE
  5
FE30
330
FDF4
100
AcDbEntity
  8
0
  6
CONTINUOUS
100
AcDbLine
 10
9.813070670951886
 20
2.36839999999762
 30
0.0
 11
8.51047067095321
 21
3.670999999996297
 31
0.0
  0
LINE
  5
FE31
330
FDF4
100
AcDbEntity
  8
0
  6
CONTINUOUS
100
AcDbLine
 10
10.48658988003207
 20
2.36839999999762
 30
0.0
 11
9.183989880033396
 21
3.670999999996297
 31
0.0
  0
LINE
  5
FE32
330
FDF4
100
AcDbEntity
  8
0
  6
CONTINUOUS
100
AcDbLine
 10
8.441048632286794
 20
3.740422038662712
 30
0.0
 11
7.365286662056551
 21
4.816184008892956
 31
0.0
  0
LINE
  5
FE33
330
FDF4
100
AcDbEntity
  8
0
  6
CONTINUOUS
100
AcDbLine
 10
8.649187485808454
 20
4.205802394221237
 30
0.0
 11
7.573469239788285
 21
5.281520640241407
 31
0.0
  0
LINE
  5
FE34
330
FDF4
100
AcDbEntity
  8
0
  6
CONTINUOUS
100
AcDbLine
 10
5.098773609864391
 20
7.082697061085115
 30
0.0
 11
4.087049469776277
 21
8.09442120117323
 31
0.0
  0
LINE
  5
FE35
330
FDF4
100
AcDbEntity
  8
0
  6
CONTINUOUS
100
AcDbLine
 10
5.396862364710167
 20
7.458127515319526
 30
0.0
 11
4.385146033871544
 21
8.469843846158149
 31
0.0
  0
LINE
  5
FE36
330
FDF4
100
AcDbEntity
  8
0
  6
CONTINUOUS
100
AcDbLine
 10
13.04801363231285
 20
0.4804954567970334
 30
0.0
 11
9.85750908911358
 21
3.670999999996297
 31
0.0
  0
LINE
  5
FE37
330
FDF4
100
AcDbEntity
  8
0
  6
CONTINUOUS
100
AcDbLine
 10
8.857326339330116
 20
4.671182749779763
 30
0.0
 11
7.781651817520021
 21
5.746857271589858
 31
0.0
  0
LINE
  5
FE38
330
FDF4
100
AcDbEntity
  8
0
  6
CONTINUOUS
100
AcDbLine
 10
5.694951119555943
 20
7.833557969553937
 30
0.0
 11
4.765409089118624
 21
8.763099999991255
 31
0.0
  0
LINE
  5
FE39
330
FDF4
100
AcDbEntity
  8
0
  6
CONTINUOUS
100
AcDbLine
 10
12.50286117236978
 20
1.699167125820288
 30
0.0
 11
9.68611877250287
 21
4.515909525687196
 31
0.0
  0
LINE
  5
FE3A
330
FDF4
100
AcDbEntity
  8
0
  6
CONTINUOUS
100
AcDbLine
 10
9.065465192851777
 20
5.136563105338288
 30
0.0
 11
7.989834395251757
 21
6.21219390293831
 31
0.0
  0
LINE
  5
FE3B
330
FDF4
100
AcDbEntity
  8
0
  6
CONTINUOUS
100
AcDbLine
 10
5.993039874401719
 20
8.208988423788346
 30
0.0
 11
5.43892829819881
 21
8.763099999991255
 31
0.0
  0
LINE
  5
FE3C
330
FDF4
100
AcDbEntity
  8
0
  6
CONTINUOUS
100
AcDbLine
 10
11.95770871242671
 20
2.917838794843543
 30
0.0
 11
8.19801697298349
 21
6.677530534286761
 31
0.0
  0
LINE
  5
FE3D
330
FDF4
100
AcDbEntity
  8
0
  6
CONTINUOUS
100
AcDbLine
 10
6.291128629247495
 20
8.584418878022756
 30
0.0
 11
6.112447507278997
 21
8.763099999991255
 31
0.0
  0
LINE
  5
FE3E
330
FDF4
100
AcDbEntity
  8
0
  6
CONTINUOUS
100
AcDbLine
 10
11.41255625248364
 20
4.136510463866797
 30
0.0
 11
8.406199550715227
 21
7.142867165635211
 31
0.0
  0
LINE
  5
FE3F
330
FDF4
100
AcDbEntity
  8
0
  6
CONTINUOUS
100
AcDbLine
 10
10.86740379254057
 20
5.355182132890051
 30
0.0
 11
8.614382128446962
 21
7.608203796983664
 31
0.0
  0
LINE
  5
FE40
330
FDF4
100
AcDbEntity
  8
0
  6
CONTINUOUS
100
AcDbLine
 10
10.3222513325975
 20
6.573853801913305
 30
0.0
 11
8.822564706178696
 21
8.073540428332114
 31
0.0
  0
LINE
  5
FE41
330
FDF4
100
AcDbEntity
  8
0
  6
CONTINUOUS
100
AcDbLine
 10
9.777098872654436
 20
7.792525470936562
 30
0.0
 11
9.030747283910433
 21
8.538877059680566
 31
0.0
  0
ENDBLK
  5
FF83
330
FDF4
100
AcDbEntity
  8
0
100
AcDbBlockEnd
  0
BLOCK
  5
FF84
330
FE42
100
AcDbEntity
  8
0
100
AcDbBlockBegin
  2
*X22
 70
     1
 10
0.0
 20
0.0
 30
0.0
  3
*X22
  1

  0
LINE
  5
FE43
330
FE42
100
AcDbEntity
  8
0
  6
CONTINUOUS
100
AcDbLine
 10
10.67292308101235
 20
8.445076852443387
 30
0.0
 11
10.99094622856022
 21
8.763099999991255
 31
0.0
  0
LINE
  5
FE44
330
FE42
100
AcDbEntity
  8
0
  6
CONTINUOUS
100
AcDbLine
 10
10.87250383178748
 20
7.971138394138331
 30
0.0
 11
11.6644654376404
 21
8.763099999991255
 31
0.0
  0
LINE
  5
FE45
330
FE42
100
AcDbEntity
  8
0
  6
CONTINUOUS
100
AcDbLine
 10
11.07208458256261
 20
7.497199935833273
 30
0.0
 11
12.12126590876355
 21
8.546381262034211
 31
0.0
  0
LINE
  5
FE46
330
FE42
100
AcDbEntity
  8
0
  6
CONTINUOUS
100
AcDbLine
 10
11.27166533333774
 20
7.023261477528216
 30
0.0
 11
12.32085164573666
 21
8.072447789927136
 31
0.0
  0
LINE
  5
FE47
330
FE42
100
AcDbEntity
  8
0
  6
CONTINUOUS
100
AcDbLine
 10
11.47124608411287
 20
6.549323019223158
 30
0.0
 11
12.52043738270977
 21
7.59851431782006
 31
0.0
  0
LINE
  5
FE48
330
FE42
100
AcDbEntity
  8
0
  6
CONTINUOUS
100
AcDbLine
 10
11.670826834888
 20
6.075384560918101
 30
0.0
 11
12.72002311968288
 21
7.124580845712984
 31
0.0
  0
LINE
  5
FE49
330
FE42
100
AcDbEntity
  8
0
  6
CONTINUOUS
100
AcDbLine
 10
11.87040758566313
 20
5.601446102613043
 30
0.0
 11
12.91960885665599
 21
6.650647373605907
 31
0.0
  0
LINE
  5
FE4A
330
FE42
100
AcDbEntity
  8
0
  6
CONTINUOUS
100
AcDbLine
 10
12.06998833643825
 20
5.127507644307986
 30
0.0
 11
13.1191945936291
 21
6.176713901498832
 31
0.0
  0
LINE
  5
FE4B
330
FE42
100
AcDbEntity
  8
0
  6
CONTINUOUS
100
AcDbLine
 10
12.26956908721338
 20
4.65356918600293
 30
0.0
 11
13.31878033060221
 21
5.702780429391757
 31
0.0
  0
LINE
  5
FE4C
330
FE42
100
AcDbEntity
  8
0
  6
CONTINUOUS
100
AcDbLine
 10
12.46914983798851
 20
4.179630727697873
 30
0.0
 11
13.51836606757532
 21
5.228846957284683
 31
0.0
  0
LINE
  5
FE4D
330
FE42
100
AcDbEntity
  8
0
  6
CONTINUOUS
100
AcDbLine
 10
12.66873058876364
 20
3.705692269392816
 30
0.0
 11
13.71795180454843
 21
4.754913485177607
 31
0.0
  0
LINE
  5
FE4E
330
FE42
100
AcDbEntity
  8
0
  6
CONTINUOUS
100
AcDbLine
 10
12.86831133953877
 20
3.231753811087759
 30
0.0
 11
13.91753754152154
 21
4.280980013070531
 31
0.0
  0
LINE
  5
FE4F
330
FE42
100
AcDbEntity
  8
0
  6
CONTINUOUS
100
AcDbLine
 10
13.0678920903139
 20
2.757815352782702
 30
0.0
 11
14.11712327849465
 21
3.807046540963456
 31
0.0
  0
LINE
  5
FE50
330
FE42
100
AcDbEntity
  8
0
  6
CONTINUOUS
100
AcDbLine
 10
13.26747284108903
 20
2.283876894477644
 30
0.0
 11
14.31670901546777
 21
3.333113068856379
 31
0.0
  0
LINE
  5
FE51
330
FE42
100
AcDbEntity
  8
0
  6
CONTINUOUS
100
AcDbLine
 10
16.36767838827179
 20
8.751678487061342
 30
0.0
 11
16.50332410898388
 21
8.887324207773432
 31
0.0
  0
LINE
  5
FE52
330
FE42
100
AcDbEntity
  8
0
  6
CONTINUOUS
100
AcDbLine
 10
15.96190732182191
 20
7.67238821153127
 30
0.0
 11
16.68735328004734
 21
8.397834169756699
 31
0.0
  0
LINE
  5
FE53
330
FE42
100
AcDbEntity
  8
0
  6
CONTINUOUS
100
AcDbLine
 10
15.55613625537202
 20
6.593097936001196
 30
0.0
 11
16.87138245111079
 21
7.908344131739965
 31
0.0
  0
LINE
  5
FE54
330
FE42
100
AcDbEntity
  8
0
  6
CONTINUOUS
100
AcDbLine
 10
15.15036518892213
 20
5.513807660471122
 30
0.0
 11
17.05541162217424
 21
7.418854093723231
 31
0.0
  0
LINE
  5
FE55
330
FE42
100
AcDbEntity
  8
0
  6
CONTINUOUS
100
AcDbLine
 10
14.74459412247225
 20
4.434517384941048
 30
0.0
 11
17.2394407932377
 21
6.929364055706499
 31
0.0
  0
LINE
  5
FE56
330
FE42
100
AcDbEntity
  8
0
  6
CONTINUOUS
100
AcDbLine
 10
14.33882305602236
 20
3.355227109410975
 30
0.0
 11
17.42346996430115
 21
6.439874017689766
 31
0.0
  0
LINE
  5
FE57
330
FE42
100
AcDbEntity
  8
0
  6
CONTINUOUS
100
AcDbLine
 10
13.46705359186416
 20
1.809938436172586
 30
0.0
 11
16.0819338255367
 21
4.424818669845129
 31
0.0
  0
LINE
  5
FE58
330
FE42
100
AcDbEntity
  8
0
  6
CONTINUOUS
100
AcDbLine
 10
16.63283254238972
 20
4.975717386698149
 30
0.0
 11
17.60749913536461
 21
5.950383979673033
 31
0.0
  0
LINE
  5
FE59
330
FE42
100
AcDbEntity
  8
0
  6
CONTINUOUS
100
AcDbLine
 10
13.66663434263929
 20
1.335999977867529
 30
0.0
 11
15.67604797733754
 21
3.345413612565779
 31
0.0
  0
LINE
  5
FE5A
330
FE42
100
AcDbEntity
  8
0
  6
CONTINUOUS
100
AcDbLine
 10
13.86621509341442
 20
0.8620615195624723
 30
0.0
 11
15.27016212913838
 21
2.26600855528643
 31
0.0
  0
LINE
  5
FE5B
330
FE42
100
AcDbEntity
  8
0
  6
CONTINUOUS
100
AcDbLine
 10
16.81682257348267
 20
4.486188208710908
 30
0.0
 11
17.79152830642806
 21
5.460893941656299
 31
0.0
  0
LINE
  5
FE5C
330
FE42
100
AcDbEntity
  8
0
  6
CONTINUOUS
100
AcDbLine
 10
17.00081260457561
 20
3.996659030723667
 30
0.0
 11
17.97555747749151
 21
4.971403903639565
 31
0.0
  0
LINE
  5
FE5D
330
FE42
100
AcDbEntity
  8
0
  6
CONTINUOUS
100
AcDbLine
 10
20.74362343514722
 20
8.412989070375462
 30
0.0
 11
21.09373436476302
 21
8.763099999991256
 31
0.0
  0
LINE
  5
FE5E
330
FE42
100
AcDbEntity
  8
0
  6
CONTINUOUS
100
AcDbLine
 10
20.25401257174777
 20
7.249858997895826
 30
0.0
 11
21.7672535738432
 21
8.763099999991255
 31
0.0
  0
LINE
  5
FE5F
330
FE42
100
AcDbEntity
  8
0
  6
CONTINUOUS
100
AcDbLine
 10
14.06579584418955
 20
0.3881230612574149
 30
0.0
 11
14.86427628093921
 21
1.186603498007082
 31
0.0
  0
LINE
  5
FE60
330
FE42
100
AcDbEntity
  8
0
  6
CONTINUOUS
100
AcDbLine
 10
14.26537659496467
 20
-0.0858153970476412
 30
0.0
 11
14.45839043274005
 21
0.1071984407277329
 31
0.0
  0
LINE
  5
FE61
330
FE42
100
AcDbEntity
  8
0
  6
CONTINUOUS
100
AcDbLine
 10
17.18480263566856
 20
3.507129852736426
 30
0.0
 11
18.15958664855496
 21
4.481913865622833
 31
0.0
  0
LINE
  5
FE62
330
FE42
100
AcDbEntity
  8
0
  6
CONTINUOUS
100
AcDbLine
 10
17.3687926667615
 20
3.017600674749186
 30
0.0
 11
18.34361581961842
 21
3.9924238276061
 31
0.0
  0
LINE
  5
FE63
330
FE42
100
AcDbEntity
  8
0
  6
CONTINUOUS
100
AcDbLine
 10
19.76440170834832
 20
6.086728925416191
 30
0.0
 11
22.33924590259489
 21
8.661573119662755
 31
0.0
  0
LINE
  5
FE64
330
FE42
100
AcDbEntity
  8
0
  6
CONTINUOUS
100
AcDbLine
 10
19.27479084494887
 20
4.923598852936555
 30
0.0
 11
21.84929622842713
 21
7.498104236414807
 31
0.0
  0
LINE
  5
FE65
330
FE42
100
AcDbEntity
  8
0
  6
CONTINUOUS
100
AcDbLine
 10
17.55278269785445
 20
2.528071496761945
 30
0.0
 11
18.52764499068187
 21
3.502933789589366
 31
0.0
  0
LINE
  5
FE66
330
FE42
100
AcDbEntity
  8
0
  6
CONTINUOUS
100
AcDbLine
 10
18.78517998154942
 20
3.760468780456919
 30
0.0
 11
21.35934655425936
 21
6.33463535316686
 31
0.0
  0
LINE
  5
FE67
330
FE42
100
AcDbEntity
  8
0
  6
CONTINUOUS
100
AcDbLine
 10
17.73677272894739
 20
2.038542318774704
 30
0.0
 11
20.8693968800916
 21
5.171166469918914
 31
0.0
  0
LINE
  5
FE68
330
FE42
100
AcDbEntity
  8
0
  6
CONTINUOUS
100
AcDbLine
 10
17.92076276004034
 20
1.549013140787464
 30
0.0
 11
20.37944720592384
 21
4.007697586670968
 31
0.0
  0
LINE
  5
FE69
330
FE42
100
AcDbEntity
  8
0
  6
CONTINUOUS
100
AcDbLine
 10
18.10475279113329
 20
1.059483962800223
 30
0.0
 11
19.88949753175608
 21
2.84422870342302
 31
0.0
  0
LINE
  5
FE6A
330
FE42
100
AcDbEntity
  8
0
  6
CONTINUOUS
100
AcDbLine
 10
18.28874282222623
 20
0.5699547848129822
 30
0.0
 11
19.39954785758832
 21
1.680759820175074
 31
0.0
  0
LINE
  5
FE6B
330
FE42
100
AcDbEntity
  8
0
  6
CONTINUOUS
100
AcDbLine
 10
18.47273285331918
 20
0.0804256068257416
 30
0.0
 11
18.90959818342056
 21
0.517290936927127
 31
0.0
  0
LINE
  5
FE6C
330
FE42
100
AcDbEntity
  8
0
  6
CONTINUOUS
100
AcDbLine
 10
14.3590401358224
 20
-0.1570118376323384
 30
0.0
 11
14.24903296539946
 21
-0.0470046672093929
 31
0.0
  0
LINE
  5
FE6D
330
FE42
100
AcDbEntity
  8
0
  6
CONTINUOUS
100
AcDbLine
 10
14.54309291258661
 20
0.332454594683643
 30
0.0
 11
13.75908329123172
 21
1.116464216038529
 31
0.0
  0
LINE
  5
FE6E
330
FE42
100
AcDbEntity
  8
0
  6
CONTINUOUS
100
AcDbLine
 10
14.72714568935081
 20
0.8219210269996244
 30
0.0
 11
13.26913361706399
 21
2.27993309928645
 31
0.0
  0
LINE
  5
FE6F
330
FE42
100
AcDbEntity
  8
0
  6
CONTINUOUS
100
AcDbLine
 10
14.91119846611502
 20
1.311387459315606
 30
0.0
 11
12.77918394289625
 21
3.443401982534371
 31
0.0
  0
LINE
  5
FE70
330
FE42
100
AcDbEntity
  8
0
  6
CONTINUOUS
100
AcDbLine
 10
15.09525124287922
 20
1.800853891631587
 30
0.0
 11
12.28923426872852
 21
4.606870865782293
 31
0.0
  0
LINE
  5
FE71
330
FE42
100
AcDbEntity
  8
0
  6
CONTINUOUS
100
AcDbLine
 10
15.27930401964343
 20
2.290320323947569
 30
0.0
 11
11.79928459456078
 21
5.770339749030213
 31
0.0
  0
LINE
  5
FE72
330
FE42
100
AcDbEntity
  8
0
  6
CONTINUOUS
100
AcDbLine
 10
15.46335679640763
 20
2.77978675626355
 30
0.0
 11
14.48885470994921
 21
3.754288842721972
 31
0.0
  0
LINE
  5
FE73
330
FE42
100
AcDbEntity
  8
0
  6
CONTINUOUS
100
AcDbLine
 10
13.88507249233704
 20
4.358071060334137
 30
0.0
 11
11.30933492039305
 21
6.933808632278135
 31
0.0
  0
LINE
  5
FE74
330
FE42
100
AcDbEntity
  8
0
  6
CONTINUOUS
100
AcDbLine
 10
18.75840522805855
 20
0.1582575336928151
 30
0.0
 11
18.25383727664818
 21
0.6628254851031863
 31
0.0
  0
LINE
  5
FE75
330
FE42
100
AcDbEntity
  8
0
  6
CONTINUOUS
100
AcDbLine
 10
15.64740957317184
 20
3.269253188579531
 30
0.0
 11
14.67288388101266
 21
4.243778880738705
 31
0.0
  0
LINE
  5
FE76
330
FE42
100
AcDbEntity
  8
0
  6
CONTINUOUS
100
AcDbLine
 10
13.39509276772158
 20
5.521569994029786
 30
0.0
 11
10.81938524622531
 21
8.097277515526056
 31
0.0
  0
LINE
  5
FE77
330
FE42
100
AcDbEntity
  8
0
  6
CONTINUOUS
100
AcDbLine
 10
18.95798597883369
 20
0.6321959919978686
 30
0.0
 11
17.84825644852853
 21
1.741925522303024
 31
0.0
  0
LINE
  5
FE78
330
FE42
100
AcDbEntity
  8
0
  6
CONTINUOUS
100
AcDbLine
 10
19.15756672960882
 20
1.106134450302922
 30
0.0
 11
17.44267562040888
 21
2.821025559502861
 31
0.0
  0
LINE
  5
FE79
330
FE42
100
AcDbEntity
  8
0
  6
CONTINUOUS
100
AcDbLine
 10
15.83146234993604
 20
3.758719620895513
 30
0.0
 11
14.85691305207612
 21
4.733268918755439
 31
0.0
  0
LINE
  5
FE7A
330
FE42
100
AcDbEntity
  8
0
  6
CONTINUOUS
100
AcDbLine
 10
16.01551512670025
 20
4.248186053211494
 30
0.0
 11
15.04094222313957
 21
5.222758956772172
 31
0.0
  0
LINE
  5
FE7B
330
FE42
100
AcDbEntity
  8
0
  6
CONTINUOUS
100
AcDbLine
 10
12.90511304310612
 20
6.685068927725435
 30
0.0
 11
10.8270819708403
 21
8.763099999991255
 31
0.0
  0
LINE
  5
FE7C
330
FE42
100
AcDbEntity
  8
0
  6
CONTINUOUS
100
AcDbLine
 10
12.41513331849066
 20
7.848567861421083
 30
0.0
 11
11.50060117992049
 21
8.763099999991255
 31
0.0
  0
LINE
  5
FE7D
330
FE42
100
AcDbEntity
  8
0
  6
CONTINUOUS
100
AcDbLine
 10
19.35714748038395
 20
1.580072908607975
 30
0.0
 11
17.03709479228923
 21
3.900125596702697
 31
0.0
  0
LINE
  5
FE7E
330
FE42
100
AcDbEntity
  8
0
  6
CONTINUOUS
100
AcDbLine
 10
19.55672823115909
 20
2.054011366913028
 30
0.0
 11
16.63151396416958
 21
4.979225633902534
 31
0.0
  0
LINE
  5
FE7F
330
FE42
100
AcDbEntity
  8
0
  6
CONTINUOUS
100
AcDbLine
 10
16.19956790346445
 20
4.737652485527476
 30
0.0
 11
15.22497139420302
 21
5.712248994788904
 31
0.0
  0
LINE
  5
FE80
330
FE42
100
AcDbEntity
  8
0
  6
CONTINUOUS
100
AcDbLine
 10
16.38362068022866
 20
5.227118917843457
 30
0.0
 11
15.40900056526648
 21
6.201739032805637
 31
0.0
  0
LINE
  5
FE81
330
FE42
100
AcDbEntity
  8
0
  6
CONTINUOUS
100
AcDbLine
 10
19.75630898193422
 20
2.527949825218081
 30
0.0
 11
18.70774536448286
 21
3.576513442669441
 31
0.0
  0
LINE
  5
FE82
330
FE42
100
AcDbEntity
  8
0
  6
CONTINUOUS
100
AcDbLine
 10
19.95588973270936
 20
3.001888283523134
 30
0.0
 11
18.90726987211446
 21
4.050508144118028
 31
0.0
  0
LINE
  5
FE83
330
FE42
100
AcDbEntity
  8
0
  6
CONTINUOUS
100
AcDbLine
 10
20.15547048348449
 20
3.475826741828186
 30
0.0
 11
19.10679437974606
 21
4.524502845566614
 31
0.0
  0
LINE
  5
FE84
330
FE42
100
AcDbEntity
  8
0
  6
CONTINUOUS
100
AcDbLine
 10
20.35505123425962
 20
3.94976520013324
 30
0.0
 11
19.30631888737766
 21
4.998497547015201
 31
0.0
  0
LINE
  5
FE85
330
FE42
100
AcDbEntity
  8
0
  6
CONTINUOUS
100
AcDbLine
 10
20.55463198503475
 20
4.423703658438292
 30
0.0
 11
19.50584339500926
 21
5.472492248463787
 31
0.0
  0
LINE
  5
FE86
330
FE42
100
AcDbEntity
  8
0
  6
CONTINUOUS
100
AcDbLine
 10
18.37481191085755
 20
3.909446896294752
 30
0.0
 11
15.59302973632993
 21
6.691229070822371
 31
0.0
  0
LINE
  5
FE87
330
FE42
100
AcDbEntity
  8
0
  6
CONTINUOUS
100
AcDbLine
 10
17.96904084440766
 20
4.988737171824825
 30
0.0
 11
15.77705890739338
 21
7.180719108839104
 31
0.0
  0
LINE
  5
FE88
330
FE42
100
AcDbEntity
  8
0
  6
CONTINUOUS
100
AcDbLine
 10
17.56326977795777
 20
6.068027447354899
 30
0.0
 11
15.96108807845684
 21
7.670209146855838
 31
0.0
  0
LINE
  5
FE89
330
FE42
100
AcDbEntity
  8
0
  6
CONTINUOUS
100
AcDbLine
 10
17.15749871150789
 20
7.147317722884972
 30
0.0
 11
16.14511724952029
 21
8.15969918487257
 31
0.0
  0
LINE
  5
FE8A
330
FE42
100
AcDbEntity
  8
0
  6
CONTINUOUS
100
AcDbLine
 10
16.751727645058
 20
8.226607998415046
 30
0.0
 11
16.32914642058374
 21
8.649189222889303
 31
0.0
  0
LINE
  5
FE8B
330
FE42
100
AcDbEntity
  8
0
  6
CONTINUOUS
100
AcDbLine
 10
20.75421273580989
 20
4.897642116743345
 30
0.0
 11
19.70536790264086
 21
5.946486949912374
 31
0.0
  0
LINE
  5
FE8C
330
FE42
100
AcDbEntity
  8
0
  6
CONTINUOUS
100
AcDbLine
 10
20.95379348658502
 20
5.371580575048398
 30
0.0
 11
19.90489241027246
 21
6.42048165136096
 31
0.0
  0
LINE
  5
FE8D
330
FE42
100
AcDbEntity
  8
0
  6
CONTINUOUS
100
AcDbLine
 10
21.15337423736015
 20
5.845519033353452
 30
0.0
 11
20.10441691790406
 21
6.894476352809547
 31
0.0
  0
LINE
  5
FE8E
330
FE42
100
AcDbEntity
  8
0
  6
CONTINUOUS
100
AcDbLine
 10
21.35295498813529
 20
6.319457491658505
 30
0.0
 11
20.30394142553566
 21
7.368471054258134
 31
0.0
  0
LINE
  5
FE8F
330
FE42
100
AcDbEntity
  8
0
  6
CONTINUOUS
100
AcDbLine
 10
21.55253573891042
 20
6.793395949963558
 30
0.0
 11
20.50346593316726
 21
7.842465755706721
 31
0.0
  0
LINE
  5
FE90
330
FE42
100
AcDbEntity
  8
0
  6
CONTINUOUS
100
AcDbLine
 10
21.75211648968556
 20
7.267334408268612
 30
0.0
 11
20.70299044079886
 21
8.316460457155308
 31
0.0
  0
LINE
  5
FE91
330
FE42
100
AcDbEntity
  8
0
  6
CONTINUOUS
100
AcDbLine
 10
21.95169724046069
 20
7.741272866573663
 30
0.0
 11
20.9298701070431
 21
8.763099999991256
 31
0.0
  0
LINE
  5
FE92
330
FE42
100
AcDbEntity
  8
0
  6
CONTINUOUS
100
AcDbLine
 10
22.15127799123582
 20
8.215211324878716
 30
0.0
 11
21.60338931612328
 21
8.763099999991256
 31
0.0
  0
LINE
  5
FE93
330
FE42
100
AcDbEntity
  8
0
  6
CONTINUOUS
100
AcDbLine
 10
22.35085874201096
 20
8.689149783183769
 30
0.0
 11
22.27690852520347
 21
8.763099999991255
 31
0.0
  0
ENDBLK
  5
FF85
330
FE42
100
AcDbEntity
  8
0
100
AcDbBlockEnd
  0
BLOCK
  5
FF86
330
FE94
100
AcDbEntity
  8
0
100
AcDbBlockBegin
  2
*X23
 70
     1
 10
0.0
 20
0.0
 30
0.0
  3
*X23
  1

  0
LINE
  5
FE95
330
FE94
100
AcDbEntity
  8
0
  6
CONTINUOUS
100
AcDbLine
 10
23.19462913593892
 20
8.169917934846424
 30
0.0
 11
23.70775465517246
 21
8.683043454079957
 31
0.0
  0
LINE
  5
FE96
330
FE94
100
AcDbEntity
  8
0
  6
CONTINUOUS
100
AcDbLine
 10
22.64923161835078
 20
6.951001208178088
 30
0.0
 11
23.9159364069932
 21
8.217705996820516
 31
0.0
  0
LINE
  5
FE97
330
FE94
100
AcDbEntity
  8
0
  6
CONTINUOUS
100
AcDbLine
 10
22.10383410076263
 20
5.732084481509751
 30
0.0
 11
24.12411815881395
 21
7.752368539561078
 31
0.0
  0
LINE
  5
FE98
330
FE94
100
AcDbEntity
  8
0
  6
CONTINUOUS
100
AcDbLine
 10
21.55843658317447
 20
4.513167754841414
 30
0.0
 11
24.3322999106347
 21
7.287031082301639
 31
0.0
  0
LINE
  5
FE99
330
FE94
100
AcDbEntity
  8
0
  6
CONTINUOUS
100
AcDbLine
 10
21.01303906558632
 20
3.294251028173077
 30
0.0
 11
24.54048166245544
 21
6.821693625042199
 31
0.0
  0
LINE
  5
FE9A
330
FE94
100
AcDbEntity
  8
0
  6
CONTINUOUS
100
AcDbLine
 10
20.46764154799817
 20
2.075334301504738
 30
0.0
 11
23.28571549467848
 21
4.89340824818505
 31
0.0
  0
LINE
  5
FE9B
330
FE94
100
AcDbEntity
  8
0
  6
CONTINUOUS
100
AcDbLine
 10
19.92224403041002
 20
0.8564175748364002
 30
0.0
 11
22.74075865492779
 21
3.674932199354171
 31
0.0
  0
LINE
  5
FE9C
330
FE94
100
AcDbEntity
  8
0
  6
CONTINUOUS
100
AcDbLine
 10
23.67305085490148
 20
5.280743608408048
 30
0.0
 11
24.74866341427619
 21
6.356356167782759
 31
0.0
  0
LINE
  5
FE9D
330
FE94
100
AcDbEntity
  8
0
  6
CONTINUOUS
100
AcDbLine
 10
23.88118970842314
 20
4.815363252849522
 30
0.0
 11
24.95684516609694
 21
5.89101871052332
 31
0.0
  0
LINE
  5
FE9E
330
FE94
100
AcDbEntity
  8
0
  6
CONTINUOUS
100
AcDbLine
 10
19.73925852647308
 20
-0.0000871381807288
 30
0.0
 11
23.4103456646501
 21
3.670999999996297
 31
0.0
  0
LINE
  5
FE9F
330
FE94
100
AcDbEntity
  8
0
  6
CONTINUOUS
100
AcDbLine
 10
24.0893285619448
 20
4.349982897290997
 30
0.0
 11
25.16502691791769
 21
5.42568125326388
 31
0.0
  0
LINE
  5
FEA0
330
FE94
100
AcDbEntity
  8
0
  6
CONTINUOUS
100
AcDbLine
 10
20.41282099582748
 20
-0.0000438779065108
 30
0.0
 11
21.64944178675636
 21
1.236576913022366
 31
0.0
  0
LINE
  5
FEA1
330
FE94
100
AcDbEntity
  8
0
  6
CONTINUOUS
100
AcDbLine
 10
22.78126487373161
 20
2.36839999999762
 30
0.0
 11
24.08386487373029
 21
3.670999999996297
 31
0.0
  0
LINE
  5
FEA2
330
FE94
100
AcDbEntity
  8
0
  6
CONTINUOUS
100
AcDbLine
 10
24.29746741546646
 20
3.884602541732471
 30
0.0
 11
25.37320866973843
 21
4.960343796004441
 31
0.0
  0
LINE
  5
FEA3
330
FE94
100
AcDbEntity
  8
0
  6
CONTINUOUS
100
AcDbLine
 10
21.08638346518189
 20
-0.0000006176322938
 30
0.0
 11
21.10379033335899
 21
0.0174062505448083
 31
0.0
  0
LINE
  5
FEA4
330
FE94
100
AcDbEntity
  8
0
  6
CONTINUOUS
100
AcDbLine
 10
23.4547840828118
 20
2.36839999999762
 30
0.0
 11
25.58139042155918
 21
4.495006338745002
 31
0.0
  0
LINE
  5
FEA5
330
FE94
100
AcDbEntity
  8
0
  6
CONTINUOUS
100
AcDbLine
 10
29.30199999996933
 20
8.215615917155148
 30
0.0
 11
29.84948408280543
 21
8.763099999991255
 31
0.0
  0
LINE
  5
FEA6
330
FE94
100
AcDbEntity
  8
0
  6
CONTINUOUS
100
AcDbLine
 10
24.12830329189199
 20
2.36839999999762
 30
0.0
 11
25.78957217337993
 21
4.029668881485562
 31
0.0
  0
LINE
  5
FEA7
330
FE94
100
AcDbEntity
  8
0
  6
CONTINUOUS
100
AcDbLine
 10
29.30199999996933
 20
7.54209670807496
 30
0.0
 11
30.52300329188562
 21
8.763099999991255
 31
0.0
  0
LINE
  5
FEA8
330
FE94
100
AcDbEntity
  8
0
  6
CONTINUOUS
100
AcDbLine
 10
24.80182250097217
 20
2.36839999999762
 30
0.0
 11
25.99775392520067
 21
3.564331424226122
 31
0.0
  0
LINE
  5
FEA9
330
FE94
100
AcDbEntity
  8
0
  6
CONTINUOUS
100
AcDbLine
 10
29.30199999996933
 20
6.868577498994774
 30
0.0
 11
30.74199999996926
 21
8.308577498994712
 31
0.0
  0
LINE
  5
FEAA
330
FE94
100
AcDbEntity
  8
0
  6
CONTINUOUS
100
AcDbLine
 10
25.13028238392013
 20
2.023340673865392
 30
0.0
 11
26.20593567702142
 21
3.098993966966683
 31
0.0
  0
LINE
  5
FEAB
330
FE94
100
AcDbEntity
  8
0
  6
CONTINUOUS
100
AcDbLine
 10
25.33838066033617
 20
1.557919741201244
 30
0.0
 11
26.41411742884217
 21
2.633656509707244
 31
0.0
  0
LINE
  5
FEAC
330
FE94
100
AcDbEntity
  8
0
  6
CONTINUOUS
100
AcDbLine
 10
25.54647893675221
 20
1.092498808537098
 30
0.0
 11
26.62229918066291
 21
2.168319052447804
 31
0.0
  0
LINE
  5
FEAD
330
FE94
100
AcDbEntity
  8
0
  6
CONTINUOUS
100
AcDbLine
 10
25.75457721316825
 20
0.62707787587295
 30
0.0
 11
26.83048093248366
 21
1.702981595188365
 31
0.0
  0
LINE
  5
FEAE
330
FE94
100
AcDbEntity
  8
0
  6
CONTINUOUS
100
AcDbLine
 10
29.30199999996933
 20
6.195058289914587
 30
0.0
 11
30.74199999996926
 21
7.635058289914522
 31
0.0
  0
LINE
  5
FEAF
330
FE94
100
AcDbEntity
  8
0
  6
CONTINUOUS
100
AcDbLine
 10
29.30199999996933
 20
5.521539080834401
 30
0.0
 11
30.74199999996926
 21
6.961539080834331
 31
0.0
  0
LINE
  5
FEB0
330
FE94
100
AcDbEntity
  8
0
  6
CONTINUOUS
100
AcDbLine
 10
29.30199999996933
 20
4.848019871754214
 30
0.0
 11
30.74199999996925
 21
6.288019871754143
 31
0.0
  0
LINE
  5
FEB1
330
FE94
100
AcDbEntity
  8
0
  6
CONTINUOUS
100
AcDbLine
 10
29.30199999996933
 20
4.174500662674028
 30
0.0
 11
30.74199999996925
 21
5.614500662673953
 31
0.0
  0
LINE
  5
FEB2
330
FE94
100
AcDbEntity
  8
0
  6
CONTINUOUS
100
AcDbLine
 10
25.96267548958429
 20
0.1616569432088024
 30
0.0
 11
27.18411854636669
 21
1.383099999991207
 31
0.0
  0
LINE
  5
FEB3
330
FE94
100
AcDbEntity
  8
0
  6
CONTINUOUS
100
AcDbLine
 10
29.30199999996933
 20
3.500981453593841
 30
0.0
 11
30.74199999996925
 21
4.940981453593762
 31
0.0
  0
LINE
  5
FEB4
330
FE94
100
AcDbEntity
  8
0
  6
CONTINUOUS
100
AcDbLine
 10
26.50763775544691
 20
0.0330999999912356
 30
0.0
 11
27.85763775544689
 21
1.383099999991223
 31
0.0
  0
LINE
  5
FEB5
330
FE94
100
AcDbEntity
  8
0
  6
CONTINUOUS
100
AcDbLine
 10
29.30199999996933
 20
2.827462244513656
 30
0.0
 11
30.74199999996925
 21
4.267462244513574
 31
0.0
  0
LINE
  5
FEB6
330
FE94
100
AcDbEntity
  8
0
  6
CONTINUOUS
100
AcDbLine
 10
27.18115696452709
 20
0.0330999999912356
 30
0.0
 11
28.55073879889363
 21
1.402681834357775
 31
0.0
  0
LINE
  5
FEB7
330
FE94
100
AcDbEntity
  8
0
  6
CONTINUOUS
100
AcDbLine
 10
29.28241816560272
 20
2.134361201066866
 30
0.0
 11
30.74199999996924
 21
3.593943035433383
 31
0.0
  0
LINE
  5
FEB8
330
FE94
100
AcDbEntity
  8
0
  6
CONTINUOUS
100
AcDbLine
 10
27.85467617360728
 20
0.0330999999912356
 30
0.0
 11
30.74199999996924
 21
2.920423826353195
 31
0.0
  0
LINE
  5
FEB9
330
FE94
100
AcDbEntity
  8
0
  6
CONTINUOUS
100
AcDbLine
 10
28.53897559587887
 20
0.0438802131826428
 30
0.0
 11
30.73121978677781
 21
2.236124404081585
 31
0.0
  0
LINE
  5
FEBA
330
FE94
100
AcDbEntity
  8
0
  6
CONTINUOUS
100
AcDbLine
 10
29.45140055588722
 20
0.2827859641107988
 30
0.0
 11
30.49231403584965
 21
1.323699444073236
 31
0.0
  0
LINE
  5
FEBB
330
FE94
100
AcDbEntity
  8
0
  6
CONTINUOUS
100
AcDbLine
 10
19.59027867740337
 20
-0.0000967065718083
 30
0.0
 11
19.55485265190471
 21
0.035329318926844
 31
0.0
  0
LINE
  5
FEBC
330
FE94
100
AcDbEntity
  8
0
  6
CONTINUOUS
100
AcDbLine
 10
20.26375463176586
 20
-0.0000534518541091
 30
0.0
 11
19.76305575737534
 21
0.5006454225364014
 31
0.0
  0
LINE
  5
FEBD
330
FE94
100
AcDbEntity
  8
0
  6
CONTINUOUS
100
AcDbLine
 10
20.93723058612834
 20
-0.0000101971364099
 30
0.0
 11
19.97125886284597
 21
0.965961526145958
 31
0.0
  0
LINE
  5
FEBE
330
FE94
100
AcDbEntity
  8
0
  6
CONTINUOUS
100
AcDbLine
 10
21.25514828313686
 20
0.355591314935257
 30
0.0
 11
20.1794619683166
 21
1.431277629755512
 31
0.0
  0
LINE
  5
FEBF
330
FE94
100
AcDbEntity
  8
0
  6
CONTINUOUS
100
AcDbLine
 10
21.46338838394921
 20
0.8208704232030986
 30
0.0
 11
20.38766507378723
 21
1.896593733365069
 31
0.0
  0
LINE
  5
FEC0
330
FE94
100
AcDbEntity
  8
0
  6
CONTINUOUS
100
AcDbLine
 10
21.67162848476155
 20
1.28614953147094
 30
0.0
 11
20.59586817925786
 21
2.361909836974626
 31
0.0
  0
LINE
  5
FEC1
330
FE94
100
AcDbEntity
  8
0
  6
CONTINUOUS
100
AcDbLine
 10
21.8798685855739
 20
1.751428639738782
 30
0.0
 11
20.80407128472849
 21
2.827225940584183
 31
0.0
  0
LINE
  5
FEC2
330
FE94
100
AcDbEntity
  8
0
  6
CONTINUOUS
100
AcDbLine
 10
22.08810868638624
 20
2.216707748006623
 30
0.0
 11
21.01227439019912
 21
3.292542044193739
 31
0.0
  0
LINE
  5
FEC3
330
FE94
100
AcDbEntity
  8
0
  6
CONTINUOUS
100
AcDbLine
 10
22.60993564347543
 20
2.36839999999762
 30
0.0
 11
21.22047749566975
 21
3.757858147803296
 31
0.0
  0
LINE
  5
FEC4
330
FE94
100
AcDbEntity
  8
0
  6
CONTINUOUS
100
AcDbLine
 10
23.28345485255561
 20
2.36839999999762
 30
0.0
 11
21.42868060114038
 21
4.223174251412853
 31
0.0
  0
LINE
  5
FEC5
330
FE94
100
AcDbEntity
  8
0
  6
CONTINUOUS
100
AcDbLine
 10
26.29227406164219
 20
0.0330999999912356
 30
0.0
 11
25.80009199592872
 21
0.5252820657046957
 31
0.0
  0
LINE
  5
FEC6
330
FE94
100
AcDbEntity
  8
0
  6
CONTINUOUS
100
AcDbLine
 10
23.9569740616358
 20
2.36839999999762
 30
0.0
 11
21.63688370661101
 21
4.688490355022409
 31
0.0
  0
LINE
  5
FEC7
330
FE94
100
AcDbEntity
  8
0
  6
CONTINUOUS
100
AcDbLine
 10
26.96579327072237
 20
0.0330999999912356
 30
0.0
 11
25.2554132311971
 21
1.743480039516508
 31
0.0
  0
LINE
  5
FEC8
330
FE94
100
AcDbEntity
  8
0
  6
CONTINUOUS
100
AcDbLine
 10
24.63049327071599
 20
2.36839999999762
 30
0.0
 11
23.32789327071731
 21
3.670999999996297
 31
0.0
  0
LINE
  5
FEC9
330
FE94
100
AcDbEntity
  8
0
  6
CONTINUOUS
100
AcDbLine
 10
22.92098674744635
 20
4.077906523267254
 30
0.0
 11
21.84508681208164
 21
5.153806458631966
 31
0.0
  0
LINE
  5
FECA
330
FE94
100
AcDbEntity
  8
0
  6
CONTINUOUS
100
AcDbLine
 10
27.63931247980256
 20
0.0330999999912356
 30
0.0
 11
24.0014124797975
 21
3.670999999996297
 31
0.0
  0
LINE
  5
FECB
330
FE94
100
AcDbEntity
  8
0
  6
CONTINUOUS
100
AcDbLine
 10
23.129125600968
 20
4.5432868788258
 30
0.0
 11
22.05328991755227
 21
5.619122562241522
 31
0.0
  0
LINE
  5
FECC
330
FE94
100
AcDbEntity
  8
0
  6
CONTINUOUS
100
AcDbLine
 10
28.31283168888275
 20
0.0330999999912356
 30
0.0
 11
24.16488385994816
 21
4.181047828925828
 31
0.0
  0
LINE
  5
FECD
330
FE94
100
AcDbEntity
  8
0
  6
CONTINUOUS
100
AcDbLine
 10
23.33726445448964
 20
5.008667234384345
 30
0.0
 11
22.2614930230229
 21
6.084438665851079
 31
0.0
  0
LINE
  5
FECE
330
FE94
100
AcDbEntity
  8
0
  6
CONTINUOUS
100
AcDbLine
 10
28.92085740005492
 20
0.0985934978992438
 30
0.0
 11
27.63635089796295
 21
1.383099999991217
 31
0.0
  0
LINE
  5
FECF
330
FE94
100
AcDbEntity
  8
0
  6
CONTINUOUS
100
AcDbLine
 10
26.43704649509776
 20
2.582404402856405
 30
0.0
 11
23.61992702019732
 21
5.399523877756844
 31
0.0
  0
LINE
  5
FED0
330
FE94
100
AcDbEntity
  8
0
  6
CONTINUOUS
100
AcDbLine
 10
23.54540330801128
 20
5.47404758994289
 30
0.0
 11
22.46969612849353
 21
6.549754769460635
 31
0.0
  0
LINE
  5
FED1
330
FE94
100
AcDbEntity
  8
0
  6
CONTINUOUS
100
AcDbLine
 10
29.42225615078443
 20
0.2707139562499279
 30
0.0
 11
28.30987010704312
 21
1.383099999991234
 31
0.0
  0
LINE
  5
FED2
330
FE94
100
AcDbEntity
  8
0
  6
CONTINUOUS
100
AcDbLine
 10
25.89179548232307
 20
3.801174624711282
 30
0.0
 11
22.67789923396416
 21
7.015070873070191
 31
0.0
  0
LINE
  5
FED3
330
FE94
100
AcDbEntity
  8
0
  6
CONTINUOUS
100
AcDbLine
 10
29.83624534690007
 20
0.5302439692144705
 30
0.0
 11
28.85811781497101
 21
1.508371501143527
 31
0.0
  0
LINE
  5
FED4
330
FE94
100
AcDbEntity
  8
0
  6
CONTINUOUS
100
AcDbLine
 10
25.34654446954838
 20
5.01994484656616
 30
0.0
 11
22.88610233943479
 21
7.480386976679748
 31
0.0
  0
LINE
  5
FED5
330
FE94
100
AcDbEntity
  8
0
  6
CONTINUOUS
100
AcDbLine
 10
30.17865975401872
 20
0.8613487711760022
 30
0.0
 11
29.18888744090175
 21
1.851121084292977
 31
0.0
  0
LINE
  5
FED6
330
FE94
100
AcDbEntity
  8
0
  6
CONTINUOUS
100
AcDbLine
 10
24.80129345677369
 20
6.238715068421037
 30
0.0
 11
23.09430544490542
 21
7.945703080289305
 31
0.0
  0
LINE
  5
FED7
330
FE94
100
AcDbEntity
  8
0
  6
CONTINUOUS
100
AcDbLine
 10
30.45496647202376
 20
1.258561262251155
 30
0.0
 11
29.30199999996933
 21
2.411527734305588
 31
0.0
  0
LINE
  5
FED8
330
FE94
100
AcDbEntity
  8
0
  6
CONTINUOUS
100
AcDbLine
 10
24.256042443999
 20
7.457485290275915
 30
0.0
 11
23.30250855037605
 21
8.411019183898862
 31
0.0
  0
LINE
  5
FED9
330
FE94
100
AcDbEntity
  8
0
  6
CONTINUOUS
100
AcDbLine
 10
30.64868582078271
 20
1.738361122572387
 30
0.0
 11
29.30199999996933
 21
3.085046943385775
 31
0.0
  0
LINE
  5
FEDA
330
FE94
100
AcDbEntity
  8
0
  6
CONTINUOUS
100
AcDbLine
 10
23.71079143122431
 20
8.676255512130794
 30
0.0
 11
23.51071165584668
 21
8.876335287508416
 31
0.0
  0
LINE
  5
FEDB
330
FE94
100
AcDbEntity
  8
0
  6
CONTINUOUS
100
AcDbLine
 10
30.73802122914428
 20
2.322544923291007
 30
0.0
 11
29.30199999996933
 21
3.758566152465961
 31
0.0
  0
LINE
  5
FEDC
330
FE94
100
AcDbEntity
  8
0
  6
CONTINUOUS
100
AcDbLine
 10
30.74199999996924
 20
2.992085361546236
 30
0.0
 11
29.30199999996933
 21
4.432085361546148
 31
0.0
  0
LINE
  5
FEDD
330
FE94
100
AcDbEntity
  8
0
  6
CONTINUOUS
100
AcDbLine
 10
30.74199999996924
 20
3.665604570626419
 30
0.0
 11
29.30199999996933
 21
5.105604570626333
 31
0.0
  0
LINE
  5
FEDE
330
FE94
100
AcDbEntity
  8
0
  6
CONTINUOUS
100
AcDbLine
 10
30.74199999996925
 20
4.339123779706602
 30
0.0
 11
29.30199999996933
 21
5.77912377970652
 31
0.0
  0
LINE
  5
FEDF
330
FE94
100
AcDbEntity
  8
0
  6
CONTINUOUS
100
AcDbLine
 10
30.74199999996925
 20
5.012642988786785
 30
0.0
 11
29.30199999996933
 21
6.452642988786707
 31
0.0
  0
LINE
  5
FEE0
330
FE94
100
AcDbEntity
  8
0
  6
CONTINUOUS
100
AcDbLine
 10
30.74199999996925
 20
5.68616219786697
 30
0.0
 11
29.30199999996933
 21
7.126162197866894
 31
0.0
  0
LINE
  5
FEE1
330
FE94
100
AcDbEntity
  8
0
  6
CONTINUOUS
100
AcDbLine
 10
30.74199999996925
 20
6.359681406947153
 30
0.0
 11
29.30199999996933
 21
7.799681406947081
 31
0.0
  0
LINE
  5
FEE2
330
FE94
100
AcDbEntity
  8
0
  6
CONTINUOUS
100
AcDbLine
 10
30.74199999996926
 20
7.033200616027337
 30
0.0
 11
29.30199999996933
 21
8.473200616027269
 31
0.0
  0
LINE
  5
FEE3
330
FE94
100
AcDbEntity
  8
0
  6
CONTINUOUS
100
AcDbLine
 10
30.74199999996926
 20
7.706719825107518
 30
0.0
 11
29.68561982508552
 21
8.763099999991255
 31
0.0
  0
LINE
  5
FEE4
330
FE94
100
AcDbEntity
  8
0
  6
CONTINUOUS
100
AcDbLine
 10
30.74199999996926
 20
8.380239034187703
 30
0.0
 11
30.35913903416571
 21
8.763099999991255
 31
0.0
  0
ENDBLK
  5
FF87
330
FE94
100
AcDbEntity
  8
0
100
AcDbBlockEnd
  0
BLOCK
  5
FF88
330
FEE5
100
AcDbEntity
  8
0
100
AcDbBlockBegin
  2
*X24
 70
     1
 10
0.0
 20
0.0
 30
0.0
  3
*X24
  1

  0
LINE
  5
FEE6
330
FEE5
100
AcDbEntity
  8
0
  6
CONTINUOUS
100
AcDbLine
 10
31.64199999996833
 20
8.535058289913598
 30
0.0
 11
31.87004171004599
 21
8.763099999991255
 31
0.0
  0
LINE
  5
FEE7
330
FEE5
100
AcDbEntity
  8
0
  6
CONTINUOUS
100
AcDbLine
 10
31.64199999996833
 20
7.861539080833412
 30
0.0
 11
32.54356091912618
 21
8.763099999991255
 31
0.0
  0
LINE
  5
FEE8
330
FEE5
100
AcDbEntity
  8
0
  6
CONTINUOUS
100
AcDbLine
 10
31.64199999996833
 20
7.188019871753226
 30
0.0
 11
33.08199999996839
 21
8.628019871753281
 31
0.0
  0
LINE
  5
FEE9
330
FEE5
100
AcDbEntity
  8
0
  6
CONTINUOUS
100
AcDbLine
 10
31.64199999996833
 20
6.51450066267304
 30
0.0
 11
33.08199999996839
 21
7.954500662673095
 31
0.0
  0
LINE
  5
FEEA
330
FEE5
100
AcDbEntity
  8
0
  6
CONTINUOUS
100
AcDbLine
 10
31.64199999996833
 20
5.840981453592853
 30
0.0
 11
33.08199999996839
 21
7.280981453592908
 31
0.0
  0
LINE
  5
FEEB
330
FEE5
100
AcDbEntity
  8
0
  6
CONTINUOUS
100
AcDbLine
 10
31.64199999996833
 20
5.167462244512667
 30
0.0
 11
33.08199999996839
 21
6.607462244512721
 31
0.0
  0
LINE
  5
FEEC
330
FEE5
100
AcDbEntity
  8
0
  6
CONTINUOUS
100
AcDbLine
 10
31.64199999996833
 20
4.493943035432481
 30
0.0
 11
33.08199999996839
 21
5.933943035432535
 31
0.0
  0
LINE
  5
FEED
330
FEE5
100
AcDbEntity
  8
0
  6
CONTINUOUS
100
AcDbLine
 10
31.64199999996833
 20
3.820423826352293
 30
0.0
 11
33.08199999996839
 21
5.260423826352348
 31
0.0
  0
LINE
  5
FEEE
330
FEE5
100
AcDbEntity
  8
0
  6
CONTINUOUS
100
AcDbLine
 10
31.64199999996833
 20
3.146904617272106
 30
0.0
 11
33.08199999996839
 21
4.586904617272161
 31
0.0
  0
LINE
  5
FEEF
330
FEE5
100
AcDbEntity
  8
0
  6
CONTINUOUS
100
AcDbLine
 10
36.23199999996837
 20
8.410423826352325
 30
0.0
 11
36.5846761736073
 21
8.763099999991255
 31
0.0
  0
LINE
  5
FEF0
330
FEE5
100
AcDbEntity
  8
0
  6
CONTINUOUS
100
AcDbLine
 10
36.23199999996837
 20
7.73690461727214
 30
0.0
 11
37.25819538268748
 21
8.763099999991255
 31
0.0
  0
LINE
  5
FEF1
330
FEE5
100
AcDbEntity
  8
0
  6
CONTINUOUS
100
AcDbLine
 10
31.64257403601376
 20
2.473959444237348
 30
0.0
 11
33.08199999996839
 21
3.913385408191974
 31
0.0
  0
LINE
  5
FEF2
330
FEE5
100
AcDbEntity
  8
0
  6
CONTINUOUS
100
AcDbLine
 10
36.23199999996837
 20
7.063385408191953
 30
0.0
 11
37.67199999996831
 21
8.503385408191894
 31
0.0
  0
LINE
  5
FEF3
330
FEE5
100
AcDbEntity
  8
0
  6
CONTINUOUS
100
AcDbLine
 10
31.72013636841932
 20
1.87800256756272
 30
0.0
 11
33.08199999996839
 21
3.239866199111788
 31
0.0
  0
LINE
  5
FEF4
330
FEE5
100
AcDbEntity
  8
0
  6
CONTINUOUS
100
AcDbLine
 10
36.23199999996837
 20
6.389866199111767
 30
0.0
 11
37.67199999996831
 21
7.829866199111708
 31
0.0
  0
LINE
  5
FEF5
330
FEE5
100
AcDbEntity
  8
0
  6
CONTINUOUS
100
AcDbLine
 10
31.89042734314753
 20
1.374774333210744
 30
0.0
 11
33.08199999996839
 21
2.566346990031601
 31
0.0
  0
LINE
  5
FEF6
330
FEE5
100
AcDbEntity
  8
0
  6
CONTINUOUS
100
AcDbLine
 10
36.23199999996837
 20
5.71634699003158
 30
0.0
 11
37.67199999996831
 21
7.156346990031521
 31
0.0
  0
LINE
  5
FEF7
330
FEE5
100
AcDbEntity
  8
0
  6
CONTINUOUS
100
AcDbLine
 10
32.14210568064475
 20
0.952933461627778
 30
0.0
 11
33.18745552475986
 21
1.998283305742888
 31
0.0
  0
LINE
  5
FEF8
330
FEE5
100
AcDbEntity
  8
0
  6
CONTINUOUS
100
AcDbLine
 10
36.23199999996837
 20
5.042827780951393
 30
0.0
 11
37.67199999996831
 21
6.482827780951334
 31
0.0
  0
LINE
  5
FEF9
330
FEE5
100
AcDbEntity
  8
0
  6
CONTINUOUS
100
AcDbLine
 10
32.45820639400955
 20
0.5955149659123915
 30
0.0
 11
33.47242681921943
 21
1.60973539112227
 31
0.0
  0
LINE
  5
FEFA
330
FEE5
100
AcDbEntity
  8
0
  6
CONTINUOUS
100
AcDbLine
 10
36.23199999996837
 20
4.369308571871207
 30
0.0
 11
37.67199999996831
 21
5.809308571871147
 31
0.0
  0
LINE
  5
FEFB
330
FEE5
100
AcDbEntity
  8
0
  6
CONTINUOUS
100
AcDbLine
 10
32.83432456621412
 20
0.2981139290367771
 30
0.0
 11
33.89722476612215
 21
1.361014128944803
 31
0.0
  0
LINE
  5
FEFC
330
FEE5
100
AcDbEntity
  8
0
  6
CONTINUOUS
100
AcDbLine
 10
36.23199999996837
 20
3.69578936279102
 30
0.0
 11
37.67199999996831
 21
5.135789362790962
 31
0.0
  0
LINE
  5
FEFD
330
FEE5
100
AcDbEntity
  8
0
  6
CONTINUOUS
100
AcDbLine
 10
33.2711633111245
 20
0.0614334648669672
 30
0.0
 11
34.43247338014423
 21
1.222743533886696
 31
0.0
  0
LINE
  5
FEFE
330
FEE5
100
AcDbEntity
  8
0
  6
CONTINUOUS
100
AcDbLine
 10
36.23199999996837
 20
3.022270153710834
 30
0.0
 11
37.67199999996831
 21
4.462270153710775
 31
0.0
  0
LINE
  5
FEFF
330
FEE5
100
AcDbEntity
  8
0
  6
CONTINUOUS
100
AcDbLine
 10
33.76515245874577
 20
-0.1180965965919523
 30
0.0
 11
35.1587445516215
 21
1.27549549628378
 31
0.0
  0
LINE
  5
FF00
330
FEE5
100
AcDbEntity
  8
0
  6
CONTINUOUS
100
AcDbLine
 10
36.21639478609585
 20
2.333145730758136
 30
0.0
 11
37.67199999996831
 21
3.788750944630588
 31
0.0
  0
LINE
  5
FF01
330
FEE5
100
AcDbEntity
  8
0
  6
CONTINUOUS
100
AcDbLine
 10
34.34060583368432
 20
-0.2161624307335863
 30
0.0
 11
37.67199999996831
 21
3.115231735550401
 31
0.0
  0
LINE
  5
FF02
330
FEE5
100
AcDbEntity
  8
0
  6
CONTINUOUS
100
AcDbLine
 10
35.01698193613905
 20
-0.2133055373590427
 30
0.0
 11
37.66876712070525
 21
2.438479647207154
 31
0.0
  0
LINE
  5
FF03
330
FEE5
100
AcDbEntity
  8
0
  6
CONTINUOUS
100
AcDbLine
 10
35.90743367693304
 20
0.0036269943547609
 30
0.0
 11
37.51723902192366
 21
1.613432339345381
 31
0.0
  0
LINE
  5
FF04
330
FEE5
100
AcDbEntity
  8
0
  6
CONTINUOUS
100
AcDbLine
 10
32.55309425579761
 20
0.5074718966376706
 30
0.0
 11
32.27784730925847
 21
0.7827188431768102
 31
0.0
  0
LINE
  5
FF05
330
FEE5
100
AcDbEntity
  8
0
  6
CONTINUOUS
100
AcDbLine
 10
33.87496468909684
 20
-0.1408793275813673
 30
0.0
 11
31.67993083278052
 21
2.054154528734943
 31
0.0
  0
LINE
  5
FF06
330
FEE5
100
AcDbEntity
  8
0
  6
CONTINUOUS
100
AcDbLine
 10
34.64362813207632
 20
-0.2360235614806649
 30
0.0
 11
31.64199999996833
 21
2.765604570627322
 31
0.0
  0
LINE
  5
FF07
330
FEE5
100
AcDbEntity
  8
0
  6
CONTINUOUS
100
AcDbLine
 10
35.25801106796118
 20
-0.1768872882853429
 30
0.0
 11
31.64199999996833
 21
3.439123779707508
 31
0.0
  0
LINE
  5
FF08
330
FEE5
100
AcDbEntity
  8
0
  6
CONTINUOUS
100
AcDbLine
 10
35.79065650332146
 20
-0.0360135145654361
 30
0.0
 11
34.54143210838231
 21
1.213210880373721
 31
0.0
  0
LINE
  5
FF09
330
FEE5
100
AcDbEntity
  8
0
  6
CONTINUOUS
100
AcDbLine
 10
33.08199999996839
 20
2.67264298878764
 30
0.0
 11
31.64199999996833
 21
4.112642988787695
 31
0.0
  0
LINE
  5
FF0A
330
FEE5
100
AcDbEntity
  8
0
  6
CONTINUOUS
100
AcDbLine
 10
36.25975597779143
 20
0.1684062200447833
 30
0.0
 11
35.15395110240023
 21
1.274211095435983
 31
0.0
  0
LINE
  5
FF0B
330
FEE5
100
AcDbEntity
  8
0
  6
CONTINUOUS
100
AcDbLine
 10
33.08199999996839
 20
3.346162197867826
 30
0.0
 11
31.64199999996833
 21
4.786162197867881
 31
0.0
  0
LINE
  5
FF0C
330
FEE5
100
AcDbEntity
  8
0
  6
CONTINUOUS
100
AcDbLine
 10
36.67226329638774
 20
0.4294181105286579
 30
0.0
 11
35.63766478748767
 21
1.464016619428737
 31
0.0
  0
LINE
  5
FF0D
330
FEE5
100
AcDbEntity
  8
0
  6
CONTINUOUS
100
AcDbLine
 10
33.08199999996839
 20
4.019681406948012
 30
0.0
 11
31.64199999996833
 21
5.459681406948068
 31
0.0
  0
LINE
  5
FF0E
330
FEE5
100
AcDbEntity
  8
0
  6
CONTINUOUS
100
AcDbLine
 10
37.01677749710036
 20
0.7584231188962329
 30
0.0
 11
35.99563422741351
 21
1.779566388583076
 31
0.0
  0
LINE
  5
FF0F
330
FEE5
100
AcDbEntity
  8
0
  6
CONTINUOUS
100
AcDbLine
 10
33.08199999996839
 20
4.693200616028199
 30
0.0
 11
31.64199999996833
 21
6.133200616028255
 31
0.0
  0
LINE
  5
FF10
330
FEE5
100
AcDbEntity
  8
0
  6
CONTINUOUS
100
AcDbLine
 10
37.29859977568887
 20
1.1501200493879
 30
0.0
 11
36.20680593341555
 21
2.241913891661226
 31
0.0
  0
LINE
  5
FF11
330
FEE5
100
AcDbEntity
  8
0
  6
CONTINUOUS
100
AcDbLine
 10
33.08199999996839
 20
5.366719825108386
 30
0.0
 11
31.64199999996833
 21
6.80671982510844
 31
0.0
  0
LINE
  5
FF12
330
FEE5
100
AcDbEntity
  8
0
  6
CONTINUOUS
100
AcDbLine
 10
37.5148623517228
 20
1.607376682434161
 30
0.0
 11
36.23199999996837
 21
2.890239034188594
 31
0.0
  0
LINE
  5
FF13
330
FEE5
100
AcDbEntity
  8
0
  6
CONTINUOUS
100
AcDbLine
 10
33.08199999996839
 20
6.040239034188573
 30
0.0
 11
31.64199999996833
 21
7.480239034188627
 31
0.0
  0
LINE
  5
FF14
330
FEE5
100
AcDbEntity
  8
0
  6
CONTINUOUS
100
AcDbLine
 10
37.64705163358367
 20
2.148706609653477
 30
0.0
 11
36.23199999996837
 21
3.56375824326878
 31
0.0
  0
LINE
  5
FF15
330
FEE5
100
AcDbEntity
  8
0
  6
CONTINUOUS
100
AcDbLine
 10
33.08199999996839
 20
6.713758243268758
 30
0.0
 11
31.64199999996833
 21
8.153758243268815
 31
0.0
  0
LINE
  5
FF16
330
FEE5
100
AcDbEntity
  8
0
  6
CONTINUOUS
100
AcDbLine
 10
37.67199999996831
 20
2.797277452349026
 30
0.0
 11
36.23199999996837
 21
4.237277452348967
 31
0.0
  0
LINE
  5
FF17
330
FEE5
100
AcDbEntity
  8
0
  6
CONTINUOUS
100
AcDbLine
 10
37.67199999996831
 20
3.470796661429213
 30
0.0
 11
36.23199999996837
 21
4.910796661429154
 31
0.0
  0
LINE
  5
FF18
330
FEE5
100
AcDbEntity
  8
0
  6
CONTINUOUS
100
AcDbLine
 10
37.67199999996831
 20
4.144315870509399
 30
0.0
 11
36.23199999996837
 21
5.58431587050934
 31
0.0
  0
LINE
  5
FF19
330
FEE5
100
AcDbEntity
  8
0
  6
CONTINUOUS
100
AcDbLine
 10
33.08199999996839
 20
7.387277452348945
 30
0.0
 11
31.70617745232608
 21
8.763099999991255
 31
0.0
  0
LINE
  5
FF1A
330
FEE5
100
AcDbEntity
  8
0
  6
CONTINUOUS
100
AcDbLine
 10
33.08199999996839
 20
8.060796661429132
 30
0.0
 11
32.37969666140626
 21
8.763099999991255
 31
0.0
  0
LINE
  5
FF1B
330
FEE5
100
AcDbEntity
  8
0
  6
CONTINUOUS
100
AcDbLine
 10
33.08199999996839
 20
8.734315870509318
 30
0.0
 11
33.05321587048645
 21
8.763099999991255
 31
0.0
  0
LINE
  5
FF1C
330
FEE5
100
AcDbEntity
  8
0
  6
CONTINUOUS
100
AcDbLine
 10
37.67199999996831
 20
4.817835079589585
 30
0.0
 11
36.23199999996837
 21
6.257835079589526
 31
0.0
  0
LINE
  5
FF1D
330
FEE5
100
AcDbEntity
  8
0
  6
CONTINUOUS
100
AcDbLine
 10
37.67199999996831
 20
5.491354288669771
 30
0.0
 11
36.23199999996837
 21
6.931354288669713
 31
0.0
  0
LINE
  5
FF1E
330
FEE5
100
AcDbEntity
  8
0
  6
CONTINUOUS
100
AcDbLine
 10
37.67199999996831
 20
6.164873497749958
 30
0.0
 11
36.23199999996837
 21
7.6048734977499
 31
0.0
  0
LINE
  5
FF1F
330
FEE5
100
AcDbEntity
  8
0
  6
CONTINUOUS
100
AcDbLine
 10
37.67199999996831
 20
6.838392706830144
 30
0.0
 11
36.23199999996837
 21
8.278392706830086
 31
0.0
  0
LINE
  5
FF20
330
FEE5
100
AcDbEntity
  8
0
  6
CONTINUOUS
100
AcDbLine
 10
37.67199999996831
 20
7.511911915910332
 30
0.0
 11
36.42081191588738
 21
8.763099999991255
 31
0.0
  0
LINE
  5
FF21
330
FEE5
100
AcDbEntity
  8
0
  6
CONTINUOUS
100
AcDbLine
 10
37.67199999996831
 20
8.185431124990519
 30
0.0
 11
37.09433112496757
 21
8.763099999991255
 31
0.0
  0
ENDBLK
  5
FF89
330
FEE5
100
AcDbEntity
  8
0
100
AcDbBlockEnd
  0
BLOCK
  5
FF8A
330
FF22
100
AcDbEntity
  8
0
100
AcDbBlockBegin
  2
*X25
 70
     1
 10
0.0
 20
0.0
 30
0.0
  3
*X25
  1

  0
LINE
  5
FF23
330
FF22
100
AcDbEntity
  8
0
  6
CONTINUOUS
100
AcDbLine
 10
38.60499999996136
 20
8.762866199104765
 30
0.0
 11
38.71672554182345
 21
8.874591740966855
 31
0.0
  0
LINE
  5
FF24
330
FF22
100
AcDbEntity
  8
0
  6
CONTINUOUS
100
AcDbLine
 10
38.60499999996136
 20
8.089346990024577
 30
0.0
 11
39.03418785440363
 21
8.518534844466847
 31
0.0
  0
LINE
  5
FF25
330
FF22
100
AcDbEntity
  8
0
  6
CONTINUOUS
100
AcDbLine
 10
38.60499999996136
 20
7.41582778094439
 30
0.0
 11
39.35165016698382
 21
8.16247794796684
 31
0.0
  0
LINE
  5
FF26
330
FF22
100
AcDbEntity
  8
0
  6
CONTINUOUS
100
AcDbLine
 10
38.60499999996136
 20
6.742308571864204
 30
0.0
 11
39.66911247956399
 21
7.806421051466834
 31
0.0
  0
LINE
  5
FF27
330
FF22
100
AcDbEntity
  8
0
  6
CONTINUOUS
100
AcDbLine
 10
38.60499999996136
 20
6.068789362784018
 30
0.0
 11
39.98657479214418
 21
7.450364154966827
 31
0.0
  0
LINE
  5
FF28
330
FF22
100
AcDbEntity
  8
0
  6
CONTINUOUS
100
AcDbLine
 10
38.60499999996136
 20
5.395270153703832
 30
0.0
 11
40.30403710472435
 21
7.09430725846682
 31
0.0
  0
LINE
  5
FF29
330
FF22
100
AcDbEntity
  8
0
  6
CONTINUOUS
100
AcDbLine
 10
38.60499999996136
 20
4.721750944623645
 30
0.0
 11
40.62149941730453
 21
6.738250361966813
 31
0.0
  0
LINE
  5
FF2A
330
FF22
100
AcDbEntity
  8
0
  6
CONTINUOUS
100
AcDbLine
 10
38.60499999996136
 20
4.048231735543458
 30
0.0
 11
40.93896172988471
 21
6.382193465466806
 31
0.0
  0
LINE
  5
FF2B
330
FF22
100
AcDbEntity
  8
0
  6
CONTINUOUS
100
AcDbLine
 10
38.60499999996136
 20
3.374712526463272
 30
0.0
 11
40.02599999995994
 21
4.795712526461843
 31
0.0
  0
LINE
  5
FF2C
330
FF22
100
AcDbEntity
  8
0
  6
CONTINUOUS
100
AcDbLine
 10
38.60499999996136
 20
2.701193317383085
 30
0.0
 11
40.02599999995994
 21
4.122193317381657
 31
0.0
  0
LINE
  5
FF2D
330
FF22
100
AcDbEntity
  8
0
  6
CONTINUOUS
100
AcDbLine
 10
40.28339754687704
 20
5.053110073378947
 30
0.0
 11
41.25642404246489
 21
6.026136568966799
 31
0.0
  0
LINE
  5
FF2E
330
FF22
100
AcDbEntity
  8
0
  6
CONTINUOUS
100
AcDbLine
 10
40.60085985945722
 20
4.697053176878939
 30
0.0
 11
41.57388635504507
 21
5.670079672466793
 31
0.0
  0
LINE
  5
FF2F
330
FF22
100
AcDbEntity
  8
0
  6
CONTINUOUS
100
AcDbLine
 10
43.57899999995641
 20
8.348712526458318
 30
0.0
 11
43.99338747348935
 21
8.763099999991255
 31
0.0
  0
LINE
  5
FF30
330
FF22
100
AcDbEntity
  8
0
  6
CONTINUOUS
100
AcDbLine
 10
43.57899999995641
 20
7.675193317378131
 30
0.0
 11
44.66690668256953
 21
8.763099999991255
 31
0.0
  0
LINE
  5
FF31
330
FF22
100
AcDbEntity
  8
0
  6
CONTINUOUS
100
AcDbLine
 10
38.60499999996136
 20
2.027674108302898
 30
0.0
 11
40.02599999995994
 21
3.44867410830147
 31
0.0
  0
LINE
  5
FF32
330
FF22
100
AcDbEntity
  8
0
  6
CONTINUOUS
100
AcDbLine
 10
38.60499999996136
 20
1.354154899222712
 30
0.0
 11
40.02599999995994
 21
2.775154899221284
 31
0.0
  0
LINE
  5
FF33
330
FF22
100
AcDbEntity
  8
0
  6
CONTINUOUS
100
AcDbLine
 10
38.60499999996136
 20
0.6806356901425255
 30
0.0
 11
40.02599999995994
 21
2.101635690141098
 31
0.0
  0
LINE
  5
FF34
330
FF22
100
AcDbEntity
  8
0
  6
CONTINUOUS
100
AcDbLine
 10
38.60499999996136
 20
0.0071164810623383
 30
0.0
 11
40.02599999995994
 21
1.428116481060911
 31
0.0
  0
LINE
  5
FF35
330
FF22
100
AcDbEntity
  8
0
  6
CONTINUOUS
100
AcDbLine
 10
40.9183221720374
 20
4.340996280378933
 30
0.0
 11
41.89134866762525
 21
5.314022775966786
 31
0.0
  0
LINE
  5
FF36
330
FF22
100
AcDbEntity
  8
0
  6
CONTINUOUS
100
AcDbLine
 10
41.23578448461758
 20
3.984939383878926
 30
0.0
 11
42.20881098020543
 21
4.957965879466778
 31
0.0
  0
LINE
  5
FF37
330
FF22
100
AcDbEntity
  8
0
  6
CONTINUOUS
100
AcDbLine
 10
41.55324679719776
 20
3.628882487378919
 30
0.0
 11
42.52627329278561
 21
4.601908982966772
 31
0.0
  0
LINE
  5
FF38
330
FF22
100
AcDbEntity
  8
0
  6
CONTINUOUS
100
AcDbLine
 10
41.87070910977793
 20
3.272825590878912
 30
0.0
 11
42.84373560536579
 21
4.245852086466765
 31
0.0
  0
LINE
  5
FF39
330
FF22
100
AcDbEntity
  8
0
  6
CONTINUOUS
100
AcDbLine
 10
43.57899999995641
 20
7.001674108297943
 30
0.0
 11
44.99999999995498
 21
8.422674108296516
 31
0.0
  0
LINE
  5
FF3A
330
FF22
100
AcDbEntity
  8
0
  6
CONTINUOUS
100
AcDbLine
 10
43.57899999995641
 20
6.328154899217758
 30
0.0
 11
44.99999999995498
 21
7.749154899216329
 31
0.0
  0
LINE
  5
FF3B
330
FF22
100
AcDbEntity
  8
0
  6
CONTINUOUS
100
AcDbLine
 10
43.57899999995641
 20
5.654635690137571
 30
0.0
 11
44.99999999995498
 21
7.075635690136142
 31
0.0
  0
LINE
  5
FF3C
330
FF22
100
AcDbEntity
  8
0
  6
CONTINUOUS
100
AcDbLine
 10
43.57899999995641
 20
4.981116481057384
 30
0.0
 11
44.99999999995498
 21
6.402116481055955
 31
0.0
  0
LINE
  5
FF3D
330
FF22
100
AcDbEntity
  8
0
  6
CONTINUOUS
100
AcDbLine
 10
39.27140272797921
 20
-0.0000000000000009
 30
0.0
 11
40.02599999995994
 21
0.7545972719807246
 31
0.0
  0
LINE
  5
FF3E
330
FF22
100
AcDbEntity
  8
0
  6
CONTINUOUS
100
AcDbLine
 10
39.9449219370594
 20
-0.0000000000000009
 30
0.0
 11
40.02599999995994
 21
0.0810780629005379
 31
0.0
  0
LINE
  5
FF3F
330
FF22
100
AcDbEntity
  8
0
  6
CONTINUOUS
100
AcDbLine
 10
42.18817142235812
 20
2.916768694378905
 30
0.0
 11
43.16119791794597
 21
3.889795189966758
 31
0.0
  0
LINE
  5
FF40
330
FF22
100
AcDbEntity
  8
0
  6
CONTINUOUS
100
AcDbLine
 10
42.50563373493829
 20
2.560711797878898
 30
0.0
 11
43.47866023052615
 21
3.533738293466751
 31
0.0
  0
LINE
  5
FF41
330
FF22
100
AcDbEntity
  8
0
  6
CONTINUOUS
100
AcDbLine
 10
43.57899999995641
 20
4.307597271977198
 30
0.0
 11
44.99999999995498
 21
5.728597271975769
 31
0.0
  0
LINE
  5
FF42
330
FF22
100
AcDbEntity
  8
0
  6
CONTINUOUS
100
AcDbLine
 10
43.57899999995641
 20
3.634078062897011
 30
0.0
 11
44.99999999995498
 21
5.055078062895582
 31
0.0
  0
LINE
  5
FF43
330
FF22
100
AcDbEntity
  8
0
  6
CONTINUOUS
100
AcDbLine
 10
42.82309604751848
 20
2.204654901378891
 30
0.0
 11
44.99999999995498
 21
4.381558853815395
 31
0.0
  0
LINE
  5
FF44
330
FF22
100
AcDbEntity
  8
0
  6
CONTINUOUS
100
AcDbLine
 10
43.14055836009865
 20
1.848598004878885
 30
0.0
 11
44.99999999995498
 21
3.70803964473521
 31
0.0
  0
LINE
  5
FF45
330
FF22
100
AcDbEntity
  8
0
  6
CONTINUOUS
100
AcDbLine
 10
43.45802067267883
 20
1.492541108378878
 30
0.0
 11
44.99999999995498
 21
3.034520435655023
 31
0.0
  0
LINE
  5
FF46
330
FF22
100
AcDbEntity
  8
0
  6
CONTINUOUS
100
AcDbLine
 10
43.77548298525902
 20
1.136484211878871
 30
0.0
 11
44.99999999995498
 21
2.361001226574837
 31
0.0
  0
LINE
  5
FF47
330
FF22
100
AcDbEntity
  8
0
  6
CONTINUOUS
100
AcDbLine
 10
44.09294529783919
 20
0.7804273153788639
 30
0.0
 11
44.99999999995498
 21
1.687482017494649
 31
0.0
  0
LINE
  5
FF48
330
FF22
100
AcDbEntity
  8
0
  6
CONTINUOUS
100
AcDbLine
 10
44.41040761041938
 20
0.4243704188788566
 30
0.0
 11
44.99999999995498
 21
1.013962808414463
 31
0.0
  0
LINE
  5
FF49
330
FF22
100
AcDbEntity
  8
0
  6
CONTINUOUS
100
AcDbLine
 10
44.72786992299955
 20
0.0683135223788494
 30
0.0
 11
44.99999999995498
 21
0.340443599334276
 31
0.0
  0
LINE
  5
FF4A
330
FF22
100
AcDbEntity
  8
0
  6
CONTINUOUS
100
AcDbLine
 10
39.12223903415696
 20
-0.0000000000000009
 30
0.0
 11
38.60499999996136
 21
0.5172390341955961
 31
0.0
  0
LINE
  5
FF4B
330
FF22
100
AcDbEntity
  8
0
  6
CONTINUOUS
100
AcDbLine
 10
39.79575824323715
 20
-0.0000000000000009
 30
0.0
 11
38.60499999996136
 21
1.190758243275783
 31
0.0
  0
LINE
  5
FF4C
330
FF22
100
AcDbEntity
  8
0
  6
CONTINUOUS
100
AcDbLine
 10
40.02599999995994
 20
0.443277452357397
 30
0.0
 11
38.60499999996136
 21
1.864277452355969
 31
0.0
  0
LINE
  5
FF4D
330
FF22
100
AcDbEntity
  8
0
  6
CONTINUOUS
100
AcDbLine
 10
40.02599999995994
 20
1.116796661437583
 30
0.0
 11
38.60499999996136
 21
2.537796661436155
 31
0.0
  0
LINE
  5
FF4E
330
FF22
100
AcDbEntity
  8
0
  6
CONTINUOUS
100
AcDbLine
 10
40.02599999995994
 20
1.79031587051777
 30
0.0
 11
38.60499999996136
 21
3.211315870516341
 31
0.0
  0
LINE
  5
FF4F
330
FF22
100
AcDbEntity
  8
0
  6
CONTINUOUS
100
AcDbLine
 10
40.02599999995994
 20
2.463835079597956
 30
0.0
 11
38.60499999996136
 21
3.884835079596527
 31
0.0
  0
LINE
  5
FF50
330
FF22
100
AcDbEntity
  8
0
  6
CONTINUOUS
100
AcDbLine
 10
40.02599999995994
 20
3.137354288678143
 30
0.0
 11
38.60499999996136
 21
4.558354288676714
 31
0.0
  0
LINE
  5
FF51
330
FF22
100
AcDbEntity
  8
0
  6
CONTINUOUS
100
AcDbLine
 10
40.02599999995994
 20
3.810873497758329
 30
0.0
 11
38.60499999996136
 21
5.2318734977569
 31
0.0
  0
LINE
  5
FF52
330
FF22
100
AcDbEntity
  8
0
  6
CONTINUOUS
100
AcDbLine
 10
40.02599999995994
 20
4.484392706838515
 30
0.0
 11
38.60499999996136
 21
5.905392706837086
 31
0.0
  0
LINE
  5
FF53
330
FF22
100
AcDbEntity
  8
0
  6
CONTINUOUS
100
AcDbLine
 10
44.99999999995498
 20
0.183911915923658
 30
0.0
 11
41.53858364506288
 21
3.64532827081576
 31
0.0
  0
LINE
  5
FF54
330
FF22
100
AcDbEntity
  8
0
  6
CONTINUOUS
100
AcDbLine
 10
40.02599999995994
 20
5.157911915918703
 30
0.0
 11
38.60499999996136
 21
6.578911915917274
 31
0.0
  0
LINE
  5
FF55
330
FF22
100
AcDbEntity
  8
0
  6
CONTINUOUS
100
AcDbLine
 10
44.99999999995498
 20
0.8574311250038447
 30
0.0
 11
38.60499999996136
 21
7.25243112499746
 31
0.0
  0
LINE
  5
FF56
330
FF22
100
AcDbEntity
  8
0
  6
CONTINUOUS
100
AcDbLine
 10
44.99999999995498
 20
1.530950334084031
 30
0.0
 11
38.60499999996136
 21
7.925950334077647
 31
0.0
  0
LINE
  5
FF57
330
FF22
100
AcDbEntity
  8
0
  6
CONTINUOUS
100
AcDbLine
 10
44.99999999995498
 20
2.204469543164218
 30
0.0
 11
43.57899999995641
 21
3.625469543162789
 31
0.0
  0
LINE
  5
FF58
330
FF22
100
AcDbEntity
  8
0
  6
CONTINUOUS
100
AcDbLine
 10
41.89876730984767
 20
5.305702233271528
 30
0.0
 11
38.60499999996136
 21
8.599469543157834
 31
0.0
  0
LINE
  5
FF59
330
FF22
100
AcDbEntity
  8
0
  6
CONTINUOUS
100
AcDbLine
 10
44.99999999995498
 20
2.877988752244405
 30
0.0
 11
43.57899999995641
 21
4.298988752242975
 31
0.0
  0
LINE
  5
FF5A
330
FF22
100
AcDbEntity
  8
0
  6
CONTINUOUS
100
AcDbLine
 10
44.99999999995498
 20
3.551507961324591
 30
0.0
 11
43.57899999995641
 21
4.972507961323163
 31
0.0
  0
LINE
  5
FF5B
330
FF22
100
AcDbEntity
  8
0
  6
CONTINUOUS
100
AcDbLine
 10
44.99999999995498
 20
4.225027170404777
 30
0.0
 11
43.57899999995641
 21
5.646027170403348
 31
0.0
  0
LINE
  5
FF5C
330
FF22
100
AcDbEntity
  8
0
  6
CONTINUOUS
100
AcDbLine
 10
44.99999999995498
 20
4.898546379484964
 30
0.0
 11
43.57899999995641
 21
6.319546379483535
 31
0.0
  0
LINE
  5
FF5D
330
FF22
100
AcDbEntity
  8
0
  6
CONTINUOUS
100
AcDbLine
 10
44.99999999995498
 20
5.572065588565151
 30
0.0
 11
43.57899999995641
 21
6.993065588563722
 31
0.0
  0
LINE
  5
FF5E
330
FF22
100
AcDbEntity
  8
0
  6
CONTINUOUS
100
AcDbLine
 10
44.99999999995498
 20
6.245584797645336
 30
0.0
 11
43.57899999995641
 21
7.666584797643908
 31
0.0
  0
LINE
  5
FF5F
330
FF22
100
AcDbEntity
  8
0
  6
CONTINUOUS
100
AcDbLine
 10
44.99999999995498
 20
6.919104006725522
 30
0.0
 11
43.57899999995641
 21
8.340104006724093
 31
0.0
  0
LINE
  5
FF60
330
FF22
100
AcDbEntity
  8
0
  6
CONTINUOUS
100
AcDbLine
 10
44.99999999995498
 20
7.592623215805709
 30
0.0
 11
43.82952321576943
 21
8.763099999991255
 31
0.0
  0
LINE
  5
FF61
330
FF22
100
AcDbEntity
  8
0
  6
CONTINUOUS
100
AcDbLine
 10
44.99999999995498
 20
8.266142424885896
 30
0.0
 11
44.50304242484962
 21
8.763099999991255
 31
0.0
  0
ENDBLK
  5
FF8B
330
FF22
100
AcDbEntity
  8
0
100
AcDbBlockEnd
  0
BLOCK
  5
FF8C
330
FF62
100
AcDbEntity
  8
0
100
AcDbBlockBegin
  2
*X26
 70
     1
 10
0.0
 20
0.0
 30
0.0
  3
*X26
  1

  0
LINE
  5
FF63
330
FF62
100
AcDbEntity
  8
0
  6
CONTINUOUS
100
AcDbLine
 10
0.0
 20
8.548461116714023
 30
0.0
 11
0.2146388832772324
 21
8.763099999991255
 31
0.0
  0
LINE
  5
FF64
330
FF62
100
AcDbEntity
  8
0
  6
CONTINUOUS
100
AcDbLine
 10
-0.0000000000000002
 20
7.874941907633837
 30
0.0
 11
0.8881580923574184
 21
8.763099999991255
 31
0.0
  0
LINE
  5
FF65
330
FF62
100
AcDbEntity
  8
0
  6
CONTINUOUS
100
AcDbLine
 10
0.0
 20
7.20142269855365
 30
0.0
 11
1.420999999998572
 21
8.622422698552223
 31
0.0
  0
LINE
  5
FF66
330
FF62
100
AcDbEntity
  8
0
  6
CONTINUOUS
100
AcDbLine
 10
-0.0000000000000001
 20
6.527903489473465
 30
0.0
 11
1.420999999998571
 21
7.948903489472036
 31
0.0
  0
LINE
  5
FF67
330
FF62
100
AcDbEntity
  8
0
  6
CONTINUOUS
100
AcDbLine
 10
-0.0000000000000002
 20
5.854384280393278
 30
0.0
 11
1.420999999998571
 21
7.275384280391849
 31
0.0
  0
LINE
  5
FF68
330
FF62
100
AcDbEntity
  8
0
  6
CONTINUOUS
100
AcDbLine
 10
-0.0000000000000002
 20
5.180865071313091
 30
0.0
 11
1.420999999998571
 21
6.601865071311663
 31
0.0
  0
LINE
  5
FF69
330
FF62
100
AcDbEntity
  8
0
  6
CONTINUOUS
100
AcDbLine
 10
0.0
 20
4.507345862232905
 30
0.0
 11
1.420999999998571
 21
5.928345862231477
 31
0.0
  0
LINE
  5
FF6A
330
FF62
100
AcDbEntity
  8
0
  6
CONTINUOUS
100
AcDbLine
 10
-0.0000000000000003
 20
3.833826653152718
 30
0.0
 11
1.420999999998571
 21
5.25482665315129
 31
0.0
  0
LINE
  5
FF6B
330
FF62
100
AcDbEntity
  8
0
  6
CONTINUOUS
100
AcDbLine
 10
-0.0000000000000002
 20
3.160307444072532
 30
0.0
 11
1.420999999998571
 21
4.581307444071103
 31
0.0
  0
LINE
  5
FF6C
330
FF62
100
AcDbEntity
  8
0
  6
CONTINUOUS
100
AcDbLine
 10
-0.0000000000000001
 20
2.486788234992345
 30
0.0
 11
1.420999999998571
 21
3.907788234990917
 31
0.0
  0
LINE
  5
FF6D
330
FF62
100
AcDbEntity
  8
0
  6
CONTINUOUS
100
AcDbLine
 10
-0.0000000000000006
 20
1.813269025912159
 30
0.0
 11
1.420999999998571
 21
3.234269025910731
 31
0.0
  0
LINE
  5
FF6E
330
FF62
100
AcDbEntity
  8
0
  6
CONTINUOUS
100
AcDbLine
 10
0.0
 20
1.139749816831973
 30
0.0
 11
1.420999999998571
 21
2.560749816830544
 31
0.0
  0
LINE
  5
FF6F
330
FF62
100
AcDbEntity
  8
0
  6
CONTINUOUS
100
AcDbLine
 10
0.0000000000000002
 20
0.466230607751787
 30
0.0
 11
1.420999999998571
 21
1.887230607750358
 31
0.0
  0
LINE
  5
FF70
330
FF62
100
AcDbEntity
  8
0
  6
CONTINUOUS
100
AcDbLine
 10
0.2072886013284003
 20
-0.0000000000000009
 30
0.0
 11
1.420999999998571
 21
1.213711398670171
 31
0.0
  0
LINE
  5
FF71
330
FF62
100
AcDbEntity
  8
0
  6
CONTINUOUS
100
AcDbLine
 10
0.8808078104085864
 20
-0.0000000000000009
 30
0.0
 11
1.420999999998571
 21
0.5401921895899839
 31
0.0
  0
LINE
  5
FF72
330
FF62
100
AcDbEntity
  8
0
  6
CONTINUOUS
100
AcDbLine
 10
0.0581249075061505
 20
-0.0000000000000009
 30
0.0
 11
-0.0000000000000002
 21
0.0581249075061496
 31
0.0
  0
LINE
  5
FF73
330
FF62
100
AcDbEntity
  8
0
  6
CONTINUOUS
100
AcDbLine
 10
0.7316441165863372
 20
-0.0000000000000009
 30
0.0
 11
-0.0000000000000002
 21
0.7316441165863363
 31
0.0
  0
LINE
  5
FF74
330
FF62
100
AcDbEntity
  8
0
  6
CONTINUOUS
100
AcDbLine
 10
1.405163325666523
 20
-0.0000000000000009
 30
0.0
 11
-0.0000000000000002
 21
1.405163325666523
 31
0.0
  0
LINE
  5
FF75
330
FF62
100
AcDbEntity
  8
0
  6
CONTINUOUS
100
AcDbLine
 10
1.420999999998572
 20
0.6576825347481381
 30
0.0
 11
-0.0000000000000001
 21
2.07868253474671
 31
0.0
  0
LINE
  5
FF76
330
FF62
100
AcDbEntity
  8
0
  6
CONTINUOUS
100
AcDbLine
 10
1.420999999998571
 20
1.331201743828324
 30
0.0
 11
-0.0000000000000001
 21
2.752201743826896
 31
0.0
  0
LINE
  5
FF77
330
FF62
100
AcDbEntity
  8
0
  6
CONTINUOUS
100
AcDbLine
 10
1.420999999998571
 20
2.004720952908511
 30
0.0
 11
-0.0000000000000002
 21
3.425720952907082
 31
0.0
  0
LINE
  5
FF78
330
FF62
100
AcDbEntity
  8
0
  6
CONTINUOUS
100
AcDbLine
 10
1.420999999998571
 20
2.678240161988697
 30
0.0
 11
-0.0000000000000001
 21
4.099240161987269
 31
0.0
  0
LINE
  5
FF79
330
FF62
100
AcDbEntity
  8
0
  6
CONTINUOUS
100
AcDbLine
 10
1.420999999998572
 20
3.351759371068884
 30
0.0
 11
0.0
 21
4.772759371067455
 31
0.0
  0
LINE
  5
FF7A
330
FF62
100
AcDbEntity
  8
0
  6
CONTINUOUS
100
AcDbLine
 10
1.420999999998571
 20
4.02527858014907
 30
0.0
 11
-0.0000000000000003
 21
5.446278580147642
 31
0.0
  0
LINE
  5
FF7B
330
FF62
100
AcDbEntity
  8
0
  6
CONTINUOUS
100
AcDbLine
 10
1.420999999998571
 20
4.698797789229257
 30
0.0
 11
0.0
 21
6.119797789227828
 31
0.0
  0
LINE
  5
FF7C
330
FF62
100
AcDbEntity
  8
0
  6
CONTINUOUS
100
AcDbLine
 10
1.420999999998571
 20
5.372316998309444
 30
0.0
 11
-0.0000000000000001
 21
6.793316998308015
 31
0.0
  0
LINE
  5
FF7D
330
FF62
100
AcDbEntity
  8
0
  6
CONTINUOUS
100
AcDbLine
 10
1.420999999998572
 20
6.045836207389629
 30
0.0
 11
-0.0000000000000004
 21
7.466836207388202
 31
0.0
  0
LINE
  5
FF7E
330
FF62
100
AcDbEntity
  8
0
  6
CONTINUOUS
100
AcDbLine
 10
1.420999999998571
 20
6.719355416469816
 30
0.0
 11
0.0
 21
8.140355416468388
 31
0.0
  0
LINE
  5
FF7F
330
FF62
100
AcDbEntity
  8
0
  6
CONTINUOUS
100
AcDbLine
 10
1.420999999998571
 20
7.392874625550003
 30
0.0
 11
0.0507746255573185
 21
8.763099999991255
 31
0.0
  0
LINE
  5
FF80
330
FF62
100
AcDbEntity
  8
0
  6
CONTINUOUS
100
AcDbLine
 10
1.420999999998571
 20
8.06639383463019
 30
0.0
 11
0.7242938346375052
 21
8.763099999991255
 31
0.0
  0
LINE
  5
FF81
330
FF62
100
AcDbEntity
  8
0
  6
CONTINUOUS
100
AcDbLine
 10
1.420999999998571
 20
8.739913043710375
 30
0.0
 11
1.397813043717691
 21
8.763099999991255
 31
0.0
  0
ENDBLK
  5
FF8D
330
FF62
100
AcDbEntity
  8
0
100
AcDbBlockEnd
  0
ENDSEC
  0
SECTION
  2
ENTITIES
  0
LINE
  5
EE7B
330
18
100
AcDbEntity
  8
01
100
AcDbLine
 10
5189.839770849256
 20
2328.034411655985
 30
0.0000000000563712
 11
5203.839770849256
 21
2328.034411655985
 31
0.0000000000563712
  0
LINE
  5
EE7C
330
18
100
AcDbEntity
  8
01
100
AcDbLine
 10
5194.840655031316
 20
2540.034411654956
 30
0.0000000000563712
 11
5348.595035186348
 21
2540.034411654956
 31
0.0000000000563712
  0
LINE
  5
EE7E
330
18
100
AcDbEntity
  8
01
  6
BYBLOCK
100
AcDbLine
 10
5194.840655031316
 20
2540.034411654956
 30
0.0000000000563712
 11
5194.840655031316
 21
2500.034411654956
 31
0.0000000000563712
  0
LINE
  5
EE82
330
18
100
AcDbEntity
  8
01
100
AcDbLine
 10
5245.839887189
 20
2535.034411653927
 30
0.0000000000563712
 11
5245.839887189
 21
2565.952491843176
 31
0.0000000000563712
  0
LINE
  5
EE83
330
18
100
AcDbEntity
  8
01
  6
BYBLOCK
100
AcDbLine
 10
5196.339770849256
 20
2335.934411655985
 30
0.0000000000563712
 11
5196.339770849256
 21
2206.134411655985
 31
0.0000000000563712
  0
LINE
  5
EE84
330
18
100
AcDbEntity
  8
01
  6
BYBLOCK
100
AcDbLine
 10
5196.339770849256
 20
2207.034411655985
 30
0.0000000000563712
 11
5198.839770849256
 21
2207.034411655985
 31
0.0000000000563712
  0
LINE
  5
EE85
330
18
100
AcDbEntity
  8
01
  6
BYBLOCK
100
AcDbLine
 10
5198.839770849256
 20
2207.034411655985
 30
0.0000000000563712
 11
5198.839770849256
 21
2223.537355381137
 31
0.0000000000563712
  0
LINE
  5
EE86
330
18
100
AcDbEntity
  8
01
  6
BYBLOCK
100
AcDbLine
 10
5194.839770849256
 20
2335.934411655985
 30
0.0000000000563712
 11
5194.839770849256
 21
2206.134411655985
 31
0.0000000000563712
  0
LINE
  5
EE87
330
18
100
AcDbEntity
  8
01
  6
BYBLOCK
100
AcDbLine
 10
5194.839770849256
 20
2206.134411655985
 30
0.0000000000563712
 11
5196.339770849256
 21
2206.134411655985
 31
0.0000000000563712
  0
LINE
  5
EE88
330
18
100
AcDbEntity
  8
01
  6
BYBLOCK
100
AcDbLine
 10
5196.339770849256
 20
2335.034411655985
 30
0.0000000000563712
 11
5198.839770849256
 21
2335.034411655985
 31
0.0000000000563712
  0
LINE
  5
EE89
330
18
100
AcDbEntity
  8
01
  6
BYBLOCK
100
AcDbLine
 10
5194.839770849256
 20
2335.934411655985
 30
0.0000000000563712
 11
5196.339770849256
 21
2335.934411655985
 31
0.0000000000563712
  0
LINE
  5
EE8A
330
18
100
AcDbEntity
  8
01
  6
BYBLOCK
100
AcDbLine
 10
5196.339770849256
 20
2311.034411655985
 30
0.0000000000563712
 11
5197.539770849255
 21
2311.034411655985
 31
0.0000000000563712
  0
ARC
  5
EE8B
330
18
100
AcDbEntity
  8
01
  6
BYBLOCK
100
AcDbCircle
 10
5262.839770849256
 20
2307.034411655985
 30
0.0000000000563712
 40
1.0
100
AcDbArc
 50
0.0
 51
90.0
  0
LINE
  5
EE8C
330
18
100
AcDbEntity
  8
01
  6
BYBLOCK
100
AcDbLine
 10
5197.539770849255
 20
2316.734411655985
 30
0.0000000000563712
 11
5197.539770849255
 21
2225.334411655985
 31
0.0000000000563712
  0
LINE
  5
EE8D
330
18
100
AcDbEntity
  8
01
  6
BYBLOCK
100
AcDbLine
 10
5197.639770849255
 20
2207.034411655985
 30
0.0000000000563712
 11
5197.639770849255
 21
2223.634411655985
 31
0.0000000000563712
  0
LINE
  5
EE8E
330
18
100
AcDbEntity
  8
01
  6
BYBLOCK
100
AcDbLine
 10
5197.639770849255
 20
2223.634411655985
 30
0.0000000000563712
 11
5196.691242711831
 21
2224.582939793409
 31
0.0000000000563712
  0
LINE
  5
EE8F
330
18
100
AcDbEntity
  8
01
  6
BYBLOCK
100
AcDbLine
 10
5198.488298986678
 20
2224.385883518561
 30
0.0000000000563712
 11
5197.539770849255
 21
2225.334411655985
 31
0.0000000000563712
  0
ARC
  5
EE90
330
18
100
AcDbEntity
  8
01
  6
BYBLOCK
100
AcDbCircle
 10
5197.639770849255
 20
2223.537355381137
 30
0.0000000000563712
 40
1.2
100
AcDbArc
 50
0.0
 51
45.00000000004836
  0
ARC
  5
EE91
330
18
100
AcDbEntity
  8
01
  6
BYBLOCK
100
AcDbCircle
 10
5197.539770849255
 20
2225.431467930833
 30
0.0000000000563712
 40
1.2
100
AcDbArc
 50
180.0
 51
225.0000000000484
  0
LINE
  5
EE92
330
18
100
AcDbEntity
  8
01
  6
BYBLOCK
100
AcDbLine
 10
5198.839770849256
 20
2335.034411655985
 30
0.0000000000563712
 11
5198.839770849256
 21
2318.531467930832
 31
0.0000000000563712
  0
LINE
  5
EE93
330
18
100
AcDbEntity
  8
01
  6
BYBLOCK
100
AcDbLine
 10
5197.639770849255
 20
2335.034411655985
 30
0.0000000000563712
 11
5197.639770849255
 21
2318.434411655985
 31
0.0000000000563712
  0
LINE
  5
EE94
330
18
100
AcDbEntity
  8
01
  6
BYBLOCK
100
AcDbLine
 10
5197.639770849255
 20
2318.434411655985
 30
0.0000000000563712
 11
5196.691242711831
 21
2317.485883518561
 31
0.0000000000563712
  0
LINE
  5
EE95
330
18
100
AcDbEntity
  8
01
  6
BYBLOCK
100
AcDbLine
 10
5198.488298986678
 20
2317.682939793408
 30
0.0000000000563712
 11
5197.539770849255
 21
2316.734411655984
 31
0.0000000000563712
  0
ARC
  5
EE96
330
18
100
AcDbEntity
  8
01
  6
BYBLOCK
100
AcDbCircle
 10
5197.639770849255
 20
2318.531467930832
 30
0.0000000000563712
 40
1.2
100
AcDbArc
 50
314.9999999999516
 51
0.0
  0
ARC
  5
EE97
330
18
100
AcDbEntity
  8
01
  6
BYBLOCK
100
AcDbCircle
 10
5197.539770849255
 20
2316.637355381137
 30
0.0000000000563712
 40
1.2
100
AcDbArc
 50
134.9999999999516
 51
180.0
  0
CIRCLE
  5
EE98
330
18
100
AcDbEntity
  8
01
  6
BYBLOCK
100
AcDbCircle
 10
5245.839770849256
 20
2300.034411655985
 30
0.0000000000563712
 40
4.75
  0
LINE
  5
EE99
330
18
100
AcDbEntity
  8
01
  6
BYBLOCK
100
AcDbLine
 10
5197.539770849255
 20
2234.034411655985
 30
0.0000000000563712
 11
5219.339770849259
 21
2234.034411655985
 31
0.0000000000563712
  0
ARC
  5
EE9A
330
18
100
AcDbEntity
  8
01
  6
BYBLOCK
100
AcDbCircle
 10
5197.940655031316
 20
2523.595662197956
 30
0.0000000000563712
 40
1.6
100
AcDbArc
 50
115.9444797720163
 51
180.0
  0
ARC
  5
EE9B
330
18
100
AcDbEntity
  8
01
  6
BYBLOCK
100
AcDbCircle
 10
5197.940655031316
 20
2516.473161111956
 30
0.0000000000563712
 40
1.6
100
AcDbArc
 50
180.0
 51
244.0555202279837
  0
ARC
  5
EE9C
330
18
100
AcDbEntity
  8
01
  6
BYBLOCK
100
AcDbCircle
 10
5197.240655031315
 20
2515.195662197956
 30
0.0000000000563712
 40
1.6
100
AcDbArc
 50
0.0
 51
64.05552022798372
  0
ARC
  5
EE9D
330
18
100
AcDbEntity
  8
01
  6
BYBLOCK
100
AcDbCircle
 10
5197.240655031315
 20
2524.873161111956
 30
0.0000000000563712
 40
1.6
100
AcDbArc
 50
295.9444797720163
 51
0.0
  0
LINE
  5
EE9E
330
18
100
AcDbEntity
  8
01
  6
BYBLOCK
100
AcDbLine
 10
5198.840655031316
 20
2524.873161111956
 30
0.0000000000563712
 11
5198.840655031316
 21
2532.234411654956
 31
0.0000000000563712
  0
LINE
  5
EE9F
330
18
100
AcDbEntity
  8
01
  6
BYBLOCK
100
AcDbLine
 10
5197.940655031316
 20
2516.634411654956
 30
0.0000000000563712
 11
5197.940655031316
 21
2523.434411654956
 31
0.0000000000563712
  0
LINE
  5
EEA0
330
18
100
AcDbEntity
  8
01
  6
BYBLOCK
100
AcDbLine
 10
5198.840655031316
 20
2508.034411654956
 30
0.0000000000563712
 11
5198.840655031316
 21
2515.195662197956
 31
0.0000000000563712
  0
LINE
  5
EEA1
330
18
100
AcDbEntity
  8
01
  6
BYBLOCK
100
AcDbLine
 10
5197.240655031315
 20
2525.034411654956
 30
0.0000000000563712
 11
5197.240655031315
 21
2532.234411654956
 31
0.0000000000563712
  0
LINE
  5
EEA2
330
18
100
AcDbEntity
  8
01
  6
BYBLOCK
100
AcDbLine
 10
5197.240655031315
 20
2515.034411654956
 30
0.0000000000563712
 11
5197.240655031315
 21
2507.934411654956
 31
0.0000000000563712
  0
ARC
  5
EEA3
330
18
100
AcDbEntity
  8
01
  6
BYBLOCK
100
AcDbCircle
 10
5262.240655031315
 20
2527.934411654956
 30
0.0000000000563712
 40
1.6
100
AcDbArc
 50
0.0
 51
90.0
  0
LINE
  5
EEA4
330
18
100
AcDbEntity
  8
01
  6
BYBLOCK
100
AcDbLine
 10
5196.340655031316
 20
2532.434411654956
 30
0.0000000000563712
 11
5196.340655031316
 21
2507.634411654956
 31
0.0000000000563712
  0
LINE
  5
EEA5
330
18
100
AcDbEntity
  8
01
  6
BYBLOCK
100
AcDbLine
 10
5262.240655031315
 20
2529.534411654956
 30
0.0000000000563712
 11
5198.840655031316
 21
2529.534411654956
 31
0.0000000000563712
  0
LINE
  5
EEA6
330
18
100
AcDbEntity
  8
01
  6
BYBLOCK
100
AcDbLine
 10
5262.240655031315
 20
2512.334411654956
 30
0.0000000000563712
 11
5262.240655031315
 21
2529.534411654956
 31
0.0000000000563712
  0
LINE
  5
EEA7
330
18
100
AcDbEntity
  8
01
  6
BYBLOCK
100
AcDbLine
 10
5263.840655031316
 20
2510.734411654956
 30
0.0000000000563712
 11
5263.840655031316
 21
2527.934411654956
 31
0.0000000000563712
  0
LINE
  5
EEA8
330
18
100
AcDbEntity
  8
01
  6
BYBLOCK
100
AcDbLine
 10
5196.340655031316
 20
2532.234411654956
 30
0.0000000000563712
 11
5198.840655031316
 21
2532.234411654956
 31
0.0000000000563712
  0
LINE
  5
EEA9
330
18
100
AcDbEntity
  8
01
  6
BYBLOCK
100
AcDbLine
 10
5198.840655031316
 20
2508.034411654956
 30
0.0000000000563712
 11
5197.240655031315
 21
2508.034411654956
 31
0.0000000000563712
  0
LINE
  5
EEAA
330
18
100
AcDbEntity
  8
01
  6
BYBLOCK
100
AcDbLine
 10
5197.240655031315
 20
2507.934411654956
 30
0.0000000000563712
 11
5196.340655031316
 21
2507.934411654956
 31
0.0000000000563712
  0
ARC
  5
EEAB
330
18
100
AcDbEntity
  8
01
  6
BYBLOCK
100
AcDbCircle
 10
5193.541249958715
 20
2514.334411654957
 30
0.0000000000563712
 40
0.3000000000000051
100
AcDbArc
 50
232.8678058729389
 51
270.0
  0
LINE
  5
EEAC
330
18
100
AcDbEntity
  8
01
  6
BYBLOCK
100
AcDbLine
 10
5194.340655031316
 20
2514.034411654957
 30
0.0000000000563712
 11
5193.541249958715
 21
2514.034411654957
 31
0.0000000000563712
  0
LINE
  5
EEAD
330
18
100
AcDbEntity
  8
01
  6
BYBLOCK
100
AcDbLine
 10
5183.940655031316
 20
2523.707400521161
 30
0.0000000000563712
 11
5183.940655031316
 21
2523.536778465612
 31
0.0000000000563712
  0
ARC
  5
EEAE
330
18
100
AcDbEntity
  8
01
  6
BYBLOCK
100
AcDbCircle
 10
5184.240655031315
 20
2523.536778465612
 30
0.0000000000563712
 40
0.3
100
AcDbArc
 50
180.0
 51
217.7405295629614
  0
ARC
  5
EEAF
330
18
100
AcDbEntity
  8
01
  6
BYBLOCK
100
AcDbCircle
 10
5223.542955630599
 20
2553.957481409552
 30
0.0000000000563712
 40
50.00000000000002
100
AcDbArc
 50
217.7405295629768
 51
232.8678058729942
  0
LINE
  5
EEB0
330
18
100
AcDbEntity
  8
01
  6
BYBLOCK
100
AcDbLine
 10
5183.740655031315
 20
2524.834411654956
 30
0.0000000000563712
 11
5183.740655031315
 21
2525.534411654956
 31
0.0000000000563712
  0
ARC
  5
EEB1
330
18
100
AcDbEntity
  8
01
  6
BYBLOCK
100
AcDbCircle
 10
5184.240655031315
 20
2525.534411654956
 30
0.0000000000563712
 40
0.5000000000000142
100
AcDbArc
 50
90.0
 51
180.0
  0
LINE
  5
EEB2
330
18
100
AcDbEntity
  8
01
  6
BYBLOCK
100
AcDbLine
 10
5194.340655031316
 20
2526.034411654956
 30
0.0000000000563712
 11
5184.240655031315
 21
2526.034411654956
 31
0.0000000000563712
  0
LINE
  5
EEB3
330
18
100
AcDbEntity
  8
01
  6
BYBLOCK
100
AcDbLine
 10
5183.740655031315
 20
2524.455731998516
 30
0.0000000000563712
 11
5183.740655031315
 21
2524.834411654956
 31
0.0000000000563712
  0
SPLINE
  5
EEB4
330
18
100
AcDbEntity
  8
01
  6
BYBLOCK
100
AcDbSpline
210
0.0
220
0.0
230
1.0
 70
     8
 71
     3
 72
     8
 73
     4
 74
     0
 42
0.0000000001
 43
0.0000000001
 40
0.0
 40
0.0
 40
0.0
 40
0.0
 40
1.0
 40
1.0
 40
1.0
 40
1.0
 10
5183.766387572579
 20
2524.179081569067
 30
0.0000000000563712
 10
5183.748919686468
 20
2524.272167764947
 30
0.0000000000563712
 10
5183.740655031315
 20
2524.365433775838
 30
0.0000000000563712
 10
5183.740655031315
 20
2524.455731998516
 30
0.0000000000563712
  0
ARC
  5
EEB5
330
18
100
AcDbEntity
  8
01
  6
BYBLOCK
100
AcDbCircle
 10
5185.240655031315
 20
2524.455731998516
 30
0.0000000000563712
 40
1.499999999999998
100
AcDbArc
 50
190.628112987605
 51
225.0000000000484
  0
LINE
  5
EEB6
330
18
100
AcDbEntity
  8
01
  6
BYBLOCK
100
AcDbLine
 10
5194.840655031316
 20
2526.884411654956
 30
0.0000000000563712
 11
5194.340655031316
 21
2526.884411654956
 31
0.0000000000563712
  0
LINE
  5
EEB7
330
18
100
AcDbEntity
  8
01
  6
BYBLOCK
100
AcDbLine
 10
5194.340655031316
 20
2513.184411654956
 30
0.0000000000563712
 11
5194.840655031316
 21
2513.184411654956
 31
0.0000000000563712
  0
LINE
  5
EEB8
330
18
100
AcDbEntity
  8
01
  6
BYBLOCK
100
AcDbLine
 10
5194.340655031316
 20
2513.184411654956
 30
0.0000000000563712
 11
5194.340655031316
 21
2526.884411654956
 31
0.0000000000563712
  0
LINE
  5
EEB9
330
18
100
AcDbEntity
  8
01
  6
BYBLOCK
100
AcDbLine
 10
5194.840655031316
 20
2532.434411654956
 30
0.0000000000563712
 11
5196.340655031316
 21
2532.434411654956
 31
0.0000000000563712
  0
LINE
  5
EEBA
330
18
100
AcDbEntity
  8
01
  6
BYBLOCK
100
AcDbLine
 10
5194.840655031316
 20
2507.634411654956
 30
0.0000000000563712
 11
5196.340655031316
 21
2507.634411654956
 31
0.0000000000563712
  0
LINE
  5
EEBB
330
18
100
AcDbEntity
  8
01
  6
BYBLOCK
100
AcDbLine
 10
5194.840655031316
 20
2507.634411654956
 30
0.0000000000563712
 11
5194.840655031316
 21
2532.434411654956
 31
0.0000000000563712
  0
LINE
  5
EEBC
330
18
100
AcDbEntity
  8
01
  6
BYBLOCK
100
AcDbLine
 10
5263.840655031316
 20
2512.334411654956
 30
0.0000000000563712
 11
5198.840655031316
 21
2512.334411654956
 31
0.0000000000563712
  0
LINE
  5
EEBD
330
18
100
AcDbEntity
  8
01
  6
BYBLOCK
100
AcDbLine
 10
5263.840655031316
 20
2510.734411654956
 30
0.0000000000563712
 11
5213.440655031316
 21
2510.734411654956
 31
0.0000000000563712
  0
LINE
  5
EEBE
330
18
100
AcDbEntity
  8
01
  6
BYBLOCK
100
AcDbLine
 10
5216.277913331518
 20
2510.734411654956
 30
0.0000000000563712
 11
5198.840655031316
 21
2510.734411654956
 31
0.0000000000563712
  0
LINE
  5
EEBF
330
18
100
AcDbEntity
  8
01
  6
BYBLOCK
100
AcDbLine
 10
5193.394208421909
 20
2514.180858264363
 30
0.0000000000563712
 11
5184.179994859534
 21
2523.395071826736
 31
0.0000000000563712
  0
ARC
  5
EEC0
330
18
100
AcDbEntity
  8
01
  6
BYBLOCK
100
AcDbCircle
 10
5193.747761812501
 20
2514.534411654956
 30
0.0000000000563712
 40
0.5
100
AcDbArc
 50
224.9999999999931
 51
270.0
  0
LINE
  5
EEC1
330
18
100
AcDbEntity
  8
01
  6
BYBLOCK
100
AcDbLine
 10
5194.340655031316
 20
2514.034411654956
 30
0.0000000000563712
 11
5193.747761812501
 21
2514.034411654956
 31
0.0000000000563712
  0
LINE
  5
EEC3
330
18
100
AcDbEntity
  8
01
  6
BYBLOCK
100
AcDbLine
 10
5242.233526265203
 20
2300.034411655985
 30
0.0000000000563712
 11
5245.839770849256
 21
2303.640656240036
 31
0.0000000000563712
  0
LINE
  5
EEC4
330
18
100
AcDbEntity
  8
01
  6
BYBLOCK
100
AcDbLine
 10
5249.446015433306
 20
2300.034411655985
 30
0.0000000000563712
 11
5245.839770849256
 21
2303.640656240036
 31
0.0000000000563712
  0
LINE
  5
EEC5
330
18
100
AcDbEntity
  8
01
  6
BYBLOCK
100
AcDbLine
 10
5242.233526265203
 20
2300.034411655985
 30
0.0000000000563712
 11
5245.839770849256
 21
2296.428167071933
 31
0.0000000000563712
  0
LINE
  5
EEC6
330
18
100
AcDbEntity
  8
01
  6
BYBLOCK
100
AcDbLine
 10
5249.446015433306
 20
2300.034411655985
 30
0.0000000000563712
 11
5245.839770849256
 21
2296.428167071933
 31
0.0000000000563712
  0
LINE
  5
EEC7
330
18
100
AcDbEntity
  8
01
  6
BYBLOCK
100
AcDbLine
 10
5183.839770849256
 20
2281.066081923001
 30
0.0000000000563712
 11
5183.839770849256
 21
2263.002741388995
 31
0.0000000000563712
  0
LINE
  5
EEC8
330
18
100
AcDbEntity
  8
01
  6
BYBLOCK
100
AcDbLine
 10
5188.132664068069
 20
2282.034411655998
 30
0.0000000000563712
 11
5194.839770849256
 21
2282.034411655998
 31
0.0000000000563712
  0
LINE
  5
EEC9
330
18
100
AcDbEntity
  8
01
  6
BYBLOCK
100
AcDbLine
 10
5188.132664068069
 20
2262.034411655998
 30
0.0000000000563712
 11
5194.839770849256
 21
2262.034411655998
 31
0.0000000000563712
  0
LINE
  5
EECA
330
18
100
AcDbEntity
  8
01
  6
BYBLOCK
100
AcDbLine
 10
5193.632664068069
 20
2277.284411655998
 30
0.0000000000563712
 11
5193.632664068069
 21
2266.784411655998
 31
0.0000000000563712
  0
ARC
  5
EECB
330
18
100
AcDbEntity
  8
01
  6
BYBLOCK
100
AcDbCircle
 10
5188.132664068069
 20
2272.034411655998
 30
0.0000000000563712
 40
10.00000000000009
100
AcDbArc
 50
53.13010235413969
 51
115.4224671781367
  0
ARC
  5
EECC
330
18
100
AcDbEntity
  8
01
  6
BYBLOCK
100
AcDbCircle
 10
5188.132664068069
 20
2272.034411655998
 30
0.0000000000563712
 40
10.00000000000009
100
AcDbArc
 50
244.5775328218633
 51
306.8698976458584
  0
LINE
  5
EECD
330
18
100
AcDbEntity
  8
01
  6
BYBLOCK
100
AcDbLine
 10
5194.132664068069
 20
2280.034411655998
 30
0.0000000000563712
 11
5194.132664068069
 21
2264.034411655998
 31
0.0000000000563712
  0
LINE
  5
EECE
330
18
100
AcDbEntity
  8
01
  6
BYBLOCK
100
AcDbLine
 10
5183.839770849256
 20
2277.284411655998
 30
0.0000000000563712
 11
5193.632664068069
 21
2277.284411655998
 31
0.0000000000563712
  0
LINE
  5
EECF
330
18
100
AcDbEntity
  8
01
  6
BYBLOCK
100
AcDbLine
 10
5183.839770849256
 20
2266.784411655998
 30
0.0000000000563712
 11
5193.632664068069
 21
2266.784411655998
 31
0.0000000000563712
  0
LINE
  5
EED0
330
18
100
AcDbEntity
  8
01
  6
BYBLOCK
100
AcDbLine
 10
5069.439887189001
 20
2335.934411655984
 30
0.0000000000563712
 11
5082.239887189
 21
2335.934411655984
 31
0.0000000000563712
  0
LINE
  5
EED1
330
18
100
AcDbEntity
  8
01
  6
BYBLOCK
100
AcDbLine
 10
5069.439887189001
 20
2206.134411655984
 30
0.0000000000563712
 11
5082.239887189
 21
2206.134411655984
 31
0.0000000000563712
  0
LINE
  5
EED2
330
18
100
AcDbEntity
  8
01
  6
BYBLOCK
100
AcDbLine
 10
5063.439887189001
 20
2329.934411655984
 30
0.0000000000563712
 11
5063.439887189001
 21
2212.134411655984
 31
0.0000000000563712
  0
LINE
  5
EED3
330
18
100
AcDbEntity
  8
01
  6
BYBLOCK
100
AcDbLine
 10
5088.239887189
 20
2329.934411655984
 30
0.0000000000563712
 11
5088.239887189
 21
2212.134411655984
 31
0.0000000000563712
  0
ARC
  5
EED4
330
18
100
AcDbEntity
  8
01
  6
BYBLOCK
100
AcDbCircle
 10
5069.439887189001
 20
2212.134411655984
 30
0.0000000000563712
 40
6.0
100
AcDbArc
 50
180.0
 51
270.0
  0
ARC
  5
EED5
330
18
100
AcDbEntity
  8
01
  6
BYBLOCK
100
AcDbCircle
 10
5082.239887189
 20
2212.134411655984
 30
0.0000000000563712
 40
6.0
100
AcDbArc
 50
270.0
 51
0.0
  0
ARC
  5
EED6
330
18
100
AcDbEntity
  8
01
  6
BYBLOCK
100
AcDbCircle
 10
5069.439887189001
 20
2329.934411655984
 30
0.0000000000563712
 40
6.0
100
AcDbArc
 50
90.0
 51
180.0
  0
ARC
  5
EED7
330
18
100
AcDbEntity
  8
01
  6
BYBLOCK
100
AcDbCircle
 10
5082.239887189
 20
2329.934411655984
 30
0.0000000000563712
 40
6.0
100
AcDbArc
 50
0.0
 51
90.0
  0
CIRCLE
  5
EED8
330
18
100
AcDbEntity
  8
01
  6
BYBLOCK
100
AcDbCircle
 10
5075.839887189
 20
2214.034411655984
 30
0.0000000000563712
 40
2.75
  0
CIRCLE
  5
EED9
330
18
100
AcDbEntity
  8
01
  6
BYBLOCK
100
AcDbCircle
 10
5075.839887189
 20
2214.034411655984
 30
0.0000000000563712
 40
4.25
  0
CIRCLE
  5
EEDA
330
18
100
AcDbEntity
  8
01
  6
BYBLOCK
100
AcDbCircle
 10
5075.839887189
 20
2328.034411655984
 30
0.0000000000563712
 40
2.75
  0
CIRCLE
  5
EEDB
330
18
100
AcDbEntity
  8
01
  6
BYBLOCK
100
AcDbCircle
 10
5075.839887189
 20
2328.034411655984
 30
0.0000000000563712
 40
4.25
  0
LINE
  5
EEDC
330
18
100
AcDbEntity
  8
1CENTER
100
AcDbLine
 10
5081.714912596906
 20
2214.034411655984
 30
0.0000000000563712
 11
5069.964861781094
 21
2214.034411655984
 31
0.0000000000563712
  0
LINE
  5
EEDD
330
18
100
AcDbEntity
  8
1CENTER
100
AcDbLine
 10
5075.839887189
 20
2219.90943706389
 30
0.0000000000563712
 11
5075.839887189
 21
2208.159386248078
 31
0.0000000000563712
  0
LINE
  5
EEDE
330
18
100
AcDbEntity
  8
1CENTER
100
AcDbLine
 10
5081.714912596906
 20
2328.034411655984
 30
0.0000000000563712
 11
5069.964861781094
 21
2328.034411655984
 31
0.0000000000563712
  0
LINE
  5
EEDF
330
18
100
AcDbEntity
  8
1CENTER
100
AcDbLine
 10
5075.839887189
 20
2333.90943706389
 30
0.0000000000563712
 11
5075.839887189
 21
2322.159386248078
 31
0.0000000000563712
  0
ARC
  5
EEE0
330
18
100
AcDbEntity
  8
01
  6
BYBLOCK
100
AcDbCircle
 10
5075.839887189
 20
2272.034411655984
 30
0.0000000000563712
 40
10.15
100
AcDbArc
 50
231.9925780701373
 51
308.0074219298627
  0
LINE
  5
EEE1
330
18
100
AcDbEntity
  8
01
  6
BYBLOCK
100
AcDbLine
 10
5069.589887189
 20
2280.031911265237
 30
0.0000000000563712
 11
5069.589887189
 21
2264.036912046731
 31
0.0000000000563712
  0
LINE
  5
EEE2
330
18
100
AcDbEntity
  8
01
  6
BYBLOCK
100
AcDbLine
 10
5082.089887189
 20
2280.031911265237
 30
0.0000000000563712
 11
5082.089887189
 21
2264.036912046731
 31
0.0000000000563712
  0
ARC
  5
EEE3
330
18
100
AcDbEntity
  8
01
  6
BYBLOCK
100
AcDbCircle
 10
5075.839887189
 20
2272.034411655984
 30
0.0000000000563712
 40
10.15
100
AcDbArc
 50
51.99257807013929
 51
128.0074219298607
  0
LINE
  5
EEE4
330
18
100
AcDbEntity
  8
01
  6
BYBLOCK
100
AcDbLine
 10
5071.339887189
 20
2277.284411655984
 30
0.0000000000563712
 11
5071.339887189
 21
2266.784411655984
 31
0.0000000000563712
  0
LINE
  5
EEE5
330
18
100
AcDbEntity
  8
01
  6
BYBLOCK
100
AcDbLine
 10
5081.339887189
 20
2277.284411655984
 30
0.0000000000563712
 11
5081.339887189
 21
2266.784411655984
 31
0.0000000000563712
  0
LINE
  5
EEE6
330
18
100
AcDbEntity
  8
01
  6
BYBLOCK
100
AcDbLine
 10
5071.839887189
 20
2281.362996757703
 30
0.0000000000563712
 11
5071.839887189
 21
2277.284411655984
 31
0.0000000000563712
  0
LINE
  5
EEE7
330
18
100
AcDbEntity
  8
01
  6
BYBLOCK
100
AcDbLine
 10
5070.339887189
 20
2277.284411655984
 30
0.0000000000563712
 11
5070.339887189
 21
2266.784411655984
 31
0.0000000000563712
  0
LINE
  5
EEE8
330
18
100
AcDbEntity
  8
01
  6
BYBLOCK
100
AcDbLine
 10
5071.839887189
 20
2266.784411655984
 30
0.0000000000563712
 11
5071.839887189
 21
2262.705826554266
 31
0.0000000000563712
  0
LINE
  5
EEE9
330
18
100
AcDbEntity
  8
01
  6
BYBLOCK
100
AcDbLine
 10
5070.339887189
 20
2277.284411655984
 30
0.0000000000563712
 11
5081.339887189
 21
2277.284411655984
 31
0.0000000000563712
  0
LINE
  5
EEEA
330
18
100
AcDbEntity
  8
01
  6
BYBLOCK
100
AcDbLine
 10
5070.339887189
 20
2266.784411655984
 30
0.0000000000563712
 11
5081.339887189
 21
2266.784411655984
 31
0.0000000000563712
  0
LINE
  5
EEEE
330
18
100
AcDbEntity
  8
01
100
AcDbLine
 10
5055.840003528743
 20
2370.034411655985
 30
0.0000000000563712
 11
5055.840003528743
 21
2180.034411655984
 31
0.0000000000563712
  0
LINE
  5
EEEF
330
18
100
AcDbEntity
  8
01
100
AcDbLine
 10
5055.840003528743
 20
2275.034411655984
 30
0.0000000000563712
 11
5055.840003528743
 21
2225.034411655984
 31
0.0000000000563712
  0
LINE
  5
EEF0
330
18
100
AcDbEntity
  8
01
100
AcDbLine
 10
5047.340003528743
 20
2226.034411655984
 30
0.0000000000563712
 11
5047.340003528743
 21
2274.034411655984
 31
0.0000000000563712
  0
LINE
  5
EEF1
330
18
100
AcDbEntity
  8
01
100
AcDbLine
 10
5055.840003528743
 20
2225.034411655984
 30
0.0000000000563712
 11
5048.340003528743
 21
2225.034411655984
 31
0.0000000000563712
  0
ARC
  5
EEF2
330
18
100
AcDbEntity
  8
01
100
AcDbCircle
 10
5048.340003528743
 20
2226.034411655984
 30
0.0000000000563712
 40
1.0
100
AcDbArc
 50
180.0
 51
270.0
  0
LINE
  5
EEF3
330
18
100
AcDbEntity
  8
01
100
AcDbLine
 10
5055.840003528743
 20
2275.034411655984
 30
0.0000000000563712
 11
5048.340003528743
 21
2275.034411655984
 31
0.0000000000563712
  0
ARC
  5
EEF4
330
18
100
AcDbEntity
  8
01
100
AcDbCircle
 10
5048.340003528743
 20
2274.034411655984
 30
0.0000000000563712
 40
1.0
100
AcDbArc
 50
90.0
 51
180.0
  0
LINE
  5
EEF5
330
18
100
AcDbEntity
  8
01
100
AcDbLine
 10
5057.968288911175
 20
2250.034411655984
 30
0.0000000000563712
 11
5035.340003528743
 21
2250.034411655984
 31
0.0000000000563712
  0
LINE
  5
EEF6
330
18
100
AcDbEntity
  8
01
100
AcDbLine
 10
5189.839770849543
 20
2214.034411656273
 30
0.0000000000563712
 11
5203.839770849543
 21
2214.034411656273
 31
0.0000000000563712
  0
LINE
  5
EEF7
330
18
100
AcDbEntity
  8
01
100
AcDbLine
 10
5257.151659116797
 20
2300.034411655985
 30
0.0000000000563712
 11
5234.527882581713
 21
2300.034411655985
 31
0.0000000000563712
  0
LINE
  5
EEF8
330
18
100
AcDbEntity
  8
01
100
AcDbLine
 10
5245.839770849256
 20
2311.346299923526
 30
0.0000000000563712
 11
5245.839770849256
 21
2288.722523388443
 31
0.0000000000563712
  0
LINE
  5
EEF9
330
18
100
AcDbEntity
  8
01
  6
BYBLOCK
100
AcDbLine
 10
4967.840003528745
 20
2281.066081923001
 30
0.0000000000563712
 11
4967.840003528745
 21
2263.002741388995
 31
0.0000000000563712
  0
LINE
  5
EEFA
330
18
100
AcDbEntity
  8
01
  6
BYBLOCK
100
AcDbLine
 10
4963.547110309932
 20
2282.034411655998
 30
0.0000000000563712
 11
4956.840003528745
 21
2282.034411655998
 31
0.0000000000563712
  0
LINE
  5
EEFB
330
18
100
AcDbEntity
  8
01
  6
BYBLOCK
100
AcDbLine
 10
4963.547110309932
 20
2262.034411655998
 30
0.0000000000563712
 11
4956.840003528745
 21
2262.034411655998
 31
0.0000000000563712
  0
ARC
  5
EEFC
330
18
100
AcDbEntity
  8
01
  6
BYBLOCK
100
AcDbCircle
 10
4963.547110309932
 20
2272.034411655998
 30
0.0000000000563712
 40
10.00000000000009
100
AcDbArc
 50
64.57753282186333
 51
90.0
  0
LINE
  5
EEFD
330
18
100
AcDbEntity
  8
01
  6
CONTINUOUS
100
AcDbLine
 10
4967.340003528745
 20
2263.719617463167
 30
0.0000000000563712
 11
4956.840003528745
 21
2263.719617463167
 31
0.0000000000563712
  0
ARC
  5
EEFE
330
18
100
AcDbEntity
  8
01
  6
CONTINUOUS
100
AcDbCircle
 10
4967.378583775659
 20
2264.181756693974
 30
0.0000000000563712
 40
0.4637468103423796
100
AcDbArc
 50
265.2279066161985
 51
354.2577450626209
  0
LINE
  5
EEFF
330
18
100
AcDbEntity
  8
01
  6
CONTINUOUS
100
AcDbLine
 10
4967.840003528745
 20
2279.517726429546
 30
0.0000000000563712
 11
4967.840003528745
 21
2264.55109688245
 31
0.0000000000563712
  0
ARC
  5
EF00
330
18
100
AcDbEntity
  8
01
  6
CONTINUOUS
100
AcDbCircle
 10
4967.378583775659
 20
2279.887066618022
 30
0.0000000000563712
 40
0.4637468103423387
100
AcDbArc
 50
5.742254937379051
 51
94.77209338380148
  0
ARC
  5
EF01
330
18
100
AcDbEntity
  8
01
  6
BYBLOCK
100
AcDbCircle
 10
4963.547110309932
 20
2272.034411655998
 30
0.0000000000563712
 40
10.00000000000009
100
AcDbArc
 50
270.0
 51
295.4224671781366
  0
LINE
  5
EF02
330
18
100
AcDbEntity
  8
01
  6
CONTINUOUS
100
AcDbLine
 10
4956.840003528745
 20
2280.349205848829
 30
0.0000000000563712
 11
4967.340003528745
 21
2280.349205848829
 31
0.0000000000563712
  0
LINE
  5
EF03
330
18
100
AcDbEntity
  8
01
100
AcDbLine
 10
5263.839770849256
 20
2276.534411655983
 30
0.0000000000563712
 11
5263.839770849256
 21
2235.034411655985
 31
0.0000000000563712
  0
ARC
  5
EF04
330
18
100
AcDbEntity
  8
01
100
AcDbCircle
 10
5262.839770849256
 20
2235.034411655985
 30
0.0000000000563712
 40
1.0
100
AcDbArc
 50
270.0
 51
0.0
  0
LINE
  5
EF05
330
18
100
AcDbEntity
  8
01
100
AcDbLine
 10
5219.339770849259
 20
2234.034411655985
 30
0.0000000000563712
 11
5262.839770849256
 21
2234.034411655985
 31
0.0000000000563712
  0
LINE
  5
EF06
330
18
100
AcDbEntity
  8
01
100
AcDbLine
 10
4935.840003528745
 20
2250.034411655985
 30
0.0000000000563712
 11
4875.840003528745
 21
2250.034411655985
 31
0.0000000000563712
  0
LINE
  5
EF07
330
18
100
AcDbEntity
  8
01
100
AcDbLine
 10
4905.840003528745
 20
2280.034411655985
 30
0.0000000000563712
 11
4905.840003528745
 21
2220.034411655985
 31
0.0000000000563712
  0
LINE
  5
EFC8
330
18
100
AcDbEntity
  8
01
100
AcDbLine
 10
5219.339887189002
 20
2540.034411654956
 30
0.0000000000563712
 11
5272.339887188999
 21
2540.034411654956
 31
0.0000000000563712
  0
LINE
  5
EFC9
330
18
100
AcDbEntity
  8
01
100
AcDbLine
 10
5219.839887189002
 20
2548.534411654956
 30
0.0000000000563712
 11
5271.839887188999
 21
2548.534411654956
 31
0.0000000000563712
  0
LINE
  5
EFCA
330
18
100
AcDbEntity
  8
01
100
AcDbLine
 10
5272.339887188999
 20
2540.034411654956
 30
0.0000000000563712
 11
5272.339887188999
 21
2548.034411654956
 31
0.0000000000563712
  0
LINE
  5
EFCB
330
18
100
AcDbEntity
  8
01
100
AcDbLine
 10
5219.339887189002
 20
2540.034411654956
 30
0.0000000000563712
 11
5219.339887189002
 21
2548.034411654956
 31
0.0000000000563712
  0
ARC
  5
EFCC
330
18
100
AcDbEntity
  8
01
100
AcDbCircle
 10
5219.839887189002
 20
2548.034411654956
 30
0.0000000000563712
 40
0.5
100
AcDbArc
 50
90.0
 51
180.0
  0
ARC
  5
EFCD
330
18
100
AcDbEntity
  8
01
100
AcDbCircle
 10
5271.839887188999
 20
2548.034411654956
 30
0.0000000000563712
 40
0.5
100
AcDbArc
 50
0.0
 51
90.0
  0
LINE
  5
EFCF
330
18
100
AcDbEntity
  8
01
  6
BYBLOCK
100
AcDbLine
 10
5263.839770849256
 20
2307.034411655985
 30
0.0000000000563712
 11
5263.839770849256
 21
2285.534411860112
 31
0.0000000000563712
  0
LINE
  5
EFD0
330
18
100
AcDbEntity
  8
01
  6
BYBLOCK
100
AcDbLine
 10
5197.539770849255
 20
2308.034411655985
 30
0.0000000000563712
 11
5225.839770849258
 21
2308.034411655985
 31
0.0000000000563712
  0
LINE
  5
EFD1
330
18
100
AcDbEntity
  8
01
  6
BYBLOCK
100
AcDbLine
 10
5225.839770849258
 20
2308.034411655985
 30
0.0000000000563712
 11
5262.839770849256
 21
2308.034411655985
 31
0.0000000000563712
  0
LINE
  5
EFD2
330
18
100
AcDbEntity
  8
01
  6
BYBLOCK
100
AcDbLine
 10
5263.839770849258
 20
2285.534411860112
 30
0.0000000000563712
 11
5263.839770849258
 21
2276.534411655983
 31
0.0000000000563712
  0
LINE
  5
EFD3
330
18
100
AcDbEntity
  8
01
100
AcDbLine
 10
4961.840003528745
 20
2328.034411655985
 30
0.0000000000563712
 11
4947.840003528745
 21
2328.034411655985
 31
0.0000000000563712
  0
LINE
  5
EFD4
330
18
100
AcDbEntity
  8
01
  6
BYBLOCK
100
AcDbLine
 10
4955.340003528745
 20
2335.934411655985
 30
0.0000000000563712
 11
4955.340003528745
 21
2206.134411655985
 31
0.0000000000563712
  0
LINE
  5
EFD5
330
18
100
AcDbEntity
  8
01
  6
BYBLOCK
100
AcDbLine
 10
4955.340003528745
 20
2207.034411655985
 30
0.0000000000563712
 11
4952.840003528745
 21
2207.034411655985
 31
0.0000000000563712
  0
LINE
  5
EFD6
330
18
100
AcDbEntity
  8
01
  6
BYBLOCK
100
AcDbLine
 10
4952.840003528745
 20
2207.034411655985
 30
0.0000000000563712
 11
4952.840003528745
 21
2223.537355381137
 31
0.0000000000563712
  0
LINE
  5
EFD7
330
18
100
AcDbEntity
  8
01
  6
BYBLOCK
100
AcDbLine
 10
4956.840003528745
 20
2335.934411655985
 30
0.0000000000563712
 11
4956.840003528745
 21
2206.134411655985
 31
0.0000000000563712
  0
LINE
  5
EFD8
330
18
100
AcDbEntity
  8
01
  6
BYBLOCK
100
AcDbLine
 10
4956.840003528745
 20
2206.134411655985
 30
0.0000000000563712
 11
4955.340003528745
 21
2206.134411655985
 31
0.0000000000563712
  0
LINE
  5
EFD9
330
18
100
AcDbEntity
  8
01
  6
BYBLOCK
100
AcDbLine
 10
4955.340003528745
 20
2335.034411655985
 30
0.0000000000563712
 11
4952.840003528745
 21
2335.034411655985
 31
0.0000000000563712
  0
LINE
  5
EFDA
330
18
100
AcDbEntity
  8
01
  6
BYBLOCK
100
AcDbLine
 10
4956.840003528745
 20
2335.934411655985
 30
0.0000000000563712
 11
4955.340003528745
 21
2335.934411655985
 31
0.0000000000563712
  0
LINE
  5
EFDB
330
18
100
AcDbEntity
  8
01
  6
BYBLOCK
100
AcDbLine
 10
4955.340003528745
 20
2311.034411655985
 30
0.0000000000563712
 11
4954.140003528744
 21
2311.034411655985
 31
0.0000000000563712
  0
ARC
  5
EFDC
330
18
100
AcDbEntity
  8
01
  6
BYBLOCK
100
AcDbCircle
 10
4888.840003528745
 20
2307.034411655985
 30
0.0000000000563712
 40
1.0
100
AcDbArc
 50
90.0
 51
180.0
  0
LINE
  5
EFDD
330
18
100
AcDbEntity
  8
01
  6
BYBLOCK
100
AcDbLine
 10
4954.140003528744
 20
2316.734411655985
 30
0.0000000000563712
 11
4954.140003528744
 21
2225.334411655985
 31
0.0000000000563712
  0
LINE
  5
EFDE
330
18
100
AcDbEntity
  8
01
  6
BYBLOCK
100
AcDbLine
 10
4954.040003528744
 20
2207.034411655985
 30
0.0000000000563712
 11
4954.040003528744
 21
2223.634411655985
 31
0.0000000000563712
  0
LINE
  5
EFDF
330
18
100
AcDbEntity
  8
01
  6
BYBLOCK
100
AcDbLine
 10
4954.040003528744
 20
2223.634411655985
 30
0.0000000000563712
 11
4954.988531666169
 21
2224.582939793409
 31
0.0000000000563712
  0
LINE
  5
EFE0
330
18
100
AcDbEntity
  8
01
  6
BYBLOCK
100
AcDbLine
 10
4953.191475391321
 20
2224.385883518561
 30
0.0000000000563712
 11
4954.140003528744
 21
2225.334411655985
 31
0.0000000000563712
  0
ARC
  5
EFE1
330
18
100
AcDbEntity
  8
01
  6
BYBLOCK
100
AcDbCircle
 10
4954.040003528744
 20
2223.537355381137
 30
0.0000000000563712
 40
1.2
100
AcDbArc
 50
134.9999999999516
 51
180.0
  0
ARC
  5
EFE2
330
18
100
AcDbEntity
  8
01
  6
BYBLOCK
100
AcDbCircle
 10
4954.140003528744
 20
2225.431467930833
 30
0.0000000000563712
 40
1.2
100
AcDbArc
 50
314.9999999999516
 51
0.0
  0
LINE
  5
EFE3
330
18
100
AcDbEntity
  8
01
  6
BYBLOCK
100
AcDbLine
 10
4952.840003528745
 20
2335.034411655985
 30
0.0000000000563712
 11
4952.840003528745
 21
2318.531467930832
 31
0.0000000000563712
  0
LINE
  5
EFE4
330
18
100
AcDbEntity
  8
01
  6
BYBLOCK
100
AcDbLine
 10
4954.040003528744
 20
2335.034411655985
 30
0.0000000000563712
 11
4954.040003528744
 21
2318.434411655985
 31
0.0000000000563712
  0
LINE
  5
EFE5
330
18
100
AcDbEntity
  8
01
  6
BYBLOCK
100
AcDbLine
 10
4954.040003528744
 20
2318.434411655985
 30
0.0000000000563712
 11
4954.988531666169
 21
2317.485883518561
 31
0.0000000000563712
  0
LINE
  5
EFE6
330
18
100
AcDbEntity
  8
01
  6
BYBLOCK
100
AcDbLine
 10
4953.191475391321
 20
2317.682939793408
 30
0.0000000000563712
 11
4954.140003528744
 21
2316.734411655984
 31
0.0000000000563712
  0
ARC
  5
EFE7
330
18
100
AcDbEntity
  8
01
  6
BYBLOCK
100
AcDbCircle
 10
4954.040003528744
 20
2318.531467930832
 30
0.0000000000563712
 40
1.2
100
AcDbArc
 50
180.0
 51
225.0000000000484
  0
ARC
  5
EFE8
330
18
100
AcDbEntity
  8
01
  6
BYBLOCK
100
AcDbCircle
 10
4954.140003528744
 20
2316.637355381137
 30
0.0000000000563712
 40
1.2
100
AcDbArc
 50
0.0
 51
45.00000000004836
  0
CIRCLE
  5
EFE9
330
18
100
AcDbEntity
  8
01
  6
BYBLOCK
100
AcDbCircle
 10
4905.840003528745
 20
2300.034411655985
 30
0.0000000000563712
 40
4.75
  0
LINE
  5
EFEA
330
18
100
AcDbEntity
  8
01
  6
BYBLOCK
100
AcDbLine
 10
4954.140003528744
 20
2234.034411655985
 30
0.0000000000563712
 11
4932.340003528741
 21
2234.034411655985
 31
0.0000000000563712
  0
LINE
  5
EFEB
330
18
100
AcDbEntity
  8
01
  6
BYBLOCK
100
AcDbLine
 10
4909.446248112796
 20
2300.034411655985
 30
0.0000000000563712
 11
4905.840003528745
 21
2303.640656240036
 31
0.0000000000563712
  0
LINE
  5
EFEC
330
18
100
AcDbEntity
  8
01
  6
BYBLOCK
100
AcDbLine
 10
4902.233758944692
 20
2300.034411655985
 30
0.0000000000563712
 11
4905.840003528745
 21
2303.640656240036
 31
0.0000000000563712
  0
LINE
  5
EFED
330
18
100
AcDbEntity
  8
01
  6
BYBLOCK
100
AcDbLine
 10
4909.446248112796
 20
2300.034411655985
 30
0.0000000000563712
 11
4905.840003528745
 21
2296.428167071933
 31
0.0000000000563712
  0
LINE
  5
EFEE
330
18
100
AcDbEntity
  8
01
  6
BYBLOCK
100
AcDbLine
 10
4902.233758944692
 20
2300.034411655985
 30
0.0000000000563712
 11
4905.840003528745
 21
2296.428167071933
 31
0.0000000000563712
  0
LINE
  5
EFEF
330
18
100
AcDbEntity
  8
01
  6
BYBLOCK
100
AcDbLine
 10
4967.840003528745
 20
2281.066081923001
 30
0.0000000000563712
 11
4967.840003528745
 21
2263.002741388995
 31
0.0000000000563712
  0
LINE
  5
EFF0
330
18
100
AcDbEntity
  8
01
  6
BYBLOCK
100
AcDbLine
 10
4963.547110309932
 20
2282.034411655998
 30
0.0000000000563712
 11
4956.840003528745
 21
2282.034411655998
 31
0.0000000000563712
  0
LINE
  5
EFF1
330
18
100
AcDbEntity
  8
01
  6
BYBLOCK
100
AcDbLine
 10
4963.547110309932
 20
2262.034411655998
 30
0.0000000000563712
 11
4956.840003528745
 21
2262.034411655998
 31
0.0000000000563712
  0
LINE
  5
EFF2
330
18
100
AcDbEntity
  8
01
100
AcDbLine
 10
4961.840003528458
 20
2214.034411656273
 30
0.0000000000563712
 11
4947.840003528458
 21
2214.034411656273
 31
0.0000000000563712
  0
LINE
  5
EFF3
330
18
100
AcDbEntity
  8
01
100
AcDbLine
 10
4935.840003528745
 20
2250.034411655985
 30
0.0000000000563712
 11
4875.840003528745
 21
2250.034411655985
 31
0.0000000000563712
  0
LINE
  5
EFF4
330
18
100
AcDbEntity
  8
01
100
AcDbLine
 10
4905.840003528745
 20
2280.034411655985
 30
0.0000000000563712
 11
4905.840003528745
 21
2220.034411655985
 31
0.0000000000563712
  0
LINE
  5
EFF5
330
18
100
AcDbEntity
  8
01
  6
BYBLOCK
100
AcDbLine
 10
4887.840003528745
 20
2307.034411655985
 30
0.0000000000563712
 11
4887.840003528745
 21
2285.534411860112
 31
0.0000000000563712
  0
LINE
  5
EFF6
330
18
100
AcDbEntity
  8
01
  6
BYBLOCK
100
AcDbLine
 10
4954.140003528744
 20
2308.034411655985
 30
0.0000000000563712
 11
4925.840003528743
 21
2308.034411655985
 31
0.0000000000563712
  0
LINE
  5
EFF7
330
18
100
AcDbEntity
  8
01
  6
BYBLOCK
100
AcDbLine
 10
4925.840003528743
 20
2308.034411655985
 30
0.0000000000563712
 11
4888.840003528745
 21
2308.034411655985
 31
0.0000000000563712
  0
LINE
  5
EFF8
330
18
100
AcDbEntity
  8
01
  6
BYBLOCK
100
AcDbLine
 10
4887.840003528741
 20
2285.534411860112
 30
0.0000000000563712
 11
4887.840003528741
 21
2276.534411655983
 31
0.0000000000563712
  0
TEXT
  5
EFF9
330
18
100
AcDbEntity
  8
1TEXT
100
AcDbText
 10
4887.839903189
 20
2531.534411655985
 30
0.0
 40
20.0
  1
1-JRT-X-LJ-2
100
AcDbText
  0
TEXT
  5
EFFA
330
18
100
AcDbEntity
  8
1TEXT
100
AcDbText
 10
4900.039903189001
 20
2493.284411655985
 30
0.0
 40
6.0
  1
表面処理
 72
     1
 11
4913.939903189001
 21
2493.284411655985
 31
0.0
100
AcDbText
  0
TEXT
  5
EFFB
330
18
100
AcDbEntity
  8
1TEXT
100
AcDbText
 10
4899.739903189001
 20
2483.031478666698
 30
0.0
 40
6.0
  1
クローム
 72
     1
 11
4913.939903189001
 21
2483.031478666698
 31
0.0
100
AcDbText
  0
LINE
  5
EFFC
330
18
100
AcDbEntity
  8
1DIM
100
AcDbLine
 10
4887.839903189
 20
2501.534411655985
 30
0.0000000000563712
 11
4992.839903189
 21
2501.534411655985
 31
0.0000000000563712
  0
LINE
  5
EFFD
330
18
100
AcDbEntity
  8
1DIM
100
AcDbLine
 10
4887.839903189
 20
2491.034411655985
 30
0.0000000000563712
 11
4992.839903189
 21
2491.034411655985
 31
0.0000000000563712
  0
LINE
  5
EFFE
330
18
100
AcDbEntity
  8
1DIM
100
AcDbLine
 10
4887.839903189
 20
2480.534411655985
 30
0.0000000000563712
 11
4992.839903189
 21
2480.534411655985
 31
0.0000000000563712
  0
LINE
  5
EFFF
330
18
100
AcDbEntity
  8
1DIM
100
AcDbLine
 10
4887.839903189
 20
2480.534411655985
 30
0.0000000000563712
 11
4992.839903189
 21
2480.534411655985
 31
0.0000000000563712
  0
LINE
  5
F000
330
18
100
AcDbEntity
  8
1DIM
100
AcDbLine
 10
4940.339903189
 20
2501.534411655985
 30
0.0000000000563712
 11
4940.339903189
 21
2480.534411655985
 31
0.0000000000563712
  0
TEXT
  5
F001
330
18
100
AcDbEntity
  8
1TEXT
100
AcDbText
 10
4942.639903189001
 20
2482.462876180511
 30
0.0
 40
6.0
  1
1-JRT-C-LJ-2
 41
0.6999999999999998
 72
     1
 11
4966.439903189001
 21
2482.462876180511
 31
0.0
100
AcDbText
  0
TEXT
  5
F002
330
18
100
AcDbEntity
  8
1TEXT
100
AcDbText
 10
4956.139903189001
 20
2493.284411655985
 30
0.0
 40
6.0
  1
コード
 72
     1
 11
4966.439903189001
 21
2493.284411655985
 31
0.0
100
AcDbText
  0
LINE
  5
F003
330
18
100
AcDbEntity
  8
1DIM
100
AcDbLine
 10
4992.839903189
 20
2480.534411655985
 30
0.0000000000563712
 11
4992.839903189
 21
2501.534411655985
 31
0.0000000000563712
  0
LINE
  5
F004
330
18
100
AcDbEntity
  8
1DIM
100
AcDbLine
 10
4887.839903189
 20
2480.534411655985
 30
0.0000000000563712
 11
4992.839903189
 21
2480.534411655985
 31
0.0000000000563712
  0
LINE
  5
F005
330
18
100
AcDbEntity
  8
1DIM
100
AcDbLine
 10
4940.339903189
 20
2480.534411655985
 30
0.0000000000563712
 11
4940.339903189
 21
2470.034411655985
 31
0.0000000000563712
  0
LINE
  5
F006
330
18
100
AcDbEntity
  8
1DIM
100
AcDbLine
 10
4887.839903189
 20
2470.034411655985
 30
0.0000000000563712
 11
4992.839903189
 21
2470.034411655985
 31
0.0000000000563712
  0
TEXT
  5
F007
330
18
100
AcDbEntity
  8
1TEXT
100
AcDbText
 10
4889.139903189001
 20
2472.568041238628
 30
0.0
 40
6.0
  1
サテンニッケル
 72
     1
 11
4913.939903189001
 21
2472.568041238628
 31
0.0
100
AcDbText
  0
LINE
  5
F008
330
18
100
AcDbEntity
  8
1DIM
100
AcDbLine
 10
4887.839903189
 20
2470.034411655985
 30
0.0000000000563712
 11
4887.839903189
 21
2480.534411655985
 31
0.0000000000563712
  0
LINE
  5
F009
330
18
100
AcDbEntity
  8
1DIM
100
AcDbLine
 10
4992.839903189
 20
2470.034411655985
 30
0.0000000000563712
 11
4992.839903189
 21
2480.534411655985
 31
0.0000000000563712
  0
TEXT
  5
F00A
330
18
100
AcDbEntity
  8
1TEXT
100
AcDbText
 10
4942.639903189001
 20
2471.962876180511
 30
0.0
 40
6.0
  1
1-JRT-N-LJ-2
 41
0.6999999999999998
 72
     1
 11
4966.439903189001
 21
2471.962876180511
 31
0.0
100
AcDbText
  0
LINE
  5
F00B
330
18
100
AcDbEntity
  8
1DIM
100
AcDbLine
 10
4887.839903189
 20
2480.534411655985
 30
0.0000000000563712
 11
4887.839903189
 21
2501.534411655985
 31
0.0000000000563712
  0
LINE
  5
F00C
330
18
100
AcDbEntity
  8
1DIM
100
AcDbLine
 10
4940.339903189
 20
2470.034411655985
 30
0.0000000000563712
 11
4940.339903189
 21
2459.534411655985
 31
0.0000000000563712
  0
LINE
  5
F00D
330
18
100
AcDbEntity
  8
1DIM
100
AcDbLine
 10
4887.839903189
 20
2459.534411655985
 30
0.0000000000563712
 11
4992.839903189
 21
2459.534411655985
 31
0.0000000000563712
  0
TEXT
  5
F00E
330
18
100
AcDbEntity
  8
1TEXT
100
AcDbText
 10
4889.739903189001
 20
2462.068041238628
 30
0.0
 40
6.0
  1
パールブラック
 72
     1
 11
4913.939903189001
 21
2462.068041238628
 31
0.0
100
AcDbText
  0
LINE
  5
F00F
330
18
100
AcDbEntity
  8
1DIM
100
AcDbLine
 10
4887.839903189
 20
2459.534411655985
 30
0.0000000000563712
 11
4887.839903189
 21
2470.034411655985
 31
0.0000000000563712
  0
LINE
  5
F010
330
18
100
AcDbEntity
  8
1DIM
100
AcDbLine
 10
4992.839903189
 20
2459.534411655985
 30
0.0000000000563712
 11
4992.839903189
 21
2470.034411655985
 31
0.0000000000563712
  0
TEXT
  5
F011
330
18
100
AcDbEntity
  8
1TEXT
100
AcDbText
 10
4942.376361522334
 20
2461.462876180511
 30
0.0
 40
6.0
  1
1-JRT-GQ-LJ-2
 41
0.65
 72
     1
 11
4966.439903189001
 21
2461.462876180511
 31
0.0
100
AcDbText
  0
LINE
  5
F055
330
18
100
AcDbEntity
  8
01
100
AcDbLine
 10
5093.711485466825
 20
2250.035729969088
 30
0.0000000000563712
 11
5116.339770849256
 21
2250.035729969088
 31
0.0000000000563712
  0
LINE
  5
F056
330
18
100
AcDbEntity
  8
01
  6
BYBLOCK
100
AcDbLine
 10
5194.840538691573
 20
2500.034411655985
 30
0.0000000001127424
 11
5348.594918846604
 21
2500.034411655985
 31
0.0000000001127424
  0
LINE
  5
F057
330
18
100
AcDbEntity
  8
01
100
AcDbLine
 10
5245.839770849256
 20
2505.034411655985
 30
0.0000000001127424
 11
5245.839770849256
 21
2478.534411655985
 31
0.0000000001127424
  0
LINE
  5
F058
330
18
100
AcDbEntity
  8
01
100
AcDbLine
 10
5095.839770849256
 20
2370.035729969088
 30
0.0000000000563712
 11
5095.839770849256
 21
2180.035729969088
 31
0.0000000000563712
  0
LINE
  5
F059
330
18
100
AcDbEntity
  8
1CENTER
100
AcDbLine
 10
5110.339770849256
 20
2235.035729969088
 30
0.0000000000563712
 11
5110.339770849256
 21
2243.035729969088
 31
0.0000000000563712
  0
LINE
  5
F05A
330
18
100
AcDbEntity
  8
01
100
AcDbLine
 10
5215.839770849256
 20
2250.035729969088
 30
0.0000000000563712
 11
5275.839770849256
 21
2250.035729969088
 31
0.0000000000563712
  0
LINE
  5
F05B
330
18
100
AcDbEntity
  8
01
100
AcDbLine
 10
5245.839770849256
 20
2280.035729969088
 30
0.0000000000563712
 11
5245.839770849256
 21
2220.035729969088
 31
0.0000000000563712
  0
LINE
  5
F05D
330
18
100
AcDbEntity
  8
01
100
AcDbLine
 10
5271.839770849256
 20
2276.535729969086
 30
0.0000000000563712
 11
5219.839770849259
 21
2276.535729969086
 31
0.0000000000563712
  0
LINE
  5
F05E
330
18
100
AcDbEntity
  8
01
100
AcDbLine
 10
5219.839770849259
 20
2223.535729969086
 30
0.0000000000563712
 11
5271.839770849256
 21
2223.535729969086
 31
0.0000000000563712
  0
LINE
  5
F05F
330
18
100
AcDbEntity
  8
01
100
AcDbLine
 10
5219.339770849259
 20
2276.035729969086
 30
0.0000000000563712
 11
5219.339770849259
 21
2224.035729969086
 31
0.0000000000563712
  0
ARC
  5
F060
330
18
100
AcDbEntity
  8
01
100
AcDbCircle
 10
5219.839770849259
 20
2224.035729969086
 30
0.0000000000563712
 40
0.5
100
AcDbArc
 50
180.0
 51
270.0
  0
ARC
  5
F061
330
18
100
AcDbEntity
  8
01
100
AcDbCircle
 10
5219.839770849259
 20
2276.035729969086
 30
0.0000000000563712
 40
0.5
100
AcDbArc
 50
90.0
 51
180.0
  0
LINE
  5
F062
330
18
100
AcDbEntity
  8
01
100
AcDbLine
 10
5272.339770849256
 20
2276.035729969086
 30
0.0000000000563712
 11
5272.339770849256
 21
2256.21934987727
 31
0.0000000000563712
  0
LINE
  5
F063
330
18
100
AcDbEntity
  8
01
100
AcDbLine
 10
5272.339770849256
 20
2239.035729969088
 30
0.0000000000563712
 11
5272.339770849256
 21
2224.035729969086
 31
0.0000000000563712
  0
ARC
  5
F064
330
18
100
AcDbEntity
  8
01
100
AcDbCircle
 10
5271.839770849256
 20
2224.035729969086
 30
0.0000000000563712
 40
0.5
100
AcDbArc
 50
270.0
 51
0.0
  0
ARC
  5
F065
330
18
100
AcDbEntity
  8
01
100
AcDbCircle
 10
5271.839770849256
 20
2276.035729969086
 30
0.0000000000563712
 40
0.5
100
AcDbArc
 50
0.0
 51
90.0
  0
LINE
  5
F066
330
18
100
AcDbEntity
  8
01
100
AcDbLine
 10
5219.339770849259
 20
2500.034411655985
 30
0.0000000001127424
 11
5272.339770849256
 21
2500.034411655985
 31
0.0000000001127424
  0
LINE
  5
F067
330
18
100
AcDbEntity
  8
01
100
AcDbLine
 10
5219.839770849259
 20
2491.534411655985
 30
0.0000000001127424
 11
5271.839770849256
 21
2491.534411655985
 31
0.0000000001127424
  0
LINE
  5
F068
330
18
100
AcDbEntity
  8
01
100
AcDbLine
 10
5272.339770849256
 20
2500.034411655985
 30
0.0000000001127424
 11
5272.339770849256
 21
2492.034411655985
 31
0.0000000001127424
  0
LINE
  5
F069
330
18
100
AcDbEntity
  8
01
100
AcDbLine
 10
5219.339770849259
 20
2500.034411655985
 30
0.0000000001127424
 11
5219.339770849259
 21
2492.034411655985
 31
0.0000000001127424
  0
ARC
  5
F06A
330
18
100
AcDbEntity
  8
01
100
AcDbCircle
 10
5219.839770849259
 20
2492.034411655985
 30
0.0000000001127424
 40
0.5
100
AcDbArc
 50
180.0
 51
270.0
  0
ARC
  5
F06B
330
18
100
AcDbEntity
  8
01
100
AcDbCircle
 10
5271.839770849256
 20
2492.034411655985
 30
0.0000000001127424
 40
0.5
100
AcDbArc
 50
270.0
 51
0.0
  0
LINE
  5
F06C
330
18
100
AcDbEntity
  8
01
100
AcDbLine
 10
5095.839770849256
 20
2223.535729969089
 30
0.0000000000563712
 11
5095.839770849256
 21
2276.535729969086
 31
0.0000000000563712
  0
LINE
  5
F06D
330
18
100
AcDbEntity
  8
01
100
AcDbLine
 10
5104.339770849256
 20
2224.035729969089
 30
0.0000000000563712
 11
5104.339770849256
 21
2276.035729969086
 31
0.0000000000563712
  0
LINE
  5
F06E
330
18
100
AcDbEntity
  8
01
100
AcDbLine
 10
5095.839770849256
 20
2276.535729969086
 30
0.0000000000563712
 11
5103.839770849256
 21
2276.535729969086
 31
0.0000000000563712
  0
LINE
  5
F06F
330
18
100
AcDbEntity
  8
01
100
AcDbLine
 10
5095.839770849256
 20
2223.535729969089
 30
0.0000000000563712
 11
5103.839770849256
 21
2223.535729969089
 31
0.0000000000563712
  0
ARC
  5
F070
330
18
100
AcDbEntity
  8
01
100
AcDbCircle
 10
5103.839770849256
 20
2224.035729969089
 30
0.0000000000563712
 40
0.5
100
AcDbArc
 50
270.0
 51
0.0
  0
ARC
  5
F071
330
18
100
AcDbEntity
  8
01
100
AcDbCircle
 10
5103.839770849256
 20
2276.035729969086
 30
0.0000000000563712
 40
0.5
100
AcDbArc
 50
0.0
 51
90.0
  0
LINE
  5
F073
330
18
100
AcDbEntity
  8
1CENTER
100
AcDbLine
 10
5110.339770849256
 20
2235.035729969088
 30
0.0000000000563712
 11
5110.339770849256
 21
2243.035729969088
 31
0.0000000000563712
  0
LINE
  5
F074
330
18
100
AcDbEntity
  8
01
  6
CONTINUOUS
100
AcDbLine
 10
5159.819871718168
 20
2244.740253801096
 30
0.0000000000563712
 11
5158.847203536168
 21
2241.475033762614
 31
0.0000000000563712
  0
ARC
  5
F075
330
18
100
AcDbEntity
  8
01
  6
CONTINUOUS
100
AcDbCircle
 10
5158.861490005474
 20
2245.02574371821
 30
0.0000000000563712
 40
1.000000000000006
100
AcDbArc
 50
343.4118644947874
 51
58.83418778761298
  0
SPLINE
  5
F076
330
18
100
AcDbEntity
  8
01
  6
CONTINUOUS
100
AcDbSpline
210
0.0
220
0.0
230
1.0
 70
     8
 71
     3
 72
     8
 73
     4
 74
     0
 42
0.0000000001
 43
0.0000000001
 40
0.0
 40
0.0
 40
0.0
 40
0.0
 40
1.0
 40
1.0
 40
1.0
 40
1.0
 10
5156.256724896555
 20
2241.898455028504
 30
0.0000000000563712
 10
5156.124736320719
 20
2242.005340229367
 30
0.0000000000563712
 10
5155.984655417882
 20
2242.102690261186
 30
0.0000000000563712
 10
5155.835515764402
 20
2242.189448514048
 30
0.0000000000563712
  0
SPLINE
  5
F077
330
18
100
AcDbEntity
  8
01
  6
CONTINUOUS
100
AcDbSpline
210
0.0
220
0.0
230
1.0
 70
     8
 71
     3
 72
    14
 73
    10
 74
     0
 42
0.0000000001
 43
0.0000000001
 40
0.0
 40
0.0
 40
0.0
 40
0.0
 40
0.25
 40
0.25
 40
0.5
 40
0.5
 40
0.75
 40
0.75
 40
1.0
 40
1.0
 40
1.0
 40
1.0
 10
5155.835515764425
 20
2242.189448514088
 30
0.0000000000563712
 10
5151.801667806592
 20
2244.419691966382
 30
0.0000000000563712
 10
5147.8207451076
 20
2246.397065637377
 30
0.0000000000563712
 10
5139.633638916681
 20
2249.811855598487
 30
0.0000000000563712
 10
5135.427496464643
 20
2251.249254771179
 30
0.0000000000563712
 10
5126.862818891719
 20
2253.559187781145
 30
0.0000000000563712
 10
5122.504326703382
 20
2254.431710039363
 30
0.0000000000563712
 10
5113.710457928168
 20
2255.596767369201
 30
0.0000000000563712
 10
5109.275125422711
 20
2255.889296600737
 30
0.0000000000563712
 10
5104.83977084849
 20
2255.889295355191
 30
0.0000000000563712
  0
ARC
  5
F078
330
18
100
AcDbEntity
  8
01
  6
CONTINUOUS
100
AcDbCircle
 10
5104.646081081821
 20
2154.620189788919
 30
0.0000000000563712
 40
106.4157164499828
100
AcDbArc
 50
59.04723661211696
 51
89.8957145362773
  0
SPLINE
  5
F079
330
18
100
AcDbEntity
  8
01
  6
CONTINUOUS
100
AcDbSpline
210
0.0
220
0.0
230
1.0
 70
     8
 71
     3
 72
    20
 73
    16
 74
     0
 42
0.0000000001
 43
0.0000000001
 40
0.0
 40
0.0
 40
0.0
 40
0.0
 40
0.0450185141076617
 40
0.0708537562580309
 40
0.1231444472112413
 40
0.224676505861609
 40
0.2951358743603356
 40
0.3310174624886388
 40
0.4471145593113555
 40
0.5846953166121108
 40
0.7113399750861901
 40
0.784925080953956
 40
0.8574146299694319
 40
0.9290447573420708
 40
1.0
 40
1.0
 40
1.0
 40
1.0
 10
5157.732162193652
 20
2240.461541338275
 30
0.0000000000563712
 10
5157.722551050188
 20
2240.465700597252
 30
0.0000000000563712
 10
5157.707424260027
 20
2240.472246773366
 30
0.0000000000563712
 10
5157.678801070884
 20
2240.489238066375
 30
0.0000000000563712
 10
5157.642082555976
 20
2240.52184094242
 30
0.0000000000563712
 10
5157.599934756767
 20
2240.57968914337
 30
0.0000000000563712
 10
5157.552607902891
 20
2240.647341471868
 30
0.0000000000563712
 10
5157.495516758847
 20
2240.728744075977
 30
0.0000000000563712
 10
5157.395882574909
 20
2240.850071076341
 30
0.0000000000563712
 10
5157.2088720468
 20
2241.04392325253
 30
0.0000000000563712
 10
5156.994416883099
 20
2241.247651822748
 30
0.0000000000563712
 10
5156.794952095755
 20
2241.428297970901
 30
0.0000000000563712
 10
5156.623002364457
 20
2241.580842634022
 30
0.0000000000563712
 10
5156.443647427157
 20
2241.737790940273
 30
0.0000000000563712
 10
5156.3187825533
 20
2241.845136187607
 30
0.0000000000563712
 10
5156.256645621424
 20
2241.898554768147
 30
0.0000000000563712
  0
LINE
  5
F07A
330
18
100
AcDbEntity
  8
01
  6
CONTINUOUS
100
AcDbLine
 10
5157.80582895107
 20
2240.456552708332
 30
0.0000000000563712
 11
5157.786904911607
 21
2240.457834222997
 31
0.0000000000563712
  0
LINE
  5
F07B
330
18
100
AcDbEntity
  8
01
  6
CONTINUOUS
100
AcDbLine
 10
5157.786904911607
 20
2240.457834222997
 30
0.0000000000563712
 11
5157.732162193652
 21
2240.461541338275
 31
0.0000000000563712
  0
ARC
  5
F07C
330
18
100
AcDbEntity
  8
01
  6
CONTINUOUS
100
AcDbCircle
 10
5147.234263447062
 20
2279.061798806315
 30
0.0000000000563712
 40
40.02654238701454
100
AcDbArc
 50
269.7212936630648
 51
285.3143633252261
  0
ARC
  5
F07D
330
18
100
AcDbEntity
  8
01
  6
CONTINUOUS
100
AcDbCircle
 10
5157.409630967128
 20
2241.903268638286
 30
0.0000000000563712
 40
1.5
100
AcDbArc
 50
285.3169063441978
 51
343.4118644947874
  0
LINE
  5
F07E
330
18
100
AcDbEntity
  8
01
  6
CONTINUOUS
100
AcDbLine
 10
5104.839770849256
 20
2239.035729969088
 30
0.0000000000563712
 11
5147.039561374615
 21
2239.035729969088
 31
0.0000000000563712
  0
LINE
  5
F07F
330
18
100
AcDbEntity
  8
01
100
AcDbLine
 10
5104.839770849256
 20
2261.035729969088
 30
0.0000000000563712
 11
5104.839770849256
 21
2239.035729969088
 31
0.0000000000563712
  0
SPLINE
  5
F080
330
18
100
AcDbEntity
  8
01
  6
CONTINUOUS
100
AcDbSpline
210
0.0
220
0.0
230
1.0
 70
     8
 71
     3
 72
    13
 73
     9
 74
     0
 42
0.0000000001
 43
0.0000000001
 40
0.0
 40
0.0
 40
0.0
 40
0.0
 40
0.0801923437833644
 40
0.2134552102585882
 40
0.3466553511806543
 40
0.4782293078370131
 40
0.7389542679832329
 40
1.0
 40
1.0
 40
1.0
 40
1.0
 10
5232.406335244716
 20
2240.747278100482
 30
0.0000000000563712
 10
5232.541754440084
 20
2240.693178104528
 30
0.0000000000563712
 10
5232.90221195332
 20
2240.549175255049
 30
0.0000000000563712
 10
5233.365816647038
 20
2240.310133099405
 30
0.0000000000563712
 10
5233.807686799337
 20
2240.047753096196
 30
0.0000000000563712
 10
5234.252230682408
 20
2239.727242200386
 30
0.0000000000563712
 10
5234.573200164854
 20
2239.386799073565
 30
0.0000000000563712
 10
5234.753332953156
 20
2239.255908619317
 30
0.0000000000563712
 10
5234.843454717926
 20
2239.190423158067
 30
0.0000000000563712
  0
SPLINE
  5
F081
330
18
100
AcDbEntity
  8
01
100
AcDbSpline
210
0.0
220
0.0
230
1.0
 70
     8
 71
     3
 72
    11
 73
     7
 74
     0
 42
0.0000000001
 43
0.0000000001
 40
0.0
 40
0.0
 40
0.0
 40
0.0
 40
0.2605476402037294
 40
0.5152974989895172
 40
0.7637962208008108
 40
1.0
 40
1.0
 40
1.0
 40
1.0
 10
5230.917925186997
 20
2242.059267704487
 30
0.0000000000563712
 10
5230.9714780994
 20
2241.924451082177
 30
0.0000000000563712
 10
5231.077392249317
 20
2241.657817816014
 30
0.0000000000563712
 10
5231.409467905665
 20
2241.304737592162
 30
0.0000000000563712
 10
5231.847153228766
 20
2240.997686369816
 30
0.0000000000563712
 10
5232.191634920226
 20
2240.845651387603
 30
0.0000000000563712
 10
5232.359506712135
 20
2240.771562152877
 30
0.0000000000563712
  0
ARC
  5
F082
330
18
100
AcDbEntity
  8
01
100
AcDbCircle
 10
5367.839770849256
 20
2242.035729969088
 30
0.0000000000563712
 40
3.0
100
AcDbArc
 50
270.0
 51
0.0
  0
LINE
  5
F083
330
18
100
AcDbEntity
  8
01
  6
CONTINUOUS
100
AcDbLine
 10
5254.843020849255
 20
2239.035729969088
 30
0.0000000000563712
 11
5367.839770849256
 21
2239.035729969088
 31
0.0000000000563712
  0
SPLINE
  5
F084
330
18
100
AcDbEntity
  8
01
100
AcDbSpline
210
0.0
220
0.0
230
1.0
 70
     8
 71
     3
 72
    10
 73
     6
 74
     0
 42
0.0000000001
 43
0.0000000001
 40
0.0
 40
0.0
 40
0.0
 40
0.0
 40
0.1591596332908675
 40
0.8591839902836207
 40
1.0
 40
1.0
 40
1.0
 40
1.0
 10
5230.843838973924
 20
2242.519284787917
 30
0.0000000000563712
 10
5230.842897415474
 20
2242.4962330033
 30
0.0000000000563712
 10
5230.837814644616
 20
2242.371793634593
 30
0.0000000000563712
 10
5230.861575707489
 20
2242.230986206996
 30
0.0000000000563712
 10
5230.904926202144
 20
2242.108431344511
 30
0.0000000000563712
 10
5230.912186133895
 20
2242.087907012676
 30
0.0000000000563712
  0
SPLINE
  5
F085
330
18
100
AcDbEntity
  8
01
  6
CONTINUOUS
100
AcDbSpline
210
0.0
220
0.0
230
1.0
 70
     8
 71
     3
 72
    10
 73
     6
 74
     0
 42
0.0000000001
 43
0.0000000001
 40
0.0
 40
0.0
 40
0.0
 40
0.0
 40
0.3918201303123018
 40
0.9940468231634132
 40
1.0
 40
1.0
 40
1.0
 40
1.0
 10
5234.96984327748
 20
2239.156327653297
 30
0.0000000000563712
 10
5235.027609463566
 20
2239.135047123793
 30
0.0000000000563712
 10
5235.174162152724
 20
2239.081058466466
 30
0.0000000000563712
 10
5235.346246255076
 20
2239.037304299286
 30
0.0000000000563712
 10
5235.466728719588
 20
2239.044831315469
 30
0.0000000000563712
 10
5235.467908063813
 20
2239.044904993768
 30
0.0000000000563712
  0
SPLINE
  5
F086
330
18
100
AcDbEntity
  8
01
100
AcDbSpline
210
0.0
220
0.0
230
1.0
 70
     8
 71
     3
 72
    18
 73
    14
 74
     0
 42
0.0000000001
 43
0.0000000001
 40
0.0
 40
0.0
 40
0.0
 40
0.0
 40
0.0037411650843013
 40
0.0986297447690057
 40
0.1875761019416629
 40
0.2764162401811492
 40
0.3698493074111531
 40
0.4734010413854489
 40
0.5960753788310015
 40
0.7116695358418624
 40
0.8189026918008349
 40
0.9315067574098522
 40
1.0
 40
1.0
 40
1.0
 40
1.0
 10
5370.838043612501
 20
2254.516002081268
 30
0.0000000000563712
 10
5370.838611996252
 20
2254.520632143995
 30
0.0000000000563712
 10
5370.853596511239
 20
2254.642696232268
 30
0.0000000000563712
 10
5370.796214910953
 20
2254.881376313839
 30
0.0000000000563712
 10
5370.665657474581
 20
2255.189635193197
 30
0.0000000000563712
 10
5370.464219913765
 20
2255.448943459288
 30
0.0000000000563712
 10
5370.21228649681
 20
2255.66400910256
 30
0.0000000000563712
 10
5369.897435812702
 20
2255.84797432638
 30
0.0000000000563712
 10
5369.519794896578
 20
2255.995718765232
 30
0.0000000000563712
 10
5369.090592939408
 20
2256.106045863533
 30
0.0000000000563712
 10
5368.63270691352
 20
2256.178356016073
 30
0.0000000000563712
 10
5368.212103932892
 20
2256.216263013592
 30
0.0000000000563712
 10
5367.941999887025
 20
2256.215542809442
 30
0.0000000000563712
 10
5367.839843195014
 20
2256.215270419323
 30
0.0000000000563712
  0
SPLINE
  5
F087
330
18
100
AcDbEntity
  8
01
100
AcDbSpline
210
0.0
220
0.0
230
1.0
 70
     8
 71
     3
 72
    19
 73
    15
 74
     0
 42
0.0000000001
 43
0.0000000001
 40
0.0
 40
0.0
 40
0.0
 40
0.0
 40
0.077318707389703
 40
0.1644064665832291
 40
0.2526742168276733
 40
0.3413076136591857
 40
0.4317419507703862
 40
0.5226255462847058
 40
0.6143891804552037
 40
0.7062465328243186
 40
0.7952834416848785
 40
0.8728355436151866
 40
0.9433313479901454
 40
1.0
 40
1.0
 40
1.0
 40
1.0
 10
5261.839770849256
 20
2256.21934987727
 30
0.0000000000563712
 10
5261.638211802061
 20
2256.222334229092
 30
0.0000000000563712
 10
5261.20929474112
 20
2256.225745505583
 30
0.0000000000563712
 10
5260.561218770445
 20
2256.264000090664
 30
0.0000000000563712
 10
5259.908730272587
 20
2256.32686075417
 30
0.0000000000563712
 10
5259.28582070204
 20
2256.415215285955
 30
0.0000000000563712
 10
5258.703620825239
 20
2256.524163790892
 30
0.0000000000563712
 10
5258.174722527789
 20
2256.651168937958
 30
0.0000000000563712
 10
5257.709531416818
 20
2256.790928705251
 30
0.0000000000563712
 10
5257.324399810906
 20
2256.934853789707
 30
0.0000000000563712
 10
5257.041048917445
 20
2257.069166001836
 30
0.0000000000563712
 10
5256.859950060549
 20
2257.176793683108
 30
0.0000000000563712
 10
5256.764954237175
 20
2257.253195126785
 30
0.0000000000563712
 10
5256.762777874039
 20
2257.256424831273
 30
0.0000000000563712
 10
5256.761808015255
 20
2257.257864093509
 30
0.0000000000563712
  0
LINE
  5
F088
330
18
100
AcDbEntity
  8
01
100
AcDbLine
 10
5367.839770849256
 20
2256.21934987727
 30
0.0000000000563712
 11
5261.839770849256
 21
2256.21934987727
 31
0.0000000000563712
  0
SPLINE
  5
F089
330
18
100
AcDbEntity
  8
01
100
AcDbSpline
210
0.0
220
0.0
230
1.0
 70
     8
 71
     3
 72
    20
 73
    16
 74
     0
 42
0.0000000001
 43
0.0000000001
 40
0.0
 40
0.0
 40
0.0
 40
0.0
 40
0.124999999999997
 40
0.124999999999997
 40
0.2499999999999939
 40
0.2499999999999939
 40
0.3749999999999909
 40
0.3749999999999909
 40
0.4999999999999879
 40
0.4999999999999879
 40
0.6249999999999849
 40
0.6249999999999849
 40
0.7499999999999818
 40
0.7499999999999818
 40
1.0
 40
1.0
 40
1.0
 40
1.0
 10
5370.839770849256
 20
2246.074976596471
 30
0.0000000000563712
 10
5370.839770849256
 20
2245.988662485374
 30
0.0000000000563712
 10
5370.820559989001
 20
2245.903540860265
 30
0.0000000000563712
 10
5370.74533438895
 20
2245.735607043815
 30
0.0000000000563712
 10
5370.688502765723
 20
2245.651981607924
 30
0.0000000000563712
 10
5370.539388612795
 20
2245.491393114072
 30
0.0000000000563712
 10
5370.448126196054
 20
2245.415017310538
 30
0.0000000000563712
 10
5370.232599471337
 20
2245.270119454279
 30
0.0000000000563712
 10
5370.106720779808
 20
2245.201022367256
 30
0.0000000000563712
 10
5369.830817774931
 20
2245.076614062187
 30
0.0000000000563712
 10
5369.680351216111
 20
2245.020700854486
 30
0.0000000000563712
 10
5369.3539804458
 20
2244.921799640988
 30
0.0000000000563712
 10
5369.177945693325
 20
2244.879081405184
 30
0.0000000000563712
 10
5368.634658644622
 20
2244.776743025204
 30
0.0000000000563712
 10
5368.238846922546
 20
2244.740253801096
 30
0.0000000000563712
 10
5367.839770849256
 20
2244.740253801096
 30
0.0000000000563712
  0
LINE
  5
F08A
330
18
100
AcDbEntity
  8
01
100
AcDbLine
 10
5370.839770849256
 20
2246.074976596471
 30
0.0000000000563712
 11
5370.839770849256
 21
2243.140364587568
 31
0.0000000000563712
  0
SPLINE
  5
F08B
330
18
100
AcDbEntity
  8
01
100
AcDbSpline
210
0.0
220
0.0
230
1.0
 70
     8
 71
     3
 72
    20
 73
    16
 74
     0
 42
0.0000000001
 43
0.0000000001
 40
0.0
 40
0.0
 40
0.0
 40
0.0
 40
0.1249999999999996
 40
0.1249999999999996
 40
0.2499999999999991
 40
0.2499999999999991
 40
0.3749999999999987
 40
0.3749999999999987
 40
0.4999999999999982
 40
0.4999999999999982
 40
0.7499999999999992
 40
0.7499999999999992
 40
0.8749999999999996
 40
0.8749999999999996
 40
1.0
 40
1.0
 40
1.0
 40
1.0
 10
5233.839770849256
 20
2244.740253801096
 30
0.0000000000563712
 10
5233.640352699022
 20
2244.740253801096
 30
0.0000000000563712
 10
5233.444301757701
 20
2244.749147457274
 30
0.0000000000563712
 10
5233.058655899033
 20
2244.783959130352
 30
0.0000000000563712
 10
5232.867035375371
 20
2244.810324823134
 30
0.0000000000563712
 10
5232.502983785054
 20
2244.878740185942
 30
0.0000000000563712
 10
5232.330325836661
 20
2244.920553885922
 30
0.0000000000563712
 10
5232.003613100009
 20
2245.019168077394
 30
0.0000000000563712
 10
5231.849952093382
 20
2245.076143268732
 30
0.0000000000563712
 10
5231.436677569303
 20
2245.262246469291
 30
0.0000000000563712
 10
5231.214900388079
 20
2245.411279247074
 30
0.0000000000563712
 10
5230.992412041238
 20
2245.650312119244
 30
0.0000000000563712
 10
5230.935135943373
 20
2245.733882025188
 30
0.0000000000563712
 10
5230.858962391829
 20
2245.903240057757
 30
0.0000000000563712
 10
5230.839770849256
 20
2245.988712105123
 30
0.0000000000563712
 10
5230.839770849256
 20
2246.074976596471
 30
0.0000000000563712
  0
SPLINE
  5
F08C
330
18
100
AcDbEntity
  8
01
100
AcDbSpline
210
0.0
220
0.0
230
1.0
 70
     8
 71
     3
 72
     8
 73
     4
 74
     0
 42
0.0000000001
 43
0.0000000001
 40
0.0
 40
0.0
 40
0.0
 40
0.0
 40
1.0
 40
1.0
 40
1.0
 40
1.0
 10
5230.839770849256
 20
2242.52142102898
 30
0.0000000000563712
 10
5230.839770849256
 20
2242.425303871307
 30
0.0000000000563712
 10
5230.859712050797
 20
2242.317885323514
 30
0.0000000000563712
 10
5230.897523256797
 20
2242.199916626495
 30
0.0000000000563712
  0
LINE
  5
F08D
330
18
100
AcDbEntity
  8
01
100
AcDbLine
 10
5230.839770849256
 20
2242.52142102898
 30
0.0000000000563712
 11
5230.839770849256
 21
2246.074976596471
 31
0.0000000000563712
  0
LINE
  5
F08E
330
18
100
AcDbEntity
  8
01
100
AcDbLine
 10
5367.839770849256
 20
2244.740253801096
 30
0.0000000000563712
 11
5233.839770849256
 21
2244.740253801096
 31
0.0000000000563712
  0
LINE
  5
F08F
330
18
100
AcDbEntity
  8
01
  6
CONTINUOUS
100
AcDbLine
 10
5255.839770849256
 20
2261.035729969088
 30
0.0000000000563712
 11
5231.839770849256
 21
2261.035729969088
 31
0.0000000000563712
  0
SPLINE
  5
F090
330
18
100
AcDbEntity
  8
01
100
AcDbSpline
210
0.0
220
0.0
230
1.0
 70
     8
 71
     3
 72
    16
 73
    12
 74
     0
 42
0.0000000001
 43
0.0000000001
 40
0.0
 40
0.0
 40
0.0
 40
0.0
 40
0.2500000000000044
 40
0.2500000000000044
 40
0.5000000000000089
 40
0.5000000000000089
 40
0.6250000000000048
 40
0.6250000000000048
 40
0.7500000000000007
 40
0.7500000000000007
 40
1.0
 40
1.0
 40
1.0
 40
1.0
 10
5367.839770849256
 20
2240.456549365658
 30
0.0000000000563712
 10
5368.243437713454
 20
2240.456549365658
 30
0.0000000000563712
 10
5368.643448526629
 20
2240.529850609205
 30
0.0000000000563712
 10
5369.374069556279
 20
2240.804747230419
 30
0.0000000000563712
 10
5369.71167255957
 20
2241.010934146042
 30
0.0000000000563712
 10
5370.120972661829
 20
2241.384261784813
 30
0.0000000000563712
 10
5370.241833111484
 20
2241.518679972584
 30
0.0000000000563712
 10
5370.453494104295
 20
2241.806916245062
 30
0.0000000000563712
 10
5370.544904400702
 20
2241.962368995361
 30
0.0000000000563712
 10
5370.764424807274
 20
2242.44527471375
 30
0.0000000000563712
 10
5370.839770849256
 20
2242.792693909262
 30
0.0000000000563712
 10
5370.839770849256
 20
2243.140364587568
 30
0.0000000000563712
  0
LINE
  5
F091
330
18
100
AcDbEntity
  8
01
100
AcDbLine
 10
5232.413040618918
 20
2240.765796650861
 30
0.0000000000563712
 11
5232.276296269672
 21
2240.813926024235
 31
0.0000000000563712
  0
SPLINE
  5
F092
330
18
100
AcDbEntity
  8
01
100
AcDbSpline
210
0.0
220
0.0
230
1.0
 70
     8
 71
     3
 72
     9
 73
     5
 74
     0
 42
0.0000000001
 43
0.0000000001
 40
0.0
 40
0.0
 40
0.0
 40
0.0
 40
0.4964377885537041
 40
0.9999999999999999
 40
0.9999999999999999
 40
0.9999999999999999
 40
0.9999999999999999
 10
5234.10534627201
 20
2240.456552708333
 30
0.0000000000563712
 10
5234.035377400012
 20
2240.454322107867
 30
0.0000000000563712
 10
5233.894435526507
 20
2240.449828895389
 30
0.0000000000563712
 10
5233.753707792912
 20
2240.45761869138
 30
0.0000000000563712
 10
5233.682842624172
 20
2240.461541338276
 30
0.0000000000563712
  0
LINE
  5
F093
330
18
100
AcDbEntity
  8
01
100
AcDbLine
 10
5367.839770849256
 20
2240.456549365658
 30
0.0000000000563712
 11
5234.105445160889
 21
2240.456549365658
 31
0.0000000000563712
  0
LINE
  5
F094
330
18
100
AcDbEntity
  8
01
100
AcDbLine
 10
5370.839770849256
 20
2243.140364587568
 30
0.0000000000563712
 11
5370.839770849256
 21
2242.035729969088
 31
0.0000000000563712
  0
LINE
  5
F095
330
18
100
AcDbEntity
  8
01
  6
CONTINUOUS
100
AcDbLine
 10
5254.839770849256
 20
2239.035729969088
 30
0.0000000000563712
 11
5235.534142614995
 21
2239.035729969088
 31
0.0000000000563712
  0
SPLINE
  5
F096
330
18
100
AcDbEntity
  8
1DIM
100
AcDbSpline
210
0.0
220
0.0
230
1.0
 70
     8
 71
     3
 72
     8
 73
     4
 74
     0
 42
0.0000000001
 43
0.0000000001
 40
0.0
 40
0.0
 40
0.0
 40
0.0
 40
1.0
 40
1.0
 40
1.0
 40
1.0
 10
5235.232022401859
 20
2239.113790440864
 30
0.0000000000563712
 10
5235.346166492953
 20
2239.061851618748
 30
0.0000000000563712
 10
5235.446144352698
 20
2239.035729969088
 30
0.0000000000563712
 10
5235.534142614995
 20
2239.035729969088
 30
0.0000000000563712
  0
LINE
  5
F097
330
18
100
AcDbEntity
  8
01
  6
CONTINUOUS
100
AcDbLine
 10
5230.839770849256
 20
2246.074976596471
 30
0.0000000000563712
 11
5230.839770849256
 21
2260.035729969088
 31
0.0000000000563712
  0
ARC
  5
F098
330
18
100
AcDbEntity
  8
01
  6
CONTINUOUS
100
AcDbCircle
 10
5231.839770849256
 20
2260.035729969088
 30
0.0000000000563712
 40
1.0
100
AcDbArc
 50
90.0
 51
180.0
  0
LINE
  5
F099
330
18
100
AcDbEntity
  8
01
  6
CONTINUOUS
100
AcDbLine
 10
5370.839770849256
 20
2254.515006389348
 30
0.0000000000563712
 11
5370.839770849256
 21
2246.074976596471
 31
0.0000000000563712
  0
LINE
  5
F09A
330
18
100
AcDbEntity
  8
01
100
AcDbLine
 10
5256.839770849256
 20
2260.035729969088
 30
0.0000000000563712
 11
5256.839770849256
 21
2257.272807840765
 31
0.0000000000563712
  0
ARC
  5
F09B
330
18
100
AcDbEntity
  8
01
100
AcDbCircle
 10
5255.839770849256
 20
2260.035729969088
 30
0.0000000000563712
 40
1.0
100
AcDbArc
 50
0.0
 51
90.0
  0
SPLINE
  5
F09C
330
18
100
AcDbEntity
  8
1DIM
100
AcDbSpline
210
0.0
220
0.0
230
1.0
 70
     8
 71
     3
 72
     9
 73
     5
 74
     0
 42
0.0000000001
 43
0.0000000001
 40
0.0
 40
0.0
 40
0.0
 40
0.0
 40
0.8343439945455199
 40
0.9999999999999999
 40
0.9999999999999999
 40
0.9999999999999999
 40
0.9999999999999999
 10
5235.232022401859
 20
2239.113790440864
 30
0.0000000000563712
 10
5235.118045901303
 20
2239.116743761062
 30
0.0000000000563712
 10
5234.981439775651
 20
2239.120283452386
 30
0.0000000000563712
 10
5234.866751981044
 20
2239.18723200872
 30
0.0000000000563712
 10
5234.847753259115
 20
2239.198322439134
 30
0.0000000000563712
  0
SPLINE
  5
F09D
330
18
100
AcDbEntity
  8
01
100
AcDbSpline
210
0.0
220
0.0
230
1.0
 70
     8
 71
     3
 72
     9
 73
     5
 74
     0
 42
0.0000000001
 43
0.0000000001
 40
0.0
 40
0.0
 40
0.0
 40
0.0
 40
0.5960549951321458
 40
1.0
 40
1.0
 40
1.0
 40
1.0
 10
5233.682842624172
 20
2240.461541338276
 30
0.0000000000563712
 10
5233.419882063792
 20
2240.492363841766
 30
0.0000000000563712
 10
5232.9787137781
 20
2240.544074680098
 30
0.0000000000563712
 10
5232.575796885187
 20
2240.702002497779
 30
0.0000000000563712
 10
5232.413040618918
 20
2240.765796650861
 30
0.0000000000563712
  0
SPLINE
  5
F09E
330
18
100
AcDbEntity
  8
01
100
AcDbSpline
210
0.0
220
0.0
230
1.0
 70
     8
 71
     3
 72
     9
 73
     5
 74
     0
 42
0.0000000001
 43
0.0000000001
 40
0.0
 40
0.0
 40
0.0
 40
0.0
 40
0.3786216536163409
 40
1.0
 40
1.0
 40
1.0
 40
1.0
 10
5230.920980970781
 20
2242.060263430957
 30
0.0000000000563712
 10
5230.913703009492
 20
2242.076848316442
 30
0.0000000000563712
 10
5230.8944807563
 20
2242.120651636528
 30
0.0000000000563712
 10
5230.896357246451
 20
2242.169539047751
 30
0.0000000000563712
 10
5230.897523256797
 20
2242.199916626495
 30
0.0000000000563712
  0
ARC
  5
F0A0
330
18
100
AcDbEntity
  8
01
  6
CONTINUOUS
100
AcDbCircle
 10
5261.839770849256
 20
2468.527256925102
 30
0.0000000001127424
 40
5.0
100
AcDbArc
 50
180.0
 51
270.0
  0
ARC
  5
F0A1
330
18
100
AcDbEntity
  8
01
  6
CONTINUOUS
100
AcDbCircle
 10
5367.839770849256
 20
2460.527256925102
 30
0.0000000001127424
 40
3.0
100
AcDbArc
 50
0.0
 51
90.0
  0
LINE
  5
F0A2
330
18
100
AcDbEntity
  8
01
  6
CONTINUOUS
100
AcDbLine
 10
5367.839770849256
 20
2463.527256925102
 30
0.0000000001127424
 11
5261.839770849256
 21
2463.527256925102
 31
0.0000000001127424
  0
LINE
  5
F0A3
330
18
100
AcDbEntity
  8
01
  6
CONTINUOUS
100
AcDbLine
 10
5233.839770849256
 20
2436.012692499766
 30
0.0000000001127424
 11
5367.839770849256
 21
2436.012692499766
 31
0.0000000001127424
  0
ARC
  5
F0A4
330
18
100
AcDbEntity
  8
01
  6
CONTINUOUS
100
AcDbCircle
 10
5367.839770849256
 20
2439.012692499766
 30
0.0000000001127424
 40
3.0
100
AcDbArc
 50
270.0
 51
0.0
  0
ARC
  5
F0A5
330
18
100
AcDbEntity
  8
01
  6
CONTINUOUS
100
AcDbCircle
 10
5233.839770849256
 20
2439.012692499766
 30
0.0000000001127424
 40
3.0
100
AcDbArc
 50
180.0
 51
270.0
  0
LINE
  5
F0A6
330
18
100
AcDbEntity
  8
01
  6
CONTINUOUS
100
AcDbLine
 10
5255.839770849256
 20
2491.034411655985
 30
0.0000000001127424
 11
5231.839770849256
 21
2491.034411655985
 31
0.0000000001127424
  0
LINE
  5
F0A7
330
18
100
AcDbEntity
  8
01
  6
CONTINUOUS
100
AcDbLine
 10
5230.839770849256
 20
2439.212692499766
 30
0.0000000001127424
 11
5230.839770849256
 21
2491.034411655985
 31
0.0000000001127424
  0
LINE
  5
F0A8
330
18
100
AcDbEntity
  8
01
  6
CONTINUOUS
100
AcDbLine
 10
5230.839770849256
 20
2491.034411655985
 30
0.0000000001127424
 11
5231.839770849256
 21
2491.034411655985
 31
0.0000000001127424
  0
LINE
  5
F0A9
330
18
100
AcDbEntity
  8
01
  6
CONTINUOUS
100
AcDbLine
 10
5256.839770849256
 20
2491.034411655985
 30
0.0000000001127424
 11
5256.839770849256
 21
2465.773716661095
 31
0.0000000001127424
  0
LINE
  5
F0AA
330
18
100
AcDbEntity
  8
01
  6
CONTINUOUS
100
AcDbLine
 10
5255.839770849256
 20
2491.034411655985
 30
0.0000000001127424
 11
5256.839770849256
 21
2491.034411655985
 31
0.0000000001127424
  0
SPLINE
  5
F0AB
330
18
100
AcDbEntity
  8
01
  6
CONTINUOUS
100
AcDbSpline
210
0.0
220
0.0
230
1.0
 70
     8
 71
     3
 72
    22
 73
    18
 74
     0
 42
0.0000000001
 43
0.0000000001
 40
0.0
 40
0.0
 40
0.0
 40
0.0
 40
0.125
 40
0.125
 40
0.25
 40
0.25
 40
0.375
 40
0.375
 40
0.5
 40
0.5
 40
0.625
 40
0.625
 40
0.75
 40
0.75
 40
0.875
 40
0.875
 40
1.0
 40
1.0
 40
1.0
 40
1.0
 10
5256.839770849256
 20
2465.773716661095
 30
0.0000000001127424
 10
5256.839770849256
 20
2465.431081232127
 30
0.0000000001127424
 10
5256.870545919093
 20
2465.092724869155
 30
0.0000000001127424
 10
5256.991164015792
 20
2464.424142329276
 30
0.0000000001127424
 10
5257.082159434995
 20
2464.091745549234
 30
0.0000000001127424
 10
5257.318405104506
 20
2463.455064602292
 30
0.0000000001127424
 10
5257.463597144191
 20
2463.148747310114
 30
0.0000000001127424
 10
5257.809440420655
 20
2462.560620929582
 30
0.0000000001127424
 10
5258.010451892342
 20
2462.279548462648
 30
0.0000000001127424
 10
5258.456361874085
 20
2461.763796027933
 30
0.0000000001127424
 10
5258.703649005947
 20
2461.525511877732
 30
0.0000000001127424
 10
5259.246368446293
 20
2461.09781405943
 30
0.0000000001127424
 10
5259.535269417702
 20
2460.913268690371
 30
0.0000000001127424
 10
5260.150583281822
 20
2460.606863056606
 30
0.0000000001127424
 10
5260.480483372961
 20
2460.484937293773
 30
0.0000000001127424
 10
5261.148763201614
 20
2460.323244651307
 30
0.0000000001127424
 10
5261.490270468321
 20
2460.281168786375
 30
0.0000000001127424
 10
5261.839770849256
 20
2460.281168786375
 30
0.0000000001127424
  0
SPLINE
  5
F0AC
330
18
100
AcDbEntity
  8
01
  6
CONTINUOUS
100
AcDbSpline
210
0.0
220
0.0
230
1.0
 70
     8
 71
     3
 72
    20
 73
    16
 74
     0
 42
0.0000000001
 43
0.0000000001
 40
0.0
 40
0.0
 40
0.0
 40
0.0
 40
0.1250000000000056
 40
0.1250000000000056
 40
0.2500000000000112
 40
0.2500000000000112
 40
0.5000000000000075
 40
0.5000000000000075
 40
0.6250000000000057
 40
0.6250000000000057
 40
0.7500000000000038
 40
0.7500000000000038
 40
0.875000000000002
 40
0.875000000000002
 40
1.0
 40
1.0
 40
1.0
 40
1.0
 10
5367.839770849256
 20
2460.281168786375
 30
0.0000000001127424
 10
5368.044618120432
 20
2460.281168786375
 30
0.0000000001127424
 10
5368.245814570684
 20
2460.261061611197
 30
0.0000000001127424
 10
5368.641218923369
 20
2460.182416733938
 30
0.0000000001127424
 10
5368.837158016035
 20
2460.122845595631
 30
0.0000000001127424
 10
5369.390546311244
 20
2459.893421159535
 30
0.0000000001127424
 10
5369.72493201565
 20
2459.668315111607
 30
0.0000000001127424
 10
5370.133412941008
 20
2459.26077967319
 30
0.0000000001127424
 10
5370.256352210316
 20
2459.111142057633
 30
0.0000000001127424
 10
5370.466326251926
 20
2458.797946260961
 30
0.0000000001127424
 10
5370.55424662059
 20
2458.634014371684
 30
0.0000000001127424
 10
5370.696800625083
 20
2458.29218755696
 30
0.0000000001127424
 10
5370.750677919496
 20
2458.115113742839
 30
0.0000000001127424
 10
5370.821814861976
 20
2457.760444388513
 30
0.0000000001127424
 10
5370.839770849256
 20
2457.581299910947
 30
0.0000000001127424
 10
5370.839770849256
 20
2457.400415249006
 30
0.0000000001127424
  0
LINE
  5
F0AD
330
18
100
AcDbEntity
  8
01
  6
CONTINUOUS
100
AcDbLine
 10
5261.839770849256
 20
2460.281168786375
 30
0.0000000001127424
 11
5367.839770849256
 21
2460.281168786375
 31
0.0000000001127424
  0
LINE
  5
F0AE
330
18
100
AcDbEntity
  8
01
  6
CONTINUOUS
100
AcDbLine
 10
5370.839770849256
 20
2460.527256925102
 30
0.0000000001127424
 11
5370.839770849256
 21
2457.400415249006
 31
0.0000000001127424
  0
LINE
  5
F0AF
330
18
100
AcDbEntity
  8
01
  6
CONTINUOUS
100
AcDbLine
 10
5370.839770849256
 20
2457.400415249006
 30
0.0000000001127424
 11
5370.839770849256
 21
2439.012692499766
 31
0.0000000001127424
  0
LINE
  5
F0B4
330
18
100
AcDbEntity
  8
1CENTER
100
AcDbLine
 10
5041.340003528745
 20
2235.035729969088
 30
0.0000000000563712
 11
5041.340003528745
 21
2243.035729969088
 31
0.0000000000563712
  0
LINE
  5
F0B5
330
18
100
AcDbEntity
  8
1CENTER
100
AcDbLine
 10
5041.340003528745
 20
2235.035729969088
 30
0.0000000000563712
 11
5041.340003528745
 21
2243.035729969088
 31
0.0000000000563712
  0
LINE
  5
F0B6
330
18
100
AcDbEntity
  8
01
  6
CONTINUOUS
100
AcDbLine
 10
4991.859902659831
 20
2244.740253801096
 30
0.0000000000563712
 11
4992.832570841832
 21
2241.475033762614
 31
0.0000000000563712
  0
ARC
  5
F0B7
330
18
100
AcDbEntity
  8
01
  6
CONTINUOUS
100
AcDbCircle
 10
4992.818284372526
 20
2245.02574371821
 30
0.0000000000563712
 40
1.000000000000006
100
AcDbArc
 50
121.1658122123887
 51
196.5881355052063
  0
SPLINE
  5
F0B8
330
18
100
AcDbEntity
  8
01
  6
CONTINUOUS
100
AcDbSpline
210
0.0
220
0.0
230
1.0
 70
     8
 71
     3
 72
     8
 73
     4
 74
     0
 42
0.0000000001
 43
0.0000000001
 40
0.0
 40
0.0
 40
0.0
 40
0.0
 40
1.0
 40
1.0
 40
1.0
 40
1.0
 10
4995.423049481446
 20
2241.898455028504
 30
0.0000000000563712
 10
4995.55503805728
 20
2242.005340229367
 30
0.0000000000563712
 10
4995.695118960119
 20
2242.102690261186
 30
0.0000000000563712
 10
4995.844258613599
 20
2242.189448514048
 30
0.0000000000563712
  0
SPLINE
  5
F0B9
330
18
100
AcDbEntity
  8
01
  6
CONTINUOUS
100
AcDbSpline
210
0.0
220
0.0
230
1.0
 70
     8
 71
     3
 72
    14
 73
    10
 74
     0
 42
0.0000000001
 43
0.0000000001
 40
0.0
 40
0.0
 40
0.0
 40
0.0
 40
0.25
 40
0.25
 40
0.5
 40
0.5
 40
0.75
 40
0.75
 40
1.0
 40
1.0
 40
1.0
 40
1.0
 10
4995.844258613575
 20
2242.189448514088
 30
0.0000000000563712
 10
4999.878106571407
 20
2244.419691966382
 30
0.0000000000563712
 10
5003.859029270399
 20
2246.397065637377
 30
0.0000000000563712
 10
5012.046135461318
 20
2249.811855598487
 30
0.0000000000563712
 10
5016.252277913356
 20
2251.249254771179
 30
0.0000000000563712
 10
5024.81695548628
 20
2253.559187781145
 30
0.0000000000563712
 10
5029.175447674617
 20
2254.431710039363
 30
0.0000000000563712
 10
5037.969316449831
 20
2255.596767369201
 30
0.0000000000563712
 10
5042.404648955287
 20
2255.889296600737
 30
0.0000000000563712
 10
5046.840003529509
 20
2255.889295355191
 30
0.0000000000563712
  0
ARC
  5
F0BA
330
18
100
AcDbEntity
  8
01
  6
CONTINUOUS
100
AcDbCircle
 10
5047.033693296179
 20
2154.620189788919
 30
0.0000000000563712
 40
106.4157164499828
100
AcDbArc
 50
90.1042854637227
 51
120.9527633878897
  0
SPLINE
  5
F0BB
330
18
100
AcDbEntity
  8
01
  6
CONTINUOUS
100
AcDbSpline
210
0.0
220
0.0
230
1.0
 70
     8
 71
     3
 72
    20
 73
    16
 74
     0
 42
0.0000000001
 43
0.0000000001
 40
0.0
 40
0.0
 40
0.0
 40
0.0
 40
0.0450185141076617
 40
0.0708537562580309
 40
0.1231444472112413
 40
0.224676505861609
 40
0.2951358743603356
 40
0.3310174624886388
 40
0.4471145593113555
 40
0.5846953166121108
 40
0.7113399750861901
 40
0.784925080953956
 40
0.8574146299694319
 40
0.9290447573420708
 40
1.0
 40
1.0
 40
1.0
 40
1.0
 10
4993.947612184349
 20
2240.461541338275
 30
0.0000000000563712
 10
4993.957223327812
 20
2240.465700597252
 30
0.0000000000563712
 10
4993.972350117974
 20
2240.472246773366
 30
0.0000000000563712
 10
4994.000973307117
 20
2240.489238066375
 30
0.0000000000563712
 10
4994.037691822024
 20
2240.52184094242
 30
0.0000000000563712
 10
4994.079839621234
 20
2240.57968914337
 30
0.0000000000563712
 10
4994.127166475108
 20
2240.647341471868
 30
0.0000000000563712
 10
4994.184257619154
 20
2240.728744075977
 30
0.0000000000563712
 10
4994.28389180309
 20
2240.850071076341
 30
0.0000000000563712
 10
4994.470902331199
 20
2241.04392325253
 30
0.0000000000563712
 10
4994.685357494902
 20
2241.247651822748
 30
0.0000000000563712
 10
4994.884822282245
 20
2241.428297970901
 30
0.0000000000563712
 10
4995.056772013544
 20
2241.580842634022
 30
0.0000000000563712
 10
4995.236126950842
 20
2241.737790940273
 30
0.0000000000563712
 10
4995.3609918247
 20
2241.845136187607
 30
0.0000000000563712
 10
4995.423128756576
 20
2241.898554768147
 30
0.0000000000563712
  0
LINE
  5
F0BC
330
18
100
AcDbEntity
  8
01
  6
CONTINUOUS
100
AcDbLine
 10
4993.873945426931
 20
2240.456552708332
 30
0.0000000000563712
 11
4993.892869466394
 21
2240.457834222997
 31
0.0000000000563712
  0
LINE
  5
F0BD
330
18
100
AcDbEntity
  8
01
  6
CONTINUOUS
100
AcDbLine
 10
4993.892869466394
 20
2240.457834222997
 30
0.0000000000563712
 11
4993.947612184349
 21
2240.461541338275
 31
0.0000000000563712
  0
ARC
  5
F0BE
330
18
100
AcDbEntity
  8
01
  6
CONTINUOUS
100
AcDbCircle
 10
5004.445510930938
 20
2279.061798806315
 30
0.0000000000563712
 40
40.02654238701454
100
AcDbArc
 50
254.6856366747722
 51
270.2787063368831
  0
ARC
  5
F0BF
330
18
100
AcDbEntity
  8
01
  6
CONTINUOUS
100
AcDbCircle
 10
4994.270143410873
 20
2241.903268638286
 30
0.0000000000563712
 40
1.5
100
AcDbArc
 50
196.5881355052063
 51
254.6830936558023
  0
LINE
  5
F0C0
330
18
100
AcDbEntity
  8
01
  6
CONTINUOUS
100
AcDbLine
 10
5046.840003528743
 20
2239.035729969088
 30
0.0000000000563712
 11
5004.640213003384
 21
2239.035729969088
 31
0.0000000000563712
  0
LINE
  5
F0C1
330
18
100
AcDbEntity
  8
01
100
AcDbLine
 10
5046.840003528743
 20
2261.035729969088
 30
0.0000000000563712
 11
5046.840003528743
 21
2239.035729969088
 31
0.0000000000563712
  0
SPLINE
  5
F0C2
330
18
100
AcDbEntity
  8
01
  6
CONTINUOUS
100
AcDbSpline
210
0.0
220
0.0
230
1.0
 70
     8
 71
     3
 72
    13
 73
     9
 74
     0
 42
0.0000000001
 43
0.0000000001
 40
0.0
 40
0.0
 40
0.0
 40
0.0
 40
0.0801923437833644
 40
0.2134552102585882
 40
0.3466553511806543
 40
0.4782293078370131
 40
0.7389542679832329
 40
1.0
 40
1.0
 40
1.0
 40
1.0
 10
4919.273439133285
 20
2240.747278100482
 30
0.0000000000563712
 10
4919.138019937915
 20
2240.693178104528
 30
0.0000000000563712
 10
4918.777562424679
 20
2240.549175255049
 30
0.0000000000563712
 10
4918.313957730963
 20
2240.310133099405
 30
0.0000000000563712
 10
4917.872087578664
 20
2240.047753096196
 30
0.0000000000563712
 10
4917.42754369559
 20
2239.727242200386
 30
0.0000000000563712
 10
4917.106574213147
 20
2239.386799073565
 30
0.0000000000563712
 10
4916.926441424843
 20
2239.255908619317
 30
0.0000000000563712
 10
4916.836319660073
 20
2239.190423158067
 30
0.0000000000563712
  0
SPLINE
  5
F0C3
330
18
100
AcDbEntity
  8
01
100
AcDbSpline
210
0.0
220
0.0
230
1.0
 70
     8
 71
     3
 72
    11
 73
     7
 74
     0
 42
0.0000000001
 43
0.0000000001
 40
0.0
 40
0.0
 40
0.0
 40
0.0
 40
0.2605476402037294
 40
0.5152974989895172
 40
0.7637962208008108
 40
1.0
 40
1.0
 40
1.0
 40
1.0
 10
4920.761849191003
 20
2242.059267704487
 30
0.0000000000563712
 10
4920.708296278599
 20
2241.924451082177
 30
0.0000000000563712
 10
4920.602382128682
 20
2241.657817816014
 30
0.0000000000563712
 10
4920.270306472336
 20
2241.304737592162
 30
0.0000000000563712
 10
4919.832621149235
 20
2240.997686369816
 30
0.0000000000563712
 10
4919.488139457775
 20
2240.845651387603
 30
0.0000000000563712
 10
4919.320267665866
 20
2240.771562152877
 30
0.0000000000563712
  0
ARC
  5
F0C4
330
18
100
AcDbEntity
  8
01
100
AcDbCircle
 10
4783.840003528745
 20
2242.035729969088
 30
0.0000000000563712
 40
3.0
100
AcDbArc
 50
180.0
 51
270.0
  0
LINE
  5
F0C5
330
18
100
AcDbEntity
  8
01
  6
CONTINUOUS
100
AcDbLine
 10
4896.836753528745
 20
2239.035729969088
 30
0.0000000000563712
 11
4783.840003528745
 21
2239.035729969088
 31
0.0000000000563712
  0
SPLINE
  5
F0C6
330
18
100
AcDbEntity
  8
01
100
AcDbSpline
210
0.0
220
0.0
230
1.0
 70
     8
 71
     3
 72
    10
 73
     6
 74
     0
 42
0.0000000001
 43
0.0000000001
 40
0.0
 40
0.0
 40
0.0
 40
0.0
 40
0.1591596332908675
 40
0.8591839902836207
 40
1.0
 40
1.0
 40
1.0
 40
1.0
 10
4920.835935404077
 20
2242.519284787917
 30
0.0000000000563712
 10
4920.836876962525
 20
2242.4962330033
 30
0.0000000000563712
 10
4920.841959733385
 20
2242.371793634593
 30
0.0000000000563712
 10
4920.818198670511
 20
2242.230986206996
 30
0.0000000000563712
 10
4920.774848175855
 20
2242.108431344511
 30
0.0000000000563712
 10
4920.767588244104
 20
2242.087907012676
 30
0.0000000000563712
  0
SPLINE
  5
F0C7
330
18
100
AcDbEntity
  8
01
  6
CONTINUOUS
100
AcDbSpline
210
0.0
220
0.0
230
1.0
 70
     8
 71
     3
 72
    10
 73
     6
 74
     0
 42
0.0000000001
 43
0.0000000001
 40
0.0
 40
0.0
 40
0.0
 40
0.0
 40
0.3918201303123018
 40
0.9940468231634132
 40
1.0
 40
1.0
 40
1.0
 40
1.0
 10
4916.709931100519
 20
2239.156327653297
 30
0.0000000000563712
 10
4916.652164914434
 20
2239.135047123793
 30
0.0000000000563712
 10
4916.505612225275
 20
2239.081058466466
 30
0.0000000000563712
 10
4916.333528122925
 20
2239.037304299286
 30
0.0000000000563712
 10
4916.213045658413
 20
2239.044831315469
 30
0.0000000000563712
 10
4916.211866314186
 20
2239.044904993768
 30
0.0000000000563712
  0
SPLINE
  5
F0C8
330
18
100
AcDbEntity
  8
01
100
AcDbSpline
210
0.0
220
0.0
230
1.0
 70
     8
 71
     3
 72
    18
 73
    14
 74
     0
 42
0.0000000001
 43
0.0000000001
 40
0.0
 40
0.0
 40
0.0
 40
0.0
 40
0.0037411650843013
 40
0.0986297447690057
 40
0.1875761019416629
 40
0.2764162401811492
 40
0.3698493074111531
 40
0.4734010413854489
 40
0.5960753788310015
 40
0.7116695358418624
 40
0.8189026918008349
 40
0.9315067574098522
 40
1.0
 40
1.0
 40
1.0
 40
1.0
 10
4780.841730765498
 20
2254.516002081268
 30
0.0000000000563712
 10
4780.841162381748
 20
2254.520632143995
 30
0.0000000000563712
 10
4780.826177866762
 20
2254.642696232268
 30
0.0000000000563712
 10
4780.883559467045
 20
2254.881376313839
 30
0.0000000000563712
 10
4781.01411690342
 20
2255.189635193197
 30
0.0000000000563712
 10
4781.215554464236
 20
2255.448943459288
 30
0.0000000000563712
 10
4781.467487881191
 20
2255.66400910256
 30
0.0000000000563712
 10
4781.782338565299
 20
2255.84797432638
 30
0.0000000000563712
 10
4782.159979481421
 20
2255.995718765232
 30
0.0000000000563712
 10
4782.589181438592
 20
2256.106045863533
 30
0.0000000000563712
 10
4783.047067464478
 20
2256.178356016073
 30
0.0000000000563712
 10
4783.467670445109
 20
2256.216263013592
 30
0.0000000000563712
 10
4783.737774490974
 20
2256.215542809442
 30
0.0000000000563712
 10
4783.839931182987
 20
2256.215270419323
 30
0.0000000000563712
  0
SPLINE
  5
F0C9
330
18
100
AcDbEntity
  8
01
100
AcDbSpline
210
0.0
220
0.0
230
1.0
 70
     8
 71
     3
 72
    19
 73
    15
 74
     0
 42
0.0000000001
 43
0.0000000001
 40
0.0
 40
0.0
 40
0.0
 40
0.0
 40
0.077318707389703
 40
0.1644064665832291
 40
0.2526742168276733
 40
0.3413076136591857
 40
0.4317419507703862
 40
0.5226255462847058
 40
0.6143891804552037
 40
0.7062465328243186
 40
0.7952834416848785
 40
0.8728355436151866
 40
0.9433313479901454
 40
1.0
 40
1.0
 40
1.0
 40
1.0
 10
4889.840003528745
 20
2256.21934987727
 30
0.0000000000563712
 10
4890.04156257594
 20
2256.222334229092
 30
0.0000000000563712
 10
4890.470479636879
 20
2256.225745505583
 30
0.0000000000563712
 10
4891.118555607556
 20
2256.264000090664
 30
0.0000000000563712
 10
4891.771044105411
 20
2256.32686075417
 30
0.0000000000563712
 10
4892.393953675961
 20
2256.415215285955
 30
0.0000000000563712
 10
4892.976153552761
 20
2256.524163790892
 30
0.0000000000563712
 10
4893.50505185021
 20
2256.651168937958
 30
0.0000000000563712
 10
4893.970242961181
 20
2256.790928705251
 30
0.0000000000563712
 10
4894.355374567094
 20
2256.934853789707
 30
0.0000000000563712
 10
4894.638725460556
 20
2257.069166001836
 30
0.0000000000563712
 10
4894.81982431745
 20
2257.176793683108
 30
0.0000000000563712
 10
4894.914820140826
 20
2257.253195126785
 30
0.0000000000563712
 10
4894.91699650396
 20
2257.256424831273
 30
0.0000000000563712
 10
4894.917966362746
 20
2257.257864093509
 30
0.0000000000563712
  0
LINE
  5
F0CA
330
18
100
AcDbEntity
  8
01
100
AcDbLine
 10
4783.840003528745
 20
2256.21934987727
 30
0.0000000000563712
 11
4889.840003528745
 21
2256.21934987727
 31
0.0000000000563712
  0
SPLINE
  5
F0CB
330
18
100
AcDbEntity
  8
01
100
AcDbSpline
210
0.0
220
0.0
230
1.0
 70
     8
 71
     3
 72
    20
 73
    16
 74
     0
 42
0.0000000001
 43
0.0000000001
 40
0.0
 40
0.0
 40
0.0
 40
0.0
 40
0.124999999999997
 40
0.124999999999997
 40
0.2499999999999939
 40
0.2499999999999939
 40
0.3749999999999909
 40
0.3749999999999909
 40
0.4999999999999879
 40
0.4999999999999879
 40
0.6249999999999849
 40
0.6249999999999849
 40
0.7499999999999818
 40
0.7499999999999818
 40
1.0
 40
1.0
 40
1.0
 40
1.0
 10
4780.840003528745
 20
2246.074976596471
 30
0.0000000000563712
 10
4780.840003528745
 20
2245.988662485374
 30
0.0000000000563712
 10
4780.859214388998
 20
2245.903540860265
 30
0.0000000000563712
 10
4780.934439989051
 20
2245.735607043815
 30
0.0000000000563712
 10
4780.991271612278
 20
2245.651981607924
 30
0.0000000000563712
 10
4781.140385765204
 20
2245.491393114072
 30
0.0000000000563712
 10
4781.231648181947
 20
2245.415017310538
 30
0.0000000000563712
 10
4781.447174906662
 20
2245.270119454279
 30
0.0000000000563712
 10
4781.573053598191
 20
2245.201022367256
 30
0.0000000000563712
 10
4781.848956603069
 20
2245.076614062187
 30
0.0000000000563712
 10
4781.999423161888
 20
2245.020700854486
 30
0.0000000000563712
 10
4782.325793932201
 20
2244.921799640988
 30
0.0000000000563712
 10
4782.501828684673
 20
2244.879081405184
 30
0.0000000000563712
 10
4783.045115733379
 20
2244.776743025204
 30
0.0000000000563712
 10
4783.440927455455
 20
2244.740253801096
 30
0.0000000000563712
 10
4783.840003528745
 20
2244.740253801096
 30
0.0000000000563712
  0
LINE
  5
F0CC
330
18
100
AcDbEntity
  8
01
100
AcDbLine
 10
4780.840003528745
 20
2246.074976596471
 30
0.0000000000563712
 11
4780.840003528745
 21
2243.140364587568
 31
0.0000000000563712
  0
SPLINE
  5
F0CD
330
18
100
AcDbEntity
  8
01
100
AcDbSpline
210
0.0
220
0.0
230
1.0
 70
     8
 71
     3
 72
    20
 73
    16
 74
     0
 42
0.0000000001
 43
0.0000000001
 40
0.0
 40
0.0
 40
0.0
 40
0.0
 40
0.1249999999999996
 40
0.1249999999999996
 40
0.2499999999999991
 40
0.2499999999999991
 40
0.3749999999999987
 40
0.3749999999999987
 40
0.4999999999999982
 40
0.4999999999999982
 40
0.7499999999999992
 40
0.7499999999999992
 40
0.8749999999999996
 40
0.8749999999999996
 40
1.0
 40
1.0
 40
1.0
 40
1.0
 10
4917.840003528745
 20
2244.740253801096
 30
0.0000000000563712
 10
4918.039421678979
 20
2244.740253801096
 30
0.0000000000563712
 10
4918.235472620299
 20
2244.749147457274
 30
0.0000000000563712
 10
4918.621118478968
 20
2244.783959130352
 30
0.0000000000563712
 10
4918.812739002627
 20
2244.810324823134
 30
0.0000000000563712
 10
4919.176790592946
 20
2244.878740185942
 30
0.0000000000563712
 10
4919.349448541339
 20
2244.920553885922
 30
0.0000000000563712
 10
4919.67616127799
 20
2245.019168077394
 30
0.0000000000563712
 10
4919.829822284617
 20
2245.076143268732
 30
0.0000000000563712
 10
4920.243096808697
 20
2245.262246469291
 30
0.0000000000563712
 10
4920.464873989922
 20
2245.411279247074
 30
0.0000000000563712
 10
4920.687362336761
 20
2245.650312119244
 30
0.0000000000563712
 10
4920.744638434628
 20
2245.733882025188
 30
0.0000000000563712
 10
4920.820811986172
 20
2245.903240057757
 30
0.0000000000563712
 10
4920.840003528745
 20
2245.988712105123
 30
0.0000000000563712
 10
4920.840003528745
 20
2246.074976596471
 30
0.0000000000563712
  0
SPLINE
  5
F0CE
330
18
100
AcDbEntity
  8
01
100
AcDbSpline
210
0.0
220
0.0
230
1.0
 70
     8
 71
     3
 72
     8
 73
     4
 74
     0
 42
0.0000000001
 43
0.0000000001
 40
0.0
 40
0.0
 40
0.0
 40
0.0
 40
1.0
 40
1.0
 40
1.0
 40
1.0
 10
4920.840003528745
 20
2242.52142102898
 30
0.0000000000563712
 10
4920.840003528745
 20
2242.425303871307
 30
0.0000000000563712
 10
4920.820062327202
 20
2242.317885323514
 30
0.0000000000563712
 10
4920.782251121202
 20
2242.199916626495
 30
0.0000000000563712
  0
LINE
  5
F0CF
330
18
100
AcDbEntity
  8
01
100
AcDbLine
 10
4920.840003528745
 20
2242.52142102898
 30
0.0000000000563712
 11
4920.840003528745
 21
2246.074976596471
 31
0.0000000000563712
  0
LINE
  5
F0D0
330
18
100
AcDbEntity
  8
01
100
AcDbLine
 10
4783.840003528745
 20
2244.740253801096
 30
0.0000000000563712
 11
4917.840003528745
 21
2244.740253801096
 31
0.0000000000563712
  0
LINE
  5
F0D1
330
18
100
AcDbEntity
  8
01
  6
CONTINUOUS
100
AcDbLine
 10
4895.840003528745
 20
2261.035729969088
 30
0.0000000000563712
 11
4919.840003528745
 21
2261.035729969088
 31
0.0000000000563712
  0
SPLINE
  5
F0D2
330
18
100
AcDbEntity
  8
01
100
AcDbSpline
210
0.0
220
0.0
230
1.0
 70
     8
 71
     3
 72
    16
 73
    12
 74
     0
 42
0.0000000001
 43
0.0000000001
 40
0.0
 40
0.0
 40
0.0
 40
0.0
 40
0.2500000000000044
 40
0.2500000000000044
 40
0.5000000000000089
 40
0.5000000000000089
 40
0.6250000000000048
 40
0.6250000000000048
 40
0.7500000000000007
 40
0.7500000000000007
 40
1.0
 40
1.0
 40
1.0
 40
1.0
 10
4783.840003528745
 20
2240.456549365658
 30
0.0000000000563712
 10
4783.436336664545
 20
2240.456549365658
 30
0.0000000000563712
 10
4783.03632585137
 20
2240.529850609205
 30
0.0000000000563712
 10
4782.30570482172
 20
2240.804747230419
 30
0.0000000000563712
 10
4781.968101818429
 20
2241.010934146042
 30
0.0000000000563712
 10
4781.558801716172
 20
2241.384261784813
 30
0.0000000000563712
 10
4781.437941266515
 20
2241.518679972584
 30
0.0000000000563712
 10
4781.226280273706
 20
2241.806916245062
 30
0.0000000000563712
 10
4781.134869977299
 20
2241.962368995361
 30
0.0000000000563712
 10
4780.915349570727
 20
2242.44527471375
 30
0.0000000000563712
 10
4780.840003528745
 20
2242.792693909262
 30
0.0000000000563712
 10
4780.840003528745
 20
2243.140364587568
 30
0.0000000000563712
  0
LINE
  5
F0D3
330
18
100
AcDbEntity
  8
01
100
AcDbLine
 10
4919.266733759083
 20
2240.765796650861
 30
0.0000000000563712
 11
4919.403478108326
 21
2240.813926024235
 31
0.0000000000563712
  0
SPLINE
  5
F0D4
330
18
100
AcDbEntity
  8
01
100
AcDbSpline
210
0.0
220
0.0
230
1.0
 70
     8
 71
     3
 72
     9
 73
     5
 74
     0
 42
0.0000000001
 43
0.0000000001
 40
0.0
 40
0.0
 40
0.0
 40
0.0
 40
0.4964377885537041
 40
0.9999999999999999
 40
0.9999999999999999
 40
0.9999999999999999
 40
0.9999999999999999
 10
4917.574428105989
 20
2240.456552708333
 30
0.0000000000563712
 10
4917.644396977987
 20
2240.454322107867
 30
0.0000000000563712
 10
4917.785338851494
 20
2240.449828895389
 30
0.0000000000563712
 10
4917.926066585087
 20
2240.45761869138
 30
0.0000000000563712
 10
4917.996931753829
 20
2240.461541338276
 30
0.0000000000563712
  0
LINE
  5
F0D5
330
18
100
AcDbEntity
  8
01
100
AcDbLine
 10
4783.840003528745
 20
2240.456549365658
 30
0.0000000000563712
 11
4917.57432921711
 21
2240.456549365658
 31
0.0000000000563712
  0
LINE
  5
F0D6
330
18
100
AcDbEntity
  8
01
100
AcDbLine
 10
4780.840003528745
 20
2243.140364587568
 30
0.0000000000563712
 11
4780.840003528745
 21
2242.035729969088
 31
0.0000000000563712
  0
LINE
  5
F0D7
330
18
100
AcDbEntity
  8
01
  6
CONTINUOUS
100
AcDbLine
 10
4896.840003528745
 20
2239.035729969088
 30
0.0000000000563712
 11
4916.145631763005
 21
2239.035729969088
 31
0.0000000000563712
  0
SPLINE
  5
F0D8
330
18
100
AcDbEntity
  8
1DIM
100
AcDbSpline
210
0.0
220
0.0
230
1.0
 70
     8
 71
     3
 72
     8
 73
     4
 74
     0
 42
0.0000000001
 43
0.0000000001
 40
0.0
 40
0.0
 40
0.0
 40
0.0
 40
1.0
 40
1.0
 40
1.0
 40
1.0
 10
4916.447751976142
 20
2239.113790440864
 30
0.0000000000563712
 10
4916.333607885048
 20
2239.061851618748
 30
0.0000000000563712
 10
4916.233630025301
 20
2239.035729969088
 30
0.0000000000563712
 10
4916.145631763005
 20
2239.035729969088
 30
0.0000000000563712
  0
LINE
  5
F0D9
330
18
100
AcDbEntity
  8
01
  6
CONTINUOUS
100
AcDbLine
 10
4920.840003528745
 20
2246.074976596471
 30
0.0000000000563712
 11
4920.840003528745
 21
2260.035729969088
 31
0.0000000000563712
  0
ARC
  5
F0DA
330
18
100
AcDbEntity
  8
01
  6
CONTINUOUS
100
AcDbCircle
 10
4919.840003528745
 20
2260.035729969088
 30
0.0000000000563712
 40
1.0
100
AcDbArc
 50
0.0
 51
90.0
  0
LINE
  5
F0DB
330
18
100
AcDbEntity
  8
01
  6
CONTINUOUS
100
AcDbLine
 10
4780.840003528745
 20
2254.515006389348
 30
0.0000000000563712
 11
4780.840003528745
 21
2246.074976596471
 31
0.0000000000563712
  0
LINE
  5
F0DC
330
18
100
AcDbEntity
  8
01
100
AcDbLine
 10
4894.840003528745
 20
2260.035729969088
 30
0.0000000000563712
 11
4894.840003528745
 21
2257.272807840765
 31
0.0000000000563712
  0
ARC
  5
F0DD
330
18
100
AcDbEntity
  8
01
100
AcDbCircle
 10
4895.840003528745
 20
2260.035729969088
 30
0.0000000000563712
 40
1.0
100
AcDbArc
 50
90.0
 51
180.0
  0
SPLINE
  5
F0DE
330
18
100
AcDbEntity
  8
1DIM
100
AcDbSpline
210
0.0
220
0.0
230
1.0
 70
     8
 71
     3
 72
     9
 73
     5
 74
     0
 42
0.0000000001
 43
0.0000000001
 40
0.0
 40
0.0
 40
0.0
 40
0.0
 40
0.8343439945455199
 40
0.9999999999999999
 40
0.9999999999999999
 40
0.9999999999999999
 40
0.9999999999999999
 10
4916.447751976142
 20
2239.113790440864
 30
0.0000000000563712
 10
4916.561728476698
 20
2239.116743761062
 30
0.0000000000563712
 10
4916.698334602348
 20
2239.120283452386
 30
0.0000000000563712
 10
4916.813022396955
 20
2239.18723200872
 30
0.0000000000563712
 10
4916.832021118884
 20
2239.198322439134
 30
0.0000000000563712
  0
SPLINE
  5
F0DF
330
18
100
AcDbEntity
  8
01
100
AcDbSpline
210
0.0
220
0.0
230
1.0
 70
     8
 71
     3
 72
     9
 73
     5
 74
     0
 42
0.0000000001
 43
0.0000000001
 40
0.0
 40
0.0
 40
0.0
 40
0.0
 40
0.5960549951321458
 40
1.0
 40
1.0
 40
1.0
 40
1.0
 10
4917.996931753829
 20
2240.461541338276
 30
0.0000000000563712
 10
4918.259892314209
 20
2240.492363841766
 30
0.0000000000563712
 10
4918.7010605999
 20
2240.544074680098
 30
0.0000000000563712
 10
4919.103977492814
 20
2240.702002497779
 30
0.0000000000563712
 10
4919.266733759083
 20
2240.765796650861
 30
0.0000000000563712
  0
SPLINE
  5
F0E0
330
18
100
AcDbEntity
  8
01
100
AcDbSpline
210
0.0
220
0.0
230
1.0
 70
     8
 71
     3
 72
     9
 73
     5
 74
     0
 42
0.0000000001
 43
0.0000000001
 40
0.0
 40
0.0
 40
0.0
 40
0.0
 40
0.3786216536163409
 40
1.0
 40
1.0
 40
1.0
 40
1.0
 10
4920.75879340722
 20
2242.060263430957
 30
0.0000000000563712
 10
4920.766071368509
 20
2242.076848316442
 30
0.0000000000563712
 10
4920.785293621699
 20
2242.120651636528
 30
0.0000000000563712
 10
4920.783417131548
 20
2242.169539047751
 30
0.0000000000563712
 10
4920.782251121202
 20
2242.199916626495
 30
0.0000000000563712
  0
LINE
  5
F0E1
330
18
100
AcDbEntity
  8
01
100
AcDbLine
 10
4879.840003528745
 20
2276.535729969086
 30
0.0000000000563712
 11
4931.840003528741
 21
2276.535729969086
 31
0.0000000000563712
  0
LINE
  5
F0E2
330
18
100
AcDbEntity
  8
01
100
AcDbLine
 10
4931.840003528741
 20
2223.535729969086
 30
0.0000000000563712
 11
4879.840003528745
 21
2223.535729969086
 31
0.0000000000563712
  0
LINE
  5
F0E3
330
18
100
AcDbEntity
  8
01
100
AcDbLine
 10
4932.340003528741
 20
2276.035729969086
 30
0.0000000000563712
 11
4932.340003528741
 21
2224.035729969086
 31
0.0000000000563712
  0
ARC
  5
F0E4
330
18
100
AcDbEntity
  8
01
100
AcDbCircle
 10
4931.840003528741
 20
2224.035729969086
 30
0.0000000000563712
 40
0.5
100
AcDbArc
 50
270.0
 51
0.0
  0
ARC
  5
F0E5
330
18
100
AcDbEntity
  8
01
100
AcDbCircle
 10
4931.840003528741
 20
2276.035729969086
 30
0.0000000000563712
 40
0.5
100
AcDbArc
 50
0.0
 51
90.0
  0
LINE
  5
F0E6
330
18
100
AcDbEntity
  8
01
100
AcDbLine
 10
4879.340003528745
 20
2276.035729969086
 30
0.0000000000563712
 11
4879.340003528745
 21
2256.21934987727
 31
0.0000000000563712
  0
LINE
  5
F0E7
330
18
100
AcDbEntity
  8
01
100
AcDbLine
 10
4879.340003528745
 20
2239.035729969088
 30
0.0000000000563712
 11
4879.340003528745
 21
2224.035729969086
 31
0.0000000000563712
  0
ARC
  5
F0E8
330
18
100
AcDbEntity
  8
01
100
AcDbCircle
 10
4879.840003528745
 20
2224.035729969086
 30
0.0000000000563712
 40
0.5
100
AcDbArc
 50
180.0
 51
270.0
  0
ARC
  5
F0E9
330
18
100
AcDbEntity
  8
01
100
AcDbCircle
 10
4879.840003528745
 20
2276.035729969086
 30
0.0000000000563712
 40
0.5
100
AcDbArc
 50
90.0
 51
180.0
  0
ARC
  5
F581
330
18
100
AcDbEntity
  8
01
  6
CONTINUOUS
100
AcDbCircle
 10
5261.839770849256
 20
2571.54156638481
 30
0.0000000001127424
 40
5.0
100
AcDbArc
 50
90.0
 51
180.0
  0
ARC
  5
F582
330
18
100
AcDbEntity
  8
01
  6
CONTINUOUS
100
AcDbCircle
 10
5367.839770849256
 20
2579.54156638481
 30
0.0000000001127424
 40
3.0
100
AcDbArc
 50
270.0
 51
0.0
  0
LINE
  5
F583
330
18
100
AcDbEntity
  8
01
  6
CONTINUOUS
100
AcDbLine
 10
5367.839770849256
 20
2576.54156638481
 30
0.0000000001127424
 11
5261.839770849256
 21
2576.54156638481
 31
0.0000000001127424
  0
LINE
  5
F584
330
18
100
AcDbEntity
  8
01
  6
CONTINUOUS
100
AcDbLine
 10
5233.839770849256
 20
2604.056130810146
 30
0.0000000001127424
 11
5367.839770849256
 21
2604.056130810146
 31
0.0000000001127424
  0
ARC
  5
F585
330
18
100
AcDbEntity
  8
01
  6
CONTINUOUS
100
AcDbCircle
 10
5367.839770849256
 20
2601.056130810146
 30
0.0000000001127424
 40
3.0
100
AcDbArc
 50
0.0
 51
90.0
  0
ARC
  5
F586
330
18
100
AcDbEntity
  8
01
  6
CONTINUOUS
100
AcDbCircle
 10
5233.839770849256
 20
2601.056130810146
 30
0.0000000001127424
 40
3.0
100
AcDbArc
 50
90.0
 51
180.0
  0
LINE
  5
F587
330
18
100
AcDbEntity
  8
01
  6
CONTINUOUS
100
AcDbLine
 10
5255.839770849256
 20
2549.034411653927
 30
0.0000000001127424
 11
5231.839770849256
 21
2549.034411653927
 31
0.0000000001127424
  0
LINE
  5
F588
330
18
100
AcDbEntity
  8
01
  6
CONTINUOUS
100
AcDbLine
 10
5230.839770849256
 20
2600.856130810146
 30
0.0000000001127424
 11
5230.839770849256
 21
2549.034411653927
 31
0.0000000001127424
  0
LINE
  5
F589
330
18
100
AcDbEntity
  8
01
  6
CONTINUOUS
100
AcDbLine
 10
5230.839770849256
 20
2549.034411653927
 30
0.0000000001127424
 11
5231.839770849256
 21
2549.034411653927
 31
0.0000000001127424
  0
LINE
  5
F58A
330
18
100
AcDbEntity
  8
01
  6
CONTINUOUS
100
AcDbLine
 10
5256.839770849256
 20
2549.034411653927
 30
0.0000000001127424
 11
5256.839770849256
 21
2574.295106648817
 31
0.0000000001127424
  0
LINE
  5
F58B
330
18
100
AcDbEntity
  8
01
  6
CONTINUOUS
100
AcDbLine
 10
5255.839770849256
 20
2549.034411653927
 30
0.0000000001127424
 11
5256.839770849256
 21
2549.034411653927
 31
0.0000000001127424
  0
SPLINE
  5
F58C
330
18
100
AcDbEntity
  8
01
  6
CONTINUOUS
100
AcDbSpline
210
0.0
220
0.0
230
1.0
 70
     8
 71
     3
 72
    22
 73
    18
 74
     0
 42
0.0000000001
 43
0.0000000001
 40
0.0
 40
0.0
 40
0.0
 40
0.0
 40
0.125
 40
0.125
 40
0.25
 40
0.25
 40
0.375
 40
0.375
 40
0.5
 40
0.5
 40
0.625
 40
0.625
 40
0.75
 40
0.75
 40
0.875
 40
0.875
 40
1.0
 40
1.0
 40
1.0
 40
1.0
 10
5256.839770849256
 20
2574.295106648817
 30
0.0000000001127424
 10
5256.839770849256
 20
2574.637742077785
 30
0.0000000001127424
 10
5256.870545919093
 20
2574.976098440757
 30
0.0000000001127424
 10
5256.991164015792
 20
2575.644680980636
 30
0.0000000001127424
 10
5257.082159434995
 20
2575.977077760678
 30
0.0000000001127424
 10
5257.318405104506
 20
2576.61375870762
 30
0.0000000001127424
 10
5257.463597144191
 20
2576.920075999798
 30
0.0000000001127424
 10
5257.809440420655
 20
2577.50820238033
 30
0.0000000001127424
 10
5258.010451892342
 20
2577.789274847264
 30
0.0000000001127424
 10
5258.456361874085
 20
2578.305027281979
 30
0.0000000001127424
 10
5258.703649005947
 20
2578.54331143218
 30
0.0000000001127424
 10
5259.246368446293
 20
2578.971009250482
 30
0.0000000001127424
 10
5259.535269417702
 20
2579.155554619541
 30
0.0000000001127424
 10
5260.150583281822
 20
2579.461960253305
 30
0.0000000001127424
 10
5260.480483372961
 20
2579.583886016138
 30
0.0000000001127424
 10
5261.148763201614
 20
2579.745578658605
 30
0.0000000001127424
 10
5261.490270468321
 20
2579.787654523536
 30
0.0000000001127424
 10
5261.839770849256
 20
2579.787654523536
 30
0.0000000001127424
  0
SPLINE
  5
F58D
330
18
100
AcDbEntity
  8
01
  6
CONTINUOUS
100
AcDbSpline
210
0.0
220
0.0
230
1.0
 70
     8
 71
     3
 72
    20
 73
    16
 74
     0
 42
0.0000000001
 43
0.0000000001
 40
0.0
 40
0.0
 40
0.0
 40
0.0
 40
0.1250000000000056
 40
0.1250000000000056
 40
0.2500000000000112
 40
0.2500000000000112
 40
0.5000000000000075
 40
0.5000000000000075
 40
0.6250000000000057
 40
0.6250000000000057
 40
0.7500000000000038
 40
0.7500000000000038
 40
0.875000000000002
 40
0.875000000000002
 40
1.0
 40
1.0
 40
1.0
 40
1.0
 10
5367.839770849256
 20
2579.787654523536
 30
0.0000000001127424
 10
5368.044618120432
 20
2579.787654523536
 30
0.0000000001127424
 10
5368.245814570684
 20
2579.807761698715
 30
0.0000000001127424
 10
5368.641218923369
 20
2579.886406575974
 30
0.0000000001127424
 10
5368.837158016035
 20
2579.945977714281
 30
0.0000000001127424
 10
5369.390546311244
 20
2580.175402150377
 30
0.0000000001127424
 10
5369.72493201565
 20
2580.400508198305
 30
0.0000000001127424
 10
5370.133412941008
 20
2580.808043636722
 30
0.0000000001127424
 10
5370.256352210316
 20
2580.957681252279
 30
0.0000000001127424
 10
5370.466326251926
 20
2581.270877048951
 30
0.0000000001127424
 10
5370.55424662059
 20
2581.434808938228
 30
0.0000000001127424
 10
5370.696800625083
 20
2581.776635752952
 30
0.0000000001127424
 10
5370.750677919496
 20
2581.953709567073
 30
0.0000000001127424
 10
5370.821814861976
 20
2582.308378921399
 30
0.0000000001127424
 10
5370.839770849256
 20
2582.487523398965
 30
0.0000000001127424
 10
5370.839770849256
 20
2582.668408060906
 30
0.0000000001127424
  0
LINE
  5
F58E
330
18
100
AcDbEntity
  8
01
  6
CONTINUOUS
100
AcDbLine
 10
5261.839770849256
 20
2579.787654523536
 30
0.0000000001127424
 11
5367.839770849256
 21
2579.787654523536
 31
0.0000000001127424
  0
LINE
  5
F58F
330
18
100
AcDbEntity
  8
01
  6
CONTINUOUS
100
AcDbLine
 10
5370.839770849256
 20
2579.54156638481
 30
0.0000000001127424
 11
5370.839770849256
 21
2582.668408060906
 31
0.0000000001127424
  0
LINE
  5
F590
330
18
100
AcDbEntity
  8
01
  6
CONTINUOUS
100
AcDbLine
 10
5370.839770849256
 20
2582.668408060906
 30
0.0000000001127424
 11
5370.839770849256
 21
2601.056130810146
 31
0.0000000001127424
  0
TEXT
  5
FD36
330
18
100
AcDbEntity
  8
01
  6
CONTINUOUS
100
AcDbText
 10
5156.842931942274
 20
2462.617744988289
 30
0.0000000000563712
 40
4.55
  1
材質：亜鉛ダイキャスト
100
AcDbText
  0
TEXT
  5
FD37
330
18
100
AcDbEntity
  8
01
  6
CONTINUOUS
100
AcDbText
 10
5167.156265275607
 20
2455.034411654955
 30
0.0000000000563712
 40
4.55
  1
仕上げ：各種メッキ
100
AcDbText
  0
LINE
  5
FD38
330
18
100
AcDbEntity
  8
01
100
AcDbLine
 10
5183.839770849256
 20
2278.034410957853
 30
0.0
 11
5183.839770849256
 21
2380.755903740673
 31
0.0
1001
ACAD
1000
DSTYLE
1002
{
1070
    40
1040
1.3
1070
    45
1040
0.5
1002
}
  0
LINE
  5
FD39
330
18
100
AcDbEntity
  8
01
100
AcDbLine
 10
5194.839770849256
 20
2335.905729007142
 30
0.0
 11
5194.839770849256
 21
2380.755903740673
 31
0.0
1001
ACAD
1000
DSTYLE
1002
{
1070
    40
1040
1.3
1070
    45
1040
0.5
1002
}
  0
LINE
  5
FD3A
330
18
100
AcDbEntity
  8
01
100
AcDbLine
 10
5186.439770849256
 20
2379.455903740673
 30
0.0
 11
5192.239770849255
 21
2379.455903740673
 31
0.0
1001
ACAD
1000
DSTYLE
1002
{
1070
    40
1040
1.3
1070
    45
1040
0.5
1002
}
  0
LINE
  5
FD3E
330
18
100
AcDbEntity
  8
01
100
AcDbLine
 10
5263.839770849256
 20
2308.027039148376
 30
0.0
 11
5292.139770849257
 21
2308.027039148376
 31
0.0
1001
ACAD
1000
DSTYLE
1002
{
1070
    40
1040
1.3
1070
    45
1040
0.5
1002
}
  0
LINE
  5
FD3F
330
18
100
AcDbEntity
  8
01
100
AcDbLine
 10
5263.839770849256
 20
2234.034411655984
 30
0.0
 11
5292.139770849257
 21
2234.034411655984
 31
0.0
1001
ACAD
1000
DSTYLE
1002
{
1070
    40
1040
1.3
1070
    45
1040
0.5
1002
}
  0
LINE
  5
FD40
330
18
100
AcDbEntity
  8
01
100
AcDbLine
 10
5290.839770849257
 20
2305.427039148376
 30
0.0
 11
5290.839770849257
 21
2236.634411655984
 31
0.0
1001
ACAD
1000
DSTYLE
1002
{
1070
    40
1040
1.3
1070
    45
1040
0.5
1002
}
  0
LINE
  5
FD44
330
18
100
AcDbEntity
  8
01
100
AcDbLine
 10
5263.839770849256
 20
2308.027039148376
 30
0.0
 11
5263.839770849256
 21
2390.835771208721
 31
0.0
1001
ACAD
1000
DSTYLE
1002
{
1070
    40
1040
1.3
1070
    45
1040
0.5
1002
}
  0
LINE
  5
FD45
330
18
100
AcDbEntity
  8
01
100
AcDbLine
 10
5194.839770849256
 20
2335.905729007142
 30
0.0
 11
5194.839770849256
 21
2390.835771208721
 31
0.0
1001
ACAD
1000
DSTYLE
1002
{
1070
    40
1040
1.3
1070
    45
1040
0.5
1002
}
  0
LINE
  5
FD46
330
18
100
AcDbEntity
  8
01
100
AcDbLine
 10
5261.239770849255
 20
2389.535771208721
 30
0.0
 11
5197.439770849256
 21
2389.535771208721
 31
0.0
1001
ACAD
1000
DSTYLE
1002
{
1070
    40
1040
1.3
1070
    45
1040
0.5
1002
}
  0
LINE
  5
FD4A
330
18
100
AcDbEntity
  8
01
100
AcDbLine
 10
5194.839770849256
 20
2335.905729007142
 30
0.0
 11
5194.839770849256
 21
2380.755903740673
 31
0.0
1001
ACAD
1000
DSTYLE
1002
{
1070
    40
1040
1.3
1070
    45
1040
0.5
1002
}
  0
LINE
  5
FD4B
330
18
100
AcDbEntity
  8
01
100
AcDbLine
 10
5245.839770849256
 20
2300.034411655985
 30
0.0
 11
5245.839770849256
 21
2380.755903740673
 31
0.0
1001
ACAD
1000
DSTYLE
1002
{
1070
    40
1040
1.3
1070
    45
1040
0.5
1002
}
  0
LINE
  5
FD4C
330
18
100
AcDbEntity
  8
01
100
AcDbLine
 10
5197.439770849256
 20
2379.455903740673
 30
0.0
 11
5243.239770849255
 21
2379.455903740673
 31
0.0
1001
ACAD
1000
DSTYLE
1002
{
1070
    40
1040
1.3
1070
    45
1040
0.5
1002
}
  0
LINE
  5
FD50
330
18
100
AcDbEntity
  8
01
100
AcDbLine
 10
5081.714912596906
 20
2328.034411655984
 30
0.0
 11
5162.001043765114
 21
2328.034411655983
 31
0.0
1001
ACAD
1000
DSTYLE
1002
{
1070
    40
1040
1.3
1070
    45
1040
0.5
1002
}
  0
LINE
  5
FD51
330
18
100
AcDbEntity
  8
01
100
AcDbLine
 10
5081.714912596906
 20
2214.034411655984
 30
0.0
 11
5162.001043765114
 21
2214.034411655983
 31
0.0
1001
ACAD
1000
DSTYLE
1002
{
1070
    40
1040
1.3
1070
    45
1040
0.5
1002
}
  0
LINE
  5
FD52
330
18
100
AcDbEntity
  8
01
100
AcDbLine
 10
5160.701043765114
 20
2325.434411655983
 30
0.0
 11
5160.701043765114
 21
2216.634411655983
 31
0.0
1001
ACAD
1000
DSTYLE
1002
{
1070
    40
1040
1.3
1070
    45
1040
0.5
1002
}
  0
LINE
  5
FD56
330
18
100
AcDbEntity
  8
01
100
AcDbLine
 10
5082.31297299367
 20
2335.933966511568
 30
0.0
 11
5171.365377931339
 21
2335.933966511567
 31
0.0
1001
ACAD
1000
DSTYLE
1002
{
1070
    40
1040
1.3
1070
    45
1040
0.5
1002
}
  0
LINE
  5
FD57
330
18
100
AcDbEntity
  8
01
100
AcDbLine
 10
5082.239887189
 20
2206.134411655984
 30
0.0
 11
5171.365377931339
 21
2206.134411655984
 31
0.0
1001
ACAD
1000
DSTYLE
1002
{
1070
    40
1040
1.3
1070
    45
1040
0.5
1002
}
  0
LINE
  5
FD58
330
18
100
AcDbEntity
  8
01
100
AcDbLine
 10
5170.065377931339
 20
2333.333966511567
 30
0.0
 11
5170.065377931339
 21
2208.734411655983
 31
0.0
1001
ACAD
1000
DSTYLE
1002
{
1070
    40
1040
1.3
1070
    45
1040
0.5
1002
}
  0
LINE
  5
FD5C
330
18
100
AcDbEntity
  8
01
100
AcDbLine
 10
5063.339887189
 20
2330.034411655984
 30
0.0
 11
5063.339887189
 21
2380.755903740673
 31
0.0
1001
ACAD
1000
DSTYLE
1002
{
1070
    40
1040
1.3
1070
    45
1040
0.5
1002
}
  0
LINE
  5
FD5D
330
18
100
AcDbEntity
  8
01
100
AcDbLine
 10
5088.339887189
 20
2330.034411655984
 30
0.0
 11
5088.339887189
 21
2380.755903740673
 31
0.0
1001
ACAD
1000
DSTYLE
1002
{
1070
    40
1040
1.3
1070
    45
1040
0.5
1002
}
  0
LINE
  5
FD5E
330
18
100
AcDbEntity
  8
01
100
AcDbLine
 10
5065.939887189001
 20
2379.455903740673
 30
0.0
 11
5085.739887189
 21
2379.455903740673
 31
0.0
1001
ACAD
1000
DSTYLE
1002
{
1070
    40
1040
1.3
1070
    45
1040
0.5
1002
}
  0
LINE
  5
FD62
330
18
100
AcDbEntity
  8
01
100
AcDbLine
 10
5219.839770849259
 20
2276.535729969086
 30
0.0
 11
5209.539770849256
 21
2276.535729969086
 31
0.0
1001
ACAD
1000
DSTYLE
1002
{
1070
     3
1000
□<>
1070
    40
1040
1.3
1070
    45
1040
0.5
1002
}
  0
LINE
  5
FD63
330
18
100
AcDbEntity
  8
01
100
AcDbLine
 10
5219.839770849259
 20
2223.535729969086
 30
0.0
 11
5209.539770849256
 21
2223.535729969086
 31
0.0
1001
ACAD
1000
DSTYLE
1002
{
1070
     3
1000
□<>
1070
    40
1040
1.3
1070
    45
1040
0.5
1002
}
  0
LINE
  5
FD64
330
18
100
AcDbEntity
  8
01
100
AcDbLine
 10
5210.839770849257
 20
2273.935729969086
 30
0.0
 11
5210.839770849257
 21
2226.135729969086
 31
0.0
1001
ACAD
1000
DSTYLE
1002
{
1070
     3
1000
□<>
1070
    40
1040
1.3
1070
    45
1040
0.5
1002
}
  0
LINE
  5
FD68
330
18
100
AcDbEntity
  8
01
  6
BYBLOCK
100
AcDbLine
 10
5186.439770849256
 20
2378.759235846673
 30
0.0
 11
5183.839770849256
 21
2379.455903740673
 31
0.0
  0
LINE
  5
FD69
330
18
100
AcDbEntity
  8
01
  6
BYBLOCK
100
AcDbLine
 10
5183.839770849256
 20
2379.455903740673
 30
0.0
 11
5186.439770849256
 21
2380.152571634672
 31
0.0
  0
LINE
  5
FD6A
330
18
100
AcDbEntity
  8
01
  6
BYBLOCK
100
AcDbLine
 10
5183.839770849256
 20
2379.455903740673
 30
0.0
 11
5186.439770849256
 21
2379.455903740673
 31
0.0
  0
LINE
  5
FD6B
330
18
100
AcDbEntity
  8
01
  6
BYBLOCK
100
AcDbLine
 10
5192.239770849255
 20
2380.152571634672
 30
0.0
 11
5194.839770849256
 21
2379.455903740673
 31
0.0
  0
LINE
  5
FD6C
330
18
100
AcDbEntity
  8
01
  6
BYBLOCK
100
AcDbLine
 10
5194.839770849256
 20
2379.455903740673
 30
0.0
 11
5192.239770849255
 21
2378.759235846673
 31
0.0
  0
LINE
  5
FD6D
330
18
100
AcDbEntity
  8
01
  6
BYBLOCK
100
AcDbLine
 10
5194.839770849256
 20
2379.455903740673
 30
0.0
 11
5192.239770849255
 21
2379.455903740673
 31
0.0
  0
TEXT
  5
FD6E
330
18
100
AcDbEntity
  8
01
  6
CONTINUOUS
100
AcDbText
 10
5187.064770849256
 20
2380.365903740672
 30
0.0
 40
4.55
  1
11
100
AcDbText
1001
ACAD
1000
DSTYLE
1002
{
1070
    40
1040
1.3
1070
    45
1040
0.5
1002
}
  0
LINE
  5
FD6F
330
18
100
AcDbEntity
  8
01
  6
BYBLOCK
100
AcDbLine
 10
5290.143102955257
 20
2305.427039148376
 30
0.0
 11
5290.839770849257
 21
2308.027039148376
 31
0.0
  0
LINE
  5
FD70
330
18
100
AcDbEntity
  8
01
  6
BYBLOCK
100
AcDbLine
 10
5290.839770849257
 20
2308.027039148376
 30
0.0
 11
5291.536438743256
 21
2305.427039148376
 31
0.0
  0
LINE
  5
FD71
330
18
100
AcDbEntity
  8
01
  6
BYBLOCK
100
AcDbLine
 10
5290.839770849257
 20
2308.027039148376
 30
0.0
 11
5290.839770849257
 21
2305.427039148376
 31
0.0
  0
LINE
  5
FD72
330
18
100
AcDbEntity
  8
01
  6
BYBLOCK
100
AcDbLine
 10
5291.536438743256
 20
2236.634411655984
 30
0.0
 11
5290.839770849257
 21
2234.034411655984
 31
0.0
  0
LINE
  5
FD73
330
18
100
AcDbEntity
  8
01
  6
BYBLOCK
100
AcDbLine
 10
5290.839770849257
 20
2234.034411655984
 30
0.0
 11
5290.143102955257
 21
2236.634411655984
 31
0.0
  0
LINE
  5
FD74
330
18
100
AcDbEntity
  8
01
  6
BYBLOCK
100
AcDbLine
 10
5290.839770849257
 20
2234.034411655984
 30
0.0
 11
5290.839770849257
 21
2236.634411655984
 31
0.0
  0
TEXT
  5
FD75
330
18
100
AcDbEntity
  8
01
  6
CONTINUOUS
100
AcDbText
 10
5289.929770849256
 20
2289.005755742003
 30
0.0
 40
4.55
  1
74
 50
90.0
100
AcDbText
1001
ACAD
1000
DSTYLE
1002
{
1070
    40
1040
1.3
1070
    45
1040
0.5
1002
}
  0
LINE
  5
FD76
330
18
100
AcDbEntity
  8
01
  6
BYBLOCK
100
AcDbLine
 10
5261.239770849255
 20
2390.23243910272
 30
0.0
 11
5263.839770849256
 21
2389.535771208721
 31
0.0
  0
LINE
  5
FD77
330
18
100
AcDbEntity
  8
01
  6
BYBLOCK
100
AcDbLine
 10
5263.839770849256
 20
2389.535771208721
 30
0.0
 11
5261.239770849255
 21
2388.839103314721
 31
0.0
  0
LINE
  5
FD78
330
18
100
AcDbEntity
  8
01
  6
BYBLOCK
100
AcDbLine
 10
5263.839770849256
 20
2389.535771208721
 30
0.0
 11
5261.239770849255
 21
2389.535771208721
 31
0.0
  0
LINE
  5
FD79
330
18
100
AcDbEntity
  8
01
  6
BYBLOCK
100
AcDbLine
 10
5197.439770849256
 20
2388.839103314721
 30
0.0
 11
5194.839770849256
 21
2389.535771208721
 31
0.0
  0
LINE
  5
FD7A
330
18
100
AcDbEntity
  8
01
  6
BYBLOCK
100
AcDbLine
 10
5194.839770849256
 20
2389.535771208721
 30
0.0
 11
5197.439770849256
 21
2390.23243910272
 31
0.0
  0
LINE
  5
FD7B
330
18
100
AcDbEntity
  8
01
  6
BYBLOCK
100
AcDbLine
 10
5194.839770849256
 20
2389.535771208721
 30
0.0
 11
5197.439770849256
 21
2389.535771208721
 31
0.0
  0
TEXT
  5
FD7C
330
18
100
AcDbEntity
  8
01
  6
CONTINUOUS
100
AcDbText
 10
5225.531252330738
 20
2390.445771208721
 30
0.0
 40
4.55
  1
69
100
AcDbText
1001
ACAD
1000
DSTYLE
1002
{
1070
    40
1040
1.3
1070
    45
1040
0.5
1002
}
  0
LINE
  5
FD7D
330
18
100
AcDbEntity
  8
01
  6
BYBLOCK
100
AcDbLine
 10
5197.439770849256
 20
2378.759235846673
 30
0.0
 11
5194.839770849256
 21
2379.455903740673
 31
0.0
  0
LINE
  5
FD7E
330
18
100
AcDbEntity
  8
01
  6
BYBLOCK
100
AcDbLine
 10
5194.839770849256
 20
2379.455903740673
 30
0.0
 11
5197.439770849256
 21
2380.152571634672
 31
0.0
  0
LINE
  5
FD7F
330
18
100
AcDbEntity
  8
01
  6
BYBLOCK
100
AcDbLine
 10
5194.839770849256
 20
2379.455903740673
 30
0.0
 11
5197.439770849256
 21
2379.455903740673
 31
0.0
  0
LINE
  5
FD80
330
18
100
AcDbEntity
  8
01
  6
BYBLOCK
100
AcDbLine
 10
5243.239770849255
 20
2380.152571634672
 30
0.0
 11
5245.839770849256
 21
2379.455903740673
 31
0.0
  0
LINE
  5
FD81
330
18
100
AcDbEntity
  8
01
  6
BYBLOCK
100
AcDbLine
 10
5245.839770849256
 20
2379.455903740673
 30
0.0
 11
5243.239770849255
 21
2378.759235846673
 31
0.0
  0
LINE
  5
FD82
330
18
100
AcDbEntity
  8
01
  6
BYBLOCK
100
AcDbLine
 10
5245.839770849256
 20
2379.455903740673
 30
0.0
 11
5243.239770849255
 21
2379.455903740673
 31
0.0
  0
TEXT
  5
FD83
330
18
100
AcDbEntity
  8
01
  6
CONTINUOUS
100
AcDbText
 10
5217.290638904811
 20
2380.365903740673
 30
0.0
 40
4.55
  1
51
100
AcDbText
1001
ACAD
1000
DSTYLE
1002
{
1070
    40
1040
1.3
1070
    45
1040
0.5
1002
}
  0
LINE
  5
FD84
330
18
100
AcDbEntity
  8
01
  6
BYBLOCK
100
AcDbLine
 10
5160.004375871114
 20
2325.434411655983
 30
0.0
 11
5160.701043765114
 21
2328.034411655983
 31
0.0
  0
LINE
  5
FD85
330
18
100
AcDbEntity
  8
01
  6
BYBLOCK
100
AcDbLine
 10
5160.701043765114
 20
2328.034411655983
 30
0.0
 11
5161.397711659114
 21
2325.434411655983
 31
0.0
  0
LINE
  5
FD86
330
18
100
AcDbEntity
  8
01
  6
BYBLOCK
100
AcDbLine
 10
5160.701043765114
 20
2328.034411655983
 30
0.0
 11
5160.701043765114
 21
2325.434411655983
 31
0.0
  0
LINE
  5
FD87
330
18
100
AcDbEntity
  8
01
  6
BYBLOCK
100
AcDbLine
 10
5161.397711659114
 20
2216.634411655983
 30
0.0
 11
5160.701043765114
 21
2214.034411655983
 31
0.0
  0
LINE
  5
FD88
330
18
100
AcDbEntity
  8
01
  6
BYBLOCK
100
AcDbLine
 10
5160.701043765114
 20
2214.034411655983
 30
0.0
 11
5160.004375871114
 21
2216.634411655983
 31
0.0
  0
LINE
  5
FD89
330
18
100
AcDbEntity
  8
01
  6
BYBLOCK
100
AcDbLine
 10
5160.701043765114
 20
2214.034411655983
 30
0.0
 11
5160.701043765114
 21
2216.634411655983
 31
0.0
  0
TEXT
  5
FD8A
330
18
100
AcDbEntity
  8
01
  6
CONTINUOUS
100
AcDbText
 10
5159.791043765113
 20
2295.617434003905
 30
0.0
 40
4.55
  1
114
 50
90.0
100
AcDbText
1001
ACAD
1000
DSTYLE
1002
{
1070
    40
1040
1.3
1070
    45
1040
0.5
1002
}
  0
LINE
  5
FD8B
330
18
100
AcDbEntity
  8
01
  6
BYBLOCK
100
AcDbLine
 10
5169.368710037339
 20
2333.333966511567
 30
0.0
 11
5170.065377931339
 21
2335.933966511567
 31
0.0
  0
LINE
  5
FD8C
330
18
100
AcDbEntity
  8
01
  6
BYBLOCK
100
AcDbLine
 10
5170.065377931339
 20
2335.933966511567
 30
0.0
 11
5170.762045825339
 21
2333.333966511567
 31
0.0
  0
LINE
  5
FD8D
330
18
100
AcDbEntity
  8
01
  6
BYBLOCK
100
AcDbLine
 10
5170.065377931339
 20
2335.933966511567
 30
0.0
 11
5170.065377931339
 21
2333.333966511567
 31
0.0
  0
LINE
  5
FD8E
330
18
100
AcDbEntity
  8
01
  6
BYBLOCK
100
AcDbLine
 10
5170.762045825339
 20
2208.734411655983
 30
0.0
 11
5170.065377931339
 21
2206.134411655984
 31
0.0
  0
LINE
  5
FD8F
330
18
100
AcDbEntity
  8
01
  6
BYBLOCK
100
AcDbLine
 10
5170.065377931339
 20
2206.134411655984
 30
0.0
 11
5169.368710037339
 21
2208.734411655983
 31
0.0
  0
LINE
  5
FD90
330
18
100
AcDbEntity
  8
01
  6
BYBLOCK
100
AcDbLine
 10
5170.065377931339
 20
2206.134411655984
 30
0.0
 11
5170.065377931339
 21
2208.734411655983
 31
0.0
  0
TEXT
  5
FD91
330
18
100
AcDbEntity
  8
01
  6
CONTINUOUS
100
AcDbText
 10
5169.155377931338
 20
2294.832870001098
 30
0.0
 40
4.55
  1
130
 50
90.0
100
AcDbText
1001
ACAD
1000
DSTYLE
1002
{
1070
    40
1040
1.3
1070
    45
1040
0.5
1002
}
  0
LINE
  5
FD92
330
18
100
AcDbEntity
  8
01
  6
BYBLOCK
100
AcDbLine
 10
5065.939887189001
 20
2378.759235846673
 30
0.0
 11
5063.339887189
 21
2379.455903740673
 31
0.0
  0
LINE
  5
FD93
330
18
100
AcDbEntity
  8
01
  6
BYBLOCK
100
AcDbLine
 10
5063.339887189
 20
2379.455903740673
 30
0.0
 11
5065.939887189001
 21
2380.152571634672
 31
0.0
  0
LINE
  5
FD94
330
18
100
AcDbEntity
  8
01
  6
BYBLOCK
100
AcDbLine
 10
5063.339887189
 20
2379.455903740673
 30
0.0
 11
5065.939887189001
 21
2379.455903740673
 31
0.0
  0
LINE
  5
FD95
330
18
100
AcDbEntity
  8
01
  6
BYBLOCK
100
AcDbLine
 10
5085.739887189
 20
2380.152571634672
 30
0.0
 11
5088.339887189
 21
2379.455903740673
 31
0.0
  0
LINE
  5
FD96
330
18
100
AcDbEntity
  8
01
  6
BYBLOCK
100
AcDbLine
 10
5088.339887189
 20
2379.455903740673
 30
0.0
 11
5085.739887189
 21
2378.759235846673
 31
0.0
  0
LINE
  5
FD97
330
18
100
AcDbEntity
  8
01
  6
BYBLOCK
100
AcDbLine
 10
5088.339887189
 20
2379.455903740673
 30
0.0
 11
5085.739887189
 21
2379.455903740673
 31
0.0
  0
TEXT
  5
FD98
330
18
100
AcDbEntity
  8
01
  6
CONTINUOUS
100
AcDbText
 10
5072.048220522333
 20
2380.365903740673
 30
0.0
 40
4.55
  1
25
100
AcDbText
1001
ACAD
1000
DSTYLE
1002
{
1070
    40
1040
1.3
1070
    45
1040
0.5
1002
}
  0
LINE
  5
FD99
330
18
100
AcDbEntity
  8
01
  6
BYBLOCK
100
AcDbLine
 10
5210.143102955257
 20
2273.935729969086
 30
0.0
 11
5210.839770849257
 21
2276.535729969086
 31
0.0
  0
LINE
  5
FD9A
330
18
100
AcDbEntity
  8
01
  6
BYBLOCK
100
AcDbLine
 10
5210.839770849257
 20
2276.535729969086
 30
0.0
 11
5211.536438743256
 21
2273.935729969086
 31
0.0
  0
LINE
  5
FD9B
330
18
100
AcDbEntity
  8
01
  6
BYBLOCK
100
AcDbLine
 10
5210.839770849257
 20
2276.535729969086
 30
0.0
 11
5210.839770849257
 21
2273.935729969086
 31
0.0
  0
LINE
  5
FD9C
330
18
100
AcDbEntity
  8
01
  6
BYBLOCK
100
AcDbLine
 10
5211.536438743256
 20
2226.135729969086
 30
0.0
 11
5210.839770849257
 21
2223.535729969086
 31
0.0
  0
LINE
  5
FD9D
330
18
100
AcDbEntity
  8
01
  6
BYBLOCK
100
AcDbLine
 10
5210.839770849257
 20
2223.535729969086
 30
0.0
 11
5210.143102955257
 21
2226.135729969086
 31
0.0
  0
LINE
  5
FD9E
330
18
100
AcDbEntity
  8
01
  6
BYBLOCK
100
AcDbLine
 10
5210.839770849257
 20
2223.535729969086
 30
0.0
 11
5210.839770849257
 21
2226.135729969086
 31
0.0
  0
TEXT
  5
FD9F
330
18
100
AcDbEntity
  8
01
  6
CONTINUOUS
100
AcDbText
 10
5209.929770849256
 20
2242.006852062489
 30
0.0
 40
4.55
  1
□53
 50
90.0
100
AcDbText
1001
ACAD
1000
DSTYLE
1002
{
1070
     3
1000
□<>
1070
    40
1040
1.3
1070
    45
1040
0.5
1002
}
  0
SOLID
  5
FDA0
330
18
100
AcDbEntity
  8
1DIM
100
AcDbTrace
 10
5243.209620204002
 20
2473.983654601041
 30
0.0000000000563712
 11
5245.580372089316
 21
2475.135745429081
 31
0.0000000000563712
 12
5243.711420033924
 22
2473.277037277589
 32
0.0000000000563712
 13
5243.711420033924
 23
2473.277037277589
 33
0.0000000000563712
1001
ACAD
1000
DSTYLE
1002
{
1070
    40
1040
1.3
1070
    45
1040
0.5
1002
}
  0
LINE
  5
FDA1
330
18
100
AcDbEntity
  8
1DIM
100
AcDbLine
 10
5243.460520118962
 20
2473.630345939315
 30
0.0000000000563712
 11
5215.992931942274
 21
2454.124411654956
 31
0.0000000000563712
1001
ACAD
1000
DSTYLE
1002
{
1070
    40
1040
1.3
1070
    45
1040
0.5
1002
}
  0
LINE
  5
FDA2
330
18
100
AcDbEntity
  8
1DIM
100
AcDbLine
 10
5262.240655031315
 20
2529.534411654956
 30
0.0
 11
5282.80104579103
 21
2529.534411654956
 31
0.0
1001
ACAD
1000
DSTYLE
1002
{
1070
    45
1040
0.5
1070
    40
1040
1.3
1002
}
  0
LINE
  5
FDA3
330
18
100
AcDbEntity
  8
1DIM
100
AcDbLine
 10
5263.840655031316
 20
2510.734411654956
 30
0.0
 11
5282.80104579103
 21
2510.734411654956
 31
0.0
1001
ACAD
1000
DSTYLE
1002
{
1070
    45
1040
0.5
1070
    40
1040
1.3
1002
}
  0
LINE
  5
FDA4
330
18
100
AcDbEntity
  8
1DIM
100
AcDbLine
 10
5281.501045791029
 20
2526.934411654956
 30
0.0
 11
5281.501045791029
 21
2513.334411654956
 31
0.0
1001
ACAD
1000
DSTYLE
1002
{
1070
    45
1040
0.5
1070
    40
1040
1.3
1002
}
  0
LINE
  5
FDA8
330
18
100
AcDbEntity
  8
1DIM
100
AcDbLine
 10
5367.839770849256
 20
2239.035729969088
 30
0.0
 11
5402.139770849256
 21
2239.035729969088
 31
0.0
1001
ACAD
1000
DSTYLE
1002
{
1070
    40
1040
1.3
1070
    45
1040
0.5
1002
}
  0
LINE
  5
FDA9
330
18
100
AcDbEntity
  8
1DIM
100
AcDbLine
 10
5367.839770849256
 20
2256.21934987727
 30
0.0
 11
5402.139770849256
 21
2256.21934987727
 31
0.0
1001
ACAD
1000
DSTYLE
1002
{
1070
    40
1040
1.3
1070
    45
1040
0.5
1002
}
  0
LINE
  5
FDAA
330
18
100
AcDbEntity
  8
1DIM
100
AcDbLine
 10
5400.839770849256
 20
2241.635729969088
 30
0.0
 11
5400.839770849256
 21
2253.61934987727
 31
0.0
1001
ACAD
1000
DSTYLE
1002
{
1070
    40
1040
1.3
1070
    45
1040
0.5
1002
}
  0
LINE
  5
FDAE
330
18
100
AcDbEntity
  8
1DIM
100
AcDbLine
 10
5245.839770849256
 20
2478.534411655985
 30
0.0000000001127424
 11
5245.839770849256
 21
2413.734411655985
 31
0.0000000001127424
1001
ACAD
1000
DSTYLE
1002
{
1070
    40
1040
1.3
1070
    45
1040
0.5
1002
}
  0
LINE
  5
FDAF
330
18
100
AcDbEntity
  8
1DIM
100
AcDbLine
 10
5370.839770849256
 20
2440.034411655985
 30
0.0000000001127424
 11
5370.839770849256
 21
2413.734411655985
 31
0.0000000001127424
1001
ACAD
1000
DSTYLE
1002
{
1070
    40
1040
1.3
1070
    45
1040
0.5
1002
}
  0
LINE
  5
FDB0
330
18
100
AcDbEntity
  8
1DIM
100
AcDbLine
 10
5248.439770849256
 20
2415.034411655985
 30
0.0000000001127424
 11
5368.239770849255
 21
2415.034411655985
 31
0.0000000001127424
1001
ACAD
1000
DSTYLE
1002
{
1070
    40
1040
1.3
1070
    45
1040
0.5
1002
}
  0
LINE
  5
FDB4
330
18
100
AcDbEntity
  8
1DIM
100
AcDbLine
 10
5230.858985568851
 20
2438.689356211967
 30
0.0000000001127424
 11
5230.858985568851
 21
2403.734411655985
 31
0.0000000001127424
1001
ACAD
1000
DSTYLE
1002
{
1070
    40
1040
1.3
1070
    45
1040
0.5
1002
}
  0
LINE
  5
FDB5
330
18
100
AcDbEntity
  8
1DIM
100
AcDbLine
 10
5370.839770849256
 20
2440.034411655985
 30
0.0000000001127424
 11
5370.839770849256
 21
2403.734411655985
 31
0.0000000001127424
1001
ACAD
1000
DSTYLE
1002
{
1070
    40
1040
1.3
1070
    45
1040
0.5
1002
}
  0
LINE
  5
FDB6
330
18
100
AcDbEntity
  8
1DIM
100
AcDbLine
 10
5233.458985568852
 20
2405.034411655985
 30
0.0000000001127424
 11
5368.239770849255
 21
2405.034411655985
 31
0.0000000001127424
1001
ACAD
1000
DSTYLE
1002
{
1070
    40
1040
1.3
1070
    45
1040
0.5
1002
}
  0
LINE
  5
FDBA
330
18
100
AcDbEntity
  8
1DIM
100
AcDbLine
 10
5367.395458219851
 20
2463.527256925102
 30
0.0000000001127424
 11
5402.139770849256
 21
2463.527256925102
 31
0.0000000001127424
1001
ACAD
1000
DSTYLE
1002
{
1070
    40
1040
1.3
1070
    45
1040
0.5
1002
}
  0
LINE
  5
FDBB
330
18
100
AcDbEntity
  8
1DIM
100
AcDbLine
 10
5348.594918846604
 20
2500.034411655985
 30
0.0000000001127424
 11
5402.139770849256
 21
2500.034411655985
 31
0.0000000001127424
1001
ACAD
1000
DSTYLE
1002
{
1070
    40
1040
1.3
1070
    45
1040
0.5
1002
}
  0
LINE
  5
FDBC
330
18
100
AcDbEntity
  8
1DIM
100
AcDbLine
 10
5400.839770849256
 20
2466.127256925102
 30
0.0000000001127424
 11
5400.839770849256
 21
2497.434411655985
 31
0.0000000001127424
1001
ACAD
1000
DSTYLE
1002
{
1070
    40
1040
1.3
1070
    45
1040
0.5
1002
}
  0
LINE
  5
FDC0
330
18
100
AcDbEntity
  8
1DIM
100
AcDbLine
 10
5367.839770849256
 20
2436.012692499766
 30
0.0000000001127424
 11
5412.139770849256
 21
2436.012692499766
 31
0.0000000001127424
1001
ACAD
1000
DSTYLE
1002
{
1070
    40
1040
1.3
1070
    45
1040
0.5
1002
}
  0
LINE
  5
FDC1
330
18
100
AcDbEntity
  8
1DIM
100
AcDbLine
 10
5348.594918846604
 20
2500.034411655985
 30
0.0000000001127424
 11
5412.139770849256
 21
2500.034411655985
 31
0.0000000001127424
1001
ACAD
1000
DSTYLE
1002
{
1070
    40
1040
1.3
1070
    45
1040
0.5
1002
}
  0
LINE
  5
FDC2
330
18
100
AcDbEntity
  8
1DIM
100
AcDbLine
 10
5410.839770849256
 20
2438.612692499766
 30
0.0000000001127424
 11
5410.839770849256
 21
2497.434411655985
 31
0.0000000001127424
1001
ACAD
1000
DSTYLE
1002
{
1070
    40
1040
1.3
1070
    45
1040
0.5
1002
}
  0
LINE
  5
FDC6
330
18
100
AcDbEntity
  8
0
  6
BYBLOCK
100
AcDbLine
 10
5280.80437789703
 20
2526.934411654956
 30
0.0
 11
5281.501045791029
 21
2529.534411654956
 31
0.0
  0
LINE
  5
FDC7
330
18
100
AcDbEntity
  8
0
  6
BYBLOCK
100
AcDbLine
 10
5281.501045791029
 20
2529.534411654956
 30
0.0
 11
5282.197713685029
 21
2526.934411654956
 31
0.0
  0
LINE
  5
FDC8
330
18
100
AcDbEntity
  8
0
  6
BYBLOCK
100
AcDbLine
 10
5281.501045791029
 20
2529.534411654956
 30
0.0
 11
5281.501045791029
 21
2526.934411654956
 31
0.0
  0
LINE
  5
FDC9
330
18
100
AcDbEntity
  8
0
  6
BYBLOCK
100
AcDbLine
 10
5282.197713685029
 20
2513.334411654956
 30
0.0
 11
5281.501045791029
 21
2510.734411654956
 31
0.0
  0
LINE
  5
FDCA
330
18
100
AcDbEntity
  8
0
  6
BYBLOCK
100
AcDbLine
 10
5281.501045791029
 20
2510.734411654956
 30
0.0
 11
5280.80437789703
 21
2513.334411654956
 31
0.0
  0
LINE
  5
FDCB
330
18
100
AcDbEntity
  8
0
  6
BYBLOCK
100
AcDbLine
 10
5281.501045791029
 20
2510.734411654956
 30
0.0
 11
5281.501045791029
 21
2513.334411654956
 31
0.0
  0
TEXT
  5
FDCC
330
18
100
AcDbEntity
  8
1DIM
  6
CONTINUOUS
100
AcDbText
 10
5280.591045791029
 20
2517.100025080882
 30
0.0
 40
4.55
  1
19
 50
90.0
100
AcDbText
1001
ACAD
1000
DSTYLE
1002
{
1070
    45
1040
0.5
1070
    40
1040
1.3
1002
}
  0
LINE
  5
FDCD
330
18
100
AcDbEntity
  8
0
  6
BYBLOCK
100
AcDbLine
 10
5401.536438743256
 20
2241.635729969088
 30
0.0
 11
5400.839770849256
 21
2239.035729969088
 31
0.0
  0
LINE
  5
FDCE
330
18
100
AcDbEntity
  8
0
  6
BYBLOCK
100
AcDbLine
 10
5400.839770849256
 20
2239.035729969088
 30
0.0
 11
5400.143102955256
 21
2241.635729969088
 31
0.0
  0
LINE
  5
FDCF
330
18
100
AcDbEntity
  8
0
  6
BYBLOCK
100
AcDbLine
 10
5400.839770849256
 20
2239.035729969088
 30
0.0
 11
5400.839770849256
 21
2241.635729969088
 31
0.0
  0
LINE
  5
FDD0
330
18
100
AcDbEntity
  8
0
  6
BYBLOCK
100
AcDbLine
 10
5400.143102955256
 20
2253.61934987727
 30
0.0
 11
5400.839770849256
 21
2256.21934987727
 31
0.0
  0
LINE
  5
FDD1
330
18
100
AcDbEntity
  8
0
  6
BYBLOCK
100
AcDbLine
 10
5400.839770849256
 20
2256.21934987727
 30
0.0
 11
5401.536438743256
 21
2253.61934987727
 31
0.0
  0
LINE
  5
FDD2
330
18
100
AcDbEntity
  8
0
  6
BYBLOCK
100
AcDbLine
 10
5400.839770849256
 20
2256.21934987727
 30
0.0
 11
5400.839770849256
 21
2253.61934987727
 31
0.0
  0
TEXT
  5
FDD3
330
18
100
AcDbEntity
  8
1DIM
  6
CONTINUOUS
100
AcDbText
 10
5399.929770849254
 20
2244.594206589846
 30
0.0
 40
4.55
  1
17
 50
90.0
100
AcDbText
1001
ACAD
1000
DSTYLE
1002
{
1070
    40
1040
1.3
1070
    45
1040
0.5
1002
}
  0
LINE
  5
FDD4
330
18
100
AcDbEntity
  8
0
  6
BYBLOCK
100
AcDbLine
 10
5248.439770849256
 20
2414.337743761985
 30
0.0000000001127424
 11
5245.839770849256
 21
2415.034411655985
 31
0.0000000001127424
  0
LINE
  5
FDD5
330
18
100
AcDbEntity
  8
0
  6
BYBLOCK
100
AcDbLine
 10
5245.839770849256
 20
2415.034411655985
 30
0.0000000001127424
 11
5248.439770849256
 21
2415.731079549985
 31
0.0000000001127424
  0
LINE
  5
FDD6
330
18
100
AcDbEntity
  8
0
  6
BYBLOCK
100
AcDbLine
 10
5245.839770849256
 20
2415.034411655985
 30
0.0000000001127424
 11
5248.439770849256
 21
2415.034411655985
 31
0.0000000001127424
  0
LINE
  5
FDD7
330
18
100
AcDbEntity
  8
0
  6
BYBLOCK
100
AcDbLine
 10
5368.239770849255
 20
2415.731079549985
 30
0.0000000001127424
 11
5370.839770849256
 21
2415.034411655985
 31
0.0000000001127424
  0
LINE
  5
FDD8
330
18
100
AcDbEntity
  8
0
  6
BYBLOCK
100
AcDbLine
 10
5370.839770849256
 20
2415.034411655985
 30
0.0000000001127424
 11
5368.239770849255
 21
2414.337743761985
 31
0.0000000001127424
  0
LINE
  5
FDD9
330
18
100
AcDbEntity
  8
0
  6
BYBLOCK
100
AcDbLine
 10
5370.839770849256
 20
2415.034411655985
 30
0.0000000001127424
 11
5368.239770849255
 21
2415.034411655985
 31
0.0000000001127424
  0
TEXT
  5
FDDA
330
18
100
AcDbEntity
  8
1DIM
  6
CONTINUOUS
100
AcDbText
 10
5303.031437515922
 20
2415.944411655985
 30
0.0000000001127424
 40
4.55
  1
125
100
AcDbText
1001
ACAD
1000
DSTYLE
1002
{
1070
    40
1040
1.3
1070
    45
1040
0.5
1002
}
  0
LINE
  5
FDDB
330
18
100
AcDbEntity
  8
0
  6
BYBLOCK
100
AcDbLine
 10
5233.458985568852
 20
2404.337743761985
 30
0.0000000001127424
 11
5230.858985568851
 21
2405.034411655985
 31
0.0000000001127424
  0
LINE
  5
FDDC
330
18
100
AcDbEntity
  8
0
  6
BYBLOCK
100
AcDbLine
 10
5230.858985568851
 20
2405.034411655985
 30
0.0000000001127424
 11
5233.458985568852
 21
2405.731079549985
 31
0.0000000001127424
  0
LINE
  5
FDDD
330
18
100
AcDbEntity
  8
0
  6
BYBLOCK
100
AcDbLine
 10
5230.858985568851
 20
2405.034411655985
 30
0.0000000001127424
 11
5233.458985568852
 21
2405.034411655985
 31
0.0000000001127424
  0
LINE
  5
FDDE
330
18
100
AcDbEntity
  8
0
  6
BYBLOCK
100
AcDbLine
 10
5368.239770849255
 20
2405.731079549985
 30
0.0000000001127424
 11
5370.839770849256
 21
2405.034411655985
 31
0.0000000001127424
  0
LINE
  5
FDDF
330
18
100
AcDbEntity
  8
0
  6
BYBLOCK
100
AcDbLine
 10
5370.839770849256
 20
2405.034411655985
 30
0.0000000001127424
 11
5368.239770849255
 21
2404.337743761985
 31
0.0000000001127424
  0
LINE
  5
FDE0
330
18
100
AcDbEntity
  8
0
  6
BYBLOCK
100
AcDbLine
 10
5370.839770849256
 20
2405.034411655985
 30
0.0000000001127424
 11
5368.239770849255
 21
2405.034411655985
 31
0.0000000001127424
  0
TEXT
  5
FDE1
330
18
100
AcDbEntity
  8
1DIM
  6
CONTINUOUS
100
AcDbText
 10
5295.82541987572
 20
2405.944411655985
 30
0.0000000001127424
 40
4.55
  1
140
100
AcDbText
1001
ACAD
1000
DSTYLE
1002
{
1070
    40
1040
1.3
1070
    45
1040
0.5
1002
}
  0
LINE
  5
FDE2
330
18
100
AcDbEntity
  8
0
  6
BYBLOCK
100
AcDbLine
 10
5401.536438743256
 20
2466.127256925102
 30
0.0000000001127424
 11
5400.839770849256
 21
2463.527256925102
 31
0.0000000001127424
  0
LINE
  5
FDE3
330
18
100
AcDbEntity
  8
0
  6
BYBLOCK
100
AcDbLine
 10
5400.839770849256
 20
2463.527256925102
 30
0.0000000001127424
 11
5400.143102955256
 21
2466.127256925102
 31
0.0000000001127424
  0
LINE
  5
FDE4
330
18
100
AcDbEntity
  8
0
  6
BYBLOCK
100
AcDbLine
 10
5400.839770849256
 20
2463.527256925102
 30
0.0000000001127424
 11
5400.839770849256
 21
2466.127256925102
 31
0.0000000001127424
  0
LINE
  5
FDE5
330
18
100
AcDbEntity
  8
0
  6
BYBLOCK
100
AcDbLine
 10
5400.143102955256
 20
2497.434411655985
 30
0.0000000001127424
 11
5400.839770849256
 21
2500.034411655985
 31
0.0000000001127424
  0
LINE
  5
FDE6
330
18
100
AcDbEntity
  8
0
  6
BYBLOCK
100
AcDbLine
 10
5400.839770849256
 20
2500.034411655985
 30
0.0000000001127424
 11
5401.536438743256
 21
2497.434411655985
 31
0.0000000001127424
  0
LINE
  5
FDE7
330
18
100
AcDbEntity
  8
0
  6
BYBLOCK
100
AcDbLine
 10
5400.839770849256
 20
2500.034411655985
 30
0.0000000001127424
 11
5400.839770849256
 21
2497.434411655985
 31
0.0000000001127424
  0
TEXT
  5
FDE8
330
18
100
AcDbEntity
  8
1DIM
  6
CONTINUOUS
100
AcDbText
 10
5399.929770849254
 20
2474.940035679433
 30
0.0000000001127424
 40
4.55
  1
36.5
 50
90.0
100
AcDbText
1001
ACAD
1000
DSTYLE
1002
{
1070
    40
1040
1.3
1070
    45
1040
0.5
1002
}
  0
LINE
  5
FDE9
330
18
100
AcDbEntity
  8
0
  6
BYBLOCK
100
AcDbLine
 10
5411.536438743256
 20
2438.612692499766
 30
0.0000000001127424
 11
5410.839770849256
 21
2436.012692499766
 31
0.0000000001127424
  0
LINE
  5
FDEA
330
18
100
AcDbEntity
  8
0
  6
BYBLOCK
100
AcDbLine
 10
5410.839770849256
 20
2436.012692499766
 30
0.0000000001127424
 11
5410.143102955256
 21
2438.612692499766
 31
0.0000000001127424
  0
LINE
  5
FDEB
330
18
100
AcDbEntity
  8
0
  6
BYBLOCK
100
AcDbLine
 10
5410.839770849256
 20
2436.012692499766
 30
0.0000000001127424
 11
5410.839770849256
 21
2438.612692499766
 31
0.0000000001127424
  0
LINE
  5
FDEC
330
18
100
AcDbEntity
  8
0
  6
BYBLOCK
100
AcDbLine
 10
5410.143102955256
 20
2497.434411655985
 30
0.0000000001127424
 11
5410.839770849256
 21
2500.034411655985
 31
0.0000000001127424
  0
LINE
  5
FDED
330
18
100
AcDbEntity
  8
0
  6
BYBLOCK
100
AcDbLine
 10
5410.839770849256
 20
2500.034411655985
 30
0.0000000001127424
 11
5411.536438743256
 21
2497.434411655985
 31
0.0000000001127424
  0
LINE
  5
FDEE
330
18
100
AcDbEntity
  8
0
  6
BYBLOCK
100
AcDbLine
 10
5410.839770849256
 20
2500.034411655985
 30
0.0000000001127424
 11
5410.839770849256
 21
2497.434411655985
 31
0.0000000001127424
  0
TEXT
  5
FDEF
330
18
100
AcDbEntity
  8
1DIM
  6
CONTINUOUS
100
AcDbText
 10
5409.929770849254
 20
2464.216086800099
 30
0.0000000001127424
 40
4.55
  1
64
 50
90.0
100
AcDbText
1001
ACAD
1000
DSTYLE
1002
{
1070
    40
1040
1.3
1070
    45
1040
0.5
1002
}
  0
VIEWPORT
  5
57
330
15
100
AcDbEntity
 67
     1
  8
0
100
AcDbViewport
 68
     1
 10
0.0
 20
0.0
 30
0.0
 40
555.8298653610772
 41
297.0
 68
     1
 69
     1
1001
ACAD
1000
MVIEW
1002
{
1070
    16
1010
0.0
1020
0.0
1030
0.0
1010
0.0
1020
0.0
1030
1.0
1040
0.0
1040
297.0
1040
5.728000000000009
1040
25.339
1040
50.0
1040
0.0
1040
0.0
1070
    16
1070
   100
1070
     0
1070
     1
1070
     0
1070
     0
1070
     0
1070
     0
1040
0.0
1040
0.0
1040
0.0
1040
10.0
1040
10.0
1040
10.0
1040
10.0
1070
     0
1002
{
1002
}
1002
}
  0
ENDSEC
  0
SECTION
  2
OBJECTS
  0
DICTIONARY
  5
C
330
0
100
AcDbDictionary
  3
ACAD_CIP_PREVIOUS_PRODUCT_INFO
350
AEA8
  3
ACAD_COLOR
350
18D
  3
ACAD_GROUP
350
D
  3
ACAD_LAYOUT
350
18E
  3
ACAD_MATERIAL
350
18C
  3
ACAD_MLEADERSTYLE
350
9583
  3
ACAD_MLINESTYLE
350
1B
  3
ACAD_PLOTSETTINGS
350
18F
  3
ACAD_SCALELIST
350
9561
  3
ACAD_VISUALSTYLE
350
9550
  3
ACDBHEADERROUNDTRIPXREC
350
FDF0
  3
ACDBVARIABLEDICTIONARY
350
37
  3
CONTENTDICTIONARY
350
D8
  3
DRAWINGVARIABLESDICT
350
20
  3
DWGPROPS
350
FDF3
1001
ACAD
1000
TREAT_AS_HARD
1070
     0
  0
DICTIONARY
  5
96D9
330
2
100
AcDbDictionary
  3
ACAD_LAYERSTATES
360
96DA
1001
ACAD
1000
TREAT_AS_HARD
1070
     1
  0
DICTIONARY
  5
9593
330
E
100
AcDbDictionary
  3
ADSK_XREC_LAYER_RECONCILED
360
9594
1001
ACAD
1000
TREAT_AS_HARD
1070
     1
  0
DICTIONARY
  5
9595
330
29
100
AcDbDictionary
  3
ADSK_XREC_LAYER_RECONCILED
360
9596
1001
ACAD
1000
TREAT_AS_HARD
1070
     1
  0
DICTIONARY
  5
9597
330
31
100
AcDbDictionary
  3
ADSK_XREC_LAYER_RECONCILED
360
9598
1001
ACAD
1000
TREAT_AS_HARD
1070
     1
  0
DICTIONARY
  5
959D
330
243
100
AcDbDictionary
  3
ADSK_XREC_LAYER_RECONCILED
360
959E
1001
ACAD
1000
TREAT_AS_HARD
1070
     1
  0
DICTIONARY
  5
95A3
330
24E
100
AcDbDictionary
  3
ADSK_XREC_LAYER_RECONCILED
360
95A4
1001
ACAD
1000
TREAT_AS_HARD
1070
     1
  0
DICTIONARY
  5
88F
330
18
100
AcDbDictionary
  3
ACAD_SORTENTS
360
890
1001
ACAD
1000
TREAT_AS_HARD
1070
     1
  0
XRECORD
  5
AEA8
102
{ACAD_REACTORS
330
C
102
}
330
C
100
AcDbXrecord
300
ACDLT
300
2012
300
ACDLT_F_S
  0
DICTIONARY
  5
18D
102
{ACAD_REACTORS
330
C
102
}
330
C
100
AcDbDictionary
1001
ACAD
1000
TREAT_AS_HARD
1070
     0
  0
DICTIONARY
  5
D
102
{ACAD_REACTORS
330
C
102
}
330
C
100
AcDbDictionary
1001
ACAD
1000
TREAT_AS_HARD
1070
     0
  0
DICTIONARY
  5
18E
102
{ACAD_REACTORS
330
C
102
}
330
C
100
AcDbDictionary
1001
ACAD
1000
TREAT_AS_HARD
1070
     0
  0
DICTIONARY
  5
18C
102
{ACAD_REACTORS
330
C
102
}
330
C
100
AcDbDictionary
  3
BYBLOCK
350
9540
  3
BYLAYER
350
9538
  3
GLOBAL
350
9548
1001
ACAD
1000
TREAT_AS_HARD
1070
     0
  0
DICTIONARY
  5
9583
102
{ACAD_REACTORS
330
C
102
}
330
C
100
AcDbDictionary
  3
STANDARD
350
9584
1001
ACAD
1000
TREAT_AS_HARD
1070
     0
  0
DICTIONARY
  5
1B
102
{ACAD_REACTORS
330
C
102
}
330
C
100
AcDbDictionary
  3
STANDARD
350
1C
1001
ACAD
1000
TREAT_AS_HARD
1070
     0
  0
DICTIONARY
  5
18F
102
{ACAD_REACTORS
330
C
102
}
330
C
100
AcDbDictionary
1001
ACAD
1000
TREAT_AS_HARD
1070
     0
  0
DICTIONARY
  5
9561
102
{ACAD_REACTORS
330
C
102
}
330
C
100
AcDbDictionary
  3
A0
350
9562
  3
A1
350
9563
  3
A2
350
9564
  3
A3
350
9565
  3
A4
350
9566
  3
A5
350
9567
  3
A6
350
9568
  3
A7
350
9569
  3
A8
350
956A
  3
A9
350
956B
  3
B0
350
956C
  3
B1
350
956D
  3
B2
350
956E
  3
B3
350
956F
  3
B4
350
9570
  3
B5
350
9571
  3
B6
350
9572
  3
B7
350
9573
  3
B8
350
9574
  3
B9
350
9575
  3
C0
350
9576
  3
C1
350
9577
  3
C2
350
9578
  3
C3
350
9579
  3
C4
350
957A
  3
C5
350
957B
  3
C6
350
957C
  3
C7
350
957D
  3
C8
350
957E
  3
C9
350
957F
  3
D0
350
9580
  3
D1
350
9581
  3
D2
350
9582
1001
ACAD
1000
TREAT_AS_HARD
1070
     0
  0
DICTIONARY
  5
9550
102
{ACAD_REACTORS
330
C
102
}
330
C
100
AcDbDictionary
  3
2DWIREFRAME
350
9556
  3
3D_HIDDEN
350
9558
  3
3DWIREFRAME
350
9557
  3
BASIC
350
9555
  3
BRIGHTEN
350
955C
  3
COLORCHANGE
350
9560
  3
CONCEPTUAL
350
9559
  3
DIM
350
955B
  3
EDGECOLOROFF
350
A211
  3
FACEPATTERN
350
955F
  3
FLAT
350
9551
  3
FLATWITHEDGES
350
9552
  3
GOURAUD
350
9553
  3
GOURAUDWITHEDGES
350
9554
  3
HIDDEN
350
A260
  3
JITTEROFF
350
A20F
  3
LINEPATTERN
350
955E
  3
MODELING
350
A266
  3
OVERHANGOFF
350
A210
  3
REALISTIC
350
955A
  3
SHADED
350
A265
  3
SHADED_WITH_EDGES
350
A264
  3
SHADES_OF_GRAY
350
A261
  3
SKETCHY
350
A262
  3
THICKEN
350
955D
  3
WIREFRAME
350
A25F
  3
X-RAY
350
A263
1001
ACAD
1000
TREAT_AS_HARD
1070
     0
  0
DICTIONARY
  5
FDF0
102
{ACAD_REACTORS
330
C
102
}
330
C
100
AcDbDictionary
  3
COLORDICT
350
FDF1
  3
MATERIALDICT
350
FDF2
1001
ACAD
1000
TREAT_AS_HARD
1070
     0
  0
DICTIONARY
  5
37
102
{ACAD_REACTORS
330
C
102
}
330
C
100
AcDbDictionary
  3
CANNOSCALE
350
AAE0
  3
CMLEADERSTYLE
350
9627
  3
CTABLESTYLE
350
29E
  3
DIMADEC
350
38
  3
DIMASSOC
350
1CE
  3
HIDETEXT
350
704E
  3
INDEXCTL
350
962A
  3
INTERSECTIONCOLOR
350
7052
  3
INTERSECTIONDISPLAY
350
7051
  3
MSLTSCALE
350
AB30
  3
OBSCOLOR
350
704F
  3
OBSLTYPE
350
7050
  3
PROJECTNAME
350
1CF
  3
SORTENTS
350
9629
  3
XCLIPFRAME
350
FC9A
1001
ACAD
1000
TREAT_AS_HARD
1070
     0
  0
DICTIONARY
  5
D8
102
{ACAD_REACTORS
330
C
102
}
330
C
100
AcDbDictionary
1001
ACAD
1000
TREAT_AS_HARD
1070
     0
  0
DICTIONARY
  5
20
102
{ACAD_REACTORS
330
C
102
}
330
C
100
AcDbDictionary
1001
DRAWINGVARIABLESXDATA
1000
POLARANG
1000
0.261799387799149410000000
1000
POLARMODE
1000
1
1000
POLARSTYLE
1000
1
1001
ACAD
1000
TREAT_AS_HARD
1070
     0
  0
XRECORD
  5
FDF3
102
{ACAD_REACTORS
330
C
102
}
330
C
100
AcDbXrecord
  1
DWGPROPS COOKIE
  2

  3

  4

  6

  7

  8
3684
  9

300
=
301
=
302
=
303
=
304
=
305
=
306
=
307
=
308
=
309
=
 40
0.0
 41
2451318.246352917
 42
2458159.060035
  1

 90
        0
  0
DICTIONARY
  5
96DA
102
{ACAD_REACTORS
330
96D9
102
}
330
96D9
100
AcDbDictionary
1001
ACAD
1000
TREAT_AS_HARD
1070
     0
  0
ACAD_PROXY_OBJECT
  5
9594
102
{ACAD_REACTORS
330
9593
102
}
330
9593
100
AcDbZombieObject
 90
      499
 91
      514
 93
       34
310
40C8804040
  0
ACAD_PROXY_OBJECT
  5
9596
102
{ACAD_REACTORS
330
9595
102
}
330
9595
100
AcDbZombieObject
 90
      499
 91
      514
 93
       34
310
40C8804040
  0
ACAD_PROXY_OBJECT
  5
9598
102
{ACAD_REACTORS
330
9597
102
}
330
9597
100
AcDbZombieObject
 90
      499
 91
      514
 93
       34
310
40C8804040
  0
ACAD_PROXY_OBJECT
  5
959E
102
{ACAD_REACTORS
330
959D
102
}
330
959D
100
AcDbZombieObject
 90
      499
 91
      514
 93
       34
310
40C8804040
  0
ACAD_PROXY_OBJECT
  5
95A4
102
{ACAD_REACTORS
330
95A3
102
}
330
95A3
100
AcDbZombieObject
 90
      499
 91
      514
 93
       34
310
40C8804040
  0
SORTENTSTABLE
  5
890
102
{ACAD_REACTORS
330
88F
102
}
330
88F
100
AcDbSortentsTable
330
18
331
0
  5
EE7C
331
EE7B
  5
EE96
331
EE7C
  5
EE97
331
EE7E
  5
EE98
331
EE82
  5
EEBA
331
EE83
  5
EEBB
331
EE84
  5
EEBC
331
EE85
  5
EEBD
331
EE86
  5
EEBE
331
EE87
  5
EEBF
331
EE88
  5
EEC0
331
EE89
  5
EEC1
331
EE8A
  5
EEC2
331
EE8B
  5
EEC3
331
EE8C
  5
EEC4
331
EE8D
  5
EEC5
331
EE8E
  5
EEC6
331
EE8F
  5
EEC7
331
EE90
  5
EEC8
331
EE91
  5
EEC9
331
EE92
  5
EECA
331
EE93
  5
EECB
331
EE94
  5
EECC
331
EE95
  5
EECD
331
EE96
  5
EECE
331
EE97
  5
EECF
331
EE98
  5
EED0
331
EE99
  5
EED1
331
EE9A
  5
EED2
331
EE9B
  5
EED3
331
EE9C
  5
EED4
331
EE9D
  5
EED5
331
EE9E
  5
EED6
331
EE9F
  5
EED7
331
EEA0
  5
EED8
331
EEA1
  5
EED9
331
EEA2
  5
EEDA
331
EEA3
  5
EEDB
331
EEA4
  5
EEDC
331
EEA5
  5
EEDD
331
EEA6
  5
EEDE
331
EEA7
  5
EEDF
331
EEA8
  5
EEE0
331
EEA9
  5
EEE1
331
EEAA
  5
EEE2
331
EEAB
  5
EEE3
331
EEAC
  5
EEE4
331
EEAD
  5
EEE5
331
EEAE
  5
EEE6
331
EEAF
  5
EEE7
331
EEB0
  5
EEE8
331
EEB1
  5
EEE9
331
EEB2
  5
EEEA
331
EEB3
  5
EEEE
331
EEB4
  5
EEEF
331
EEB5
  5
EEF0
331
EEB6
  5
EEF1
331
EEB7
  5
EEF2
331
EEB8
  5
EEF3
331
EEB9
  5
EEF4
331
EEBA
  5
EEF5
331
EEBB
  5
EEF6
331
EEBC
  5
EEF7
331
EEBD
  5
EEF8
331
EEBE
  5
EEF9
331
EEBF
  5
EEFA
331
EEC0
  5
EEFC
331
EEC1
  5
EEFD
331
0
  5
EEFB
331
EEC3
  5
EFCF
331
EEC4
  5
EFD0
331
EEC5
  5
EFD1
331
EEC6
  5
EFD5
331
EEC7
  5
EFD6
331
EEC8
  5
EFD7
331
EEC9
  5
EFDB
331
EECA
  5
EFDC
331
EECB
  5
EFDD
331
EECC
  5
EFDE
331
EECD
  5
EFDF
331
EECE
  5
EFE0
331
EECF
  5
EFE1
331
EED0
  5
EFE2
331
EED1
  5
EFE3
331
EED2
  5
EFE4
331
EED3
  5
EFE5
331
EED4
  5
EFE6
331
EED5
  5
EFE7
331
EED6
  5
EFE8
331
EED7
  5
EFE9
331
EED8
  5
EFEA
331
EED9
  5
EFEB
331
EEDA
  5
EFEC
331
EEDB
  5
EFED
331
EEDC
  5
EFEE
331
EEDD
  5
EFEF
331
EEDE
  5
EFF0
331
EEDF
  5
EFF1
331
EEE0
  5
EFF2
331
EEE1
  5
EFF3
331
EEE2
  5
EFF4
331
EEE3
  5
EFF5
331
EEE4
  5
EFF6
331
EEE5
  5
EFF7
331
EEE6
  5
EFF8
331
EEE7
  5
EFF9
331
EEE8
  5
EFFA
331
EEE9
  5
EFFB
331
EEEA
  5
EFFC
331
EEEE
  5
F05F
331
EEEF
  5
F060
331
EEF0
  5
F061
331
EEF1
  5
F062
331
EEF2
  5
F063
331
EEF3
  5
F064
331
EEF4
  5
F065
331
EEF5
  5
F066
331
EEF6
  5
F067
331
EEF7
  5
F068
331
EEF8
  5
F069
331
EEF9
  5
F06A
331
EEFA
  5
F06B
331
EEFB
  5
F06C
331
EEFC
  5
F06D
331
EEFD
  5
F06E
331
EEFE
  5
F06F
331
EEFF
  5
F070
331
EF00
  5
F071
331
EF01
  5
F073
331
EF02
  5
F074
331
EF03
  5
F075
331
EF04
  5
F076
331
EF05
  5
F077
331
EF06
  5
F078
331
EF07
  5
F079
331
EFC8
  5
F07A
331
EFC9
  5
F07B
331
EFCA
  5
F07C
331
EFCB
  5
F07D
331
EFCC
  5
F07E
331
EFCD
  5
F07F
331
EFCF
  5
F080
331
EFD0
  5
F081
331
EFD1
  5
F082
331
EFD2
  5
F083
331
EFD3
  5
F084
331
EFD4
  5
F085
331
EFD5
  5
F086
331
EFD6
  5
F087
331
EFD7
  5
F088
331
EFD8
  5
F089
331
EFD9
  5
F08A
331
EFDA
  5
F08B
331
EFDB
  5
F08C
331
EFDC
  5
F090
331
EFDD
  5
F091
331
EFDE
  5
F092
331
EFDF
  5
F093
331
EFE0
  5
F094
331
EFE1
  5
F095
331
EFE2
  5
F096
331
EFE3
  5
F097
331
EFE4
  5
F098
331
EFE5
  5
F099
331
EFE6
  5
F09A
331
EFE7
  5
F09B
331
EFE8
  5
F09C
331
EFE9
  5
F09D
331
EFEA
  5
F09E
331
EFEB
  5
F09F
331
EFEC
  5
F0A0
331
EFED
  5
F0A1
331
EFEE
  5
F0A2
331
EFEF
  5
F0A3
331
EFF0
  5
F0A4
331
EFF1
  5
F0A5
331
EFF2
  5
F0A6
331
EFF3
  5
F0A7
331
EFF4
  5
F0A8
331
EFF5
  5
F0A9
331
EFF6
  5
F0AA
331
EFF7
  5
F0AB
331
EFF8
  5
F0AC
331
EFF9
  5
F0AD
331
EFFA
  5
F0AE
331
EFFB
  5
F0AF
331
EFFC
  5
F0B0
331
EFFD
  5
F0B1
331
EFFE
  5
F0B2
331
EFFF
  5
F0B3
331
F000
  5
F0B4
331
F001
  5
F0B5
331
F002
  5
F0B6
331
F003
  5
F0B7
331
F004
  5
F0B8
331
F005
  5
F0B9
331
F006
  5
F0BA
331
F007
  5
F0BB
331
F008
  5
F0BC
331
F009
  5
F0BD
331
F00A
  5
F0BE
331
F00B
  5
F0BF
331
F00C
  5
F0C0
331
F00D
  5
F0C1
331
F00E
  5
F0C2
331
F00F
  5
F0C3
331
F010
  5
F0C4
331
F011
  5
F0C5
331
F055
  5
F0C6
331
F056
  5
F0C7
331
F057
  5
F0C8
331
F058
  5
F0C9
331
F059
  5
F0CA
331
F05A
  5
F0CB
331
F05B
  5
F0CC
331
F05D
  5
F0D7
331
F05E
  5
F0D8
331
F05F
  5
F0D9
331
F060
  5
F0DA
331
F061
  5
F0DB
331
F062
  5
F0DC
331
F063
  5
F0DD
331
F064
  5
F0DE
331
F065
  5
F0DF
331
F066
  5
F0E0
331
F067
  5
F0E1
331
F068
  5
F0E2
331
F069
  5
F0E3
331
F06A
  5
F0E4
331
F06B
  5
F0E5
331
F06C
  5
F0E6
331
F06D
  5
F0E7
331
F06E
  5
F0E8
331
F06F
  5
F0E9
331
F070
  5
F581
331
F071
  5
F582
331
F073
  5
F583
331
F074
  5
F584
331
F075
  5
F585
331
F076
  5
F586
331
F077
  5
F587
331
F078
  5
F588
331
F079
  5
F589
331
F07A
  5
F58A
331
F07B
  5
F58B
331
F07C
  5
F58C
331
F07D
  5
F58D
331
F07E
  5
F58E
331
F07F
  5
F58F
331
F080
  5
F590
331
F081
  5
FD36
331
F082
  5
FD37
331
F083
  5
FD38
331
F084
  5
FD39
331
F085
  5
FD3A
331
F086
  5
FD3B
331
F087
  5
FD3C
331
F088
  5
FD3D
331
F089
  5
FD3E
331
F08A
  5
FD3F
331
F08B
  5
FD40
331
F08C
  5
FD41
331
F08D
  5
FD42
331
F08E
  5
FD43
331
F08F
  5
FD44
331
F090
  5
FD46
331
F091
  5
FD47
331
F092
  5
FD48
331
F093
  5
FD49
331
F094
  5
FD4A
331
F095
  5
FD4B
331
F096
  5
FD4C
331
F097
  5
FD4D
331
F098
  5
FD4E
331
F099
  5
FD4F
331
F09A
  5
FD50
331
F09B
  5
FD54
331
F09C
  5
FD55
331
F09D
  5
FD5A
331
F09E
  5
FD5B
331
0
  5
FD45
331
F0A0
  5
FD66
331
F0A1
  5
FD67
331
F0A2
  5
FD68
331
F0A3
  5
FD69
331
F0A4
  5
FD6A
331
F0A5
  5
FD6E
331
F0A6
  5
FD6F
331
F0A7
  5
FD70
331
F0A8
  5
FD74
331
F0A9
  5
FD75
331
F0AA
  5
FD76
331
F0AB
  5
FD7A
331
F0AC
  5
FD7B
331
F0AD
  5
FD7C
331
F0AE
  5
FD80
331
F0AF
  5
FD81
331
0
  5
FD56
331
0
  5
FD57
331
0
  5
FD58
331
0
  5
FD59
331
F0B4
  5
FDAA
331
F0B5
  5
FDAB
331
F0B6
  5
FDAC
331
F0B7
  5
FDAD
331
F0B8
  5
FDAE
331
F0B9
  5
FDAF
331
F0BA
  5
FDB0
331
F0BB
  5
FDB1
331
F0BC
  5
FDB2
331
F0BD
  5
FDB3
331
F0BE
  5
FDB4
331
F0BF
  5
FDB5
331
F0C0
  5
FDB6
331
F0C1
  5
FDB7
331
F0C2
  5
FDB8
331
F0C3
  5
FDB9
331
F0C4
  5
FDBA
331
F0C5
  5
FDBB
331
F0C6
  5
FDBC
331
F0C7
  5
FDBD
331
F0C8
  5
FDBE
331
F0C9
  5
FDBF
331
F0CA
  5
FDC0
331
F0CB
  5
FDC1
331
F0CC
  5
FDC2
331
F0CD
  5
FDC3
331
F0CE
  5
FDC4
331
F0CF
  5
FDC5
331
F0D0
  5
FDC6
331
F0D1
  5
FDC7
331
F0D2
  5
FDC8
331
F0D3
  5
FDC9
331
F0D4
  5
FDCA
331
F0D5
  5
FDCB
331
F0D6
  5
FDCC
331
F0D7
  5
FDCD
331
F0D8
  5
FDCE
331
F0D9
  5
FDCF
331
F0DA
  5
FDD0
331
F0DB
  5
FDD1
331
F0DC
  5
FDD2
331
F0DD
  5
FDD3
331
F0DE
  5
FDD4
331
F0DF
  5
FDD5
331
F0E0
  5
FDD6
331
F0E1
  5
FDD7
331
F0E2
  5
FDD8
331
F0E3
  5
FDD9
331
F0E4
  5
FDDA
331
F0E5
  5
FDDB
331
F0E6
  5
FDDC
331
F0E7
  5
FDDD
331
F0E8
  5
FDDE
331
F0E9
  5
FDDF
331
F581
  5
FDE0
331
F582
  5
FDE1
331
F583
  5
FDE2
331
F584
  5
FDE3
331
F585
  5
FDE4
331
F586
  5
FDE5
331
F587
  5
FDE6
331
F588
  5
FDE7
331
F589
  5
FDE8
331
F58A
  5
FDE9
331
F58B
  5
FDEA
331
F58C
  5
FDEB
331
F58D
  5
FDEC
331
F58E
  5
FDED
331
F58F
  5
FDEE
331
F590
  5
FDEF
331
FD36
  5
EDD4
331
FD37
  5
EE7B
331
FD38
  5
EE83
331
FD39
  5
EE87
331
FD3A
  5
EE88
331
0
  5
EE84
331
0
  5
EE85
331
0
  5
EE86
331
FD3E
  5
EE9C
331
FD3F
  5
EE9D
331
FD40
  5
EE9E
331
0
  5
EE8D
331
0
  5
EE8E
331
0
  5
EE8F
331
FD44
  5
EEA6
331
FD45
  5
EEA7
331
FD46
  5
EEA8
331
0
  5
EE93
331
0
  5
EE94
331
0
  5
EE95
331
FD4A
  5
EEB0
331
FD4B
  5
EEB1
331
FD4C
  5
EEB2
331
0
  5
EE99
331
0
  5
EE9A
331
0
  5
EE9B
331
FD50
  5
EFFD
331
FD51
  5
EFFE
331
FD52
  5
EFFF
331
0
  5
EFCB
331
0
  5
EFCC
331
0
  5
EFCD
331
FD56
  5
F007
331
FD57
  5
F008
331
FD58
  5
F009
331
0
  5
EFD2
331
0
  5
EFD3
331
0
  5
EFD4
331
FD5C
  5
F011
331
FD5D
  5
F055
331
FD5E
  5
F056
331
0
  5
EFD8
331
0
  5
EFD9
331
0
  5
EFDA
331
FD62
  5
F0CD
331
FD63
  5
F0CE
331
FD64
  5
F0CF
331
0
  5
F08D
331
0
  5
F08E
331
0
  5
F08F
331
FD68
  5
EE89
331
FD69
  5
EE8A
331
FD6A
  5
EE8B
331
FD6B
  5
EE8C
331
FD6C
  5
EE90
331
FD6D
  5
EE91
331
FD6E
  5
EE92
331
FD6F
  5
EE9F
331
FD70
  5
EEA0
331
FD71
  5
EEA1
331
FD72
  5
EEA2
331
FD73
  5
EEA3
331
FD74
  5
EEA4
331
FD75
  5
EEA5
331
FD76
  5
EEA9
331
FD77
  5
EEAA
331
FD78
  5
EEAB
331
FD79
  5
EEAC
331
FD7A
  5
EEAD
331
FD7B
  5
EEAE
331
FD7C
  5
EEAF
331
FD7D
  5
EEB3
331
FD7E
  5
EEB4
331
FD7F
  5
EEB5
331
FD80
  5
EEB6
331
FD81
  5
EEB7
331
FD82
  5
EEB8
331
FD83
  5
EEB9
331
FD84
  5
F000
331
FD85
  5
F001
331
FD86
  5
F002
331
FD87
  5
F003
331
FD88
  5
F004
331
FD89
  5
F005
331
FD8A
  5
F006
331
FD8B
  5
F00A
331
FD8C
  5
F00B
331
FD8D
  5
F00C
331
FD8E
  5
F00D
331
FD8F
  5
F00E
331
FD90
  5
F00F
331
FD91
  5
F010
331
FD92
  5
F057
331
FD93
  5
F058
331
FD94
  5
F059
331
FD95
  5
F05A
331
FD96
  5
F05B
331
FD97
  5
F05D
331
FD98
  5
F05E
331
FD99
  5
F0D0
331
FD9A
  5
F0D1
331
FD9B
  5
F0D2
331
FD9C
  5
F0D3
331
FD9D
  5
F0D4
331
FD9E
  5
F0D5
331
FD9F
  5
F0D6
331
FDA0
  5
EE7E
331
FDA1
  5
EE82
331
FDA2
  5
EEFE
331
FDA3
  5
EEFF
331
FDA4
  5
EF00
331
0
  5
EF01
331
0
  5
EF02
331
0
  5
EF03
331
FDA8
  5
FD5C
331
FDA9
  5
FD5D
331
FDAA
  5
FD5E
331
0
  5
FD51
331
0
  5
FD52
331
0
  5
FD53
331
FDAE
  5
FD82
331
FDAF
  5
FD83
331
FDB0
  5
FD84
331
0
  5
FD6B
331
0
  5
FD6C
331
0
  5
FD6D
331
FDB4
  5
FD8C
331
FDB5
  5
FD8D
331
FDB6
  5
FD8E
331
0
  5
FD71
331
0
  5
FD72
331
0
  5
FD73
331
FDBA
  5
FD96
331
FDBB
  5
FD97
331
FDBC
  5
FD98
331
0
  5
FD77
331
0
  5
FD78
331
0
  5
FD79
331
FDC0
  5
FDA0
331
FDC1
  5
FDA1
331
FDC2
  5
FDA2
331
0
  5
FD7D
331
0
  5
FD7E
331
0
  5
FD7F
331
FDC6
  5
EF04
331
FDC7
  5
EF05
331
FDC8
  5
EF06
331
FDC9
  5
EF07
331
FDCA
  5
EFC8
331
FDCB
  5
EFC9
331
FDCC
  5
EFCA
331
FDCD
  5
FD5F
331
FDCE
  5
FD60
331
FDCF
  5
FD61
331
FDD0
  5
FD62
331
FDD1
  5
FD63
331
FDD2
  5
FD64
331
FDD3
  5
FD65
331
FDD4
  5
FD85
331
FDD5
  5
FD86
331
FDD6
  5
FD87
331
FDD7
  5
FD88
331
FDD8
  5
FD89
331
FDD9
  5
FD8A
331
FDDA
  5
FD8B
331
FDDB
  5
FD8F
331
FDDC
  5
FD90
331
FDDD
  5
FD91
331
FDDE
  5
FD92
331
FDDF
  5
FD93
331
FDE0
  5
FD94
331
FDE1
  5
FD95
331
FDE2
  5
FD99
331
FDE3
  5
FD9A
331
FDE4
  5
FD9B
331
FDE5
  5
FD9C
331
FDE6
  5
FD9D
331
FDE7
  5
FD9E
331
FDE8
  5
FD9F
331
FDE9
  5
FDA3
331
FDEA
  5
FDA4
331
FDEB
  5
FDA5
331
FDEC
  5
FDA6
331
FDED
  5
FDA7
331
FDEE
  5
FDA8
331
FDEF
  5
FDA9
  0
MATERIAL
  5
9540
102
{ACAD_REACTORS
330
18C
102
}
102
{ACAD_XDICTIONARY
360
FF8E
102
}
330
18C
100
AcDbMaterial
  1
BYBLOCK
 72
     0
 73
     2
 43
0.0208333333333333
 43
0.0
 43
0.0
 43
0.0
 43
0.0
 43
0.0208333333333333
 43
0.0
 43
0.0
 43
0.0
 43
0.0
 43
1.0
 43
0.0
 43
0.0
 43
0.0
 43
0.0
 43
1.0
 77
     0
 78
     2
 47
0.0208333333333333
 47
0.0
 47
0.0
 47
0.0
 47
0.0
 47
0.0208333333333333
 47
0.0
 47
0.0
 47
0.0
 47
0.0
 47
1.0
 47
0.0
 47
0.0
 47
0.0
 47
0.0
 47
1.0
171
     0
172
     2
 49
0.0208333333333333
 49
0.0
 49
0.0
 49
0.0
 49
0.0
 49
0.0208333333333333
 49
0.0
 49
0.0
 49
0.0
 49
0.0
 49
1.0
 49
0.0
 49
0.0
 49
0.0
 49
0.0
 49
1.0
175
     0
176
     2
142
0.0208333333333333
142
0.0
142
0.0
142
0.0
142
0.0
142
0.0208333333333333
142
0.0
142
0.0
142
0.0
142
0.0
142
1.0
142
0.0
142
0.0
142
0.0
142
0.0
142
1.0
179
     0
270
     2
144
0.0208333333333333
144
0.0
144
0.0
144
0.0
144
0.0
144
0.0208333333333333
144
0.0
144
0.0
144
0.0
144
0.0
144
1.0
144
0.0
144
0.0
144
0.0
144
0.0
144
1.0
274
     2
147
0.0208333333333333
147
0.0
147
0.0
147
0.0
147
0.0
147
0.0208333333333333
147
0.0
147
0.0
147
0.0
147
0.0
147
1.0
147
0.0
147
0.0
147
0.0
147
0.0
147
1.0
  0
MATERIAL
  5
9538
102
{ACAD_REACTORS
330
18C
102
}
102
{ACAD_XDICTIONARY
360
FF90
102
}
330
18C
100
AcDbMaterial
  1
BYLAYER
 72
     0
 73
     2
 43
0.0208333333333333
 43
0.0
 43
0.0
 43
0.0
 43
0.0
 43
0.0208333333333333
 43
0.0
 43
0.0
 43
0.0
 43
0.0
 43
1.0
 43
0.0
 43
0.0
 43
0.0
 43
0.0
 43
1.0
 77
     0
 78
     2
 47
0.0208333333333333
 47
0.0
 47
0.0
 47
0.0
 47
0.0
 47
0.0208333333333333
 47
0.0
 47
0.0
 47
0.0
 47
0.0
 47
1.0
 47
0.0
 47
0.0
 47
0.0
 47
0.0
 47
1.0
171
     0
172
     2
 49
0.0208333333333333
 49
0.0
 49
0.0
 49
0.0
 49
0.0
 49
0.0208333333333333
 49
0.0
 49
0.0
 49
0.0
 49
0.0
 49
1.0
 49
0.0
 49
0.0
 49
0.0
 49
0.0
 49
1.0
175
     0
176
     2
142
0.0208333333333333
142
0.0
142
0.0
142
0.0
142
0.0
142
0.0208333333333333
142
0.0
142
0.0
142
0.0
142
0.0
142
1.0
142
0.0
142
0.0
142
0.0
142
0.0
142
1.0
179
     0
270
     2
144
0.0208333333333333
144
0.0
144
0.0
144
0.0
144
0.0
144
0.0208333333333333
144
0.0
144
0.0
144
0.0
144
0.0
144
1.0
144
0.0
144
0.0
144
0.0
144
0.0
144
1.0
274
     2
147
0.0208333333333333
147
0.0
147
0.0
147
0.0
147
0.0
147
0.0208333333333333
147
0.0
147
0.0
147
0.0
147
0.0
147
1.0
147
0.0
147
0.0
147
0.0
147
0.0
147
1.0
  0
MATERIAL
  5
9548
102
{ACAD_REACTORS
330
18C
102
}
102
{ACAD_XDICTIONARY
360
FF92
102
}
330
18C
100
AcDbMaterial
  1
GLOBAL
 72
     0
 73
     2
 43
0.0208333333333333
 43
0.0
 43
0.0
 43
0.0
 43
0.0
 43
0.0208333333333333
 43
0.0
 43
0.0
 43
0.0
 43
0.0
 43
1.0
 43
0.0
 43
0.0
 43
0.0
 43
0.0
 43
1.0
 77
     0
 78
     2
 47
0.0208333333333333
 47
0.0
 47
0.0
 47
0.0
 47
0.0
 47
0.0208333333333333
 47
0.0
 47
0.0
 47
0.0
 47
0.0
 47
1.0
 47
0.0
 47
0.0
 47
0.0
 47
0.0
 47
1.0
171
     0
172
     2
 49
0.0208333333333333
 49
0.0
 49
0.0
 49
0.0
 49
0.0
 49
0.0208333333333333
 49
0.0
 49
0.0
 49
0.0
 49
0.0
 49
1.0
 49
0.0
 49
0.0
 49
0.0
 49
0.0
 49
1.0
175
     0
176
     2
142
0.0208333333333333
142
0.0
142
0.0
142
0.0
142
0.0
142
0.0208333333333333
142
0.0
142
0.0
142
0.0
142
0.0
142
1.0
142
0.0
142
0.0
142
0.0
142
0.0
142
1.0
179
     0
270
     2
144
0.0208333333333333
144
0.0
144
0.0
144
0.0
144
0.0
144
0.0208333333333333
144
0.0
144
0.0
144
0.0
144
0.0
144
1.0
144
0.0
144
0.0
144
0.0
144
0.0
144
1.0
274
     2
147
0.0208333333333333
147
0.0
147
0.0
147
0.0
147
0.0
147
0.0208333333333333
147
0.0
147
0.0
147
0.0
147
0.0
147
1.0
147
0.0
147
0.0
147
0.0
147
0.0
147
1.0
  0
ACAD_PROXY_OBJECT
  5
9584
102
{ACAD_REACTORS
330
9583
102
}
330
9583
100
AcDbZombieObject
 90
      499
 91
      511
 93
      610
310
40901902A4063FBFFFFFE000000000000002040AD7A3703D0AD73F4214DD185B99185C990000000000000104090141901A00000000000004100000000000000041025764000000000000300FC0
340
12
340
0
340
F
340
0
 94
        0
1001
ACAD_MLEADERVER
1070
     2
  0
MLINESTYLE
  5
1C
102
{ACAD_REACTORS
330
1B
102
}
330
1B
100
AcDbMlineStyle
  2
STANDARD
 70
     0
  3

 62
   256
 51
90.0
 52
90.0
 71
     2
 49
0.5
 62
   256
  6
BYLAYER
 49
-0.5
 62
   256
  6
BYLAYER
  0
ACAD_PROXY_OBJECT
  5
9562
102
{ACAD_REACTORS
330
9561
102
}
330
9561
100
AcDbZombieObject
 90
      499
 91
      510
 93
       41
310
903313A31580
  0
ACAD_PROXY_OBJECT
  5
9563
102
{ACAD_REACTORS
330
9561
102
}
330
9561
100
AcDbZombieObject
 90
      499
 91
      510
 93
      105
310
903313A324000000000000004000
  0
ACAD_PROXY_OBJECT
  5
9564
102
{ACAD_REACTORS
330
9561
102
}
330
9561
100
AcDbZombieObject
 90
      499
 91
      510
 93
      105
310
903313A344000000000000104000
  0
ACAD_PROXY_OBJECT
  5
9565
102
{ACAD_REACTORS
330
9561
102
}
330
9561
100
AcDbZombieObject
 90
      499
 91
      510
 93
      105
310
903313A354000000000000144000
  0
ACAD_PROXY_OBJECT
  5
9566
102
{ACAD_REACTORS
330
9561
102
}
330
9561
100
AcDbZombieObject
 90
      499
 91
      510
 93
      105
310
903313A384000000000000204000
  0
ACAD_PROXY_OBJECT
  5
9567
102
{ACAD_REACTORS
330
9561
102
}
330
9561
100
AcDbZombieObject
 90
      499
 91
      510
 93
      113
310
904313A31304000000000000244000
  0
ACAD_PROXY_OBJECT
  5
9568
102
{ACAD_REACTORS
330
9561
102
}
330
9561
100
AcDbZombieObject
 90
      499
 91
      510
 93
      113
310
904313A31364000000000000304000
  0
ACAD_PROXY_OBJECT
  5
9569
102
{ACAD_REACTORS
330
9561
102
}
330
9561
100
AcDbZombieObject
 90
      499
 91
      510
 93
      113
310
904313A32304000000000000344000
  0
ACAD_PROXY_OBJECT
  5
956A
102
{ACAD_REACTORS
330
9561
102
}
330
9561
100
AcDbZombieObject
 90
      499
 91
      510
 93
      113
310
904313A333040000000000003E4000
  0
ACAD_PROXY_OBJECT
  5
956B
102
{ACAD_REACTORS
330
9561
102
}
330
9561
100
AcDbZombieObject
 90
      499
 91
      510
 93
      113
310
904313A34304000000000000444000
  0
ACAD_PROXY_OBJECT
  5
956C
102
{ACAD_REACTORS
330
9561
102
}
330
9561
100
AcDbZombieObject
 90
      499
 91
      510
 93
      113
310
904313A35304000000000000494000
  0
ACAD_PROXY_OBJECT
  5
956D
102
{ACAD_REACTORS
330
9561
102
}
330
9561
100
AcDbZombieObject
 90
      499
 91
      510
 93
      121
310
905313A3130304000000000000594000
  0
ACAD_PROXY_OBJECT
  5
956E
102
{ACAD_REACTORS
330
9561
102
}
330
9561
100
AcDbZombieObject
 90
      499
 91
      510
 93
      105
310
903323A310000000000000010100
  0
ACAD_PROXY_OBJECT
  5
956F
102
{ACAD_REACTORS
330
9561
102
}
330
9561
100
AcDbZombieObject
 90
      499
 91
      510
 93
      105
310
903343A310000000000000410100
  0
ACAD_PROXY_OBJECT
  5
9570
102
{ACAD_REACTORS
330
9561
102
}
330
9561
100
AcDbZombieObject
 90
      499
 91
      510
 93
      105
310
903383A310000000000000810100
  0
ACAD_PROXY_OBJECT
  5
9571
102
{ACAD_REACTORS
330
9561
102
}
330
9561
100
AcDbZombieObject
 90
      499
 91
      510
 93
      113
310
90431303A310000000000000910100
  0
ACAD_PROXY_OBJECT
  5
9572
102
{ACAD_REACTORS
330
9561
102
}
330
9561
100
AcDbZombieObject
 90
      499
 91
      510
 93
      121
310
9053130303A310000000000001650100
  0
ACAD_PROXY_OBJECT
  5
9573
102
{ACAD_REACTORS
330
9561
102
}
330
9561
100
AcDbZombieObject
 90
      499
 91
      510
 93
      257
310
90E312F31323822203D2031272D3022000000000000200FC000000000000284000
  0
ACAD_PROXY_OBJECT
  5
9574
102
{ACAD_REACTORS
330
9561
102
}
330
9561
100
AcDbZombieObject
 90
      499
 91
      510
 93
      249
310
90D312F363422203D2031272D3022000000000000240FC000000000000284000
  0
ACAD_PROXY_OBJECT
  5
9575
102
{ACAD_REACTORS
330
9561
102
}
330
9561
100
AcDbZombieObject
 90
      499
 91
      510
 93
      249
310
90D312F333222203D2031272D3022000000000000280FC000000000000284000
  0
ACAD_PROXY_OBJECT
  5
9576
102
{ACAD_REACTORS
330
9561
102
}
330
9561
100
AcDbZombieObject
 90
      499
 91
      510
 93
      249
310
90D312F313622203D2031272D30220000000000002C0FC000000000000284000
  0
ACAD_PROXY_OBJECT
  5
9577
102
{ACAD_REACTORS
330
9561
102
}
330
9561
100
AcDbZombieObject
 90
      499
 91
      510
 93
      249
310
90D332F333222203D2031272D30220000000000002E0FC000000000000284000
  0
ACAD_PROXY_OBJECT
  5
9578
102
{ACAD_REACTORS
330
9561
102
}
330
9561
100
AcDbZombieObject
 90
      499
 91
      510
 93
      241
310
90C312F3822203D2031272D3022000000000000300FC000000000000284000
  0
ACAD_PROXY_OBJECT
  5
9579
102
{ACAD_REACTORS
330
9561
102
}
330
9561
100
AcDbZombieObject
 90
      499
 91
      510
 93
      249
310
90D332F313622203D2031272D3022000000000000320FC000000000000284000
  0
ACAD_PROXY_OBJECT
  5
957A
102
{ACAD_REACTORS
330
9561
102
}
330
9561
100
AcDbZombieObject
 90
      499
 91
      510
 93
      241
310
90C312F3422203D2031272D3022000000000000340FC000000000000284000
  0
ACAD_PROXY_OBJECT
  5
957B
102
{ACAD_REACTORS
330
9561
102
}
330
9561
100
AcDbZombieObject
 90
      499
 91
      510
 93
      241
310
90C332F3822203D2031272D3022000000000000360FC000000000000284000
  0
ACAD_PROXY_OBJECT
  5
957C
102
{ACAD_REACTORS
330
9561
102
}
330
9561
100
AcDbZombieObject
 90
      499
 91
      510
 93
      241
310
90C312F3222203D2031272D3022000000000000380FC000000000000284000
  0
ACAD_PROXY_OBJECT
  5
957D
102
{ACAD_REACTORS
330
9561
102
}
330
9561
100
AcDbZombieObject
 90
      499
 91
      510
 93
      241
310
90C332F3422203D2031272D30220000000000003A0FC000000000000284000
  0
ACAD_PROXY_OBJECT
  5
957E
102
{ACAD_REACTORS
330
9561
102
}
330
9561
100
AcDbZombieObject
 90
      499
 91
      510
 93
      161
310
90A3122203D2031272D30224000000000000284000
  0
ACAD_PROXY_OBJECT
  5
957F
102
{ACAD_REACTORS
330
9561
102
}
330
9561
100
AcDbZombieObject
 90
      499
 91
      510
 93
      257
310
90E312D312F3222203D2031272D30220000000000003E0FC000000000000284000
  0
ACAD_PROXY_OBJECT
  5
9580
102
{ACAD_REACTORS
330
9561
102
}
330
9561
100
AcDbZombieObject
 90
      499
 91
      510
 93
      225
310
90A3322203D2031272D302200000000000002100000000000000284000
  0
ACAD_PROXY_OBJECT
  5
9581
102
{ACAD_REACTORS
330
9561
102
}
330
9561
100
AcDbZombieObject
 90
      499
 91
      510
 93
      225
310
90A3622203D2031272D302200000000000006100000000000000284000
  0
ACAD_PROXY_OBJECT
  5
9582
102
{ACAD_REACTORS
330
9561
102
}
330
9561
100
AcDbZombieObject
 90
      499
 91
      510
 93
      249
310
90D31272D3022203D2031272D30220000000000000A100000000000000284000
  0
ACAD_PROXY_OBJECT
  5
9556
102
{ACAD_REACTORS
330
9550
102
}
330
9550
100
AcDbZombieObject
 90
      499
 91
      509
 93
      436
310
42CC9915DA5C99599C985B595049028333333333333E3BF0000000000000FB0107901411070040501600405405064090741402480A0340
1001
ACAD
1000
AcDbSavedByObjectVersion
1070
     0
  0
ACAD_PROXY_OBJECT
  5
9558
102
{ACAD_REACTORS
330
9550
102
}
330
9550
100
AcDbZombieObject
 90
      499
 91
      509
 93
      500
310
424CD108121A5919195B90640502408333333333333E3BF0000000000000FB01079024090700405020000000000001110200405405064090740C02480A0340
1001
ACAD
1000
AcDbSavedByObjectVersion
1070
     0
  0
ACAD_PROXY_OBJECT
  5
9557
102
{ACAD_REACTORS
330
9550
102
}
330
9550
100
AcDbZombieObject
 90
      499
 91
      509
 93
      436
310
42CCD915DA5C99599C985B595059028333333333333E3BF0000000000000FB0107901411070040501600405405064090741402480A0340
1001
ACAD
1000
AcDbSavedByObjectVersion
1070
     0
  0
ACAD_PROXY_OBJECT
  5
9555
102
{ACAD_REACTORS
330
9550
102
}
330
9550
100
AcDbZombieObject
 90
      499
 91
      509
 93
      388
310
4150985CDA58D07406404333333333333E3BF0000000000000FB0107A41107004050150841D405064090741402480A0350
1001
ACAD
1000
AcDbSavedByObjectVersion
1070
     0
  0
ACAD_PROXY_OBJECT
  5
955C
102
{ACAD_REACTORS
330
9550
102
}
330
9550
100
AcDbZombieObject
 90
      499
 91
      509
 93
      428
310
42109C9A59DA1D195B90C409028333333333333E3BF0000000000000FB010790141107004050150841D405064090741402480A029950
1001
ACAD
1000
AcDbSavedByObjectVersion
1070
     0
  0
ACAD_PROXY_OBJECT
  5
9560
102
{ACAD_REACTORS
330
9550
102
}
330
9550
100
AcDbZombieObject
 90
      499
 91
      509
 93
      452
310
42D0DBDB1BDC90DA185B99D95104090240C333333333333E3BF0000000000000FB0108901411070040501508421405064090741402480A0350
1001
ACAD
1000
AcDbSavedByObjectVersion
1070
     0
  0
ACAD_PROXY_OBJECT
  5
9559
102
{ACAD_REACTORS
330
9550
102
}
330
9550
100
AcDbZombieObject
 90
      499
 91
      509
 93
      500
310
4290DBDB98D95C1D1D585B10940D028333333333333E3BF0000000000000FB0107902409070040501000000000000111010841D405064090740C02480A0340
1001
ACAD
1000
AcDbSavedByObjectVersion
1070
     0
  0
ACAD_PROXY_OBJECT
  5
955B
102
{ACAD_REACTORS
330
9550
102
}
330
9550
100
AcDbZombieObject
 90
      499
 91
      509
 93
      412
310
40D11A5B50B409028333333333333E3BF0000000000000FB010790141107004050150841D405064090741402480A02677FFFFFD0
1001
ACAD
1000
AcDbSavedByObjectVersion
1070
     0
  0
ACAD_PROXY_OBJECT
  5
A211
102
{ACAD_REACTORS
330
9550
102
}
330
9550
100
AcDbZombieObject
 90
      499
 91
      509
 93
      452
310
43115919D950DBDB1BDC93D999916409028333333333333E3BF0000000000000FB010790141107004050150841D405064090741402480A0350
1001
ACAD
1000
AcDbSavedByObjectVersion
1070
     0
  0
ACAD_PROXY_OBJECT
  5
955F
102
{ACAD_REACTORS
330
9550
102
}
330
9550
100
AcDbZombieObject
 90
      499
 91
      509
 93
      444
310
42D19858D95C185D1D195C9B90F409028333333333333E3BF0000000000000FB010790141107004050150841D405064090741402480A0350
1001
ACAD
1000
AcDbSavedByObjectVersion
1070
     0
  0
ACAD_PROXY_OBJECT
  5
9551
102
{ACAD_REACTORS
330
9550
102
}
330
9550
100
AcDbZombieObject
 90
      499
 91
      509
 93
      388
310
41119B185D240901404333333333333E3BF0000000000000F9010740A41107004050150841D405064090741402480A1B50
1001
ACAD
1000
AcDbSavedByObjectVersion
1070
     0
  0
ACAD_PROXY_OBJECT
  5
9552
102
{ACAD_REACTORS
330
9550
102
}
330
9550
100
AcDbZombieObject
 90
      499
 91
      509
 93
      476
310
43519B185D15DA5D1A115919D95CD0140901404333333333333E3BF0000000000000F9010740901411070040501600405405064090741402480A1B50
1001
ACAD
1000
AcDbSavedByObjectVersion
1070
     0
  0
ACAD_PROXY_OBJECT
  5
9553
102
{ACAD_REACTORS
330
9550
102
}
330
9550
100
AcDbZombieObject
 90
      499
 91
      509
 93
      412
310
41D1DBDD5C985D5910240902404333333333333E3BF0000000000000F9010740A411070040501641D405064090741402480A1B50
1001
ACAD
1000
AcDbSavedByObjectVersion
1070
     0
  0
ACAD_PROXY_OBJECT
  5
9554
102
{ACAD_REACTORS
330
9550
102
}
330
9550
100
AcDbZombieObject
 90
      499
 91
      509
 93
      500
310
4411DBDD5C985D5915DA5D1A115919D95CD0340902404333333333333E3BF0000000000000F9010740901411070040501600405405064090741402480A1B50
1001
ACAD
1000
AcDbSavedByObjectVersion
1070
     0
  0
ACAD_PROXY_OBJECT
  5
A260
102
{ACAD_REACTORS
330
9550
102
}
330
9550
100
AcDbZombieObject
 90
      499
 91
      509
 93
      476
310
41921A5919195B90640502408333333333333E3BF0000000000000FB01079024090700405020000000000001110200405405064090740C02480A0340
1001
ACAD
1000
AcDbSavedByObjectVersion
1070
     0
  0
ACAD_PROXY_OBJECT
  5
A20F
102
{ACAD_REACTORS
330
9550
102
}
330
9550
100
AcDbZombieObject
 90
      499
 91
      509
 93
      428
310
42529A5D1D195C93D999914409028333333333333E3BF0000000000000FB010790141107004050150A41D405064090741402480A0350
1001
ACAD
1000
AcDbSavedByObjectVersion
1070
     0
  0
ACAD_PROXY_OBJECT
  5
955E
102
{ACAD_REACTORS
330
9550
102
}
330
9550
100
AcDbZombieObject
 90
      499
 91
      509
 93
      444
310
42D31A5B995C185D1D195C9B90E409028333333333333E3BF0000000000000FB010790141107004050750841D405064090741402483A0350
1001
ACAD
1000
AcDbSavedByObjectVersion
1070
     0
  0
ACAD_PROXY_OBJECT
  5
A266
102
{ACAD_REACTORS
330
9550
102
}
330
9550
100
AcDbZombieObject
 90
      499
 91
      509
 93
      484
310
42135BD9195B1A5B99D0A409028333333333333E3BF0000000000000F901074090290700405010000000000201990108421405064090741402480A1B40
1001
ACAD
1000
AcDbSavedByObjectVersion
1070
     0
  0
ACAD_PROXY_OBJECT
  5
A210
102
{ACAD_REACTORS
330
9550
102
}
330
9550
100
AcDbZombieObject
 90
      499
 91
      509
 93
      444
310
42D3DD995C9A185B99D3D999915409028333333333333E3BF0000000000000FB010790141107004050150941D405064090741402480A0350
1001
ACAD
1000
AcDbSavedByObjectVersion
1070
     0
  0
ACAD_PROXY_OBJECT
  5
955A
102
{ACAD_REACTORS
330
9550
102
}
330
9550
100
AcDbZombieObject
 90
      499
 91
      509
 93
      420
310
425499585B1A5CDD1A58D08409028333333333333E3BF0000000000000FB01079019070040501508421405064090741402480A1B40
1001
ACAD
1000
AcDbSavedByObjectVersion
1070
     0
  0
ACAD_PROXY_OBJECT
  5
A265
102
{ACAD_REACTORS
330
9550
102
}
330
9550
100
AcDbZombieObject
 90
      499
 91
      509
 93
      420
310
4194DA1859195911B40902404333333333333E3BF0000000000000F9010740A41107004050150800405405064090840C02480A0B40
1001
ACAD
1000
AcDbSavedByObjectVersion
1070
     0
  0
ACAD_PROXY_OBJECT
  5
A264
102
{ACAD_REACTORS
330
9550
102
}
330
9550
100
AcDbZombieObject
 90
      499
 91
      509
 93
      516
310
4454DA18591959081DDA5D1A08195919D95CD1A40902404333333333333E3BF0000000000000F901074090142907004050250800405405064090740C02480A0B40
1001
ACAD
1000
AcDbSavedByObjectVersion
1070
     0
  0
ACAD_PROXY_OBJECT
  5
A261
102
{ACAD_REACTORS
330
9550
102
}
330
9550
100
AcDbZombieObject
 90
      499
 91
      509
 93
      532
310
4394DA1859195CC81BD98811DC985E5174090240C333333333333E3BF0000000000000FB01079024090741D01000000000000111010841D405064090740C02480A0340
1001
ACAD
1000
AcDbSavedByObjectVersion
1070
     0
  0
ACAD_PROXY_OBJECT
  5
A262
102
{ACAD_REACTORS
330
9550
102
}
330
9550
100
AcDbZombieObject
 90
      499
 91
      509
 93
      476
310
41D4DAD95D18DA1E51840502408333333333333E3BF0000000000000FB01079024090741D01000000000000111010B41D405064090741802480A0340
1001
ACAD
1000
AcDbSavedByObjectVersion
1070
     0
  0
ACAD_PROXY_OBJECT
  5
955D
102
{ACAD_REACTORS
330
9550
102
}
330
9550
100
AcDbZombieObject
 90
      499
 91
      509
 93
      412
310
41D51A1A58DAD95B90D409028333333333333E3BF0000000000000FB010790141107004050150C41D405064090741402480A0350
1001
ACAD
1000
AcDbSavedByObjectVersion
1070
     0
  0
ACAD_PROXY_OBJECT
  5
A25F
102
{ACAD_REACTORS
330
9550
102
}
330
9550
100
AcDbZombieObject
 90
      499
 91
      509
 93
      420
310
4255DA5C99599C985B595059028333333333333E3BF0000000000000FB0107901411070040501600405405064090740C02480A0340
1001
ACAD
1000
AcDbSavedByObjectVersion
1070
     0
  0
ACAD_PROXY_OBJECT
  5
A263
102
{ACAD_REACTORS
330
9550
102
}
330
9550
100
AcDbZombieObject
 90
      499
 91
      509
 93
      404
310
41560B54985E51940902404000000000000E03F0000000000000FB010740501907004050150841D405064090740C02480A1B40
1001
ACAD
1000
AcDbSavedByObjectVersion
1070
     0
  0
XRECORD
  5
FDF1
102
{ACAD_REACTORS
330
FDF0
102
}
330
FDF0
100
AcDbXrecord
340
18D
  0
XRECORD
  5
FDF2
102
{ACAD_REACTORS
330
FDF0
102
}
330
FDF0
100
AcDbXrecord
340
18C
  0
DICTIONARYVAR
  5
AAE0
102
{ACAD_REACTORS
330
37
102
}
330
37
100
DictionaryVariables
280
     0
  1
1:1
  0
DICTIONARYVAR
  5
9627
102
{ACAD_REACTORS
330
37
102
}
330
37
100
DictionaryVariables
280
     0
  1
Standard
  0
DICTIONARYVAR
  5
29E
102
{ACAD_REACTORS
330
37
102
}
330
37
100
DictionaryVariables
280
     0
  1
Standard
  0
DICTIONARYVAR
  5
38
102
{ACAD_REACTORS
330
37
102
}
330
37
100
DictionaryVariables
280
     0
  1
-1
  0
DICTIONARYVAR
  5
1CE
102
{ACAD_REACTORS
330
37
102
}
330
37
100
DictionaryVariables
280
     0
  1
2
  0
DICTIONARYVAR
  5
704E
102
{ACAD_REACTORS
330
37
102
}
330
37
100
DictionaryVariables
280
     0
  1
1
  0
DICTIONARYVAR
  5
962A
102
{ACAD_REACTORS
330
37
102
}
330
37
100
DictionaryVariables
280
     0
  1
0
  0
DICTIONARYVAR
  5
7052
102
{ACAD_REACTORS
330
37
102
}
330
37
100
DictionaryVariables
280
     0
  1
8
  0
DICTIONARYVAR
  5
7051
102
{ACAD_REACTORS
330
37
102
}
330
37
100
DictionaryVariables
280
     0
  1
1
  0
DICTIONARYVAR
  5
AB30
102
{ACAD_REACTORS
330
37
102
}
330
37
100
DictionaryVariables
280
     0
  1
0
  0
DICTIONARYVAR
  5
704F
102
{ACAD_REACTORS
330
37
102
}
330
37
100
DictionaryVariables
280
     0
  1
8
  0
DICTIONARYVAR
  5
7050
102
{ACAD_REACTORS
330
37
102
}
330
37
100
DictionaryVariables
280
     0
  1
2
  0
DICTIONARYVAR
  5
1CF
102
{ACAD_REACTORS
330
37
102
}
330
37
100
DictionaryVariables
280
     0
  1

  0
DICTIONARYVAR
  5
9629
102
{ACAD_REACTORS
330
37
102
}
330
37
100
DictionaryVariables
280
     0
  1
127
  0
DICTIONARYVAR
  5
FC9A
102
{ACAD_REACTORS
330
37
102
}
330
37
100
DictionaryVariables
280
     0
  1
2
  0
DICTIONARY
  5
FF8E
330
9540
100
AcDbDictionary
  3
ACAD_XREC_ROUNDTRIP
360
FF8F
1001
ACAD
1000
TREAT_AS_HARD
1070
     1
  0
DICTIONARY
  5
FF90
330
9538
100
AcDbDictionary
  3
ACAD_XREC_ROUNDTRIP
360
FF91
1001
ACAD
1000
TREAT_AS_HARD
1070
     1
  0
DICTIONARY
  5
FF92
330
9548
100
AcDbDictionary
  3
ACAD_XREC_ROUNDTRIP
360
FF93
1001
ACAD
1000
TREAT_AS_HARD
1070
     1
  0
XRECORD
  5
FF8F
102
{ACAD_REACTORS
330
FF8E
102
}
330
FF8E
100
AcDbXrecord
102
MATERIAL
148
0.0
149
0.0
149
0.0
 93
        0
 94
      127
282
     0
 72
     0
 77
     0
171
     0
175
     0
179
     0
273
     0
  0
XRECORD
  5
FF91
102
{ACAD_REACTORS
330
FF90
102
}
330
FF90
100
AcDbXrecord
102
MATERIAL
148
0.0
149
0.0
149
0.0
 93
        0
 94
      127
282
     0
 72
     0
 77
     0
171
     0
175
     0
179
     0
273
     0
  0
XRECORD
  5
FF93
102
{ACAD_REACTORS
330
FF92
102
}
330
FF92
100
AcDbXrecord
102
MATERIAL
148
0.0
149
0.0
149
0.0
 93
        0
 94
      127
282
     0
 72
     0
 77
     0
171
     0
175
     0
179
     0
273
     0
  0
ENDSEC
  0
EOF
