  0
SECTION
  2
HEADER
  9
$ACADVER
  1
AC1012
  9
$DWGCODEPAGE
  3
ansi_932
  9
$INSBASE
 10
0.0
 20
0.0
 30
0.0
  9
$EXTMIN
 10
1919.960331365012
 20
-714.9592454154185
 30
0.0
  9
$EXTMAX
 10
2562.64307452119
 20
-292.9579258675758
 30
0.0000000000001137
  9
$LIMMIN
 10
0.0
 20
0.0
  9
$LIMMAX
 10
420.0
 20
297.0
  9
$ORTHOMODE
 70
     0
  9
$REGENMODE
 70
     1
  9
$FILLMODE
 70
     1
  9
$QTEXTMODE
 70
     0
  9
$MIRRTEXT
 70
     0
  9
$DRAGMODE
 70
     2
  9
$LTSCALE
 40
0.5
  9
$OSMODE
 70
 14463
  9
$ATTMODE
 70
     1
  9
$TEXTSIZE
 40
4.0
  9
$TRACEWID
 40
1.0
  9
$TEXTSTYLE
  7
STANDARD
  9
$CLAYER
  8
1TEXT
  9
$CELTYPE
  6
BYLAYER
  9
$CECOLOR
 62
   256
  9
$CELTSCALE
 40
1.0
  9
$DELOBJ
 70
     1
  9
$DISPSILH
 70
     0
  9
$DIMSCALE
 40
1.0
  9
$DIMASZ
 40
2.0
  9
$DIMEXO
 40
0.0
  9
$DIMDLI
 40
7.0
  9
$DIMRND
 40
0.0
  9
$DIMDLE
 40
0.0
  9
$DIMEXE
 40
1.0
  9
$DIMTP
 40
0.0
  9
$DIMTM
 40
0.0
  9
$DIMTXT
 40
3.5
  9
$DIMCEN
 40
0.0
  9
$DIMTSZ
 40
0.0
  9
$DIMTOL
 70
     0
  9
$DIMLIM
 70
     0
  9
$DIMTIH
 70
     0
  9
$DIMTOH
 70
     0
  9
$DIMSE1
 70
     0
  9
$DIMSE2
 70
     0
  9
$DIMTAD
 70
     1
  9
$DIMZIN
 70
     8
  9
$DIMBLK
  1

  9
$DIMASO
 70
     1
  9
$DIMSHO
 70
     1
  9
$DIMPOST
  1
 
  9
$DIMAPOST
  1

  9
$DIMALT
 70
     0
  9
$DIMALTD
 70
     2
  9
$DIMALTF
 40
25.4
  9
$DIMLFAC
 40
1.0
  9
$DIMTOFL
 70
     1
  9
$DIMTVP
 40
0.0
  9
$DIMTIX
 70
     0
  9
$DIMSOXD
 70
     0
  9
$DIMSAH
 70
     1
  9
$DIMBLK1
  1
OPEN30
  9
$DIMBLK2
  1
OPEN30
  9
$DIMSTYLE
  2
NEWX10
  9
$DIMCLRD
 70
   256
  9
$DIMCLRE
 70
   256
  9
$DIMCLRT
 70
   201
  9
$DIMTFAC
 40
0.7
  9
$DIMGAP
 40
0.7
  9
$DIMJUST
 70
     0
  9
$DIMSD1
 70
     0
  9
$DIMSD2
 70
     0
  9
$DIMTOLJ
 70
     1
  9
$DIMTZIN
 70
     8
  9
$DIMALTZ
 70
     0
  9
$DIMALTTZ
 70
     0
  9
$DIMFIT
 70
     2
  9
$DIMUPT
 70
     0
  9
$DIMUNIT
 70
     2
  9
$DIMDEC
 70
     2
  9
$DIMTDEC
 70
     4
  9
$DIMALTU
 70
     2
  9
$DIMALTTD
 70
     2
  9
$DIMTXSTY
  7
STANDARD
  9
$DIMAUNIT
 70
     0
  9
$LUNITS
 70
     2
  9
$LUPREC
 70
     4
  9
$SKETCHINC
 40
1.0
  9
$FILLETRAD
 40
0.0
  9
$AUNITS
 70
     0
  9
$AUPREC
 70
     2
  9
$MENU
  1
acad
  9
$ELEVATION
 40
0.0
  9
$PELEVATION
 40
0.0
  9
$THICKNESS
 40
0.0
  9
$LIMCHECK
 70
     0
  9
$CHAMFERA
 40
10.0
  9
$CHAMFERB
 40
10.0
  9
$CHAMFERC
 40
20.0
  9
$CHAMFERD
 40
0.0
  9
$SKPOLY
 70
     0
  9
$TDCREATE
 40
2451318.621352917
  9
$TDUPDATE
 40
2458159.60284706
  9
$TDINDWG
 40
1.6429061343
  9
$TDUSRTIMER
 40
1.6429061343
  9
$USRTIMER
 70
     1
  9
$ANGBASE
 50
0.0
  9
$ANGDIR
 70
     0
  9
$PDMODE
 70
     0
  9
$PDSIZE
 40
0.0
  9
$PLINEWID
 40
0.0
  9
$COORDS
 70
     2
  9
$SPLFRAME
 70
     0
  9
$SPLINETYPE
 70
     6
  9
$SPLINESEGS
 70
     8
  9
$ATTDIA
 70
     0
  9
$ATTREQ
 70
     1
  9
$HANDLING
 70
     1
  9
$HANDSEED
  5
1B3A2
  9
$SURFTAB1
 70
     6
  9
$SURFTAB2
 70
     6
  9
$SURFTYPE
 70
     6
  9
$SURFU
 70
     6
  9
$SURFV
 70
     6
  9
$UCSNAME
  2

  9
$UCSORG
 10
0.0
 20
0.0
 30
0.0
  9
$UCSXDIR
 10
1.0
 20
0.0
 30
0.0
  9
$UCSYDIR
 10
0.0
 20
1.0
 30
0.0
  9
$PUCSNAME
  2

  9
$PUCSORG
 10
0.0
 20
0.0
 30
0.0
  9
$PUCSXDIR
 10
1.0
 20
0.0
 30
0.0
  9
$PUCSYDIR
 10
0.0
 20
1.0
 30
0.0
  9
$USERI1
 70
     0
  9
$USERI2
 70
     0
  9
$USERI3
 70
     0
  9
$USERI4
 70
     0
  9
$USERI5
 70
     0
  9
$USERR1
 40
0.0
  9
$USERR2
 40
0.0
  9
$USERR3
 40
0.0
  9
$USERR4
 40
0.0
  9
$USERR5
 40
0.0
  9
$WORLDVIEW
 70
     1
  9
$SHADEDGE
 70
     3
  9
$SHADEDIF
 70
    70
  9
$TILEMODE
 70
     1
  9
$MAXACTVP
 70
    48
  9
$PINSBASE
 10
0.0
 20
0.0
 30
0.0
  9
$PLIMCHECK
 70
     0
  9
$PEXTMIN
 10
1.000000000000000E+20
 20
1.000000000000000E+20
 30
1.000000000000000E+20
  9
$PEXTMAX
 10
-1.000000000000000E+20
 20
-1.000000000000000E+20
 30
-1.000000000000000E+20
  9
$PLIMMIN
 10
0.0
 20
0.0
  9
$PLIMMAX
 10
420.0
 20
297.0
  9
$UNITMODE
 70
     0
  9
$VISRETAIN
 70
     1
  9
$PLINEGEN
 70
     0
  9
$PSLTSCALE
 70
     1
  9
$TREEDEPTH
 70
  3020
  9
$PICKSTYLE
 70
     1
  9
$CMLSTYLE
  2
STANDARD
  9
$CMLJUST
 70
     0
  9
$CMLSCALE
 40
20.0
  9
$SAVEIMAGES
 70
     1
  0
ENDSEC
  0
SECTION
  2
CLASSES
  0
CLASS
  1
DICTIONARYVAR
  2
AcDbDictionaryVar
  3
ObjectDBX Classes
 90
        0
280
     0
281
     0
  0
CLASS
  1
IDBUFFER
  2
AcDbIdBuffer
  3
ObjectDBX Classes
 90
    32768
280
     0
281
     0
  0
CLASS
  1
LWPOLYLINE
  2
AcDbPolyline
  3
ObjectDBX Classes
 90
    32768
280
     0
281
     1
  0
CLASS
  1
ACDBDICTIONARYWDFLT
  2
AcDbDictionaryWithDefault
  3
ObjectDBX Classes
 90
    32768
280
     0
281
     0
  0
CLASS
  1
ACDBPLACEHOLDER
  2
AcDbPlaceHolder
  3
ObjectDBX Classes
 90
        0
280
     0
281
     0
  0
CLASS
  1
LAYOUT
  2
AcDbLayout
  3
ObjectDBX Classes
 90
        0
280
     0
281
     0
  0
CLASS
  1
TABLESTYLE
  2
AcDbTableStyle
  3
ObjectDBX Classes
 90
     4095
280
     0
281
     0
  0
CLASS
  1
SORTENTSTABLE
  2
AcDbSortentsTable
  3
ObjectDBX Classes
 90
    32768
280
     0
281
     0
  0
CLASS
  1
MATERIAL
  2
AcDbMaterial
  3
ObjectDBX Classes
 90
     1153
280
     0
281
     0
  0
CLASS
  1
VISUALSTYLE
  2
AcDbVisualStyle
  3
ObjectDBX Classes
 90
     4095
280
     0
281
     0
  0
CLASS
  1
SCALE
  2
AcDbScale
  3
ObjectDBX Classes
 90
     1153
280
     0
281
     0
  0
CLASS
  1
MLEADERSTYLE
  2
AcDbMLeaderStyle
  3
ACDB_MLEADERSTYLE_CLASS
 90
     4095
280
     0
281
     0
  0
CLASS
  1
CELLSTYLEMAP
  2
AcDbCellStyleMap
  3
ObjectDBX Classes
 90
     1152
280
     0
281
     0
  0
CLASS
  1
SUN
  2
AcDbSun
  3
SCENEOE
 90
     1153
280
     0
281
     0
  0
CLASS
  1
DIMASSOC
  2
AcDbDimAssoc
  3
"AcDbDimAssoc|Product Desc:     AcDim ARX App For Dimension|Company:          Autodesk, Inc.|WEB Address:      www.autodesk.com"
 90
        0
280
     0
281
     0
  0
CLASS
  1
XRECORD
  2
AcDbXrecord
  3
ObjectDBX Classes
 90
    32768
280
     0
281
     0
  0
CLASS
  1
HATCH
  2
AcDbHatch
  3
ObjectDBX Classes
 90
    32768
280
     0
281
     1
  0
ENDSEC
  0
SECTION
  2
TABLES
  0
TABLE
  2
VPORT
  5
8
330
0
100
AcDbSymbolTable
 70
     1
  0
VPORT
  5
D991
330
8
100
AcDbSymbolTableRecord
100
AcDbViewportTableRecord
  2
*ACTIVE
 70
     0
 10
0.0
 20
0.0
 11
1.0
 21
1.0
 12
2241.301702943101
 22
-503.9585856414972
 13
0.0
 23
0.0
 14
10.0
 24
10.0
 15
10.0
 25
10.0
 16
0.0
 26
0.0
 36
1.0
 17
0.0
 27
0.0
 37
0.0
 40
453.096153619789
 41
1.871481028151775
 42
50.0
 43
0.0
 44
0.0
 50
0.0
 51
0.0
 71
    16
 72
   100
 73
     1
 74
     1
 75
     0
 76
     0
 77
     0
 78
     0
  0
ENDTAB
  0
TABLE
  2
LTYPE
  5
5
330
0
100
AcDbSymbolTable
 70
     3
  0
LTYPE
  5
12
330
5
100
AcDbSymbolTableRecord
100
AcDbLinetypeTableRecord
  2
BYBLOCK
 70
     0
  3

 72
    65
 73
     0
 40
0.0
  0
LTYPE
  5
13
330
5
100
AcDbSymbolTableRecord
100
AcDbLinetypeTableRecord
  2
BYLAYER
 70
     0
  3

 72
    65
 73
     0
 40
0.0
  0
LTYPE
  5
14
330
5
100
AcDbSymbolTableRecord
100
AcDbLinetypeTableRecord
  2
CONTINUOUS
 70
     0
  3
Solid line
 72
    65
 73
     0
 40
0.0
  0
LTYPE
  5
2C03
330
5
100
AcDbSymbolTableRecord
100
AcDbLinetypeTableRecord
  2
HIDDEN
 70
     0
  3
Hidden __ __ __ __ __ __ __ __ __ __ __ __ __ _
 72
    65
 73
     2
 40
9.524999999999999
 49
6.35
 74
     0
 49
-3.175
 74
     0
  0
LTYPE
  5
13839
330
5
100
AcDbSymbolTableRecord
100
AcDbLinetypeTableRecord
  2
CENTER2
 70
     0
  3
Center (.5x) ___ _ ___ _ ___ _ ___ _ ___ _ ___
 72
    65
 73
     4
 40
28.575
 49
19.05
 74
     0
 49
-3.175
 74
     0
 49
3.175
 74
     0
 49
-3.175
 74
     0
  0
ENDTAB
  0
TABLE
  2
LAYER
  5
2
102
{ACAD_XDICTIONARY
360
E6A6
102
}
330
0
100
AcDbSymbolTable
 70
     6
  0
LAYER
  5
E
102
{ACAD_XDICTIONARY
360
DA05
102
}
330
2
100
AcDbSymbolTableRecord
100
AcDbLayerTableRecord
  2
0
 70
     0
 62
     7
  6
CONTINUOUS
  0
LAYER
  5
29
102
{ACAD_XDICTIONARY
360
DA07
102
}
330
2
100
AcDbSymbolTableRecord
100
AcDbLayerTableRecord
  2
1CENTER
 70
     0
 62
     7
  6
CENTER2
  0
LAYER
  5
31
102
{ACAD_XDICTIONARY
360
DA09
102
}
330
2
100
AcDbSymbolTableRecord
100
AcDbLayerTableRecord
  2
1TEXT
 70
     0
 62
     7
  6
CONTINUOUS
  0
LAYER
  5
243
102
{ACAD_XDICTIONARY
360
DA0F
102
}
330
2
100
AcDbSymbolTableRecord
100
AcDbLayerTableRecord
  2
01
 70
     0
 62
     1
  6
CONTINUOUS
  0
LAYER
  5
24E
102
{ACAD_XDICTIONARY
360
DA15
102
}
330
2
100
AcDbSymbolTableRecord
100
AcDbLayerTableRecord
  2
1DIM
 70
     0
 62
     7
  6
CONTINUOUS
  0
LAYER
  5
2C05
102
{ACAD_XDICTIONARY
360
DA23
102
}
330
2
100
AcDbSymbolTableRecord
100
AcDbLayerTableRecord
  2
1HIDDEN
 70
     0
 62
     7
  6
HIDDEN
  0
ENDTAB
  0
TABLE
  2
STYLE
  5
3
330
0
100
AcDbSymbolTable
 70
     1
  0
STYLE
  5
F
330
3
100
AcDbSymbolTableRecord
100
AcDbTextStyleTableRecord
  2
STANDARD
 70
     0
 40
0.0
 41
1.0
 50
0.0
 71
     0
 42
4.0
  3
txt.shx
  4
extfont.shx
  0
ENDTAB
  0
TABLE
  2
VIEW
  5
6
330
0
100
AcDbSymbolTable
 70
     0
  0
ENDTAB
  0
TABLE
  2
UCS
  5
7
330
0
100
AcDbSymbolTable
 70
     0
  0
ENDTAB
  0
TABLE
  2
APPID
  5
9
330
0
100
AcDbSymbolTable
 70
    15
  0
APPID
  5
10
330
9
100
AcDbSymbolTableRecord
100
AcDbRegAppTableRecord
  2
ACAD
 70
     0
  0
APPID
  5
21
330
9
100
AcDbSymbolTableRecord
100
AcDbRegAppTableRecord
  2
DRAWINGVARIABLESXDATA
 70
     0
  0
APPID
  5
64
330
9
100
AcDbSymbolTableRecord
100
AcDbRegAppTableRecord
  2
CONTENTTABDATA
 70
     0
  0
APPID
  5
65
330
9
100
AcDbSymbolTableRecord
100
AcDbRegAppTableRecord
  2
CONTENTCURRENTTAB
 70
     0
  0
APPID
  5
66
330
9
100
AcDbSymbolTableRecord
100
AcDbRegAppTableRecord
  2
CONTENTBLOCKDESCRIPTION
 70
     0
  0
APPID
  5
67
330
9
100
AcDbSymbolTableRecord
100
AcDbRegAppTableRecord
  2
CONTENTBLOCKICON
 70
     0
  0
APPID
  5
68
330
9
100
AcDbSymbolTableRecord
100
AcDbRegAppTableRecord
  2
CONTENTLONGBLOCKNAME
 70
     0
  0
APPID
  5
2AE
330
9
100
AcDbSymbolTableRecord
100
AcDbRegAppTableRecord
  2
ACAD_PSEXT
 70
     0
  0
APPID
  5
D9E9
330
9
100
AcDbSymbolTableRecord
100
AcDbRegAppTableRecord
  2
ACAD_MLEADERVER
 70
     0
  0
APPID
  5
19CF0
330
9
100
AcDbSymbolTableRecord
100
AcDbRegAppTableRecord
  2
ACADANNOTATIVE
 70
     0
  0
APPID
  5
19CF1
330
9
100
AcDbSymbolTableRecord
100
AcDbRegAppTableRecord
  2
ACDBBLOCKREPETAG
 70
     0
  0
APPID
  5
19CF2
330
9
100
AcDbSymbolTableRecord
100
AcDbRegAppTableRecord
  2
ACLAYERTOOLS
 70
     0
  0
APPID
  5
19CF3
330
9
100
AcDbSymbolTableRecord
100
AcDbRegAppTableRecord
  2
ACAD_NAV_VCDISPLAY
 70
     0
  0
APPID
  5
1A86C
330
9
100
AcDbSymbolTableRecord
100
AcDbRegAppTableRecord
  2
ACAD_OBJECT_CHANGE_GUID
 70
     0
  0
APPID
  5
1AA0C
330
9
100
AcDbSymbolTableRecord
100
AcDbRegAppTableRecord
  2
ACAECLAYERSTANDARD
 70
     0
  0
ENDTAB
  0
TABLE
  2
DIMSTYLE
  5
A
330
0
100
AcDbSymbolTable
 70
     1
  0
DIMSTYLE
105
48
330
A
100
AcDbSymbolTableRecord
100
AcDbDimStyleTableRecord
  2
NEWX10
 70
     0
  3
 
  4

  5

  6
OPEN30
  7
OPEN30
 40
1.0
 41
2.0
 42
0.0
 43
7.0
 44
1.0
 45
0.0
 46
0.0
 47
0.0
 48
0.0
140
3.5
141
0.0
142
0.0
143
25.4
144
1.0
145
0.0
146
0.7
147
0.7
 71
     0
 72
     0
 73
     0
 74
     0
 75
     0
 76
     0
 77
     1
 78
     8
170
     0
171
     2
172
     1
173
     1
174
     0
175
     0
176
   256
177
   256
178
   201
179
     2
270
     2
271
     2
272
     4
273
     2
274
     2
340
F
275
     0
280
     0
281
     0
282
     0
283
     1
284
     8
285
     0
286
     0
287
     2
288
     0
  0
ENDTAB
  0
TABLE
  2
BLOCK_RECORD
  5
1
330
0
100
AcDbSymbolTable
 70
     8
  0
BLOCK_RECORD
  5
18
102
{ACAD_XDICTIONARY
360
88F
102
}
330
1
100
AcDbSymbolTableRecord
100
AcDbBlockTableRecord
  2
*MODEL_SPACE
  0
BLOCK_RECORD
  5
15
330
1
100
AcDbSymbolTableRecord
100
AcDbBlockTableRecord
  2
*PAPER_SPACE
  0
BLOCK_RECORD
  5
42
330
1
100
AcDbSymbolTableRecord
100
AcDbBlockTableRecord
  2
_OPEN30
  0
BLOCK_RECORD
  5
19D42
330
1
100
AcDbSymbolTableRecord
100
AcDbBlockTableRecord
  2
A3WAKUKAWAJUN2017_HYOUDAI_
  0
BLOCK_RECORD
  5
1B202
330
1
100
AcDbSymbolTableRecord
100
AcDbBlockTableRecord
  2
*X146
  0
BLOCK_RECORD
  5
1B250
330
1
100
AcDbSymbolTableRecord
100
AcDbBlockTableRecord
  2
*X147
  0
BLOCK_RECORD
  5
1B2A2
330
1
100
AcDbSymbolTableRecord
100
AcDbBlockTableRecord
  2
*X148
  0
BLOCK_RECORD
  5
1B2F3
330
1
100
AcDbSymbolTableRecord
100
AcDbBlockTableRecord
  2
*X149
  0
BLOCK_RECORD
  5
1B330
330
1
100
AcDbSymbolTableRecord
100
AcDbBlockTableRecord
  2
*X150
  0
BLOCK_RECORD
  5
1B370
330
1
100
AcDbSymbolTableRecord
100
AcDbBlockTableRecord
  2
*X151
  0
ENDTAB
  0
ENDSEC
  0
SECTION
  2
BLOCKS
  0
BLOCK
  5
19
330
18
100
AcDbEntity
  8
0
100
AcDbBlockBegin
  2
*MODEL_SPACE
 70
     0
 10
0.0
 20
0.0
 30
0.0
  3
*MODEL_SPACE
  1

  0
ENDBLK
  5
1A
330
18
100
AcDbEntity
  8
0
100
AcDbBlockEnd
  0
BLOCK
  5
16
330
15
100
AcDbEntity
 67
     1
  8
0
100
AcDbBlockBegin
  2
*PAPER_SPACE
 70
     0
 10
0.0
 20
0.0
 30
0.0
  3
*PAPER_SPACE
  1

  0
ENDBLK
  5
17
330
15
100
AcDbEntity
 67
     1
  8
0
100
AcDbBlockEnd
  0
BLOCK
  5
43
330
42
100
AcDbEntity
  8
0
100
AcDbBlockBegin
  2
_OPEN30
 70
     0
 10
0.0
 20
0.0
 30
0.0
  3
_OPEN30
  1

  0
LINE
  5
44
330
42
100
AcDbEntity
  8
0
  6
BYBLOCK
 62
     0
100
AcDbLine
 10
-1.0
 20
0.26794919
 30
0.0
 11
0.0
 21
0.0
 31
0.0
  0
LINE
  5
45
330
42
100
AcDbEntity
  8
0
  6
BYBLOCK
 62
     0
100
AcDbLine
 10
0.0
 20
0.0
 30
0.0
 11
-1.0
 21
-0.26794919
 31
0.0
  0
LINE
  5
46
330
42
100
AcDbEntity
  8
0
  6
BYBLOCK
 62
     0
100
AcDbLine
 10
0.0
 20
0.0
 30
0.0
 11
-1.0
 21
0.0
 31
0.0
  0
ENDBLK
  5
47
330
42
100
AcDbEntity
  8
0
100
AcDbBlockEnd
  0
BLOCK
  5
1A550
330
19D42
100
AcDbEntity
  8
0
100
AcDbBlockBegin
  2
A3WAKUKAWAJUN2017_HYOUDAI_
 70
     0
 10
0.0
 20
0.0
 30
0.0
  3
A3WAKUKAWAJUN2017_HYOUDAI_
  1

  0
LINE
  5
19D44
330
19D42
100
AcDbEntity
  8
0
100
AcDbLine
 10
13.26299999998673
 20
-0.0001000000000317
 30
0.0
 11
9.236999999990758
 21
8.999899999990987
 31
0.0
1001
ACAD
1000
ASC_BOUNDS
1002
{
1070
    19
1005
19D85
1002
}
  0
LINE
  5
19D45
330
19D42
100
AcDbEntity
  8
0
100
AcDbLine
 10
5.657999999994331
 20
0.9999999999989768
 30
0.0
 11
9.236999999990758
 21
8.999999999991019
 31
0.0
1001
ACAD
1000
ASC_BOUNDS
1002
{
1070
    19
1005
19D85
1002
}
  0
LINE
  5
19D46
330
19D42
100
AcDbEntity
  8
0
100
AcDbLine
 10
18.59199999998134
 20
-0.2368999999997641
 30
0.0
 11
16.46099999998353
 21
5.432899999994561
 31
0.0
1001
ACAD
1000
ASC_BOUNDS
1002
{
1070
    19
1005
19D86
1002
}
  0
LINE
  5
19D47
330
19D42
100
AcDbEntity
  8
0
100
AcDbLine
 10
18.59199999998134
 20
-0.2368999999997641
 30
0.0
 11
22.38199999997767
 21
8.763099999991255
 31
0.0
1001
ACAD
1000
ASC_BOUNDS
1002
{
1070
    19
1005
19D86
1002
}
  0
LINE
  5
19D48
330
19D42
100
AcDbEntity
  8
0
100
AcDbLine
 10
14.32899999998563
 20
-0.2368999999997641
 30
0.0
 11
16.46099999998353
 21
5.432899999994561
 31
0.0
1001
ACAD
1000
ASC_BOUNDS
1002
{
1070
    19
1005
19D86
1002
}
  0
LINE
  5
19D49
330
19D42
100
AcDbEntity
  8
0
100
AcDbLine
 10
14.32899999998563
 20
-0.2368999999997641
 30
0.0
 11
10.53899999998941
 21
8.763099999991255
 31
0.0
1001
ACAD
1000
ASC_BOUNDS
1002
{
1070
    19
1005
19D86
1002
}
  0
LINE
  5
19D4A
330
19D42
100
AcDbEntity
  8
0
100
AcDbLine
 10
19.53899999998043
 20
-0.0001000000000317
 30
0.0
 11
23.56599999997638
 21
8.999899999990987
 31
0.0
1001
ACAD
1000
ASC_BOUNDS
1002
{
1070
    19
1005
19D87
1002
}
  0
LINE
  5
19D4B
330
19D42
100
AcDbEntity
  8
0
100
AcDbLine
 10
26.97358892824991
 20
1.383099999991202
 30
0.0
 11
23.56599999997638
 21
8.999899999990987
 31
0.0
1001
ACAD
1000
ASC_BOUNDS
1002
{
1070
    19
1005
19D87
1002
}
  0
LINE
  5
19D4C
330
19D42
100
AcDbEntity
  8
0
100
AcDbLine
 10
5.657999999994331
 20
0.9999999999989768
 30
0.0
 11
3.181999999996833
 21
4.668599999995308
 31
0.0
1001
ACAD
1000
ASC_BOUNDS
1002
{
1070
    19
1005
19D85
1002
}
  0
LINE
  5
19D4D
330
19D42
100
AcDbEntity
  8
0
100
AcDbLine
 10
4.617999999995391
 20
-0.0001000000000317
 30
0.0
 11
1.420999999998571
 21
4.736799999995242
 31
0.0
1001
ACAD
1000
ASC_BOUNDS
1002
{
1070
    19
1005
19D85
1002
}
  0
LINE
  5
19D4E
330
19D42
100
AcDbEntity
  8
0
100
AcDbLine
 10
1.420999999998571
 20
8.763099999991255
 30
0.0
 11
1.420999999998571
 21
0.0
 31
0.0
1001
ACAD
1000
ASC_BOUNDS
1002
{
1070
    19
1005
19D8A
1002
}
  0
LINE
  5
19D4F
330
19D42
100
AcDbEntity
  8
0
100
AcDbLine
 10
0.0
 20
8.763099999991255
 30
0.0
 11
0.0
 21
0.0
 31
0.0
1001
ACAD
1000
ASC_BOUNDS
1002
{
1070
    19
1005
19D8A
1002
}
  0
LINE
  5
19D50
330
19D42
100
AcDbEntity
  8
0
100
AcDbLine
 10
6.766999999993232
 20
-0.0001000000000317
 30
0.0
 11
7.826999999992154
 21
2.368399999997621
 31
0.0
1001
ACAD
1000
ASC_BOUNDS
1002
{
1070
    19
1005
19D85
1002
}
  0
LINE
  5
19D51
330
19D42
100
AcDbEntity
  8
0
100
AcDbLine
 10
0.0
 20
0.0
 30
0.0
 11
1.420999999998571
 21
0.0
 31
0.0
1001
ACAD
1000
ASC_BOUNDS
1002
{
1070
    19
1005
19D8A
1002
}
  0
LINE
  5
19D52
330
19D42
100
AcDbEntity
  8
0
100
AcDbLine
 10
4.617999999995391
 20
0.0
 30
0.0
 11
6.766999999993232
 21
0.0
 31
0.0
1001
ACAD
1000
ASC_BOUNDS
1002
{
1070
    19
1005
19D85
1002
}
  0
LINE
  5
19D53
330
19D42
100
AcDbEntity
  8
0
100
AcDbLine
 10
11.70599999998831
 20
-0.0001000000000317
 30
0.0
 11
10.64699999998936
 21
2.368399999997621
 31
0.0
1001
ACAD
1000
ASC_BOUNDS
1002
{
1070
    19
1005
19D85
1002
}
  0
LINE
  5
19D54
330
19D42
100
AcDbEntity
  8
0
100
AcDbLine
 10
7.826999999992154
 20
2.368399999997621
 30
0.0
 11
10.64699999998936
 21
2.368399999997621
 31
0.0
1001
ACAD
1000
ASC_BOUNDS
1002
{
1070
    19
1005
19D85
1002
}
  0
LINE
  5
19D55
330
19D42
100
AcDbEntity
  8
0
100
AcDbLine
 10
11.70599999998831
 20
0.0
 30
0.0
 11
13.26299999998673
 21
0.0
 31
0.0
1001
ACAD
1000
ASC_BOUNDS
1002
{
1070
    19
1005
19D85
1002
}
  0
LINE
  5
19D56
330
19D42
100
AcDbEntity
  8
0
100
AcDbLine
 10
22.15599999997789
 20
2.368399999997621
 30
0.0
 11
24.97599999997499
 21
2.368399999997621
 31
0.0
1001
ACAD
1000
ASC_BOUNDS
1002
{
1070
    19
1005
19D87
1002
}
  0
LINE
  5
19D57
330
19D42
100
AcDbEntity
  8
0
100
AcDbLine
 10
19.53899999998043
 20
0.0
 30
0.0
 11
21.09599999997886
 21
0.0
 31
0.0
1001
ACAD
1000
ASC_BOUNDS
1002
{
1070
    19
1005
19D87
1002
}
  0
LINE
  5
19D58
330
19D42
100
AcDbEntity
  8
0
100
AcDbLine
 10
21.09599999997886
 20
-0.0001000000000317
 30
0.0
 11
22.15599999997789
 21
2.368399999997621
 31
0.0
1001
ACAD
1000
ASC_BOUNDS
1002
{
1070
    19
1005
19D87
1002
}
  0
LINE
  5
19D59
330
19D42
100
AcDbEntity
  8
0
100
AcDbLine
 10
26.02015566812236
 20
0.0330999999912365
 30
0.0
 11
24.97599999997499
 21
2.368399999997621
 31
0.0
1001
ACAD
1000
ASC_BOUNDS
1002
{
1070
    19
1005
19D87
1002
}
  0
LINE
  5
19D5A
330
19D42
100
AcDbEntity
  8
0
100
AcDbLine
 10
14.32399999998563
 20
3.315799999996671
 30
0.0
 11
16.46099999998353
 21
8.999899999990987
 31
0.0
1001
ACAD
1000
ASC_BOUNDS
1002
{
1070
    19
1005
19D86
1002
}
  0
LINE
  5
19D5B
330
19D42
100
AcDbEntity
  8
0
100
AcDbLine
 10
6.432999999993513
 20
8.763099999991255
 30
0.0
 11
3.181999999996833
 21
4.668599999995308
 31
0.0
1001
ACAD
1000
ASC_BOUNDS
1002
{
1070
    19
1005
19D85
1002
}
  0
LINE
  5
19D5C
330
19D42
100
AcDbEntity
  8
0
100
AcDbLine
 10
4.617999999995391
 20
8.763099999991255
 30
0.0
 11
1.420999999998571
 21
4.736799999995242
 31
0.0
1001
ACAD
1000
ASC_BOUNDS
1002
{
1070
    19
1005
19D85
1002
}
  0
LINE
  5
19D5D
330
19D42
100
AcDbEntity
  8
0
100
AcDbLine
 10
0.0
 20
8.763099999991255
 30
0.0
 11
1.420999999998571
 21
8.763099999991255
 31
0.0
1001
ACAD
1000
ASC_BOUNDS
1002
{
1070
    19
1005
19D8A
1002
}
  0
LINE
  5
19D5E
330
19D42
100
AcDbEntity
  8
0
100
AcDbLine
 10
4.617999999995391
 20
8.763099999991255
 30
0.0
 11
6.432999999993513
 21
8.763099999991255
 31
0.0
1001
ACAD
1000
ASC_BOUNDS
1002
{
1070
    19
1005
19D85
1002
}
  0
LINE
  5
19D5F
330
19D42
100
AcDbEntity
  8
0
100
AcDbLine
 10
14.32399999998563
 20
3.315799999996671
 30
0.0
 11
12.02999999998792
 21
8.763099999991255
 31
0.0
1001
ACAD
1000
ASC_BOUNDS
1002
{
1070
    19
1005
19D86
1002
}
  0
LINE
  5
19D60
330
19D42
100
AcDbEntity
  8
0
100
AcDbLine
 10
10.06399999998996
 20
3.670999999996297
 30
0.0
 11
9.236999999990758
 21
5.5200999999945
 31
0.0
1001
ACAD
1000
ASC_BOUNDS
1002
{
1070
    19
1005
19D85
1002
}
  0
LINE
  5
19D61
330
19D42
100
AcDbEntity
  8
0
100
AcDbLine
 10
8.409999999991555
 20
3.670999999996297
 30
0.0
 11
9.236999999990758
 21
5.5200999999945
 31
0.0
1001
ACAD
1000
ASC_BOUNDS
1002
{
1070
    19
1005
19D85
1002
}
  0
LINE
  5
19D62
330
19D42
100
AcDbEntity
  8
0
100
AcDbLine
 10
8.409999999991555
 20
3.670999999996297
 30
0.0
 11
10.06399999998996
 21
3.670999999996297
 31
0.0
1001
ACAD
1000
ASC_BOUNDS
1002
{
1070
    19
1005
19D85
1002
}
  0
LINE
  5
19D63
330
19D42
100
AcDbEntity
  8
0
100
AcDbLine
 10
10.53899999998941
 20
8.763099999991255
 30
0.0
 11
12.02999999998792
 21
8.763099999991255
 31
0.0
1001
ACAD
1000
ASC_BOUNDS
1002
{
1070
    19
1005
19D86
1002
}
  0
LINE
  5
19D64
330
19D42
100
AcDbEntity
  8
0
100
AcDbLine
 10
22.7389999999773
 20
3.670999999996297
 30
0.0
 11
23.56599999997638
 21
5.5200999999945
 31
0.0
1001
ACAD
1000
ASC_BOUNDS
1002
{
1070
    19
1005
19D87
1002
}
  0
LINE
  5
19D65
330
19D42
100
AcDbEntity
  8
0
100
AcDbLine
 10
22.7389999999773
 20
3.670999999996297
 30
0.0
 11
24.39299999997559
 21
3.670999999996297
 31
0.0
1001
ACAD
1000
ASC_BOUNDS
1002
{
1070
    19
1005
19D87
1002
}
  0
LINE
  5
19D66
330
19D42
100
AcDbEntity
  8
0
100
AcDbLine
 10
18.59799999998143
 20
3.315799999996671
 30
0.0
 11
20.89099999997916
 21
8.763099999991255
 31
0.0
1001
ACAD
1000
ASC_BOUNDS
1002
{
1070
    19
1005
19D86
1002
}
  0
LINE
  5
19D67
330
19D42
100
AcDbEntity
  8
0
100
AcDbLine
 10
18.59799999998143
 20
3.315799999996671
 30
0.0
 11
16.46099999998353
 21
8.999899999990987
 31
0.0
1001
ACAD
1000
ASC_BOUNDS
1002
{
1070
    19
1005
19D86
1002
}
  0
LINE
  5
19D68
330
19D42
100
AcDbEntity
  8
0
100
AcDbLine
 10
20.89099999997916
 20
8.763099999991255
 30
0.0
 11
22.38199999997767
 21
8.763099999991255
 31
0.0
1001
ACAD
1000
ASC_BOUNDS
1002
{
1070
    19
1005
19D86
1002
}
  0
LINE
  5
19D69
330
19D42
100
AcDbEntity
  8
0
100
AcDbLine
 10
24.39299999997559
 20
3.670999999996297
 30
0.0
 11
23.56599999997638
 21
5.5200999999945
 31
0.0
1001
ACAD
1000
ASC_BOUNDS
1002
{
1070
    19
1005
19D87
1002
}
  0
LINE
  5
19D6A
330
19D42
100
AcDbEntity
  8
0
100
AcDbLine
 10
44.99999999995498
 20
-0.2368999999997641
 30
0.0
 11
40.02599999995994
 21
5.341799999994635
 31
0.0
1001
ACAD
1000
ASC_BOUNDS
1002
{
1070
    19
1005
19D89
1002
}
  0
LINE
  5
19D6B
330
19D42
100
AcDbEntity
  8
0
100
AcDbLine
 10
40.02599999995994
 20
5.341799999994635
 30
0.0
 11
40.02599999995994
 21
0.0
 31
0.0
1001
ACAD
1000
ASC_BOUNDS
1002
{
1070
    19
1005
19D89
1002
}
  0
LINE
  5
19D6C
330
19D42
100
AcDbEntity
  8
0
100
AcDbLine
 10
38.60499999996136
 20
8.999999999991019
 30
0.0
 11
38.60499999996136
 21
0.0
 31
0.0
1001
ACAD
1000
ASC_BOUNDS
1002
{
1070
    19
1005
19D89
1002
}
  0
LINE
  5
19D6D
330
19D42
100
AcDbEntity
  8
0
100
AcDbLine
 10
44.99999999995498
 20
8.763099999991255
 30
0.0
 11
44.99999999995498
 21
-0.2368999999997641
 31
0.0
1001
ACAD
1000
ASC_BOUNDS
1002
{
1070
    19
1005
19D89
1002
}
  0
LINE
  5
19D6E
330
19D42
100
AcDbEntity
  8
0
100
AcDbLine
 10
38.60499999996136
 20
0.0
 30
0.0
 11
40.02599999995994
 21
0.0
 31
0.0
1001
ACAD
1000
ASC_BOUNDS
1002
{
1070
    19
1005
19D89
1002
}
  0
LINE
  5
19D6F
330
19D42
100
AcDbEntity
  8
0
100
AcDbLine
 10
43.57899999995641
 20
3.421199999996588
 30
0.0
 11
38.60499999996136
 21
8.999899999990987
 31
0.0
1001
ACAD
1000
ASC_BOUNDS
1002
{
1070
    19
1005
19D89
1002
}
  0
LINE
  5
19D70
330
19D42
100
AcDbEntity
  8
0
100
AcDbLine
 10
43.57899999995641
 20
8.763099999991255
 30
0.0
 11
43.57899999995641
 21
3.421199999996588
 31
0.0
1001
ACAD
1000
ASC_BOUNDS
1002
{
1070
    19
1005
19D89
1002
}
  0
LINE
  5
19D71
330
19D42
100
AcDbEntity
  8
0
100
AcDbLine
 10
43.57899999995641
 20
8.763099999991255
 30
0.0
 11
44.99999999995498
 21
8.763099999991255
 31
0.0
1001
ACAD
1000
ASC_BOUNDS
1002
{
1070
    19
1005
19D89
1002
}
  0
LINE
  5
19D72
330
19D42
100
AcDbEntity
  8
0
100
AcDbLine
 10
37.67199999996831
 20
8.763099999991255
 30
0.0
 11
36.23199999996837
 21
8.763099999991255
 31
0.0
  0
LINE
  5
19D73
330
19D42
100
AcDbEntity
  8
0
100
AcDbLine
 10
31.64199999996833
 20
8.763099999991255
 30
0.0
 11
31.64199999996833
 21
2.481619422925121
 31
0.0
  0
LINE
  5
19D74
330
19D42
100
AcDbEntity
  8
0
100
AcDbLine
 10
37.67199999996831
 20
8.763099999991255
 30
0.0
 11
37.67199999996831
 21
2.481619422925121
 31
0.0
  0
LINE
  5
19D75
330
19D42
100
AcDbEntity
  8
0
100
AcDbLine
 10
36.23199999996837
 20
8.763099999991255
 30
0.0
 11
36.23199999996837
 21
2.481619422925064
 31
0.0
  0
LINE
  5
19D76
330
19D42
100
AcDbEntity
  8
0
100
AcDbLine
 10
33.08199999996839
 20
8.763099999991255
 30
0.0
 11
33.08199999996839
 21
2.481619422925121
 31
0.0
  0
ARC
  5
19D77
330
19D42
100
AcDbEntity
  8
0
100
AcDbCircle
 10
34.65699999996832
 20
3.183099999991214
 30
0.0
 40
3.420000000000007
100
AcDbArc
 50
240.0000000000255
 51
299.9999999999766
  0
ARC
  5
19D78
330
19D42
100
AcDbEntity
  8
0
100
AcDbCircle
 10
34.65699999996832
 20
3.183099999991214
 30
0.0
 40
1.97999999999999
100
AcDbArc
 50
240.000000000026
 51
299.9999999999703
  0
LINE
  5
19D79
330
19D42
100
AcDbEntity
  8
0
100
AcDbLine
 10
33.08199999996828
 20
8.763099999991255
 30
0.0
 11
31.64199999996833
 21
8.763099999991255
 31
0.0
  0
ARC
  5
19D7A
330
19D42
100
AcDbEntity
  8
0
100
AcDbCircle
 10
35.06199999996829
 20
2.481619422925064
 30
0.0
 40
1.17
100
AcDbArc
 50
299.9999999999699
 51
0.0
  0
ARC
  5
19D7B
330
19D42
100
AcDbEntity
  8
0
100
AcDbCircle
 10
34.25199999996835
 20
2.481619422925121
 30
0.0
 40
1.17
100
AcDbArc
 50
180.0
 51
240.0000000000238
  0
ARC
  5
19D7C
330
19D42
100
AcDbEntity
  8
0
100
AcDbCircle
 10
35.06199999996841
 20
2.481619422925121
 30
0.0
 40
2.61
100
AcDbArc
 50
299.9999999999756
 51
0.0
  0
ARC
  5
19D7D
330
19D42
100
AcDbEntity
  8
0
100
AcDbCircle
 10
34.25199999996835
 20
2.481619422925121
 30
0.0
 40
2.61
100
AcDbArc
 50
180.0
 51
240.0000000000244
  0
LINE
  5
19D7E
330
19D42
100
AcDbEntity
  8
0
100
AcDbLine
 10
29.30199999996933
 20
8.763099999991255
 30
0.0
 11
30.74199999996927
 21
8.763099999991255
 31
0.0
1001
ACAD
1000
ASC_BOUNDS
1002
{
1070
    19
1005
19D87
1002
}
  0
LINE
  5
19D7F
330
19D42
100
AcDbEntity
  8
0
100
AcDbLine
 10
30.74199999996927
 20
8.763099999991255
 30
0.0
 11
30.74199999996927
 21
2.373099999991211
 31
0.0
1001
ACAD
1000
ASC_BOUNDS
1002
{
1070
    19
1005
19D87
1002
}
  0
LINE
  5
19D80
330
19D42
100
AcDbEntity
  8
0
100
AcDbLine
 10
26.02015566812236
 20
0.0330999999912365
 30
0.0
 11
28.40199999996923
 21
0.0330999999912365
 31
0.0
1001
ACAD
1000
ASC_BOUNDS
1002
{
1070
    19
1005
19D87
1002
}
  0
LINE
  5
19D81
330
19D42
100
AcDbEntity
  8
0
100
AcDbLine
 10
29.30199999996933
 20
8.763099999991255
 30
0.0
 11
29.30199999996933
 21
2.283099999991236
 31
0.0
1001
ACAD
1000
ASC_BOUNDS
1002
{
1070
    19
1005
19D87
1002
}
  0
LINE
  5
19D82
330
19D42
100
AcDbEntity
  8
0
100
AcDbLine
 10
26.97358892824991
 20
1.383099999991202
 30
0.0
 11
28.40199999996923
 21
1.383099999991202
 31
0.0
1001
ACAD
1000
ASC_BOUNDS
1002
{
1070
    19
1005
19D87
1002
}
  0
ARC
  5
19D83
330
19D42
100
AcDbEntity
  8
0
100
AcDbCircle
 10
28.40199999996923
 20
2.283099999991236
 30
0.0
 40
0.9
100
AcDbArc
 50
270.0
 51
0.0
1001
ACAD
1000
ASC_BOUNDS
1002
{
1070
    19
1005
19D87
1002
}
  0
ARC
  5
19D84
330
19D42
100
AcDbEntity
  8
0
100
AcDbCircle
 10
28.40199999996923
 20
2.373099999991211
 30
0.0
 40
2.34
100
AcDbArc
 50
270.0
 51
0.0
1001
ACAD
1000
ASC_BOUNDS
1002
{
1070
    19
1005
19D87
1002
}
  0
INSERT
  5
19D85
330
19D42
100
AcDbEntity
  8
0
100
AcDbBlockReference
  2
*X146
 10
0.0
 20
0.0
 30
0.0
1001
ACAD
1000
HATCH
1002
{
1070
    19
1000
ANSI37
1040
0.15
1040
0.0
1000
ASC_BOUNDS
1070
     2
1070
     2
1070
    12
1005
19D44
1005
19D45
1005
19D4C
1005
19D5B
1005
19D5E
1005
19D5C
1005
19D4D
1005
19D52
1005
19D50
1005
19D54
1005
19D53
1005
19D55
1070
     2
1070
     3
1005
19D60
1005
19D62
1005
19D61
1000
ASC_SEEDPOINT
1011
3.614004224891801
1021
2.996669441146025
1031
0.0
1000
R14_HATCH_DATA
1000
19D85
1011
1.0
1021
0.0
1031
0.0
1011
0.0
1021
1.0
1031
0.0
1011
0.0
1021
0.0
1031
1.0
1040
0.0
1010
0.0
1020
0.0
1030
1.0
1000
ANSI37
1070
     0
1070
     1
1071
        2
1071
        7
1070
     0
1070
     1
1071
       17
1040
13.26299999998673
1040
-0.0001000000000317
1040
9.236999999990758
1040
8.999899999990987
1040
9.236999999990758
1040
8.999999999991019
1040
5.657999999994331
1040
0.9999999999989768
1040
3.181999999996833
1040
4.668599999995308
1040
6.432999999993513
1040
8.763099999991255
1040
4.617999999995391
1040
8.763099999991255
1040
1.420999999998571
1040
4.736799999995242
1040
4.617999999995391
1040
-0.0001000000000317
1040
4.617999999995391
1040
0.0
1040
6.766999999993232
1040
0.0
1040
6.766999999993232
1040
-0.0001000000000317
1040
7.826999999992154
1040
2.368399999997621
1040
10.64699999998936
1040
2.368399999997621
1040
11.70599999998831
1040
-0.0001000000000317
1040
11.70599999998831
1040
0.0
1040
13.26299999998673
1040
0.0
1071
       12
1005
19D44
1005
19D45
1005
19D4C
1005
19D5B
1005
19D5E
1005
19D5C
1005
19D4D
1005
19D52
1005
19D50
1005
19D54
1005
19D53
1005
19D55
1071
       22
1070
     0
1070
     1
1071
        3
1040
9.236999999990758
1040
5.5200999999945
1040
10.06399999998996
1040
3.670999999996297
1040
8.409999999991555
1040
3.670999999996297
1071
        3
1005
19D60
1005
19D62
1005
19D61
1070
     0
1070
     1
1040
0.0
1040
0.15
1070
     0
1070
     2
1040
0.7853981633974483
1040
49.29960901727088
1040
-10.17736998311392
1040
-0.3367596045400932
1040
0.3367596045400932
1070
     0
1040
2.356194490192345
1040
49.29960901727088
1040
-10.17736998311392
1040
-0.3367596045400932
1040
-0.3367596045400932
1070
     0
1040
0.0110235143455945
1071
        2
1040
3.614004224891801
1040
2.996669441146025
1040
0.0
1040
3.614004224891801
1040
2.996669441146025
1040
0.0
1002
}
  0
INSERT
  5
19D86
330
19D42
100
AcDbEntity
  8
0
100
AcDbBlockReference
  2
*X147
 10
0.0
 20
0.0
 30
0.0
1001
ACAD
1000
HATCH
1002
{
1070
    19
1000
ANSI37
1040
0.15
1040
0.0
1000
ASC_BOUNDS
1070
     1
1070
     2
1070
    10
1005
19D46
1005
19D47
1005
19D68
1005
19D66
1005
19D67
1005
19D5A
1005
19D5F
1005
19D63
1005
19D49
1005
19D48
1000
ASC_SEEDPOINT
1011
14.73245321214324
1021
2.798246178283421
1031
0.0
1000
R14_HATCH_DATA
1000
19D86
1011
1.0
1021
0.0
1031
0.0
1011
0.0
1021
1.0
1031
0.0
1011
0.0
1021
0.0
1031
1.0
1040
0.0
1010
0.0
1020
0.0
1030
1.0
1000
ANSI37
1070
     0
1070
     1
1071
        1
1071
        7
1070
     0
1070
     1
1071
       10
1040
16.46099999998353
1040
5.432899999994561
1040
18.59199999998134
1040
-0.2368999999997641
1040
22.38199999997767
1040
8.763099999991255
1040
20.89099999997916
1040
8.763099999991255
1040
18.59799999998143
1040
3.315799999996671
1040
16.46099999998353
1040
8.999899999990987
1040
14.32399999998563
1040
3.315799999996671
1040
12.02999999998792
1040
8.763099999991255
1040
10.53899999998941
1040
8.763099999991255
1040
14.32899999998563
1040
-0.2368999999997641
1071
       10
1005
19D46
1005
19D47
1005
19D68
1005
19D66
1005
19D67
1005
19D5A
1005
19D5F
1005
19D63
1005
19D49
1005
19D48
1070
     0
1070
     1
1040
0.0
1040
0.15
1070
     0
1070
     2
1040
0.7853981633974483
1040
49.29960901727088
1040
-10.17736998311392
1040
-0.3367596045400932
1040
0.3367596045400932
1070
     0
1040
2.356194490192345
1040
49.29960901727088
1040
-10.17736998311392
1040
-0.3367596045400932
1040
-0.3367596045400932
1070
     0
1040
0.0110235143455945
1071
        1
1040
14.73245321214324
1040
2.798246178283421
1040
0.0
1002
}
  0
INSERT
  5
19D87
330
19D42
100
AcDbEntity
  8
0
100
AcDbBlockReference
  2
*X148
 10
0.0
 20
0.0
 30
0.0
1001
ACAD
1000
HATCH
1002
{
1070
    19
1000
ANSI37
1040
0.15
1040
0.0
1000
ASC_BOUNDS
1070
     2
1070
     2
1070
    13
1005
19D4A
1005
19D57
1005
19D58
1005
19D56
1005
19D59
1005
19D80
1005
19D84
1005
19D7F
1005
19D7E
1005
19D81
1005
19D83
1005
19D82
1005
19D4B
1070
     2
1070
     3
1005
19D64
1005
19D69
1005
19D65
1000
ASC_SEEDPOINT
1011
21.97929957367762
1021
3.294304244259308
1031
0.0
1000
R14_HATCH_DATA
1000
19D87
1011
1.0
1021
0.0
1031
0.0
1011
0.0
1021
1.0
1031
0.0
1011
0.0
1021
0.0
1031
1.0
1040
0.0
1010
0.0
1020
0.0
1030
1.0
1000
ANSI37
1070
     0
1070
     1
1071
        2
1071
        7
1070
     1
1070
     1
1071
       15
1040
23.56599999997638
1040
8.999899999990987
1040
0.0
1040
19.53899999998043
1040
-0.0001000000000317
1040
0.0
1040
19.53899999998043
1040
0.0
1040
0.0
1040
21.09599999997886
1040
0.0
1040
0.0
1040
21.09599999997886
1040
-0.0001000000000317
1040
0.0
1040
22.15599999997789
1040
2.368399999997621
1040
0.0
1040
24.97599999997499
1040
2.368399999997621
1040
0.0
1040
26.02015566812236
1040
0.0330999999912365
1040
0.0
1040
28.40199999996923
1040
0.0330999999912365
1040
0.414213562373095
1040
30.74199999996923
1040
2.373099999991211
1040
0.0
1040
30.74199999996927
1040
8.763099999991255
1040
0.0
1040
29.30199999996933
1040
8.763099999991255
1040
0.0
1040
29.30199999996933
1040
2.283099999991236
1040
-0.414213562373095
1040
28.40199999996923
1040
1.383099999991237
1040
0.0
1040
26.97358892824991
1040
1.383099999991202
1040
0.0
1071
       13
1005
19D4A
1005
19D57
1005
19D58
1005
19D56
1005
19D59
1005
19D80
1005
19D84
1005
19D7F
1005
19D7E
1005
19D81
1005
19D83
1005
19D82
1005
19D4B
1071
       22
1070
     0
1070
     1
1071
        3
1040
22.7389999999773
1040
3.670999999996297
1040
23.56599999997638
1040
5.5200999999945
1040
24.39299999997559
1040
3.670999999996297
1071
        3
1005
19D64
1005
19D69
1005
19D65
1070
     0
1070
     1
1040
0.0
1040
0.15
1070
     0
1070
     2
1040
0.7853981633974483
1040
49.29960901727088
1040
-10.17736998311392
1040
-0.3367596045400932
1040
0.3367596045400932
1070
     0
1040
2.356194490192345
1040
49.29960901727088
1040
-10.17736998311392
1040
-0.3367596045400932
1040
-0.3367596045400932
1070
     0
1040
0.0110235143455945
1071
        2
1040
21.97929957367762
1040
3.294304244259308
1040
0.0
1040
21.97929957367762
1040
3.294304244259308
1040
0.0
1002
}
  0
INSERT
  5
19D88
330
19D42
100
AcDbEntity
  8
0
100
AcDbBlockReference
  2
*X149
 10
0.0
 20
0.0
 30
0.0
1001
ACAD
1000
HATCH
1002
{
1070
    19
1000
ANSI37
1040
0.15
1040
0.0
1000
R14_HATCH_DATA
1000
19D88
1011
1.0
1021
0.0
1031
0.0
1011
0.0
1021
1.0
1031
0.0
1011
0.0
1021
0.0
1031
1.0
1040
0.0
1010
0.0
1020
0.0
1030
1.0
1000
ANSI37
1070
     0
1070
     1
1071
        1
1071
        7
1070
     1
1070
     1
1071
       12
1040
31.64199999996833
1040
2.481619422925121
1040
0.2679491924310942
1040
32.94699999997067
1040
0.2212931190493919
1040
0.2679491924301353
1040
36.36699999995983
1040
0.2212931190459813
1040
0.2679491924321411
1040
37.67199999996831
1040
2.481619422928361
1040
0.0
1040
37.67199999996831
1040
8.763099999991255
1040
0.0
1040
36.23199999996837
1040
8.763099999991255
1040
0.0
1040
36.23199999996837
1040
2.481619422925064
1040
-0.2679491924310291
1040
35.64699999996708
1040
1.468369700498386
1040
-0.267949192430519
1040
33.66699999997093
1040
1.468369700497703
1040
-0.267949192431809
1040
33.08199999996839
1040
2.481619422926997
1040
0.0
1040
33.08199999996839
1040
8.763099999991255
1040
0.0
1040
31.64199999996833
1040
8.763099999991255
1040
0.0
1071
        0
1070
     0
1070
     1
1040
0.0
1040
0.15
1070
     0
1070
     2
1040
0.7853981633974483
1040
49.29960901727088
1040
-10.17736998311392
1040
-0.3367596045400932
1040
0.3367596045400932
1070
     0
1040
2.356194490192345
1040
49.29960901727088
1040
-10.17736998311392
1040
-0.3367596045400932
1040
-0.3367596045400932
1070
     0
1040
0.0110235143455945
1071
        1
1040
32.30357378967278
1040
3.988785755459219
1040
0.0
1002
}
  0
INSERT
  5
19D89
330
19D42
100
AcDbEntity
  8
0
100
AcDbBlockReference
  2
*X150
 10
0.0
 20
0.0
 30
0.0
1001
ACAD
1000
HATCH
1002
{
1070
    19
1000
ANSI37
1040
0.15
1040
0.0
1000
ASC_BOUNDS
1070
     1
1070
     2
1070
     8
1005
19D6A
1005
19D6D
1005
19D71
1005
19D70
1005
19D6F
1005
19D6C
1005
19D6E
1005
19D6B
1000
ASC_SEEDPOINT
1011
39.74896370716704
1021
4.484843821435049
1031
0.0
1000
R14_HATCH_DATA
1000
19D89
1011
1.0
1021
0.0
1031
0.0
1011
0.0
1021
1.0
1031
0.0
1011
0.0
1021
0.0
1031
1.0
1040
0.0
1010
0.0
1020
0.0
1030
1.0
1000
ANSI37
1070
     0
1070
     1
1071
        1
1071
        7
1070
     0
1070
     1
1071
        9
1040
40.02599999995994
1040
5.341799999994635
1040
44.99999999995498
1040
-0.2368999999997641
1040
44.99999999995498
1040
8.763099999991255
1040
43.57899999995641
1040
8.763099999991255
1040
43.57899999995641
1040
3.421199999996588
1040
38.60499999996136
1040
8.999899999990987
1040
38.60499999996136
1040
8.999999999991019
1040
38.60499999996136
1040
0.0
1040
40.02599999995994
1040
0.0
1071
        8
1005
19D6A
1005
19D6D
1005
19D71
1005
19D70
1005
19D6F
1005
19D6C
1005
19D6E
1005
19D6B
1070
     0
1070
     1
1040
0.0
1040
0.15
1070
     0
1070
     2
1040
0.7853981633974483
1040
49.29960901727088
1040
-10.17736998311392
1040
-0.3367596045400932
1040
0.3367596045400932
1070
     0
1040
2.356194490192345
1040
49.29960901727088
1040
-10.17736998311392
1040
-0.3367596045400932
1040
-0.3367596045400932
1070
     0
1040
0.0110235143455945
1071
        1
1040
39.74896370716704
1040
4.484843821435049
1040
0.0
1002
}
  0
INSERT
  5
19D8A
330
19D42
100
AcDbEntity
  8
0
100
AcDbBlockReference
  2
*X151
 10
0.0
 20
0.0
 30
0.0
1001
ACAD
1000
HATCH
1002
{
1070
    19
1000
ANSI37
1040
0.15
1040
0.0
1000
ASC_BOUNDS
1070
     1
1070
     2
1070
     4
1005
19D4E
1005
19D5D
1005
19D4F
1005
19D51
1000
ASC_SEEDPOINT
1011
1.079051535452663
1021
4.148538732891836
1031
0.0
1000
R14_HATCH_DATA
1000
19D8A
1011
1.0
1021
0.0
1031
0.0
1011
0.0
1021
1.0
1031
0.0
1011
0.0
1021
0.0
1031
1.0
1040
0.0
1010
0.0
1020
0.0
1030
1.0
1000
ANSI37
1070
     0
1070
     1
1071
        1
1071
        7
1070
     0
1070
     1
1071
        4
1040
1.420999999998571
1040
0.0
1040
1.420999999998571
1040
8.763099999991255
1040
0.0
1040
8.763099999991255
1040
0.0
1040
0.0
1071
        4
1005
19D4E
1005
19D5D
1005
19D4F
1005
19D51
1070
     0
1070
     1
1040
0.0
1040
0.15
1070
     0
1070
     2
1040
0.7853981633974483
1040
49.29960901727088
1040
-10.17736998311392
1040
-0.3367596045400932
1040
0.3367596045400932
1070
     0
1040
2.356194490192345
1040
49.29960901727088
1040
-10.17736998311392
1040
-0.3367596045400932
1040
-0.3367596045400932
1070
     0
1040
0.0053004257112761
1071
        1
1040
1.079051535452663
1040
4.148538732891836
1040
0.0
1002
}
  0
ENDBLK
  5
1A551
330
19D42
100
AcDbEntity
  8
0
100
AcDbBlockEnd
  0
BLOCK
  5
1B390
330
1B202
100
AcDbEntity
  8
0
100
AcDbBlockBegin
  2
*X146
 70
     1
 10
0.0
 20
0.0
 30
0.0
  3
*X146
  1

  0
LINE
  5
1B203
330
1B202
100
AcDbEntity
  8
0
  6
CONTINUOUS
100
AcDbLine
 10
3.418023043697893
 20
7.251849696850613
 30
0.0
 11
4.929273346838536
 21
8.763099999991255
 31
0.0
  0
LINE
  5
1B204
330
1B202
100
AcDbEntity
  8
0
  6
CONTINUOUS
100
AcDbLine
 10
1.483656411257782
 20
4.643963855330318
 30
0.0
 11
5.60279255591872
 21
8.763099999991255
 31
0.0
  0
LINE
  5
1B205
330
1B202
100
AcDbEntity
  8
0
  6
CONTINUOUS
100
AcDbLine
 10
1.755053947328235
 20
4.241842182320584
 30
0.0
 11
6.276311764998907
 21
8.763099999991255
 31
0.0
  0
LINE
  5
1B206
330
1B202
100
AcDbEntity
  8
0
  6
CONTINUOUS
100
AcDbLine
 10
2.026451483398688
 20
3.839720509310849
 30
0.0
 11
4.441040904851878
 21
6.254309930764039
 31
0.0
  0
LINE
  5
1B207
330
1B202
100
AcDbEntity
  8
0
  6
CONTINUOUS
100
AcDbLine
 10
2.297849019469139
 20
3.437598836301114
 30
0.0
 11
3.321765168359338
 21
4.461514985191313
 31
0.0
  0
LINE
  5
1B208
330
1B202
100
AcDbEntity
  8
0
  6
CONTINUOUS
100
AcDbLine
 10
2.569246555539591
 20
3.03547716329138
 30
0.0
 11
3.593163397972743
 21
4.059394005724531
 31
0.0
  0
LINE
  5
1B209
330
1B202
100
AcDbEntity
  8
0
  6
CONTINUOUS
100
AcDbLine
 10
2.840644091610043
 20
2.633355490281646
 30
0.0
 11
3.864561627586149
 21
3.657273026257751
 31
0.0
  0
LINE
  5
1B20A
330
1B202
100
AcDbEntity
  8
0
  6
CONTINUOUS
100
AcDbLine
 10
3.112041627680496
 20
2.231233817271911
 30
0.0
 11
4.135959857199554
 21
3.25515204679097
 31
0.0
  0
LINE
  5
1B20B
330
1B202
100
AcDbEntity
  8
0
  6
CONTINUOUS
100
AcDbLine
 10
3.383439163750948
 20
1.829112144262177
 30
0.0
 11
4.40735808681296
 21
2.853031067324189
 31
0.0
  0
LINE
  5
1B20C
330
1B202
100
AcDbEntity
  8
0
  6
CONTINUOUS
100
AcDbLine
 10
3.654836699821399
 20
1.426990471252442
 30
0.0
 11
4.678756316426365
 21
2.450910087857407
 31
0.0
  0
LINE
  5
1B20D
330
1B202
100
AcDbEntity
  8
0
  6
CONTINUOUS
100
AcDbLine
 10
3.926234235891853
 20
1.024868798242709
 30
0.0
 11
4.95015454603977
 21
2.048789108390626
 31
0.0
  0
LINE
  5
1B20E
330
1B202
100
AcDbEntity
  8
0
  6
CONTINUOUS
100
AcDbLine
 10
4.197631771962304
 20
0.6227471252329737
 30
0.0
 11
5.221552775653176
 21
1.646668128923846
 31
0.0
  0
LINE
  5
1B20F
330
1B202
100
AcDbEntity
  8
0
  6
CONTINUOUS
100
AcDbLine
 10
8.715877546767851
 20
7.835069736359266
 30
0.0
 11
9.435953450375058
 21
8.555145639966472
 31
0.0
  0
LINE
  5
1B210
330
1B202
100
AcDbEntity
  8
0
  6
CONTINUOUS
100
AcDbLine
 10
8.170620868422267
 20
6.616293848933497
 30
0.0
 11
9.644120833743461
 21
8.08979381425469
 31
0.0
  0
LINE
  5
1B211
330
1B202
100
AcDbEntity
  8
0
  6
CONTINUOUS
100
AcDbLine
 10
7.625364190076684
 20
5.397517961507727
 30
0.0
 11
9.852288217111864
 21
7.624441988542907
 31
0.0
  0
LINE
  5
1B212
330
1B202
100
AcDbEntity
  8
0
  6
CONTINUOUS
100
AcDbLine
 10
7.080107511731101
 20
4.178742074081957
 30
0.0
 11
10.06045560048027
 21
7.159090162831124
 31
0.0
  0
LINE
  5
1B213
330
1B202
100
AcDbEntity
  8
0
  6
CONTINUOUS
100
AcDbLine
 10
6.534850833385518
 20
2.959966186656187
 30
0.0
 11
10.26862298384867
 21
6.693738337119342
 31
0.0
  0
LINE
  5
1B214
330
1B202
100
AcDbEntity
  8
0
  6
CONTINUOUS
100
AcDbLine
 10
4.469029308032756
 20
0.2206254522232385
 30
0.0
 11
5.492951005266582
 21
1.244547149457064
 31
0.0
  0
LINE
  5
1B215
330
1B202
100
AcDbEntity
  8
0
  6
CONTINUOUS
100
AcDbLine
 10
5.989594155039935
 20
1.741190299230417
 30
0.0
 11
8.806950407233131
 21
4.558546551423613
 31
0.0
  0
LINE
  5
1B216
330
1B202
100
AcDbEntity
  8
0
  6
CONTINUOUS
100
AcDbLine
 10
9.401251593263643
 20
5.152847737454126
 30
0.0
 11
10.47679036721708
 21
6.228386511407559
 31
0.0
  0
LINE
  5
1B217
330
1B202
100
AcDbEntity
  8
0
  6
CONTINUOUS
100
AcDbLine
 10
4.921837203428691
 20
-0.0000858614610131
 30
0.0
 11
8.592923064886001
 21
3.670999999996297
 31
0.0
  0
LINE
  5
1B218
330
1B202
100
AcDbEntity
  8
0
  6
CONTINUOUS
100
AcDbLine
 10
9.609390446785305
 20
4.6874673818956
 30
0.0
 11
10.68495775058548
 21
5.763034685695775
 31
0.0
  0
LINE
  5
1B219
330
1B202
100
AcDbEntity
  8
0
  6
CONTINUOUS
100
AcDbLine
 10
5.595387755019432
 20
-0.0000545189504582
 30
0.0
 11
7.716137258923768
 21
2.120694984953879
 31
0.0
  0
LINE
  5
1B21A
330
1B202
100
AcDbEntity
  8
0
  6
CONTINUOUS
100
AcDbLine
 10
6.268938306610172
 20
-0.000023176439905
 30
0.0
 11
7.170485805526503
 21
0.9015243224764267
 31
0.0
  0
LINE
  5
1B21B
330
1B202
100
AcDbEntity
  8
0
  6
CONTINUOUS
100
AcDbLine
 10
7.963842273967511
 20
2.368399999997621
 30
0.0
 11
9.266442273966188
 21
3.670999999996297
 31
0.0
  0
LINE
  5
1B21C
330
1B202
100
AcDbEntity
  8
0
  6
CONTINUOUS
100
AcDbLine
 10
8.637361483047696
 20
2.368399999997621
 30
0.0
 11
9.939961483046375
 21
3.670999999996297
 31
0.0
  0
LINE
  5
1B21D
330
1B202
100
AcDbEntity
  8
0
  6
CONTINUOUS
100
AcDbLine
 10
9.817529300306965
 20
4.222087026337075
 30
0.0
 11
10.89312513395388
 21
5.297682859983993
 31
0.0
  0
LINE
  5
1B21E
330
1B202
100
AcDbEntity
  8
0
  6
CONTINUOUS
100
AcDbLine
 10
10.02566815382863
 20
3.756706670778549
 30
0.0
 11
11.10129251732229
 21
4.832331034272211
 31
0.0
  0
LINE
  5
1B21F
330
1B202
100
AcDbEntity
  8
0
  6
CONTINUOUS
100
AcDbLine
 10
9.310880692127883
 20
2.368399999997621
 30
0.0
 11
11.30945990069069
 21
4.366979208560428
 31
0.0
  0
LINE
  5
1B220
330
1B202
100
AcDbEntity
  8
0
  6
CONTINUOUS
100
AcDbLine
 10
9.98439990120807
 20
2.36839999999762
 30
0.0
 11
11.5176272840591
 21
3.901627382848645
 31
0.0
  0
LINE
  5
1B221
330
1B202
100
AcDbEntity
  8
0
  6
CONTINUOUS
100
AcDbLine
 10
10.65037369446246
 20
2.36085458417182
 30
0.0
 11
11.7257946674275
 21
3.436275557136862
 31
0.0
  0
LINE
  5
1B222
330
1B202
100
AcDbEntity
  8
0
  6
CONTINUOUS
100
AcDbLine
 10
10.85847197087848
 20
1.895433651507656
 30
0.0
 11
11.9339620507959
 21
2.97092373142508
 31
0.0
  0
LINE
  5
1B223
330
1B202
100
AcDbEntity
  8
0
  6
CONTINUOUS
100
AcDbLine
 10
11.0665702472945
 20
1.430012718843491
 30
0.0
 11
12.14212943416431
 21
2.505571905713296
 31
0.0
  0
LINE
  5
1B224
330
1B202
100
AcDbEntity
  8
0
  6
CONTINUOUS
100
AcDbLine
 10
11.27466852371052
 20
0.9645917861793256
 30
0.0
 11
12.35029681753271
 21
2.040220080001513
 31
0.0
  0
LINE
  5
1B225
330
1B202
100
AcDbEntity
  8
0
  6
CONTINUOUS
100
AcDbLine
 10
11.48276680012654
 20
0.4991708535151611
 30
0.0
 11
12.55846420090111
 21
1.57486825428973
 31
0.0
  0
LINE
  5
1B226
330
1B202
100
AcDbEntity
  8
0
  6
CONTINUOUS
100
AcDbLine
 10
11.69086507654257
 20
0.0337499208509957
 30
0.0
 11
12.76663158426952
 21
1.109516428577947
 31
0.0
  0
LINE
  5
1B227
330
1B202
100
AcDbEntity
  8
0
  6
CONTINUOUS
100
AcDbLine
 10
12.33057447873954
 20
-0.0000598860322123
 30
0.0
 11
12.97479896763792
 21
0.6441646028661663
 31
0.0
  0
LINE
  5
1B228
330
1B202
100
AcDbEntity
  8
0
  6
CONTINUOUS
100
AcDbLine
 10
13.00413694809395
 20
-0.0000166257579952
 30
0.0
 11
13.18296635100632
 21
0.1788127771543824
 31
0.0
  0
LINE
  5
1B229
330
1B202
100
AcDbEntity
  8
0
  6
CONTINUOUS
100
AcDbLine
 10
4.772852165289667
 20
-0.000092794222212
 30
0.0
 11
4.296495091028902
 21
0.4762642800385528
 31
0.0
  0
LINE
  5
1B22A
330
1B202
100
AcDbEntity
  8
0
  6
CONTINUOUS
100
AcDbLine
 10
5.446340034776103
 20
-0.0000614546284616
 30
0.0
 11
2.898195908335625
 21
2.548082671812017
 31
0.0
  0
LINE
  5
1B22B
330
1B202
100
AcDbEntity
  8
0
  6
CONTINUOUS
100
AcDbLine
 10
6.119827904262539
 20
-0.0000301150347113
 30
0.0
 11
1.499896725642348
 21
4.61990106358548
 31
0.0
  0
LINE
  5
1B22C
330
1B202
100
AcDbEntity
  8
0
  6
CONTINUOUS
100
AcDbLine
 10
6.775136745476159
 20
0.0181802528318542
 30
0.0
 11
5.699826040202669
 21
1.093490958105344
 31
0.0
  0
LINE
  5
1B22D
330
1B202
100
AcDbEntity
  8
0
  6
CONTINUOUS
100
AcDbLine
 10
6.983376846288489
 20
0.4834593610997118
 30
0.0
 11
5.908008617934405
 21
1.558827589453796
 31
0.0
  0
LINE
  5
1B22E
330
1B202
100
AcDbEntity
  8
0
  6
CONTINUOUS
100
AcDbLine
 10
5.377063484962296
 20
1.416253513345719
 30
0.0
 11
1.702276957014131
 21
5.091040041293883
 31
0.0
  0
LINE
  5
1B22F
330
1B202
100
AcDbEntity
  8
0
  6
CONTINUOUS
100
AcDbLine
 10
3.978745891735324
 20
3.488090315652877
 30
0.0
 11
2.000373521109399
 21
5.466462686278803
 31
0.0
  0
LINE
  5
1B230
330
1B202
100
AcDbEntity
  8
0
  6
CONTINUOUS
100
AcDbLine
 10
7.191616947100819
 20
0.948738469367568
 30
0.0
 11
6.11619119566614
 21
2.024164220802247
 31
0.0
  0
LINE
  5
1B231
330
1B202
100
AcDbEntity
  8
0
  6
CONTINUOUS
100
AcDbLine
 10
7.399857047913149
 20
1.414017577635424
 30
0.0
 11
6.324373773397875
 21
2.489500852150698
 31
0.0
  0
LINE
  5
1B232
330
1B202
100
AcDbEntity
  8
0
  6
CONTINUOUS
100
AcDbLine
 10
7.608097148725479
 20
1.879296685903281
 30
0.0
 11
6.53255635112961
 21
2.95483748349915
 31
0.0
  0
LINE
  5
1B233
330
1B202
100
AcDbEntity
  8
0
  6
CONTINUOUS
100
AcDbLine
 10
7.816337249537808
 20
2.344575794171138
 30
0.0
 11
6.740738928861345
 21
3.420174114847601
 31
0.0
  0
LINE
  5
1B234
330
1B202
100
AcDbEntity
  8
0
  6
CONTINUOUS
100
AcDbLine
 10
3.310241080789734
 20
4.830114335678653
 30
0.0
 11
2.298470085204666
 21
5.84188533126372
 31
0.0
  0
LINE
  5
1B235
330
1B202
100
AcDbEntity
  8
0
  6
CONTINUOUS
100
AcDbLine
 10
3.60832983563551
 20
5.205544789913063
 30
0.0
 11
2.596566649299935
 21
6.217307976248638
 31
0.0
  0
LINE
  5
1B236
330
1B202
100
AcDbEntity
  8
0
  6
CONTINUOUS
100
AcDbLine
 10
3.906418590481286
 20
5.580975244147473
 30
0.0
 11
2.894663213395203
 21
6.592730621233557
 31
0.0
  0
LINE
  5
1B237
330
1B202
100
AcDbEntity
  8
0
  6
CONTINUOUS
100
AcDbLine
 10
4.204507345327062
 20
5.956405698381884
 30
0.0
 11
3.192759777490472
 21
6.968153266218474
 31
0.0
  0
LINE
  5
1B238
330
1B202
100
AcDbEntity
  8
0
  6
CONTINUOUS
100
AcDbLine
 10
8.466032252791512
 20
2.368399999997621
 30
0.0
 11
6.948921506593081
 21
3.885510746196053
 31
0.0
  0
LINE
  5
1B239
330
1B202
100
AcDbEntity
  8
0
  6
CONTINUOUS
100
AcDbLine
 10
9.139551461871699
 20
2.36839999999762
 30
0.0
 11
7.157104084324816
 21
4.350847377544504
 31
0.0
  0
LINE
  5
1B23A
330
1B202
100
AcDbEntity
  8
0
  6
CONTINUOUS
100
AcDbLine
 10
4.502596100172839
 20
6.331836152616295
 30
0.0
 11
3.49085634158574
 21
7.343575911203393
 31
0.0
  0
LINE
  5
1B23B
330
1B202
100
AcDbEntity
  8
0
  6
CONTINUOUS
100
AcDbLine
 10
4.800684855018615
 20
6.707266606850705
 30
0.0
 11
3.788952905681008
 21
7.718998556188312
 31
0.0
  0
LINE
  5
1B23C
330
1B202
100
AcDbEntity
  8
0
  6
CONTINUOUS
100
AcDbLine
 10
12.18154012887317
 20
-0.0000694579236642
 30
0.0
 11
11.32140332908496
 21
0.8600673418645499
 31
0.0
  0
LINE
  5
1B23D
330
1B202
100
AcDbEntity
  8
0
  6
CONTINUOUS
100
AcDbLine
 10
12.85501608323566
 20
-0.0000262032059659
 30
0.0
 11
10.77672456435345
 21
2.078265315676246
 31
0.0
  0
LINE
  5
1B23E
330
1B202
100
AcDbEntity
  8
0
  6
CONTINUOUS
100
AcDbLine
 10
9.813070670951886
 20
2.36839999999762
 30
0.0
 11
8.51047067095321
 21
3.670999999996297
 31
0.0
  0
LINE
  5
1B23F
330
1B202
100
AcDbEntity
  8
0
  6
CONTINUOUS
100
AcDbLine
 10
10.48658988003207
 20
2.36839999999762
 30
0.0
 11
9.183989880033396
 21
3.670999999996297
 31
0.0
  0
LINE
  5
1B240
330
1B202
100
AcDbEntity
  8
0
  6
CONTINUOUS
100
AcDbLine
 10
8.441048632286794
 20
3.740422038662712
 30
0.0
 11
7.365286662056551
 21
4.816184008892956
 31
0.0
  0
LINE
  5
1B241
330
1B202
100
AcDbEntity
  8
0
  6
CONTINUOUS
100
AcDbLine
 10
8.649187485808454
 20
4.205802394221237
 30
0.0
 11
7.573469239788285
 21
5.281520640241407
 31
0.0
  0
LINE
  5
1B242
330
1B202
100
AcDbEntity
  8
0
  6
CONTINUOUS
100
AcDbLine
 10
5.098773609864391
 20
7.082697061085115
 30
0.0
 11
4.087049469776277
 21
8.09442120117323
 31
0.0
  0
LINE
  5
1B243
330
1B202
100
AcDbEntity
  8
0
  6
CONTINUOUS
100
AcDbLine
 10
5.396862364710167
 20
7.458127515319526
 30
0.0
 11
4.385146033871544
 21
8.469843846158149
 31
0.0
  0
LINE
  5
1B244
330
1B202
100
AcDbEntity
  8
0
  6
CONTINUOUS
100
AcDbLine
 10
13.04801363231285
 20
0.4804954567970334
 30
0.0
 11
9.85750908911358
 21
3.670999999996297
 31
0.0
  0
LINE
  5
1B245
330
1B202
100
AcDbEntity
  8
0
  6
CONTINUOUS
100
AcDbLine
 10
8.857326339330116
 20
4.671182749779763
 30
0.0
 11
7.781651817520021
 21
5.746857271589858
 31
0.0
  0
LINE
  5
1B246
330
1B202
100
AcDbEntity
  8
0
  6
CONTINUOUS
100
AcDbLine
 10
5.694951119555943
 20
7.833557969553937
 30
0.0
 11
4.765409089118624
 21
8.763099999991255
 31
0.0
  0
LINE
  5
1B247
330
1B202
100
AcDbEntity
  8
0
  6
CONTINUOUS
100
AcDbLine
 10
12.50286117236978
 20
1.699167125820288
 30
0.0
 11
9.68611877250287
 21
4.515909525687196
 31
0.0
  0
LINE
  5
1B248
330
1B202
100
AcDbEntity
  8
0
  6
CONTINUOUS
100
AcDbLine
 10
9.065465192851777
 20
5.136563105338288
 30
0.0
 11
7.989834395251757
 21
6.21219390293831
 31
0.0
  0
LINE
  5
1B249
330
1B202
100
AcDbEntity
  8
0
  6
CONTINUOUS
100
AcDbLine
 10
5.993039874401719
 20
8.208988423788346
 30
0.0
 11
5.43892829819881
 21
8.763099999991255
 31
0.0
  0
LINE
  5
1B24A
330
1B202
100
AcDbEntity
  8
0
  6
CONTINUOUS
100
AcDbLine
 10
11.95770871242671
 20
2.917838794843543
 30
0.0
 11
8.19801697298349
 21
6.677530534286761
 31
0.0
  0
LINE
  5
1B24B
330
1B202
100
AcDbEntity
  8
0
  6
CONTINUOUS
100
AcDbLine
 10
6.291128629247495
 20
8.584418878022756
 30
0.0
 11
6.112447507278997
 21
8.763099999991255
 31
0.0
  0
LINE
  5
1B24C
330
1B202
100
AcDbEntity
  8
0
  6
CONTINUOUS
100
AcDbLine
 10
11.41255625248364
 20
4.136510463866797
 30
0.0
 11
8.406199550715227
 21
7.142867165635211
 31
0.0
  0
LINE
  5
1B24D
330
1B202
100
AcDbEntity
  8
0
  6
CONTINUOUS
100
AcDbLine
 10
10.86740379254057
 20
5.355182132890051
 30
0.0
 11
8.614382128446962
 21
7.608203796983664
 31
0.0
  0
LINE
  5
1B24E
330
1B202
100
AcDbEntity
  8
0
  6
CONTINUOUS
100
AcDbLine
 10
10.3222513325975
 20
6.573853801913305
 30
0.0
 11
8.822564706178696
 21
8.073540428332114
 31
0.0
  0
LINE
  5
1B24F
330
1B202
100
AcDbEntity
  8
0
  6
CONTINUOUS
100
AcDbLine
 10
9.777098872654436
 20
7.792525470936562
 30
0.0
 11
9.030747283910433
 21
8.538877059680566
 31
0.0
  0
ENDBLK
  5
1B391
330
1B202
100
AcDbEntity
  8
0
100
AcDbBlockEnd
  0
BLOCK
  5
1B392
330
1B250
100
AcDbEntity
  8
0
100
AcDbBlockBegin
  2
*X147
 70
     1
 10
0.0
 20
0.0
 30
0.0
  3
*X147
  1

  0
LINE
  5
1B251
330
1B250
100
AcDbEntity
  8
0
  6
CONTINUOUS
100
AcDbLine
 10
10.67292308101235
 20
8.445076852443387
 30
0.0
 11
10.99094622856022
 21
8.763099999991255
 31
0.0
  0
LINE
  5
1B252
330
1B250
100
AcDbEntity
  8
0
  6
CONTINUOUS
100
AcDbLine
 10
10.87250383178748
 20
7.971138394138331
 30
0.0
 11
11.6644654376404
 21
8.763099999991255
 31
0.0
  0
LINE
  5
1B253
330
1B250
100
AcDbEntity
  8
0
  6
CONTINUOUS
100
AcDbLine
 10
11.07208458256261
 20
7.497199935833273
 30
0.0
 11
12.12126590876355
 21
8.546381262034211
 31
0.0
  0
LINE
  5
1B254
330
1B250
100
AcDbEntity
  8
0
  6
CONTINUOUS
100
AcDbLine
 10
11.27166533333774
 20
7.023261477528216
 30
0.0
 11
12.32085164573666
 21
8.072447789927136
 31
0.0
  0
LINE
  5
1B255
330
1B250
100
AcDbEntity
  8
0
  6
CONTINUOUS
100
AcDbLine
 10
11.47124608411287
 20
6.549323019223158
 30
0.0
 11
12.52043738270977
 21
7.59851431782006
 31
0.0
  0
LINE
  5
1B256
330
1B250
100
AcDbEntity
  8
0
  6
CONTINUOUS
100
AcDbLine
 10
11.670826834888
 20
6.075384560918101
 30
0.0
 11
12.72002311968288
 21
7.124580845712984
 31
0.0
  0
LINE
  5
1B257
330
1B250
100
AcDbEntity
  8
0
  6
CONTINUOUS
100
AcDbLine
 10
11.87040758566313
 20
5.601446102613043
 30
0.0
 11
12.91960885665599
 21
6.650647373605907
 31
0.0
  0
LINE
  5
1B258
330
1B250
100
AcDbEntity
  8
0
  6
CONTINUOUS
100
AcDbLine
 10
12.06998833643825
 20
5.127507644307986
 30
0.0
 11
13.1191945936291
 21
6.176713901498832
 31
0.0
  0
LINE
  5
1B259
330
1B250
100
AcDbEntity
  8
0
  6
CONTINUOUS
100
AcDbLine
 10
12.26956908721338
 20
4.65356918600293
 30
0.0
 11
13.31878033060221
 21
5.702780429391757
 31
0.0
  0
LINE
  5
1B25A
330
1B250
100
AcDbEntity
  8
0
  6
CONTINUOUS
100
AcDbLine
 10
12.46914983798851
 20
4.179630727697873
 30
0.0
 11
13.51836606757532
 21
5.228846957284683
 31
0.0
  0
LINE
  5
1B25B
330
1B250
100
AcDbEntity
  8
0
  6
CONTINUOUS
100
AcDbLine
 10
12.66873058876364
 20
3.705692269392816
 30
0.0
 11
13.71795180454843
 21
4.754913485177607
 31
0.0
  0
LINE
  5
1B25C
330
1B250
100
AcDbEntity
  8
0
  6
CONTINUOUS
100
AcDbLine
 10
12.86831133953877
 20
3.231753811087759
 30
0.0
 11
13.91753754152154
 21
4.280980013070531
 31
0.0
  0
LINE
  5
1B25D
330
1B250
100
AcDbEntity
  8
0
  6
CONTINUOUS
100
AcDbLine
 10
13.0678920903139
 20
2.757815352782702
 30
0.0
 11
14.11712327849465
 21
3.807046540963456
 31
0.0
  0
LINE
  5
1B25E
330
1B250
100
AcDbEntity
  8
0
  6
CONTINUOUS
100
AcDbLine
 10
13.26747284108903
 20
2.283876894477644
 30
0.0
 11
14.31670901546777
 21
3.333113068856379
 31
0.0
  0
LINE
  5
1B25F
330
1B250
100
AcDbEntity
  8
0
  6
CONTINUOUS
100
AcDbLine
 10
16.36767838827179
 20
8.751678487061342
 30
0.0
 11
16.50332410898388
 21
8.887324207773432
 31
0.0
  0
LINE
  5
1B260
330
1B250
100
AcDbEntity
  8
0
  6
CONTINUOUS
100
AcDbLine
 10
15.96190732182191
 20
7.67238821153127
 30
0.0
 11
16.68735328004734
 21
8.397834169756699
 31
0.0
  0
LINE
  5
1B261
330
1B250
100
AcDbEntity
  8
0
  6
CONTINUOUS
100
AcDbLine
 10
15.55613625537202
 20
6.593097936001196
 30
0.0
 11
16.87138245111079
 21
7.908344131739965
 31
0.0
  0
LINE
  5
1B262
330
1B250
100
AcDbEntity
  8
0
  6
CONTINUOUS
100
AcDbLine
 10
15.15036518892213
 20
5.513807660471122
 30
0.0
 11
17.05541162217424
 21
7.418854093723231
 31
0.0
  0
LINE
  5
1B263
330
1B250
100
AcDbEntity
  8
0
  6
CONTINUOUS
100
AcDbLine
 10
14.74459412247225
 20
4.434517384941048
 30
0.0
 11
17.2394407932377
 21
6.929364055706499
 31
0.0
  0
LINE
  5
1B264
330
1B250
100
AcDbEntity
  8
0
  6
CONTINUOUS
100
AcDbLine
 10
14.33882305602236
 20
3.355227109410975
 30
0.0
 11
17.42346996430115
 21
6.439874017689766
 31
0.0
  0
LINE
  5
1B265
330
1B250
100
AcDbEntity
  8
0
  6
CONTINUOUS
100
AcDbLine
 10
13.46705359186416
 20
1.809938436172586
 30
0.0
 11
16.0819338255367
 21
4.424818669845129
 31
0.0
  0
LINE
  5
1B266
330
1B250
100
AcDbEntity
  8
0
  6
CONTINUOUS
100
AcDbLine
 10
16.63283254238972
 20
4.975717386698149
 30
0.0
 11
17.60749913536461
 21
5.950383979673033
 31
0.0
  0
LINE
  5
1B267
330
1B250
100
AcDbEntity
  8
0
  6
CONTINUOUS
100
AcDbLine
 10
13.66663434263929
 20
1.335999977867529
 30
0.0
 11
15.67604797733754
 21
3.345413612565779
 31
0.0
  0
LINE
  5
1B268
330
1B250
100
AcDbEntity
  8
0
  6
CONTINUOUS
100
AcDbLine
 10
13.86621509341442
 20
0.8620615195624723
 30
0.0
 11
15.27016212913838
 21
2.26600855528643
 31
0.0
  0
LINE
  5
1B269
330
1B250
100
AcDbEntity
  8
0
  6
CONTINUOUS
100
AcDbLine
 10
16.81682257348267
 20
4.486188208710908
 30
0.0
 11
17.79152830642806
 21
5.460893941656299
 31
0.0
  0
LINE
  5
1B26A
330
1B250
100
AcDbEntity
  8
0
  6
CONTINUOUS
100
AcDbLine
 10
17.00081260457561
 20
3.996659030723667
 30
0.0
 11
17.97555747749151
 21
4.971403903639565
 31
0.0
  0
LINE
  5
1B26B
330
1B250
100
AcDbEntity
  8
0
  6
CONTINUOUS
100
AcDbLine
 10
20.74362343514722
 20
8.412989070375462
 30
0.0
 11
21.09373436476302
 21
8.763099999991256
 31
0.0
  0
LINE
  5
1B26C
330
1B250
100
AcDbEntity
  8
0
  6
CONTINUOUS
100
AcDbLine
 10
20.25401257174777
 20
7.249858997895826
 30
0.0
 11
21.7672535738432
 21
8.763099999991255
 31
0.0
  0
LINE
  5
1B26D
330
1B250
100
AcDbEntity
  8
0
  6
CONTINUOUS
100
AcDbLine
 10
14.06579584418955
 20
0.3881230612574149
 30
0.0
 11
14.86427628093921
 21
1.186603498007082
 31
0.0
  0
LINE
  5
1B26E
330
1B250
100
AcDbEntity
  8
0
  6
CONTINUOUS
100
AcDbLine
 10
14.26537659496467
 20
-0.0858153970476412
 30
0.0
 11
14.45839043274005
 21
0.1071984407277329
 31
0.0
  0
LINE
  5
1B26F
330
1B250
100
AcDbEntity
  8
0
  6
CONTINUOUS
100
AcDbLine
 10
17.18480263566856
 20
3.507129852736426
 30
0.0
 11
18.15958664855496
 21
4.481913865622833
 31
0.0
  0
LINE
  5
1B270
330
1B250
100
AcDbEntity
  8
0
  6
CONTINUOUS
100
AcDbLine
 10
17.3687926667615
 20
3.017600674749186
 30
0.0
 11
18.34361581961842
 21
3.9924238276061
 31
0.0
  0
LINE
  5
1B271
330
1B250
100
AcDbEntity
  8
0
  6
CONTINUOUS
100
AcDbLine
 10
19.76440170834832
 20
6.086728925416191
 30
0.0
 11
22.33924590259489
 21
8.661573119662755
 31
0.0
  0
LINE
  5
1B272
330
1B250
100
AcDbEntity
  8
0
  6
CONTINUOUS
100
AcDbLine
 10
19.27479084494887
 20
4.923598852936555
 30
0.0
 11
21.84929622842713
 21
7.498104236414807
 31
0.0
  0
LINE
  5
1B273
330
1B250
100
AcDbEntity
  8
0
  6
CONTINUOUS
100
AcDbLine
 10
17.55278269785445
 20
2.528071496761945
 30
0.0
 11
18.52764499068187
 21
3.502933789589366
 31
0.0
  0
LINE
  5
1B274
330
1B250
100
AcDbEntity
  8
0
  6
CONTINUOUS
100
AcDbLine
 10
18.78517998154942
 20
3.760468780456919
 30
0.0
 11
21.35934655425936
 21
6.33463535316686
 31
0.0
  0
LINE
  5
1B275
330
1B250
100
AcDbEntity
  8
0
  6
CONTINUOUS
100
AcDbLine
 10
17.73677272894739
 20
2.038542318774704
 30
0.0
 11
20.8693968800916
 21
5.171166469918914
 31
0.0
  0
LINE
  5
1B276
330
1B250
100
AcDbEntity
  8
0
  6
CONTINUOUS
100
AcDbLine
 10
17.92076276004034
 20
1.549013140787464
 30
0.0
 11
20.37944720592384
 21
4.007697586670968
 31
0.0
  0
LINE
  5
1B277
330
1B250
100
AcDbEntity
  8
0
  6
CONTINUOUS
100
AcDbLine
 10
18.10475279113329
 20
1.059483962800223
 30
0.0
 11
19.88949753175608
 21
2.84422870342302
 31
0.0
  0
LINE
  5
1B278
330
1B250
100
AcDbEntity
  8
0
  6
CONTINUOUS
100
AcDbLine
 10
18.28874282222623
 20
0.5699547848129822
 30
0.0
 11
19.39954785758832
 21
1.680759820175074
 31
0.0
  0
LINE
  5
1B279
330
1B250
100
AcDbEntity
  8
0
  6
CONTINUOUS
100
AcDbLine
 10
18.47273285331918
 20
0.0804256068257416
 30
0.0
 11
18.90959818342056
 21
0.517290936927127
 31
0.0
  0
LINE
  5
1B27A
330
1B250
100
AcDbEntity
  8
0
  6
CONTINUOUS
100
AcDbLine
 10
14.3590401358224
 20
-0.1570118376323384
 30
0.0
 11
14.24903296539946
 21
-0.0470046672093929
 31
0.0
  0
LINE
  5
1B27B
330
1B250
100
AcDbEntity
  8
0
  6
CONTINUOUS
100
AcDbLine
 10
14.54309291258661
 20
0.332454594683643
 30
0.0
 11
13.75908329123172
 21
1.116464216038529
 31
0.0
  0
LINE
  5
1B27C
330
1B250
100
AcDbEntity
  8
0
  6
CONTINUOUS
100
AcDbLine
 10
14.72714568935081
 20
0.8219210269996244
 30
0.0
 11
13.26913361706399
 21
2.27993309928645
 31
0.0
  0
LINE
  5
1B27D
330
1B250
100
AcDbEntity
  8
0
  6
CONTINUOUS
100
AcDbLine
 10
14.91119846611502
 20
1.311387459315606
 30
0.0
 11
12.77918394289625
 21
3.443401982534371
 31
0.0
  0
LINE
  5
1B27E
330
1B250
100
AcDbEntity
  8
0
  6
CONTINUOUS
100
AcDbLine
 10
15.09525124287922
 20
1.800853891631587
 30
0.0
 11
12.28923426872852
 21
4.606870865782293
 31
0.0
  0
LINE
  5
1B27F
330
1B250
100
AcDbEntity
  8
0
  6
CONTINUOUS
100
AcDbLine
 10
15.27930401964343
 20
2.290320323947569
 30
0.0
 11
11.79928459456078
 21
5.770339749030213
 31
0.0
  0
LINE
  5
1B280
330
1B250
100
AcDbEntity
  8
0
  6
CONTINUOUS
100
AcDbLine
 10
15.46335679640763
 20
2.77978675626355
 30
0.0
 11
14.48885470994921
 21
3.754288842721972
 31
0.0
  0
LINE
  5
1B281
330
1B250
100
AcDbEntity
  8
0
  6
CONTINUOUS
100
AcDbLine
 10
13.88507249233704
 20
4.358071060334137
 30
0.0
 11
11.30933492039305
 21
6.933808632278135
 31
0.0
  0
LINE
  5
1B282
330
1B250
100
AcDbEntity
  8
0
  6
CONTINUOUS
100
AcDbLine
 10
18.75840522805855
 20
0.1582575336928151
 30
0.0
 11
18.25383727664818
 21
0.6628254851031863
 31
0.0
  0
LINE
  5
1B283
330
1B250
100
AcDbEntity
  8
0
  6
CONTINUOUS
100
AcDbLine
 10
15.64740957317184
 20
3.269253188579531
 30
0.0
 11
14.67288388101266
 21
4.243778880738705
 31
0.0
  0
LINE
  5
1B284
330
1B250
100
AcDbEntity
  8
0
  6
CONTINUOUS
100
AcDbLine
 10
13.39509276772158
 20
5.521569994029786
 30
0.0
 11
10.81938524622531
 21
8.097277515526056
 31
0.0
  0
LINE
  5
1B285
330
1B250
100
AcDbEntity
  8
0
  6
CONTINUOUS
100
AcDbLine
 10
18.95798597883369
 20
0.6321959919978686
 30
0.0
 11
17.84825644852853
 21
1.741925522303024
 31
0.0
  0
LINE
  5
1B286
330
1B250
100
AcDbEntity
  8
0
  6
CONTINUOUS
100
AcDbLine
 10
19.15756672960882
 20
1.106134450302922
 30
0.0
 11
17.44267562040888
 21
2.821025559502861
 31
0.0
  0
LINE
  5
1B287
330
1B250
100
AcDbEntity
  8
0
  6
CONTINUOUS
100
AcDbLine
 10
15.83146234993604
 20
3.758719620895513
 30
0.0
 11
14.85691305207612
 21
4.733268918755439
 31
0.0
  0
LINE
  5
1B288
330
1B250
100
AcDbEntity
  8
0
  6
CONTINUOUS
100
AcDbLine
 10
16.01551512670025
 20
4.248186053211494
 30
0.0
 11
15.04094222313957
 21
5.222758956772172
 31
0.0
  0
LINE
  5
1B289
330
1B250
100
AcDbEntity
  8
0
  6
CONTINUOUS
100
AcDbLine
 10
12.90511304310612
 20
6.685068927725435
 30
0.0
 11
10.8270819708403
 21
8.763099999991255
 31
0.0
  0
LINE
  5
1B28A
330
1B250
100
AcDbEntity
  8
0
  6
CONTINUOUS
100
AcDbLine
 10
12.41513331849066
 20
7.848567861421083
 30
0.0
 11
11.50060117992049
 21
8.763099999991255
 31
0.0
  0
LINE
  5
1B28B
330
1B250
100
AcDbEntity
  8
0
  6
CONTINUOUS
100
AcDbLine
 10
19.35714748038395
 20
1.580072908607975
 30
0.0
 11
17.03709479228923
 21
3.900125596702697
 31
0.0
  0
LINE
  5
1B28C
330
1B250
100
AcDbEntity
  8
0
  6
CONTINUOUS
100
AcDbLine
 10
19.55672823115909
 20
2.054011366913028
 30
0.0
 11
16.63151396416958
 21
4.979225633902534
 31
0.0
  0
LINE
  5
1B28D
330
1B250
100
AcDbEntity
  8
0
  6
CONTINUOUS
100
AcDbLine
 10
16.19956790346445
 20
4.737652485527476
 30
0.0
 11
15.22497139420302
 21
5.712248994788904
 31
0.0
  0
LINE
  5
1B28E
330
1B250
100
AcDbEntity
  8
0
  6
CONTINUOUS
100
AcDbLine
 10
16.38362068022866
 20
5.227118917843457
 30
0.0
 11
15.40900056526648
 21
6.201739032805637
 31
0.0
  0
LINE
  5
1B28F
330
1B250
100
AcDbEntity
  8
0
  6
CONTINUOUS
100
AcDbLine
 10
19.75630898193422
 20
2.527949825218081
 30
0.0
 11
18.70774536448286
 21
3.576513442669441
 31
0.0
  0
LINE
  5
1B290
330
1B250
100
AcDbEntity
  8
0
  6
CONTINUOUS
100
AcDbLine
 10
19.95588973270936
 20
3.001888283523134
 30
0.0
 11
18.90726987211446
 21
4.050508144118028
 31
0.0
  0
LINE
  5
1B291
330
1B250
100
AcDbEntity
  8
0
  6
CONTINUOUS
100
AcDbLine
 10
20.15547048348449
 20
3.475826741828186
 30
0.0
 11
19.10679437974606
 21
4.524502845566614
 31
0.0
  0
LINE
  5
1B292
330
1B250
100
AcDbEntity
  8
0
  6
CONTINUOUS
100
AcDbLine
 10
20.35505123425962
 20
3.94976520013324
 30
0.0
 11
19.30631888737766
 21
4.998497547015201
 31
0.0
  0
LINE
  5
1B293
330
1B250
100
AcDbEntity
  8
0
  6
CONTINUOUS
100
AcDbLine
 10
20.55463198503475
 20
4.423703658438292
 30
0.0
 11
19.50584339500926
 21
5.472492248463787
 31
0.0
  0
LINE
  5
1B294
330
1B250
100
AcDbEntity
  8
0
  6
CONTINUOUS
100
AcDbLine
 10
18.37481191085755
 20
3.909446896294752
 30
0.0
 11
15.59302973632993
 21
6.691229070822371
 31
0.0
  0
LINE
  5
1B295
330
1B250
100
AcDbEntity
  8
0
  6
CONTINUOUS
100
AcDbLine
 10
17.96904084440766
 20
4.988737171824825
 30
0.0
 11
15.77705890739338
 21
7.180719108839104
 31
0.0
  0
LINE
  5
1B296
330
1B250
100
AcDbEntity
  8
0
  6
CONTINUOUS
100
AcDbLine
 10
17.56326977795777
 20
6.068027447354899
 30
0.0
 11
15.96108807845684
 21
7.670209146855838
 31
0.0
  0
LINE
  5
1B297
330
1B250
100
AcDbEntity
  8
0
  6
CONTINUOUS
100
AcDbLine
 10
17.15749871150789
 20
7.147317722884972
 30
0.0
 11
16.14511724952029
 21
8.15969918487257
 31
0.0
  0
LINE
  5
1B298
330
1B250
100
AcDbEntity
  8
0
  6
CONTINUOUS
100
AcDbLine
 10
16.751727645058
 20
8.226607998415046
 30
0.0
 11
16.32914642058374
 21
8.649189222889303
 31
0.0
  0
LINE
  5
1B299
330
1B250
100
AcDbEntity
  8
0
  6
CONTINUOUS
100
AcDbLine
 10
20.75421273580989
 20
4.897642116743345
 30
0.0
 11
19.70536790264086
 21
5.946486949912374
 31
0.0
  0
LINE
  5
1B29A
330
1B250
100
AcDbEntity
  8
0
  6
CONTINUOUS
100
AcDbLine
 10
20.95379348658502
 20
5.371580575048398
 30
0.0
 11
19.90489241027246
 21
6.42048165136096
 31
0.0
  0
LINE
  5
1B29B
330
1B250
100
AcDbEntity
  8
0
  6
CONTINUOUS
100
AcDbLine
 10
21.15337423736015
 20
5.845519033353452
 30
0.0
 11
20.10441691790406
 21
6.894476352809547
 31
0.0
  0
LINE
  5
1B29C
330
1B250
100
AcDbEntity
  8
0
  6
CONTINUOUS
100
AcDbLine
 10
21.35295498813529
 20
6.319457491658505
 30
0.0
 11
20.30394142553566
 21
7.368471054258134
 31
0.0
  0
LINE
  5
1B29D
330
1B250
100
AcDbEntity
  8
0
  6
CONTINUOUS
100
AcDbLine
 10
21.55253573891042
 20
6.793395949963558
 30
0.0
 11
20.50346593316726
 21
7.842465755706721
 31
0.0
  0
LINE
  5
1B29E
330
1B250
100
AcDbEntity
  8
0
  6
CONTINUOUS
100
AcDbLine
 10
21.75211648968556
 20
7.267334408268612
 30
0.0
 11
20.70299044079886
 21
8.316460457155308
 31
0.0
  0
LINE
  5
1B29F
330
1B250
100
AcDbEntity
  8
0
  6
CONTINUOUS
100
AcDbLine
 10
21.95169724046069
 20
7.741272866573663
 30
0.0
 11
20.9298701070431
 21
8.763099999991256
 31
0.0
  0
LINE
  5
1B2A0
330
1B250
100
AcDbEntity
  8
0
  6
CONTINUOUS
100
AcDbLine
 10
22.15127799123582
 20
8.215211324878716
 30
0.0
 11
21.60338931612328
 21
8.763099999991256
 31
0.0
  0
LINE
  5
1B2A1
330
1B250
100
AcDbEntity
  8
0
  6
CONTINUOUS
100
AcDbLine
 10
22.35085874201096
 20
8.689149783183769
 30
0.0
 11
22.27690852520347
 21
8.763099999991255
 31
0.0
  0
ENDBLK
  5
1B393
330
1B250
100
AcDbEntity
  8
0
100
AcDbBlockEnd
  0
BLOCK
  5
1B394
330
1B2A2
100
AcDbEntity
  8
0
100
AcDbBlockBegin
  2
*X148
 70
     1
 10
0.0
 20
0.0
 30
0.0
  3
*X148
  1

  0
LINE
  5
1B2A3
330
1B2A2
100
AcDbEntity
  8
0
  6
CONTINUOUS
100
AcDbLine
 10
23.19462913593892
 20
8.169917934846424
 30
0.0
 11
23.70775465517246
 21
8.683043454079957
 31
0.0
  0
LINE
  5
1B2A4
330
1B2A2
100
AcDbEntity
  8
0
  6
CONTINUOUS
100
AcDbLine
 10
22.64923161835078
 20
6.951001208178088
 30
0.0
 11
23.9159364069932
 21
8.217705996820516
 31
0.0
  0
LINE
  5
1B2A5
330
1B2A2
100
AcDbEntity
  8
0
  6
CONTINUOUS
100
AcDbLine
 10
22.10383410076263
 20
5.732084481509751
 30
0.0
 11
24.12411815881395
 21
7.752368539561078
 31
0.0
  0
LINE
  5
1B2A6
330
1B2A2
100
AcDbEntity
  8
0
  6
CONTINUOUS
100
AcDbLine
 10
21.55843658317447
 20
4.513167754841414
 30
0.0
 11
24.3322999106347
 21
7.287031082301639
 31
0.0
  0
LINE
  5
1B2A7
330
1B2A2
100
AcDbEntity
  8
0
  6
CONTINUOUS
100
AcDbLine
 10
21.01303906558632
 20
3.294251028173077
 30
0.0
 11
24.54048166245544
 21
6.821693625042199
 31
0.0
  0
LINE
  5
1B2A8
330
1B2A2
100
AcDbEntity
  8
0
  6
CONTINUOUS
100
AcDbLine
 10
20.46764154799817
 20
2.075334301504738
 30
0.0
 11
23.28571549467848
 21
4.89340824818505
 31
0.0
  0
LINE
  5
1B2A9
330
1B2A2
100
AcDbEntity
  8
0
  6
CONTINUOUS
100
AcDbLine
 10
19.92224403041002
 20
0.8564175748364002
 30
0.0
 11
22.74075865492779
 21
3.674932199354171
 31
0.0
  0
LINE
  5
1B2AA
330
1B2A2
100
AcDbEntity
  8
0
  6
CONTINUOUS
100
AcDbLine
 10
23.67305085490148
 20
5.280743608408048
 30
0.0
 11
24.74866341427619
 21
6.356356167782759
 31
0.0
  0
LINE
  5
1B2AB
330
1B2A2
100
AcDbEntity
  8
0
  6
CONTINUOUS
100
AcDbLine
 10
23.88118970842314
 20
4.815363252849522
 30
0.0
 11
24.95684516609694
 21
5.89101871052332
 31
0.0
  0
LINE
  5
1B2AC
330
1B2A2
100
AcDbEntity
  8
0
  6
CONTINUOUS
100
AcDbLine
 10
19.73925852647308
 20
-0.0000871381807288
 30
0.0
 11
23.4103456646501
 21
3.670999999996297
 31
0.0
  0
LINE
  5
1B2AD
330
1B2A2
100
AcDbEntity
  8
0
  6
CONTINUOUS
100
AcDbLine
 10
24.0893285619448
 20
4.349982897290997
 30
0.0
 11
25.16502691791769
 21
5.42568125326388
 31
0.0
  0
LINE
  5
1B2AE
330
1B2A2
100
AcDbEntity
  8
0
  6
CONTINUOUS
100
AcDbLine
 10
20.41282099582748
 20
-0.0000438779065108
 30
0.0
 11
21.64944178675636
 21
1.236576913022366
 31
0.0
  0
LINE
  5
1B2AF
330
1B2A2
100
AcDbEntity
  8
0
  6
CONTINUOUS
100
AcDbLine
 10
22.78126487373161
 20
2.36839999999762
 30
0.0
 11
24.08386487373029
 21
3.670999999996297
 31
0.0
  0
LINE
  5
1B2B0
330
1B2A2
100
AcDbEntity
  8
0
  6
CONTINUOUS
100
AcDbLine
 10
24.29746741546646
 20
3.884602541732471
 30
0.0
 11
25.37320866973843
 21
4.960343796004441
 31
0.0
  0
LINE
  5
1B2B1
330
1B2A2
100
AcDbEntity
  8
0
  6
CONTINUOUS
100
AcDbLine
 10
21.08638346518189
 20
-0.0000006176322938
 30
0.0
 11
21.10379033335899
 21
0.0174062505448083
 31
0.0
  0
LINE
  5
1B2B2
330
1B2A2
100
AcDbEntity
  8
0
  6
CONTINUOUS
100
AcDbLine
 10
23.4547840828118
 20
2.36839999999762
 30
0.0
 11
25.58139042155918
 21
4.495006338745002
 31
0.0
  0
LINE
  5
1B2B3
330
1B2A2
100
AcDbEntity
  8
0
  6
CONTINUOUS
100
AcDbLine
 10
29.30199999996933
 20
8.215615917155148
 30
0.0
 11
29.84948408280543
 21
8.763099999991255
 31
0.0
  0
LINE
  5
1B2B4
330
1B2A2
100
AcDbEntity
  8
0
  6
CONTINUOUS
100
AcDbLine
 10
24.12830329189199
 20
2.36839999999762
 30
0.0
 11
25.78957217337993
 21
4.029668881485562
 31
0.0
  0
LINE
  5
1B2B5
330
1B2A2
100
AcDbEntity
  8
0
  6
CONTINUOUS
100
AcDbLine
 10
29.30199999996933
 20
7.54209670807496
 30
0.0
 11
30.52300329188562
 21
8.763099999991255
 31
0.0
  0
LINE
  5
1B2B6
330
1B2A2
100
AcDbEntity
  8
0
  6
CONTINUOUS
100
AcDbLine
 10
24.80182250097217
 20
2.36839999999762
 30
0.0
 11
25.99775392520067
 21
3.564331424226122
 31
0.0
  0
LINE
  5
1B2B7
330
1B2A2
100
AcDbEntity
  8
0
  6
CONTINUOUS
100
AcDbLine
 10
29.30199999996933
 20
6.868577498994774
 30
0.0
 11
30.74199999996926
 21
8.308577498994712
 31
0.0
  0
LINE
  5
1B2B8
330
1B2A2
100
AcDbEntity
  8
0
  6
CONTINUOUS
100
AcDbLine
 10
25.13028238392013
 20
2.023340673865392
 30
0.0
 11
26.20593567702142
 21
3.098993966966683
 31
0.0
  0
LINE
  5
1B2B9
330
1B2A2
100
AcDbEntity
  8
0
  6
CONTINUOUS
100
AcDbLine
 10
25.33838066033617
 20
1.557919741201244
 30
0.0
 11
26.41411742884217
 21
2.633656509707244
 31
0.0
  0
LINE
  5
1B2BA
330
1B2A2
100
AcDbEntity
  8
0
  6
CONTINUOUS
100
AcDbLine
 10
25.54647893675221
 20
1.092498808537098
 30
0.0
 11
26.62229918066291
 21
2.168319052447804
 31
0.0
  0
LINE
  5
1B2BB
330
1B2A2
100
AcDbEntity
  8
0
  6
CONTINUOUS
100
AcDbLine
 10
25.75457721316825
 20
0.62707787587295
 30
0.0
 11
26.83048093248366
 21
1.702981595188365
 31
0.0
  0
LINE
  5
1B2BC
330
1B2A2
100
AcDbEntity
  8
0
  6
CONTINUOUS
100
AcDbLine
 10
29.30199999996933
 20
6.195058289914587
 30
0.0
 11
30.74199999996926
 21
7.635058289914522
 31
0.0
  0
LINE
  5
1B2BD
330
1B2A2
100
AcDbEntity
  8
0
  6
CONTINUOUS
100
AcDbLine
 10
29.30199999996933
 20
5.521539080834401
 30
0.0
 11
30.74199999996926
 21
6.961539080834331
 31
0.0
  0
LINE
  5
1B2BE
330
1B2A2
100
AcDbEntity
  8
0
  6
CONTINUOUS
100
AcDbLine
 10
29.30199999996933
 20
4.848019871754214
 30
0.0
 11
30.74199999996925
 21
6.288019871754143
 31
0.0
  0
LINE
  5
1B2BF
330
1B2A2
100
AcDbEntity
  8
0
  6
CONTINUOUS
100
AcDbLine
 10
29.30199999996933
 20
4.174500662674028
 30
0.0
 11
30.74199999996925
 21
5.614500662673953
 31
0.0
  0
LINE
  5
1B2C0
330
1B2A2
100
AcDbEntity
  8
0
  6
CONTINUOUS
100
AcDbLine
 10
25.96267548958429
 20
0.1616569432088024
 30
0.0
 11
27.18411854636669
 21
1.383099999991207
 31
0.0
  0
LINE
  5
1B2C1
330
1B2A2
100
AcDbEntity
  8
0
  6
CONTINUOUS
100
AcDbLine
 10
29.30199999996933
 20
3.500981453593841
 30
0.0
 11
30.74199999996925
 21
4.940981453593762
 31
0.0
  0
LINE
  5
1B2C2
330
1B2A2
100
AcDbEntity
  8
0
  6
CONTINUOUS
100
AcDbLine
 10
26.50763775544691
 20
0.0330999999912356
 30
0.0
 11
27.85763775544689
 21
1.383099999991223
 31
0.0
  0
LINE
  5
1B2C3
330
1B2A2
100
AcDbEntity
  8
0
  6
CONTINUOUS
100
AcDbLine
 10
29.30199999996933
 20
2.827462244513656
 30
0.0
 11
30.74199999996925
 21
4.267462244513574
 31
0.0
  0
LINE
  5
1B2C4
330
1B2A2
100
AcDbEntity
  8
0
  6
CONTINUOUS
100
AcDbLine
 10
27.18115696452709
 20
0.0330999999912356
 30
0.0
 11
28.55073879889363
 21
1.402681834357775
 31
0.0
  0
LINE
  5
1B2C5
330
1B2A2
100
AcDbEntity
  8
0
  6
CONTINUOUS
100
AcDbLine
 10
29.28241816560272
 20
2.134361201066866
 30
0.0
 11
30.74199999996924
 21
3.593943035433383
 31
0.0
  0
LINE
  5
1B2C6
330
1B2A2
100
AcDbEntity
  8
0
  6
CONTINUOUS
100
AcDbLine
 10
27.85467617360728
 20
0.0330999999912356
 30
0.0
 11
30.74199999996924
 21
2.920423826353195
 31
0.0
  0
LINE
  5
1B2C7
330
1B2A2
100
AcDbEntity
  8
0
  6
CONTINUOUS
100
AcDbLine
 10
28.53897559587887
 20
0.0438802131826428
 30
0.0
 11
30.73121978677781
 21
2.236124404081585
 31
0.0
  0
LINE
  5
1B2C8
330
1B2A2
100
AcDbEntity
  8
0
  6
CONTINUOUS
100
AcDbLine
 10
29.45140055588722
 20
0.2827859641107988
 30
0.0
 11
30.49231403584965
 21
1.323699444073236
 31
0.0
  0
LINE
  5
1B2C9
330
1B2A2
100
AcDbEntity
  8
0
  6
CONTINUOUS
100
AcDbLine
 10
19.59027867740337
 20
-0.0000967065718083
 30
0.0
 11
19.55485265190471
 21
0.035329318926844
 31
0.0
  0
LINE
  5
1B2CA
330
1B2A2
100
AcDbEntity
  8
0
  6
CONTINUOUS
100
AcDbLine
 10
20.26375463176586
 20
-0.0000534518541091
 30
0.0
 11
19.76305575737534
 21
0.5006454225364014
 31
0.0
  0
LINE
  5
1B2CB
330
1B2A2
100
AcDbEntity
  8
0
  6
CONTINUOUS
100
AcDbLine
 10
20.93723058612834
 20
-0.0000101971364099
 30
0.0
 11
19.97125886284597
 21
0.965961526145958
 31
0.0
  0
LINE
  5
1B2CC
330
1B2A2
100
AcDbEntity
  8
0
  6
CONTINUOUS
100
AcDbLine
 10
21.25514828313686
 20
0.355591314935257
 30
0.0
 11
20.1794619683166
 21
1.431277629755512
 31
0.0
  0
LINE
  5
1B2CD
330
1B2A2
100
AcDbEntity
  8
0
  6
CONTINUOUS
100
AcDbLine
 10
21.46338838394921
 20
0.8208704232030986
 30
0.0
 11
20.38766507378723
 21
1.896593733365069
 31
0.0
  0
LINE
  5
1B2CE
330
1B2A2
100
AcDbEntity
  8
0
  6
CONTINUOUS
100
AcDbLine
 10
21.67162848476155
 20
1.28614953147094
 30
0.0
 11
20.59586817925786
 21
2.361909836974626
 31
0.0
  0
LINE
  5
1B2CF
330
1B2A2
100
AcDbEntity
  8
0
  6
CONTINUOUS
100
AcDbLine
 10
21.8798685855739
 20
1.751428639738782
 30
0.0
 11
20.80407128472849
 21
2.827225940584183
 31
0.0
  0
LINE
  5
1B2D0
330
1B2A2
100
AcDbEntity
  8
0
  6
CONTINUOUS
100
AcDbLine
 10
22.08810868638624
 20
2.216707748006623
 30
0.0
 11
21.01227439019912
 21
3.292542044193739
 31
0.0
  0
LINE
  5
1B2D1
330
1B2A2
100
AcDbEntity
  8
0
  6
CONTINUOUS
100
AcDbLine
 10
22.60993564347543
 20
2.36839999999762
 30
0.0
 11
21.22047749566975
 21
3.757858147803296
 31
0.0
  0
LINE
  5
1B2D2
330
1B2A2
100
AcDbEntity
  8
0
  6
CONTINUOUS
100
AcDbLine
 10
23.28345485255561
 20
2.36839999999762
 30
0.0
 11
21.42868060114038
 21
4.223174251412853
 31
0.0
  0
LINE
  5
1B2D3
330
1B2A2
100
AcDbEntity
  8
0
  6
CONTINUOUS
100
AcDbLine
 10
26.29227406164219
 20
0.0330999999912356
 30
0.0
 11
25.80009199592872
 21
0.5252820657046957
 31
0.0
  0
LINE
  5
1B2D4
330
1B2A2
100
AcDbEntity
  8
0
  6
CONTINUOUS
100
AcDbLine
 10
23.9569740616358
 20
2.36839999999762
 30
0.0
 11
21.63688370661101
 21
4.688490355022409
 31
0.0
  0
LINE
  5
1B2D5
330
1B2A2
100
AcDbEntity
  8
0
  6
CONTINUOUS
100
AcDbLine
 10
26.96579327072237
 20
0.0330999999912356
 30
0.0
 11
25.2554132311971
 21
1.743480039516508
 31
0.0
  0
LINE
  5
1B2D6
330
1B2A2
100
AcDbEntity
  8
0
  6
CONTINUOUS
100
AcDbLine
 10
24.63049327071599
 20
2.36839999999762
 30
0.0
 11
23.32789327071731
 21
3.670999999996297
 31
0.0
  0
LINE
  5
1B2D7
330
1B2A2
100
AcDbEntity
  8
0
  6
CONTINUOUS
100
AcDbLine
 10
22.92098674744635
 20
4.077906523267254
 30
0.0
 11
21.84508681208164
 21
5.153806458631966
 31
0.0
  0
LINE
  5
1B2D8
330
1B2A2
100
AcDbEntity
  8
0
  6
CONTINUOUS
100
AcDbLine
 10
27.63931247980256
 20
0.0330999999912356
 30
0.0
 11
24.0014124797975
 21
3.670999999996297
 31
0.0
  0
LINE
  5
1B2D9
330
1B2A2
100
AcDbEntity
  8
0
  6
CONTINUOUS
100
AcDbLine
 10
23.129125600968
 20
4.5432868788258
 30
0.0
 11
22.05328991755227
 21
5.619122562241522
 31
0.0
  0
LINE
  5
1B2DA
330
1B2A2
100
AcDbEntity
  8
0
  6
CONTINUOUS
100
AcDbLine
 10
28.31283168888275
 20
0.0330999999912356
 30
0.0
 11
24.16488385994816
 21
4.181047828925828
 31
0.0
  0
LINE
  5
1B2DB
330
1B2A2
100
AcDbEntity
  8
0
  6
CONTINUOUS
100
AcDbLine
 10
23.33726445448964
 20
5.008667234384345
 30
0.0
 11
22.2614930230229
 21
6.084438665851079
 31
0.0
  0
LINE
  5
1B2DC
330
1B2A2
100
AcDbEntity
  8
0
  6
CONTINUOUS
100
AcDbLine
 10
28.92085740005492
 20
0.0985934978992438
 30
0.0
 11
27.63635089796295
 21
1.383099999991217
 31
0.0
  0
LINE
  5
1B2DD
330
1B2A2
100
AcDbEntity
  8
0
  6
CONTINUOUS
100
AcDbLine
 10
26.43704649509776
 20
2.582404402856405
 30
0.0
 11
23.61992702019732
 21
5.399523877756844
 31
0.0
  0
LINE
  5
1B2DE
330
1B2A2
100
AcDbEntity
  8
0
  6
CONTINUOUS
100
AcDbLine
 10
23.54540330801128
 20
5.47404758994289
 30
0.0
 11
22.46969612849353
 21
6.549754769460635
 31
0.0
  0
LINE
  5
1B2DF
330
1B2A2
100
AcDbEntity
  8
0
  6
CONTINUOUS
100
AcDbLine
 10
29.42225615078443
 20
0.2707139562499279
 30
0.0
 11
28.30987010704312
 21
1.383099999991234
 31
0.0
  0
LINE
  5
1B2E0
330
1B2A2
100
AcDbEntity
  8
0
  6
CONTINUOUS
100
AcDbLine
 10
25.89179548232307
 20
3.801174624711282
 30
0.0
 11
22.67789923396416
 21
7.015070873070191
 31
0.0
  0
LINE
  5
1B2E1
330
1B2A2
100
AcDbEntity
  8
0
  6
CONTINUOUS
100
AcDbLine
 10
29.83624534690007
 20
0.5302439692144705
 30
0.0
 11
28.85811781497101
 21
1.508371501143527
 31
0.0
  0
LINE
  5
1B2E2
330
1B2A2
100
AcDbEntity
  8
0
  6
CONTINUOUS
100
AcDbLine
 10
25.34654446954838
 20
5.01994484656616
 30
0.0
 11
22.88610233943479
 21
7.480386976679748
 31
0.0
  0
LINE
  5
1B2E3
330
1B2A2
100
AcDbEntity
  8
0
  6
CONTINUOUS
100
AcDbLine
 10
30.17865975401872
 20
0.8613487711760022
 30
0.0
 11
29.18888744090175
 21
1.851121084292977
 31
0.0
  0
LINE
  5
1B2E4
330
1B2A2
100
AcDbEntity
  8
0
  6
CONTINUOUS
100
AcDbLine
 10
24.80129345677369
 20
6.238715068421037
 30
0.0
 11
23.09430544490542
 21
7.945703080289305
 31
0.0
  0
LINE
  5
1B2E5
330
1B2A2
100
AcDbEntity
  8
0
  6
CONTINUOUS
100
AcDbLine
 10
30.45496647202376
 20
1.258561262251155
 30
0.0
 11
29.30199999996933
 21
2.411527734305588
 31
0.0
  0
LINE
  5
1B2E6
330
1B2A2
100
AcDbEntity
  8
0
  6
CONTINUOUS
100
AcDbLine
 10
24.256042443999
 20
7.457485290275915
 30
0.0
 11
23.30250855037605
 21
8.411019183898862
 31
0.0
  0
LINE
  5
1B2E7
330
1B2A2
100
AcDbEntity
  8
0
  6
CONTINUOUS
100
AcDbLine
 10
30.64868582078271
 20
1.738361122572387
 30
0.0
 11
29.30199999996933
 21
3.085046943385775
 31
0.0
  0
LINE
  5
1B2E8
330
1B2A2
100
AcDbEntity
  8
0
  6
CONTINUOUS
100
AcDbLine
 10
23.71079143122431
 20
8.676255512130794
 30
0.0
 11
23.51071165584668
 21
8.876335287508416
 31
0.0
  0
LINE
  5
1B2E9
330
1B2A2
100
AcDbEntity
  8
0
  6
CONTINUOUS
100
AcDbLine
 10
30.73802122914428
 20
2.322544923291007
 30
0.0
 11
29.30199999996933
 21
3.758566152465961
 31
0.0
  0
LINE
  5
1B2EA
330
1B2A2
100
AcDbEntity
  8
0
  6
CONTINUOUS
100
AcDbLine
 10
30.74199999996924
 20
2.992085361546236
 30
0.0
 11
29.30199999996933
 21
4.432085361546148
 31
0.0
  0
LINE
  5
1B2EB
330
1B2A2
100
AcDbEntity
  8
0
  6
CONTINUOUS
100
AcDbLine
 10
30.74199999996924
 20
3.665604570626419
 30
0.0
 11
29.30199999996933
 21
5.105604570626333
 31
0.0
  0
LINE
  5
1B2EC
330
1B2A2
100
AcDbEntity
  8
0
  6
CONTINUOUS
100
AcDbLine
 10
30.74199999996925
 20
4.339123779706602
 30
0.0
 11
29.30199999996933
 21
5.77912377970652
 31
0.0
  0
LINE
  5
1B2ED
330
1B2A2
100
AcDbEntity
  8
0
  6
CONTINUOUS
100
AcDbLine
 10
30.74199999996925
 20
5.012642988786785
 30
0.0
 11
29.30199999996933
 21
6.452642988786707
 31
0.0
  0
LINE
  5
1B2EE
330
1B2A2
100
AcDbEntity
  8
0
  6
CONTINUOUS
100
AcDbLine
 10
30.74199999996925
 20
5.68616219786697
 30
0.0
 11
29.30199999996933
 21
7.126162197866894
 31
0.0
  0
LINE
  5
1B2EF
330
1B2A2
100
AcDbEntity
  8
0
  6
CONTINUOUS
100
AcDbLine
 10
30.74199999996925
 20
6.359681406947153
 30
0.0
 11
29.30199999996933
 21
7.799681406947081
 31
0.0
  0
LINE
  5
1B2F0
330
1B2A2
100
AcDbEntity
  8
0
  6
CONTINUOUS
100
AcDbLine
 10
30.74199999996926
 20
7.033200616027337
 30
0.0
 11
29.30199999996933
 21
8.473200616027269
 31
0.0
  0
LINE
  5
1B2F1
330
1B2A2
100
AcDbEntity
  8
0
  6
CONTINUOUS
100
AcDbLine
 10
30.74199999996926
 20
7.706719825107518
 30
0.0
 11
29.68561982508552
 21
8.763099999991255
 31
0.0
  0
LINE
  5
1B2F2
330
1B2A2
100
AcDbEntity
  8
0
  6
CONTINUOUS
100
AcDbLine
 10
30.74199999996926
 20
8.380239034187703
 30
0.0
 11
30.35913903416571
 21
8.763099999991255
 31
0.0
  0
ENDBLK
  5
1B395
330
1B2A2
100
AcDbEntity
  8
0
100
AcDbBlockEnd
  0
BLOCK
  5
1B396
330
1B2F3
100
AcDbEntity
  8
0
100
AcDbBlockBegin
  2
*X149
 70
     1
 10
0.0
 20
0.0
 30
0.0
  3
*X149
  1

  0
LINE
  5
1B2F4
330
1B2F3
100
AcDbEntity
  8
0
  6
CONTINUOUS
100
AcDbLine
 10
31.64199999996833
 20
8.535058289913598
 30
0.0
 11
31.87004171004599
 21
8.763099999991255
 31
0.0
  0
LINE
  5
1B2F5
330
1B2F3
100
AcDbEntity
  8
0
  6
CONTINUOUS
100
AcDbLine
 10
31.64199999996833
 20
7.861539080833412
 30
0.0
 11
32.54356091912618
 21
8.763099999991255
 31
0.0
  0
LINE
  5
1B2F6
330
1B2F3
100
AcDbEntity
  8
0
  6
CONTINUOUS
100
AcDbLine
 10
31.64199999996833
 20
7.188019871753226
 30
0.0
 11
33.08199999996839
 21
8.628019871753281
 31
0.0
  0
LINE
  5
1B2F7
330
1B2F3
100
AcDbEntity
  8
0
  6
CONTINUOUS
100
AcDbLine
 10
31.64199999996833
 20
6.51450066267304
 30
0.0
 11
33.08199999996839
 21
7.954500662673095
 31
0.0
  0
LINE
  5
1B2F8
330
1B2F3
100
AcDbEntity
  8
0
  6
CONTINUOUS
100
AcDbLine
 10
31.64199999996833
 20
5.840981453592853
 30
0.0
 11
33.08199999996839
 21
7.280981453592908
 31
0.0
  0
LINE
  5
1B2F9
330
1B2F3
100
AcDbEntity
  8
0
  6
CONTINUOUS
100
AcDbLine
 10
31.64199999996833
 20
5.167462244512667
 30
0.0
 11
33.08199999996839
 21
6.607462244512721
 31
0.0
  0
LINE
  5
1B2FA
330
1B2F3
100
AcDbEntity
  8
0
  6
CONTINUOUS
100
AcDbLine
 10
31.64199999996833
 20
4.493943035432481
 30
0.0
 11
33.08199999996839
 21
5.933943035432535
 31
0.0
  0
LINE
  5
1B2FB
330
1B2F3
100
AcDbEntity
  8
0
  6
CONTINUOUS
100
AcDbLine
 10
31.64199999996833
 20
3.820423826352293
 30
0.0
 11
33.08199999996839
 21
5.260423826352348
 31
0.0
  0
LINE
  5
1B2FC
330
1B2F3
100
AcDbEntity
  8
0
  6
CONTINUOUS
100
AcDbLine
 10
31.64199999996833
 20
3.146904617272106
 30
0.0
 11
33.08199999996839
 21
4.586904617272161
 31
0.0
  0
LINE
  5
1B2FD
330
1B2F3
100
AcDbEntity
  8
0
  6
CONTINUOUS
100
AcDbLine
 10
36.23199999996837
 20
8.410423826352325
 30
0.0
 11
36.5846761736073
 21
8.763099999991255
 31
0.0
  0
LINE
  5
1B2FE
330
1B2F3
100
AcDbEntity
  8
0
  6
CONTINUOUS
100
AcDbLine
 10
36.23199999996837
 20
7.73690461727214
 30
0.0
 11
37.25819538268748
 21
8.763099999991255
 31
0.0
  0
LINE
  5
1B2FF
330
1B2F3
100
AcDbEntity
  8
0
  6
CONTINUOUS
100
AcDbLine
 10
31.64257403601376
 20
2.473959444237348
 30
0.0
 11
33.08199999996839
 21
3.913385408191974
 31
0.0
  0
LINE
  5
1B300
330
1B2F3
100
AcDbEntity
  8
0
  6
CONTINUOUS
100
AcDbLine
 10
36.23199999996837
 20
7.063385408191953
 30
0.0
 11
37.67199999996831
 21
8.503385408191894
 31
0.0
  0
LINE
  5
1B301
330
1B2F3
100
AcDbEntity
  8
0
  6
CONTINUOUS
100
AcDbLine
 10
31.72013636841932
 20
1.87800256756272
 30
0.0
 11
33.08199999996839
 21
3.239866199111788
 31
0.0
  0
LINE
  5
1B302
330
1B2F3
100
AcDbEntity
  8
0
  6
CONTINUOUS
100
AcDbLine
 10
36.23199999996837
 20
6.389866199111767
 30
0.0
 11
37.67199999996831
 21
7.829866199111708
 31
0.0
  0
LINE
  5
1B303
330
1B2F3
100
AcDbEntity
  8
0
  6
CONTINUOUS
100
AcDbLine
 10
31.89042734314753
 20
1.374774333210744
 30
0.0
 11
33.08199999996839
 21
2.566346990031601
 31
0.0
  0
LINE
  5
1B304
330
1B2F3
100
AcDbEntity
  8
0
  6
CONTINUOUS
100
AcDbLine
 10
36.23199999996837
 20
5.71634699003158
 30
0.0
 11
37.67199999996831
 21
7.156346990031521
 31
0.0
  0
LINE
  5
1B305
330
1B2F3
100
AcDbEntity
  8
0
  6
CONTINUOUS
100
AcDbLine
 10
32.14210568064475
 20
0.952933461627778
 30
0.0
 11
33.18745552475986
 21
1.998283305742888
 31
0.0
  0
LINE
  5
1B306
330
1B2F3
100
AcDbEntity
  8
0
  6
CONTINUOUS
100
AcDbLine
 10
36.23199999996837
 20
5.042827780951393
 30
0.0
 11
37.67199999996831
 21
6.482827780951334
 31
0.0
  0
LINE
  5
1B307
330
1B2F3
100
AcDbEntity
  8
0
  6
CONTINUOUS
100
AcDbLine
 10
32.45820639400955
 20
0.5955149659123915
 30
0.0
 11
33.47242681921943
 21
1.60973539112227
 31
0.0
  0
LINE
  5
1B308
330
1B2F3
100
AcDbEntity
  8
0
  6
CONTINUOUS
100
AcDbLine
 10
36.23199999996837
 20
4.369308571871207
 30
0.0
 11
37.67199999996831
 21
5.809308571871147
 31
0.0
  0
LINE
  5
1B309
330
1B2F3
100
AcDbEntity
  8
0
  6
CONTINUOUS
100
AcDbLine
 10
32.83432456621412
 20
0.2981139290367771
 30
0.0
 11
33.89722476612215
 21
1.361014128944803
 31
0.0
  0
LINE
  5
1B30A
330
1B2F3
100
AcDbEntity
  8
0
  6
CONTINUOUS
100
AcDbLine
 10
36.23199999996837
 20
3.69578936279102
 30
0.0
 11
37.67199999996831
 21
5.135789362790962
 31
0.0
  0
LINE
  5
1B30B
330
1B2F3
100
AcDbEntity
  8
0
  6
CONTINUOUS
100
AcDbLine
 10
33.2711633111245
 20
0.0614334648669672
 30
0.0
 11
34.43247338014423
 21
1.222743533886696
 31
0.0
  0
LINE
  5
1B30C
330
1B2F3
100
AcDbEntity
  8
0
  6
CONTINUOUS
100
AcDbLine
 10
36.23199999996837
 20
3.022270153710834
 30
0.0
 11
37.67199999996831
 21
4.462270153710775
 31
0.0
  0
LINE
  5
1B30D
330
1B2F3
100
AcDbEntity
  8
0
  6
CONTINUOUS
100
AcDbLine
 10
33.76515245874577
 20
-0.1180965965919523
 30
0.0
 11
35.1587445516215
 21
1.27549549628378
 31
0.0
  0
LINE
  5
1B30E
330
1B2F3
100
AcDbEntity
  8
0
  6
CONTINUOUS
100
AcDbLine
 10
36.21639478609585
 20
2.333145730758136
 30
0.0
 11
37.67199999996831
 21
3.788750944630588
 31
0.0
  0
LINE
  5
1B30F
330
1B2F3
100
AcDbEntity
  8
0
  6
CONTINUOUS
100
AcDbLine
 10
34.34060583368432
 20
-0.2161624307335863
 30
0.0
 11
37.67199999996831
 21
3.115231735550401
 31
0.0
  0
LINE
  5
1B310
330
1B2F3
100
AcDbEntity
  8
0
  6
CONTINUOUS
100
AcDbLine
 10
35.01698193613905
 20
-0.2133055373590427
 30
0.0
 11
37.66876712070525
 21
2.438479647207154
 31
0.0
  0
LINE
  5
1B311
330
1B2F3
100
AcDbEntity
  8
0
  6
CONTINUOUS
100
AcDbLine
 10
35.90743367693304
 20
0.0036269943547609
 30
0.0
 11
37.51723902192366
 21
1.613432339345381
 31
0.0
  0
LINE
  5
1B312
330
1B2F3
100
AcDbEntity
  8
0
  6
CONTINUOUS
100
AcDbLine
 10
32.55309425579761
 20
0.5074718966376706
 30
0.0
 11
32.27784730925847
 21
0.7827188431768102
 31
0.0
  0
LINE
  5
1B313
330
1B2F3
100
AcDbEntity
  8
0
  6
CONTINUOUS
100
AcDbLine
 10
33.87496468909684
 20
-0.1408793275813673
 30
0.0
 11
31.67993083278052
 21
2.054154528734943
 31
0.0
  0
LINE
  5
1B314
330
1B2F3
100
AcDbEntity
  8
0
  6
CONTINUOUS
100
AcDbLine
 10
34.64362813207632
 20
-0.2360235614806649
 30
0.0
 11
31.64199999996833
 21
2.765604570627322
 31
0.0
  0
LINE
  5
1B315
330
1B2F3
100
AcDbEntity
  8
0
  6
CONTINUOUS
100
AcDbLine
 10
35.25801106796118
 20
-0.1768872882853429
 30
0.0
 11
31.64199999996833
 21
3.439123779707508
 31
0.0
  0
LINE
  5
1B316
330
1B2F3
100
AcDbEntity
  8
0
  6
CONTINUOUS
100
AcDbLine
 10
35.79065650332146
 20
-0.0360135145654361
 30
0.0
 11
34.54143210838231
 21
1.213210880373721
 31
0.0
  0
LINE
  5
1B317
330
1B2F3
100
AcDbEntity
  8
0
  6
CONTINUOUS
100
AcDbLine
 10
33.08199999996839
 20
2.67264298878764
 30
0.0
 11
31.64199999996833
 21
4.112642988787695
 31
0.0
  0
LINE
  5
1B318
330
1B2F3
100
AcDbEntity
  8
0
  6
CONTINUOUS
100
AcDbLine
 10
36.25975597779143
 20
0.1684062200447833
 30
0.0
 11
35.15395110240023
 21
1.274211095435983
 31
0.0
  0
LINE
  5
1B319
330
1B2F3
100
AcDbEntity
  8
0
  6
CONTINUOUS
100
AcDbLine
 10
33.08199999996839
 20
3.346162197867826
 30
0.0
 11
31.64199999996833
 21
4.786162197867881
 31
0.0
  0
LINE
  5
1B31A
330
1B2F3
100
AcDbEntity
  8
0
  6
CONTINUOUS
100
AcDbLine
 10
36.67226329638774
 20
0.4294181105286579
 30
0.0
 11
35.63766478748767
 21
1.464016619428737
 31
0.0
  0
LINE
  5
1B31B
330
1B2F3
100
AcDbEntity
  8
0
  6
CONTINUOUS
100
AcDbLine
 10
33.08199999996839
 20
4.019681406948012
 30
0.0
 11
31.64199999996833
 21
5.459681406948068
 31
0.0
  0
LINE
  5
1B31C
330
1B2F3
100
AcDbEntity
  8
0
  6
CONTINUOUS
100
AcDbLine
 10
37.01677749710036
 20
0.7584231188962329
 30
0.0
 11
35.99563422741351
 21
1.779566388583076
 31
0.0
  0
LINE
  5
1B31D
330
1B2F3
100
AcDbEntity
  8
0
  6
CONTINUOUS
100
AcDbLine
 10
33.08199999996839
 20
4.693200616028199
 30
0.0
 11
31.64199999996833
 21
6.133200616028255
 31
0.0
  0
LINE
  5
1B31E
330
1B2F3
100
AcDbEntity
  8
0
  6
CONTINUOUS
100
AcDbLine
 10
37.29859977568887
 20
1.1501200493879
 30
0.0
 11
36.20680593341555
 21
2.241913891661226
 31
0.0
  0
LINE
  5
1B31F
330
1B2F3
100
AcDbEntity
  8
0
  6
CONTINUOUS
100
AcDbLine
 10
33.08199999996839
 20
5.366719825108386
 30
0.0
 11
31.64199999996833
 21
6.80671982510844
 31
0.0
  0
LINE
  5
1B320
330
1B2F3
100
AcDbEntity
  8
0
  6
CONTINUOUS
100
AcDbLine
 10
37.5148623517228
 20
1.607376682434161
 30
0.0
 11
36.23199999996837
 21
2.890239034188594
 31
0.0
  0
LINE
  5
1B321
330
1B2F3
100
AcDbEntity
  8
0
  6
CONTINUOUS
100
AcDbLine
 10
33.08199999996839
 20
6.040239034188573
 30
0.0
 11
31.64199999996833
 21
7.480239034188627
 31
0.0
  0
LINE
  5
1B322
330
1B2F3
100
AcDbEntity
  8
0
  6
CONTINUOUS
100
AcDbLine
 10
37.64705163358367
 20
2.148706609653477
 30
0.0
 11
36.23199999996837
 21
3.56375824326878
 31
0.0
  0
LINE
  5
1B323
330
1B2F3
100
AcDbEntity
  8
0
  6
CONTINUOUS
100
AcDbLine
 10
33.08199999996839
 20
6.713758243268758
 30
0.0
 11
31.64199999996833
 21
8.153758243268815
 31
0.0
  0
LINE
  5
1B324
330
1B2F3
100
AcDbEntity
  8
0
  6
CONTINUOUS
100
AcDbLine
 10
37.67199999996831
 20
2.797277452349026
 30
0.0
 11
36.23199999996837
 21
4.237277452348967
 31
0.0
  0
LINE
  5
1B325
330
1B2F3
100
AcDbEntity
  8
0
  6
CONTINUOUS
100
AcDbLine
 10
37.67199999996831
 20
3.470796661429213
 30
0.0
 11
36.23199999996837
 21
4.910796661429154
 31
0.0
  0
LINE
  5
1B326
330
1B2F3
100
AcDbEntity
  8
0
  6
CONTINUOUS
100
AcDbLine
 10
37.67199999996831
 20
4.144315870509399
 30
0.0
 11
36.23199999996837
 21
5.58431587050934
 31
0.0
  0
LINE
  5
1B327
330
1B2F3
100
AcDbEntity
  8
0
  6
CONTINUOUS
100
AcDbLine
 10
33.08199999996839
 20
7.387277452348945
 30
0.0
 11
31.70617745232608
 21
8.763099999991255
 31
0.0
  0
LINE
  5
1B328
330
1B2F3
100
AcDbEntity
  8
0
  6
CONTINUOUS
100
AcDbLine
 10
33.08199999996839
 20
8.060796661429132
 30
0.0
 11
32.37969666140626
 21
8.763099999991255
 31
0.0
  0
LINE
  5
1B329
330
1B2F3
100
AcDbEntity
  8
0
  6
CONTINUOUS
100
AcDbLine
 10
33.08199999996839
 20
8.734315870509318
 30
0.0
 11
33.05321587048645
 21
8.763099999991255
 31
0.0
  0
LINE
  5
1B32A
330
1B2F3
100
AcDbEntity
  8
0
  6
CONTINUOUS
100
AcDbLine
 10
37.67199999996831
 20
4.817835079589585
 30
0.0
 11
36.23199999996837
 21
6.257835079589526
 31
0.0
  0
LINE
  5
1B32B
330
1B2F3
100
AcDbEntity
  8
0
  6
CONTINUOUS
100
AcDbLine
 10
37.67199999996831
 20
5.491354288669771
 30
0.0
 11
36.23199999996837
 21
6.931354288669713
 31
0.0
  0
LINE
  5
1B32C
330
1B2F3
100
AcDbEntity
  8
0
  6
CONTINUOUS
100
AcDbLine
 10
37.67199999996831
 20
6.164873497749958
 30
0.0
 11
36.23199999996837
 21
7.6048734977499
 31
0.0
  0
LINE
  5
1B32D
330
1B2F3
100
AcDbEntity
  8
0
  6
CONTINUOUS
100
AcDbLine
 10
37.67199999996831
 20
6.838392706830144
 30
0.0
 11
36.23199999996837
 21
8.278392706830086
 31
0.0
  0
LINE
  5
1B32E
330
1B2F3
100
AcDbEntity
  8
0
  6
CONTINUOUS
100
AcDbLine
 10
37.67199999996831
 20
7.511911915910332
 30
0.0
 11
36.42081191588738
 21
8.763099999991255
 31
0.0
  0
LINE
  5
1B32F
330
1B2F3
100
AcDbEntity
  8
0
  6
CONTINUOUS
100
AcDbLine
 10
37.67199999996831
 20
8.185431124990519
 30
0.0
 11
37.09433112496757
 21
8.763099999991255
 31
0.0
  0
ENDBLK
  5
1B397
330
1B2F3
100
AcDbEntity
  8
0
100
AcDbBlockEnd
  0
BLOCK
  5
1B398
330
1B330
100
AcDbEntity
  8
0
100
AcDbBlockBegin
  2
*X150
 70
     1
 10
0.0
 20
0.0
 30
0.0
  3
*X150
  1

  0
LINE
  5
1B331
330
1B330
100
AcDbEntity
  8
0
  6
CONTINUOUS
100
AcDbLine
 10
38.60499999996136
 20
8.762866199104765
 30
0.0
 11
38.71672554182345
 21
8.874591740966855
 31
0.0
  0
LINE
  5
1B332
330
1B330
100
AcDbEntity
  8
0
  6
CONTINUOUS
100
AcDbLine
 10
38.60499999996136
 20
8.089346990024577
 30
0.0
 11
39.03418785440363
 21
8.518534844466847
 31
0.0
  0
LINE
  5
1B333
330
1B330
100
AcDbEntity
  8
0
  6
CONTINUOUS
100
AcDbLine
 10
38.60499999996136
 20
7.41582778094439
 30
0.0
 11
39.35165016698382
 21
8.16247794796684
 31
0.0
  0
LINE
  5
1B334
330
1B330
100
AcDbEntity
  8
0
  6
CONTINUOUS
100
AcDbLine
 10
38.60499999996136
 20
6.742308571864204
 30
0.0
 11
39.66911247956399
 21
7.806421051466834
 31
0.0
  0
LINE
  5
1B335
330
1B330
100
AcDbEntity
  8
0
  6
CONTINUOUS
100
AcDbLine
 10
38.60499999996136
 20
6.068789362784018
 30
0.0
 11
39.98657479214418
 21
7.450364154966827
 31
0.0
  0
LINE
  5
1B336
330
1B330
100
AcDbEntity
  8
0
  6
CONTINUOUS
100
AcDbLine
 10
38.60499999996136
 20
5.395270153703832
 30
0.0
 11
40.30403710472435
 21
7.09430725846682
 31
0.0
  0
LINE
  5
1B337
330
1B330
100
AcDbEntity
  8
0
  6
CONTINUOUS
100
AcDbLine
 10
38.60499999996136
 20
4.721750944623645
 30
0.0
 11
40.62149941730453
 21
6.738250361966813
 31
0.0
  0
LINE
  5
1B338
330
1B330
100
AcDbEntity
  8
0
  6
CONTINUOUS
100
AcDbLine
 10
38.60499999996136
 20
4.048231735543458
 30
0.0
 11
40.93896172988471
 21
6.382193465466806
 31
0.0
  0
LINE
  5
1B339
330
1B330
100
AcDbEntity
  8
0
  6
CONTINUOUS
100
AcDbLine
 10
38.60499999996136
 20
3.374712526463272
 30
0.0
 11
40.02599999995994
 21
4.795712526461843
 31
0.0
  0
LINE
  5
1B33A
330
1B330
100
AcDbEntity
  8
0
  6
CONTINUOUS
100
AcDbLine
 10
38.60499999996136
 20
2.701193317383085
 30
0.0
 11
40.02599999995994
 21
4.122193317381657
 31
0.0
  0
LINE
  5
1B33B
330
1B330
100
AcDbEntity
  8
0
  6
CONTINUOUS
100
AcDbLine
 10
40.28339754687704
 20
5.053110073378947
 30
0.0
 11
41.25642404246489
 21
6.026136568966799
 31
0.0
  0
LINE
  5
1B33C
330
1B330
100
AcDbEntity
  8
0
  6
CONTINUOUS
100
AcDbLine
 10
40.60085985945722
 20
4.697053176878939
 30
0.0
 11
41.57388635504507
 21
5.670079672466793
 31
0.0
  0
LINE
  5
1B33D
330
1B330
100
AcDbEntity
  8
0
  6
CONTINUOUS
100
AcDbLine
 10
43.57899999995641
 20
8.348712526458318
 30
0.0
 11
43.99338747348935
 21
8.763099999991255
 31
0.0
  0
LINE
  5
1B33E
330
1B330
100
AcDbEntity
  8
0
  6
CONTINUOUS
100
AcDbLine
 10
43.57899999995641
 20
7.675193317378131
 30
0.0
 11
44.66690668256953
 21
8.763099999991255
 31
0.0
  0
LINE
  5
1B33F
330
1B330
100
AcDbEntity
  8
0
  6
CONTINUOUS
100
AcDbLine
 10
38.60499999996136
 20
2.027674108302898
 30
0.0
 11
40.02599999995994
 21
3.44867410830147
 31
0.0
  0
LINE
  5
1B340
330
1B330
100
AcDbEntity
  8
0
  6
CONTINUOUS
100
AcDbLine
 10
38.60499999996136
 20
1.354154899222712
 30
0.0
 11
40.02599999995994
 21
2.775154899221284
 31
0.0
  0
LINE
  5
1B341
330
1B330
100
AcDbEntity
  8
0
  6
CONTINUOUS
100
AcDbLine
 10
38.60499999996136
 20
0.6806356901425255
 30
0.0
 11
40.02599999995994
 21
2.101635690141098
 31
0.0
  0
LINE
  5
1B342
330
1B330
100
AcDbEntity
  8
0
  6
CONTINUOUS
100
AcDbLine
 10
38.60499999996136
 20
0.0071164810623383
 30
0.0
 11
40.02599999995994
 21
1.428116481060911
 31
0.0
  0
LINE
  5
1B343
330
1B330
100
AcDbEntity
  8
0
  6
CONTINUOUS
100
AcDbLine
 10
40.9183221720374
 20
4.340996280378933
 30
0.0
 11
41.89134866762525
 21
5.314022775966786
 31
0.0
  0
LINE
  5
1B344
330
1B330
100
AcDbEntity
  8
0
  6
CONTINUOUS
100
AcDbLine
 10
41.23578448461758
 20
3.984939383878926
 30
0.0
 11
42.20881098020543
 21
4.957965879466778
 31
0.0
  0
LINE
  5
1B345
330
1B330
100
AcDbEntity
  8
0
  6
CONTINUOUS
100
AcDbLine
 10
41.55324679719776
 20
3.628882487378919
 30
0.0
 11
42.52627329278561
 21
4.601908982966772
 31
0.0
  0
LINE
  5
1B346
330
1B330
100
AcDbEntity
  8
0
  6
CONTINUOUS
100
AcDbLine
 10
41.87070910977793
 20
3.272825590878912
 30
0.0
 11
42.84373560536579
 21
4.245852086466765
 31
0.0
  0
LINE
  5
1B347
330
1B330
100
AcDbEntity
  8
0
  6
CONTINUOUS
100
AcDbLine
 10
43.57899999995641
 20
7.001674108297943
 30
0.0
 11
44.99999999995498
 21
8.422674108296516
 31
0.0
  0
LINE
  5
1B348
330
1B330
100
AcDbEntity
  8
0
  6
CONTINUOUS
100
AcDbLine
 10
43.57899999995641
 20
6.328154899217758
 30
0.0
 11
44.99999999995498
 21
7.749154899216329
 31
0.0
  0
LINE
  5
1B349
330
1B330
100
AcDbEntity
  8
0
  6
CONTINUOUS
100
AcDbLine
 10
43.57899999995641
 20
5.654635690137571
 30
0.0
 11
44.99999999995498
 21
7.075635690136142
 31
0.0
  0
LINE
  5
1B34A
330
1B330
100
AcDbEntity
  8
0
  6
CONTINUOUS
100
AcDbLine
 10
43.57899999995641
 20
4.981116481057384
 30
0.0
 11
44.99999999995498
 21
6.402116481055955
 31
0.0
  0
LINE
  5
1B34B
330
1B330
100
AcDbEntity
  8
0
  6
CONTINUOUS
100
AcDbLine
 10
39.27140272797921
 20
-0.0000000000000009
 30
0.0
 11
40.02599999995994
 21
0.7545972719807246
 31
0.0
  0
LINE
  5
1B34C
330
1B330
100
AcDbEntity
  8
0
  6
CONTINUOUS
100
AcDbLine
 10
39.9449219370594
 20
-0.0000000000000009
 30
0.0
 11
40.02599999995994
 21
0.0810780629005379
 31
0.0
  0
LINE
  5
1B34D
330
1B330
100
AcDbEntity
  8
0
  6
CONTINUOUS
100
AcDbLine
 10
42.18817142235812
 20
2.916768694378905
 30
0.0
 11
43.16119791794597
 21
3.889795189966758
 31
0.0
  0
LINE
  5
1B34E
330
1B330
100
AcDbEntity
  8
0
  6
CONTINUOUS
100
AcDbLine
 10
42.50563373493829
 20
2.560711797878898
 30
0.0
 11
43.47866023052615
 21
3.533738293466751
 31
0.0
  0
LINE
  5
1B34F
330
1B330
100
AcDbEntity
  8
0
  6
CONTINUOUS
100
AcDbLine
 10
43.57899999995641
 20
4.307597271977198
 30
0.0
 11
44.99999999995498
 21
5.728597271975769
 31
0.0
  0
LINE
  5
1B350
330
1B330
100
AcDbEntity
  8
0
  6
CONTINUOUS
100
AcDbLine
 10
43.57899999995641
 20
3.634078062897011
 30
0.0
 11
44.99999999995498
 21
5.055078062895582
 31
0.0
  0
LINE
  5
1B351
330
1B330
100
AcDbEntity
  8
0
  6
CONTINUOUS
100
AcDbLine
 10
42.82309604751848
 20
2.204654901378891
 30
0.0
 11
44.99999999995498
 21
4.381558853815395
 31
0.0
  0
LINE
  5
1B352
330
1B330
100
AcDbEntity
  8
0
  6
CONTINUOUS
100
AcDbLine
 10
43.14055836009865
 20
1.848598004878885
 30
0.0
 11
44.99999999995498
 21
3.70803964473521
 31
0.0
  0
LINE
  5
1B353
330
1B330
100
AcDbEntity
  8
0
  6
CONTINUOUS
100
AcDbLine
 10
43.45802067267883
 20
1.492541108378878
 30
0.0
 11
44.99999999995498
 21
3.034520435655023
 31
0.0
  0
LINE
  5
1B354
330
1B330
100
AcDbEntity
  8
0
  6
CONTINUOUS
100
AcDbLine
 10
43.77548298525902
 20
1.136484211878871
 30
0.0
 11
44.99999999995498
 21
2.361001226574837
 31
0.0
  0
LINE
  5
1B355
330
1B330
100
AcDbEntity
  8
0
  6
CONTINUOUS
100
AcDbLine
 10
44.09294529783919
 20
0.7804273153788639
 30
0.0
 11
44.99999999995498
 21
1.687482017494649
 31
0.0
  0
LINE
  5
1B356
330
1B330
100
AcDbEntity
  8
0
  6
CONTINUOUS
100
AcDbLine
 10
44.41040761041938
 20
0.4243704188788566
 30
0.0
 11
44.99999999995498
 21
1.013962808414463
 31
0.0
  0
LINE
  5
1B357
330
1B330
100
AcDbEntity
  8
0
  6
CONTINUOUS
100
AcDbLine
 10
44.72786992299955
 20
0.0683135223788494
 30
0.0
 11
44.99999999995498
 21
0.340443599334276
 31
0.0
  0
LINE
  5
1B358
330
1B330
100
AcDbEntity
  8
0
  6
CONTINUOUS
100
AcDbLine
 10
39.12223903415696
 20
-0.0000000000000009
 30
0.0
 11
38.60499999996136
 21
0.5172390341955961
 31
0.0
  0
LINE
  5
1B359
330
1B330
100
AcDbEntity
  8
0
  6
CONTINUOUS
100
AcDbLine
 10
39.79575824323715
 20
-0.0000000000000009
 30
0.0
 11
38.60499999996136
 21
1.190758243275783
 31
0.0
  0
LINE
  5
1B35A
330
1B330
100
AcDbEntity
  8
0
  6
CONTINUOUS
100
AcDbLine
 10
40.02599999995994
 20
0.443277452357397
 30
0.0
 11
38.60499999996136
 21
1.864277452355969
 31
0.0
  0
LINE
  5
1B35B
330
1B330
100
AcDbEntity
  8
0
  6
CONTINUOUS
100
AcDbLine
 10
40.02599999995994
 20
1.116796661437583
 30
0.0
 11
38.60499999996136
 21
2.537796661436155
 31
0.0
  0
LINE
  5
1B35C
330
1B330
100
AcDbEntity
  8
0
  6
CONTINUOUS
100
AcDbLine
 10
40.02599999995994
 20
1.79031587051777
 30
0.0
 11
38.60499999996136
 21
3.211315870516341
 31
0.0
  0
LINE
  5
1B35D
330
1B330
100
AcDbEntity
  8
0
  6
CONTINUOUS
100
AcDbLine
 10
40.02599999995994
 20
2.463835079597956
 30
0.0
 11
38.60499999996136
 21
3.884835079596527
 31
0.0
  0
LINE
  5
1B35E
330
1B330
100
AcDbEntity
  8
0
  6
CONTINUOUS
100
AcDbLine
 10
40.02599999995994
 20
3.137354288678143
 30
0.0
 11
38.60499999996136
 21
4.558354288676714
 31
0.0
  0
LINE
  5
1B35F
330
1B330
100
AcDbEntity
  8
0
  6
CONTINUOUS
100
AcDbLine
 10
40.02599999995994
 20
3.810873497758329
 30
0.0
 11
38.60499999996136
 21
5.2318734977569
 31
0.0
  0
LINE
  5
1B360
330
1B330
100
AcDbEntity
  8
0
  6
CONTINUOUS
100
AcDbLine
 10
40.02599999995994
 20
4.484392706838515
 30
0.0
 11
38.60499999996136
 21
5.905392706837086
 31
0.0
  0
LINE
  5
1B361
330
1B330
100
AcDbEntity
  8
0
  6
CONTINUOUS
100
AcDbLine
 10
44.99999999995498
 20
0.183911915923658
 30
0.0
 11
41.53858364506288
 21
3.64532827081576
 31
0.0
  0
LINE
  5
1B362
330
1B330
100
AcDbEntity
  8
0
  6
CONTINUOUS
100
AcDbLine
 10
40.02599999995994
 20
5.157911915918703
 30
0.0
 11
38.60499999996136
 21
6.578911915917274
 31
0.0
  0
LINE
  5
1B363
330
1B330
100
AcDbEntity
  8
0
  6
CONTINUOUS
100
AcDbLine
 10
44.99999999995498
 20
0.8574311250038447
 30
0.0
 11
38.60499999996136
 21
7.25243112499746
 31
0.0
  0
LINE
  5
1B364
330
1B330
100
AcDbEntity
  8
0
  6
CONTINUOUS
100
AcDbLine
 10
44.99999999995498
 20
1.530950334084031
 30
0.0
 11
38.60499999996136
 21
7.925950334077647
 31
0.0
  0
LINE
  5
1B365
330
1B330
100
AcDbEntity
  8
0
  6
CONTINUOUS
100
AcDbLine
 10
44.99999999995498
 20
2.204469543164218
 30
0.0
 11
43.57899999995641
 21
3.625469543162789
 31
0.0
  0
LINE
  5
1B366
330
1B330
100
AcDbEntity
  8
0
  6
CONTINUOUS
100
AcDbLine
 10
41.89876730984767
 20
5.305702233271528
 30
0.0
 11
38.60499999996136
 21
8.599469543157834
 31
0.0
  0
LINE
  5
1B367
330
1B330
100
AcDbEntity
  8
0
  6
CONTINUOUS
100
AcDbLine
 10
44.99999999995498
 20
2.877988752244405
 30
0.0
 11
43.57899999995641
 21
4.298988752242975
 31
0.0
  0
LINE
  5
1B368
330
1B330
100
AcDbEntity
  8
0
  6
CONTINUOUS
100
AcDbLine
 10
44.99999999995498
 20
3.551507961324591
 30
0.0
 11
43.57899999995641
 21
4.972507961323163
 31
0.0
  0
LINE
  5
1B369
330
1B330
100
AcDbEntity
  8
0
  6
CONTINUOUS
100
AcDbLine
 10
44.99999999995498
 20
4.225027170404777
 30
0.0
 11
43.57899999995641
 21
5.646027170403348
 31
0.0
  0
LINE
  5
1B36A
330
1B330
100
AcDbEntity
  8
0
  6
CONTINUOUS
100
AcDbLine
 10
44.99999999995498
 20
4.898546379484964
 30
0.0
 11
43.57899999995641
 21
6.319546379483535
 31
0.0
  0
LINE
  5
1B36B
330
1B330
100
AcDbEntity
  8
0
  6
CONTINUOUS
100
AcDbLine
 10
44.99999999995498
 20
5.572065588565151
 30
0.0
 11
43.57899999995641
 21
6.993065588563722
 31
0.0
  0
LINE
  5
1B36C
330
1B330
100
AcDbEntity
  8
0
  6
CONTINUOUS
100
AcDbLine
 10
44.99999999995498
 20
6.245584797645336
 30
0.0
 11
43.57899999995641
 21
7.666584797643908
 31
0.0
  0
LINE
  5
1B36D
330
1B330
100
AcDbEntity
  8
0
  6
CONTINUOUS
100
AcDbLine
 10
44.99999999995498
 20
6.919104006725522
 30
0.0
 11
43.57899999995641
 21
8.340104006724093
 31
0.0
  0
LINE
  5
1B36E
330
1B330
100
AcDbEntity
  8
0
  6
CONTINUOUS
100
AcDbLine
 10
44.99999999995498
 20
7.592623215805709
 30
0.0
 11
43.82952321576943
 21
8.763099999991255
 31
0.0
  0
LINE
  5
1B36F
330
1B330
100
AcDbEntity
  8
0
  6
CONTINUOUS
100
AcDbLine
 10
44.99999999995498
 20
8.266142424885896
 30
0.0
 11
44.50304242484962
 21
8.763099999991255
 31
0.0
  0
ENDBLK
  5
1B399
330
1B330
100
AcDbEntity
  8
0
100
AcDbBlockEnd
  0
BLOCK
  5
1B39A
330
1B370
100
AcDbEntity
  8
0
100
AcDbBlockBegin
  2
*X151
 70
     1
 10
0.0
 20
0.0
 30
0.0
  3
*X151
  1

  0
LINE
  5
1B371
330
1B370
100
AcDbEntity
  8
0
  6
CONTINUOUS
100
AcDbLine
 10
0.0
 20
8.548461116714023
 30
0.0
 11
0.2146388832772324
 21
8.763099999991255
 31
0.0
  0
LINE
  5
1B372
330
1B370
100
AcDbEntity
  8
0
  6
CONTINUOUS
100
AcDbLine
 10
-0.0000000000000002
 20
7.874941907633837
 30
0.0
 11
0.8881580923574184
 21
8.763099999991255
 31
0.0
  0
LINE
  5
1B373
330
1B370
100
AcDbEntity
  8
0
  6
CONTINUOUS
100
AcDbLine
 10
0.0
 20
7.20142269855365
 30
0.0
 11
1.420999999998572
 21
8.622422698552223
 31
0.0
  0
LINE
  5
1B374
330
1B370
100
AcDbEntity
  8
0
  6
CONTINUOUS
100
AcDbLine
 10
-0.0000000000000001
 20
6.527903489473465
 30
0.0
 11
1.420999999998571
 21
7.948903489472036
 31
0.0
  0
LINE
  5
1B375
330
1B370
100
AcDbEntity
  8
0
  6
CONTINUOUS
100
AcDbLine
 10
-0.0000000000000002
 20
5.854384280393278
 30
0.0
 11
1.420999999998571
 21
7.275384280391849
 31
0.0
  0
LINE
  5
1B376
330
1B370
100
AcDbEntity
  8
0
  6
CONTINUOUS
100
AcDbLine
 10
-0.0000000000000002
 20
5.180865071313091
 30
0.0
 11
1.420999999998571
 21
6.601865071311663
 31
0.0
  0
LINE
  5
1B377
330
1B370
100
AcDbEntity
  8
0
  6
CONTINUOUS
100
AcDbLine
 10
0.0
 20
4.507345862232905
 30
0.0
 11
1.420999999998571
 21
5.928345862231477
 31
0.0
  0
LINE
  5
1B378
330
1B370
100
AcDbEntity
  8
0
  6
CONTINUOUS
100
AcDbLine
 10
-0.0000000000000003
 20
3.833826653152718
 30
0.0
 11
1.420999999998571
 21
5.25482665315129
 31
0.0
  0
LINE
  5
1B379
330
1B370
100
AcDbEntity
  8
0
  6
CONTINUOUS
100
AcDbLine
 10
-0.0000000000000002
 20
3.160307444072532
 30
0.0
 11
1.420999999998571
 21
4.581307444071103
 31
0.0
  0
LINE
  5
1B37A
330
1B370
100
AcDbEntity
  8
0
  6
CONTINUOUS
100
AcDbLine
 10
-0.0000000000000001
 20
2.486788234992345
 30
0.0
 11
1.420999999998571
 21
3.907788234990917
 31
0.0
  0
LINE
  5
1B37B
330
1B370
100
AcDbEntity
  8
0
  6
CONTINUOUS
100
AcDbLine
 10
-0.0000000000000006
 20
1.813269025912159
 30
0.0
 11
1.420999999998571
 21
3.234269025910731
 31
0.0
  0
LINE
  5
1B37C
330
1B370
100
AcDbEntity
  8
0
  6
CONTINUOUS
100
AcDbLine
 10
0.0
 20
1.139749816831973
 30
0.0
 11
1.420999999998571
 21
2.560749816830544
 31
0.0
  0
LINE
  5
1B37D
330
1B370
100
AcDbEntity
  8
0
  6
CONTINUOUS
100
AcDbLine
 10
0.0000000000000002
 20
0.466230607751787
 30
0.0
 11
1.420999999998571
 21
1.887230607750358
 31
0.0
  0
LINE
  5
1B37E
330
1B370
100
AcDbEntity
  8
0
  6
CONTINUOUS
100
AcDbLine
 10
0.2072886013284003
 20
-0.0000000000000009
 30
0.0
 11
1.420999999998571
 21
1.213711398670171
 31
0.0
  0
LINE
  5
1B37F
330
1B370
100
AcDbEntity
  8
0
  6
CONTINUOUS
100
AcDbLine
 10
0.8808078104085864
 20
-0.0000000000000009
 30
0.0
 11
1.420999999998571
 21
0.5401921895899839
 31
0.0
  0
LINE
  5
1B380
330
1B370
100
AcDbEntity
  8
0
  6
CONTINUOUS
100
AcDbLine
 10
0.0581249075061505
 20
-0.0000000000000009
 30
0.0
 11
-0.0000000000000002
 21
0.0581249075061496
 31
0.0
  0
LINE
  5
1B381
330
1B370
100
AcDbEntity
  8
0
  6
CONTINUOUS
100
AcDbLine
 10
0.7316441165863372
 20
-0.0000000000000009
 30
0.0
 11
-0.0000000000000002
 21
0.7316441165863363
 31
0.0
  0
LINE
  5
1B382
330
1B370
100
AcDbEntity
  8
0
  6
CONTINUOUS
100
AcDbLine
 10
1.405163325666523
 20
-0.0000000000000009
 30
0.0
 11
-0.0000000000000002
 21
1.405163325666523
 31
0.0
  0
LINE
  5
1B383
330
1B370
100
AcDbEntity
  8
0
  6
CONTINUOUS
100
AcDbLine
 10
1.420999999998572
 20
0.6576825347481381
 30
0.0
 11
-0.0000000000000001
 21
2.07868253474671
 31
0.0
  0
LINE
  5
1B384
330
1B370
100
AcDbEntity
  8
0
  6
CONTINUOUS
100
AcDbLine
 10
1.420999999998571
 20
1.331201743828324
 30
0.0
 11
-0.0000000000000001
 21
2.752201743826896
 31
0.0
  0
LINE
  5
1B385
330
1B370
100
AcDbEntity
  8
0
  6
CONTINUOUS
100
AcDbLine
 10
1.420999999998571
 20
2.004720952908511
 30
0.0
 11
-0.0000000000000002
 21
3.425720952907082
 31
0.0
  0
LINE
  5
1B386
330
1B370
100
AcDbEntity
  8
0
  6
CONTINUOUS
100
AcDbLine
 10
1.420999999998571
 20
2.678240161988697
 30
0.0
 11
-0.0000000000000001
 21
4.099240161987269
 31
0.0
  0
LINE
  5
1B387
330
1B370
100
AcDbEntity
  8
0
  6
CONTINUOUS
100
AcDbLine
 10
1.420999999998572
 20
3.351759371068884
 30
0.0
 11
0.0
 21
4.772759371067455
 31
0.0
  0
LINE
  5
1B388
330
1B370
100
AcDbEntity
  8
0
  6
CONTINUOUS
100
AcDbLine
 10
1.420999999998571
 20
4.02527858014907
 30
0.0
 11
-0.0000000000000003
 21
5.446278580147642
 31
0.0
  0
LINE
  5
1B389
330
1B370
100
AcDbEntity
  8
0
  6
CONTINUOUS
100
AcDbLine
 10
1.420999999998571
 20
4.698797789229257
 30
0.0
 11
0.0
 21
6.119797789227828
 31
0.0
  0
LINE
  5
1B38A
330
1B370
100
AcDbEntity
  8
0
  6
CONTINUOUS
100
AcDbLine
 10
1.420999999998571
 20
5.372316998309444
 30
0.0
 11
-0.0000000000000001
 21
6.793316998308015
 31
0.0
  0
LINE
  5
1B38B
330
1B370
100
AcDbEntity
  8
0
  6
CONTINUOUS
100
AcDbLine
 10
1.420999999998572
 20
6.045836207389629
 30
0.0
 11
-0.0000000000000004
 21
7.466836207388202
 31
0.0
  0
LINE
  5
1B38C
330
1B370
100
AcDbEntity
  8
0
  6
CONTINUOUS
100
AcDbLine
 10
1.420999999998571
 20
6.719355416469816
 30
0.0
 11
0.0
 21
8.140355416468388
 31
0.0
  0
LINE
  5
1B38D
330
1B370
100
AcDbEntity
  8
0
  6
CONTINUOUS
100
AcDbLine
 10
1.420999999998571
 20
7.392874625550003
 30
0.0
 11
0.0507746255573185
 21
8.763099999991255
 31
0.0
  0
LINE
  5
1B38E
330
1B370
100
AcDbEntity
  8
0
  6
CONTINUOUS
100
AcDbLine
 10
1.420999999998571
 20
8.06639383463019
 30
0.0
 11
0.7242938346375052
 21
8.763099999991255
 31
0.0
  0
LINE
  5
1B38F
330
1B370
100
AcDbEntity
  8
0
  6
CONTINUOUS
100
AcDbLine
 10
1.420999999998571
 20
8.739913043710375
 30
0.0
 11
1.397813043717691
 21
8.763099999991255
 31
0.0
  0
ENDBLK
  5
1B39B
330
1B370
100
AcDbEntity
  8
0
100
AcDbBlockEnd
  0
ENDSEC
  0
SECTION
  2
ENTITIES
  0
LINE
  5
1AD35
330
18
100
AcDbEntity
  8
01
100
AcDbLine
 10
2335.960098566314
 20
-566.9592454154181
 30
0.0
 11
2349.960098566314
 21
-566.9592454154181
 31
0.0
  0
LINE
  5
1AD36
330
18
100
AcDbEntity
  8
01
100
AcDbLine
 10
2340.960982748374
 20
-354.9592454164467
 30
0.0
 11
2494.715362903406
 21
-354.9592454164467
 31
0.0
  0
LINE
  5
1AD37
330
18
100
AcDbEntity
  8
01
  6
BYBLOCK
100
AcDbLine
 10
2340.960982748374
 20
-354.9592454164467
 30
0.0
 11
2340.960982748374
 21
-394.9592454164467
 31
0.0
  0
LINE
  5
1AD3B
330
18
100
AcDbEntity
  8
01
100
AcDbLine
 10
2391.960098566312
 20
-359.9592454174754
 30
0.0
 11
2391.960098566312
 21
-329.0411652282264
 31
0.0
  0
LINE
  5
1AD3C
330
18
100
AcDbEntity
  8
01
100
AcDbLine
 10
2366.960098566314
 20
-354.9592454164458
 30
0.0
 11
2416.960098566314
 21
-354.9592454164481
 31
0.0
  0
LINE
  5
1AD3D
330
18
100
AcDbEntity
  8
01
100
AcDbLine
 10
2367.46009856631
 20
-346.4592454164458
 30
0.0
 11
2416.460098566314
 21
-346.4592454164494
 31
0.0
  0
LINE
  5
1AD3E
330
18
100
AcDbEntity
  8
01
100
AcDbLine
 10
2416.960098566314
 20
-354.9592454164481
 30
0.0
 11
2416.960098566314
 21
-346.9592454164494
 31
0.0
  0
ARC
  5
1AD3F
330
18
100
AcDbEntity
  8
01
100
AcDbCircle
 10
2416.460098566314
 20
-346.9592454164494
 30
0.0
 40
0.5
100
AcDbArc
 50
0.0
 51
90.0
  0
LINE
  5
1AD40
330
18
100
AcDbEntity
  8
01
100
AcDbLine
 10
2366.960098566314
 20
-354.9592454164458
 30
0.0
 11
2366.96009856631
 21
-346.9592454164463
 31
0.0
  0
ARC
  5
1AD41
330
18
100
AcDbEntity
  8
01
100
AcDbCircle
 10
2367.46009856631
 20
-346.9592454164458
 30
0.0
 40
0.5
100
AcDbArc
 50
90.0
 51
180.0
  0
LINE
  5
1AD42
330
18
100
AcDbEntity
  8
01
  6
BYBLOCK
100
AcDbLine
 10
2342.460098566314
 20
-559.059245415418
 30
0.0
 11
2342.460098566314
 21
-688.859245415418
 31
0.0
  0
LINE
  5
1AD43
330
18
100
AcDbEntity
  8
01
  6
BYBLOCK
100
AcDbLine
 10
2342.460098566314
 20
-687.9592454154181
 30
0.0
 11
2344.960098566314
 21
-687.9592454154181
 31
0.0
  0
LINE
  5
1AD44
330
18
100
AcDbEntity
  8
01
  6
BYBLOCK
100
AcDbLine
 10
2344.960098566314
 20
-687.9592454154181
 30
0.0
 11
2344.960098566314
 21
-671.4563016902657
 31
0.0
  0
LINE
  5
1AD45
330
18
100
AcDbEntity
  8
01
  6
BYBLOCK
100
AcDbLine
 10
2340.960098566314
 20
-559.059245415418
 30
0.0
 11
2340.960098566314
 21
-688.859245415418
 31
0.0
  0
LINE
  5
1AD46
330
18
100
AcDbEntity
  8
01
  6
BYBLOCK
100
AcDbLine
 10
2340.960098566314
 20
-688.859245415418
 30
0.0
 11
2342.460098566314
 21
-688.859245415418
 31
0.0
  0
LINE
  5
1AD47
330
18
100
AcDbEntity
  8
01
  6
BYBLOCK
100
AcDbLine
 10
2342.460098566314
 20
-559.9592454154181
 30
0.0
 11
2344.960098566314
 21
-559.9592454154181
 31
0.0
  0
LINE
  5
1AD48
330
18
100
AcDbEntity
  8
01
  6
BYBLOCK
100
AcDbLine
 10
2340.960098566314
 20
-559.059245415418
 30
0.0
 11
2342.460098566314
 21
-559.059245415418
 31
0.0
  0
LINE
  5
1AD49
330
18
100
AcDbEntity
  8
01
  6
BYBLOCK
100
AcDbLine
 10
2342.460098566314
 20
-583.9592454154181
 30
0.0
 11
2343.660098566314
 21
-583.9592454154181
 31
0.0
  0
LINE
  5
1AD4A
330
18
100
AcDbEntity
  8
01
  6
BYBLOCK
100
AcDbLine
 10
2343.660098566314
 20
-578.2592454154178
 30
0.0
 11
2343.660098566314
 21
-669.6592454154179
 31
0.0
  0
LINE
  5
1AD4B
330
18
100
AcDbEntity
  8
01
  6
BYBLOCK
100
AcDbLine
 10
2343.760098566314
 20
-687.9592454154181
 30
0.0
 11
2343.760098566314
 21
-671.359245415418
 31
0.0
  0
LINE
  5
1AD4C
330
18
100
AcDbEntity
  8
01
  6
BYBLOCK
100
AcDbLine
 10
2343.760098566314
 20
-671.359245415418
 30
0.0
 11
2342.811570428889
 21
-670.4107172779941
 31
0.0
  0
LINE
  5
1AD4D
330
18
100
AcDbEntity
  8
01
  6
BYBLOCK
100
AcDbLine
 10
2344.608626703737
 20
-670.6077735528418
 30
0.0
 11
2343.660098566314
 21
-669.6592454154179
 31
0.0
  0
ARC
  5
1AD4E
330
18
100
AcDbEntity
  8
01
  6
BYBLOCK
100
AcDbCircle
 10
2343.760098566314
 20
-671.4563016902657
 30
0.0
 40
1.2
100
AcDbArc
 50
0.0
 51
45.00000000003838
  0
ARC
  5
1AD4F
330
18
100
AcDbEntity
  8
01
  6
BYBLOCK
100
AcDbCircle
 10
2343.660098566314
 20
-669.5621891405701
 30
0.0
 40
1.2
100
AcDbArc
 50
180.0
 51
225.0000000000384
  0
LINE
  5
1AD50
330
18
100
AcDbEntity
  8
01
  6
BYBLOCK
100
AcDbLine
 10
2344.960098566314
 20
-559.9592454154181
 30
0.0
 11
2344.960098566314
 21
-576.4621891405702
 31
0.0
  0
LINE
  5
1AD51
330
18
100
AcDbEntity
  8
01
  6
BYBLOCK
100
AcDbLine
 10
2343.760098566314
 20
-559.9592454154181
 30
0.0
 11
2343.760098566314
 21
-576.559245415418
 31
0.0
  0
LINE
  5
1AD52
330
18
100
AcDbEntity
  8
01
  6
BYBLOCK
100
AcDbLine
 10
2343.760098566314
 20
-576.559245415418
 30
0.0
 11
2342.811570428889
 21
-577.5077735528419
 31
0.0
  0
LINE
  5
1AD53
330
18
100
AcDbEntity
  8
01
  6
BYBLOCK
100
AcDbLine
 10
2344.608626703737
 20
-577.3107172779942
 30
0.0
 11
2343.660098566314
 21
-578.259245415418
 31
0.0
  0
ARC
  5
1AD54
330
18
100
AcDbEntity
  8
01
  6
BYBLOCK
100
AcDbCircle
 10
2343.760098566314
 20
-576.4621891405702
 30
0.0
 40
1.2
100
AcDbArc
 50
314.9999999999616
 51
0.0
  0
ARC
  5
1AD55
330
18
100
AcDbEntity
  8
01
  6
BYBLOCK
100
AcDbCircle
 10
2343.660098566314
 20
-578.3563016902658
 30
0.0
 40
1.2
100
AcDbArc
 50
134.9999999999616
 51
180.0
  0
CIRCLE
  5
1AD56
330
18
100
AcDbEntity
  8
01
  6
BYBLOCK
100
AcDbCircle
 10
2391.960098566314
 20
-594.9592454154181
 30
0.0
 40
4.75
  0
LINE
  5
1AD57
330
18
100
AcDbEntity
  8
01
  6
BYBLOCK
100
AcDbLine
 10
2343.660098566314
 20
-660.9592454154183
 30
0.0
 11
2372.750725854014
 21
-660.9592454154181
 31
0.0
  0
ARC
  5
1AD58
330
18
100
AcDbEntity
  8
01
  6
BYBLOCK
100
AcDbCircle
 10
2344.060982748374
 20
-371.3979948734468
 30
0.0
 40
1.6
100
AcDbArc
 50
115.9444797720007
 51
180.0
  0
ARC
  5
1AD59
330
18
100
AcDbEntity
  8
01
  6
BYBLOCK
100
AcDbCircle
 10
2344.060982748374
 20
-378.5204959594466
 30
0.0
 40
1.6
100
AcDbArc
 50
180.0
 51
244.0555202279993
  0
ARC
  5
1AD5A
330
18
100
AcDbEntity
  8
01
  6
BYBLOCK
100
AcDbCircle
 10
2343.360982748373
 20
-379.7979948734467
 30
0.0
 40
1.6
100
AcDbArc
 50
0.0
 51
64.05552022799934
  0
ARC
  5
1AD5B
330
18
100
AcDbEntity
  8
01
  6
BYBLOCK
100
AcDbCircle
 10
2343.360982748373
 20
-370.1204959594468
 30
0.0
 40
1.6
100
AcDbArc
 50
295.9444797720006
 51
0.0
  0
LINE
  5
1AD5C
330
18
100
AcDbEntity
  8
01
  6
BYBLOCK
100
AcDbLine
 10
2344.960982748374
 20
-370.1204959594468
 30
0.0
 11
2344.960982748374
 21
-362.7592454164467
 31
0.0
  0
LINE
  5
1AD5D
330
18
100
AcDbEntity
  8
01
  6
BYBLOCK
100
AcDbLine
 10
2344.060982748374
 20
-378.3592454164468
 30
0.0
 11
2344.060982748374
 21
-371.5592454164466
 31
0.0
  0
LINE
  5
1AD5E
330
18
100
AcDbEntity
  8
01
  6
BYBLOCK
100
AcDbLine
 10
2344.960982748374
 20
-386.9592454164467
 30
0.0
 11
2344.960982748374
 21
-379.7979948734467
 31
0.0
  0
LINE
  5
1AD5F
330
18
100
AcDbEntity
  8
01
  6
BYBLOCK
100
AcDbLine
 10
2343.360982748373
 20
-369.9592454164467
 30
0.0
 11
2343.360982748374
 21
-362.7592454164467
 31
0.0
  0
LINE
  5
1AD60
330
18
100
AcDbEntity
  8
01
  6
BYBLOCK
100
AcDbLine
 10
2343.360982748373
 20
-379.9592454164467
 30
0.0
 11
2343.360982748373
 21
-387.0592454164466
 31
0.0
  0
ARC
  5
1AD61
330
18
100
AcDbEntity
  8
01
  6
BYBLOCK
100
AcDbCircle
 10
2408.360982748373
 20
-367.0592454164466
 30
0.0
 40
1.6
100
AcDbArc
 50
0.0
 51
90.0
  0
LINE
  5
1AD62
330
18
100
AcDbEntity
  8
01
  6
BYBLOCK
100
AcDbLine
 10
2342.460982748374
 20
-362.5592454164466
 30
0.0
 11
2342.460982748374
 21
-387.3592454164466
 31
0.0
  0
LINE
  5
1AD63
330
18
100
AcDbEntity
  8
01
  6
BYBLOCK
100
AcDbLine
 10
2408.360982748373
 20
-365.4592454164467
 30
0.0
 11
2344.960982748374
 21
-365.4592454164467
 31
0.0
  0
LINE
  5
1AD64
330
18
100
AcDbEntity
  8
01
  6
BYBLOCK
100
AcDbLine
 10
2408.360982748373
 20
-382.6592454164468
 30
0.0
 11
2408.360982748373
 21
-365.4592454164467
 31
0.0
  0
LINE
  5
1AD65
330
18
100
AcDbEntity
  8
01
  6
BYBLOCK
100
AcDbLine
 10
2409.960982748374
 20
-384.2592454164467
 30
0.0
 11
2409.960982748374
 21
-367.0592454164466
 31
0.0
  0
LINE
  5
1AD66
330
18
100
AcDbEntity
  8
01
  6
BYBLOCK
100
AcDbLine
 10
2342.460982748374
 20
-362.7592454164467
 30
0.0
 11
2344.960982748374
 21
-362.7592454164467
 31
0.0
  0
LINE
  5
1AD67
330
18
100
AcDbEntity
  8
01
  6
BYBLOCK
100
AcDbLine
 10
2344.960982748374
 20
-386.9592454164467
 30
0.0
 11
2343.360982748373
 21
-386.9592454164467
 31
0.0
  0
LINE
  5
1AD68
330
18
100
AcDbEntity
  8
01
  6
BYBLOCK
100
AcDbLine
 10
2343.360982748373
 20
-387.0592454164466
 30
0.0
 11
2342.460982748374
 21
-387.0592454164466
 31
0.0
  0
ARC
  5
1AD69
330
18
100
AcDbEntity
  8
01
  6
BYBLOCK
100
AcDbCircle
 10
2339.661577675773
 20
-380.6592454164461
 30
0.0
 40
0.3000000000000051
100
AcDbArc
 50
232.8678058729264
 51
270.0
  0
LINE
  5
1AD6A
330
18
100
AcDbEntity
  8
01
  6
BYBLOCK
100
AcDbLine
 10
2340.460982748374
 20
-380.959245416446
 30
0.0
 11
2339.661577675773
 21
-380.959245416446
 31
0.0
  0
LINE
  5
1AD6B
330
18
100
AcDbEntity
  8
01
  6
BYBLOCK
100
AcDbLine
 10
2330.060982748374
 20
-371.2862565502419
 30
0.0
 11
2330.060982748374
 21
-371.456878605791
 31
0.0
  0
ARC
  5
1AD6C
330
18
100
AcDbEntity
  8
01
  6
BYBLOCK
100
AcDbCircle
 10
2330.360982748373
 20
-371.456878605791
 30
0.0
 40
0.3
100
AcDbArc
 50
180.0
 51
217.7405295629754
  0
ARC
  5
1AD6D
330
18
100
AcDbEntity
  8
01
  6
BYBLOCK
100
AcDbCircle
 10
2369.663283347658
 20
-341.0361756618502
 30
0.0
 40
50.00000000000002
100
AcDbArc
 50
217.7405295629802
 51
232.8678058729729
  0
LINE
  5
1AD6E
330
18
100
AcDbEntity
  8
01
  6
BYBLOCK
100
AcDbLine
 10
2329.860982748373
 20
-370.1592454164465
 30
0.0
 11
2329.860982748373
 21
-369.4592454164467
 31
0.0
  0
ARC
  5
1AD6F
330
18
100
AcDbEntity
  8
01
  6
BYBLOCK
100
AcDbCircle
 10
2330.360982748373
 20
-369.4592454164467
 30
0.0
 40
0.5000000000000142
100
AcDbArc
 50
90.0
 51
180.0
  0
LINE
  5
1AD70
330
18
100
AcDbEntity
  8
01
  6
BYBLOCK
100
AcDbLine
 10
2340.460982748374
 20
-368.9592454164467
 30
0.0
 11
2330.360982748373
 21
-368.9592454164467
 31
0.0
  0
LINE
  5
1AD71
330
18
100
AcDbEntity
  8
01
  6
BYBLOCK
100
AcDbLine
 10
2329.860982748373
 20
-370.537925072887
 30
0.0
 11
2329.860982748373
 21
-370.1592454164465
 31
0.0
  0
SPLINE
  5
1AD72
330
18
100
AcDbEntity
  8
01
  6
BYBLOCK
100
AcDbSpline
210
0.0
220
0.0
230
1.0
 70
     8
 71
     3
 72
     8
 73
     4
 74
     0
 42
0.0000000001
 43
0.0000000001
 40
0.0
 40
0.0
 40
0.0
 40
0.0
 40
1.0
 40
1.0
 40
1.0
 40
1.0
 10
2329.886715289638
 20
-370.8145755023361
 30
0.0
 10
2329.869247403527
 20
-370.7214893064556
 30
0.0
 10
2329.860982748373
 20
-370.6282232955641
 30
0.0
 10
2329.860982748373
 20
-370.5379250728865
 30
0.0
  0
ARC
  5
1AD73
330
18
100
AcDbEntity
  8
01
  6
BYBLOCK
100
AcDbCircle
 10
2331.360982748373
 20
-370.537925072887
 30
0.0
 40
1.499999999999998
100
AcDbArc
 50
190.628112987605
 51
225.0000000000384
  0
LINE
  5
1AD74
330
18
100
AcDbEntity
  8
01
  6
BYBLOCK
100
AcDbLine
 10
2340.960982748374
 20
-368.1092454164466
 30
0.0
 11
2340.460982748374
 21
-368.1092454164466
 31
0.0
  0
LINE
  5
1AD75
330
18
100
AcDbEntity
  8
01
  6
BYBLOCK
100
AcDbLine
 10
2340.460982748374
 20
-381.8092454164466
 30
0.0
 11
2340.960982748374
 21
-381.8092454164466
 31
0.0
  0
LINE
  5
1AD76
330
18
100
AcDbEntity
  8
01
  6
BYBLOCK
100
AcDbLine
 10
2340.460982748374
 20
-381.8092454164466
 30
0.0
 11
2340.460982748374
 21
-368.1092454164466
 31
0.0
  0
LINE
  5
1AD77
330
18
100
AcDbEntity
  8
01
  6
BYBLOCK
100
AcDbLine
 10
2340.960982748374
 20
-362.5592454164466
 30
0.0
 11
2342.460982748374
 21
-362.5592454164466
 31
0.0
  0
LINE
  5
1AD78
330
18
100
AcDbEntity
  8
01
  6
BYBLOCK
100
AcDbLine
 10
2340.960982748374
 20
-387.3592454164466
 30
0.0
 11
2342.460982748374
 21
-387.3592454164466
 31
0.0
  0
LINE
  5
1AD79
330
18
100
AcDbEntity
  8
01
  6
BYBLOCK
100
AcDbLine
 10
2340.960982748374
 20
-387.3592454164466
 30
0.0
 11
2340.960982748374
 21
-362.5592454164466
 31
0.0
  0
LINE
  5
1AD7A
330
18
100
AcDbEntity
  8
01
  6
BYBLOCK
100
AcDbLine
 10
2409.960982748374
 20
-382.6592454164468
 30
0.0
 11
2344.960982748374
 21
-382.6592454164468
 31
0.0
  0
LINE
  5
1AD7B
330
18
100
AcDbEntity
  8
01
  6
BYBLOCK
100
AcDbLine
 10
2409.960982748374
 20
-384.2592454164467
 30
0.0
 11
2359.560982748374
 21
-384.2592454164467
 31
0.0
  0
LINE
  5
1AD7C
330
18
100
AcDbEntity
  8
01
  6
BYBLOCK
100
AcDbLine
 10
2362.398241048577
 20
-384.2592454164467
 30
0.0
 11
2344.960982748374
 21
-384.2592454164467
 31
0.0
  0
LINE
  5
1AD7D
330
18
100
AcDbEntity
  8
01
  6
BYBLOCK
100
AcDbLine
 10
2339.514536138967
 20
-380.8127988070401
 30
0.0
 11
2330.300322576593
 21
-371.598585244667
 31
0.0
  0
ARC
  5
1AD7E
330
18
100
AcDbEntity
  8
01
  6
BYBLOCK
100
AcDbCircle
 10
2339.86808952956
 20
-380.4592454164467
 30
0.0
 40
0.5
100
AcDbArc
 50
224.9999999999954
 51
270.0
  0
LINE
  5
1AD7F
330
18
100
AcDbEntity
  8
01
  6
BYBLOCK
100
AcDbLine
 10
2340.460982748374
 20
-380.9592454164467
 30
0.0
 11
2339.86808952956
 21
-380.9592454164467
 31
0.0
  0
LINE
  5
1AD81
330
18
100
AcDbEntity
  8
01
  6
BYBLOCK
100
AcDbLine
 10
2388.353853982262
 20
-594.9592454154181
 30
0.0
 11
2391.960098566314
 21
-591.3530008313667
 31
0.0
  0
LINE
  5
1AD82
330
18
100
AcDbEntity
  8
01
  6
BYBLOCK
100
AcDbLine
 10
2395.566343150365
 20
-594.9592454154181
 30
0.0
 11
2391.960098566314
 21
-591.3530008313667
 31
0.0
  0
LINE
  5
1AD83
330
18
100
AcDbEntity
  8
01
  6
BYBLOCK
100
AcDbLine
 10
2388.353853982262
 20
-594.9592454154181
 30
0.0
 11
2391.960098566314
 21
-598.5654899994693
 31
0.0
  0
LINE
  5
1AD84
330
18
100
AcDbEntity
  8
01
  6
BYBLOCK
100
AcDbLine
 10
2395.566343150365
 20
-594.9592454154181
 30
0.0
 11
2391.960098566314
 21
-598.5654899994693
 31
0.0
  0
LINE
  5
1AD85
330
18
100
AcDbEntity
  8
01
  6
BYBLOCK
100
AcDbLine
 10
2329.960098566314
 20
-613.927575148402
 30
0.0
 11
2329.960098566314
 21
-631.9909156824078
 31
0.0
  0
LINE
  5
1AD86
330
18
100
AcDbEntity
  8
01
  6
BYBLOCK
100
AcDbLine
 10
2334.252991785127
 20
-612.9592454154049
 30
0.0
 11
2340.960098566314
 21
-612.9592454154049
 31
0.0
  0
LINE
  5
1AD87
330
18
100
AcDbEntity
  8
01
  6
BYBLOCK
100
AcDbLine
 10
2334.252991785127
 20
-632.9592454154049
 30
0.0
 11
2340.960098566314
 21
-632.9592454154049
 31
0.0
  0
LINE
  5
1AD88
330
18
100
AcDbEntity
  8
01
  6
BYBLOCK
100
AcDbLine
 10
2339.752991785128
 20
-617.7092454154049
 30
0.0
 11
2339.752991785127
 21
-628.2092454154049
 31
0.0
  0
ARC
  5
1AD89
330
18
100
AcDbEntity
  8
01
  6
BYBLOCK
100
AcDbCircle
 10
2334.252991785127
 20
-622.9592454154049
 30
0.0
 40
10.00000000000009
100
AcDbArc
 50
53.13010235414986
 51
115.4224671781178
  0
ARC
  5
1AD8A
330
18
100
AcDbEntity
  8
01
  6
BYBLOCK
100
AcDbCircle
 10
2334.252991785127
 20
-622.9592454154047
 30
0.0
 40
10.00000000000009
100
AcDbArc
 50
244.5775328218822
 51
306.8698976458437
  0
LINE
  5
1AD8B
330
18
100
AcDbEntity
  8
01
  6
BYBLOCK
100
AcDbLine
 10
2340.252991785128
 20
-614.9592454154049
 30
0.0
 11
2340.252991785128
 21
-630.9592454154049
 31
0.0
  0
LINE
  5
1AD8C
330
18
100
AcDbEntity
  8
01
  6
BYBLOCK
100
AcDbLine
 10
2329.960098566314
 20
-617.7092454154049
 30
0.0
 11
2339.752991785128
 21
-617.7092454154049
 31
0.0
  0
LINE
  5
1AD8D
330
18
100
AcDbEntity
  8
01
  6
BYBLOCK
100
AcDbLine
 10
2329.960098566314
 20
-628.2092454154049
 30
0.0
 11
2339.752991785128
 21
-628.2092454154049
 31
0.0
  0
LINE
  5
1AD8E
330
18
100
AcDbEntity
  8
01
  6
BYBLOCK
100
AcDbLine
 10
2215.560214906059
 20
-559.0592454154187
 30
0.0
 11
2228.360214906058
 21
-559.0592454154187
 31
0.0
  0
LINE
  5
1AD8F
330
18
100
AcDbEntity
  8
01
  6
BYBLOCK
100
AcDbLine
 10
2215.560214906059
 20
-688.8592454154186
 30
0.0
 11
2228.360214906058
 21
-688.8592454154186
 31
0.0
  0
LINE
  5
1AD90
330
18
100
AcDbEntity
  8
01
  6
BYBLOCK
100
AcDbLine
 10
2209.560214906059
 20
-565.0592454154187
 30
0.0
 11
2209.560214906059
 21
-682.8592454154186
 31
0.0
  0
LINE
  5
1AD91
330
18
100
AcDbEntity
  8
01
  6
BYBLOCK
100
AcDbLine
 10
2234.360214906058
 20
-565.0592454154187
 30
0.0
 11
2234.360214906058
 21
-682.8592454154186
 31
0.0
  0
ARC
  5
1AD92
330
18
100
AcDbEntity
  8
01
  6
BYBLOCK
100
AcDbCircle
 10
2215.560214906059
 20
-682.8592454154186
 30
0.0
 40
6.0
100
AcDbArc
 50
180.0
 51
270.0
  0
ARC
  5
1AD93
330
18
100
AcDbEntity
  8
01
  6
BYBLOCK
100
AcDbCircle
 10
2228.360214906058
 20
-682.8592454154186
 30
0.0
 40
6.0
100
AcDbArc
 50
270.0
 51
0.0
  0
ARC
  5
1AD94
330
18
100
AcDbEntity
  8
01
  6
BYBLOCK
100
AcDbCircle
 10
2215.560214906059
 20
-565.0592454154187
 30
0.0
 40
6.0
100
AcDbArc
 50
90.0
 51
180.0
  0
ARC
  5
1AD95
330
18
100
AcDbEntity
  8
01
  6
BYBLOCK
100
AcDbCircle
 10
2228.360214906058
 20
-565.0592454154187
 30
0.0
 40
6.0
100
AcDbArc
 50
0.0
 51
90.0
  0
CIRCLE
  5
1AD96
330
18
100
AcDbEntity
  8
01
  6
BYBLOCK
100
AcDbCircle
 10
2221.960214906058
 20
-680.9592454154185
 30
0.0
 40
2.75
  0
CIRCLE
  5
1AD97
330
18
100
AcDbEntity
  8
01
  6
BYBLOCK
100
AcDbCircle
 10
2221.960214906058
 20
-680.9592454154185
 30
0.0
 40
4.25
  0
CIRCLE
  5
1AD98
330
18
100
AcDbEntity
  8
01
  6
BYBLOCK
100
AcDbCircle
 10
2221.960214906058
 20
-566.9592454154188
 30
0.0
 40
2.75
  0
CIRCLE
  5
1AD99
330
18
100
AcDbEntity
  8
01
  6
BYBLOCK
100
AcDbCircle
 10
2221.960214906058
 20
-566.9592454154188
 30
0.0
 40
4.25
  0
LINE
  5
1AD9A
330
18
100
AcDbEntity
  8
1CENTER
100
AcDbLine
 10
2227.835240313964
 20
-680.9592454154188
 30
0.0
 11
2216.085189498152
 21
-680.9592454154188
 31
0.0
  0
LINE
  5
1AD9B
330
18
100
AcDbEntity
  8
1CENTER
100
AcDbLine
 10
2221.960214906058
 20
-675.0842200075124
 30
0.0
 11
2221.960214906058
 21
-686.8342708233249
 31
0.0
  0
LINE
  5
1AD9C
330
18
100
AcDbEntity
  8
1CENTER
100
AcDbLine
 10
2227.835240313964
 20
-566.9592454154188
 30
0.0
 11
2216.085189498152
 21
-566.9592454154188
 31
0.0
  0
LINE
  5
1AD9D
330
18
100
AcDbEntity
  8
1CENTER
100
AcDbLine
 10
2221.960214906058
 20
-561.0842200075124
 30
0.0
 11
2221.960214906058
 21
-572.8342708233249
 31
0.0
  0
ARC
  5
1AD9E
330
18
100
AcDbEntity
  8
01
  6
BYBLOCK
100
AcDbCircle
 10
2221.960214906058
 20
-622.9592454154185
 30
0.0
 40
10.15
100
AcDbArc
 50
231.9925780701365
 51
308.0074219298635
  0
LINE
  5
1AD9F
330
18
100
AcDbEntity
  8
01
  6
BYBLOCK
100
AcDbLine
 10
2215.710214906058
 20
-614.9617458061657
 30
0.0
 11
2215.710214906058
 21
-630.9567450246714
 31
0.0
  0
LINE
  5
1ADA0
330
18
100
AcDbEntity
  8
01
  6
BYBLOCK
100
AcDbLine
 10
2228.210214906058
 20
-614.9617458061657
 30
0.0
 11
2228.210214906058
 21
-630.9567450246714
 31
0.0
  0
ARC
  5
1ADA1
330
18
100
AcDbEntity
  8
01
  6
BYBLOCK
100
AcDbCircle
 10
2221.960214906058
 20
-622.9592454154185
 30
0.0
 40
10.15
100
AcDbArc
 50
51.99257807014251
 51
128.0074219298575
  0
LINE
  5
1ADA2
330
18
100
AcDbEntity
  8
01
  6
BYBLOCK
100
AcDbLine
 10
2217.460214906058
 20
-617.7092454154185
 30
0.0
 11
2217.460214906058
 21
-628.2092454154185
 31
0.0
  0
LINE
  5
1ADA3
330
18
100
AcDbEntity
  8
01
  6
BYBLOCK
100
AcDbLine
 10
2227.460214906058
 20
-617.7092454154185
 30
0.0
 11
2227.460214906058
 21
-628.2092454154185
 31
0.0
  0
LINE
  5
1ADA4
330
18
100
AcDbEntity
  8
01
  6
BYBLOCK
100
AcDbLine
 10
2217.960214906058
 20
-613.6306603137002
 30
0.0
 11
2217.960214906058
 21
-617.7092454154188
 31
0.0
  0
LINE
  5
1ADA5
330
18
100
AcDbEntity
  8
01
  6
BYBLOCK
100
AcDbLine
 10
2216.460214906058
 20
-617.7092454154188
 30
0.0
 11
2216.460214906058
 21
-628.2092454154185
 31
0.0
  0
LINE
  5
1ADA6
330
18
100
AcDbEntity
  8
01
  6
BYBLOCK
100
AcDbLine
 10
2217.960214906058
 20
-628.2092454154185
 30
0.0
 11
2217.960214906058
 21
-632.2878305171369
 31
0.0
  0
LINE
  5
1ADA7
330
18
100
AcDbEntity
  8
01
  6
BYBLOCK
100
AcDbLine
 10
2216.460214906058
 20
-617.7092454154185
 30
0.0
 11
2227.460214906058
 21
-617.7092454154185
 31
0.0
  0
LINE
  5
1ADA8
330
18
100
AcDbEntity
  8
01
  6
BYBLOCK
100
AcDbLine
 10
2216.460214906058
 20
-628.2092454154185
 30
0.0
 11
2227.460214906058
 21
-628.2092454154185
 31
0.0
  0
LINE
  5
1ADAA
330
18
100
AcDbEntity
  8
01
100
AcDbLine
 10
2201.960331245801
 20
-524.9592454154183
 30
0.0
 11
2201.960331245801
 21
-714.9592454154185
 31
0.0
  0
LINE
  5
1ADAB
330
18
100
AcDbEntity
  8
01
100
AcDbLine
 10
2201.960331245801
 20
-619.9592454154185
 30
0.0
 11
2201.960331245801
 21
-669.9592454154185
 31
0.0
  0
LINE
  5
1ADAC
330
18
100
AcDbEntity
  8
01
100
AcDbLine
 10
2193.460331245801
 20
-668.9592454154185
 30
0.0
 11
2193.460331245801
 21
-620.9592454154185
 31
0.0
  0
LINE
  5
1ADAD
330
18
100
AcDbEntity
  8
01
100
AcDbLine
 10
2201.960331245801
 20
-669.9592454154185
 30
0.0
 11
2194.460331245801
 21
-669.9592454154185
 31
0.0
  0
ARC
  5
1ADAE
330
18
100
AcDbEntity
  8
01
100
AcDbCircle
 10
2194.460331245801
 20
-668.9592454154185
 30
0.0
 40
1.0
100
AcDbArc
 50
180.0
 51
270.0
  0
LINE
  5
1ADAF
330
18
100
AcDbEntity
  8
01
100
AcDbLine
 10
2201.960331245801
 20
-619.9592454154185
 30
0.0
 11
2194.460331245801
 21
-619.9592454154185
 31
0.0
  0
ARC
  5
1ADB0
330
18
100
AcDbEntity
  8
01
100
AcDbCircle
 10
2194.460331245801
 20
-620.9592454154185
 30
0.0
 40
1.0
100
AcDbArc
 50
90.0
 51
180.0
  0
LINE
  5
1ADB1
330
18
100
AcDbEntity
  8
01
100
AcDbLine
 10
2204.088616628233
 20
-644.9592454154185
 30
0.0
 11
2181.460331245801
 21
-644.9592454154185
 31
0.0
  0
LINE
  5
1ADB2
330
18
100
AcDbEntity
  8
01
100
AcDbLine
 10
2335.960098566601
 20
-680.9592454151293
 30
0.0
 11
2349.960098566601
 21
-680.9592454151293
 31
0.0
  0
LINE
  5
1ADB3
330
18
100
AcDbEntity
  8
01
100
AcDbLine
 10
2403.271986833854
 20
-594.9592454154181
 30
0.0
 11
2380.648210298771
 21
-594.9592454154181
 31
0.0
  0
LINE
  5
1ADB4
330
18
100
AcDbEntity
  8
01
100
AcDbLine
 10
2391.960098566314
 20
-583.6473571478764
 30
0.0
 11
2391.960098566314
 21
-606.2711336829598
 31
0.0
  0
LINE
  5
1ADB5
330
18
100
AcDbEntity
  8
01
  6
BYBLOCK
100
AcDbLine
 10
2113.960331245805
 20
-613.927575148402
 30
0.0
 11
2113.960331245805
 21
-631.9909156824078
 31
0.0
  0
LINE
  5
1ADB6
330
18
100
AcDbEntity
  8
01
  6
BYBLOCK
100
AcDbLine
 10
2109.667438026991
 20
-612.9592454154049
 30
0.0
 11
2102.960331245805
 21
-612.9592454154049
 31
0.0
  0
LINE
  5
1ADB7
330
18
100
AcDbEntity
  8
01
  6
BYBLOCK
100
AcDbLine
 10
2109.667438026991
 20
-632.9592454154049
 30
0.0
 11
2102.960331245805
 21
-632.9592454154049
 31
0.0
  0
ARC
  5
1ADB8
330
18
100
AcDbEntity
  8
01
  6
BYBLOCK
100
AcDbCircle
 10
2109.667438026991
 20
-622.9592454154049
 30
0.0
 40
10.00000000000009
100
AcDbArc
 50
64.57753282188216
 51
90.0
  0
LINE
  5
1ADB9
330
18
100
AcDbEntity
  8
01
  6
CONTINUOUS
100
AcDbLine
 10
2113.460331245805
 20
-631.2740396082356
 30
0.0
 11
2102.960331245805
 21
-631.2740396082356
 31
0.0
  0
ARC
  5
1ADBA
330
18
100
AcDbEntity
  8
01
  6
CONTINUOUS
100
AcDbCircle
 10
2113.498911492718
 20
-630.8119003774289
 30
0.0
 40
0.4637468103423796
100
AcDbArc
 50
265.2279066161926
 51
354.2577450626241
  0
LINE
  5
1ADBB
330
18
100
AcDbEntity
  8
01
  6
CONTINUOUS
100
AcDbLine
 10
2113.960331245805
 20
-615.4759306418568
 30
0.0
 11
2113.960331245805
 21
-630.4425601889527
 31
0.0
  0
ARC
  5
1ADBC
330
18
100
AcDbEntity
  8
01
  6
CONTINUOUS
100
AcDbCircle
 10
2113.498911492718
 20
-615.1065904533805
 30
0.0
 40
0.4637468103423387
100
AcDbArc
 50
5.742254937375924
 51
94.77209338380747
  0
ARC
  5
1ADBD
330
18
100
AcDbEntity
  8
01
  6
BYBLOCK
100
AcDbCircle
 10
2109.667438026991
 20
-622.9592454154047
 30
0.0
 40
10.00000000000009
100
AcDbArc
 50
270.0
 51
295.4224671781178
  0
LINE
  5
1ADBE
330
18
100
AcDbEntity
  8
01
  6
CONTINUOUS
100
AcDbLine
 10
2102.960331245805
 20
-614.6444512225737
 30
0.0
 11
2113.460331245805
 21
-614.6444512225737
 31
0.0
  0
LINE
  5
1ADBF
330
18
100
AcDbEntity
  8
01
100
AcDbLine
 10
2409.960098566314
 20
-627.6098938425209
 30
0.0
 11
2409.960098566314
 21
-659.759245415418
 31
0.0
  0
ARC
  5
1ADC0
330
18
100
AcDbEntity
  8
01
100
AcDbCircle
 10
2408.960098566314
 20
-659.9592454154181
 30
0.0
 40
1.0
100
AcDbArc
 50
270.0
 51
0.0
  0
LINE
  5
1ADC1
330
18
100
AcDbEntity
  8
01
100
AcDbLine
 10
2372.750725854015
 20
-660.9592454154181
 30
0.0
 11
2408.960098566314
 21
-660.9592454154179
 31
0.0
  0
LINE
  5
1ADC2
330
18
100
AcDbEntity
  8
01
100
AcDbLine
 10
2081.960331245805
 20
-644.9592454154181
 30
0.0
 11
2021.960331245805
 21
-644.9592454154181
 31
0.0
  0
LINE
  5
1ADC3
330
18
100
AcDbEntity
  8
01
100
AcDbLine
 10
2051.960331245805
 20
-614.9592454154181
 30
0.0
 11
2051.960331245805
 21
-674.9592454154181
 31
0.0
  0
LINE
  5
1ADC4
330
18
100
AcDbEntity
  8
01
  6
BYBLOCK
100
AcDbLine
 10
2409.960098566314
 20
-598.1771264478398
 30
0.0000000000001137
 11
2409.960098566314
 21
-627.6098938425209
 31
0.0
  0
LINE
  5
1ADC5
330
18
100
AcDbEntity
  8
01
  6
BYBLOCK
100
AcDbLine
 10
2343.660098566314
 20
-586.9592454154181
 30
0.0
 11
2372.116995488331
 21
-586.9592454154181
 31
0.0000000000001137
  0
ARC
  5
1ADC6
330
18
100
AcDbEntity
  8
01
  6
BYBLOCK
100
AcDbCircle
 10
2408.960098566314
 20
-587.9592454154181
 30
0.0
 40
1.0
100
AcDbArc
 50
0.0
 51
90.0
  0
LINE
  5
1ADC7
330
18
100
AcDbEntity
  8
01
  6
BYBLOCK
100
AcDbLine
 10
2372.116995488331
 20
-586.9592454154181
 30
0.0000000000001137
 11
2408.960098566314
 21
-586.9592454154181
 31
0.0
  0
LINE
  5
1ADC8
330
18
100
AcDbEntity
  8
01
  6
BYBLOCK
100
AcDbLine
 10
2409.960098566314
 20
-587.9592454154181
 30
0.0
 11
2409.960098566314
 21
-598.1771264478398
 31
0.0000000000001137
  0
LINE
  5
1ADC9
330
18
100
AcDbEntity
  8
01
100
AcDbLine
 10
2107.960331245805
 20
-566.9592454154181
 30
0.0
 11
2093.960331245805
 21
-566.9592454154181
 31
0.0
  0
LINE
  5
1ADCA
330
18
100
AcDbEntity
  8
01
  6
BYBLOCK
100
AcDbLine
 10
2101.460331245805
 20
-559.059245415418
 30
0.0
 11
2101.460331245805
 21
-688.859245415418
 31
0.0
  0
LINE
  5
1ADCB
330
18
100
AcDbEntity
  8
01
  6
BYBLOCK
100
AcDbLine
 10
2101.460331245805
 20
-687.9592454154181
 30
0.0
 11
2098.960331245805
 21
-687.9592454154181
 31
0.0
  0
LINE
  5
1ADCC
330
18
100
AcDbEntity
  8
01
  6
BYBLOCK
100
AcDbLine
 10
2098.960331245805
 20
-687.9592454154181
 30
0.0
 11
2098.960331245805
 21
-671.4563016902657
 31
0.0
  0
LINE
  5
1ADCD
330
18
100
AcDbEntity
  8
01
  6
BYBLOCK
100
AcDbLine
 10
2102.960331245805
 20
-559.059245415418
 30
0.0
 11
2102.960331245805
 21
-688.859245415418
 31
0.0
  0
LINE
  5
1ADCE
330
18
100
AcDbEntity
  8
01
  6
BYBLOCK
100
AcDbLine
 10
2102.960331245805
 20
-688.859245415418
 30
0.0
 11
2101.460331245805
 21
-688.859245415418
 31
0.0
  0
LINE
  5
1ADCF
330
18
100
AcDbEntity
  8
01
  6
BYBLOCK
100
AcDbLine
 10
2101.460331245805
 20
-559.9592454154181
 30
0.0
 11
2098.960331245805
 21
-559.9592454154181
 31
0.0
  0
LINE
  5
1ADD0
330
18
100
AcDbEntity
  8
01
  6
BYBLOCK
100
AcDbLine
 10
2102.960331245805
 20
-559.059245415418
 30
0.0
 11
2101.460331245805
 21
-559.059245415418
 31
0.0
  0
LINE
  5
1ADD1
330
18
100
AcDbEntity
  8
01
  6
BYBLOCK
100
AcDbLine
 10
2101.460331245805
 20
-583.9592454154181
 30
0.0
 11
2100.260331245805
 21
-583.9592454154181
 31
0.0
  0
LINE
  5
1ADD2
330
18
100
AcDbEntity
  8
01
  6
BYBLOCK
100
AcDbLine
 10
2100.260331245805
 20
-578.2592454154178
 30
0.0
 11
2100.260331245805
 21
-669.6592454154179
 31
0.0
  0
LINE
  5
1ADD3
330
18
100
AcDbEntity
  8
01
  6
BYBLOCK
100
AcDbLine
 10
2100.160331245805
 20
-687.9592454154181
 30
0.0
 11
2100.160331245805
 21
-671.359245415418
 31
0.0
  0
LINE
  5
1ADD4
330
18
100
AcDbEntity
  8
01
  6
BYBLOCK
100
AcDbLine
 10
2100.160331245805
 20
-671.359245415418
 30
0.0
 11
2101.108859383229
 21
-670.4107172779941
 31
0.0
  0
LINE
  5
1ADD5
330
18
100
AcDbEntity
  8
01
  6
BYBLOCK
100
AcDbLine
 10
2099.311803108381
 20
-670.6077735528418
 30
0.0
 11
2100.260331245805
 21
-669.6592454154179
 31
0.0
  0
ARC
  5
1ADD6
330
18
100
AcDbEntity
  8
01
  6
BYBLOCK
100
AcDbCircle
 10
2100.160331245805
 20
-671.4563016902657
 30
0.0
 40
1.2
100
AcDbArc
 50
134.9999999999616
 51
180.0
  0
ARC
  5
1ADD7
330
18
100
AcDbEntity
  8
01
  6
BYBLOCK
100
AcDbCircle
 10
2100.260331245805
 20
-669.5621891405701
 30
0.0
 40
1.2
100
AcDbArc
 50
314.9999999999616
 51
0.0
  0
LINE
  5
1ADD8
330
18
100
AcDbEntity
  8
01
  6
BYBLOCK
100
AcDbLine
 10
2098.960331245805
 20
-559.9592454154181
 30
0.0
 11
2098.960331245805
 21
-576.4621891405702
 31
0.0
  0
LINE
  5
1ADD9
330
18
100
AcDbEntity
  8
01
  6
BYBLOCK
100
AcDbLine
 10
2100.160331245805
 20
-559.9592454154181
 30
0.0
 11
2100.160331245805
 21
-576.559245415418
 31
0.0
  0
LINE
  5
1ADDA
330
18
100
AcDbEntity
  8
01
  6
BYBLOCK
100
AcDbLine
 10
2100.160331245805
 20
-576.559245415418
 30
0.0
 11
2101.108859383229
 21
-577.5077735528419
 31
0.0
  0
LINE
  5
1ADDB
330
18
100
AcDbEntity
  8
01
  6
BYBLOCK
100
AcDbLine
 10
2099.311803108381
 20
-577.3107172779942
 30
0.0
 11
2100.260331245805
 21
-578.259245415418
 31
0.0
  0
ARC
  5
1ADDC
330
18
100
AcDbEntity
  8
01
  6
BYBLOCK
100
AcDbCircle
 10
2100.160331245805
 20
-576.4621891405702
 30
0.0
 40
1.2
100
AcDbArc
 50
180.0
 51
225.0000000000384
  0
ARC
  5
1ADDD
330
18
100
AcDbEntity
  8
01
  6
BYBLOCK
100
AcDbCircle
 10
2100.260331245805
 20
-578.3563016902658
 30
0.0
 40
1.2
100
AcDbArc
 50
0.0
 51
45.00000000003838
  0
CIRCLE
  5
1ADDE
330
18
100
AcDbEntity
  8
01
  6
BYBLOCK
100
AcDbCircle
 10
2051.960331245805
 20
-594.9592454154181
 30
0.0
 40
4.749999999999998
  0
LINE
  5
1ADDF
330
18
100
AcDbEntity
  8
01
  6
BYBLOCK
100
AcDbLine
 10
2100.260331245805
 20
-660.9592454154183
 30
0.0
 11
2071.169703958104
 21
-660.9592454154181
 31
0.0
  0
LINE
  5
1ADE0
330
18
100
AcDbEntity
  8
01
  6
BYBLOCK
100
AcDbLine
 10
2055.566575829856
 20
-594.9592454154181
 30
0.0
 11
2051.960331245805
 21
-591.3530008313667
 31
0.0
  0
LINE
  5
1ADE1
330
18
100
AcDbEntity
  8
01
  6
BYBLOCK
100
AcDbLine
 10
2048.354086661753
 20
-594.9592454154181
 30
0.0
 11
2051.960331245805
 21
-591.3530008313667
 31
0.0
  0
LINE
  5
1ADE2
330
18
100
AcDbEntity
  8
01
  6
BYBLOCK
100
AcDbLine
 10
2055.566575829856
 20
-594.9592454154181
 30
0.0
 11
2051.960331245805
 21
-598.5654899994693
 31
0.0
  0
LINE
  5
1ADE3
330
18
100
AcDbEntity
  8
01
  6
BYBLOCK
100
AcDbLine
 10
2048.354086661753
 20
-594.9592454154181
 30
0.0
 11
2051.960331245805
 21
-598.5654899994693
 31
0.0
  0
LINE
  5
1ADE4
330
18
100
AcDbEntity
  8
01
  6
BYBLOCK
100
AcDbLine
 10
2109.667438026991
 20
-612.9592454154049
 30
0.0
 11
2102.960331245805
 21
-612.9592454154049
 31
0.0
  0
LINE
  5
1ADE5
330
18
100
AcDbEntity
  8
01
  6
BYBLOCK
100
AcDbLine
 10
2109.667438026991
 20
-632.9592454154049
 30
0.0
 11
2102.960331245805
 21
-632.9592454154049
 31
0.0
  0
LINE
  5
1ADE6
330
18
100
AcDbEntity
  8
01
100
AcDbLine
 10
2107.960331245517
 20
-680.9592454151293
 30
0.0
 11
2093.960331245517
 21
-680.9592454151293
 31
0.0
  0
LINE
  5
1ADE7
330
18
100
AcDbEntity
  8
01
  6
BYBLOCK
100
AcDbLine
 10
2033.960331245805
 20
-598.1771264478398
 30
0.0000000000001137
 11
2033.960331245805
 21
-627.6098938425209
 31
0.0
  0
LINE
  5
1ADE8
330
18
100
AcDbEntity
  8
01
  6
BYBLOCK
100
AcDbLine
 10
2100.260331245805
 20
-586.9592454154181
 30
0.0
 11
2071.803434323788
 21
-586.9592454154181
 31
0.0000000000001137
  0
ARC
  5
1ADE9
330
18
100
AcDbEntity
  8
01
  6
BYBLOCK
100
AcDbCircle
 10
2034.960331245805
 20
-587.9592454154181
 30
0.0
 40
0.9999999999999996
100
AcDbArc
 50
90.0
 51
180.0
  0
LINE
  5
1ADEA
330
18
100
AcDbEntity
  8
01
  6
BYBLOCK
100
AcDbLine
 10
2071.803434323788
 20
-586.9592454154181
 30
0.0000000000001137
 11
2034.960331245805
 21
-586.9592454154181
 31
0.0
  0
LINE
  5
1ADEB
330
18
100
AcDbEntity
  8
01
  6
BYBLOCK
100
AcDbLine
 10
2033.960331245805
 20
-587.9592454154181
 30
0.0
 11
2033.960331245805
 21
-598.1771264478398
 31
0.0000000000001137
  0
TEXT
  5
1ADEE
330
18
100
AcDbEntity
  8
1TEXT
100
AcDbText
 10
1946.8915467207
 20
-354.877747929251
 30
0.0
 40
20.0
  1
1-JSC-X-LJ
100
AcDbText
  0
LINE
  5
1ADEF
330
18
100
AcDbEntity
  8
1DIM
100
AcDbLine
 10
1946.8915467207
 20
-401.6293324112216
 30
0.0
 11
2104.391546720701
 21
-401.6293324112216
 31
0.0
  0
TEXT
  5
1ADF0
330
18
100
AcDbEntity
  8
1TEXT
100
AcDbText
 10
1951.996546720702
 20
-378.3793324112216
 30
0.0
 40
6.0
  1
表面処理：本体
 41
0.85
 72
     1
 11
1972.991546720702
 21
-378.3793324112216
 31
0.0
100
AcDbText
  0
TEXT
  5
1ADF1
330
18
100
AcDbEntity
  8
1TEXT
100
AcDbText
 10
1958.791546720702
 20
-388.6322654005085
 30
0.0
 40
6.0
  1
クローム
 72
     1
 11
1972.991546720702
 21
-388.6322654005085
 31
0.0
100
AcDbText
  0
LINE
  5
1ADF2
330
18
100
AcDbEntity
  8
1DIM
100
AcDbLine
 10
1946.8915467207
 20
-370.1293324112216
 30
0.0
 11
2104.391546720701
 21
-370.1293324112216
 31
0.0
  0
LINE
  5
1ADF3
330
18
100
AcDbEntity
  8
1DIM
100
AcDbLine
 10
1946.8915467207
 20
-380.6293324112216
 30
0.0
 11
2104.391546720701
 21
-380.6293324112216
 31
0.0
  0
LINE
  5
1ADF4
330
18
100
AcDbEntity
  8
1DIM
100
AcDbLine
 10
1946.8915467207
 20
-391.1293324112216
 30
0.0
 11
2104.391546720701
 21
-391.1293324112216
 31
0.0
  0
LINE
  5
1ADF5
330
18
100
AcDbEntity
  8
1DIM
100
AcDbLine
 10
1946.8915467207
 20
-391.1293324112216
 30
0.0
 11
2104.391546720701
 21
-391.1293324112216
 31
0.0
  0
LINE
  5
1ADF6
330
18
100
AcDbEntity
  8
1DIM
100
AcDbLine
 10
1999.3915467207
 20
-370.1293324112216
 30
0.0
 11
1999.391546720701
 21
-401.6293324112216
 31
0.0
  0
TEXT
  5
1ADF7
330
18
100
AcDbEntity
  8
1TEXT
100
AcDbText
 10
1948.191546720702
 20
-399.0957028285779
 30
0.0
 40
6.0
  1
サテンニッケル
 72
     1
 11
1972.991546720702
 21
-399.0957028285779
 31
0.0
100
AcDbText
  0
LINE
  5
1ADF8
330
18
100
AcDbEntity
  8
1DIM
100
AcDbLine
 10
1946.8915467207
 20
-401.6293324112216
 30
0.0
 11
1946.8915467207
 21
-370.1293324112216
 31
0.0
  0
LINE
  5
1ADF9
330
18
100
AcDbEntity
  8
1DIM
100
AcDbLine
 10
2051.8915467207
 20
-401.6293324112216
 30
0.0
 11
2051.8915467207
 21
-370.1293324112216
 31
0.0
  0
TEXT
  5
1ADFA
330
18
100
AcDbEntity
  8
1TEXT
100
AcDbText
 10
2056.291546720702
 20
-389.2008678866955
 30
0.0
 40
6.0
  1
1-JSC-CN-LJ
 41
0.6999999999999998
 72
     1
 11
2077.991546720702
 21
-389.2008678866955
 31
0.0
100
AcDbText
  0
TEXT
  5
1ADFB
330
18
100
AcDbEntity
  8
1TEXT
100
AcDbText
 10
2067.691546720702
 20
-378.3793324112216
 30
0.0
 40
6.0
  1
コード
 72
     1
 11
2077.991546720702
 21
-378.3793324112216
 31
0.0
100
AcDbText
  0
LINE
  5
1ADFC
330
18
100
AcDbEntity
  8
1DIM
100
AcDbLine
 10
2104.3915467207
 20
-401.6293324112216
 30
0.0
 11
2104.3915467207
 21
-370.1293324112216
 31
0.0
  0
TEXT
  5
1ADFD
330
18
100
AcDbEntity
  8
1TEXT
100
AcDbText
 10
2054.191546720702
 20
-399.7008678866955
 30
0.0
 40
6.0
  1
1-JSC-N4Q-LJ
 41
0.6999999999999998
 72
     1
 11
2077.991546720702
 21
-399.7008678866955
 31
0.0
100
AcDbText
  0
TEXT
  5
1ADFE
330
18
100
AcDbEntity
  8
1TEXT
100
AcDbText
 10
2001.776546720702
 20
-378.3793324112216
 30
0.0
 40
6.0
  1
表面処理：カバー
 41
0.85
 72
     1
 11
2025.491546720702
 21
-378.3793324112216
 31
0.0
100
AcDbText
  0
TEXT
  5
1ADFF
330
18
100
AcDbEntity
  8
1TEXT
100
AcDbText
 10
2000.691546720702
 20
-388.6322654005085
 30
0.0
 40
6.0
  1
サテンニッケル
 72
     1
 11
2025.491546720702
 21
-388.6322654005085
 31
0.0
100
AcDbText
  0
TEXT
  5
1AE00
330
18
100
AcDbEntity
  8
1TEXT
100
AcDbText
 10
2001.191546720702
 20
-399.0957028285779
 30
0.0
 40
6.0
  1
ダークアンバー
 72
     1
 11
2025.491546720702
 21
-399.0957028285779
 31
0.0
100
AcDbText
  0
LINE
  5
1AE01
330
18
100
AcDbEntity
  8
01
100
AcDbLine
 10
2367.960098566314
 20
-403.4605637285208
 30
0.0
 11
2415.960098566314
 21
-403.4605637285208
 31
0.0
  0
LINE
  5
1AE02
330
18
100
AcDbEntity
  8
01
100
AcDbLine
 10
2366.960098566314
 20
-394.9605637285208
 30
0.0
 11
2366.960098566314
 21
-402.4605637285208
 31
0.0
  0
ARC
  5
1AE03
330
18
100
AcDbEntity
  8
01
100
AcDbCircle
 10
2367.960098566314
 20
-402.4605637285208
 30
0.0
 40
1.0
100
AcDbArc
 50
180.0
 51
270.0
  0
LINE
  5
1AE04
330
18
100
AcDbEntity
  8
01
100
AcDbLine
 10
2416.960098566314
 20
-394.9605637285208
 30
0.0
 11
2416.960098566314
 21
-402.4605637285208
 31
0.0
  0
ARC
  5
1AE05
330
18
100
AcDbEntity
  8
01
100
AcDbCircle
 10
2415.960098566314
 20
-402.4605637285208
 30
0.0
 40
1.0
100
AcDbArc
 50
270.0
 51
0.0
  0
LINE
  5
1AE07
330
18
100
AcDbEntity
  8
01
100
AcDbLine
 10
2241.960098566314
 20
-619.9592454154181
 30
0.0
 11
2241.960098566314
 21
-669.9592454154181
 31
0.0
  0
LINE
  5
1AE08
330
18
100
AcDbEntity
  8
01
100
AcDbLine
 10
2250.460098566314
 20
-668.9592454154181
 30
0.0
 11
2250.460098566314
 21
-620.9592454154181
 31
0.0
  0
LINE
  5
1AE09
330
18
100
AcDbEntity
  8
01
100
AcDbLine
 10
2241.960098566314
 20
-669.9592454154181
 30
0.0
 11
2249.460098566314
 21
-669.9592454154181
 31
0.0
  0
ARC
  5
1AE0A
330
18
100
AcDbEntity
  8
01
100
AcDbCircle
 10
2249.460098566314
 20
-668.9592454154181
 30
0.0
 40
1.0
100
AcDbArc
 50
270.0
 51
0.0
  0
LINE
  5
1AE0B
330
18
100
AcDbEntity
  8
01
100
AcDbLine
 10
2241.960098566314
 20
-619.9592454154181
 30
0.0
 11
2249.460098566314
 21
-619.9592454154181
 31
0.0
  0
ARC
  5
1AE0C
330
18
100
AcDbEntity
  8
01
100
AcDbCircle
 10
2249.460098566314
 20
-620.9592454154181
 30
0.0
 40
1.0
100
AcDbArc
 50
0.0
 51
90.0
  0
LINE
  5
1AE0D
330
18
100
AcDbEntity
  8
01
100
AcDbLine
 10
2239.831813183883
 20
-644.9592454154181
 30
0.0
 11
2262.460098566314
 21
-644.9592454154181
 31
0.0
  0
LINE
  5
1AE0E
330
18
100
AcDbEntity
  8
01
100
AcDbLine
 10
2366.960098566314
 20
-394.9605637285208
 30
0.0
 11
2416.960098566314
 21
-394.9605637285208
 31
0.0
  0
LINE
  5
1AE0F
330
18
100
AcDbEntity
  8
01
  6
BYBLOCK
100
AcDbLine
 10
2340.960866408631
 20
-394.9605637285208
 30
0.0
 11
2494.715246563662
 21
-394.9605637285208
 31
0.0
  0
LINE
  5
1AE10
330
18
100
AcDbEntity
  8
01
100
AcDbLine
 10
2391.960098566314
 20
-389.9605637285208
 30
0.0
 11
2391.960098566314
 21
-416.4605637285208
 31
0.0
  0
LINE
  5
1AE11
330
18
100
AcDbEntity
  8
01
100
AcDbLine
 10
2241.960098566314
 20
-524.9592454154181
 30
0.0
 11
2241.960098566314
 21
-714.9592454154181
 31
0.0
  0
LINE
  5
1AE12
330
18
100
AcDbEntity
  8
1CENTER
100
AcDbLine
 10
2256.460098566314
 20
-659.9592454154181
 30
0.0
 11
2256.460098566314
 21
-651.9592454154181
 31
0.0
  0
LINE
  5
1AE13
330
18
100
AcDbEntity
  8
01
100
AcDbLine
 10
2361.960098566314
 20
-644.9592454154181
 30
0.0
 11
2421.960098566314
 21
-644.9592454154181
 31
0.0
  0
LINE
  5
1AE14
330
18
100
AcDbEntity
  8
01
100
AcDbLine
 10
2391.960098566314
 20
-614.9592454154181
 30
0.0
 11
2391.960098566314
 21
-674.9592454154181
 31
0.0
  0
LINE
  5
1AE16
330
18
100
AcDbEntity
  8
01
  6
CONTINUOUS
100
AcDbLine
 10
2381.960093797942
 20
-403.9605637285208
 30
0.0
 11
2381.960093797942
 21
-403.7605640682673
 31
0.0
  0
LINE
  5
1AE17
330
18
100
AcDbEntity
  8
01
  6
CONTINUOUS
100
AcDbLine
 10
2401.960097076198
 20
-403.7605640682673
 30
0.0
 11
2401.960097076198
 21
-403.9605637285208
 31
0.0
  0
LINE
  5
1AE18
330
18
100
AcDbEntity
  8
01
  6
CONTINUOUS
100
AcDbLine
 10
2502.210095347663
 20
-456.9605649653176
 30
0.0
 11
2512.210096986791
 21
-456.9605649653176
 31
0.0
  0
LINE
  5
1AE19
330
18
100
AcDbEntity
  8
01
  6
CONTINUOUS
100
AcDbLine
 10
2512.210096986791
 20
-430.9605642542529
 30
0.0
 11
2502.210095347663
 21
-430.9605642542529
 31
0.0
  0
ARC
  5
1AE1A
330
18
100
AcDbEntity
  8
01
  6
CONTINUOUS
100
AcDbCircle
 10
2512.210096168908
 20
-432.7105642551164
 30
0.0
 40
1.750000000000014
100
AcDbArc
 50
0.0
 51
90.0
  0
ARC
  5
1AE1B
330
18
100
AcDbEntity
  8
01
  6
CONTINUOUS
100
AcDbCircle
 10
2512.210096168908
 20
-455.2105642551162
 30
0.0
 40
1.750000000000014
100
AcDbArc
 50
270.0
 51
0.0
  0
LINE
  5
1AE1C
330
18
100
AcDbEntity
  8
01
  6
CONTINUOUS
100
AcDbLine
 10
2513.960093082686
 20
-455.2105651441316
 30
0.0
 11
2513.960093082686
 21
-432.7105642500619
 31
0.0
  0
SPLINE
  5
1AE1D
330
18
100
AcDbEntity
  8
01
  6
CONTINUOUS
100
AcDbSpline
210
0.0
220
0.0
230
1.0
 70
    24
 71
     3
 72
    20
 73
    16
 74
     0
 42
0.0000000001
 43
0.0000000001
 40
0.0
 40
0.0
 40
0.0
 40
0.0
 40
0.0731346163765912
 40
0.1463391946721071
 40
0.2195100232335505
 40
0.2938916949578327
 40
0.3682983932363739
 40
0.4427020641210451
 40
0.5817231586829507
 40
0.651238619435197
 40
0.7207512800910622
 40
0.7903829753712032
 40
0.8600091427765312
 40
0.9300081034668024
 40
1.0
 40
1.0
 40
1.0
 40
1.0
 10
2493.960097255012
 20
-430.9605642542529
 30
0.0
 10
2491.952435114941
 20
-430.9605642542529
 30
0.0
 10
2487.935190268278
 20
-430.9605642542529
 30
0.0
 10
2481.931217364409
 20
-430.9605642542529
 30
0.0
 10
2475.927114030608
 20
-430.9605642542529
 30
0.0
 10
2469.930055276549
 20
-430.9605642542529
 30
0.0
 10
2463.936363321434
 20
-430.9605642542529
 30
0.0
 10
2456.243233553624
 20
-430.9605642542529
 30
0.0
 10
2448.709942435537
 20
-430.9605642542529
 30
0.0
 10
2441.288986667267
 20
-430.9605642542529
 30
0.0
 10
2435.70062619101
 20
-430.9605642542529
 30
0.0
 10
2430.08165664364
 20
-430.9605642542529
 30
0.0
 10
2424.416725561422
 20
-430.9605642542529
 30
0.0
 10
2418.709917463199
 20
-430.9605642542529
 30
0.0
 10
2414.876639354397
 20
-430.9605642542529
 30
0.0
 10
2412.960097016593
 20
-430.9605642542529
 30
0.0
  0
ARC
  5
1AE1E
330
18
100
AcDbEntity
  8
01
  6
CONTINUOUS
100
AcDbCircle
 10
2502.210096168908
 20
-432.7105642551164
 30
0.0
 40
1.75
100
AcDbArc
 50
0.0
 51
90.0
  0
LINE
  5
1AE1F
330
18
100
AcDbEntity
  8
01
  6
CONTINUOUS
100
AcDbLine
 10
2503.960095168849
 20
-455.2105651441316
 30
0.0
 11
2503.960095168849
 21
-432.7105642500619
 31
0.0
  0
ARC
  5
1AE20
330
18
100
AcDbEntity
  8
01
  6
CONTINUOUS
100
AcDbCircle
 10
2502.210096168908
 20
-455.2105642551162
 30
0.0
 40
1.75
100
AcDbArc
 50
270.0
 51
0.0
  0
LINE
  5
1AE21
330
18
100
AcDbEntity
  8
01
  6
CONTINUOUS
100
AcDbLine
 10
2502.210095347663
 20
-430.9605642542529
 30
0.0
 11
2493.960097255012
 21
-430.9605642542529
 31
0.0
  0
LINE
  5
1AE22
330
18
100
AcDbEntity
  8
01
  6
CONTINUOUS
100
AcDbLine
 10
2493.960097255012
 20
-456.9605649653174
 30
0.0
 11
2502.210095347663
 21
-456.9605649653176
 31
0.0
  0
LINE
  5
1AE23
330
18
100
AcDbEntity
  8
01
  6
CONTINUOUS
100
AcDbLine
 10
2522.210098625918
 20
-430.9605642542529
 30
0.0
 11
2512.210096986791
 21
-430.9605642542529
 31
0.0
  0
ARC
  5
1AE24
330
18
100
AcDbEntity
  8
01
  6
CONTINUOUS
100
AcDbCircle
 10
2522.210096168908
 20
-432.7105642551164
 30
0.0
 40
1.75
100
AcDbArc
 50
0.0
 51
90.0
  0
LINE
  5
1AE25
330
18
100
AcDbEntity
  8
01
  6
CONTINUOUS
100
AcDbLine
 10
2512.210096986791
 20
-456.9605649653176
 30
0.0
 11
2522.210098625918
 21
-456.9605649653176
 31
0.0
  0
LINE
  5
1AE26
330
18
100
AcDbEntity
  8
01
  6
CONTINUOUS
100
AcDbLine
 10
2523.960098447104
 20
-455.2105651441316
 30
0.0
 11
2523.960098447104
 21
-432.7105642500619
 31
0.0
  0
ARC
  5
1AE27
330
18
100
AcDbEntity
  8
01
  6
CONTINUOUS
100
AcDbCircle
 10
2522.210096168908
 20
-455.2105642551162
 30
0.0
 40
1.75
100
AcDbArc
 50
270.0
 51
0.0
  0
SPLINE
  5
1AE28
330
18
100
AcDbEntity
  8
01
  6
CONTINUOUS
100
AcDbSpline
210
0.0
220
0.0
230
1.0
 70
     8
 71
     3
 72
    13
 73
     9
 74
     0
 42
0.0000000001
 43
0.0000000001
 40
0.0
 40
0.0
 40
0.0
 40
0.0
 40
0.1613390780442684
 40
0.3273552551790859
 40
0.4886494863067966
 40
0.6546355764316774
 40
0.8245652364446774
 40
1.0
 40
1.0
 40
1.0
 40
1.0
 10
2412.960097016593
 20
-430.9605642542529
 30
0.0
 10
2412.628315402573
 20
-430.9446258058879
 30
0.0
 10
2411.955134073923
 20
-430.9122868654731
 30
0.0
 10
2410.977364844911
 20
-430.6515145225949
 30
0.0
 10
2410.045901783656
 20
-430.2389668156484
 30
0.0
 10
2409.192965114739
 20
-429.6662757114823
 30
0.0
 10
2408.41812165648
 20
-428.9422099657768
 30
0.0
 10
2408.019651506365
 20
-428.3512345701229
 30
0.0
 10
2407.817240627309
 20
-428.0510368029873
 30
0.0
  0
LINE
  5
1AE29
330
18
100
AcDbEntity
  8
01
  6
CONTINUOUS
100
AcDbLine
 10
2406.960096033116
 20
-424.9605643767218
 30
0.0
 11
2406.960096033116
 21
-403.9605637285208
 31
0.0
  0
LINE
  5
1AE2A
330
18
100
AcDbEntity
  8
01
  6
CONTINUOUS
100
AcDbLine
 10
2406.960096033116
 20
-403.9605637285208
 30
0.0
 11
2405.960097731849
 21
-403.9605637285208
 31
0.0
  0
LINE
  5
1AE2B
330
18
100
AcDbEntity
  8
01
  6
CONTINUOUS
100
AcDbLine
 10
2376.960098566314
 20
-403.9605637285208
 30
0.0
 11
2376.960098566314
 21
-450.9605639818408
 31
0.0
  0
LINE
  5
1AE2C
330
18
100
AcDbEntity
  8
01
  6
CONTINUOUS
100
AcDbLine
 10
2377.960093142291
 20
-403.9605637285208
 30
0.0
 11
2376.960098566314
 21
-403.9605637285208
 31
0.0
  0
LINE
  5
1AE2D
330
18
100
AcDbEntity
  8
01
  6
CONTINUOUS
100
AcDbLine
 10
2382.9600958245
 20
-456.9605649653174
 30
0.0
 11
2493.960097255012
 21
-456.9605649653174
 31
0.0
  0
LINE
  5
1AE2E
330
18
100
AcDbEntity
  8
01
  6
CONTINUOUS
100
AcDbLine
 10
2377.960093142291
 20
-403.9605637285208
 30
0.0
 11
2405.960097731849
 21
-403.9605637285208
 31
0.0
  0
ARC
  5
1AE2F
330
18
100
AcDbEntity
  8
01
  6
CONTINUOUS
100
AcDbCircle
 10
2412.960096168908
 20
-424.960564255116
 30
0.0
 40
6.000000000000028
100
AcDbArc
 50
180.0
 51
211.0027191338646
  0
ARC
  5
1AE30
330
18
100
AcDbEntity
  8
01
  6
CONTINUOUS
100
AcDbCircle
 10
2382.960096168908
 20
-450.960564255116
 30
0.0
 40
6.000000000000028
100
AcDbArc
 50
180.0
 51
270.0
  0
LINE
  5
1AE31
330
18
100
AcDbEntity
  8
01
  6
CONTINUOUS
100
AcDbLine
 10
2401.960097076198
 20
-403.7605640682673
 30
0.0
 11
2381.960093797942
 21
-403.7605640682673
 31
0.0
  0
SPLINE
  5
1AE32
330
18
100
AcDbEntity
  8
01
  6
CONTINUOUS
100
AcDbSpline
210
0.0
220
0.0
230
1.0
 70
     8
 71
     3
 72
    11
 73
     7
 74
     0
 42
0.0000000001
 43
0.0000000001
 40
0.0
 40
0.0
 40
0.0
 40
0.0
 40
0.163238093180974
 40
0.4185203029521941
 40
0.7153782430161804
 40
0.9999999999999999
 40
0.9999999999999999
 40
0.9999999999999999
 40
0.9999999999999999
 10
2296.166289584537
 20
-648.7723650206017
 30
0.0
 10
2296.535961244552
 20
-648.7434975132146
 30
0.0
 10
2297.483749178897
 20
-648.6694851445209
 30
0.0
 10
2299.105608756469
 20
-648.5763330499167
 30
0.0
 10
2301.004105143514
 20
-648.4954145819229
 30
0.0
 10
2302.324479647188
 20
-648.4773632749229
 30
0.0
 10
2302.966616035801
 20
-648.461324950415
 30
0.0
  0
SPLINE
  5
1AE33
330
18
100
AcDbEntity
  8
01
  6
CONTINUOUS
100
AcDbSpline
210
0.0
220
0.0
230
1.0
 70
     8
 71
     3
 72
    17
 73
    13
 74
     0
 42
0.0000000001
 43
0.0000000001
 40
0.0
 40
0.0
 40
0.0
 40
0.0
 40
0.0887417346900908
 40
0.2078651145535492
 40
0.3196416345420056
 40
0.4245335436755556
 40
0.5228154686480612
 40
0.647395571092144
 40
0.7597889635532338
 40
0.859818139458226
 40
0.9471489494169024
 40
0.9999999999999999
 40
0.9999999999999999
 40
0.9999999999999999
 40
0.9999999999999999
 10
2259.517212152307
 20
-654.9363891389357
 30
0.0
 10
2260.300636576921
 20
-654.8458167442777
 30
0.0
 10
2262.135698831846
 20
-654.6336635645275
 30
0.0
 10
2264.940967475937
 20
-654.1832043037966
 30
0.0
 10
2267.877740965156
 20
-653.6550775528185
 30
0.0
 10
2270.623447266704
 20
-653.1124656546426
 30
0.0
 10
2273.475605120363
 20
-652.5229211227634
 30
0.0
 10
2276.390570615041
 20
-651.9080919397893
 30
0.0
 10
2279.322761438157
 20
-651.2997305865674
 30
0.0
 10
2281.93567548495
 20
-650.7825436031362
 30
0.0
 10
2284.033725535843
 20
-650.3893877879927
 30
0.0
 10
2285.261463022994
 20
-650.179243696196
 30
0.0
 10
2285.724341856142
 20
-650.1000156421351
 30
0.0
  0
LINE
  5
1AE34
330
18
100
AcDbEntity
  8
01
  6
CONTINUOUS
100
AcDbLine
 10
2250.960098566314
 20
-655.4592457395183
 30
0.0
 11
2253.359812298616
 21
-655.3916158881175
 31
0.0
  0
LINE
  5
1AE35
330
18
100
AcDbEntity
  8
01
  6
CONTINUOUS
100
AcDbLine
 10
2250.960098566314
 20
-634.9592456389355
 30
0.0
 11
2250.76009890606
 21
-634.9592456389355
 31
0.0
  0
LINE
  5
1AE36
330
18
100
AcDbEntity
  8
01
  6
CONTINUOUS
100
AcDbLine
 10
2250.76009890606
 20
-654.9592461232232
 30
0.0
 11
2250.960098566314
 21
-654.9592461232232
 31
0.0
  0
LINE
  5
1AE37
330
18
100
AcDbEntity
  8
01
  6
CONTINUOUS
100
AcDbLine
 10
2250.960098566314
 20
-639.2092468012261
 30
0.0
 11
2297.960098819633
 21
-639.2092468012261
 31
0.0
  0
LINE
  5
1AE38
330
18
100
AcDbEntity
  8
01
  6
CONTINUOUS
100
AcDbLine
 10
2250.960098566314
 20
-640.2092469651388
 30
0.0
 11
2250.960098566314
 21
-639.2092468012261
 31
0.0
  0
LINE
  5
1AE39
330
18
100
AcDbEntity
  8
01
  6
CONTINUOUS
100
AcDbLine
 10
2250.960098566314
 20
-642.7092464435982
 30
0.0
 11
2250.960098566314
 21
-640.2092469651388
 31
0.0
  0
LINE
  5
1AE3A
330
18
100
AcDbEntity
  8
01
  6
CONTINUOUS
100
AcDbLine
 10
2297.960098819633
 20
-643.709246607511
 30
0.0
 11
2250.960098566314
 21
-643.709246607511
 31
0.0
  0
LINE
  5
1AE3B
330
18
100
AcDbEntity
  8
01
  6
CONTINUOUS
100
AcDbLine
 10
2250.960098566314
 20
-643.709246607511
 30
0.0
 11
2250.960098566314
 21
-642.7092464435982
 31
0.0
  0
LINE
  5
1AE3C
330
18
100
AcDbEntity
  8
01
  6
CONTINUOUS
100
AcDbLine
 10
2303.96009980311
 20
-640.2092469651388
 30
0.0
 11
2303.96009980311
 21
-642.7092464435982
 31
0.0
  0
LINE
  5
1AE3D
330
18
100
AcDbEntity
  8
01
  6
CONTINUOUS
100
AcDbLine
 10
2297.960098819633
 20
-639.2092468012261
 30
0.0
 11
2302.960097776552
 21
-639.2092468012261
 31
0.0
  0
ARC
  5
1AE3E
330
18
100
AcDbEntity
  8
01
  6
CONTINUOUS
100
AcDbCircle
 10
2302.960098662521
 20
-640.2092462944829
 30
0.0
 40
1.0
100
AcDbArc
 50
0.0
 51
90.0
  0
ARC
  5
1AE3F
330
18
100
AcDbEntity
  8
01
  6
CONTINUOUS
100
AcDbCircle
 10
2302.960098662521
 20
-642.7092462944829
 30
0.0
 40
1.0
100
AcDbArc
 50
270.0
 51
0.0
  0
LINE
  5
1AE40
330
18
100
AcDbEntity
  8
01
  6
CONTINUOUS
100
AcDbLine
 10
2302.960097776552
 20
-643.709246607511
 30
0.0
 11
2297.960098819633
 21
-643.709246607511
 31
0.0
  0
LINE
  5
1AE41
330
18
100
AcDbEntity
  8
01
  6
CONTINUOUS
100
AcDbLine
 10
2281.210098402401
 20
-639.2092468012261
 30
0.0
 11
2281.210098402401
 21
-638.9592462945866
 31
0.0
  0
LINE
  5
1AE42
330
18
100
AcDbEntity
  8
01
  6
CONTINUOUS
100
AcDbLine
 10
2299.960099147459
 20
-639.2092468012261
 30
0.0
 11
2299.960099147459
 21
-638.9592462945866
 31
0.0
  0
LINE
  5
1AE43
330
18
100
AcDbEntity
  8
01
  6
CONTINUOUS
100
AcDbLine
 10
2303.96009980311
 20
-637.9592461306738
 30
0.0
 11
2303.96009980311
 21
-640.2092469651388
 31
0.0
  0
SPLINE
  5
1AE44
330
18
100
AcDbEntity
  8
01
  6
CONTINUOUS
100
AcDbSpline
210
0.0
220
0.0
230
1.0
 70
     8
 71
     3
 72
    10
 73
     6
 74
     0
 42
0.0000000001
 43
0.0000000001
 40
0.0
 40
0.0
 40
0.0
 40
0.0
 40
0.3422784233768764
 40
0.684591063216228
 40
0.9999999999999999
 40
0.9999999999999999
 40
0.9999999999999999
 40
0.9999999999999999
 10
2297.960747020145
 20
-648.4603617135572
 30
0.0
 10
2292.598314896847
 20
-648.4668546698786
 30
0.0
 10
2281.872914585327
 20
-648.4798412315995
 30
0.0
 10
2266.206080757082
 20
-648.504453069967
 30
0.0
 10
2255.901593018254
 20
-648.5061804878851
 30
0.0
 10
2250.960098566314
 20
-648.5070088673519
 30
0.0
  0
SPLINE
  5
1AE45
330
18
100
AcDbEntity
  8
01
  6
CONTINUOUS
100
AcDbSpline
210
0.0
220
0.0
230
1.0
 70
    24
 71
     3
 72
    12
 73
     8
 74
     0
 42
0.0000000001
 43
0.0000000001
 40
0.0
 40
0.0
 40
0.0
 40
0.0
 40
0.2292078974095154
 40
0.4584116216006172
 40
0.6876189256606984
 40
0.9168254876009072
 40
1.0
 40
1.0
 40
1.0
 40
1.0
 10
2250.960098566314
 20
-648.5070088673519
 30
0.0
 10
2250.960098566314
 20
-648.4848522547054
 30
0.0
 10
2250.960098566314
 20
-648.4405394328196
 30
0.0
 10
2250.960098566314
 20
-648.2392489979211
 30
0.0
 10
2250.960098566314
 20
-647.9642743099266
 30
0.0
 10
2250.960098566314
 20
-647.705079695037
 30
0.0
 10
2250.960098566314
 20
-647.5525557131305
 30
0.0
 10
2250.960098566314
 20
-647.5119447130846
 30
0.0
  0
LINE
  5
1AE46
330
18
100
AcDbEntity
  8
01
  6
CONTINUOUS
100
AcDbLine
 10
2250.960098566314
 20
-647.5119447130846
 30
0.0
 11
2250.960098566314
 21
-644.9592454154181
 31
0.0
  0
LINE
  5
1AE47
330
18
100
AcDbEntity
  8
01
  6
CONTINUOUS
100
AcDbLine
 10
2250.960098566314
 20
-637.9592461306738
 30
0.0
 11
2250.960098566314
 21
-635.4592466522145
 31
0.0
  0
LINE
  5
1AE48
330
18
100
AcDbEntity
  8
01
  6
CONTINUOUS
100
AcDbLine
 10
2250.960098566314
 20
-634.4592464883017
 30
0.0
 11
2297.960098819633
 21
-634.4592464883017
 31
0.0
  0
LINE
  5
1AE49
330
18
100
AcDbEntity
  8
01
  6
CONTINUOUS
100
AcDbLine
 10
2250.960098566314
 20
-635.4592466522145
 30
0.0
 11
2250.960098566314
 21
-634.4592464883017
 31
0.0
  0
LINE
  5
1AE4A
330
18
100
AcDbEntity
  8
01
  6
CONTINUOUS
100
AcDbLine
 10
2250.960098566314
 20
-643.9592471141505
 30
0.0
 11
2297.960098819633
 21
-643.9592471141505
 31
0.0
  0
LINE
  5
1AE4B
330
18
100
AcDbEntity
  8
01
  6
CONTINUOUS
100
AcDbLine
 10
2250.960098566314
 20
-644.9592454154181
 30
0.0
 11
2250.960098566314
 21
-643.9592471141505
 31
0.0
  0
LINE
  5
1AE4C
330
18
100
AcDbEntity
  8
01
  6
CONTINUOUS
100
AcDbLine
 10
2297.960098819633
 20
-638.9592462945866
 30
0.0
 11
2250.960098566314
 21
-638.9592462945866
 31
0.0
  0
LINE
  5
1AE4D
330
18
100
AcDbEntity
  8
01
  6
CONTINUOUS
100
AcDbLine
 10
2250.960098566314
 20
-638.9592462945866
 30
0.0
 11
2250.960098566314
 21
-637.9592461306738
 31
0.0
  0
SPLINE
  5
1AE4E
330
18
100
AcDbEntity
  8
01
  6
CONTINUOUS
100
AcDbSpline
210
0.0
220
0.0
230
1.0
 70
     8
 71
     3
 72
    16
 73
    12
 74
     0
 42
0.0000000001
 43
0.0000000001
 40
0.0
 40
0.0
 40
0.0
 40
0.0
 40
0.1407236273200222
 40
0.2481040927810981
 40
0.355481863506863
 40
0.4628865953700795
 40
0.5702906809491403
 40
0.6777257973449236
 40
0.7851618049390157
 40
0.8925800599254586
 40
1.0
 40
1.0
 40
1.0
 40
1.0
 10
2302.964430289169
 20
-648.4613368082928
 30
0.0
 10
2302.940415423467
 20
-648.4606557623565
 30
0.0
 10
2302.898075792362
 20
-648.4594550380189
 30
0.0
 10
2302.605240166206
 20
-648.4588744733092
 30
0.0
 10
2302.222073054946
 20
-648.4586663888604
 30
0.0
 10
2301.712629670898
 20
-648.4588234123457
 30
0.0
 10
2301.099663618824
 20
-648.4591522411347
 30
0.0
 10
2300.395582950802
 20
-648.459473807804
 30
0.0
 10
2299.623886841258
 20
-648.4597528244349
 30
0.0
 10
2298.804061712483
 20
-648.4599299969304
 30
0.0
 10
2298.241853387489
 20
-648.4602178072628
 30
0.0
 10
2297.960747020145
 20
-648.4603617135572
 30
0.0
  0
ARC
  5
1AE4F
330
18
100
AcDbEntity
  8
01
  6
CONTINUOUS
100
AcDbCircle
 10
2302.960098143753
 20
-647.4613445326986
 30
0.0
 40
1.000001659365214
100
AcDbArc
 50
270.2482140130853
 51
359.9997582766364
  0
LINE
  5
1AE50
330
18
100
AcDbEntity
  8
01
  6
CONTINUOUS
100
AcDbLine
 10
2303.96009980311
 20
-644.9592454154181
 30
0.0
 11
2303.96009980311
 21
-647.4613487515735
 31
0.0
  0
LINE
  5
1AE51
330
18
100
AcDbEntity
  8
01
  6
CONTINUOUS
100
AcDbLine
 10
2302.960097776552
 20
-638.9592462945866
 30
0.0
 11
2297.960098819633
 21
-638.9592462945866
 31
0.0
  0
ARC
  5
1AE52
330
18
100
AcDbEntity
  8
01
  6
CONTINUOUS
100
AcDbCircle
 10
2302.960098662521
 20
-637.9592462944829
 30
0.0
 40
1.0
100
AcDbArc
 50
270.0
 51
0.0
  0
LINE
  5
1AE53
330
18
100
AcDbEntity
  8
01
  6
CONTINUOUS
100
AcDbLine
 10
2297.960098819633
 20
-634.4592464883017
 30
0.0
 11
2302.960097776552
 21
-634.4592464883017
 31
0.0
  0
ARC
  5
1AE54
330
18
100
AcDbEntity
  8
01
  6
CONTINUOUS
100
AcDbCircle
 10
2302.960098662521
 20
-635.4592462944829
 30
0.0
 40
1.0
100
AcDbArc
 50
0.0
 51
90.0
  0
LINE
  5
1AE55
330
18
100
AcDbEntity
  8
01
  6
CONTINUOUS
100
AcDbLine
 10
2297.960098819633
 20
-643.9592471141505
 30
0.0
 11
2302.960097776552
 21
-643.9592471141505
 31
0.0
  0
ARC
  5
1AE56
330
18
100
AcDbEntity
  8
01
  6
CONTINUOUS
100
AcDbCircle
 10
2302.960098662521
 20
-644.9592462944829
 30
0.0
 40
1.0
100
AcDbArc
 50
0.0
 51
90.0
  0
LINE
  5
1AE57
330
18
100
AcDbEntity
  8
01
  6
CONTINUOUS
100
AcDbLine
 10
2303.96009980311
 20
-635.4592466522145
 30
0.0
 11
2303.96009980311
 21
-637.9592461306738
 31
0.0
  0
ARC
  5
1AE58
330
18
100
AcDbEntity
  8
01
  6
CONTINUOUS
100
AcDbCircle
 10
2257.357488738488
 20
-666.958739881773
 30
0.0
 40
12.21395074093449
100
AcDbArc
 50
79.81464812196694
 51
109.1038087757974
  0
SPLINE
  5
1AE59
330
18
100
AcDbEntity
  8
01
  6
CONTINUOUS
100
AcDbSpline
210
0.0
220
0.0
230
1.0
 70
     8
 71
     3
 72
    27
 73
    23
 74
     0
 42
0.0000000001
 43
0.0000000001
 40
0.0
 40
0.0
 40
0.0
 40
0.0
 40
0.0075906044296476
 40
0.0588466956439899
 40
0.1116149806531498
 40
0.1628643916382178
 40
0.2155502856688017
 40
0.2677556791408164
 40
0.3214088832282004
 40
0.3747560325856835
 40
0.4296560897302323
 40
0.4828619353916634
 40
0.5376407074191434
 40
0.5903400134559288
 40
0.6445791853660648
 40
0.6970799428785267
 40
0.7511076662395013
 40
0.8035300644202151
 40
0.8574779758059291
 40
0.9098037814801258
 40
0.9636542340336985
 40
1.0
 40
1.0
 40
1.0
 40
1.0
 10
2285.723855705758
 20
-650.0972132925081
 30
0.0
 10
2285.718790121455
 20
-650.0984964679128
 30
0.0
 10
2285.679518822239
 20
-650.1084443756436
 30
0.0
 10
2285.769102900776
 20
-650.0857589389007
 30
0.0
 10
2285.965790846018
 20
-650.0358771740166
 30
0.0
 10
2286.318043178479
 20
-649.9490748248072
 30
0.0
 10
2286.787912090806
 20
-649.8397339616404
 30
0.0
 10
2287.379416121245
 20
-649.7133470689996
 30
0.0
 10
2288.071852793611
 20
-649.5810768476586
 30
0.0
 10
2288.858688165848
 20
-649.4501621433601
 30
0.0
 10
2289.705591863699
 20
-649.3300844960431
 30
0.0
 10
2290.597923995189
 20
-649.2234274723496
 30
0.0
 10
2291.49074357641
 20
-649.1332045255858
 30
0.0
 10
2292.374658502737
 20
-649.0560184008136
 30
0.0
 10
2293.207117038156
 20
-648.9908765682894
 30
0.0
 10
2293.982089948731
 20
-648.9339527015736
 30
0.0
 10
2294.663423160082
 20
-648.8849154295676
 30
0.0
 10
2295.244522531953
 20
-648.842528355507
 30
0.0
 10
2295.700041732293
 20
-648.8081414528087
 30
0.0
 10
2296.0187666649
 20
-648.7829351780974
 30
0.0
 10
2296.192303564791
 20
-648.7683116822845
 30
0.0
 10
2296.194101005558
 20
-648.7681253059409
 30
0.0
 10
2296.194825308224
 20
-648.7680502031135
 30
0.0
  0
LINE
  5
1AE5A
330
18
100
AcDbEntity
  8
01
  6
CONTINUOUS
100
AcDbLine
 10
2250.960098566314
 20
-648.5070042107391
 30
0.0
 11
2250.960098566314
 21
-651.7063412610578
 31
0.0
  0
LINE
  5
1AE5B
330
18
100
AcDbEntity
  8
01
  6
CONTINUOUS
100
AcDbLine
 10
2250.960098566314
 20
-651.7063412610578
 30
0.0
 11
2250.960098566314
 21
-655.4590822924065
 31
0.0
  0
LINE
  5
1AE5C
330
18
100
AcDbEntity
  8
01
  6
CONTINUOUS
100
AcDbLine
 10
2295.960098491808
 20
-643.9592471141505
 30
0.0
 11
2295.960098491808
 21
-643.709246607511
 31
0.0
  0
LINE
  5
1AE5D
330
18
100
AcDbEntity
  8
01
  6
CONTINUOUS
100
AcDbLine
 10
2250.960098566314
 20
-643.709246607511
 30
0.0
 11
2250.960098566314
 21
-643.9592471141505
 31
0.0
  0
LINE
  5
1AE5E
330
18
100
AcDbEntity
  8
01
  6
CONTINUOUS
100
AcDbLine
 10
2301.960099475285
 20
-643.709246607511
 30
0.0
 11
2301.960099475285
 21
-643.9592471141505
 31
0.0
  0
LINE
  5
1AE5F
330
18
100
AcDbEntity
  8
01
  6
CONTINUOUS
100
AcDbLine
 10
2250.960098566314
 20
-638.9592462945866
 30
0.0
 11
2250.960098566314
 21
-639.2092468012261
 31
0.0
  0
LINE
  5
1AE60
330
18
100
AcDbEntity
  8
01
  6
CONTINUOUS
100
AcDbLine
 10
2255.960098454555
 20
-638.9592462945866
 30
0.0
 11
2255.960098454555
 21
-639.2092468012261
 31
0.0
  0
LINE
  5
1AE61
330
18
100
AcDbEntity
  8
01
  6
CONTINUOUS
100
AcDbLine
 10
2250.76009890606
 20
-644.9592454154181
 30
0.0
 11
2250.76009890606
 21
-634.9592456389355
 31
0.0
  0
LINE
  5
1AE62
330
18
100
AcDbEntity
  8
01
  6
CONTINUOUS
100
AcDbLine
 10
2250.76009890606
 20
-654.9592461232232
 30
0.0
 11
2250.76009890606
 21
-644.9592454154181
 31
0.0
  0
LINE
  5
1AE63
330
18
100
AcDbEntity
  8
01
  6
CONTINUOUS
100
AcDbLine
 10
2280.960097895761
 20
-638.9592462945866
 30
0.0
 11
2280.960097895761
 21
-639.2092468012261
 31
0.0
  0
LINE
  5
1AE64
330
18
100
AcDbEntity
  8
01
  6
CONTINUOUS
100
AcDbLine
 10
2303.96009980311
 20
-628.4087640959906
 30
0.0
 11
2303.96009980311
 21
-635.4592466522145
 31
0.0
  0
LINE
  5
1AE65
330
18
100
AcDbEntity
  8
01
  6
CONTINUOUS
100
AcDbLine
 10
2303.96009980311
 20
-642.7092464435982
 30
0.0
 11
2303.96009980311
 21
-644.9592454154181
 31
0.0
  0
LINE
  5
1AE66
330
18
100
AcDbEntity
  8
01
  6
CONTINUOUS
100
AcDbLine
 10
2277.960098335346
 20
-634.4592464883017
 30
0.0
 11
2277.960098335346
 21
-628.4087640959906
 31
0.0
  0
ARC
  5
1AE67
330
18
100
AcDbEntity
  8
01
  6
CONTINUOUS
100
AcDbCircle
 10
2278.960098662521
 20
-621.4592462944829
 30
0.0
 40
1.0
100
AcDbArc
 50
90.0
 51
180.0
  0
LINE
  5
1AE68
330
18
100
AcDbEntity
  8
01
  6
CONTINUOUS
100
AcDbLine
 10
2277.960098335346
 20
-628.4087640959906
 30
0.0
 11
2277.960098335346
 21
-621.4592462200808
 31
0.0
  0
LINE
  5
1AE69
330
18
100
AcDbEntity
  8
01
  6
CONTINUOUS
100
AcDbLine
 10
2302.960097776552
 20
-620.4592479188132
 30
0.0
 11
2278.960098499258
 21
-620.4592479188132
 31
0.0
  0
ARC
  5
1AE6A
330
18
100
AcDbEntity
  8
01
  6
CONTINUOUS
100
AcDbCircle
 10
2302.960098662521
 20
-621.4592462944829
 30
0.0
 40
1.0
100
AcDbArc
 50
0.0
 51
90.0
  0
LINE
  5
1AE6B
330
18
100
AcDbEntity
  8
01
  6
CONTINUOUS
100
AcDbLine
 10
2303.96009980311
 20
-621.4592462200808
 30
0.0
 11
2303.96009980311
 21
-628.4087640959906
 31
0.0
  0
SPLINE
  5
1AE6C
330
18
100
AcDbEntity
  8
01
  6
CONTINUOUS
100
AcDbSpline
210
0.0
220
0.0
230
1.0
 70
     8
 71
     3
 72
    28
 73
    24
 74
     0
 42
0.0000000001
 43
0.0000000001
 40
0.0
 40
0.0
 40
0.0
 40
0.0
 40
0.1053906649590148
 40
0.1993769479522471
 40
0.2821488088540034
 40
0.3537975041958816
 40
0.414356648966544
 40
0.4638293706809338
 40
0.5013412546869579
 40
0.5144212975100998
 40
0.5240779941611722
 40
0.5279672291767832
 40
0.531535253984049
 40
0.5351116887540623
 40
0.5390252884006125
 40
0.5487701299698028
 40
0.5619862099649069
 40
0.6004193002322056
 40
0.6559131118427572
 40
0.7289342686070983
 40
0.8196856051688902
 40
0.92825060736702
 40
1.0
 40
1.0
 40
1.0
 40
1.0
 10
2400.231700213452
 20
-651.4466762785005
 30
0.0
 10
2400.392803692276
 20
-651.2754622309076
 30
0.0
 10
2400.697577553649
 20
-650.9515613022168
 30
0.0
 10
2401.180298846521
 20
-650.5177055952026
 30
0.0
 10
2401.627700640229
 20
-650.1603183675825
 30
0.0
 10
2402.033295020429
 20
-649.8737921133343
 30
0.0
 10
2402.382824704851
 20
-649.6517822003098
 30
0.0
 10
2402.682584962431
 20
-649.4810935740079
 30
0.0
 10
2402.86793919664
 20
-649.3814940764751
 30
0.0
 10
2403.055407503302
 20
-649.2918315929246
 30
0.0
 10
2403.174314775742
 20
-649.2386695415835
 30
0.0
 10
2403.276034486123
 20
-649.1957472192344
 30
0.0
 10
2403.350111003084
 20
-649.1655448114843
 30
0.0
 10
2403.425833754135
 20
-649.1356949817191
 30
0.0
 10
2403.534682957627
 20
-649.0942004226263
 30
0.0
 10
2403.671759962671
 20
-649.044723642518
 30
0.0
 10
2403.909190020591
 20
-648.9640888100248
 30
0.0
 10
2404.201122194034
 20
-648.8750830484651
 30
0.0
 10
2404.555898186286
 20
-648.7781426933952
 30
0.0
 10
2404.941826777923
 20
-648.6860795736775
 30
0.0
 10
2405.359810114201
 20
-648.6027529269168
 30
0.0
 10
2405.738979070897
 20
-648.5411690391447
 30
0.0
 10
2405.968197564622
 20
-648.5193060046004
 30
0.0
 10
2406.059406520625
 20
-648.5106064248967
 30
0.0
  0
SPLINE
  5
1AE6D
330
18
100
AcDbEntity
  8
01
  6
CONTINUOUS
100
AcDbSpline
210
0.0
220
0.0
230
1.0
 70
     8
 71
     3
 72
    11
 73
     7
 74
     0
 42
0.0000000001
 43
0.0000000001
 40
0.0
 40
0.0
 40
0.0
 40
0.0
 40
0.2243039859989572
 40
0.4824151892230858
 40
0.741132422908377
 40
1.0
 40
1.0
 40
1.0
 40
1.0
 10
2377.862207414409
 20
-648.5240631047773
 30
0.0
 10
2378.34888471712
 20
-648.5891656319627
 30
0.0
 10
2379.395591586961
 20
-648.7291829741935
 30
0.0
 10
2380.926597789671
 20
-649.3298970741916
 30
0.0
 10
2382.418778850058
 20
-650.2045378262746
 30
0.0
 10
2383.238418994974
 20
-651.0032030984266
 30
0.0
 10
2383.648358108302
 20
-651.4026517290758
 30
0.0
  0
ARC
  5
1AE6E
330
18
100
AcDbEntity
  8
01
  6
CONTINUOUS
100
AcDbCircle
 10
2377.992694939799
 20
-647.4996688108915
 30
0.0
 40
1.032672679567799
100
AcDbArc
 50
180.6855801449406
 51
262.7500329547859
  0
LINE
  5
1AE6F
330
18
100
AcDbEntity
  8
01
  6
CONTINUOUS
100
AcDbLine
 10
2406.960096033116
 20
-643.7092455346274
 30
0.0
 11
2382.9600958245
 21
-643.7092455346274
 31
0.0
  0
LINE
  5
1AE70
330
18
100
AcDbEntity
  8
01
  6
CONTINUOUS
100
AcDbLine
 10
2382.9600958245
 20
-643.7092455346274
 30
0.0
 11
2377.960093142291
 21
-643.7092455346274
 31
0.0
  0
ARC
  5
1AE71
330
18
100
AcDbEntity
  8
01
  6
CONTINUOUS
100
AcDbCircle
 10
2377.960096163336
 20
-642.7092452215984
 30
0.0
 40
1.0
100
AcDbArc
 50
180.0
 51
270.0
  0
ARC
  5
1AE72
330
18
100
AcDbEntity
  8
01
  6
CONTINUOUS
100
AcDbCircle
 10
2406.960096163336
 20
-505.0485309358837
 30
0.0
 40
138.6607142857141
100
AcDbArc
 50
270.0
 51
288.2832804470542
  0
LINE
  5
1AE73
330
18
100
AcDbEntity
  8
01
  6
CONTINUOUS
100
AcDbLine
 10
2376.960098566314
 20
-642.7092453707146
 30
0.0
 11
2376.960098566314
 21
-640.2092458922552
 31
0.0
  0
LINE
  5
1AE74
330
18
100
AcDbEntity
  8
01
  6
CONTINUOUS
100
AcDbLine
 10
2382.9600958245
 20
-639.2092457283425
 30
0.0
 11
2406.960096033116
 21
-639.2092457283425
 31
0.0
  0
LINE
  5
1AE75
330
18
100
AcDbEntity
  8
01
  6
CONTINUOUS
100
AcDbLine
 10
2377.960093142291
 20
-639.2092457283425
 30
0.0
 11
2382.9600958245
 21
-639.2092457283425
 31
0.0
  0
ARC
  5
1AE76
330
18
100
AcDbEntity
  8
01
  6
CONTINUOUS
100
AcDbCircle
 10
2377.960096163336
 20
-640.2092452215984
 30
0.0
 40
1.0
100
AcDbArc
 50
90.0
 51
180.0
  0
ARC
  5
1AE77
330
18
100
AcDbEntity
  8
01
  6
CONTINUOUS
100
AcDbCircle
 10
2406.960096163336
 20
-500.5485309358837
 30
0.0
 40
138.6607142857143
100
AcDbArc
 50
270.0
 51
288.2832804470541
  0
ARC
  5
1AE78
330
18
100
AcDbEntity
  8
01
  6
CONTINUOUS
100
AcDbCircle
 10
2493.960096163336
 20
-768.3699595073122
 30
0.0
 40
138.6607142857142
100
AcDbArc
 50
90.0
 51
108.2832804470542
  0
ARC
  5
1AE79
330
18
100
AcDbEntity
  8
01
  6
CONTINUOUS
100
AcDbCircle
 10
2493.960096163336
 20
-763.8699595073122
 30
0.0
 40
138.6607142857144
100
AcDbArc
 50
90.0
 51
108.2832804470541
  0
LINE
  5
1AE7A
330
18
100
AcDbEntity
  8
01
  6
CONTINUOUS
100
AcDbLine
 10
2513.960093082686
 20
-626.9592451173949
 30
0.0
 11
2513.960093082686
 21
-628.7092449385809
 31
0.0
  0
LINE
  5
1AE7B
330
18
100
AcDbEntity
  8
01
  6
CONTINUOUS
100
AcDbLine
 10
2512.210096986791
 20
-629.7092469651388
 30
0.0
 11
2493.960097255012
 21
-629.7092469651388
 31
0.0
  0
ARC
  5
1AE7C
330
18
100
AcDbEntity
  8
01
  6
CONTINUOUS
100
AcDbCircle
 10
2512.960096163336
 20
-628.7092452215984
 30
0.0
 40
1.000000000000014
100
AcDbArc
 50
270.0
 51
0.0
  0
LINE
  5
1AE7D
330
18
100
AcDbEntity
  8
01
  6
CONTINUOUS
100
AcDbLine
 10
2512.960098506709
 20
-629.7092469651388
 30
0.0
 11
2512.210096986791
 21
-629.7092469651388
 31
0.0
  0
ARC
  5
1AE7E
330
18
100
AcDbEntity
  8
01
  6
CONTINUOUS
100
AcDbCircle
 10
2512.210096163336
 20
-626.9592452215984
 30
0.0
 40
1.750000000000014
100
AcDbArc
 50
0.0
 51
90.0
  0
LINE
  5
1AE7F
330
18
100
AcDbEntity
  8
01
  6
CONTINUOUS
100
AcDbLine
 10
2493.960097255012
 20
-625.2092452962088
 30
0.0
 11
2512.210096986791
 21
-625.2092452962088
 31
0.0
  0
ARC
  5
1AE80
330
18
100
AcDbEntity
  8
01
  6
CONTINUOUS
100
AcDbCircle
 10
2406.960096163336
 20
-509.7985309358828
 30
0.0
 40
138.6607142857149
100
AcDbArc
 50
270.0
 51
288.283280447054
  0
SPLINE
  5
1AE81
330
18
100
AcDbEntity
  8
01
  6
CONTINUOUS
100
AcDbSpline
210
0.0
220
0.0
230
1.0
 70
     8
 71
     3
 72
    10
 73
     6
 74
     0
 42
0.0000000001
 43
0.0000000001
 40
0.0
 40
0.0
 40
0.0
 40
0.0
 40
0.3323005033888005
 40
0.6647307710716173
 40
1.0
 40
1.0
 40
1.0
 40
1.0
 10
2406.960096033116
 20
-648.4592449162292
 30
0.0
 10
2404.301426909851
 20
-648.4626392992241
 30
0.0
 10
2398.983050445448
 20
-648.4694293907296
 30
0.0
 10
2390.982234192325
 20
-648.4642317933585
 30
0.0
 10
2385.64009898222
 20
-648.4623038205455
 30
0.0
 10
2382.957674385806
 20
-648.4613357354092
 30
0.0
  0
SPLINE
  5
1AE82
330
18
100
AcDbEntity
  8
01
  6
CONTINUOUS
100
AcDbSpline
210
0.0
220
0.0
230
1.0
 70
     8
 71
     3
 72
    15
 73
    11
 74
     0
 42
0.0000000001
 43
0.0000000001
 40
0.0
 40
0.0
 40
0.0
 40
0.0
 40
0.027271266429661
 40
0.1661860309986226
 40
0.3051356752269055
 40
0.4440844833565181
 40
0.5830734360949286
 40
0.7220635417777745
 40
0.8610306808885322
 40
1.0
 40
1.0
 40
1.0
 40
1.0
 10
2381.21578824689
 20
-648.4590484071659
 30
0.0
 10
2381.163025173826
 20
-648.4590056462321
 30
0.0
 10
2380.841496809225
 20
-648.4587450690487
 30
0.0
 10
2380.298491467208
 20
-648.4586947797707
 30
0.0
 10
2379.619047103678
 20
-648.4588144439667
 30
0.0
 10
2379.036459087146
 20
-648.4591532844652
 30
0.0
 10
2378.565570016855
 20
-648.4594721679987
 30
0.0
 10
2378.219739147351
 20
-648.459751902702
 30
0.0
 10
2378.000566334657
 20
-648.4599288862591
 30
0.0
 10
2377.97193025239
 20
-648.4602167217827
 30
0.0
 10
2377.957612098952
 20
-648.4603606406736
 30
0.0
  0
ARC
  5
1AE83
330
18
100
AcDbEntity
  8
01
  6
CONTINUOUS
100
AcDbCircle
 10
2377.96008769623
 20
-647.4603745750319
 30
0.0
 40
0.9999891299704683
100
AcDbArc
 50
179.999405665519
 51
269.858157037467
  0
LINE
  5
1AE84
330
18
100
AcDbEntity
  8
01
  6
CONTINUOUS
100
AcDbLine
 10
2376.960098566314
 20
-647.4603642020511
 30
0.0
 11
2376.960098566314
 21
-644.9592443425345
 31
0.0
  0
ARC
  5
1AE85
330
18
100
AcDbEntity
  8
01
  6
CONTINUOUS
100
AcDbCircle
 10
2406.960096163336
 20
-505.2985309358837
 30
0.0
 40
138.6607142857144
100
AcDbArc
 50
270.0
 51
288.2832804470541
  0
LINE
  5
1AE86
330
18
100
AcDbEntity
  8
01
  6
CONTINUOUS
100
AcDbLine
 10
2382.9600958245
 20
-643.9592460412669
 30
0.0
 11
2406.960096033116
 21
-643.9592460412669
 31
0.0
  0
LINE
  5
1AE87
330
18
100
AcDbEntity
  8
01
  6
CONTINUOUS
100
AcDbLine
 10
2377.960093142291
 20
-643.9592460412669
 30
0.0
 11
2382.9600958245
 21
-643.9592460412669
 31
0.0
  0
ARC
  5
1AE88
330
18
100
AcDbEntity
  8
01
  6
CONTINUOUS
100
AcDbCircle
 10
2377.960096163336
 20
-644.9592452215984
 30
0.0
 40
1.0
100
AcDbArc
 50
90.0
 51
180.0
  0
ARC
  5
1AE89
330
18
100
AcDbEntity
  8
01
  6
CONTINUOUS
100
AcDbCircle
 10
2493.960096163336
 20
-773.1199595073131
 30
0.0
 40
138.6607142857148
100
AcDbArc
 50
90.0
 51
108.2832804470541
  0
LINE
  5
1AE8A
330
18
100
AcDbEntity
  8
01
  6
CONTINUOUS
100
AcDbLine
 10
2406.960096033116
 20
-638.959245221703
 30
0.0
 11
2382.9600958245
 21
-638.959245221703
 31
0.0
  0
ARC
  5
1AE8B
330
18
100
AcDbEntity
  8
01
  6
CONTINUOUS
100
AcDbCircle
 10
2406.960096163336
 20
-500.2985309358846
 30
0.0
 40
138.6607142857132
100
AcDbArc
 50
270.0
 51
288.2832804470539
  0
LINE
  5
1AE8C
330
18
100
AcDbEntity
  8
01
  6
CONTINUOUS
100
AcDbLine
 10
2382.9600958245
 20
-638.959245221703
 30
0.0
 11
2377.960093142291
 21
-638.959245221703
 31
0.0
  0
ARC
  5
1AE8D
330
18
100
AcDbEntity
  8
01
  6
CONTINUOUS
100
AcDbCircle
 10
2377.960096163336
 20
-637.9592452215984
 30
0.0
 40
1.000000000000007
100
AcDbArc
 50
180.0
 51
270.0
  0
LINE
  5
1AE8E
330
18
100
AcDbEntity
  8
01
  6
CONTINUOUS
100
AcDbLine
 10
2376.960098566314
 20
-637.9592450577902
 30
0.0
 11
2376.960098566314
 21
-635.4592455793309
 31
0.0
  0
ARC
  5
1AE8F
330
18
100
AcDbEntity
  8
01
  6
CONTINUOUS
100
AcDbCircle
 10
2493.960096163336
 20
-768.6199595073131
 30
0.0
 40
138.6607142857145
100
AcDbArc
 50
90.0
 51
108.2832804470541
  0
LINE
  5
1AE90
330
18
100
AcDbEntity
  8
01
  6
CONTINUOUS
100
AcDbLine
 10
2377.960093142291
 20
-634.4592454154181
 30
0.0
 11
2382.9600958245
 21
-634.4592454154181
 31
0.0
  0
ARC
  5
1AE91
330
18
100
AcDbEntity
  8
01
  6
CONTINUOUS
100
AcDbCircle
 10
2377.960096163336
 20
-635.4592452215984
 30
0.0
 40
1.0
100
AcDbArc
 50
90.0
 51
180.0
  0
LINE
  5
1AE92
330
18
100
AcDbEntity
  8
01
  6
CONTINUOUS
100
AcDbLine
 10
2382.9600958245
 20
-634.4592454154181
 30
0.0
 11
2406.960096033116
 21
-634.4592454154181
 31
0.0
  0
ARC
  5
1AE93
330
18
100
AcDbEntity
  8
01
  6
CONTINUOUS
100
AcDbCircle
 10
2406.960096163336
 20
-495.7985309358837
 30
0.0
 40
138.6607142857142
100
AcDbArc
 50
270.0
 51
288.2832804470541
  0
LINE
  5
1AE94
330
18
100
AcDbEntity
  8
01
  6
CONTINUOUS
100
AcDbLine
 10
2522.210098625918
 20
-634.4592454154181
 30
0.0
 11
2493.960097255012
 21
-634.4592454154181
 31
0.0
  0
LINE
  5
1AE95
330
18
100
AcDbEntity
  8
01
  6
CONTINUOUS
100
AcDbLine
 10
2523.960098447104
 20
-631.7092454303192
 30
0.0
 11
2523.960098447104
 21
-633.4592452515053
 31
0.0
  0
LINE
  5
1AE96
330
18
100
AcDbEntity
  8
01
  6
CONTINUOUS
100
AcDbLine
 10
2522.960096420547
 20
-634.4592454154181
 30
0.0
 11
2522.210098625918
 21
-634.4592454154181
 31
0.0
  0
ARC
  5
1AE97
330
18
100
AcDbEntity
  8
01
  6
CONTINUOUS
100
AcDbCircle
 10
2522.960096163336
 20
-633.4592452215984
 30
0.0
 40
1.0
100
AcDbArc
 50
270.0
 51
0.0
  0
ARC
  5
1AE98
330
18
100
AcDbEntity
  8
01
  6
CONTINUOUS
100
AcDbCircle
 10
2522.210096163336
 20
-631.7092452215984
 30
0.0
 40
1.750000000000007
100
AcDbArc
 50
0.0
 51
90.0
  0
LINE
  5
1AE99
330
18
100
AcDbEntity
  8
01
  6
CONTINUOUS
100
AcDbLine
 10
2493.960097255012
 20
-629.959243746488
 30
0.0
 11
2522.210098625918
 21
-629.959243746488
 31
0.0
  0
ARC
  5
1AE9A
330
18
100
AcDbEntity
  8
01
  6
CONTINUOUS
100
AcDbCircle
 10
2493.960096163336
 20
-763.6199595073113
 30
0.0
 40
138.6607142857133
100
AcDbArc
 50
90.0
 51
108.2832804470539
  0
ARC
  5
1AE9B
330
18
100
AcDbEntity
  8
01
  6
CONTINUOUS
100
AcDbCircle
 10
2493.960096163336
 20
-759.1199595073122
 30
0.0
 40
138.6607142857143
100
AcDbArc
 50
90.0
 51
108.2832804470541
  0
LINE
  5
1AE9C
330
18
100
AcDbEntity
  8
01
  6
CONTINUOUS
100
AcDbLine
 10
2502.210095347663
 20
-624.9592447895693
 30
0.0
 11
2493.960097255012
 21
-624.9592447895693
 31
0.0
  0
LINE
  5
1AE9D
330
18
100
AcDbEntity
  8
01
  6
CONTINUOUS
100
AcDbLine
 10
2502.960096867581
 20
-624.9592447895693
 30
0.0
 11
2502.210095347663
 21
-624.9592447895693
 31
0.0
  0
ARC
  5
1AE9E
330
18
100
AcDbEntity
  8
01
  6
CONTINUOUS
100
AcDbCircle
 10
2502.960096163336
 20
-623.9592452215984
 30
0.0
 40
1.0
100
AcDbArc
 50
270.0
 51
0.0
  0
LINE
  5
1AE9F
330
18
100
AcDbEntity
  8
01
  6
CONTINUOUS
100
AcDbLine
 10
2503.960095168849
 20
-622.2092466671156
 30
0.0
 11
2503.960095168849
 21
-623.9592464883017
 31
0.0
  0
LINE
  5
1AEA0
330
18
100
AcDbEntity
  8
01
  6
CONTINUOUS
100
AcDbLine
 10
2493.960097255012
 20
-620.4592468459296
 30
0.0
 11
2502.210095347663
 21
-620.4592468459296
 31
0.0
  0
ARC
  5
1AEA1
330
18
100
AcDbEntity
  8
01
  6
CONTINUOUS
100
AcDbCircle
 10
2502.210096163336
 20
-622.2092452215984
 30
0.0
 40
1.750000000000028
100
AcDbArc
 50
0.0
 51
90.0
  0
SPLINE
  5
1AEA2
330
18
100
AcDbEntity
  8
01
  6
CONTINUOUS
100
AcDbSpline
210
0.0
220
0.0
230
1.0
 70
     9
 71
     3
 72
    26
 73
    22
 74
     0
 42
0.0000000001
 43
0.0000000001
 40
0.0
 40
0.0
 40
0.0
 40
0.0
 40
0.0516691322881425
 40
0.1032792458038325
 40
0.1564591366992584
 40
0.211599112611723
 40
0.2659588290702542
 40
0.3181398697476804
 40
0.3699455349618093
 40
0.4229964287097864
 40
0.4766876614238751
 40
0.5297535271877051
 40
0.5823107591692667
 40
0.6354296515243001
 40
0.6891285130085077
 40
0.7420860481762742
 40
0.7938235837238002
 40
0.8461225924460374
 40
0.9005364458299736
 40
0.9556675218961033
 40
1.0
 40
1.0
 40
1.0
 40
1.0
 10
2391.96009543707
 20
-655.4174450468408
 30
0.0
 10
2392.297513839329
 20
-655.4063492974101
 30
0.0
 10
2392.971965229596
 20
-655.3841704726065
 30
0.0
 10
2393.875701889126
 20
-655.2248929662028
 30
0.0
 10
2394.588284400144
 20
-655.024370543385
 30
0.0
 10
2395.02290793359
 20
-654.8372768267618
 30
0.0
 10
2395.106728159183
 20
-654.7338827299227
 30
0.0
 10
2394.838001893243
 20
-654.7322167135635
 30
0.0
 10
2394.263133882575
 20
-654.8008098908458
 30
0.0
 10
2393.432643589159
 20
-654.8901444979674
 30
0.0
 10
2392.427799614682
 20
-654.9494253248922
 30
0.0
 10
2391.372127035263
 20
-654.9452089004035
 30
0.0
 10
2390.388193852664
 20
-654.8810866226831
 30
0.0
 10
2389.575407035317
 20
-654.7908083334369
 30
0.0
 10
2389.02509022792
 20
-654.7267021389043
 30
0.0
 10
2388.806271469256
 20
-654.7421455660942
 30
0.0
 10
2388.931370482756
 20
-654.8543260888364
 30
0.0
 10
2389.376710840764
 20
-655.0392585700847
 30
0.0
 10
2390.113239905869
 20
-655.2417740653318
 30
0.0
 10
2391.022452851756
 20
-655.3909361465849
 30
0.0
 10
2391.671019175887
 20
-655.4092723231461
 30
0.0
 10
2391.96009543707
 20
-655.4174450468408
 30
0.0
  0
SPLINE
  5
1AEA3
330
18
100
AcDbEntity
  8
01
  6
CONTINUOUS
100
AcDbSpline
210
0.0
220
0.0
230
1.0
 70
     9
 71
     3
 72
    44
 73
    40
 74
     0
 42
0.0000000001
 43
0.0000000001
 40
0.0
 40
0.0
 40
0.0
 40
0.0
 40
0.0262050772706262
 40
0.0524119442189235
 40
0.0785939722021899
 40
0.1047795547194594
 40
0.1314475416126135
 40
0.1581164324045174
 40
0.1853871407584952
 40
0.2126564281442191
 40
0.2398606658232155
 40
0.2670639323377116
 40
0.2940043216967235
 40
0.3209444400568606
 40
0.3477815219145937
 40
0.3746184142109442
 40
0.4014156663807369
 40
0.4282127093831916
 40
0.4549611212015027
 40
0.4817092095935793
 40
0.5083915652454403
 40
0.5350740787077107
 40
0.561715587071766
 40
0.5883573639530615
 40
0.6150567477345243
 40
0.6417563363764248
 40
0.6685175725079539
 40
0.6952789925898738
 40
0.7220845559223619
 40
0.7488904061925145
 40
0.775738169860778
 40
0.8025870304842365
 40
0.829571825617465
 40
0.8565576062454069
 40
0.8838205666725835
 40
0.9110812643742701
 40
0.9382783652178368
 40
0.9654711703433752
 40
1.0
 40
1.0
 40
1.0
 40
1.0
 10
2391.96009543707
 20
-650.1006972286987
 30
0.0
 10
2391.670781791602
 20
-650.0970543404364
 30
0.0
 10
2391.09213474197
 20
-650.0897683151225
 30
0.0
 10
2390.24905702366
 20
-650.0341640116894
 30
0.0
 10
2389.456044728328
 20
-649.9486838817666
 30
0.0
 10
2388.727259015222
 20
-649.8386178296623
 30
0.0
 10
2388.085480184021
 20
-649.7128099536567
 30
0.0
 10
2387.541358032607
 20
-649.5797579491809
 30
0.0
 10
2387.120428811523
 20
-649.4498241817901
 30
0.0
 10
2386.833380094454
 20
-649.328860511604
 30
0.0
 10
2386.6977897866
 20
-649.2231852597906
 30
0.0
 10
2386.711809688944
 20
-649.1323257165768
 30
0.0
 10
2386.880327900119
 20
-649.055730043041
 30
0.0
 10
2387.190607581164
 20
-648.9902915678176
 30
0.0
 10
2387.639839116956
 20
-648.9336525317349
 30
0.0
 10
2388.209062996029
 20
-648.8844965574726
 30
0.0
 10
2388.887312243459
 20
-648.8423129582261
 30
0.0
 10
2389.650715858545
 20
-648.807921134644
 30
0.0
 10
2390.480929390935
 20
-648.7826009806604
 30
0.0
 10
2391.35131164203
 20
-648.767624726227
 30
0.0
 10
2392.238688604109
 20
-648.7654310114385
 30
0.0
 10
2393.117114691334
 20
-648.7756178219779
 30
0.0
 10
2393.961541831636
 20
-648.7972430175469
 30
0.0
 10
2394.750620188269
 20
-648.828207997205
 30
0.0
 10
2395.459641730889
 20
-648.8673008255319
 30
0.0
 10
2396.072553978855
 20
-648.913673939579
 30
0.0
 10
2396.566906759698
 20
-648.9669961880745
 30
0.0
 10
2396.933783688295
 20
-649.0284084277409
 30
0.0
 10
2397.156705242985
 20
-649.0998852632283
 30
0.0
 10
2397.235461613731
 20
-649.1834925645071
 30
0.0
 10
2397.161892496535
 20
-649.2820292325414
 30
0.0
 10
2396.944344683661
 20
-649.3946867052155
 30
0.0
 10
2396.583208940569
 20
-649.5206836103807
 30
0.0
 10
2396.091955384732
 20
-649.6537326107418
 30
0.0
 10
2395.4783192793
 20
-649.7863460299459
 30
0.0
 10
2394.762207710616
 20
-649.9082771660169
 30
0.0
 10
2393.961325722937
 20
-650.0066357398518
 30
0.0
 10
2393.024196231659
 20
-650.0839499396179
 30
0.0
 10
2392.341830271163
 20
-650.0946893169939
 30
0.0
 10
2391.96009543707
 20
-650.1006972286987
 30
0.0
  0
LINE
  5
1AEA5
330
18
100
AcDbEntity
  8
01
  6
CONTINUOUS
100
AcDbLine
 10
2400.005388827821
 20
-651.7063401881742
 30
0.0
 11
2400.265522124072
 21
-651.4571890477227
 31
0.0
  0
ARC
  5
1AEA6
330
18
100
AcDbEntity
  8
01
  6
CONTINUOUS
100
AcDbCircle
 10
2391.960097299715
 20
-644.959316364112
 30
0.0
 40
10.49995458345727
100
AcDbArc
 50
219.984210291986
 51
320.0157897080139
  0
LINE
  5
1AEA7
330
18
100
AcDbEntity
  8
01
  6
CONTINUOUS
100
AcDbLine
 10
2383.648358108302
 20
-651.4026517290758
 30
0.0
 11
2383.914805771609
 21
-651.7063401881742
 31
0.0
  0
LINE
  5
1AEA8
330
18
100
AcDbEntity
  8
01
  6
CONTINUOUS
100
AcDbLine
 10
2385.460093440314
 20
-643.7092455346274
 30
0.0
 11
2385.460093440314
 21
-643.9592460412669
 31
0.0
  0
LINE
  5
1AEA9
330
18
100
AcDbEntity
  8
01
  6
CONTINUOUS
100
AcDbLine
 10
2379.460096182128
 20
-643.9592460412669
 30
0.0
 11
2379.460096182128
 21
-643.7092455346274
 31
0.0
  0
LINE
  5
1AEAA
330
18
100
AcDbEntity
  8
01
  6
CONTINUOUS
100
AcDbLine
 10
2511.460095466872
 20
-629.959243746488
 30
0.0
 11
2511.460095466872
 21
-629.7092469651388
 31
0.0
  0
LINE
  5
1AEAB
330
18
100
AcDbEntity
  8
01
  6
CONTINUOUS
100
AcDbLine
 10
2512.46009749343
 20
-629.7092469651388
 30
0.0
 11
2512.46009749343
 21
-629.959243746488
 31
0.0
  0
SPLINE
  5
1AEAC
330
18
100
AcDbEntity
  8
01
  6
CONTINUOUS
100
AcDbSpline
210
0.0
220
0.0
230
1.0
 70
    24
 71
     3
 72
    10
 73
     6
 74
     0
 42
0.0000000001
 43
0.0000000001
 40
0.0
 40
0.0
 40
0.0
 40
0.0
 40
0.2862205226059873
 40
0.643110231865772
 40
1.0
 40
1.0
 40
1.0
 40
1.0
 10
2376.960098566314
 20
-647.5110681969809
 30
0.0
 10
2376.960098566314
 20
-647.5101645392515
 30
0.0
 10
2376.960098566314
 20
-647.5081341064706
 30
0.0
 10
2376.960098566314
 20
-647.4800890018214
 30
0.0
 10
2376.960098566314
 20
-647.4669391356692
 30
0.0
 10
2376.960098566314
 20
-647.4603642020511
 30
0.0
  0
LINE
  5
1AEAD
330
18
100
AcDbEntity
  8
01
  6
CONTINUOUS
100
AcDbLine
 10
2500.960096539756
 20
-624.9592447895693
 30
0.0
 11
2500.960096539756
 21
-625.2092452962088
 31
0.0
  0
LINE
  5
1AEAE
330
18
100
AcDbEntity
  8
01
  6
CONTINUOUS
100
AcDbLine
 10
2493.960097255012
 20
-625.2092452962088
 30
0.0
 11
2493.960097255012
 21
-624.9592447895693
 31
0.0
  0
LINE
  5
1AEAF
330
18
100
AcDbEntity
  8
01
  6
CONTINUOUS
100
AcDbLine
 10
2383.960097851058
 20
-639.2092457283425
 30
0.0
 11
2383.960097851058
 21
-638.959245221703
 31
0.0
  0
SPLINE
  5
1AEB0
330
18
100
AcDbEntity
  8
01
  6
CONTINUOUS
100
AcDbSpline
210
0.0
220
0.0
230
1.0
 70
     8
 71
     3
 72
     9
 73
     5
 74
     0
 42
0.0000000001
 43
0.0000000001
 40
0.0037536597078293
 40
0.0037536597078293
 40
0.0037536597078293
 40
0.0037536597078293
 40
0.0951229067285765
 40
1.0
 40
1.0
 40
1.0
 40
1.0
 10
2406.191323533838
 20
-648.4826892607682
 30
0.0
 10
2406.187213743998
 20
-648.4844815163681
 30
0.0
 10
2406.145973684076
 20
-648.5018995785722
 30
0.0
 10
2406.100570821543
 20
-648.5045764386341
 30
0.0
 10
2406.059406520625
 20
-648.5106064248967
 30
0.0
  0
LINE
  5
1AEB1
330
18
100
AcDbEntity
  8
01
  6
CONTINUOUS
100
AcDbLine
 10
2380.960099221965
 20
-639.2092457283425
 30
0.0
 11
2380.960099221965
 21
-638.959245221703
 31
0.0
  0
SPLINE
  5
1AEB2
330
18
100
AcDbEntity
  8
01
100
AcDbSpline
210
0.0
220
0.0
230
1.0
 70
     8
 71
     3
 72
     9
 73
     5
 74
     0
 42
0.0000000001
 43
0.0000000001
 40
0.0
 40
0.0
 40
0.0
 40
0.0
 40
0.6198621737900334
 40
1.0
 40
1.0
 40
1.0
 40
1.0
 10
2382.957674385806
 20
-648.4613357354092
 30
0.0
 10
2382.587493702975
 20
-648.4606396127665
 30
0.0
 10
2381.990295328104
 20
-648.4595165846631
 30
0.0
 10
2381.429114360156
 20
-648.4591773594866
 30
0.0
 10
2381.21578824689
 20
-648.4590484071659
 30
0.0
  0
ARC
  5
1AEBF
330
18
100
AcDbEntity
  8
01
100
AcDbCircle
 10
2391.960098566314
 20
-644.9592454154181
 30
0.0
 40
25.0
100
AcDbArc
 50
25.36080183379686
 51
352.7540328093249
  0
LINE
  5
1AEC0
330
18
100
AcDbEntity
  8
1CENTER
100
AcDbLine
 10
2187.460331245803
 20
-659.9592454154181
 30
0.0
 11
2187.460331245803
 21
-651.9592454154181
 31
0.0
  0
SPLINE
  5
1AEC1
330
18
100
AcDbEntity
  8
01
  6
CONTINUOUS
100
AcDbSpline
210
0.0
220
0.0
230
1.0
 70
     8
 71
     3
 72
    11
 73
     7
 74
     0
 42
0.0000000001
 43
0.0000000001
 40
0.0
 40
0.0
 40
0.0
 40
0.0
 40
0.163238093180974
 40
0.4185203029521941
 40
0.7153782430161804
 40
0.9999999999999999
 40
0.9999999999999999
 40
0.9999999999999999
 40
0.9999999999999999
 10
2147.754140227579
 20
-648.7723650206017
 30
0.0
 10
2147.384468567565
 20
-648.7434975132146
 30
0.0
 10
2146.43668063322
 20
-648.6694851445209
 30
0.0
 10
2144.814821055647
 20
-648.5763330499167
 30
0.0
 10
2142.916324668603
 20
-648.4954145819229
 30
0.0
 10
2141.595950164929
 20
-648.4773632749229
 30
0.0
 10
2140.953813776316
 20
-648.461324950415
 30
0.0
  0
SPLINE
  5
1AEC2
330
18
100
AcDbEntity
  8
01
  6
CONTINUOUS
100
AcDbSpline
210
0.0
220
0.0
230
1.0
 70
     8
 71
     3
 72
    17
 73
    13
 74
     0
 42
0.0000000001
 43
0.0000000001
 40
0.0
 40
0.0
 40
0.0
 40
0.0
 40
0.0887417346900908
 40
0.2078651145535492
 40
0.3196416345420056
 40
0.4245335436755556
 40
0.5228154686480612
 40
0.647395571092144
 40
0.7597889635532338
 40
0.859818139458226
 40
0.9471489494169024
 40
0.9999999999999999
 40
0.9999999999999999
 40
0.9999999999999999
 40
0.9999999999999999
 10
2184.403217659809
 20
-654.9363891389357
 30
0.0
 10
2183.619793235196
 20
-654.8458167442777
 30
0.0
 10
2181.784730980271
 20
-654.6336635645275
 30
0.0
 10
2178.979462336179
 20
-654.1832043037966
 30
0.0
 10
2176.042688846961
 20
-653.6550775528185
 30
0.0
 10
2173.296982545413
 20
-653.1124656546426
 30
0.0
 10
2170.444824691754
 20
-652.5229211227634
 30
0.0
 10
2167.529859197076
 20
-651.9080919397893
 30
0.0
 10
2164.59766837396
 20
-651.2997305865674
 30
0.0
 10
2161.984754327167
 20
-650.7825436031362
 30
0.0
 10
2159.886704276274
 20
-650.3893877879927
 30
0.0
 10
2158.658966789123
 20
-650.179243696196
 30
0.0
 10
2158.196087955975
 20
-650.1000156421351
 30
0.0
  0
LINE
  5
1AEC3
330
18
100
AcDbEntity
  8
01
  6
CONTINUOUS
100
AcDbLine
 10
2192.960331245803
 20
-655.4592457395183
 30
0.0
 11
2190.560617513501
 21
-655.3916158881175
 31
0.0
  0
LINE
  5
1AEC4
330
18
100
AcDbEntity
  8
01
  6
CONTINUOUS
100
AcDbLine
 10
2192.960331245803
 20
-634.9592456389355
 30
0.0
 11
2193.160330906057
 21
-634.9592456389355
 31
0.0
  0
LINE
  5
1AEC5
330
18
100
AcDbEntity
  8
01
  6
CONTINUOUS
100
AcDbLine
 10
2193.160330906057
 20
-654.9592461232232
 30
0.0
 11
2192.960331245803
 21
-654.9592461232232
 31
0.0
  0
LINE
  5
1AEC6
330
18
100
AcDbEntity
  8
01
  6
CONTINUOUS
100
AcDbLine
 10
2192.960331245803
 20
-639.2092468012261
 30
0.0
 11
2145.960330992483
 21
-639.2092468012261
 31
0.0
  0
LINE
  5
1AEC7
330
18
100
AcDbEntity
  8
01
  6
CONTINUOUS
100
AcDbLine
 10
2192.960331245803
 20
-640.2092469651388
 30
0.0
 11
2192.960331245803
 21
-639.2092468012261
 31
0.0
  0
LINE
  5
1AEC8
330
18
100
AcDbEntity
  8
01
  6
CONTINUOUS
100
AcDbLine
 10
2192.960331245803
 20
-642.7092464435982
 30
0.0
 11
2192.960331245803
 21
-640.2092469651388
 31
0.0
  0
LINE
  5
1AEC9
330
18
100
AcDbEntity
  8
01
  6
CONTINUOUS
100
AcDbLine
 10
2145.960330992483
 20
-643.709246607511
 30
0.0
 11
2192.960331245803
 21
-643.709246607511
 31
0.0
  0
LINE
  5
1AECA
330
18
100
AcDbEntity
  8
01
  6
CONTINUOUS
100
AcDbLine
 10
2192.960331245803
 20
-643.709246607511
 30
0.0
 11
2192.960331245803
 21
-642.7092464435982
 31
0.0
  0
LINE
  5
1AECB
330
18
100
AcDbEntity
  8
01
  6
CONTINUOUS
100
AcDbLine
 10
2139.960330009007
 20
-640.2092469651388
 30
0.0
 11
2139.960330009007
 21
-642.7092464435982
 31
0.0
  0
LINE
  5
1AECC
330
18
100
AcDbEntity
  8
01
  6
CONTINUOUS
100
AcDbLine
 10
2145.960330992483
 20
-639.2092468012261
 30
0.0
 11
2140.960332035565
 21
-639.2092468012261
 31
0.0
  0
ARC
  5
1AECD
330
18
100
AcDbEntity
  8
01
  6
CONTINUOUS
100
AcDbCircle
 10
2140.960331149596
 20
-640.2092462944829
 30
0.0
 40
1.0
100
AcDbArc
 50
90.0
 51
180.0
  0
ARC
  5
1AECE
330
18
100
AcDbEntity
  8
01
  6
CONTINUOUS
100
AcDbCircle
 10
2140.960331149596
 20
-642.7092462944829
 30
0.0
 40
1.0
100
AcDbArc
 50
180.0
 51
270.0
  0
LINE
  5
1AECF
330
18
100
AcDbEntity
  8
01
  6
CONTINUOUS
100
AcDbLine
 10
2140.960332035565
 20
-643.709246607511
 30
0.0
 11
2145.960330992483
 21
-643.709246607511
 31
0.0
  0
LINE
  5
1AED0
330
18
100
AcDbEntity
  8
01
  6
CONTINUOUS
100
AcDbLine
 10
2162.710331409716
 20
-639.2092468012261
 30
0.0
 11
2162.710331409716
 21
-638.9592462945866
 31
0.0
  0
LINE
  5
1AED1
330
18
100
AcDbEntity
  8
01
  6
CONTINUOUS
100
AcDbLine
 10
2143.960330664658
 20
-639.2092468012261
 30
0.0
 11
2143.960330664658
 21
-638.9592462945866
 31
0.0
  0
LINE
  5
1AED2
330
18
100
AcDbEntity
  8
01
  6
CONTINUOUS
100
AcDbLine
 10
2139.960330009007
 20
-637.9592461306738
 30
0.0
 11
2139.960330009007
 21
-640.2092469651388
 31
0.0
  0
SPLINE
  5
1AED3
330
18
100
AcDbEntity
  8
01
  6
CONTINUOUS
100
AcDbSpline
210
0.0
220
0.0
230
1.0
 70
     8
 71
     3
 72
    10
 73
     6
 74
     0
 42
0.0000000001
 43
0.0000000001
 40
0.0
 40
0.0
 40
0.0
 40
0.0
 40
0.3422784233768764
 40
0.684591063216228
 40
0.9999999999999999
 40
0.9999999999999999
 40
0.9999999999999999
 40
0.9999999999999999
 10
2145.959682791971
 20
-648.4603617135572
 30
0.0
 10
2151.32211491527
 20
-648.4668546698786
 30
0.0
 10
2162.04751522679
 20
-648.4798412315995
 30
0.0
 10
2177.714349055035
 20
-648.504453069967
 30
0.0
 10
2188.018836793863
 20
-648.5061804878851
 30
0.0
 10
2192.960331245803
 20
-648.5070088673519
 30
0.0
  0
SPLINE
  5
1AED4
330
18
100
AcDbEntity
  8
01
  6
CONTINUOUS
100
AcDbSpline
210
0.0
220
0.0
230
1.0
 70
    24
 71
     3
 72
    12
 73
     8
 74
     0
 42
0.0000000001
 43
0.0000000001
 40
0.0
 40
0.0
 40
0.0
 40
0.0
 40
0.2292078974095154
 40
0.4584116216006172
 40
0.6876189256606984
 40
0.9168254876009072
 40
1.0
 40
1.0
 40
1.0
 40
1.0
 10
2192.960331245803
 20
-648.5070088673519
 30
0.0
 10
2192.960331245803
 20
-648.4848522547054
 30
0.0
 10
2192.960331245803
 20
-648.4405394328196
 30
0.0
 10
2192.960331245803
 20
-648.2392489979211
 30
0.0
 10
2192.960331245803
 20
-647.9642743099266
 30
0.0
 10
2192.960331245803
 20
-647.705079695037
 30
0.0
 10
2192.960331245803
 20
-647.5525557131305
 30
0.0
 10
2192.960331245803
 20
-647.5119447130846
 30
0.0
  0
LINE
  5
1AED5
330
18
100
AcDbEntity
  8
01
  6
CONTINUOUS
100
AcDbLine
 10
2192.960331245803
 20
-647.5119447130846
 30
0.0
 11
2192.960331245803
 21
-644.9592454154181
 31
0.0
  0
LINE
  5
1AED6
330
18
100
AcDbEntity
  8
01
  6
CONTINUOUS
100
AcDbLine
 10
2192.960331245803
 20
-637.9592461306738
 30
0.0
 11
2192.960331245803
 21
-635.4592466522145
 31
0.0
  0
LINE
  5
1AED7
330
18
100
AcDbEntity
  8
01
  6
CONTINUOUS
100
AcDbLine
 10
2192.960331245803
 20
-634.4592464883017
 30
0.0
 11
2145.960330992483
 21
-634.4592464883017
 31
0.0
  0
LINE
  5
1AED8
330
18
100
AcDbEntity
  8
01
  6
CONTINUOUS
100
AcDbLine
 10
2192.960331245803
 20
-635.4592466522145
 30
0.0
 11
2192.960331245803
 21
-634.4592464883017
 31
0.0
  0
LINE
  5
1AED9
330
18
100
AcDbEntity
  8
01
  6
CONTINUOUS
100
AcDbLine
 10
2192.960331245803
 20
-643.9592471141505
 30
0.0
 11
2145.960330992483
 21
-643.9592471141505
 31
0.0
  0
LINE
  5
1AEDA
330
18
100
AcDbEntity
  8
01
  6
CONTINUOUS
100
AcDbLine
 10
2192.960331245803
 20
-644.9592454154181
 30
0.0
 11
2192.960331245803
 21
-643.9592471141505
 31
0.0
  0
LINE
  5
1AEDB
330
18
100
AcDbEntity
  8
01
  6
CONTINUOUS
100
AcDbLine
 10
2145.960330992483
 20
-638.9592462945866
 30
0.0
 11
2192.960331245803
 21
-638.9592462945866
 31
0.0
  0
LINE
  5
1AEDC
330
18
100
AcDbEntity
  8
01
  6
CONTINUOUS
100
AcDbLine
 10
2192.960331245803
 20
-638.9592462945866
 30
0.0
 11
2192.960331245803
 21
-637.9592461306738
 31
0.0
  0
SPLINE
  5
1AEDD
330
18
100
AcDbEntity
  8
01
  6
CONTINUOUS
100
AcDbSpline
210
0.0
220
0.0
230
1.0
 70
     8
 71
     3
 72
    16
 73
    12
 74
     0
 42
0.0000000001
 43
0.0000000001
 40
0.0
 40
0.0
 40
0.0
 40
0.0
 40
0.1407236273200222
 40
0.2481040927810981
 40
0.355481863506863
 40
0.4628865953700795
 40
0.5702906809491403
 40
0.6777257973449236
 40
0.7851618049390157
 40
0.8925800599254586
 40
1.0
 40
1.0
 40
1.0
 40
1.0
 10
2140.955999522947
 20
-648.4613368082928
 30
0.0
 10
2140.98001438865
 20
-648.4606557623565
 30
0.0
 10
2141.022354019755
 20
-648.4594550380189
 30
0.0
 10
2141.31518964591
 20
-648.4588744733092
 30
0.0
 10
2141.698356757171
 20
-648.4586663888604
 30
0.0
 10
2142.207800141219
 20
-648.4588234123457
 30
0.0
 10
2142.820766193293
 20
-648.4591522411347
 30
0.0
 10
2143.524846861314
 20
-648.459473807804
 30
0.0
 10
2144.296542970858
 20
-648.4597528244349
 30
0.0
 10
2145.116368099634
 20
-648.4599299969304
 30
0.0
 10
2145.678576424628
 20
-648.4602178072628
 30
0.0
 10
2145.959682791971
 20
-648.4603617135572
 30
0.0
  0
ARC
  5
1AEDE
330
18
100
AcDbEntity
  8
01
  6
CONTINUOUS
100
AcDbCircle
 10
2140.960331668363
 20
-647.4613445326986
 30
0.0
 40
1.000001659365214
100
AcDbArc
 50
180.0002417233636
 51
269.7517859869147
  0
LINE
  5
1AEDF
330
18
100
AcDbEntity
  8
01
  6
CONTINUOUS
100
AcDbLine
 10
2139.960330009007
 20
-644.9592454154181
 30
0.0
 11
2139.960330009007
 21
-647.4613487515735
 31
0.0
  0
LINE
  5
1AEE0
330
18
100
AcDbEntity
  8
01
  6
CONTINUOUS
100
AcDbLine
 10
2140.960332035565
 20
-638.9592462945866
 30
0.0
 11
2145.960330992483
 21
-638.9592462945866
 31
0.0
  0
ARC
  5
1AEE1
330
18
100
AcDbEntity
  8
01
  6
CONTINUOUS
100
AcDbCircle
 10
2140.960331149596
 20
-637.9592462944829
 30
0.0
 40
1.0
100
AcDbArc
 50
180.0
 51
270.0
  0
LINE
  5
1AEE2
330
18
100
AcDbEntity
  8
01
  6
CONTINUOUS
100
AcDbLine
 10
2145.960330992483
 20
-634.4592464883017
 30
0.0
 11
2140.960332035565
 21
-634.4592464883017
 31
0.0
  0
ARC
  5
1AEE3
330
18
100
AcDbEntity
  8
01
  6
CONTINUOUS
100
AcDbCircle
 10
2140.960331149596
 20
-635.4592462944829
 30
0.0
 40
1.0
100
AcDbArc
 50
90.0
 51
180.0
  0
LINE
  5
1AEE4
330
18
100
AcDbEntity
  8
01
  6
CONTINUOUS
100
AcDbLine
 10
2145.960330992483
 20
-643.9592471141505
 30
0.0
 11
2140.960332035565
 21
-643.9592471141505
 31
0.0
  0
ARC
  5
1AEE5
330
18
100
AcDbEntity
  8
01
  6
CONTINUOUS
100
AcDbCircle
 10
2140.960331149596
 20
-644.9592462944829
 30
0.0
 40
1.0
100
AcDbArc
 50
90.0
 51
180.0
  0
LINE
  5
1AEE6
330
18
100
AcDbEntity
  8
01
  6
CONTINUOUS
100
AcDbLine
 10
2139.960330009007
 20
-635.4592466522145
 30
0.0
 11
2139.960330009007
 21
-637.9592461306738
 31
0.0
  0
ARC
  5
1AEE7
330
18
100
AcDbEntity
  8
01
  6
CONTINUOUS
100
AcDbCircle
 10
2186.562941073629
 20
-666.958739881773
 30
0.0
 40
12.21395074093449
100
AcDbArc
 50
70.8961912242026
 51
100.1853518780331
  0
SPLINE
  5
1AEE8
330
18
100
AcDbEntity
  8
01
  6
CONTINUOUS
100
AcDbSpline
210
0.0
220
0.0
230
1.0
 70
     8
 71
     3
 72
    27
 73
    23
 74
     0
 42
0.0000000001
 43
0.0000000001
 40
0.0
 40
0.0
 40
0.0
 40
0.0
 40
0.0075906044296476
 40
0.0588466956439899
 40
0.1116149806531498
 40
0.1628643916382178
 40
0.2155502856688017
 40
0.2677556791408164
 40
0.3214088832282004
 40
0.3747560325856835
 40
0.4296560897302323
 40
0.4828619353916634
 40
0.5376407074191434
 40
0.5903400134559288
 40
0.6445791853660648
 40
0.6970799428785267
 40
0.7511076662395013
 40
0.8035300644202151
 40
0.8574779758059291
 40
0.9098037814801258
 40
0.9636542340336985
 40
1.0
 40
1.0
 40
1.0
 40
1.0
 10
2158.196574106359
 20
-650.0972132925081
 30
0.0
 10
2158.201639690662
 20
-650.0984964679128
 30
0.0
 10
2158.240910989878
 20
-650.1084443756436
 30
0.0
 10
2158.15132691134
 20
-650.0857589389007
 30
0.0
 10
2157.954638966099
 20
-650.0358771740166
 30
0.0
 10
2157.602386633637
 20
-649.9490748248072
 30
0.0
 10
2157.132517721311
 20
-649.8397339616404
 30
0.0
 10
2156.541013690871
 20
-649.7133470689996
 30
0.0
 10
2155.848577018505
 20
-649.5810768476586
 30
0.0
 10
2155.061741646268
 20
-649.4501621433601
 30
0.0
 10
2154.214837948418
 20
-649.3300844960431
 30
0.0
 10
2153.322505816927
 20
-649.2234274723496
 30
0.0
 10
2152.429686235707
 20
-649.1332045255858
 30
0.0
 10
2151.545771309379
 20
-649.0560184008136
 30
0.0
 10
2150.713312773961
 20
-648.9908765682894
 30
0.0
 10
2149.938339863385
 20
-648.9339527015736
 30
0.0
 10
2149.257006652035
 20
-648.8849154295676
 30
0.0
 10
2148.675907280163
 20
-648.842528355507
 30
0.0
 10
2148.220388079823
 20
-648.8081414528087
 30
0.0
 10
2147.901663147217
 20
-648.7829351780974
 30
0.0
 10
2147.728126247326
 20
-648.7683116822845
 30
0.0
 10
2147.726328806559
 20
-648.7681253059409
 30
0.0
 10
2147.725604503893
 20
-648.7680502031135
 30
0.0
  0
LINE
  5
1AEE9
330
18
100
AcDbEntity
  8
01
  6
CONTINUOUS
100
AcDbLine
 10
2192.960331245803
 20
-648.5070042107391
 30
0.0
 11
2192.960331245803
 21
-651.7063412610578
 31
0.0
  0
LINE
  5
1AEEA
330
18
100
AcDbEntity
  8
01
  6
CONTINUOUS
100
AcDbLine
 10
2192.960331245803
 20
-651.7063412610578
 30
0.0
 11
2192.960331245803
 21
-655.4590822924065
 31
0.0
  0
LINE
  5
1AEEB
330
18
100
AcDbEntity
  8
01
  6
CONTINUOUS
100
AcDbLine
 10
2147.960331320309
 20
-643.9592471141505
 30
0.0
 11
2147.960331320309
 21
-643.709246607511
 31
0.0
  0
LINE
  5
1AEEC
330
18
100
AcDbEntity
  8
01
  6
CONTINUOUS
100
AcDbLine
 10
2192.960331245803
 20
-643.709246607511
 30
0.0
 11
2192.960331245803
 21
-643.9592471141505
 31
0.0
  0
LINE
  5
1AEED
330
18
100
AcDbEntity
  8
01
  6
CONTINUOUS
100
AcDbLine
 10
2141.960330336832
 20
-643.709246607511
 30
0.0
 11
2141.960330336832
 21
-643.9592471141505
 31
0.0
  0
LINE
  5
1AEEE
330
18
100
AcDbEntity
  8
01
  6
CONTINUOUS
100
AcDbLine
 10
2192.960331245803
 20
-638.9592462945866
 30
0.0
 11
2192.960331245803
 21
-639.2092468012261
 31
0.0
  0
LINE
  5
1AEEF
330
18
100
AcDbEntity
  8
01
  6
CONTINUOUS
100
AcDbLine
 10
2187.960331357562
 20
-638.9592462945866
 30
0.0
 11
2187.960331357562
 21
-639.2092468012261
 31
0.0
  0
LINE
  5
1AEF0
330
18
100
AcDbEntity
  8
01
  6
CONTINUOUS
100
AcDbLine
 10
2193.160330906057
 20
-644.9592454154181
 30
0.0
 11
2193.160330906057
 21
-634.9592456389355
 31
0.0
  0
LINE
  5
1AEF1
330
18
100
AcDbEntity
  8
01
  6
CONTINUOUS
100
AcDbLine
 10
2193.160330906057
 20
-654.9592461232232
 30
0.0
 11
2193.160330906057
 21
-644.9592454154181
 31
0.0
  0
LINE
  5
1AEF2
330
18
100
AcDbEntity
  8
01
  6
CONTINUOUS
100
AcDbLine
 10
2162.960331916355
 20
-638.9592462945866
 30
0.0
 11
2162.960331916355
 21
-639.2092468012261
 31
0.0
  0
LINE
  5
1AEF3
330
18
100
AcDbEntity
  8
01
  6
CONTINUOUS
100
AcDbLine
 10
2139.960330009007
 20
-628.4087640959906
 30
0.0
 11
2139.960330009007
 21
-635.4592466522145
 31
0.0
  0
LINE
  5
1AEF4
330
18
100
AcDbEntity
  8
01
  6
CONTINUOUS
100
AcDbLine
 10
2139.960330009007
 20
-642.7092464435982
 30
0.0
 11
2139.960330009007
 21
-644.9592454154181
 31
0.0
  0
LINE
  5
1AEF5
330
18
100
AcDbEntity
  8
01
  6
CONTINUOUS
100
AcDbLine
 10
2165.960331476771
 20
-634.4592464883017
 30
0.0
 11
2165.960331476771
 21
-628.4087640959906
 31
0.0
  0
ARC
  5
1AEF6
330
18
100
AcDbEntity
  8
01
  6
CONTINUOUS
100
AcDbCircle
 10
2164.960331149596
 20
-621.4592462944829
 30
0.0
 40
1.0
100
AcDbArc
 50
0.0
 51
90.0
  0
LINE
  5
1AEF7
330
18
100
AcDbEntity
  8
01
  6
CONTINUOUS
100
AcDbLine
 10
2165.960331476771
 20
-628.4087640959906
 30
0.0
 11
2165.960331476771
 21
-621.4592462200808
 31
0.0
  0
LINE
  5
1AEF8
330
18
100
AcDbEntity
  8
01
  6
CONTINUOUS
100
AcDbLine
 10
2140.960332035565
 20
-620.4592479188132
 30
0.0
 11
2164.960331312858
 21
-620.4592479188132
 31
0.0
  0
ARC
  5
1AEF9
330
18
100
AcDbEntity
  8
01
  6
CONTINUOUS
100
AcDbCircle
 10
2140.960331149596
 20
-621.4592462944829
 30
0.0
 40
1.0
100
AcDbArc
 50
90.0
 51
180.0
  0
LINE
  5
1AEFA
330
18
100
AcDbEntity
  8
01
  6
CONTINUOUS
100
AcDbLine
 10
2139.960330009007
 20
-621.4592462200808
 30
0.0
 11
2139.960330009007
 21
-628.4087640959906
 31
0.0
  0
SPLINE
  5
1AEFB
330
18
100
AcDbEntity
  8
01
  6
CONTINUOUS
100
AcDbSpline
210
0.0
220
0.0
230
1.0
 70
     8
 71
     3
 72
    28
 73
    24
 74
     0
 42
0.0000000001
 43
0.0000000001
 40
0.0
 40
0.0
 40
0.0
 40
0.0
 40
0.1053906649590148
 40
0.1993769479522471
 40
0.2821488088540034
 40
0.3537975041958816
 40
0.414356648966544
 40
0.4638293706809338
 40
0.5013412546869579
 40
0.5144212975100998
 40
0.5240779941611722
 40
0.5279672291767832
 40
0.531535253984049
 40
0.5351116887540623
 40
0.5390252884006125
 40
0.5487701299698028
 40
0.5619862099649069
 40
0.6004193002322056
 40
0.6559131118427572
 40
0.7289342686070983
 40
0.8196856051688902
 40
0.92825060736702
 40
1.0
 40
1.0
 40
1.0
 40
1.0
 10
2043.688729598664
 20
-651.4466762785005
 30
0.0
 10
2043.527626119841
 20
-651.2754622309076
 30
0.0
 10
2043.222852258467
 20
-650.9515613022168
 30
0.0
 10
2042.740130965596
 20
-650.5177055952026
 30
0.0
 10
2042.292729171888
 20
-650.1603183675825
 30
0.0
 10
2041.887134791687
 20
-649.8737921133343
 30
0.0
 10
2041.537605107265
 20
-649.6517822003098
 30
0.0
 10
2041.237844849686
 20
-649.4810935740079
 30
0.0
 10
2041.052490615477
 20
-649.3814940764751
 30
0.0
 10
2040.865022308814
 20
-649.2918315929246
 30
0.0
 10
2040.746115036375
 20
-649.2386695415835
 30
0.0
 10
2040.644395325994
 20
-649.1957472192344
 30
0.0
 10
2040.570318809033
 20
-649.1655448114843
 30
0.0
 10
2040.494596057982
 20
-649.1356949817191
 30
0.0
 10
2040.385746854489
 20
-649.0942004226263
 30
0.0
 10
2040.248669849446
 20
-649.044723642518
 30
0.0
 10
2040.011239791525
 20
-648.9640888100248
 30
0.0
 10
2039.719307618083
 20
-648.8750830484651
 30
0.0
 10
2039.364531625831
 20
-648.7781426933952
 30
0.0
 10
2038.978603034194
 20
-648.6860795736775
 30
0.0
 10
2038.560619697916
 20
-648.6027529269168
 30
0.0
 10
2038.18145074122
 20
-648.5411690391447
 30
0.0
 10
2037.952232247495
 20
-648.5193060046004
 30
0.0
 10
2037.861023291492
 20
-648.5106064248967
 30
0.0
  0
SPLINE
  5
1AEFC
330
18
100
AcDbEntity
  8
01
  6
CONTINUOUS
100
AcDbSpline
210
0.0
220
0.0
230
1.0
 70
     8
 71
     3
 72
    11
 73
     7
 74
     0
 42
0.0000000001
 43
0.0000000001
 40
0.0
 40
0.0
 40
0.0
 40
0.0
 40
0.2243039859989572
 40
0.4824151892230858
 40
0.741132422908377
 40
1.0
 40
1.0
 40
1.0
 40
1.0
 10
2066.058222397708
 20
-648.5240631047773
 30
0.0
 10
2065.571545094997
 20
-648.5891656319627
 30
0.0
 10
2064.524838225156
 20
-648.7291829741935
 30
0.0
 10
2062.993832022446
 20
-649.3298970741916
 30
0.0
 10
2061.501650962059
 20
-650.2045378262746
 30
0.0
 10
2060.682010817142
 20
-651.0032030984266
 30
0.0
 10
2060.272071703815
 20
-651.4026517290758
 30
0.0
  0
ARC
  5
1AEFD
330
18
100
AcDbEntity
  8
01
  6
CONTINUOUS
100
AcDbCircle
 10
2065.927734872318
 20
-647.4996688108915
 30
0.0
 40
1.032672679567799
100
AcDbArc
 50
277.2499670452141
 51
359.3144198550594
  0
LINE
  5
1AEFE
330
18
100
AcDbEntity
  8
01
  6
CONTINUOUS
100
AcDbLine
 10
2036.960333779
 20
-643.7092455346274
 30
0.0
 11
2060.960333987617
 21
-643.7092455346274
 31
0.0
  0
LINE
  5
1AEFF
330
18
100
AcDbEntity
  8
01
  6
CONTINUOUS
100
AcDbLine
 10
2060.960333987617
 20
-643.7092455346274
 30
0.0
 11
2065.960336669826
 21
-643.7092455346274
 31
0.0
  0
ARC
  5
1AF00
330
18
100
AcDbEntity
  8
01
  6
CONTINUOUS
100
AcDbCircle
 10
2065.960333648781
 20
-642.7092452215984
 30
0.0
 40
1.0
100
AcDbArc
 50
270.0
 51
0.0
  0
ARC
  5
1AF01
330
18
100
AcDbEntity
  8
01
  6
CONTINUOUS
100
AcDbCircle
 10
2036.960333648781
 20
-505.0485309358837
 30
0.0
 40
138.6607142857141
100
AcDbArc
 50
251.7167195529458
 51
270.0
  0
LINE
  5
1AF02
330
18
100
AcDbEntity
  8
01
  6
CONTINUOUS
100
AcDbLine
 10
2066.960331245803
 20
-642.7092453707146
 30
0.0
 11
2066.960331245803
 21
-640.2092458922552
 31
0.0
  0
LINE
  5
1AF03
330
18
100
AcDbEntity
  8
01
  6
CONTINUOUS
100
AcDbLine
 10
2060.960333987617
 20
-639.2092457283425
 30
0.0
 11
2036.960333779
 21
-639.2092457283425
 31
0.0
  0
LINE
  5
1AF04
330
18
100
AcDbEntity
  8
01
  6
CONTINUOUS
100
AcDbLine
 10
2065.960336669826
 20
-639.2092457283425
 30
0.0
 11
2060.960333987617
 21
-639.2092457283425
 31
0.0
  0
ARC
  5
1AF05
330
18
100
AcDbEntity
  8
01
  6
CONTINUOUS
100
AcDbCircle
 10
2065.960333648781
 20
-640.2092452215984
 30
0.0
 40
1.0
100
AcDbArc
 50
0.0
 51
90.0
  0
ARC
  5
1AF06
330
18
100
AcDbEntity
  8
01
  6
CONTINUOUS
100
AcDbCircle
 10
2036.960333648781
 20
-500.5485309358837
 30
0.0
 40
138.6607142857143
100
AcDbArc
 50
251.7167195529459
 51
270.0
  0
ARC
  5
1AF07
330
18
100
AcDbEntity
  8
01
  6
CONTINUOUS
100
AcDbCircle
 10
1949.960333648781
 20
-768.3699595073122
 30
0.0
 40
138.6607142857142
100
AcDbArc
 50
71.71671955294583
 51
90.0
  0
ARC
  5
1AF08
330
18
100
AcDbEntity
  8
01
  6
CONTINUOUS
100
AcDbCircle
 10
1949.960333648781
 20
-763.8699595073122
 30
0.0
 40
138.6607142857144
100
AcDbArc
 50
71.71671955294588
 51
90.0
  0
LINE
  5
1AF09
330
18
100
AcDbEntity
  8
01
  6
CONTINUOUS
100
AcDbLine
 10
1929.96033672943
 20
-626.9592451173949
 30
0.0
 11
1929.96033672943
 21
-628.7092449385809
 31
0.0
  0
LINE
  5
1AF0A
330
18
100
AcDbEntity
  8
01
  6
CONTINUOUS
100
AcDbLine
 10
1931.710332825326
 20
-629.7092469651388
 30
0.0
 11
1949.960332557105
 21
-629.7092469651388
 31
0.0
  0
ARC
  5
1AF0B
330
18
100
AcDbEntity
  8
01
  6
CONTINUOUS
100
AcDbCircle
 10
1930.960333648781
 20
-628.7092452215984
 30
0.0
 40
1.000000000000014
100
AcDbArc
 50
180.0
 51
270.0
  0
LINE
  5
1AF0C
330
18
100
AcDbEntity
  8
01
  6
CONTINUOUS
100
AcDbLine
 10
1930.960331305408
 20
-629.7092469651388
 30
0.0
 11
1931.710332825326
 21
-629.7092469651388
 31
0.0
  0
ARC
  5
1AF0D
330
18
100
AcDbEntity
  8
01
  6
CONTINUOUS
100
AcDbCircle
 10
1931.710333648781
 20
-626.9592452215984
 30
0.0
 40
1.750000000000014
100
AcDbArc
 50
90.0
 51
180.0
  0
LINE
  5
1AF0E
330
18
100
AcDbEntity
  8
01
  6
CONTINUOUS
100
AcDbLine
 10
1949.960332557105
 20
-625.2092452962088
 30
0.0
 11
1931.710332825326
 21
-625.2092452962088
 31
0.0
  0
ARC
  5
1AF0F
330
18
100
AcDbEntity
  8
01
  6
CONTINUOUS
100
AcDbCircle
 10
2036.960333648781
 20
-509.7985309358828
 30
0.0
 40
138.6607142857149
100
AcDbArc
 50
251.7167195529458
 51
270.0
  0
SPLINE
  5
1AF10
330
18
100
AcDbEntity
  8
01
  6
CONTINUOUS
100
AcDbSpline
210
0.0
220
0.0
230
1.0
 70
     8
 71
     3
 72
    10
 73
     6
 74
     0
 42
0.0000000001
 43
0.0000000001
 40
0.0
 40
0.0
 40
0.0
 40
0.0
 40
0.3323005033888005
 40
0.6647307710716173
 40
1.0
 40
1.0
 40
1.0
 40
1.0
 10
2036.960333779
 20
-648.4592449162292
 30
0.0
 10
2039.619002902265
 20
-648.4626392992241
 30
0.0
 10
2044.937379366668
 20
-648.4694293907296
 30
0.0
 10
2052.938195619792
 20
-648.4642317933585
 30
0.0
 10
2058.280330829897
 20
-648.4623038205455
 30
0.0
 10
2060.962755426311
 20
-648.4613357354092
 30
0.0
  0
SPLINE
  5
1AF11
330
18
100
AcDbEntity
  8
01
  6
CONTINUOUS
100
AcDbSpline
210
0.0
220
0.0
230
1.0
 70
     8
 71
     3
 72
    15
 73
    11
 74
     0
 42
0.0000000001
 43
0.0000000001
 40
0.0
 40
0.0
 40
0.0
 40
0.0
 40
0.027271266429661
 40
0.1661860309986226
 40
0.3051356752269055
 40
0.4440844833565181
 40
0.5830734360949286
 40
0.7220635417777745
 40
0.8610306808885322
 40
1.0
 40
1.0
 40
1.0
 40
1.0
 10
2062.704641565227
 20
-648.4590484071659
 30
0.0
 10
2062.757404638291
 20
-648.4590056462321
 30
0.0
 10
2063.078933002892
 20
-648.4587450690487
 30
0.0
 10
2063.621938344909
 20
-648.4586947797707
 30
0.0
 10
2064.301382708439
 20
-648.4588144439667
 30
0.0
 10
2064.883970724971
 20
-648.4591532844652
 30
0.0
 10
2065.354859795262
 20
-648.4594721679987
 30
0.0
 10
2065.700690664766
 20
-648.459751902702
 30
0.0
 10
2065.919863477459
 20
-648.4599288862591
 30
0.0
 10
2065.948499559727
 20
-648.4602167217827
 30
0.0
 10
2065.962817713164
 20
-648.4603606406736
 30
0.0
  0
ARC
  5
1AF12
330
18
100
AcDbEntity
  8
01
  6
CONTINUOUS
100
AcDbCircle
 10
2065.960342115886
 20
-647.4603745750319
 30
0.0
 40
0.9999891299704683
100
AcDbArc
 50
270.141842962533
 51
0.0005943344810303
  0
LINE
  5
1AF13
330
18
100
AcDbEntity
  8
01
  6
CONTINUOUS
100
AcDbLine
 10
2066.960331245803
 20
-647.4603642020511
 30
0.0
 11
2066.960331245803
 21
-644.9592443425345
 31
0.0
  0
ARC
  5
1AF14
330
18
100
AcDbEntity
  8
01
  6
CONTINUOUS
100
AcDbCircle
 10
2036.960333648781
 20
-505.2985309358837
 30
0.0
 40
138.6607142857144
100
AcDbArc
 50
251.7167195529459
 51
270.0
  0
LINE
  5
1AF15
330
18
100
AcDbEntity
  8
01
  6
CONTINUOUS
100
AcDbLine
 10
2060.960333987617
 20
-643.9592460412669
 30
0.0
 11
2036.960333779
 21
-643.9592460412669
 31
0.0
  0
LINE
  5
1AF16
330
18
100
AcDbEntity
  8
01
  6
CONTINUOUS
100
AcDbLine
 10
2065.960336669826
 20
-643.9592460412669
 30
0.0
 11
2060.960333987617
 21
-643.9592460412669
 31
0.0
  0
ARC
  5
1AF17
330
18
100
AcDbEntity
  8
01
  6
CONTINUOUS
100
AcDbCircle
 10
2065.960333648781
 20
-644.9592452215984
 30
0.0
 40
1.0
100
AcDbArc
 50
0.0
 51
90.0
  0
ARC
  5
1AF18
330
18
100
AcDbEntity
  8
01
  6
CONTINUOUS
100
AcDbCircle
 10
1949.960333648781
 20
-773.1199595073131
 30
0.0
 40
138.6607142857148
100
AcDbArc
 50
71.71671955294593
 51
90.0
  0
LINE
  5
1AF19
330
18
100
AcDbEntity
  8
01
  6
CONTINUOUS
100
AcDbLine
 10
2036.960333779
 20
-638.959245221703
 30
0.0
 11
2060.960333987617
 21
-638.959245221703
 31
0.0
  0
ARC
  5
1AF1A
330
18
100
AcDbEntity
  8
01
  6
CONTINUOUS
100
AcDbCircle
 10
2036.960333648781
 20
-500.2985309358846
 30
0.0
 40
138.6607142857132
100
AcDbArc
 50
251.7167195529461
 51
270.0
  0
LINE
  5
1AF1B
330
18
100
AcDbEntity
  8
01
  6
CONTINUOUS
100
AcDbLine
 10
2060.960333987617
 20
-638.959245221703
 30
0.0
 11
2065.960336669826
 21
-638.959245221703
 31
0.0
  0
ARC
  5
1AF1C
330
18
100
AcDbEntity
  8
01
  6
CONTINUOUS
100
AcDbCircle
 10
2065.960333648781
 20
-637.9592452215984
 30
0.0
 40
1.000000000000007
100
AcDbArc
 50
270.0
 51
0.0
  0
LINE
  5
1AF1D
330
18
100
AcDbEntity
  8
01
  6
CONTINUOUS
100
AcDbLine
 10
2066.960331245803
 20
-637.9592450577902
 30
0.0
 11
2066.960331245803
 21
-635.4592455793309
 31
0.0
  0
ARC
  5
1AF1E
330
18
100
AcDbEntity
  8
01
  6
CONTINUOUS
100
AcDbCircle
 10
1949.960333648781
 20
-768.6199595073131
 30
0.0
 40
138.6607142857145
100
AcDbArc
 50
71.71671955294589
 51
90.0
  0
LINE
  5
1AF1F
330
18
100
AcDbEntity
  8
01
  6
CONTINUOUS
100
AcDbLine
 10
2065.960336669826
 20
-634.4592454154181
 30
0.0
 11
2060.960333987617
 21
-634.4592454154181
 31
0.0
  0
ARC
  5
1AF20
330
18
100
AcDbEntity
  8
01
  6
CONTINUOUS
100
AcDbCircle
 10
2065.960333648781
 20
-635.4592452215984
 30
0.0
 40
1.0
100
AcDbArc
 50
0.0
 51
90.0
  0
LINE
  5
1AF21
330
18
100
AcDbEntity
  8
01
  6
CONTINUOUS
100
AcDbLine
 10
2060.960333987617
 20
-634.4592454154181
 30
0.0
 11
2036.960333779
 21
-634.4592454154181
 31
0.0
  0
ARC
  5
1AF22
330
18
100
AcDbEntity
  8
01
  6
CONTINUOUS
100
AcDbCircle
 10
2036.960333648781
 20
-495.7985309358837
 30
0.0
 40
138.6607142857142
100
AcDbArc
 50
251.7167195529458
 51
270.0
  0
LINE
  5
1AF23
330
18
100
AcDbEntity
  8
01
  6
CONTINUOUS
100
AcDbLine
 10
1921.710331186198
 20
-634.4592454154181
 30
0.0
 11
1949.960332557105
 21
-634.4592454154181
 31
0.0
  0
LINE
  5
1AF24
330
18
100
AcDbEntity
  8
01
  6
CONTINUOUS
100
AcDbLine
 10
1919.960331365012
 20
-631.7092454303192
 30
0.0
 11
1919.960331365012
 21
-633.4592452515053
 31
0.0
  0
LINE
  5
1AF25
330
18
100
AcDbEntity
  8
01
  6
CONTINUOUS
100
AcDbLine
 10
1920.96033339157
 20
-634.4592454154181
 30
0.0
 11
1921.710331186198
 21
-634.4592454154181
 31
0.0
  0
ARC
  5
1AF26
330
18
100
AcDbEntity
  8
01
  6
CONTINUOUS
100
AcDbCircle
 10
1920.960333648781
 20
-633.4592452215984
 30
0.0
 40
1.0
100
AcDbArc
 50
180.0
 51
270.0
  0
ARC
  5
1AF27
330
18
100
AcDbEntity
  8
01
  6
CONTINUOUS
100
AcDbCircle
 10
1921.710333648781
 20
-631.7092452215984
 30
0.0
 40
1.750000000000007
100
AcDbArc
 50
90.0
 51
180.0
  0
LINE
  5
1AF28
330
18
100
AcDbEntity
  8
01
  6
CONTINUOUS
100
AcDbLine
 10
1949.960332557105
 20
-629.959243746488
 30
0.0
 11
1921.710331186198
 21
-629.959243746488
 31
0.0
  0
ARC
  5
1AF29
330
18
100
AcDbEntity
  8
01
  6
CONTINUOUS
100
AcDbCircle
 10
1949.960333648781
 20
-763.6199595073113
 30
0.0
 40
138.6607142857133
100
AcDbArc
 50
71.71671955294612
 51
90.0
  0
ARC
  5
1AF2A
330
18
100
AcDbEntity
  8
01
  6
CONTINUOUS
100
AcDbCircle
 10
1949.960333648781
 20
-759.1199595073122
 30
0.0
 40
138.6607142857143
100
AcDbArc
 50
71.71671955294588
 51
90.0
  0
LINE
  5
1AF2B
330
18
100
AcDbEntity
  8
01
  6
CONTINUOUS
100
AcDbLine
 10
1941.710334464454
 20
-624.9592447895693
 30
0.0
 11
1949.960332557105
 21
-624.9592447895693
 31
0.0
  0
LINE
  5
1AF2C
330
18
100
AcDbEntity
  8
01
  6
CONTINUOUS
100
AcDbLine
 10
1940.960332944535
 20
-624.9592447895693
 30
0.0
 11
1941.710334464454
 21
-624.9592447895693
 31
0.0
  0
ARC
  5
1AF2D
330
18
100
AcDbEntity
  8
01
  6
CONTINUOUS
100
AcDbCircle
 10
1940.960333648781
 20
-623.9592452215984
 30
0.0
 40
1.0
100
AcDbArc
 50
180.0
 51
270.0
  0
LINE
  5
1AF2E
330
18
100
AcDbEntity
  8
01
  6
CONTINUOUS
100
AcDbLine
 10
1939.960334643268
 20
-622.2092466671156
 30
0.0
 11
1939.960334643268
 21
-623.9592464883017
 31
0.0
  0
LINE
  5
1AF2F
330
18
100
AcDbEntity
  8
01
  6
CONTINUOUS
100
AcDbLine
 10
1949.960332557105
 20
-620.4592468459296
 30
0.0
 11
1941.710334464454
 21
-620.4592468459296
 31
0.0
  0
ARC
  5
1AF30
330
18
100
AcDbEntity
  8
01
  6
CONTINUOUS
100
AcDbCircle
 10
1941.710333648781
 20
-622.2092452215984
 30
0.0
 40
1.750000000000028
100
AcDbArc
 50
90.0
 51
180.0
  0
SPLINE
  5
1AF31
330
18
100
AcDbEntity
  8
01
  6
CONTINUOUS
100
AcDbSpline
210
0.0
220
0.0
230
1.0
 70
     9
 71
     3
 72
    26
 73
    22
 74
     0
 42
0.0000000001
 43
0.0000000001
 40
0.0
 40
0.0
 40
0.0
 40
0.0
 40
0.0516691322881425
 40
0.1032792458038325
 40
0.1564591366992584
 40
0.211599112611723
 40
0.2659588290702542
 40
0.3181398697476804
 40
0.3699455349618093
 40
0.4229964287097864
 40
0.4766876614238751
 40
0.5297535271877051
 40
0.5823107591692667
 40
0.6354296515243001
 40
0.6891285130085077
 40
0.7420860481762742
 40
0.7938235837238002
 40
0.8461225924460374
 40
0.9005364458299736
 40
0.9556675218961033
 40
1.0
 40
1.0
 40
1.0
 40
1.0
 10
2051.960334375047
 20
-655.4174450468408
 30
0.0
 10
2051.622915972787
 20
-655.4063492974101
 30
0.0
 10
2050.948464582521
 20
-655.3841704726065
 30
0.0
 10
2050.044727922991
 20
-655.2248929662028
 30
0.0
 10
2049.332145411972
 20
-655.024370543385
 30
0.0
 10
2048.897521878526
 20
-654.8372768267618
 30
0.0
 10
2048.813701652934
 20
-654.7338827299227
 30
0.0
 10
2049.082427918874
 20
-654.7322167135635
 30
0.0
 10
2049.657295929542
 20
-654.8008098908458
 30
0.0
 10
2050.487786222958
 20
-654.8901444979674
 30
0.0
 10
2051.492630197435
 20
-654.9494253248922
 30
0.0
 10
2052.548302776853
 20
-654.9452089004035
 30
0.0
 10
2053.532235959453
 20
-654.8810866226831
 30
0.0
 10
2054.3450227768
 20
-654.7908083334369
 30
0.0
 10
2054.895339584196
 20
-654.7267021389043
 30
0.0
 10
2055.114158342861
 20
-654.7421455660942
 30
0.0
 10
2054.98905932936
 20
-654.8543260888364
 30
0.0
 10
2054.543718971353
 20
-655.0392585700847
 30
0.0
 10
2053.807189906248
 20
-655.2417740653318
 30
0.0
 10
2052.897976960361
 20
-655.3909361465849
 30
0.0
 10
2052.24941063623
 20
-655.4092723231461
 30
0.0
 10
2051.960334375047
 20
-655.4174450468408
 30
0.0
  0
SPLINE
  5
1AF32
330
18
100
AcDbEntity
  8
01
  6
CONTINUOUS
100
AcDbSpline
210
0.0
220
0.0
230
1.0
 70
     9
 71
     3
 72
    44
 73
    40
 74
     0
 42
0.0000000001
 43
0.0000000001
 40
0.0
 40
0.0
 40
0.0
 40
0.0
 40
0.0262050772706262
 40
0.0524119442189235
 40
0.0785939722021899
 40
0.1047795547194594
 40
0.1314475416126135
 40
0.1581164324045174
 40
0.1853871407584952
 40
0.2126564281442191
 40
0.2398606658232155
 40
0.2670639323377116
 40
0.2940043216967235
 40
0.3209444400568606
 40
0.3477815219145937
 40
0.3746184142109442
 40
0.4014156663807369
 40
0.4282127093831916
 40
0.4549611212015027
 40
0.4817092095935793
 40
0.5083915652454403
 40
0.5350740787077107
 40
0.561715587071766
 40
0.5883573639530615
 40
0.6150567477345243
 40
0.6417563363764248
 40
0.6685175725079539
 40
0.6952789925898738
 40
0.7220845559223619
 40
0.7488904061925145
 40
0.775738169860778
 40
0.8025870304842365
 40
0.829571825617465
 40
0.8565576062454069
 40
0.8838205666725835
 40
0.9110812643742701
 40
0.9382783652178368
 40
0.9654711703433752
 40
1.0
 40
1.0
 40
1.0
 40
1.0
 10
2051.960334375047
 20
-650.1006972286987
 30
0.0
 10
2052.249648020515
 20
-650.0970543404364
 30
0.0
 10
2052.828295070147
 20
-650.0897683151225
 30
0.0
 10
2053.671372788457
 20
-650.0341640116894
 30
0.0
 10
2054.464385083788
 20
-649.9486838817666
 30
0.0
 10
2055.193170796894
 20
-649.8386178296623
 30
0.0
 10
2055.834949628095
 20
-649.7128099536567
 30
0.0
 10
2056.37907177951
 20
-649.5797579491809
 30
0.0
 10
2056.800001000594
 20
-649.4498241817901
 30
0.0
 10
2057.087049717663
 20
-649.328860511604
 30
0.0
 10
2057.222640025517
 20
-649.2231852597906
 30
0.0
 10
2057.208620123173
 20
-649.1323257165768
 30
0.0
 10
2057.040101911997
 20
-649.055730043041
 30
0.0
 10
2056.729822230953
 20
-648.9902915678176
 30
0.0
 10
2056.280590695161
 20
-648.9336525317349
 30
0.0
 10
2055.711366816087
 20
-648.8844965574726
 30
0.0
 10
2055.033117568658
 20
-648.8423129582261
 30
0.0
 10
2054.269713953571
 20
-648.807921134644
 30
0.0
 10
2053.439500421182
 20
-648.7826009806604
 30
0.0
 10
2052.569118170087
 20
-648.767624726227
 30
0.0
 10
2051.681741208008
 20
-648.7654310114385
 30
0.0
 10
2050.803315120783
 20
-648.7756178219779
 30
0.0
 10
2049.958887980481
 20
-648.7972430175469
 30
0.0
 10
2049.169809623848
 20
-648.828207997205
 30
0.0
 10
2048.460788081228
 20
-648.8673008255319
 30
0.0
 10
2047.847875833262
 20
-648.913673939579
 30
0.0
 10
2047.353523052418
 20
-648.9669961880745
 30
0.0
 10
2046.986646123822
 20
-649.0284084277409
 30
0.0
 10
2046.763724569132
 20
-649.0998852632283
 30
0.0
 10
2046.684968198386
 20
-649.1834925645071
 30
0.0
 10
2046.758537315582
 20
-649.2820292325414
 30
0.0
 10
2046.976085128455
 20
-649.3946867052155
 30
0.0
 10
2047.337220871547
 20
-649.5206836103807
 30
0.0
 10
2047.828474427385
 20
-649.6537326107418
 30
0.0
 10
2048.442110532817
 20
-649.7863460299459
 30
0.0
 10
2049.158222101501
 20
-649.9082771660169
 30
0.0
 10
2049.95910408918
 20
-650.0066357398518
 30
0.0
 10
2050.896233580458
 20
-650.0839499396179
 30
0.0
 10
2051.578599540954
 20
-650.0946893169939
 30
0.0
 10
2051.960334375047
 20
-650.1006972286987
 30
0.0
  0
LINE
  5
1AF34
330
18
100
AcDbEntity
  8
01
  6
CONTINUOUS
100
AcDbLine
 10
2043.915040984296
 20
-651.7063401881742
 30
0.0
 11
2043.654907688045
 21
-651.4571890477227
 31
0.0
  0
ARC
  5
1AF35
330
18
100
AcDbEntity
  8
01
  6
CONTINUOUS
100
AcDbCircle
 10
2051.960332512402
 20
-644.959316364112
 30
0.0
 40
10.49995458345727
100
AcDbArc
 50
219.984210291986
 51
320.0157897080139
  0
LINE
  5
1AF36
330
18
100
AcDbEntity
  8
01
  6
CONTINUOUS
100
AcDbLine
 10
2060.272071703815
 20
-651.4026517290758
 30
0.0
 11
2060.005624040507
 21
-651.7063401881742
 31
0.0
  0
LINE
  5
1AF37
330
18
100
AcDbEntity
  8
01
  6
CONTINUOUS
100
AcDbLine
 10
2058.460336371802
 20
-643.7092455346274
 30
0.0
 11
2058.460336371802
 21
-643.9592460412669
 31
0.0
  0
LINE
  5
1AF38
330
18
100
AcDbEntity
  8
01
  6
CONTINUOUS
100
AcDbLine
 10
2064.460333629989
 20
-643.9592460412669
 30
0.0
 11
2064.460333629989
 21
-643.7092455346274
 31
0.0
  0
LINE
  5
1AF39
330
18
100
AcDbEntity
  8
01
  6
CONTINUOUS
100
AcDbLine
 10
1932.460334345245
 20
-629.959243746488
 30
0.0
 11
1932.460334345245
 21
-629.7092469651388
 31
0.0
  0
LINE
  5
1AF3A
330
18
100
AcDbEntity
  8
01
  6
CONTINUOUS
100
AcDbLine
 10
1931.460332318687
 20
-629.7092469651388
 30
0.0
 11
1931.460332318687
 21
-629.959243746488
 31
0.0
  0
SPLINE
  5
1AF3B
330
18
100
AcDbEntity
  8
01
  6
CONTINUOUS
100
AcDbSpline
210
0.0
220
0.0
230
1.0
 70
    24
 71
     3
 72
    10
 73
     6
 74
     0
 42
0.0000000001
 43
0.0000000001
 40
0.0
 40
0.0
 40
0.0
 40
0.0
 40
0.2862205226059873
 40
0.643110231865772
 40
1.0
 40
1.0
 40
1.0
 40
1.0
 10
2066.960331245803
 20
-647.5110681969809
 30
0.0
 10
2066.960331245803
 20
-647.5101645392515
 30
0.0
 10
2066.960331245803
 20
-647.5081341064706
 30
0.0
 10
2066.960331245803
 20
-647.4800890018214
 30
0.0
 10
2066.960331245803
 20
-647.4669391356692
 30
0.0
 10
2066.960331245803
 20
-647.4603642020511
 30
0.0
  0
LINE
  5
1AF3C
330
18
100
AcDbEntity
  8
01
  6
CONTINUOUS
100
AcDbLine
 10
1942.960333272361
 20
-624.9592447895693
 30
0.0
 11
1942.960333272361
 21
-625.2092452962088
 31
0.0
  0
LINE
  5
1AF3D
330
18
100
AcDbEntity
  8
01
  6
CONTINUOUS
100
AcDbLine
 10
1949.960332557105
 20
-625.2092452962088
 30
0.0
 11
1949.960332557105
 21
-624.9592447895693
 31
0.0
  0
LINE
  5
1AF3E
330
18
100
AcDbEntity
  8
01
  6
CONTINUOUS
100
AcDbLine
 10
2059.960331961059
 20
-639.2092457283425
 30
0.0
 11
2059.960331961059
 21
-638.959245221703
 31
0.0
  0
SPLINE
  5
1AF3F
330
18
100
AcDbEntity
  8
01
  6
CONTINUOUS
100
AcDbSpline
210
0.0
220
0.0
230
1.0
 70
     8
 71
     3
 72
     9
 73
     5
 74
     0
 42
0.0000000001
 43
0.0000000001
 40
0.0037536597078293
 40
0.0037536597078293
 40
0.0037536597078293
 40
0.0037536597078293
 40
0.0951229067285765
 40
1.0
 40
1.0
 40
1.0
 40
1.0
 10
2037.729106278279
 20
-648.4826892607682
 30
0.0
 10
2037.733216068119
 20
-648.4844815163681
 30
0.0
 10
2037.774456128041
 20
-648.5018995785722
 30
0.0
 10
2037.819858990574
 20
-648.5045764386341
 30
0.0
 10
2037.861023291492
 20
-648.5106064248967
 30
0.0
  0
LINE
  5
1AF40
330
18
100
AcDbEntity
  8
01
  6
CONTINUOUS
100
AcDbLine
 10
2062.960330590152
 20
-639.2092457283425
 30
0.0
 11
2062.960330590152
 21
-638.959245221703
 31
0.0
  0
SPLINE
  5
1AF41
330
18
100
AcDbEntity
  8
01
100
AcDbSpline
210
0.0
220
0.0
230
1.0
 70
     8
 71
     3
 72
     9
 73
     5
 74
     0
 42
0.0000000001
 43
0.0000000001
 40
0.0
 40
0.0
 40
0.0
 40
0.0
 40
0.6198621737900334
 40
1.0
 40
1.0
 40
1.0
 40
1.0
 10
2060.962755426311
 20
-648.4613357354092
 30
0.0
 10
2061.332936109142
 20
-648.4606396127665
 30
0.0
 10
2061.930134484012
 20
-648.4595165846631
 30
0.0
 10
2062.491315451961
 20
-648.4591773594866
 30
0.0
 10
2062.704641565227
 20
-648.4590484071659
 30
0.0
  0
ARC
  5
1AF42
330
18
100
AcDbEntity
  8
01
100
AcDbCircle
 10
2051.960331245803
 20
-644.9592454154181
 30
0.0
 40
25.0
100
AcDbArc
 50
187.2459671906752
 51
154.6391981662029
  0
LINE
  5
1AF45
330
18
100
AcDbEntity
  8
01
  6
CONTINUOUS
100
AcDbLine
 10
2381.960093797942
 20
-345.9579271043726
 30
0.0
 11
2381.960093797942
 21
-346.1579267646262
 31
0.0
  0
LINE
  5
1AF46
330
18
100
AcDbEntity
  8
01
  6
CONTINUOUS
100
AcDbLine
 10
2401.960097076198
 20
-346.1579267646262
 30
0.0
 11
2401.960097076198
 21
-345.9579271043726
 31
0.0
  0
LINE
  5
1AF47
330
18
100
AcDbEntity
  8
01
  6
CONTINUOUS
100
AcDbLine
 10
2502.210095347663
 20
-292.9579258675758
 30
0.0
 11
2512.210096986791
 21
-292.9579258675758
 31
0.0
  0
LINE
  5
1AF48
330
18
100
AcDbEntity
  8
01
  6
CONTINUOUS
100
AcDbLine
 10
2512.210096986791
 20
-318.9579265786406
 30
0.0
 11
2502.210095347663
 21
-318.9579265786406
 31
0.0
  0
ARC
  5
1AF49
330
18
100
AcDbEntity
  8
01
  6
CONTINUOUS
100
AcDbCircle
 10
2512.210096168908
 20
-317.207926577777
 30
0.0
 40
1.750000000000014
100
AcDbArc
 50
270.0
 51
0.0
  0
ARC
  5
1AF4A
330
18
100
AcDbEntity
  8
01
  6
CONTINUOUS
100
AcDbCircle
 10
2512.210096168908
 20
-294.7079265777772
 30
0.0
 40
1.750000000000014
100
AcDbArc
 50
0.0
 51
90.0
  0
LINE
  5
1AF4B
330
18
100
AcDbEntity
  8
01
  6
CONTINUOUS
100
AcDbLine
 10
2513.960093082686
 20
-294.7079256887619
 30
0.0
 11
2513.960093082686
 21
-317.2079265828315
 31
0.0
  0
SPLINE
  5
1AF4C
330
18
100
AcDbEntity
  8
01
  6
CONTINUOUS
100
AcDbSpline
210
0.0
220
0.0
230
1.0
 70
    24
 71
     3
 72
    20
 73
    16
 74
     0
 42
0.0000000001
 43
0.0000000001
 40
0.0
 40
0.0
 40
0.0
 40
0.0
 40
0.0731346163765912
 40
0.1463391946721071
 40
0.2195100232335505
 40
0.2938916949578327
 40
0.3682983932363739
 40
0.4427020641210451
 40
0.5817231586829507
 40
0.651238619435197
 40
0.7207512800910622
 40
0.7903829753712032
 40
0.8600091427765312
 40
0.9300081034668024
 40
1.0
 40
1.0
 40
1.0
 40
1.0
 10
2493.960097255012
 20
-318.9579265786406
 30
0.0
 10
2491.952435114941
 20
-318.9579265786406
 30
0.0
 10
2487.935190268278
 20
-318.9579265786406
 30
0.0
 10
2481.931217364409
 20
-318.9579265786406
 30
0.0
 10
2475.927114030608
 20
-318.9579265786406
 30
0.0
 10
2469.930055276549
 20
-318.9579265786406
 30
0.0
 10
2463.936363321434
 20
-318.9579265786406
 30
0.0
 10
2456.243233553624
 20
-318.9579265786406
 30
0.0
 10
2448.709942435537
 20
-318.9579265786406
 30
0.0
 10
2441.288986667267
 20
-318.9579265786406
 30
0.0
 10
2435.70062619101
 20
-318.9579265786406
 30
0.0
 10
2430.08165664364
 20
-318.9579265786406
 30
0.0
 10
2424.416725561422
 20
-318.9579265786406
 30
0.0
 10
2418.709917463199
 20
-318.9579265786406
 30
0.0
 10
2414.876639354397
 20
-318.9579265786406
 30
0.0
 10
2412.960097016593
 20
-318.9579265786406
 30
0.0
  0
ARC
  5
1AF4D
330
18
100
AcDbEntity
  8
01
  6
CONTINUOUS
100
AcDbCircle
 10
2502.210096168908
 20
-317.207926577777
 30
0.0
 40
1.75
100
AcDbArc
 50
270.0
 51
0.0
  0
LINE
  5
1AF4E
330
18
100
AcDbEntity
  8
01
  6
CONTINUOUS
100
AcDbLine
 10
2503.960095168849
 20
-294.7079256887619
 30
0.0
 11
2503.960095168849
 21
-317.2079265828315
 31
0.0
  0
ARC
  5
1AF4F
330
18
100
AcDbEntity
  8
01
  6
CONTINUOUS
100
AcDbCircle
 10
2502.210096168908
 20
-294.7079265777772
 30
0.0
 40
1.75
100
AcDbArc
 50
0.0
 51
90.0
  0
LINE
  5
1AF50
330
18
100
AcDbEntity
  8
01
  6
CONTINUOUS
100
AcDbLine
 10
2502.210095347663
 20
-318.9579265786406
 30
0.0
 11
2493.960097255012
 21
-318.9579265786406
 31
0.0
  0
LINE
  5
1AF51
330
18
100
AcDbEntity
  8
01
  6
CONTINUOUS
100
AcDbLine
 10
2493.960097255012
 20
-292.957925867576
 30
0.0
 11
2502.210095347663
 21
-292.9579258675758
 31
0.0
  0
LINE
  5
1AF52
330
18
100
AcDbEntity
  8
01
  6
CONTINUOUS
100
AcDbLine
 10
2522.210098625918
 20
-318.9579265786406
 30
0.0
 11
2512.210096986791
 21
-318.9579265786406
 31
0.0
  0
ARC
  5
1AF53
330
18
100
AcDbEntity
  8
01
  6
CONTINUOUS
100
AcDbCircle
 10
2522.210096168908
 20
-317.207926577777
 30
0.0
 40
1.75
100
AcDbArc
 50
270.0
 51
0.0
  0
LINE
  5
1AF54
330
18
100
AcDbEntity
  8
01
  6
CONTINUOUS
100
AcDbLine
 10
2512.210096986791
 20
-292.9579258675758
 30
0.0
 11
2522.210098625918
 21
-292.9579258675758
 31
0.0
  0
LINE
  5
1AF55
330
18
100
AcDbEntity
  8
01
  6
CONTINUOUS
100
AcDbLine
 10
2523.960098447104
 20
-294.7079256887619
 30
0.0
 11
2523.960098447104
 21
-317.2079265828315
 31
0.0
  0
ARC
  5
1AF56
330
18
100
AcDbEntity
  8
01
  6
CONTINUOUS
100
AcDbCircle
 10
2522.210096168908
 20
-294.7079265777772
 30
0.0
 40
1.75
100
AcDbArc
 50
0.0
 51
90.0
  0
SPLINE
  5
1AF57
330
18
100
AcDbEntity
  8
01
  6
CONTINUOUS
100
AcDbSpline
210
0.0
220
0.0
230
1.0
 70
     8
 71
     3
 72
    13
 73
     9
 74
     0
 42
0.0000000001
 43
0.0000000001
 40
0.0
 40
0.0
 40
0.0
 40
0.0
 40
0.1613390780442684
 40
0.3273552551790859
 40
0.4886494863067966
 40
0.6546355764316774
 40
0.8245652364446774
 40
1.0
 40
1.0
 40
1.0
 40
1.0
 10
2412.960097016593
 20
-318.9579265786406
 30
0.0
 10
2412.628315402573
 20
-318.9738650270056
 30
0.0
 10
2411.955134073923
 20
-319.0062039674203
 30
0.0
 10
2410.977364844911
 20
-319.2669763102986
 30
0.0
 10
2410.045901783656
 20
-319.6795240172451
 30
0.0
 10
2409.192965114739
 20
-320.2522151214112
 30
0.0
 10
2408.41812165648
 20
-320.9762808671167
 30
0.0
 10
2408.019651506365
 20
-321.5672562627706
 30
0.0
 10
2407.817240627309
 20
-321.8674540299062
 30
0.0
  0
LINE
  5
1AF58
330
18
100
AcDbEntity
  8
01
  6
CONTINUOUS
100
AcDbLine
 10
2406.960096033116
 20
-324.9579264561717
 30
0.0
 11
2406.960096033116
 21
-345.9579271043726
 31
0.0
  0
LINE
  5
1AF59
330
18
100
AcDbEntity
  8
01
  6
CONTINUOUS
100
AcDbLine
 10
2406.960096033116
 20
-345.9579271043726
 30
0.0
 11
2405.960097731849
 21
-345.9579271043726
 31
0.0
  0
LINE
  5
1AF5A
330
18
100
AcDbEntity
  8
01
  6
CONTINUOUS
100
AcDbLine
 10
2376.960098566314
 20
-345.9579271043726
 30
0.0
 11
2376.960098566314
 21
-298.9579268510527
 31
0.0
  0
LINE
  5
1AF5B
330
18
100
AcDbEntity
  8
01
  6
CONTINUOUS
100
AcDbLine
 10
2377.960093142291
 20
-345.9579271043726
 30
0.0
 11
2376.960098566314
 21
-345.9579271043726
 31
0.0
  0
LINE
  5
1AF5C
330
18
100
AcDbEntity
  8
01
  6
CONTINUOUS
100
AcDbLine
 10
2382.9600958245
 20
-292.957925867576
 30
0.0
 11
2493.960097255012
 21
-292.957925867576
 31
0.0
  0
LINE
  5
1AF5D
330
18
100
AcDbEntity
  8
01
  6
CONTINUOUS
100
AcDbLine
 10
2377.960093142291
 20
-345.9579271043726
 30
0.0
 11
2405.960097731849
 21
-345.9579271043726
 31
0.0
  0
ARC
  5
1AF5E
330
18
100
AcDbEntity
  8
01
  6
CONTINUOUS
100
AcDbCircle
 10
2412.960096168908
 20
-324.9579265777775
 30
0.0
 40
6.000000000000028
100
AcDbArc
 50
148.9972808661354
 51
180.0
  0
ARC
  5
1AF5F
330
18
100
AcDbEntity
  8
01
  6
CONTINUOUS
100
AcDbCircle
 10
2382.960096168908
 20
-298.9579265777775
 30
0.0
 40
6.000000000000028
100
AcDbArc
 50
90.0
 51
180.0
  0
LINE
  5
1AF60
330
18
100
AcDbEntity
  8
01
  6
CONTINUOUS
100
AcDbLine
 10
2401.960097076198
 20
-346.1579267646262
 30
0.0
 11
2381.960093797942
 21
-346.1579267646262
 31
0.0
  0
TEXT
  5
1B137
330
18
100
AcDbEntity
  8
01
  6
CONTINUOUS
100
AcDbText
 10
2302.963259659332
 20
-432.3759120831133
 30
0.0
 40
4.55
  1
材質：亜鉛ダイキャスト
100
AcDbText
  0
TEXT
  5
1B138
330
18
100
AcDbEntity
  8
01
  6
CONTINUOUS
100
AcDbText
 10
2313.276592992665
 20
-439.9592454164467
 30
0.0
 40
4.55
  1
仕上げ：各種メッキ
100
AcDbText
  0
LINE
  5
1B139
330
18
100
AcDbEntity
  8
01
100
AcDbLine
 10
2329.960098566314
 20
-616.9592461135494
 30
0.0
 11
2329.960098566314
 21
-514.2377533307301
 31
0.0
1001
ACAD
1000
DSTYLE
1002
{
1070
    40
1040
1.3
1070
    45
1040
0.5
1002
}
  0
LINE
  5
1B13A
330
18
100
AcDbEntity
  8
01
100
AcDbLine
 10
2340.960098566314
 20
-559.0879280642605
 30
0.0
 11
2340.960098566314
 21
-514.2377533307301
 31
0.0
1001
ACAD
1000
DSTYLE
1002
{
1070
    40
1040
1.3
1070
    45
1040
0.5
1002
}
  0
LINE
  5
1B13B
330
18
100
AcDbEntity
  8
01
100
AcDbLine
 10
2332.560098566314
 20
-515.5377533307301
 30
0.0
 11
2338.360098566314
 21
-515.5377533307301
 31
0.0
1001
ACAD
1000
DSTYLE
1002
{
1070
    40
1040
1.3
1070
    45
1040
0.5
1002
}
  0
LINE
  5
1B13F
330
18
100
AcDbEntity
  8
01
100
AcDbLine
 10
2409.960098566314
 20
-586.9592454154181
 30
0.0
 11
2438.260098566314
 21
-586.9592454154181
 31
0.0
1001
ACAD
1000
DSTYLE
1002
{
1070
    40
1040
1.3
1070
    45
1040
0.5
1002
}
  0
LINE
  5
1B140
330
18
100
AcDbEntity
  8
01
100
AcDbLine
 10
2409.960098566314
 20
-660.9592454154185
 30
0.0
 11
2438.260098566314
 21
-660.9592454154185
 31
0.0
1001
ACAD
1000
DSTYLE
1002
{
1070
    40
1040
1.3
1070
    45
1040
0.5
1002
}
  0
LINE
  5
1B141
330
18
100
AcDbEntity
  8
01
100
AcDbLine
 10
2436.960098566314
 20
-589.5592454154181
 30
0.0
 11
2436.960098566314
 21
-658.3592454154185
 31
0.0
1001
ACAD
1000
DSTYLE
1002
{
1070
    40
1040
1.3
1070
    45
1040
0.5
1002
}
  0
LINE
  5
1B145
330
18
100
AcDbEntity
  8
01
100
AcDbLine
 10
2409.960098566314
 20
-586.9592454154181
 30
0.0
 11
2409.960098566314
 21
-504.1578858626819
 31
0.0
1001
ACAD
1000
DSTYLE
1002
{
1070
    40
1040
1.3
1070
    45
1040
0.5
1002
}
  0
LINE
  5
1B146
330
18
100
AcDbEntity
  8
01
100
AcDbLine
 10
2340.960098566314
 20
-559.0879280642605
 30
0.0
 11
2340.960098566314
 21
-504.1578858626819
 31
0.0
1001
ACAD
1000
DSTYLE
1002
{
1070
    40
1040
1.3
1070
    45
1040
0.5
1002
}
  0
LINE
  5
1B147
330
18
100
AcDbEntity
  8
01
100
AcDbLine
 10
2407.360098566314
 20
-505.4578858626819
 30
0.0
 11
2343.560098566314
 21
-505.4578858626819
 31
0.0
1001
ACAD
1000
DSTYLE
1002
{
1070
    40
1040
1.3
1070
    45
1040
0.5
1002
}
  0
LINE
  5
1B14B
330
18
100
AcDbEntity
  8
01
100
AcDbLine
 10
2340.960098566314
 20
-559.0879280642605
 30
0.0
 11
2340.960098566314
 21
-514.2377533307301
 31
0.0
1001
ACAD
1000
DSTYLE
1002
{
1070
    40
1040
1.3
1070
    45
1040
0.5
1002
}
  0
LINE
  5
1B14C
330
18
100
AcDbEntity
  8
01
100
AcDbLine
 10
2391.960098566314
 20
-594.9592454154181
 30
0.0
 11
2391.960098566314
 21
-514.2377533307301
 31
0.0
1001
ACAD
1000
DSTYLE
1002
{
1070
    40
1040
1.3
1070
    45
1040
0.5
1002
}
  0
LINE
  5
1B14D
330
18
100
AcDbEntity
  8
01
100
AcDbLine
 10
2343.560098566314
 20
-515.5377533307301
 30
0.0
 11
2389.360098566314
 21
-515.5377533307301
 31
0.0
1001
ACAD
1000
DSTYLE
1002
{
1070
    40
1040
1.3
1070
    45
1040
0.5
1002
}
  0
LINE
  5
1B151
330
18
100
AcDbEntity
  8
01
100
AcDbLine
 10
2209.460214906058
 20
-564.9592454154185
 30
0.0
 11
2209.460214906058
 21
-514.2377533307304
 31
0.0
1001
ACAD
1000
DSTYLE
1002
{
1070
    40
1040
1.3
1070
    45
1040
0.5
1002
}
  0
LINE
  5
1B152
330
18
100
AcDbEntity
  8
01
100
AcDbLine
 10
2234.460214906058
 20
-564.9592454154185
 30
0.0
 11
2234.460214906058
 21
-514.2377533307304
 31
0.0
1001
ACAD
1000
DSTYLE
1002
{
1070
    40
1040
1.3
1070
    45
1040
0.5
1002
}
  0
LINE
  5
1B153
330
18
100
AcDbEntity
  8
01
100
AcDbLine
 10
2212.060214906058
 20
-515.5377533307303
 30
0.0
 11
2231.860214906058
 21
-515.5377533307303
 31
0.0
1001
ACAD
1000
DSTYLE
1002
{
1070
    40
1040
1.3
1070
    45
1040
0.5
1002
}
  0
LINE
  5
1B157
330
18
100
AcDbEntity
  8
01
100
AcDbLine
 10
2227.762154509294
 20
-566.9588002710022
 30
0.0
 11
2308.048285677502
 21
-566.9588002710022
 31
0.0
1001
ACAD
1000
DSTYLE
1002
{
1070
    40
1040
1.3
1070
    45
1040
0.5
1002
}
  0
LINE
  5
1B158
330
18
100
AcDbEntity
  8
01
100
AcDbLine
 10
2227.762154509294
 20
-680.9588002710022
 30
0.0
 11
2308.048285677502
 21
-680.9588002710022
 31
0.0
1001
ACAD
1000
DSTYLE
1002
{
1070
    40
1040
1.3
1070
    45
1040
0.5
1002
}
  0
LINE
  5
1B159
330
18
100
AcDbEntity
  8
01
100
AcDbLine
 10
2306.748285677502
 20
-569.5588002710023
 30
0.0
 11
2306.748285677502
 21
-678.3588002710022
 31
0.0
1001
ACAD
1000
DSTYLE
1002
{
1070
    40
1040
1.3
1070
    45
1040
0.5
1002
}
  0
LINE
  5
1B15D
330
18
100
AcDbEntity
  8
01
100
AcDbLine
 10
2228.360214906058
 20
-559.0592454154187
 30
0.0
 11
2317.412619843727
 21
-559.0592454154187
 31
0.0
1001
ACAD
1000
DSTYLE
1002
{
1070
    40
1040
1.3
1070
    45
1040
0.5
1002
}
  0
LINE
  5
1B15E
330
18
100
AcDbEntity
  8
01
100
AcDbLine
 10
2228.287129101388
 20
-688.8588002710021
 30
0.0
 11
2317.412619843727
 21
-688.8588002710021
 31
0.0
1001
ACAD
1000
DSTYLE
1002
{
1070
    40
1040
1.3
1070
    45
1040
0.5
1002
}
  0
LINE
  5
1B15F
330
18
100
AcDbEntity
  8
01
100
AcDbLine
 10
2316.112619843727
 20
-561.6592454154187
 30
0.0
 11
2316.112619843727
 21
-686.2588002710021
 31
0.0
1001
ACAD
1000
DSTYLE
1002
{
1070
    40
1040
1.3
1070
    45
1040
0.5
1002
}
  0
LINE
  5
1B163
330
18
100
AcDbEntity
  8
01
100
AcDbLine
 10
2391.960098566314
 20
-619.9592454154181
 30
0.0
 11
2355.660098566314
 21
-619.9592454154181
 31
0.0
1001
ACAD
1000
DSTYLE
1002
{
1070
     3
1000
φ<>
1070
    40
1040
1.3
1070
    45
1040
0.5
1002
}
  0
LINE
  5
1B164
330
18
100
AcDbEntity
  8
01
100
AcDbLine
 10
2391.960098566314
 20
-669.9592454154172
 30
0.0
 11
2355.660098566314
 21
-669.9592454154172
 31
0.0
1001
ACAD
1000
DSTYLE
1002
{
1070
     3
1000
φ<>
1070
    40
1040
1.3
1070
    45
1040
0.5
1002
}
  0
LINE
  5
1B165
330
18
100
AcDbEntity
  8
01
100
AcDbLine
 10
2356.960098566314
 20
-622.5592454154181
 30
0.0
 11
2356.960098566314
 21
-667.3592454154171
 31
0.0
1001
ACAD
1000
DSTYLE
1002
{
1070
     3
1000
φ<>
1070
    40
1040
1.3
1070
    45
1040
0.5
1002
}
  0
LINE
  5
1B169
330
18
100
AcDbEntity
  8
01
  6
CONTINUOUS
100
AcDbLine
 10
2406.191323533826
 20
-648.4826892607732
 30
0.0
 11
2406.468879254361
 21
-648.4685562793302
 31
0.0
  0
LINE
  5
1B16A
330
18
100
AcDbEntity
  8
01
  6
CONTINUOUS
100
AcDbLine
 10
2406.468879254361
 20
-648.4685562793302
 30
0.0
 11
2406.960066230794
 21
-648.4596938137101
 31
0.0
  0
LINE
  5
1B16B
330
18
100
AcDbEntity
  8
01
  6
CONTINUOUS
100
AcDbLine
 10
2406.960066230794
 20
-648.4596938137101
 30
0.0
 11
2406.960096033116
 21
-648.4596938137101
 31
0.0
  0
LINE
  5
1B16C
330
18
100
AcDbEntity
  8
01
  6
CONTINUOUS
100
AcDbLine
 10
2406.960096033116
 20
-648.4596938137101
 30
0.0
 11
2406.960096033116
 21
-648.4596938137101
 31
0.0
  0
LINE
  5
1B16D
330
18
100
AcDbEntity
  8
01
  6
CONTINUOUS
100
AcDbLine
 10
2037.729106278291
 20
-648.4826892607732
 30
0.0
 11
2037.451550557756
 21
-648.4685562793302
 31
0.0
  0
LINE
  5
1B16E
330
18
100
AcDbEntity
  8
01
  6
CONTINUOUS
100
AcDbLine
 10
2037.451550557756
 20
-648.4685562793302
 30
0.0
 11
2036.960363581323
 21
-648.4596938137101
 31
0.0
  0
LINE
  5
1B16F
330
18
100
AcDbEntity
  8
01
  6
CONTINUOUS
100
AcDbLine
 10
2036.960363581323
 20
-648.4596938137101
 30
0.0
 11
2036.960333779
 21
-648.4596938137101
 31
0.0
  0
LINE
  5
1B170
330
18
100
AcDbEntity
  8
01
  6
CONTINUOUS
100
AcDbLine
 10
2036.960333779
 20
-648.4596938137101
 30
0.0
 11
2036.960333779
 21
-648.4596938137101
 31
0.0
  0
LINE
  5
1B171
330
18
100
AcDbEntity
  8
01
  6
BYBLOCK
100
AcDbLine
 10
2332.560098566314
 20
-516.2344212247301
 30
0.0
 11
2329.960098566314
 21
-515.5377533307301
 31
0.0
  0
LINE
  5
1B172
330
18
100
AcDbEntity
  8
01
  6
BYBLOCK
100
AcDbLine
 10
2329.960098566314
 20
-515.5377533307301
 30
0.0
 11
2332.560098566314
 21
-514.84108543673
 31
0.0
  0
LINE
  5
1B173
330
18
100
AcDbEntity
  8
01
  6
BYBLOCK
100
AcDbLine
 10
2329.960098566314
 20
-515.5377533307301
 30
0.0
 11
2332.560098566314
 21
-515.5377533307301
 31
0.0
  0
LINE
  5
1B174
330
18
100
AcDbEntity
  8
01
  6
BYBLOCK
100
AcDbLine
 10
2338.360098566314
 20
-514.84108543673
 30
0.0
 11
2340.960098566314
 21
-515.5377533307301
 31
0.0
  0
LINE
  5
1B175
330
18
100
AcDbEntity
  8
01
  6
BYBLOCK
100
AcDbLine
 10
2340.960098566314
 20
-515.5377533307301
 30
0.0
 11
2338.360098566314
 21
-516.2344212247301
 31
0.0
  0
LINE
  5
1B176
330
18
100
AcDbEntity
  8
01
  6
BYBLOCK
100
AcDbLine
 10
2340.960098566314
 20
-515.5377533307301
 30
0.0
 11
2338.360098566314
 21
-515.5377533307301
 31
0.0
  0
TEXT
  5
1B177
330
18
100
AcDbEntity
  8
01
  6
CONTINUOUS
100
AcDbText
 10
2333.185098566314
 20
-514.6277533307301
 30
0.0
 40
4.55
  1
11
100
AcDbText
1001
ACAD
1000
DSTYLE
1002
{
1070
    40
1040
1.3
1070
    45
1040
0.5
1002
}
  0
LINE
  5
1B178
330
18
100
AcDbEntity
  8
01
  6
BYBLOCK
100
AcDbLine
 10
2436.263430672314
 20
-589.5592454154181
 30
0.0
 11
2436.960098566314
 21
-586.9592454154181
 31
0.0
  0
LINE
  5
1B179
330
18
100
AcDbEntity
  8
01
  6
BYBLOCK
100
AcDbLine
 10
2436.960098566314
 20
-586.9592454154181
 30
0.0
 11
2437.656766460314
 21
-589.5592454154181
 31
0.0
  0
LINE
  5
1B17A
330
18
100
AcDbEntity
  8
01
  6
BYBLOCK
100
AcDbLine
 10
2436.960098566314
 20
-586.9592454154181
 30
0.0
 11
2436.960098566314
 21
-589.5592454154181
 31
0.0
  0
LINE
  5
1B17B
330
18
100
AcDbEntity
  8
01
  6
BYBLOCK
100
AcDbLine
 10
2437.656766460314
 20
-658.3592454154185
 30
0.0
 11
2436.960098566314
 21
-660.9592454154185
 31
0.0
  0
LINE
  5
1B17C
330
18
100
AcDbEntity
  8
01
  6
BYBLOCK
100
AcDbLine
 10
2436.960098566314
 20
-660.9592454154185
 30
0.0
 11
2436.263430672314
 21
-658.3592454154185
 31
0.0
  0
LINE
  5
1B17D
330
18
100
AcDbEntity
  8
01
  6
BYBLOCK
100
AcDbLine
 10
2436.960098566314
 20
-660.9592454154185
 30
0.0
 11
2436.960098566314
 21
-658.3592454154185
 31
0.0
  0
TEXT
  5
1B17E
330
18
100
AcDbEntity
  8
01
  6
CONTINUOUS
100
AcDbText
 10
2436.050098566314
 20
-605.9879013293994
 30
0.0
 40
4.55
  1
74
 50
90.0
100
AcDbText
1001
ACAD
1000
DSTYLE
1002
{
1070
    40
1040
1.3
1070
    45
1040
0.5
1002
}
  0
LINE
  5
1B17F
330
18
100
AcDbEntity
  8
01
  6
BYBLOCK
100
AcDbLine
 10
2407.360098566314
 20
-504.7612179686819
 30
0.0
 11
2409.960098566314
 21
-505.4578858626819
 31
0.0
  0
LINE
  5
1B180
330
18
100
AcDbEntity
  8
01
  6
BYBLOCK
100
AcDbLine
 10
2409.960098566314
 20
-505.4578858626819
 30
0.0
 11
2407.360098566314
 21
-506.1545537566819
 31
0.0
  0
LINE
  5
1B181
330
18
100
AcDbEntity
  8
01
  6
BYBLOCK
100
AcDbLine
 10
2409.960098566314
 20
-505.4578858626819
 30
0.0
 11
2407.360098566314
 21
-505.4578858626819
 31
0.0
  0
LINE
  5
1B182
330
18
100
AcDbEntity
  8
01
  6
BYBLOCK
100
AcDbLine
 10
2343.560098566314
 20
-506.1545537566819
 30
0.0
 11
2340.960098566314
 21
-505.4578858626819
 31
0.0
  0
LINE
  5
1B183
330
18
100
AcDbEntity
  8
01
  6
BYBLOCK
100
AcDbLine
 10
2340.960098566314
 20
-505.4578858626819
 30
0.0
 11
2343.560098566314
 21
-504.7612179686819
 31
0.0
  0
LINE
  5
1B184
330
18
100
AcDbEntity
  8
01
  6
BYBLOCK
100
AcDbLine
 10
2340.960098566314
 20
-505.4578858626819
 30
0.0
 11
2343.560098566314
 21
-505.4578858626819
 31
0.0
  0
TEXT
  5
1B185
330
18
100
AcDbEntity
  8
01
  6
CONTINUOUS
100
AcDbText
 10
2371.651580047795
 20
-504.5478858626819
 30
0.0
 40
4.55
  1
69
100
AcDbText
1001
ACAD
1000
DSTYLE
1002
{
1070
    40
1040
1.3
1070
    45
1040
0.5
1002
}
  0
LINE
  5
1B186
330
18
100
AcDbEntity
  8
01
  6
BYBLOCK
100
AcDbLine
 10
2343.560098566314
 20
-516.2344212247301
 30
0.0
 11
2340.960098566314
 21
-515.5377533307301
 31
0.0
  0
LINE
  5
1B187
330
18
100
AcDbEntity
  8
01
  6
BYBLOCK
100
AcDbLine
 10
2340.960098566314
 20
-515.5377533307301
 30
0.0
 11
2343.560098566314
 21
-514.84108543673
 31
0.0
  0
LINE
  5
1B188
330
18
100
AcDbEntity
  8
01
  6
BYBLOCK
100
AcDbLine
 10
2340.960098566314
 20
-515.5377533307301
 30
0.0
 11
2343.560098566314
 21
-515.5377533307301
 31
0.0
  0
LINE
  5
1B189
330
18
100
AcDbEntity
  8
01
  6
BYBLOCK
100
AcDbLine
 10
2389.360098566314
 20
-514.84108543673
 30
0.0
 11
2391.960098566314
 21
-515.5377533307301
 31
0.0
  0
LINE
  5
1B18A
330
18
100
AcDbEntity
  8
01
  6
BYBLOCK
100
AcDbLine
 10
2391.960098566314
 20
-515.5377533307301
 30
0.0
 11
2389.360098566314
 21
-516.2344212247301
 31
0.0
  0
LINE
  5
1B18B
330
18
100
AcDbEntity
  8
01
  6
BYBLOCK
100
AcDbLine
 10
2391.960098566314
 20
-515.5377533307301
 30
0.0
 11
2389.360098566314
 21
-515.5377533307301
 31
0.0
  0
TEXT
  5
1B18C
330
18
100
AcDbEntity
  8
01
  6
CONTINUOUS
100
AcDbText
 10
2363.410966621869
 20
-514.6277533307301
 30
0.0
 40
4.55
  1
51
100
AcDbText
1001
ACAD
1000
DSTYLE
1002
{
1070
    40
1040
1.3
1070
    45
1040
0.5
1002
}
  0
LINE
  5
1B18D
330
18
100
AcDbEntity
  8
01
  6
BYBLOCK
100
AcDbLine
 10
2212.060214906058
 20
-516.2344212247303
 30
0.0
 11
2209.460214906058
 21
-515.5377533307303
 31
0.0
  0
LINE
  5
1B18E
330
18
100
AcDbEntity
  8
01
  6
BYBLOCK
100
AcDbLine
 10
2209.460214906058
 20
-515.5377533307303
 30
0.0
 11
2212.060214906058
 21
-514.8410854367303
 31
0.0
  0
LINE
  5
1B18F
330
18
100
AcDbEntity
  8
01
  6
BYBLOCK
100
AcDbLine
 10
2209.460214906058
 20
-515.5377533307303
 30
0.0
 11
2212.060214906058
 21
-515.5377533307303
 31
0.0
  0
LINE
  5
1B190
330
18
100
AcDbEntity
  8
01
  6
BYBLOCK
100
AcDbLine
 10
2231.860214906058
 20
-514.8410854367303
 30
0.0
 11
2234.460214906058
 21
-515.5377533307303
 31
0.0
  0
LINE
  5
1B191
330
18
100
AcDbEntity
  8
01
  6
BYBLOCK
100
AcDbLine
 10
2234.460214906058
 20
-515.5377533307303
 30
0.0
 11
2231.860214906058
 21
-516.2344212247303
 31
0.0
  0
LINE
  5
1B192
330
18
100
AcDbEntity
  8
01
  6
BYBLOCK
100
AcDbLine
 10
2234.460214906058
 20
-515.5377533307303
 30
0.0
 11
2231.860214906058
 21
-515.5377533307303
 31
0.0
  0
TEXT
  5
1B193
330
18
100
AcDbEntity
  8
01
  6
CONTINUOUS
100
AcDbText
 10
2218.168548239392
 20
-514.6277533307303
 30
0.0
 40
4.55
  1
25
100
AcDbText
1001
ACAD
1000
DSTYLE
1002
{
1070
    40
1040
1.3
1070
    45
1040
0.5
1002
}
  0
LINE
  5
1B194
330
18
100
AcDbEntity
  8
01
  6
BYBLOCK
100
AcDbLine
 10
2306.051617783502
 20
-569.5588002710023
 30
0.0
 11
2306.748285677502
 21
-566.9588002710022
 31
0.0
  0
LINE
  5
1B195
330
18
100
AcDbEntity
  8
01
  6
BYBLOCK
100
AcDbLine
 10
2306.748285677502
 20
-566.9588002710022
 30
0.0
 11
2307.444953571502
 21
-569.5588002710023
 31
0.0
  0
LINE
  5
1B196
330
18
100
AcDbEntity
  8
01
  6
BYBLOCK
100
AcDbLine
 10
2306.748285677502
 20
-566.9588002710022
 30
0.0
 11
2306.748285677502
 21
-569.5588002710023
 31
0.0
  0
LINE
  5
1B197
330
18
100
AcDbEntity
  8
01
  6
BYBLOCK
100
AcDbLine
 10
2307.444953571502
 20
-678.3588002710022
 30
0.0
 11
2306.748285677502
 21
-680.9588002710022
 31
0.0
  0
LINE
  5
1B198
330
18
100
AcDbEntity
  8
01
  6
BYBLOCK
100
AcDbLine
 10
2306.748285677502
 20
-680.9588002710022
 30
0.0
 11
2306.051617783502
 21
-678.3588002710022
 31
0.0
  0
LINE
  5
1B199
330
18
100
AcDbEntity
  8
01
  6
BYBLOCK
100
AcDbLine
 10
2306.748285677502
 20
-680.9588002710022
 30
0.0
 11
2306.748285677502
 21
-678.3588002710022
 31
0.0
  0
TEXT
  5
1B19A
330
18
100
AcDbEntity
  8
01
  6
CONTINUOUS
100
AcDbText
 10
2305.838285677502
 20
-599.3757779230805
 30
0.0
 40
4.55
  1
114
 50
90.0
100
AcDbText
1001
ACAD
1000
DSTYLE
1002
{
1070
    40
1040
1.3
1070
    45
1040
0.5
1002
}
  0
LINE
  5
1B19B
330
18
100
AcDbEntity
  8
01
  6
BYBLOCK
100
AcDbLine
 10
2315.415951949727
 20
-561.6592454154187
 30
0.0
 11
2316.112619843727
 21
-559.0592454154187
 31
0.0
  0
LINE
  5
1B19C
330
18
100
AcDbEntity
  8
01
  6
BYBLOCK
100
AcDbLine
 10
2316.112619843727
 20
-559.0592454154187
 30
0.0
 11
2316.809287737727
 21
-561.6592454154187
 31
0.0
  0
LINE
  5
1B19D
330
18
100
AcDbEntity
  8
01
  6
BYBLOCK
100
AcDbLine
 10
2316.112619843727
 20
-559.0592454154187
 30
0.0
 11
2316.112619843727
 21
-561.6592454154187
 31
0.0
  0
LINE
  5
1B19E
330
18
100
AcDbEntity
  8
01
  6
BYBLOCK
100
AcDbLine
 10
2316.809287737727
 20
-686.2588002710021
 30
0.0
 11
2316.112619843727
 21
-688.8588002710021
 31
0.0
  0
LINE
  5
1B19F
330
18
100
AcDbEntity
  8
01
  6
BYBLOCK
100
AcDbLine
 10
2316.112619843727
 20
-688.8588002710021
 30
0.0
 11
2315.415951949727
 21
-686.2588002710021
 31
0.0
  0
LINE
  5
1B1A0
330
18
100
AcDbEntity
  8
01
  6
BYBLOCK
100
AcDbLine
 10
2316.112619843727
 20
-688.8588002710021
 30
0.0
 11
2316.112619843727
 21
-686.2588002710021
 31
0.0
  0
TEXT
  5
1B1A1
330
18
100
AcDbEntity
  8
01
  6
CONTINUOUS
100
AcDbText
 10
2315.202619843727
 20
-600.1603419258886
 30
0.0
 40
4.55
  1
130
 50
90.0
100
AcDbText
1001
ACAD
1000
DSTYLE
1002
{
1070
    40
1040
1.3
1070
    45
1040
0.5
1002
}
  0
LINE
  5
1B1A2
330
18
100
AcDbEntity
  8
01
  6
BYBLOCK
100
AcDbLine
 10
2356.263430672314
 20
-622.5592454154181
 30
0.0
 11
2356.960098566314
 21
-619.9592454154181
 31
0.0
  0
LINE
  5
1B1A3
330
18
100
AcDbEntity
  8
01
  6
BYBLOCK
100
AcDbLine
 10
2356.960098566314
 20
-619.9592454154181
 30
0.0
 11
2357.656766460314
 21
-622.5592454154181
 31
0.0
  0
LINE
  5
1B1A4
330
18
100
AcDbEntity
  8
01
  6
BYBLOCK
100
AcDbLine
 10
2356.960098566314
 20
-619.9592454154181
 30
0.0
 11
2356.960098566314
 21
-622.5592454154181
 31
0.0
  0
LINE
  5
1B1A5
330
18
100
AcDbEntity
  8
01
  6
BYBLOCK
100
AcDbLine
 10
2357.656766460314
 20
-667.3592454154171
 30
0.0
 11
2356.960098566314
 21
-669.9592454154172
 31
0.0
  0
LINE
  5
1B1A6
330
18
100
AcDbEntity
  8
01
  6
BYBLOCK
100
AcDbLine
 10
2356.960098566314
 20
-669.9592454154172
 30
0.0
 11
2356.263430672314
 21
-667.3592454154171
 31
0.0
  0
LINE
  5
1B1A7
330
18
100
AcDbEntity
  8
01
  6
BYBLOCK
100
AcDbLine
 10
2356.960098566314
 20
-669.9592454154172
 30
0.0
 11
2356.960098566314
 21
-667.3592454154171
 31
0.0
  0
TEXT
  5
1B1A8
330
18
100
AcDbEntity
  8
01
  6
CONTINUOUS
100
AcDbText
 10
2356.050098566314
 20
-653.1587483220169
 30
0.0
 40
4.55
  1
φ50
 50
90.0
100
AcDbText
1001
ACAD
1000
DSTYLE
1002
{
1070
     3
1000
φ<>
1070
    40
1040
1.3
1070
    45
1040
0.5
1002
}
  0
SOLID
  5
1B1A9
330
18
100
AcDbEntity
  8
1DIM
100
AcDbTrace
 10
2389.32994792106
 20
-421.0100024703619
 30
0.0
 11
2391.700699806374
 21
-419.8579116423216
 31
0.0
 12
2389.831747750982
 22
-421.7166197938132
 32
0.0
 13
2389.831747750982
 23
-421.7166197938132
 33
0.0
1001
ACAD
1000
DSTYLE
1002
{
1070
    40
1040
1.3
1070
    45
1040
0.5
1002
}
  0
LINE
  5
1B1AA
330
18
100
AcDbEntity
  8
1DIM
100
AcDbLine
 10
2389.58084783602
 20
-421.3633111320875
 30
0.0
 11
2362.113259659332
 21
-440.8692454164467
 31
0.0
1001
ACAD
1000
DSTYLE
1002
{
1070
    40
1040
1.3
1070
    45
1040
0.5
1002
}
  0
LINE
  5
1B1AB
330
18
100
AcDbEntity
  8
1DIM
100
AcDbLine
 10
2408.360982748373
 20
-365.4592454164467
 30
0.0
 11
2428.921373508087
 21
-365.4592454164467
 31
0.0
1001
ACAD
1000
DSTYLE
1002
{
1070
    45
1040
0.5
1070
    40
1040
1.3
1002
}
  0
LINE
  5
1B1AC
330
18
100
AcDbEntity
  8
1DIM
100
AcDbLine
 10
2409.960982748374
 20
-384.2592454164467
 30
0.0
 11
2428.921373508087
 21
-384.2592454164467
 31
0.0
1001
ACAD
1000
DSTYLE
1002
{
1070
    45
1040
0.5
1070
    40
1040
1.3
1002
}
  0
LINE
  5
1B1AD
330
18
100
AcDbEntity
  8
1DIM
100
AcDbLine
 10
2427.621373508086
 20
-368.0592454164467
 30
0.0
 11
2427.621373508086
 21
-381.6592454164467
 31
0.0
1001
ACAD
1000
DSTYLE
1002
{
1070
    45
1040
0.5
1070
    40
1040
1.3
1002
}
  0
LINE
  5
1B1B1
330
18
100
AcDbEntity
  8
1DIM
100
AcDbLine
 10
2391.960098566314
 20
-416.4605637285213
 30
0.0
 11
2391.960098566314
 21
-468.1400323390188
 31
0.0
1001
ACAD
1000
DSTYLE
1002
{
1070
    40
1040
1.3
1002
}
  0
LINE
  5
1B1B2
330
18
100
AcDbEntity
  8
1DIM
100
AcDbLine
 10
2523.960098447104
 20
-455.2105651441316
 30
0.0
 11
2523.960098447104
 21
-468.1400323390188
 31
0.0
1001
ACAD
1000
DSTYLE
1002
{
1070
    40
1040
1.3
1002
}
  0
LINE
  5
1B1B3
330
18
100
AcDbEntity
  8
1DIM
100
AcDbLine
 10
2394.560098566314
 20
-466.8400323390188
 30
0.0
 11
2521.360098447105
 21
-466.8400323390188
 31
0.0
1001
ACAD
1000
DSTYLE
1002
{
1070
    40
1040
1.3
1002
}
  0
LINE
  5
1B1B7
330
18
100
AcDbEntity
  8
1DIM
100
AcDbLine
 10
2376.960098566314
 20
-450.9605639818408
 30
0.0
 11
2376.960098566314
 21
-480.780241134401
 31
0.0
1001
ACAD
1000
DSTYLE
1002
{
1070
    40
1040
1.3
1002
}
  0
LINE
  5
1B1B8
330
18
100
AcDbEntity
  8
1DIM
100
AcDbLine
 10
2523.960098447104
 20
-455.2105651441316
 30
0.0
 11
2523.960098447104
 21
-480.780241134401
 31
0.0
1001
ACAD
1000
DSTYLE
1002
{
1070
    40
1040
1.3
1002
}
  0
LINE
  5
1B1B9
330
18
100
AcDbEntity
  8
1DIM
100
AcDbLine
 10
2379.560098566314
 20
-479.480241134401
 30
0.0
 11
2521.360098447105
 21
-479.480241134401
 31
0.0
1001
ACAD
1000
DSTYLE
1002
{
1070
    40
1040
1.3
1002
}
  0
LINE
  5
1B1BD
330
18
100
AcDbEntity
  8
1DIM
100
AcDbLine
 10
2494.715246563661
 20
-394.9605637285213
 30
0.0
 11
2547.574840496707
 21
-394.9605637285213
 31
0.0
1001
ACAD
1000
DSTYLE
1002
{
1070
    40
1040
1.3
1002
}
  0
LINE
  5
1B1BE
330
18
100
AcDbEntity
  8
1DIM
100
AcDbLine
 10
2522.210096168908
 20
-430.9605642551164
 30
0.0
 11
2547.574840496707
 21
-430.9605642551164
 31
0.0
1001
ACAD
1000
DSTYLE
1002
{
1070
    40
1040
1.3
1002
}
  0
LINE
  5
1B1BF
330
18
100
AcDbEntity
  8
1DIM
100
AcDbLine
 10
2546.274840496707
 20
-397.5605637285213
 30
0.0
 11
2546.274840496707
 21
-428.3605642551164
 31
0.0
1001
ACAD
1000
DSTYLE
1002
{
1070
    40
1040
1.3
1002
}
  0
LINE
  5
1B1C3
330
18
100
AcDbEntity
  8
1DIM
100
AcDbLine
 10
2494.715246563661
 20
-394.9605637285213
 30
0.0
 11
2562.64307452119
 21
-394.9605637285213
 31
0.0
1001
ACAD
1000
DSTYLE
1002
{
1070
    40
1040
1.3
1002
}
  0
LINE
  5
1B1C4
330
18
100
AcDbEntity
  8
1DIM
100
AcDbLine
 10
2522.210098625918
 20
-456.9605649653176
 30
0.0
 11
2562.64307452119
 21
-456.9605649653176
 31
0.0
1001
ACAD
1000
DSTYLE
1002
{
1070
    40
1040
1.3
1002
}
  0
LINE
  5
1B1C5
330
18
100
AcDbEntity
  8
1DIM
100
AcDbLine
 10
2561.34307452119
 20
-397.5605637285213
 30
0.0
 11
2561.34307452119
 21
-454.3605649653176
 31
0.0
1001
ACAD
1000
DSTYLE
1002
{
1070
    40
1040
1.3
1002
}
  0
LINE
  5
1B1C9
330
18
100
AcDbEntity
  8
1DIM
100
AcDbLine
 10
2502.210096163336
 20
-620.4592452215984
 30
0.0
 11
2538.894981800097
 21
-620.4592452215984
 31
0.0
1001
ACAD
1000
DSTYLE
1002
{
1070
    40
1040
1.3
1002
}
  0
LINE
  5
1B1CA
330
18
100
AcDbEntity
  8
1DIM
100
AcDbLine
 10
2522.960096420547
 20
-634.4592454154181
 30
0.0
 11
2538.894981800097
 21
-634.4592454154181
 31
0.0
1001
ACAD
1000
DSTYLE
1002
{
1070
    40
1040
1.3
1002
}
  0
LINE
  5
1B1CB
330
18
100
AcDbEntity
  8
1DIM
100
AcDbLine
 10
2537.594981800096
 20
-623.0592452215984
 30
0.0
 11
2537.594981800096
 21
-631.8592454154181
 31
0.0
1001
ACAD
1000
DSTYLE
1002
{
1070
    40
1040
1.3
1002
}
  0
TEXT
  5
1B1CF
330
18
100
AcDbEntity
  8
1HIDDEN
  6
CONTINUOUS
100
AcDbText
 10
2437.056811873652
 20
-415.1984308856148
 30
0.0
 40
4.55
  1
材質：亜鉛ダイキャスト
100
AcDbText
  0
TEXT
  5
1B1D0
330
18
100
AcDbEntity
  8
1HIDDEN
  6
CONTINUOUS
100
AcDbText
 10
2447.370145206985
 20
-422.7817642189481
 30
0.0
 40
4.55
  1
仕上げ：各種メッキ
100
AcDbText
  0
SOLID
  5
1B1D1
330
18
100
AcDbEntity
  8
1DIM
100
AcDbTrace
 10
2509.348837668453
 20
-438.2969173506445
 30
0.0
 11
2510.268563903004
 21
-440.1039078776228
 31
0.0
 12
2508.812501618328
 22
-438.6928821038492
 32
0.0
 13
2508.812501618328
 23
-438.6928821038492
 33
0.0
  0
LINE
  5
1B1D2
330
18
100
AcDbEntity
  8
1DIM
100
AcDbLine
 10
2509.08066964339
 20
-438.4948997272469
 30
0.0
 11
2497.996811873651
 21
-423.4817642189482
 31
0.0
  0
LINE
  5
1B1D3
330
18
100
AcDbEntity
  8
1DIM
100
AcDbLine
 10
2497.996811873651
 20
-423.4817642189482
 30
0.0
 11
2437.360145206985
 21
-423.4817642189482
 31
0.0
  0
LINE
  5
1B1D4
330
18
100
AcDbEntity
  8
0
  6
BYBLOCK
100
AcDbLine
 10
2426.924705614087
 20
-368.0592454164467
 30
0.0
 11
2427.621373508086
 21
-365.4592454164467
 31
0.0
  0
LINE
  5
1B1D5
330
18
100
AcDbEntity
  8
0
  6
BYBLOCK
100
AcDbLine
 10
2427.621373508086
 20
-365.4592454164467
 30
0.0
 11
2428.318041402086
 21
-368.0592454164467
 31
0.0
  0
LINE
  5
1B1D6
330
18
100
AcDbEntity
  8
0
  6
BYBLOCK
100
AcDbLine
 10
2427.621373508086
 20
-365.4592454164467
 30
0.0
 11
2427.621373508086
 21
-368.0592454164467
 31
0.0
  0
LINE
  5
1B1D7
330
18
100
AcDbEntity
  8
0
  6
BYBLOCK
100
AcDbLine
 10
2428.318041402086
 20
-381.6592454164467
 30
0.0
 11
2427.621373508086
 21
-384.2592454164467
 31
0.0
  0
LINE
  5
1B1D8
330
18
100
AcDbEntity
  8
0
  6
BYBLOCK
100
AcDbLine
 10
2427.621373508086
 20
-384.2592454164467
 30
0.0
 11
2426.924705614087
 21
-381.6592454164467
 31
0.0
  0
LINE
  5
1B1D9
330
18
100
AcDbEntity
  8
0
  6
BYBLOCK
100
AcDbLine
 10
2427.621373508086
 20
-384.2592454164467
 30
0.0
 11
2427.621373508086
 21
-381.6592454164467
 31
0.0
  0
TEXT
  5
1B1DA
330
18
100
AcDbEntity
  8
1DIM
  6
CONTINUOUS
100
AcDbText
 10
2426.711373508087
 20
-377.893631990521
 30
0.0
 40
4.55
  1
19
 50
90.0
100
AcDbText
1001
ACAD
1000
DSTYLE
1002
{
1070
    45
1040
0.5
1070
    40
1040
1.3
1002
}
  0
LINE
  5
1B1DB
330
18
100
AcDbEntity
  8
0
  6
BYBLOCK
100
AcDbLine
 10
2394.560098566314
 20
-467.5367002330187
 30
0.0
 11
2391.960098566314
 21
-466.8400323390188
 31
0.0
  0
LINE
  5
1B1DC
330
18
100
AcDbEntity
  8
0
  6
BYBLOCK
100
AcDbLine
 10
2391.960098566314
 20
-466.8400323390188
 30
0.0
 11
2394.560098566314
 21
-466.1433644450188
 31
0.0
  0
LINE
  5
1B1DD
330
18
100
AcDbEntity
  8
0
  6
BYBLOCK
100
AcDbLine
 10
2391.960098566314
 20
-466.8400323390188
 30
0.0
 11
2394.560098566314
 21
-466.8400323390188
 31
0.0
  0
LINE
  5
1B1DE
330
18
100
AcDbEntity
  8
0
  6
BYBLOCK
100
AcDbLine
 10
2521.360098447105
 20
-466.1433644450188
 30
0.0
 11
2523.960098447104
 21
-466.8400323390188
 31
0.0
  0
LINE
  5
1B1DF
330
18
100
AcDbEntity
  8
0
  6
BYBLOCK
100
AcDbLine
 10
2523.960098447104
 20
-466.8400323390188
 30
0.0
 11
2521.360098447105
 21
-467.5367002330187
 31
0.0
  0
LINE
  5
1B1E0
330
18
100
AcDbEntity
  8
0
  6
BYBLOCK
100
AcDbLine
 10
2523.960098447104
 20
-466.8400323390188
 30
0.0
 11
2521.360098447105
 21
-466.8400323390188
 31
0.0
  0
TEXT
  5
1B1E1
330
18
100
AcDbEntity
  8
1DIM
  6
CONTINUOUS
100
AcDbText
 10
2455.182854146226
 20
-465.9300323390188
 30
0.0
 40
4.55
  1
132
100
AcDbText
1001
ACAD
1000
DSTYLE
1002
{
1070
    40
1040
1.3
1002
}
  0
LINE
  5
1B1E2
330
18
100
AcDbEntity
  8
0
  6
BYBLOCK
100
AcDbLine
 10
2379.560098566314
 20
-480.176909028401
 30
0.0
 11
2376.960098566314
 21
-479.480241134401
 31
0.0
  0
LINE
  5
1B1E3
330
18
100
AcDbEntity
  8
0
  6
BYBLOCK
100
AcDbLine
 10
2376.960098566314
 20
-479.480241134401
 30
0.0
 11
2379.560098566314
 21
-478.783573240401
 31
0.0
  0
LINE
  5
1B1E4
330
18
100
AcDbEntity
  8
0
  6
BYBLOCK
100
AcDbLine
 10
2376.960098566314
 20
-479.480241134401
 30
0.0
 11
2379.560098566314
 21
-479.480241134401
 31
0.0
  0
LINE
  5
1B1E5
330
18
100
AcDbEntity
  8
0
  6
BYBLOCK
100
AcDbLine
 10
2521.360098447105
 20
-478.783573240401
 30
0.0
 11
2523.960098447104
 21
-479.480241134401
 31
0.0
  0
LINE
  5
1B1E6
330
18
100
AcDbEntity
  8
0
  6
BYBLOCK
100
AcDbLine
 10
2523.960098447104
 20
-479.480241134401
 30
0.0
 11
2521.360098447105
 21
-480.176909028401
 31
0.0
  0
LINE
  5
1B1E7
330
18
100
AcDbEntity
  8
0
  6
BYBLOCK
100
AcDbLine
 10
2523.960098447104
 20
-479.480241134401
 30
0.0
 11
2521.360098447105
 21
-479.480241134401
 31
0.0
  0
TEXT
  5
1B1E8
330
18
100
AcDbEntity
  8
1DIM
  6
CONTINUOUS
100
AcDbText
 10
2445.151765173376
 20
-478.570241134401
 30
0.0
 40
4.55
  1
147
100
AcDbText
1001
ACAD
1000
DSTYLE
1002
{
1070
    40
1040
1.3
1002
}
  0
LINE
  5
1B1E9
330
18
100
AcDbEntity
  8
0
  6
BYBLOCK
100
AcDbLine
 10
2545.578172602707
 20
-397.5605637285213
 30
0.0
 11
2546.274840496707
 21
-394.9605637285213
 31
0.0
  0
LINE
  5
1B1EA
330
18
100
AcDbEntity
  8
0
  6
BYBLOCK
100
AcDbLine
 10
2546.274840496707
 20
-394.9605637285213
 30
0.0
 11
2546.971508390707
 21
-397.5605637285213
 31
0.0
  0
LINE
  5
1B1EB
330
18
100
AcDbEntity
  8
0
  6
BYBLOCK
100
AcDbLine
 10
2546.274840496707
 20
-394.9605637285213
 30
0.0
 11
2546.274840496707
 21
-397.5605637285213
 31
0.0
  0
LINE
  5
1B1EC
330
18
100
AcDbEntity
  8
0
  6
BYBLOCK
100
AcDbLine
 10
2546.971508390707
 20
-428.3605642551164
 30
0.0
 11
2546.274840496707
 21
-430.9605642551164
 31
0.0
  0
LINE
  5
1B1ED
330
18
100
AcDbEntity
  8
0
  6
BYBLOCK
100
AcDbLine
 10
2546.274840496707
 20
-430.9605642551164
 30
0.0
 11
2545.578172602707
 21
-428.3605642551164
 31
0.0
  0
LINE
  5
1B1EE
330
18
100
AcDbEntity
  8
0
  6
BYBLOCK
100
AcDbLine
 10
2546.274840496707
 20
-430.9605642551164
 30
0.0
 11
2546.274840496707
 21
-428.3605642551164
 31
0.0
  0
TEXT
  5
1B1EF
330
18
100
AcDbEntity
  8
1DIM
  6
CONTINUOUS
100
AcDbText
 10
2545.364840496707
 20
-416.7522306584851
 30
0.0
 40
4.55
  1
36
 50
90.0
100
AcDbText
1001
ACAD
1000
DSTYLE
1002
{
1070
    40
1040
1.3
1002
}
  0
LINE
  5
1B1F0
330
18
100
AcDbEntity
  8
0
  6
BYBLOCK
100
AcDbLine
 10
2560.64640662719
 20
-397.5605637285213
 30
0.0
 11
2561.34307452119
 21
-394.9605637285213
 31
0.0
  0
LINE
  5
1B1F1
330
18
100
AcDbEntity
  8
0
  6
BYBLOCK
100
AcDbLine
 10
2561.34307452119
 20
-394.9605637285213
 30
0.0
 11
2562.03974241519
 21
-397.5605637285213
 31
0.0
  0
LINE
  5
1B1F2
330
18
100
AcDbEntity
  8
0
  6
BYBLOCK
100
AcDbLine
 10
2561.34307452119
 20
-394.9605637285213
 30
0.0
 11
2561.34307452119
 21
-397.5605637285213
 31
0.0
  0
LINE
  5
1B1F3
330
18
100
AcDbEntity
  8
0
  6
BYBLOCK
100
AcDbLine
 10
2562.03974241519
 20
-454.3605649653176
 30
0.0
 11
2561.34307452119
 21
-456.9605649653176
 31
0.0
  0
LINE
  5
1B1F4
330
18
100
AcDbEntity
  8
0
  6
BYBLOCK
100
AcDbLine
 10
2561.34307452119
 20
-456.9605649653176
 30
0.0
 11
2560.64640662719
 21
-454.3605649653176
 31
0.0
  0
LINE
  5
1B1F5
330
18
100
AcDbEntity
  8
0
  6
BYBLOCK
100
AcDbLine
 10
2561.34307452119
 20
-456.9605649653176
 30
0.0
 11
2561.34307452119
 21
-454.3605649653176
 31
0.0
  0
TEXT
  5
1B1F6
330
18
100
AcDbEntity
  8
1DIM
  6
CONTINUOUS
100
AcDbText
 10
2560.43307452119
 20
-429.7680296246972
 30
0.0
 40
4.55
  1
62
 50
90.0
100
AcDbText
1001
ACAD
1000
DSTYLE
1002
{
1070
    40
1040
1.3
1002
}
  0
LINE
  5
1B1F7
330
18
100
AcDbEntity
  8
0
  6
BYBLOCK
100
AcDbLine
 10
2536.898313906097
 20
-623.0592452215984
 30
0.0
 11
2537.594981800096
 21
-620.4592452215984
 31
0.0
  0
LINE
  5
1B1F8
330
18
100
AcDbEntity
  8
0
  6
BYBLOCK
100
AcDbLine
 10
2537.594981800096
 20
-620.4592452215984
 30
0.0
 11
2538.291649694096
 21
-623.0592452215984
 31
0.0
  0
LINE
  5
1B1F9
330
18
100
AcDbEntity
  8
0
  6
BYBLOCK
100
AcDbLine
 10
2537.594981800096
 20
-620.4592452215984
 30
0.0
 11
2537.594981800096
 21
-623.0592452215984
 31
0.0
  0
LINE
  5
1B1FA
330
18
100
AcDbEntity
  8
0
  6
BYBLOCK
100
AcDbLine
 10
2538.291649694096
 20
-631.8592454154181
 30
0.0
 11
2537.594981800096
 21
-634.4592454154181
 31
0.0
  0
LINE
  5
1B1FB
330
18
100
AcDbEntity
  8
0
  6
BYBLOCK
100
AcDbLine
 10
2537.594981800096
 20
-634.4592454154181
 30
0.0
 11
2536.898313906097
 21
-631.8592454154181
 31
0.0
  0
LINE
  5
1B1FC
330
18
100
AcDbEntity
  8
0
  6
BYBLOCK
100
AcDbLine
 10
2537.594981800096
 20
-634.4592454154181
 30
0.0
 11
2537.594981800096
 21
-631.8592454154181
 31
0.0
  0
TEXT
  5
1B1FD
330
18
100
AcDbEntity
  8
1DIM
  6
CONTINUOUS
100
AcDbText
 10
2536.684981800096
 20
-630.4925786518415
 30
0.0
 40
4.55
  1
14
 50
90.0
100
AcDbText
1001
ACAD
1000
DSTYLE
1002
{
1070
    40
1040
1.3
1002
}
  0
VIEWPORT
  5
57
330
15
100
AcDbEntity
 67
     1
  8
0
100
AcDbViewport
 68
     1
 10
0.0
 20
0.0
 30
0.0
 40
555.8298653610772
 41
297.0
 68
     1
 69
     1
1001
ACAD
1000
MVIEW
1002
{
1070
    16
1010
0.0
1020
0.0
1030
0.0
1010
0.0
1020
0.0
1030
1.0
1040
0.0
1040
297.0
1040
-4.171999999925333
1040
12.83903210976956
1040
50.0
1040
0.0
1040
0.0
1070
    16
1070
   100
1070
     0
1070
     1
1070
     0
1070
     0
1070
     0
1070
     0
1040
0.0
1040
0.0
1040
0.0
1040
10.0
1040
10.0
1040
10.0
1040
10.0
1070
     0
1002
{
1002
}
1002
}
  0
ENDSEC
  0
SECTION
  2
OBJECTS
  0
DICTIONARY
  5
C
330
0
100
AcDbDictionary
  3
ACAD_COLOR
350
18D
  3
ACAD_GROUP
350
D
  3
ACAD_LAYOUT
350
18E
  3
ACAD_MATERIAL
350
18C
  3
ACAD_MLEADERSTYLE
350
D9E7
  3
ACAD_MLINESTYLE
350
1B
  3
ACAD_PLOTSETTINGS
350
18F
  3
ACAD_SCALELIST
350
D9C5
  3
ACAD_VISUALSTYLE
350
D9B4
  3
ACDBHEADERROUNDTRIPXREC
350
1B1FE
  3
ACDBVARIABLEDICTIONARY
350
37
  3
CONTENTDICTIONARY
350
D8
  3
DRAWINGVARIABLESDICT
350
20
  3
DWGPROPS
350
1B201
1001
ACAD
1000
TREAT_AS_HARD
1070
     0
  0
DICTIONARY
  5
E6A6
330
2
100
AcDbDictionary
  3
ACAD_LAYERSTATES
360
E6A7
1001
ACAD
1000
TREAT_AS_HARD
1070
     1
  0
DICTIONARY
  5
DA05
330
E
100
AcDbDictionary
  3
ADSK_XREC_LAYER_RECONCILED
360
DA06
1001
ACAD
1000
TREAT_AS_HARD
1070
     1
  0
DICTIONARY
  5
DA07
330
29
100
AcDbDictionary
  3
ADSK_XREC_LAYER_RECONCILED
360
DA08
1001
ACAD
1000
TREAT_AS_HARD
1070
     1
  0
DICTIONARY
  5
DA09
330
31
100
AcDbDictionary
  3
ADSK_XREC_LAYER_RECONCILED
360
DA0A
1001
ACAD
1000
TREAT_AS_HARD
1070
     1
  0
DICTIONARY
  5
DA0F
330
243
100
AcDbDictionary
  3
ADSK_XREC_LAYER_RECONCILED
360
DA10
1001
ACAD
1000
TREAT_AS_HARD
1070
     1
  0
DICTIONARY
  5
DA15
330
24E
100
AcDbDictionary
  3
ADSK_XREC_LAYER_RECONCILED
360
DA16
1001
ACAD
1000
TREAT_AS_HARD
1070
     1
  0
DICTIONARY
  5
DA23
330
2C05
100
AcDbDictionary
  3
ADSK_XREC_LAYER_RECONCILED
360
DA24
1001
ACAD
1000
TREAT_AS_HARD
1070
     1
  0
DICTIONARY
  5
88F
330
18
100
AcDbDictionary
  3
ACAD_SORTENTS
360
890
1001
ACAD
1000
TREAT_AS_HARD
1070
     1
  0
DICTIONARY
  5
18D
102
{ACAD_REACTORS
330
C
102
}
330
C
100
AcDbDictionary
1001
ACAD
1000
TREAT_AS_HARD
1070
     0
  0
DICTIONARY
  5
D
102
{ACAD_REACTORS
330
C
102
}
330
C
100
AcDbDictionary
1001
ACAD
1000
TREAT_AS_HARD
1070
     0
  0
DICTIONARY
  5
18E
102
{ACAD_REACTORS
330
C
102
}
330
C
100
AcDbDictionary
1001
ACAD
1000
TREAT_AS_HARD
1070
     0
  0
DICTIONARY
  5
18C
102
{ACAD_REACTORS
330
C
102
}
330
C
100
AcDbDictionary
  3
BYBLOCK
350
D9A4
  3
BYLAYER
350
D99C
  3
GLOBAL
350
D9AC
1001
ACAD
1000
TREAT_AS_HARD
1070
     0
  0
DICTIONARY
  5
D9E7
102
{ACAD_REACTORS
330
C
102
}
330
C
100
AcDbDictionary
  3
STANDARD
350
D9E8
1001
ACAD
1000
TREAT_AS_HARD
1070
     0
  0
DICTIONARY
  5
1B
102
{ACAD_REACTORS
330
C
102
}
330
C
100
AcDbDictionary
  3
STANDARD
350
1C
1001
ACAD
1000
TREAT_AS_HARD
1070
     0
  0
DICTIONARY
  5
18F
102
{ACAD_REACTORS
330
C
102
}
330
C
100
AcDbDictionary
1001
ACAD
1000
TREAT_AS_HARD
1070
     0
  0
DICTIONARY
  5
D9C5
102
{ACAD_REACTORS
330
C
102
}
330
C
100
AcDbDictionary
  3
A0
350
D9C6
  3
A1
350
D9C7
  3
A2
350
D9C8
  3
A3
350
D9C9
  3
A4
350
D9CA
  3
A5
350
D9CB
  3
A6
350
D9CC
  3
A7
350
D9CD
  3
A8
350
D9CE
  3
A9
350
D9CF
  3
B0
350
D9D0
  3
B1
350
D9D1
  3
B2
350
D9D2
  3
B3
350
D9D3
  3
B4
350
D9D4
  3
B5
350
D9D5
  3
B6
350
D9D6
  3
B7
350
D9D7
  3
B8
350
D9D8
  3
B9
350
D9D9
  3
C0
350
D9DA
  3
C1
350
D9DB
  3
C2
350
D9DC
  3
C3
350
D9DD
  3
C4
350
D9DE
  3
C5
350
D9DF
  3
C6
350
D9E0
  3
C7
350
D9E1
  3
C8
350
D9E2
  3
C9
350
D9E3
  3
D0
350
D9E4
  3
D1
350
D9E5
  3
D2
350
D9E6
1001
ACAD
1000
TREAT_AS_HARD
1070
     0
  0
DICTIONARY
  5
D9B4
102
{ACAD_REACTORS
330
C
102
}
330
C
100
AcDbDictionary
  3
2DWIREFRAME
350
D9BA
  3
3D_HIDDEN
350
D9BC
  3
3DWIREFRAME
350
D9BB
  3
BASIC
350
D9B9
  3
BRIGHTEN
350
D9C0
  3
COLORCHANGE
350
D9C4
  3
CONCEPTUAL
350
D9BD
  3
DIM
350
D9BF
  3
EDGECOLOROFF
350
19C2F
  3
FACEPATTERN
350
D9C3
  3
FLAT
350
D9B5
  3
FLATWITHEDGES
350
D9B6
  3
GOURAUD
350
D9B7
  3
GOURAUDWITHEDGES
350
D9B8
  3
HIDDEN
350
19C7E
  3
JITTEROFF
350
19C2D
  3
LINEPATTERN
350
D9C2
  3
MODELING
350
19C84
  3
OVERHANGOFF
350
19C2E
  3
REALISTIC
350
D9BE
  3
SHADED
350
19C83
  3
SHADED_WITH_EDGES
350
19C82
  3
SHADES_OF_GRAY
350
19C7F
  3
SKETCHY
350
19C80
  3
THICKEN
350
D9C1
  3
WIREFRAME
350
19C7D
  3
X-RAY
350
19C81
1001
ACAD
1000
TREAT_AS_HARD
1070
     0
  0
DICTIONARY
  5
1B1FE
102
{ACAD_REACTORS
330
C
102
}
330
C
100
AcDbDictionary
  3
COLORDICT
350
1B1FF
  3
MATERIALDICT
350
1B200
1001
ACAD
1000
TREAT_AS_HARD
1070
     0
  0
DICTIONARY
  5
37
102
{ACAD_REACTORS
330
C
102
}
330
C
100
AcDbDictionary
  3
CANNOSCALE
350
1A68D
  3
CMLEADERSTYLE
350
DA6A
  3
CTABLESTYLE
350
29E
  3
DIMADEC
350
38
  3
DIMASSOC
350
1CE
  3
HIDETEXT
350
704E
  3
INDEXCTL
350
DA6D
  3
INTERSECTIONCOLOR
350
7052
  3
INTERSECTIONDISPLAY
350
7051
  3
MSLTSCALE
350
1A6DD
  3
OBSCOLOR
350
704F
  3
OBSLTYPE
350
7050
  3
PROJECTNAME
350
1CF
  3
SORTENTS
350
DA6C
  3
XCLIPFRAME
350
19C7C
1001
ACAD
1000
TREAT_AS_HARD
1070
     0
  0
DICTIONARY
  5
D8
102
{ACAD_REACTORS
330
C
102
}
330
C
100
AcDbDictionary
1001
ACAD
1000
TREAT_AS_HARD
1070
     0
  0
DICTIONARY
  5
20
102
{ACAD_REACTORS
330
C
102
}
330
C
100
AcDbDictionary
1001
DRAWINGVARIABLESXDATA
1000
POLARANG
1000
0.261799387799149410000000
1000
POLARMODE
1000
1
1000
POLARSTYLE
1000
1
1001
ACAD
1000
TREAT_AS_HARD
1070
     0
  0
XRECORD
  5
1B201
102
{ACAD_REACTORS
330
C
102
}
330
C
100
AcDbXrecord
  1
DWGPROPS COOKIE
  2

  3

  4

  6

  7

  8
3684
  9

300
=
301
=
302
=
303
=
304
=
305
=
306
=
307
=
308
=
309
=
 40
0.0
 41
2451318.246352917
 42
2458159.22784706
  1

 90
        0
  0
DICTIONARY
  5
E6A7
102
{ACAD_REACTORS
330
E6A6
102
}
330
E6A6
100
AcDbDictionary
1001
ACAD
1000
TREAT_AS_HARD
1070
     0
  0
ACAD_PROXY_OBJECT
  5
DA06
102
{ACAD_REACTORS
330
DA05
102
}
330
DA05
100
AcDbZombieObject
 90
      499
 91
      515
 93
       34
310
40C8804040
  0
ACAD_PROXY_OBJECT
  5
DA08
102
{ACAD_REACTORS
330
DA07
102
}
330
DA07
100
AcDbZombieObject
 90
      499
 91
      515
 93
       34
310
40C8804040
  0
ACAD_PROXY_OBJECT
  5
DA0A
102
{ACAD_REACTORS
330
DA09
102
}
330
DA09
100
AcDbZombieObject
 90
      499
 91
      515
 93
       34
310
40C8804040
  0
ACAD_PROXY_OBJECT
  5
DA10
102
{ACAD_REACTORS
330
DA0F
102
}
330
DA0F
100
AcDbZombieObject
 90
      499
 91
      515
 93
       34
310
40C8804040
  0
ACAD_PROXY_OBJECT
  5
DA16
102
{ACAD_REACTORS
330
DA15
102
}
330
DA15
100
AcDbZombieObject
 90
      499
 91
      515
 93
       34
310
40C8804040
  0
ACAD_PROXY_OBJECT
  5
DA24
102
{ACAD_REACTORS
330
DA23
102
}
330
DA23
100
AcDbZombieObject
 90
      499
 91
      515
 93
       34
310
40C8804040
  0
SORTENTSTABLE
  5
890
102
{ACAD_REACTORS
330
88F
102
}
330
88F
100
AcDbSortentsTable
330
18
331
0
  5
5BFF
331
0
  5
1AD36
331
1AD35
  5
1AD4F
331
1AD36
  5
1AD50
331
1AD37
  5
1AD51
331
1AD3B
  5
1AD73
331
1AD3C
  5
1AD74
331
1AD3D
  5
1AD75
331
1AD3E
  5
1AD76
331
1AD3F
  5
1AD77
331
1AD40
  5
1AD78
331
1AD41
  5
1AD79
331
1AD42
  5
1AD7A
331
1AD43
  5
1AD7B
331
1AD44
  5
1AD7C
331
1AD45
  5
1AD7D
331
1AD46
  5
1AD7E
331
1AD47
  5
1AD7F
331
1AD48
  5
1AD80
331
1AD49
  5
1AD81
331
1AD4A
  5
1AD82
331
1AD4B
  5
1AD83
331
1AD4C
  5
1AD84
331
1AD4D
  5
1AD85
331
1AD4E
  5
1AD86
331
1AD4F
  5
1AD87
331
1AD50
  5
1AD88
331
1AD51
  5
1AD89
331
1AD52
  5
1AD8A
331
1AD53
  5
1AD8B
331
1AD54
  5
1AD8C
331
1AD55
  5
1AD8D
331
1AD56
  5
1AD8E
331
1AD57
  5
1AD8F
331
1AD58
  5
1AD90
331
1AD59
  5
1AD91
331
1AD5A
  5
1AD92
331
1AD5B
  5
1AD93
331
1AD5C
  5
1AD94
331
1AD5D
  5
1AD95
331
1AD5E
  5
1AD96
331
1AD5F
  5
1AD97
331
1AD60
  5
1AD98
331
1AD61
  5
1AD99
331
1AD62
  5
1AD9A
331
1AD63
  5
1AD9B
331
1AD64
  5
1AD9C
331
1AD65
  5
1AD9D
331
1AD66
  5
1AD9E
331
1AD67
  5
1AD9F
331
1AD68
  5
1ADA0
331
1AD69
  5
1ADA1
331
1AD6A
  5
1ADA2
331
1AD6B
  5
1ADA3
331
1AD6C
  5
1ADA4
331
1AD6D
  5
1ADA5
331
1AD6E
  5
1ADA6
331
1AD6F
  5
1ADA7
331
1AD70
  5
1ADA8
331
1AD71
  5
1ADAA
331
1AD72
  5
1ADAB
331
1AD73
  5
1ADAC
331
1AD74
  5
1ADAD
331
1AD75
  5
1ADAE
331
1AD76
  5
1ADAF
331
1AD77
  5
1ADB0
331
1AD78
  5
1ADB1
331
1AD79
  5
1ADB2
331
1AD7A
  5
1ADB3
331
1AD7B
  5
1ADB4
331
1AD7C
  5
1ADB5
331
1AD7D
  5
1ADB6
331
1AD7E
  5
1ADB8
331
1AD7F
  5
1ADB9
331
0
  5
1ADB7
331
1AD81
  5
1ADCA
331
1AD82
  5
1ADCB
331
1AD83
  5
1ADCC
331
1AD84
  5
1ADCD
331
1AD85
  5
1ADCE
331
1AD86
  5
1ADCF
331
1AD87
  5
1ADD0
331
1AD88
  5
1ADD1
331
1AD89
  5
1ADD2
331
1AD8A
  5
1ADD3
331
1AD8B
  5
1ADD4
331
1AD8C
  5
1ADD5
331
1AD8D
  5
1ADD6
331
1AD8E
  5
1ADD7
331
1AD8F
  5
1ADD8
331
1AD90
  5
1ADD9
331
1AD91
  5
1ADDA
331
1AD92
  5
1ADDB
331
1AD93
  5
1ADDC
331
1AD94
  5
1ADDD
331
1AD95
  5
1ADDE
331
1AD96
  5
1ADDF
331
1AD97
  5
1ADE0
331
1AD98
  5
1ADE1
331
1AD99
  5
1ADE2
331
1AD9A
  5
1ADE3
331
1AD9B
  5
1ADE4
331
1AD9C
  5
1ADE5
331
1AD9D
  5
1ADE6
331
1AD9E
  5
1ADE7
331
1AD9F
  5
1ADE8
331
1ADA0
  5
1ADE9
331
1ADA1
  5
1ADEA
331
1ADA2
  5
1ADEB
331
1ADA3
  5
1ADEE
331
1ADA4
  5
1ADEF
331
1ADA5
  5
1ADF0
331
1ADA6
  5
1ADF1
331
1ADA7
  5
1ADF2
331
1ADA8
  5
1ADF3
331
1ADAA
  5
1ADFE
331
1ADAB
  5
1ADFF
331
1ADAC
  5
1AE00
331
1ADAD
  5
1AE01
331
1ADAE
  5
1AE02
331
1ADAF
  5
1AE03
331
1ADB0
  5
1AE04
331
1ADB1
  5
1AE05
331
1ADB2
  5
1AE07
331
1ADB3
  5
1AE08
331
1ADB4
  5
1AE09
331
1ADB5
  5
1AE0A
331
1ADB6
  5
1AE0B
331
1ADB7
  5
1AE0C
331
1ADB8
  5
1AE0D
331
1ADB9
  5
1AE0E
331
1ADBA
  5
1AE0F
331
1ADBB
  5
1AE10
331
1ADBC
  5
1AE11
331
1ADBD
  5
1AE15
331
1ADBE
  5
1AE16
331
1ADBF
  5
1AE17
331
1ADC0
  5
1AE1B
331
1ADC1
  5
1AE1C
331
1ADC2
  5
1AE1D
331
1ADC3
  5
1AE1E
331
1ADC4
  5
1AE1F
331
1ADC5
  5
1AE20
331
1ADC6
  5
1AE21
331
1ADC7
  5
1AE22
331
1ADC8
  5
1AE23
331
1ADC9
  5
1AE24
331
1ADCA
  5
1AE25
331
1ADCB
  5
1AE26
331
1ADCC
  5
1AE27
331
1ADCD
  5
1AE28
331
1ADCE
  5
1AE29
331
1ADCF
  5
1AE2A
331
1ADD0
  5
1AE2B
331
1ADD1
  5
1AE2C
331
1ADD2
  5
1AE2D
331
1ADD3
  5
1AE2E
331
1ADD4
  5
1AE2F
331
1ADD5
  5
1AE30
331
1ADD6
  5
1AE31
331
1ADD7
  5
1AE32
331
1ADD8
  5
1AE33
331
1ADD9
  5
1AE34
331
1ADDA
  5
1AE35
331
1ADDB
  5
1AE39
331
1ADDC
  5
1AE3A
331
1ADDD
  5
1AE3B
331
1ADDE
  5
1AE3C
331
1ADDF
  5
1AE3D
331
1ADE0
  5
1AE3E
331
1ADE1
  5
1AE3F
331
1ADE2
  5
1AE40
331
1ADE3
  5
1AE41
331
1ADE4
  5
1AE42
331
1ADE5
  5
1AE43
331
1ADE6
  5
1AE44
331
1ADE7
  5
1AE45
331
1ADE8
  5
1AE46
331
1ADE9
  5
1AE47
331
1ADEA
  5
1AE48
331
1ADEB
  5
1AE49
331
1ADEE
  5
1AE5E
331
1ADEF
  5
1AE5F
331
1ADF0
  5
1AE60
331
1ADF1
  5
1AE61
331
1ADF2
  5
1AE62
331
1ADF3
  5
1AE63
331
1ADF4
  5
1AE64
331
1ADF5
  5
1AE65
331
1ADF6
  5
1AE66
331
1ADF7
  5
1AE67
331
1ADF8
  5
1AE68
331
1ADF9
  5
1AE69
331
1ADFA
  5
1AE6A
331
1ADFB
  5
1AE6B
331
1ADFC
  5
1AE6C
331
1ADFD
  5
1AE6D
331
1ADFE
  5
1AE6E
331
1ADFF
  5
1AE6F
331
1AE00
  5
1AE70
331
1AE01
  5
1AE71
331
1AE02
  5
1AE72
331
1AE03
  5
1AE73
331
1AE04
  5
1AE74
331
1AE05
  5
1AE75
331
1AE07
  5
1AE81
331
1AE08
  5
1AE82
331
1AE09
  5
1AE83
331
1AE0A
  5
1AE84
331
1AE0B
  5
1AE85
331
1AE0C
  5
1AE86
331
1AE0D
  5
1AE87
331
1AE0E
  5
1AE88
331
1AE0F
  5
1AE89
331
1AE10
  5
1AE8A
331
1AE11
  5
1AE8E
331
1AE12
  5
1AE8F
331
1AE13
  5
1AE90
331
1AE14
  5
1AE91
331
0
  5
1AE7F
331
1AE16
  5
1AE9C
331
1AE17
  5
1AE9D
331
1AE18
  5
1AE9E
331
1AE19
  5
1AE9F
331
1AE1A
  5
1AEA0
331
1AE1B
  5
1AEA1
331
1AE1C
  5
1AEA2
331
1AE1D
  5
1AEA3
331
1AE1E
  5
1AEA5
331
1AE1F
  5
1AEA6
331
1AE20
  5
1AEA7
331
1AE21
  5
1AEA8
331
1AE22
  5
1AEA9
331
1AE23
  5
1AEAA
331
1AE24
  5
1AEAB
331
1AE25
  5
1AEAC
331
1AE26
  5
1AEAD
331
1AE27
  5
1AEAE
331
1AE28
  5
1AEAF
331
1AE29
  5
1AEB0
331
1AE2A
  5
1AEB1
331
1AE2B
  5
1AEB2
331
1AE2C
  5
1AEB3
331
1AE2D
  5
1AEB6
331
1AE2E
  5
1AEB9
331
1AE2F
  5
1AEBC
331
1AE30
  5
1AEBF
331
1AE31
  5
1AEC0
331
1AE32
  5
1AEC1
331
1AE33
  5
1AEC2
331
1AE34
  5
1AEC3
331
1AE35
  5
1AEC4
331
1AE36
  5
1AEC5
331
1AE37
  5
1AEC6
331
1AE38
  5
1AEC7
331
1AE39
  5
1AEC8
331
1AE3A
  5
1AEC9
331
1AE3B
  5
1AECA
331
1AE3C
  5
1AECB
331
1AE3D
  5
1AECC
331
1AE3E
  5
1AECD
331
1AE3F
  5
1AECE
331
1AE40
  5
1AECF
331
1AE41
  5
1AED0
331
1AE42
  5
1AED1
331
1AE43
  5
1AED2
331
1AE44
  5
1AED3
331
1AE45
  5
1AED4
331
1AE46
  5
1AED5
331
1AE47
  5
1AED6
331
1AE48
  5
1AED7
331
1AE49
  5
1AED8
331
1AE4A
  5
1AED9
331
1AE4B
  5
1AEDA
331
1AE4C
  5
1AEDB
331
1AE4D
  5
1AEDC
331
1AE4E
  5
1AEDD
331
1AE4F
  5
1AEDE
331
1AE50
  5
1AEDF
331
1AE51
  5
1AEE0
331
1AE52
  5
1AEE1
331
1AE53
  5
1AEE2
331
1AE54
  5
1AEE3
331
1AE55
  5
1AEE4
331
1AE56
  5
1AEE5
331
1AE57
  5
1AEE6
331
1AE58
  5
1AEE7
331
1AE59
  5
1AEE8
331
1AE5A
  5
1AEE9
331
1AE5B
  5
1AEEA
331
1AE5C
  5
1AEEB
331
1AE5D
  5
1AEEC
331
1AE5E
  5
1AEED
331
1AE5F
  5
1AEEE
331
1AE60
  5
1AEEF
331
1AE61
  5
1AEF0
331
1AE62
  5
1AEF1
331
1AE63
  5
1AEF2
331
1AE64
  5
1AEF3
331
1AE65
  5
1AEF4
331
1AE66
  5
1AEF5
331
1AE67
  5
1AEF6
331
1AE68
  5
1AEF7
331
1AE69
  5
1AEF8
331
1AE6A
  5
1AEF9
331
1AE6B
  5
1AEFA
331
1AE6C
  5
1AEFB
331
1AE6D
  5
1AEFC
331
1AE6E
  5
1AEFD
331
1AE6F
  5
1AEFE
331
1AE70
  5
1AEFF
331
1AE71
  5
1AF00
331
1AE72
  5
1AF01
331
1AE73
  5
1AF02
331
1AE74
  5
1AF03
331
1AE75
  5
1AF04
331
1AE76
  5
1AF05
331
1AE77
  5
1AF06
331
1AE78
  5
1AF07
331
1AE79
  5
1AF08
331
1AE7A
  5
1AF09
331
1AE7B
  5
1AF0A
331
1AE7C
  5
1AF0B
331
1AE7D
  5
1AF0C
331
1AE7E
  5
1AF0D
331
1AE7F
  5
1AF0E
331
1AE80
  5
1AF0F
331
1AE81
  5
1AF10
331
1AE82
  5
1AF11
331
1AE83
  5
1AF12
331
1AE84
  5
1AF13
331
1AE85
  5
1AF14
331
1AE86
  5
1AF15
331
1AE87
  5
1AF16
331
1AE88
  5
1AF17
331
1AE89
  5
1AF18
331
1AE8A
  5
1AF19
331
1AE8B
  5
1AF1A
331
1AE8C
  5
1AF1B
331
1AE8D
  5
1AF1C
331
1AE8E
  5
1AF1D
331
1AE8F
  5
1AF1E
331
1AE90
  5
1AF1F
331
1AE91
  5
1AF20
331
1AE92
  5
1AF21
331
1AE93
  5
1AF22
331
1AE94
  5
1AF23
331
1AE95
  5
1AF24
331
1AE96
  5
1AF25
331
1AE97
  5
1AF26
331
1AE98
  5
1AF27
331
1AE99
  5
1AF28
331
1AE9A
  5
1AF2D
331
1AE9B
  5
1AF2E
331
1AE9C
  5
1AF2F
331
1AE9D
  5
1AF30
331
1AE9E
  5
1AF31
331
1AE9F
  5
1AF32
331
1AEA0
  5
1AF34
331
1AEA1
  5
1AF35
331
1AEA2
  5
1AF36
331
1AEA3
  5
1AF37
331
1AEA5
  5
1AF3C
331
1AEA6
  5
1AF3D
331
1AEA7
  5
1AF3E
331
1AEA8
  5
1AF42
331
1AEA9
  5
1AF43
331
1AEAA
  5
1AF44
331
1AEAB
  5
1AF48
331
1AEAC
  5
1AF49
331
1AEAD
  5
1AF4A
331
1AEAE
  5
1AF4E
331
1AEAF
  5
1AF4F
331
1AEB0
  5
1AF50
331
1AEB1
  5
1AF54
331
1AEB2
  5
1AF55
331
0
  5
1AF29
331
0
  5
1AF2A
331
0
  5
1AF2B
331
0
  5
1AF2C
331
1AEBF
  5
1B154
331
1AEC0
  5
1B155
331
1AEC1
  5
1B156
331
1AEC2
  5
1B157
331
1AEC3
  5
1B158
331
1AEC4
  5
1B159
331
1AEC5
  5
1B15A
331
1AEC6
  5
1B15B
331
1AEC7
  5
1B15C
331
1AEC8
  5
1B15D
331
1AEC9
  5
1B15E
331
1AECA
  5
1B15F
331
1AECB
  5
1B160
331
1AECC
  5
1B161
331
1AECD
  5
1B162
331
1AECE
  5
1B163
331
1AECF
  5
1B164
331
1AED0
  5
1B165
331
1AED1
  5
1B166
331
1AED2
  5
1B167
331
1AED3
  5
1B168
331
1AED4
  5
1B169
331
1AED5
  5
1B16A
331
1AED6
  5
1B16B
331
1AED7
  5
1B16C
331
1AED8
  5
1B16D
331
1AED9
  5
1B16E
331
1AEDA
  5
1B16F
331
1AEDB
  5
1B170
331
1AEDC
  5
1B171
331
1AEDD
  5
1B172
331
1AEDE
  5
1B173
331
1AEDF
  5
1B174
331
1AEE0
  5
1B175
331
1AEE1
  5
1B176
331
1AEE2
  5
1B177
331
1AEE3
  5
1B178
331
1AEE4
  5
1B179
331
1AEE5
  5
1B17A
331
1AEE6
  5
1B17B
331
1AEE7
  5
1B17C
331
1AEE8
  5
1B17D
331
1AEE9
  5
1B17E
331
1AEEA
  5
1B17F
331
1AEEB
  5
1B180
331
1AEEC
  5
1B181
331
1AEED
  5
1B182
331
1AEEE
  5
1B183
331
1AEEF
  5
1B184
331
1AEF0
  5
1B185
331
1AEF1
  5
1B186
331
1AEF2
  5
1B187
331
1AEF3
  5
1B188
331
1AEF4
  5
1B189
331
1AEF5
  5
1B18A
331
1AEF6
  5
1B18D
331
1AEF7
  5
1B18E
331
1AEF8
  5
1B18F
331
1AEF9
  5
1B190
331
1AEFA
  5
1B191
331
1AEFB
  5
1B192
331
1AEFC
  5
1B193
331
1AEFD
  5
1B194
331
1AEFE
  5
1B195
331
1AEFF
  5
1B196
331
1AF00
  5
1B197
331
1AF01
  5
1B198
331
1AF02
  5
1B199
331
1AF03
  5
1B19A
331
1AF04
  5
1B19B
331
1AF05
  5
1B19C
331
1AF06
  5
1B19D
331
1AF07
  5
1B19E
331
1AF08
  5
1B19F
331
1AF09
  5
1B1A0
331
1AF0A
  5
1B1A1
331
1AF0B
  5
1B1A2
331
1AF0C
  5
1B1A3
331
1AF0D
  5
1B1A4
331
1AF0E
  5
1B1A5
331
1AF0F
  5
1B1A6
331
1AF10
  5
1B1A7
331
1AF11
  5
1B1A8
331
1AF12
  5
1B1A9
331
1AF13
  5
1B1AA
331
1AF14
  5
1B1AB
331
1AF15
  5
1B1AC
331
1AF16
  5
1B1AD
331
1AF17
  5
1B1AE
331
1AF18
  5
1B1AF
331
1AF19
  5
1B1B0
331
1AF1A
  5
1B1B1
331
1AF1B
  5
1B1B2
331
1AF1C
  5
1B1B3
331
1AF1D
  5
1B1B4
331
1AF1E
  5
1B1B5
331
1AF1F
  5
1B1B6
331
1AF20
  5
1B1B7
331
1AF21
  5
1B1B8
331
1AF22
  5
1B1B9
331
1AF23
  5
1B1BA
331
1AF24
  5
1B1BB
331
1AF25
  5
1B1BC
331
1AF26
  5
1B1BD
331
1AF27
  5
1B1BE
331
1AF28
  5
1B1BF
331
1AF29
  5
1B1C0
331
1AF2A
  5
1B1C1
331
1AF2B
  5
1B1C2
331
1AF2C
  5
1B1C3
331
1AF2D
  5
1B1C4
331
1AF2E
  5
1B1C5
331
1AF2F
  5
1B1C6
331
1AF30
  5
1B1C7
331
1AF31
  5
1B1C8
331
1AF32
  5
1B1C9
331
1AF34
  5
1B1CE
331
1AF35
  5
1B1CF
331
1AF36
  5
1B1D0
331
1AF37
  5
1B1D1
331
1AF38
  5
1B1D2
331
1AF39
  5
1B1D3
331
1AF3A
  5
1B1D4
331
1AF3B
  5
1B1D5
331
1AF3C
  5
1B1D6
331
1AF3D
  5
1B1D7
331
1AF3E
  5
1B1D8
331
1AF3F
  5
1B1D9
331
1AF40
  5
1B1DA
331
1AF41
  5
1B1DB
331
1AF42
  5
1B1DC
331
0
  5
1B18B
331
0
  5
1B18C
331
1AF45
  5
1B1E2
331
1AF46
  5
1B1E3
331
1AF47
  5
1B1E4
331
1AF48
  5
1B1E5
331
1AF49
  5
1B1E6
331
1AF4A
  5
1B1E7
331
1AF4B
  5
1B1E8
331
1AF4C
  5
1B1E9
331
1AF4D
  5
1B1EA
331
1AF4E
  5
1B1EB
331
1AF4F
  5
1B1EC
331
1AF50
  5
1B1ED
331
1AF51
  5
1B1EE
331
1AF52
  5
1B1EF
331
1AF53
  5
1B1F0
331
1AF54
  5
1B1F1
331
1AF55
  5
1B1F2
331
1AF56
  5
1B1F3
331
1AF57
  5
1B1F4
331
1AF58
  5
1B1F5
331
1AF59
  5
1B1F6
331
1AF5A
  5
1B1F7
331
1AF5B
  5
1B1F8
331
1AF5C
  5
1B1F9
331
1AF5D
  5
1B1FA
331
1AF5E
  5
1B1FB
331
1AF5F
  5
1B1FC
331
1AF60
  5
1B1FD
331
1B137
  5
1AD33
331
1B138
  5
1AD35
331
1B139
  5
1AD3C
331
1B13A
  5
1AD40
331
1B13B
  5
1AD41
331
0
  5
1AD3D
331
0
  5
1AD3E
331
0
  5
1AD3F
331
1B13F
  5
1AD55
331
1B140
  5
1AD56
331
1B141
  5
1AD57
331
0
  5
1AD46
331
0
  5
1AD47
331
0
  5
1AD48
331
1B145
  5
1AD5F
331
1B146
  5
1AD60
331
1B147
  5
1AD61
331
0
  5
1AD4C
331
0
  5
1AD4D
331
0
  5
1AD4E
331
1B14B
  5
1AD69
331
1B14C
  5
1AD6A
331
1B14D
  5
1AD6B
331
0
  5
1AD52
331
0
  5
1AD53
331
0
  5
1AD54
331
1B151
  5
1ADF4
331
1B152
  5
1ADF5
331
1B153
  5
1ADF6
331
0
  5
1ADC7
331
0
  5
1ADC8
331
0
  5
1ADC9
331
1B157
  5
1AE4A
331
1B158
  5
1AE4B
331
1B159
  5
1AE4C
331
0
  5
1AE12
331
0
  5
1AE13
331
0
  5
1AE14
331
1B15D
  5
1AE54
331
1B15E
  5
1AE55
331
1B15F
  5
1AE56
331
0
  5
1AE18
331
0
  5
1AE19
331
0
  5
1AE1A
331
1B163
  5
1AE76
331
1B164
  5
1AE77
331
1B165
  5
1AE78
331
0
  5
1AE36
331
0
  5
1AE37
331
0
  5
1AE38
331
1B169
  5
1AF38
331
1B16A
  5
1AF39
331
1B16B
  5
1AF3A
331
1B16C
  5
1AF3B
331
1B16D
  5
1B1CA
331
1B16E
  5
1B1CB
331
1B16F
  5
1B1CC
331
1B170
  5
1B1CD
331
1B171
  5
1AD42
331
1B172
  5
1AD43
331
1B173
  5
1AD44
331
1B174
  5
1AD45
331
1B175
  5
1AD49
331
1B176
  5
1AD4A
331
1B177
  5
1AD4B
331
1B178
  5
1AD58
331
1B179
  5
1AD59
331
1B17A
  5
1AD5A
331
1B17B
  5
1AD5B
331
1B17C
  5
1AD5C
331
1B17D
  5
1AD5D
331
1B17E
  5
1AD5E
331
1B17F
  5
1AD62
331
1B180
  5
1AD63
331
1B181
  5
1AD64
331
1B182
  5
1AD65
331
1B183
  5
1AD66
331
1B184
  5
1AD67
331
1B185
  5
1AD68
331
1B186
  5
1AD6C
331
1B187
  5
1AD6D
331
1B188
  5
1AD6E
331
1B189
  5
1AD6F
331
1B18A
  5
1AD70
331
1B18B
  5
1AD71
331
1B18C
  5
1AD72
331
1B18D
  5
1ADF7
331
1B18E
  5
1ADF8
331
1B18F
  5
1ADF9
331
1B190
  5
1ADFA
331
1B191
  5
1ADFB
331
1B192
  5
1ADFC
331
1B193
  5
1ADFD
331
1B194
  5
1AE4D
331
1B195
  5
1AE4E
331
1B196
  5
1AE4F
331
1B197
  5
1AE50
331
1B198
  5
1AE51
331
1B199
  5
1AE52
331
1B19A
  5
1AE53
331
1B19B
  5
1AE57
331
1B19C
  5
1AE58
331
1B19D
  5
1AE59
331
1B19E
  5
1AE5A
331
1B19F
  5
1AE5B
331
1B1A0
  5
1AE5C
331
1B1A1
  5
1AE5D
331
1B1A2
  5
1AE79
331
1B1A3
  5
1AE7A
331
1B1A4
  5
1AE7B
331
1B1A5
  5
1AE7C
331
1B1A6
  5
1AE7D
331
1B1A7
  5
1AE7E
331
1B1A8
  5
1AE80
331
1B1A9
  5
1AD37
331
1B1AA
  5
1AD3B
331
1B1AB
  5
1ADBA
331
1B1AC
  5
1ADBB
331
1B1AD
  5
1ADBC
331
0
  5
1ADBD
331
0
  5
1ADBE
331
0
  5
1ADBF
331
1B1B1
  5
1AE92
331
1B1B2
  5
1AE93
331
1B1B3
  5
1AE94
331
0
  5
1AE8B
331
0
  5
1AE8C
331
0
  5
1AE8D
331
1B1B7
  5
1AF56
331
1B1B8
  5
1AF57
331
1B1B9
  5
1AF58
331
0
  5
1AF3F
331
0
  5
1AF40
331
0
  5
1AF41
331
1B1BD
  5
1AF60
331
1B1BE
  5
1B137
331
1B1BF
  5
1B138
331
0
  5
1AF45
331
0
  5
1AF46
331
0
  5
1AF47
331
1B1C3
  5
1B140
331
1B1C4
  5
1B141
331
1B1C5
  5
1B142
331
0
  5
1AF4B
331
0
  5
1AF4C
331
0
  5
1AF4D
331
1B1C9
  5
1B14A
331
1B1CA
  5
1B14B
331
1B1CB
  5
1B14C
331
0
  5
1AF51
331
0
  5
1AF52
331
0
  5
1AF53
331
1B1CF
  5
1B1DD
331
1B1D0
  5
1B1DE
331
1B1D1
  5
1B1DF
331
1B1D2
  5
1B1E0
331
1B1D3
  5
1B1E1
331
1B1D4
  5
1ADC0
331
1B1D5
  5
1ADC1
331
1B1D6
  5
1ADC2
331
1B1D7
  5
1ADC3
331
1B1D8
  5
1ADC4
331
1B1D9
  5
1ADC5
331
1B1DA
  5
1ADC6
331
1B1DB
  5
1AE95
331
1B1DC
  5
1AE96
331
1B1DD
  5
1AE97
331
1B1DE
  5
1AE98
331
1B1DF
  5
1AE99
331
1B1E0
  5
1AE9A
331
1B1E1
  5
1AE9B
331
1B1E2
  5
1AF59
331
1B1E3
  5
1AF5A
331
1B1E4
  5
1AF5B
331
1B1E5
  5
1AF5C
331
1B1E6
  5
1AF5D
331
1B1E7
  5
1AF5E
331
1B1E8
  5
1AF5F
331
1B1E9
  5
1B139
331
1B1EA
  5
1B13A
331
1B1EB
  5
1B13B
331
1B1EC
  5
1B13C
331
1B1ED
  5
1B13D
331
1B1EE
  5
1B13E
331
1B1EF
  5
1B13F
331
1B1F0
  5
1B143
331
1B1F1
  5
1B144
331
1B1F2
  5
1B145
331
1B1F3
  5
1B146
331
1B1F4
  5
1B147
331
1B1F5
  5
1B148
331
1B1F6
  5
1B149
331
1B1F7
  5
1B14D
331
1B1F8
  5
1B14E
331
1B1F9
  5
1B14F
331
1B1FA
  5
1B150
331
1B1FB
  5
1B151
331
1B1FC
  5
1B152
331
1B1FD
  5
1B153
  0
MATERIAL
  5
D9A4
102
{ACAD_REACTORS
330
18C
102
}
102
{ACAD_XDICTIONARY
360
1B39C
102
}
330
18C
100
AcDbMaterial
  1
BYBLOCK
 72
     0
 73
     2
 43
0.0208333333333333
 43
0.0
 43
0.0
 43
0.0
 43
0.0
 43
0.0208333333333333
 43
0.0
 43
0.0
 43
0.0
 43
0.0
 43
1.0
 43
0.0
 43
0.0
 43
0.0
 43
0.0
 43
1.0
 77
     0
 78
     2
 47
0.0208333333333333
 47
0.0
 47
0.0
 47
0.0
 47
0.0
 47
0.0208333333333333
 47
0.0
 47
0.0
 47
0.0
 47
0.0
 47
1.0
 47
0.0
 47
0.0
 47
0.0
 47
0.0
 47
1.0
171
     0
172
     2
 49
0.0208333333333333
 49
0.0
 49
0.0
 49
0.0
 49
0.0
 49
0.0208333333333333
 49
0.0
 49
0.0
 49
0.0
 49
0.0
 49
1.0
 49
0.0
 49
0.0
 49
0.0
 49
0.0
 49
1.0
175
     0
176
     2
142
0.0208333333333333
142
0.0
142
0.0
142
0.0
142
0.0
142
0.0208333333333333
142
0.0
142
0.0
142
0.0
142
0.0
142
1.0
142
0.0
142
0.0
142
0.0
142
0.0
142
1.0
179
     0
270
     2
144
0.0208333333333333
144
0.0
144
0.0
144
0.0
144
0.0
144
0.0208333333333333
144
0.0
144
0.0
144
0.0
144
0.0
144
1.0
144
0.0
144
0.0
144
0.0
144
0.0
144
1.0
274
     2
147
0.0208333333333333
147
0.0
147
0.0
147
0.0
147
0.0
147
0.0208333333333333
147
0.0
147
0.0
147
0.0
147
0.0
147
1.0
147
0.0
147
0.0
147
0.0
147
0.0
147
1.0
  0
MATERIAL
  5
D99C
102
{ACAD_REACTORS
330
18C
102
}
102
{ACAD_XDICTIONARY
360
1B39E
102
}
330
18C
100
AcDbMaterial
  1
BYLAYER
 72
     0
 73
     2
 43
0.0208333333333333
 43
0.0
 43
0.0
 43
0.0
 43
0.0
 43
0.0208333333333333
 43
0.0
 43
0.0
 43
0.0
 43
0.0
 43
1.0
 43
0.0
 43
0.0
 43
0.0
 43
0.0
 43
1.0
 77
     0
 78
     2
 47
0.0208333333333333
 47
0.0
 47
0.0
 47
0.0
 47
0.0
 47
0.0208333333333333
 47
0.0
 47
0.0
 47
0.0
 47
0.0
 47
1.0
 47
0.0
 47
0.0
 47
0.0
 47
0.0
 47
1.0
171
     0
172
     2
 49
0.0208333333333333
 49
0.0
 49
0.0
 49
0.0
 49
0.0
 49
0.0208333333333333
 49
0.0
 49
0.0
 49
0.0
 49
0.0
 49
1.0
 49
0.0
 49
0.0
 49
0.0
 49
0.0
 49
1.0
175
     0
176
     2
142
0.0208333333333333
142
0.0
142
0.0
142
0.0
142
0.0
142
0.0208333333333333
142
0.0
142
0.0
142
0.0
142
0.0
142
1.0
142
0.0
142
0.0
142
0.0
142
0.0
142
1.0
179
     0
270
     2
144
0.0208333333333333
144
0.0
144
0.0
144
0.0
144
0.0
144
0.0208333333333333
144
0.0
144
0.0
144
0.0
144
0.0
144
1.0
144
0.0
144
0.0
144
0.0
144
0.0
144
1.0
274
     2
147
0.0208333333333333
147
0.0
147
0.0
147
0.0
147
0.0
147
0.0208333333333333
147
0.0
147
0.0
147
0.0
147
0.0
147
1.0
147
0.0
147
0.0
147
0.0
147
0.0
147
1.0
  0
MATERIAL
  5
D9AC
102
{ACAD_REACTORS
330
18C
102
}
102
{ACAD_XDICTIONARY
360
1B3A0
102
}
330
18C
100
AcDbMaterial
  1
GLOBAL
 72
     0
 73
     2
 43
0.0208333333333333
 43
0.0
 43
0.0
 43
0.0
 43
0.0
 43
0.0208333333333333
 43
0.0
 43
0.0
 43
0.0
 43
0.0
 43
1.0
 43
0.0
 43
0.0
 43
0.0
 43
0.0
 43
1.0
 77
     0
 78
     2
 47
0.0208333333333333
 47
0.0
 47
0.0
 47
0.0
 47
0.0
 47
0.0208333333333333
 47
0.0
 47
0.0
 47
0.0
 47
0.0
 47
1.0
 47
0.0
 47
0.0
 47
0.0
 47
0.0
 47
1.0
171
     0
172
     2
 49
0.0208333333333333
 49
0.0
 49
0.0
 49
0.0
 49
0.0
 49
0.0208333333333333
 49
0.0
 49
0.0
 49
0.0
 49
0.0
 49
1.0
 49
0.0
 49
0.0
 49
0.0
 49
0.0
 49
1.0
175
     0
176
     2
142
0.0208333333333333
142
0.0
142
0.0
142
0.0
142
0.0
142
0.0208333333333333
142
0.0
142
0.0
142
0.0
142
0.0
142
1.0
142
0.0
142
0.0
142
0.0
142
0.0
142
1.0
179
     0
270
     2
144
0.0208333333333333
144
0.0
144
0.0
144
0.0
144
0.0
144
0.0208333333333333
144
0.0
144
0.0
144
0.0
144
0.0
144
1.0
144
0.0
144
0.0
144
0.0
144
0.0
144
1.0
274
     2
147
0.0208333333333333
147
0.0
147
0.0
147
0.0
147
0.0
147
0.0208333333333333
147
0.0
147
0.0
147
0.0
147
0.0
147
1.0
147
0.0
147
0.0
147
0.0
147
0.0
147
1.0
  0
ACAD_PROXY_OBJECT
  5
D9E8
102
{ACAD_REACTORS
330
D9E7
102
}
330
D9E7
100
AcDbZombieObject
 90
      499
 91
      511
 93
      610
310
40901902A4063FBFFFFFE000000000000002040AD7A3703D0AD73F4214DD185B99185C990000000000000104090141901A00000000000004100000000000000041025764000000000000300FC0
340
12
340
0
340
F
340
0
 94
        0
1001
ACAD_MLEADERVER
1070
     2
  0
MLINESTYLE
  5
1C
102
{ACAD_REACTORS
330
1B
102
}
330
1B
100
AcDbMlineStyle
  2
STANDARD
 70
     0
  3

 62
   256
 51
90.0
 52
90.0
 71
     2
 49
0.5
 62
   256
  6
BYLAYER
 49
-0.5
 62
   256
  6
BYLAYER
  0
ACAD_PROXY_OBJECT
  5
D9C6
102
{ACAD_REACTORS
330
D9C5
102
}
330
D9C5
100
AcDbZombieObject
 90
      499
 91
      510
 93
       41
310
903313A31580
  0
ACAD_PROXY_OBJECT
  5
D9C7
102
{ACAD_REACTORS
330
D9C5
102
}
330
D9C5
100
AcDbZombieObject
 90
      499
 91
      510
 93
      105
310
903313A324000000000000004000
  0
ACAD_PROXY_OBJECT
  5
D9C8
102
{ACAD_REACTORS
330
D9C5
102
}
330
D9C5
100
AcDbZombieObject
 90
      499
 91
      510
 93
      105
310
903313A344000000000000104000
  0
ACAD_PROXY_OBJECT
  5
D9C9
102
{ACAD_REACTORS
330
D9C5
102
}
330
D9C5
100
AcDbZombieObject
 90
      499
 91
      510
 93
      105
310
903313A354000000000000144000
  0
ACAD_PROXY_OBJECT
  5
D9CA
102
{ACAD_REACTORS
330
D9C5
102
}
330
D9C5
100
AcDbZombieObject
 90
      499
 91
      510
 93
      105
310
903313A384000000000000204000
  0
ACAD_PROXY_OBJECT
  5
D9CB
102
{ACAD_REACTORS
330
D9C5
102
}
330
D9C5
100
AcDbZombieObject
 90
      499
 91
      510
 93
      113
310
904313A31304000000000000244000
  0
ACAD_PROXY_OBJECT
  5
D9CC
102
{ACAD_REACTORS
330
D9C5
102
}
330
D9C5
100
AcDbZombieObject
 90
      499
 91
      510
 93
      113
310
904313A31364000000000000304000
  0
ACAD_PROXY_OBJECT
  5
D9CD
102
{ACAD_REACTORS
330
D9C5
102
}
330
D9C5
100
AcDbZombieObject
 90
      499
 91
      510
 93
      113
310
904313A32304000000000000344000
  0
ACAD_PROXY_OBJECT
  5
D9CE
102
{ACAD_REACTORS
330
D9C5
102
}
330
D9C5
100
AcDbZombieObject
 90
      499
 91
      510
 93
      113
310
904313A333040000000000003E4000
  0
ACAD_PROXY_OBJECT
  5
D9CF
102
{ACAD_REACTORS
330
D9C5
102
}
330
D9C5
100
AcDbZombieObject
 90
      499
 91
      510
 93
      113
310
904313A34304000000000000444000
  0
ACAD_PROXY_OBJECT
  5
D9D0
102
{ACAD_REACTORS
330
D9C5
102
}
330
D9C5
100
AcDbZombieObject
 90
      499
 91
      510
 93
      113
310
904313A35304000000000000494000
  0
ACAD_PROXY_OBJECT
  5
D9D1
102
{ACAD_REACTORS
330
D9C5
102
}
330
D9C5
100
AcDbZombieObject
 90
      499
 91
      510
 93
      121
310
905313A3130304000000000000594000
  0
ACAD_PROXY_OBJECT
  5
D9D2
102
{ACAD_REACTORS
330
D9C5
102
}
330
D9C5
100
AcDbZombieObject
 90
      499
 91
      510
 93
      105
310
903323A310000000000000010100
  0
ACAD_PROXY_OBJECT
  5
D9D3
102
{ACAD_REACTORS
330
D9C5
102
}
330
D9C5
100
AcDbZombieObject
 90
      499
 91
      510
 93
      105
310
903343A310000000000000410100
  0
ACAD_PROXY_OBJECT
  5
D9D4
102
{ACAD_REACTORS
330
D9C5
102
}
330
D9C5
100
AcDbZombieObject
 90
      499
 91
      510
 93
      105
310
903383A310000000000000810100
  0
ACAD_PROXY_OBJECT
  5
D9D5
102
{ACAD_REACTORS
330
D9C5
102
}
330
D9C5
100
AcDbZombieObject
 90
      499
 91
      510
 93
      113
310
90431303A310000000000000910100
  0
ACAD_PROXY_OBJECT
  5
D9D6
102
{ACAD_REACTORS
330
D9C5
102
}
330
D9C5
100
AcDbZombieObject
 90
      499
 91
      510
 93
      121
310
9053130303A310000000000001650100
  0
ACAD_PROXY_OBJECT
  5
D9D7
102
{ACAD_REACTORS
330
D9C5
102
}
330
D9C5
100
AcDbZombieObject
 90
      499
 91
      510
 93
      257
310
90E312F31323822203D2031272D3022000000000000200FC000000000000284000
  0
ACAD_PROXY_OBJECT
  5
D9D8
102
{ACAD_REACTORS
330
D9C5
102
}
330
D9C5
100
AcDbZombieObject
 90
      499
 91
      510
 93
      249
310
90D312F363422203D2031272D3022000000000000240FC000000000000284000
  0
ACAD_PROXY_OBJECT
  5
D9D9
102
{ACAD_REACTORS
330
D9C5
102
}
330
D9C5
100
AcDbZombieObject
 90
      499
 91
      510
 93
      249
310
90D312F333222203D2031272D3022000000000000280FC000000000000284000
  0
ACAD_PROXY_OBJECT
  5
D9DA
102
{ACAD_REACTORS
330
D9C5
102
}
330
D9C5
100
AcDbZombieObject
 90
      499
 91
      510
 93
      249
310
90D312F313622203D2031272D30220000000000002C0FC000000000000284000
  0
ACAD_PROXY_OBJECT
  5
D9DB
102
{ACAD_REACTORS
330
D9C5
102
}
330
D9C5
100
AcDbZombieObject
 90
      499
 91
      510
 93
      249
310
90D332F333222203D2031272D30220000000000002E0FC000000000000284000
  0
ACAD_PROXY_OBJECT
  5
D9DC
102
{ACAD_REACTORS
330
D9C5
102
}
330
D9C5
100
AcDbZombieObject
 90
      499
 91
      510
 93
      241
310
90C312F3822203D2031272D3022000000000000300FC000000000000284000
  0
ACAD_PROXY_OBJECT
  5
D9DD
102
{ACAD_REACTORS
330
D9C5
102
}
330
D9C5
100
AcDbZombieObject
 90
      499
 91
      510
 93
      249
310
90D332F313622203D2031272D3022000000000000320FC000000000000284000
  0
ACAD_PROXY_OBJECT
  5
D9DE
102
{ACAD_REACTORS
330
D9C5
102
}
330
D9C5
100
AcDbZombieObject
 90
      499
 91
      510
 93
      241
310
90C312F3422203D2031272D3022000000000000340FC000000000000284000
  0
ACAD_PROXY_OBJECT
  5
D9DF
102
{ACAD_REACTORS
330
D9C5
102
}
330
D9C5
100
AcDbZombieObject
 90
      499
 91
      510
 93
      241
310
90C332F3822203D2031272D3022000000000000360FC000000000000284000
  0
ACAD_PROXY_OBJECT
  5
D9E0
102
{ACAD_REACTORS
330
D9C5
102
}
330
D9C5
100
AcDbZombieObject
 90
      499
 91
      510
 93
      241
310
90C312F3222203D2031272D3022000000000000380FC000000000000284000
  0
ACAD_PROXY_OBJECT
  5
D9E1
102
{ACAD_REACTORS
330
D9C5
102
}
330
D9C5
100
AcDbZombieObject
 90
      499
 91
      510
 93
      241
310
90C332F3422203D2031272D30220000000000003A0FC000000000000284000
  0
ACAD_PROXY_OBJECT
  5
D9E2
102
{ACAD_REACTORS
330
D9C5
102
}
330
D9C5
100
AcDbZombieObject
 90
      499
 91
      510
 93
      161
310
90A3122203D2031272D30224000000000000284000
  0
ACAD_PROXY_OBJECT
  5
D9E3
102
{ACAD_REACTORS
330
D9C5
102
}
330
D9C5
100
AcDbZombieObject
 90
      499
 91
      510
 93
      257
310
90E312D312F3222203D2031272D30220000000000003E0FC000000000000284000
  0
ACAD_PROXY_OBJECT
  5
D9E4
102
{ACAD_REACTORS
330
D9C5
102
}
330
D9C5
100
AcDbZombieObject
 90
      499
 91
      510
 93
      225
310
90A3322203D2031272D302200000000000002100000000000000284000
  0
ACAD_PROXY_OBJECT
  5
D9E5
102
{ACAD_REACTORS
330
D9C5
102
}
330
D9C5
100
AcDbZombieObject
 90
      499
 91
      510
 93
      225
310
90A3622203D2031272D302200000000000006100000000000000284000
  0
ACAD_PROXY_OBJECT
  5
D9E6
102
{ACAD_REACTORS
330
D9C5
102
}
330
D9C5
100
AcDbZombieObject
 90
      499
 91
      510
 93
      249
310
90D31272D3022203D2031272D30220000000000000A100000000000000284000
  0
ACAD_PROXY_OBJECT
  5
D9BA
102
{ACAD_REACTORS
330
D9B4
102
}
330
D9B4
100
AcDbZombieObject
 90
      499
 91
      509
 93
      436
310
42CC9915DA5C99599C985B595049028333333333333E3BF0000000000000FB0107901411070040501600405405064090741402480A0340
1001
ACAD
1000
AcDbSavedByObjectVersion
1070
     0
  0
ACAD_PROXY_OBJECT
  5
D9BC
102
{ACAD_REACTORS
330
D9B4
102
}
330
D9B4
100
AcDbZombieObject
 90
      499
 91
      509
 93
      500
310
424CD108121A5919195B90640502408333333333333E3BF0000000000000FB01079024090700405020000000000001110200405405064090740C02480A0340
1001
ACAD
1000
AcDbSavedByObjectVersion
1070
     0
  0
ACAD_PROXY_OBJECT
  5
D9BB
102
{ACAD_REACTORS
330
D9B4
102
}
330
D9B4
100
AcDbZombieObject
 90
      499
 91
      509
 93
      436
310
42CCD915DA5C99599C985B595059028333333333333E3BF0000000000000FB0107901411070040501600405405064090741402480A0340
1001
ACAD
1000
AcDbSavedByObjectVersion
1070
     0
  0
ACAD_PROXY_OBJECT
  5
D9B9
102
{ACAD_REACTORS
330
D9B4
102
}
330
D9B4
100
AcDbZombieObject
 90
      499
 91
      509
 93
      388
310
4150985CDA58D07406404333333333333E3BF0000000000000FB0107A41107004050150841D405064090741402480A0350
1001
ACAD
1000
AcDbSavedByObjectVersion
1070
     0
  0
ACAD_PROXY_OBJECT
  5
D9C0
102
{ACAD_REACTORS
330
D9B4
102
}
330
D9B4
100
AcDbZombieObject
 90
      499
 91
      509
 93
      428
310
42109C9A59DA1D195B90C409028333333333333E3BF0000000000000FB010790141107004050150841D405064090741402480A029950
1001
ACAD
1000
AcDbSavedByObjectVersion
1070
     0
  0
ACAD_PROXY_OBJECT
  5
D9C4
102
{ACAD_REACTORS
330
D9B4
102
}
330
D9B4
100
AcDbZombieObject
 90
      499
 91
      509
 93
      452
310
42D0DBDB1BDC90DA185B99D95104090240C333333333333E3BF0000000000000FB0108901411070040501508421405064090741402480A0350
1001
ACAD
1000
AcDbSavedByObjectVersion
1070
     0
  0
ACAD_PROXY_OBJECT
  5
D9BD
102
{ACAD_REACTORS
330
D9B4
102
}
330
D9B4
100
AcDbZombieObject
 90
      499
 91
      509
 93
      500
310
4290DBDB98D95C1D1D585B10940D028333333333333E3BF0000000000000FB0107902409070040501000000000000111010841D405064090740C02480A0340
1001
ACAD
1000
AcDbSavedByObjectVersion
1070
     0
  0
ACAD_PROXY_OBJECT
  5
D9BF
102
{ACAD_REACTORS
330
D9B4
102
}
330
D9B4
100
AcDbZombieObject
 90
      499
 91
      509
 93
      412
310
40D11A5B50B409028333333333333E3BF0000000000000FB010790141107004050150841D405064090741402480A02677FFFFFD0
1001
ACAD
1000
AcDbSavedByObjectVersion
1070
     0
  0
ACAD_PROXY_OBJECT
  5
19C2F
102
{ACAD_REACTORS
330
D9B4
102
}
330
D9B4
100
AcDbZombieObject
 90
      499
 91
      509
 93
      452
310
43115919D950DBDB1BDC93D999916409028333333333333E3BF0000000000000FB010790141107004050150841D405064090741402480A0350
1001
ACAD
1000
AcDbSavedByObjectVersion
1070
     0
  0
ACAD_PROXY_OBJECT
  5
D9C3
102
{ACAD_REACTORS
330
D9B4
102
}
330
D9B4
100
AcDbZombieObject
 90
      499
 91
      509
 93
      444
310
42D19858D95C185D1D195C9B90F409028333333333333E3BF0000000000000FB010790141107004050150841D405064090741402480A0350
1001
ACAD
1000
AcDbSavedByObjectVersion
1070
     0
  0
ACAD_PROXY_OBJECT
  5
D9B5
102
{ACAD_REACTORS
330
D9B4
102
}
330
D9B4
100
AcDbZombieObject
 90
      499
 91
      509
 93
      388
310
41119B185D240901404333333333333E3BF0000000000000F9010740A41107004050150841D405064090741402480A1B50
1001
ACAD
1000
AcDbSavedByObjectVersion
1070
     0
  0
ACAD_PROXY_OBJECT
  5
D9B6
102
{ACAD_REACTORS
330
D9B4
102
}
330
D9B4
100
AcDbZombieObject
 90
      499
 91
      509
 93
      476
310
43519B185D15DA5D1A115919D95CD0140901404333333333333E3BF0000000000000F9010740901411070040501600405405064090741402480A1B50
1001
ACAD
1000
AcDbSavedByObjectVersion
1070
     0
  0
ACAD_PROXY_OBJECT
  5
D9B7
102
{ACAD_REACTORS
330
D9B4
102
}
330
D9B4
100
AcDbZombieObject
 90
      499
 91
      509
 93
      412
310
41D1DBDD5C985D5910240902404333333333333E3BF0000000000000F9010740A411070040501641D405064090741402480A1B50
1001
ACAD
1000
AcDbSavedByObjectVersion
1070
     0
  0
ACAD_PROXY_OBJECT
  5
D9B8
102
{ACAD_REACTORS
330
D9B4
102
}
330
D9B4
100
AcDbZombieObject
 90
      499
 91
      509
 93
      500
310
4411DBDD5C985D5915DA5D1A115919D95CD0340902404333333333333E3BF0000000000000F9010740901411070040501600405405064090741402480A1B50
1001
ACAD
1000
AcDbSavedByObjectVersion
1070
     0
  0
ACAD_PROXY_OBJECT
  5
19C7E
102
{ACAD_REACTORS
330
D9B4
102
}
330
D9B4
100
AcDbZombieObject
 90
      499
 91
      509
 93
      476
310
41921A5919195B90640502408333333333333E33F0000000000000F901079024090700405020000000000001110200405405064090740C02480A0340
1001
ACAD
1000
AcDbSavedByObjectVersion
1070
     0
  0
ACAD_PROXY_OBJECT
  5
19C2D
102
{ACAD_REACTORS
330
D9B4
102
}
330
D9B4
100
AcDbZombieObject
 90
      499
 91
      509
 93
      428
310
42529A5D1D195C93D999914409028333333333333E3BF0000000000000FB010790141107004050150A41D405064090741402480A0350
1001
ACAD
1000
AcDbSavedByObjectVersion
1070
     0
  0
ACAD_PROXY_OBJECT
  5
D9C2
102
{ACAD_REACTORS
330
D9B4
102
}
330
D9B4
100
AcDbZombieObject
 90
      499
 91
      509
 93
      444
310
42D31A5B995C185D1D195C9B90E409028333333333333E3BF0000000000000FB010790141107004050750841D405064090741402483A0350
1001
ACAD
1000
AcDbSavedByObjectVersion
1070
     0
  0
ACAD_PROXY_OBJECT
  5
19C84
102
{ACAD_REACTORS
330
D9B4
102
}
330
D9B4
100
AcDbZombieObject
 90
      499
 91
      509
 93
      484
310
42135BD9195B1A5B99D0A409038333333333333E33F0000000000000F901074090290700405010000000000201990108421405064090741402480A1B40
1001
ACAD
1000
AcDbSavedByObjectVersion
1070
     0
  0
ACAD_PROXY_OBJECT
  5
19C2E
102
{ACAD_REACTORS
330
D9B4
102
}
330
D9B4
100
AcDbZombieObject
 90
      499
 91
      509
 93
      444
310
42D3DD995C9A185B99D3D999915409028333333333333E3BF0000000000000FB010790141107004050150941D405064090741402480A0350
1001
ACAD
1000
AcDbSavedByObjectVersion
1070
     0
  0
ACAD_PROXY_OBJECT
  5
D9BE
102
{ACAD_REACTORS
330
D9B4
102
}
330
D9B4
100
AcDbZombieObject
 90
      499
 91
      509
 93
      420
310
425499585B1A5CDD1A58D08409028333333333333E3BF0000000000000FB01079019070040501508421405064090741402480A1B40
1001
ACAD
1000
AcDbSavedByObjectVersion
1070
     0
  0
ACAD_PROXY_OBJECT
  5
19C83
102
{ACAD_REACTORS
330
D9B4
102
}
330
D9B4
100
AcDbZombieObject
 90
      499
 91
      509
 93
      420
310
4194DA1859195911B40902404333333333333E33F0000000000000F9010740A41107004050150800405405064090840C02480A0B40
1001
ACAD
1000
AcDbSavedByObjectVersion
1070
     0
  0
ACAD_PROXY_OBJECT
  5
19C82
102
{ACAD_REACTORS
330
D9B4
102
}
330
D9B4
100
AcDbZombieObject
 90
      499
 91
      509
 93
      516
310
4454DA18591959081DDA5D1A08195919D95CD1A40902404333333333333E33F0000000000000F901074090142907004050250800405405064090740C02480A0B40
1001
ACAD
1000
AcDbSavedByObjectVersion
1070
     0
  0
ACAD_PROXY_OBJECT
  5
19C7F
102
{ACAD_REACTORS
330
D9B4
102
}
330
D9B4
100
AcDbZombieObject
 90
      499
 91
      509
 93
      532
310
4394DA1859195CC81BD98811DC985E5174090240C333333333333E33F0000000000000F901079024090741D01000000000000111010841D405064090740C02480A0340
1001
ACAD
1000
AcDbSavedByObjectVersion
1070
     0
  0
ACAD_PROXY_OBJECT
  5
19C80
102
{ACAD_REACTORS
330
D9B4
102
}
330
D9B4
100
AcDbZombieObject
 90
      499
 91
      509
 93
      476
310
41D4DAD95D18DA1E51840502408333333333333E33F0000000000000F901079024090741D01000000000000111010B41D405064090741802480A0340
1001
ACAD
1000
AcDbSavedByObjectVersion
1070
     0
  0
ACAD_PROXY_OBJECT
  5
D9C1
102
{ACAD_REACTORS
330
D9B4
102
}
330
D9B4
100
AcDbZombieObject
 90
      499
 91
      509
 93
      412
310
41D51A1A58DAD95B90D409028333333333333E3BF0000000000000FB010790141107004050150C41D405064090741402480A0350
1001
ACAD
1000
AcDbSavedByObjectVersion
1070
     0
  0
ACAD_PROXY_OBJECT
  5
19C7D
102
{ACAD_REACTORS
330
D9B4
102
}
330
D9B4
100
AcDbZombieObject
 90
      499
 91
      509
 93
      420
310
4255DA5C99599C985B595059028333333333333E33F0000000000000F90107901411070040501600405405064090740C02480A0340
1001
ACAD
1000
AcDbSavedByObjectVersion
1070
     0
  0
ACAD_PROXY_OBJECT
  5
19C81
102
{ACAD_REACTORS
330
D9B4
102
}
330
D9B4
100
AcDbZombieObject
 90
      499
 91
      509
 93
      404
310
41560B54985E51940902404000000000000E03F0000000000000F9010740501907004050150841D405064090740C02480A1B40
1001
ACAD
1000
AcDbSavedByObjectVersion
1070
     0
  0
XRECORD
  5
1B1FF
102
{ACAD_REACTORS
330
1B1FE
102
}
330
1B1FE
100
AcDbXrecord
340
18D
  0
XRECORD
  5
1B200
102
{ACAD_REACTORS
330
1B1FE
102
}
330
1B1FE
100
AcDbXrecord
340
18C
  0
DICTIONARYVAR
  5
1A68D
102
{ACAD_REACTORS
330
37
102
}
330
37
100
DictionaryVariables
280
     0
  1
1:1
  0
DICTIONARYVAR
  5
DA6A
102
{ACAD_REACTORS
330
37
102
}
330
37
100
DictionaryVariables
280
     0
  1
Standard
  0
DICTIONARYVAR
  5
29E
102
{ACAD_REACTORS
330
37
102
}
330
37
100
DictionaryVariables
280
     0
  1
Standard
  0
DICTIONARYVAR
  5
38
102
{ACAD_REACTORS
330
37
102
}
330
37
100
DictionaryVariables
280
     0
  1
-1
  0
DICTIONARYVAR
  5
1CE
102
{ACAD_REACTORS
330
37
102
}
330
37
100
DictionaryVariables
280
     0
  1
2
  0
DICTIONARYVAR
  5
704E
102
{ACAD_REACTORS
330
37
102
}
330
37
100
DictionaryVariables
280
     0
  1
1
  0
DICTIONARYVAR
  5
DA6D
102
{ACAD_REACTORS
330
37
102
}
330
37
100
DictionaryVariables
280
     0
  1
0
  0
DICTIONARYVAR
  5
7052
102
{ACAD_REACTORS
330
37
102
}
330
37
100
DictionaryVariables
280
     0
  1
8
  0
DICTIONARYVAR
  5
7051
102
{ACAD_REACTORS
330
37
102
}
330
37
100
DictionaryVariables
280
     0
  1
1
  0
DICTIONARYVAR
  5
1A6DD
102
{ACAD_REACTORS
330
37
102
}
330
37
100
DictionaryVariables
280
     0
  1
0
  0
DICTIONARYVAR
  5
704F
102
{ACAD_REACTORS
330
37
102
}
330
37
100
DictionaryVariables
280
     0
  1
8
  0
DICTIONARYVAR
  5
7050
102
{ACAD_REACTORS
330
37
102
}
330
37
100
DictionaryVariables
280
     0
  1
2
  0
DICTIONARYVAR
  5
1CF
102
{ACAD_REACTORS
330
37
102
}
330
37
100
DictionaryVariables
280
     0
  1

  0
DICTIONARYVAR
  5
DA6C
102
{ACAD_REACTORS
330
37
102
}
330
37
100
DictionaryVariables
280
     0
  1
127
  0
DICTIONARYVAR
  5
19C7C
102
{ACAD_REACTORS
330
37
102
}
330
37
100
DictionaryVariables
280
     0
  1
2
  0
DICTIONARY
  5
1B39C
330
D9A4
100
AcDbDictionary
  3
ACAD_XREC_ROUNDTRIP
360
1B39D
1001
ACAD
1000
TREAT_AS_HARD
1070
     1
  0
DICTIONARY
  5
1B39E
330
D99C
100
AcDbDictionary
  3
ACAD_XREC_ROUNDTRIP
360
1B39F
1001
ACAD
1000
TREAT_AS_HARD
1070
     1
  0
DICTIONARY
  5
1B3A0
330
D9AC
100
AcDbDictionary
  3
ACAD_XREC_ROUNDTRIP
360
1B3A1
1001
ACAD
1000
TREAT_AS_HARD
1070
     1
  0
XRECORD
  5
1B39D
102
{ACAD_REACTORS
330
1B39C
102
}
330
1B39C
100
AcDbXrecord
102
MATERIAL
148
0.0
149
0.0
149
0.0
 93
        0
 94
      127
282
     0
 72
     0
 77
     0
171
     0
175
     0
179
     0
273
     0
  0
XRECORD
  5
1B39F
102
{ACAD_REACTORS
330
1B39E
102
}
330
1B39E
100
AcDbXrecord
102
MATERIAL
148
0.0
149
0.0
149
0.0
 93
        0
 94
      127
282
     0
 72
     0
 77
     0
171
     0
175
     0
179
     0
273
     0
  0
XRECORD
  5
1B3A1
102
{ACAD_REACTORS
330
1B3A0
102
}
330
1B3A0
100
AcDbXrecord
102
MATERIAL
148
0.0
149
0.0
149
0.0
 93
        0
 94
      127
282
     0
 72
     0
 77
     0
171
     0
175
     0
179
     0
273
     0
  0
ENDSEC
  0
EOF
