  0
SECTION
  2
HEADER
  9
$ACADVER
  1
AC1012
  9
$DWGCODEPAGE
  3
ansi_932
  9
$INSBASE
 10
0.0
 20
0.0
 30
0.0
  9
$EXTMIN
 10
2128.320867720086
 20
-682.2883782124617
 30
0.0
  9
$EXTMAX
 10
2764.108803540414
 20
-257.9941661520592
 30
0.0000000000001137
  9
$LIMMIN
 10
0.0
 20
0.0
  9
$LIMMAX
 10
420.0
 20
297.0
  9
$ORTHOMODE
 70
     0
  9
$REGENMODE
 70
     1
  9
$FILLMODE
 70
     1
  9
$QTEXTMODE
 70
     0
  9
$MIRRTEXT
 70
     0
  9
$DRAGMODE
 70
     2
  9
$LTSCALE
 40
0.5
  9
$OSMODE
 70
 14463
  9
$ATTMODE
 70
     1
  9
$TEXTSIZE
 40
4.0
  9
$TRACEWID
 40
1.0
  9
$TEXTSTYLE
  7
STANDARD
  9
$CLAYER
  8
1TEXT
  9
$CELTYPE
  6
BYLAYER
  9
$CECOLOR
 62
   256
  9
$CELTSCALE
 40
1.0
  9
$DELOBJ
 70
     1
  9
$DISPSILH
 70
     0
  9
$DIMSCALE
 40
1.0
  9
$DIMASZ
 40
2.0
  9
$DIMEXO
 40
0.0
  9
$DIMDLI
 40
7.0
  9
$DIMRND
 40
0.0
  9
$DIMDLE
 40
0.0
  9
$DIMEXE
 40
1.0
  9
$DIMTP
 40
0.0
  9
$DIMTM
 40
0.0
  9
$DIMTXT
 40
3.5
  9
$DIMCEN
 40
0.0
  9
$DIMTSZ
 40
0.0
  9
$DIMTOL
 70
     0
  9
$DIMLIM
 70
     0
  9
$DIMTIH
 70
     0
  9
$DIMTOH
 70
     0
  9
$DIMSE1
 70
     0
  9
$DIMSE2
 70
     0
  9
$DIMTAD
 70
     1
  9
$DIMZIN
 70
     8
  9
$DIMBLK
  1

  9
$DIMASO
 70
     1
  9
$DIMSHO
 70
     1
  9
$DIMPOST
  1
 
  9
$DIMAPOST
  1

  9
$DIMALT
 70
     0
  9
$DIMALTD
 70
     2
  9
$DIMALTF
 40
25.4
  9
$DIMLFAC
 40
1.0
  9
$DIMTOFL
 70
     1
  9
$DIMTVP
 40
0.0
  9
$DIMTIX
 70
     0
  9
$DIMSOXD
 70
     0
  9
$DIMSAH
 70
     1
  9
$DIMBLK1
  1
OPEN30
  9
$DIMBLK2
  1
OPEN30
  9
$DIMSTYLE
  2
NEWX10
  9
$DIMCLRD
 70
   256
  9
$DIMCLRE
 70
   256
  9
$DIMCLRT
 70
   201
  9
$DIMTFAC
 40
0.7
  9
$DIMGAP
 40
0.7
  9
$DIMJUST
 70
     0
  9
$DIMSD1
 70
     0
  9
$DIMSD2
 70
     0
  9
$DIMTOLJ
 70
     1
  9
$DIMTZIN
 70
     8
  9
$DIMALTZ
 70
     0
  9
$DIMALTTZ
 70
     0
  9
$DIMFIT
 70
     2
  9
$DIMUPT
 70
     0
  9
$DIMUNIT
 70
     2
  9
$DIMDEC
 70
     2
  9
$DIMTDEC
 70
     4
  9
$DIMALTU
 70
     2
  9
$DIMALTTD
 70
     2
  9
$DIMTXSTY
  7
STANDARD
  9
$DIMAUNIT
 70
     0
  9
$LUNITS
 70
     2
  9
$LUPREC
 70
     4
  9
$SKETCHINC
 40
1.0
  9
$FILLETRAD
 40
0.0
  9
$AUNITS
 70
     0
  9
$AUPREC
 70
     2
  9
$MENU
  1
acad
  9
$ELEVATION
 40
0.0
  9
$PELEVATION
 40
0.0
  9
$THICKNESS
 40
0.0
  9
$LIMCHECK
 70
     0
  9
$CHAMFERA
 40
10.0
  9
$CHAMFERB
 40
10.0
  9
$CHAMFERC
 40
20.0
  9
$CHAMFERD
 40
0.0
  9
$SKPOLY
 70
     0
  9
$TDCREATE
 40
2451318.621352917
  9
$TDUPDATE
 40
2458150.629851829
  9
$TDINDWG
 40
1.6403266898
  9
$TDUSRTIMER
 40
1.6403266898
  9
$USRTIMER
 70
     1
  9
$ANGBASE
 50
0.0
  9
$ANGDIR
 70
     0
  9
$PDMODE
 70
     0
  9
$PDSIZE
 40
0.0
  9
$PLINEWID
 40
0.0
  9
$COORDS
 70
     2
  9
$SPLFRAME
 70
     0
  9
$SPLINETYPE
 70
     6
  9
$SPLINESEGS
 70
     8
  9
$ATTDIA
 70
     0
  9
$ATTREQ
 70
     1
  9
$HANDLING
 70
     1
  9
$HANDSEED
  5
1B35B
  9
$SURFTAB1
 70
     6
  9
$SURFTAB2
 70
     6
  9
$SURFTYPE
 70
     6
  9
$SURFU
 70
     6
  9
$SURFV
 70
     6
  9
$UCSNAME
  2

  9
$UCSORG
 10
0.0
 20
0.0
 30
0.0
  9
$UCSXDIR
 10
1.0
 20
0.0
 30
0.0
  9
$UCSYDIR
 10
0.0
 20
1.0
 30
0.0
  9
$PUCSNAME
  2

  9
$PUCSORG
 10
0.0
 20
0.0
 30
0.0
  9
$PUCSXDIR
 10
1.0
 20
0.0
 30
0.0
  9
$PUCSYDIR
 10
0.0
 20
1.0
 30
0.0
  9
$USERI1
 70
     0
  9
$USERI2
 70
     0
  9
$USERI3
 70
     0
  9
$USERI4
 70
     0
  9
$USERI5
 70
     0
  9
$USERR1
 40
0.0
  9
$USERR2
 40
0.0
  9
$USERR3
 40
0.0
  9
$USERR4
 40
0.0
  9
$USERR5
 40
0.0
  9
$WORLDVIEW
 70
     1
  9
$SHADEDGE
 70
     3
  9
$SHADEDIF
 70
    70
  9
$TILEMODE
 70
     1
  9
$MAXACTVP
 70
    48
  9
$PINSBASE
 10
0.0
 20
0.0
 30
0.0
  9
$PLIMCHECK
 70
     0
  9
$PEXTMIN
 10
1.000000000000000E+20
 20
1.000000000000000E+20
 30
1.000000000000000E+20
  9
$PEXTMAX
 10
-1.000000000000000E+20
 20
-1.000000000000000E+20
 30
-1.000000000000000E+20
  9
$PLIMMIN
 10
0.0
 20
0.0
  9
$PLIMMAX
 10
420.0
 20
297.0
  9
$UNITMODE
 70
     0
  9
$VISRETAIN
 70
     1
  9
$PLINEGEN
 70
     0
  9
$PSLTSCALE
 70
     1
  9
$TREEDEPTH
 70
  3020
  9
$PICKSTYLE
 70
     1
  9
$CMLSTYLE
  2
STANDARD
  9
$CMLJUST
 70
     0
  9
$CMLSCALE
 40
20.0
  9
$SAVEIMAGES
 70
     1
  0
ENDSEC
  0
SECTION
  2
CLASSES
  0
CLASS
  1
DICTIONARYVAR
  2
AcDbDictionaryVar
  3
ObjectDBX Classes
 90
        0
280
     0
281
     0
  0
CLASS
  1
IDBUFFER
  2
AcDbIdBuffer
  3
ObjectDBX Classes
 90
    32768
280
     0
281
     0
  0
CLASS
  1
LWPOLYLINE
  2
AcDbPolyline
  3
ObjectDBX Classes
 90
    32768
280
     0
281
     1
  0
CLASS
  1
ACDBDICTIONARYWDFLT
  2
AcDbDictionaryWithDefault
  3
ObjectDBX Classes
 90
    32768
280
     0
281
     0
  0
CLASS
  1
ACDBPLACEHOLDER
  2
AcDbPlaceHolder
  3
ObjectDBX Classes
 90
        0
280
     0
281
     0
  0
CLASS
  1
LAYOUT
  2
AcDbLayout
  3
ObjectDBX Classes
 90
        0
280
     0
281
     0
  0
CLASS
  1
TABLESTYLE
  2
AcDbTableStyle
  3
ObjectDBX Classes
 90
     4095
280
     0
281
     0
  0
CLASS
  1
SORTENTSTABLE
  2
AcDbSortentsTable
  3
ObjectDBX Classes
 90
    32768
280
     0
281
     0
  0
CLASS
  1
MATERIAL
  2
AcDbMaterial
  3
ObjectDBX Classes
 90
     1153
280
     0
281
     0
  0
CLASS
  1
VISUALSTYLE
  2
AcDbVisualStyle
  3
ObjectDBX Classes
 90
     4095
280
     0
281
     0
  0
CLASS
  1
SCALE
  2
AcDbScale
  3
ObjectDBX Classes
 90
     1153
280
     0
281
     0
  0
CLASS
  1
MLEADERSTYLE
  2
AcDbMLeaderStyle
  3
ACDB_MLEADERSTYLE_CLASS
 90
     4095
280
     0
281
     0
  0
CLASS
  1
CELLSTYLEMAP
  2
AcDbCellStyleMap
  3
ObjectDBX Classes
 90
     1152
280
     0
281
     0
  0
CLASS
  1
SUN
  2
AcDbSun
  3
SCENEOE
 90
     1153
280
     0
281
     0
  0
CLASS
  1
XRECORD
  2
AcDbXrecord
  3
ObjectDBX Classes
 90
    32768
280
     0
281
     0
  0
CLASS
  1
HATCH
  2
AcDbHatch
  3
ObjectDBX Classes
 90
    32768
280
     0
281
     1
  0
ENDSEC
  0
SECTION
  2
TABLES
  0
TABLE
  2
VPORT
  5
8
330
0
100
AcDbSymbolTable
 70
     1
  0
VPORT
  5
D991
330
8
100
AcDbSymbolTableRecord
100
AcDbViewportTableRecord
  2
*ACTIVE
 70
     0
 10
0.0
 20
0.0
 11
1.0
 21
1.0
 12
2446.21483563025
 22
-470.1412721822604
 13
0.0
 23
0.0
 14
10.0
 24
10.0
 15
10.0
 25
10.0
 16
0.0
 26
0.0
 36
1.0
 17
0.0
 27
0.0
 37
0.0
 40
455.5579961069585
 41
2.233782129742962
 42
50.0
 43
0.0
 44
0.0
 50
0.0
 51
0.0
 71
    16
 72
   100
 73
     1
 74
     1
 75
     0
 76
     0
 77
     0
 78
     0
  0
ENDTAB
  0
TABLE
  2
LTYPE
  5
5
330
0
100
AcDbSymbolTable
 70
     2
  0
LTYPE
  5
12
330
5
100
AcDbSymbolTableRecord
100
AcDbLinetypeTableRecord
  2
BYBLOCK
 70
     0
  3

 72
    65
 73
     0
 40
0.0
  0
LTYPE
  5
13
330
5
100
AcDbSymbolTableRecord
100
AcDbLinetypeTableRecord
  2
BYLAYER
 70
     0
  3

 72
    65
 73
     0
 40
0.0
  0
LTYPE
  5
14
330
5
100
AcDbSymbolTableRecord
100
AcDbLinetypeTableRecord
  2
CONTINUOUS
 70
     0
  3
Solid line
 72
    65
 73
     0
 40
0.0
  0
LTYPE
  5
13839
330
5
100
AcDbSymbolTableRecord
100
AcDbLinetypeTableRecord
  2
CENTER2
 70
     0
  3
Center (.5x) ___ _ ___ _ ___ _ ___ _ ___ _ ___
 72
    65
 73
     4
 40
28.575
 49
19.05
 74
     0
 49
-3.175
 74
     0
 49
3.175
 74
     0
 49
-3.175
 74
     0
  0
ENDTAB
  0
TABLE
  2
LAYER
  5
2
102
{ACAD_XDICTIONARY
360
E6A6
102
}
330
0
100
AcDbSymbolTable
 70
     5
  0
LAYER
  5
E
102
{ACAD_XDICTIONARY
360
DA05
102
}
330
2
100
AcDbSymbolTableRecord
100
AcDbLayerTableRecord
  2
0
 70
     0
 62
     7
  6
CONTINUOUS
  0
LAYER
  5
29
102
{ACAD_XDICTIONARY
360
DA07
102
}
330
2
100
AcDbSymbolTableRecord
100
AcDbLayerTableRecord
  2
1CENTER
 70
     0
 62
     7
  6
CENTER2
  0
LAYER
  5
31
102
{ACAD_XDICTIONARY
360
DA09
102
}
330
2
100
AcDbSymbolTableRecord
100
AcDbLayerTableRecord
  2
1TEXT
 70
     0
 62
     7
  6
CONTINUOUS
  0
LAYER
  5
243
102
{ACAD_XDICTIONARY
360
DA0F
102
}
330
2
100
AcDbSymbolTableRecord
100
AcDbLayerTableRecord
  2
01
 70
     0
 62
     1
  6
CONTINUOUS
  0
LAYER
  5
24E
102
{ACAD_XDICTIONARY
360
DA15
102
}
330
2
100
AcDbSymbolTableRecord
100
AcDbLayerTableRecord
  2
1DIM
 70
     0
 62
     7
  6
CONTINUOUS
  0
ENDTAB
  0
TABLE
  2
STYLE
  5
3
330
0
100
AcDbSymbolTable
 70
     1
  0
STYLE
  5
F
330
3
100
AcDbSymbolTableRecord
100
AcDbTextStyleTableRecord
  2
STANDARD
 70
     0
 40
0.0
 41
1.0
 50
0.0
 71
     0
 42
4.0
  3
txt.shx
  4
extfont.shx
  0
ENDTAB
  0
TABLE
  2
VIEW
  5
6
330
0
100
AcDbSymbolTable
 70
     0
  0
ENDTAB
  0
TABLE
  2
UCS
  5
7
330
0
100
AcDbSymbolTable
 70
     0
  0
ENDTAB
  0
TABLE
  2
APPID
  5
9
330
0
100
AcDbSymbolTable
 70
    15
  0
APPID
  5
10
330
9
100
AcDbSymbolTableRecord
100
AcDbRegAppTableRecord
  2
ACAD
 70
     0
  0
APPID
  5
21
330
9
100
AcDbSymbolTableRecord
100
AcDbRegAppTableRecord
  2
DRAWINGVARIABLESXDATA
 70
     0
  0
APPID
  5
64
330
9
100
AcDbSymbolTableRecord
100
AcDbRegAppTableRecord
  2
CONTENTTABDATA
 70
     0
  0
APPID
  5
65
330
9
100
AcDbSymbolTableRecord
100
AcDbRegAppTableRecord
  2
CONTENTCURRENTTAB
 70
     0
  0
APPID
  5
66
330
9
100
AcDbSymbolTableRecord
100
AcDbRegAppTableRecord
  2
CONTENTBLOCKDESCRIPTION
 70
     0
  0
APPID
  5
67
330
9
100
AcDbSymbolTableRecord
100
AcDbRegAppTableRecord
  2
CONTENTBLOCKICON
 70
     0
  0
APPID
  5
68
330
9
100
AcDbSymbolTableRecord
100
AcDbRegAppTableRecord
  2
CONTENTLONGBLOCKNAME
 70
     0
  0
APPID
  5
2AE
330
9
100
AcDbSymbolTableRecord
100
AcDbRegAppTableRecord
  2
ACAD_PSEXT
 70
     0
  0
APPID
  5
D9E9
330
9
100
AcDbSymbolTableRecord
100
AcDbRegAppTableRecord
  2
ACAD_MLEADERVER
 70
     0
  0
APPID
  5
19CF0
330
9
100
AcDbSymbolTableRecord
100
AcDbRegAppTableRecord
  2
ACADANNOTATIVE
 70
     0
  0
APPID
  5
19CF1
330
9
100
AcDbSymbolTableRecord
100
AcDbRegAppTableRecord
  2
ACDBBLOCKREPETAG
 70
     0
  0
APPID
  5
19CF2
330
9
100
AcDbSymbolTableRecord
100
AcDbRegAppTableRecord
  2
ACLAYERTOOLS
 70
     0
  0
APPID
  5
19CF3
330
9
100
AcDbSymbolTableRecord
100
AcDbRegAppTableRecord
  2
ACAD_NAV_VCDISPLAY
 70
     0
  0
APPID
  5
1A86C
330
9
100
AcDbSymbolTableRecord
100
AcDbRegAppTableRecord
  2
ACAD_OBJECT_CHANGE_GUID
 70
     0
  0
APPID
  5
1A95B
330
9
100
AcDbSymbolTableRecord
100
AcDbRegAppTableRecord
  2
ACAECLAYERSTANDARD
 70
     0
  0
ENDTAB
  0
TABLE
  2
DIMSTYLE
  5
A
330
0
100
AcDbSymbolTable
 70
     1
  0
DIMSTYLE
105
48
330
A
100
AcDbSymbolTableRecord
100
AcDbDimStyleTableRecord
  2
NEWX10
 70
     0
  3
 
  4

  5

  6
OPEN30
  7
OPEN30
 40
1.0
 41
2.0
 42
0.0
 43
7.0
 44
1.0
 45
0.0
 46
0.0
 47
0.0
 48
0.0
140
3.5
141
0.0
142
0.0
143
25.4
144
1.0
145
0.0
146
0.7
147
0.7
 71
     0
 72
     0
 73
     0
 74
     0
 75
     0
 76
     0
 77
     1
 78
     8
170
     0
171
     2
172
     1
173
     1
174
     0
175
     0
176
   256
177
   256
178
   201
179
     2
270
     2
271
     2
272
     4
273
     2
274
     2
340
F
275
     0
280
     0
281
     0
282
     0
283
     1
284
     8
285
     0
286
     0
287
     2
288
     0
  0
ENDTAB
  0
TABLE
  2
BLOCK_RECORD
  5
1
330
0
100
AcDbSymbolTable
 70
     8
  0
BLOCK_RECORD
  5
18
102
{ACAD_XDICTIONARY
360
88F
102
}
330
1
100
AcDbSymbolTableRecord
100
AcDbBlockTableRecord
  2
*MODEL_SPACE
  0
BLOCK_RECORD
  5
15
330
1
100
AcDbSymbolTableRecord
100
AcDbBlockTableRecord
  2
*PAPER_SPACE
  0
BLOCK_RECORD
  5
42
330
1
100
AcDbSymbolTableRecord
100
AcDbBlockTableRecord
  2
_OPEN30
  0
BLOCK_RECORD
  5
19D42
330
1
100
AcDbSymbolTableRecord
100
AcDbBlockTableRecord
  2
A3WAKUKAWAJUN2017_HYOUDAI_
  0
BLOCK_RECORD
  5
1B1BB
330
1
100
AcDbSymbolTableRecord
100
AcDbBlockTableRecord
  2
*X146
  0
BLOCK_RECORD
  5
1B209
330
1
100
AcDbSymbolTableRecord
100
AcDbBlockTableRecord
  2
*X147
  0
BLOCK_RECORD
  5
1B25B
330
1
100
AcDbSymbolTableRecord
100
AcDbBlockTableRecord
  2
*X148
  0
BLOCK_RECORD
  5
1B2AC
330
1
100
AcDbSymbolTableRecord
100
AcDbBlockTableRecord
  2
*X149
  0
BLOCK_RECORD
  5
1B2E9
330
1
100
AcDbSymbolTableRecord
100
AcDbBlockTableRecord
  2
*X150
  0
BLOCK_RECORD
  5
1B329
330
1
100
AcDbSymbolTableRecord
100
AcDbBlockTableRecord
  2
*X151
  0
ENDTAB
  0
ENDSEC
  0
SECTION
  2
BLOCKS
  0
BLOCK
  5
19
330
18
100
AcDbEntity
  8
0
100
AcDbBlockBegin
  2
*MODEL_SPACE
 70
     0
 10
0.0
 20
0.0
 30
0.0
  3
*MODEL_SPACE
  1

  0
ENDBLK
  5
1A
330
18
100
AcDbEntity
  8
0
100
AcDbBlockEnd
  0
BLOCK
  5
16
330
15
100
AcDbEntity
 67
     1
  8
0
100
AcDbBlockBegin
  2
*PAPER_SPACE
 70
     0
 10
0.0
 20
0.0
 30
0.0
  3
*PAPER_SPACE
  1

  0
ENDBLK
  5
17
330
15
100
AcDbEntity
 67
     1
  8
0
100
AcDbBlockEnd
  0
BLOCK
  5
43
330
42
100
AcDbEntity
  8
0
100
AcDbBlockBegin
  2
_OPEN30
 70
     0
 10
0.0
 20
0.0
 30
0.0
  3
_OPEN30
  1

  0
LINE
  5
44
330
42
100
AcDbEntity
  8
0
  6
BYBLOCK
 62
     0
100
AcDbLine
 10
-1.0
 20
0.26794919
 30
0.0
 11
0.0
 21
0.0
 31
0.0
  0
LINE
  5
45
330
42
100
AcDbEntity
  8
0
  6
BYBLOCK
 62
     0
100
AcDbLine
 10
0.0
 20
0.0
 30
0.0
 11
-1.0
 21
-0.26794919
 31
0.0
  0
LINE
  5
46
330
42
100
AcDbEntity
  8
0
  6
BYBLOCK
 62
     0
100
AcDbLine
 10
0.0
 20
0.0
 30
0.0
 11
-1.0
 21
0.0
 31
0.0
  0
ENDBLK
  5
47
330
42
100
AcDbEntity
  8
0
100
AcDbBlockEnd
  0
BLOCK
  5
1A550
330
19D42
100
AcDbEntity
  8
0
100
AcDbBlockBegin
  2
A3WAKUKAWAJUN2017_HYOUDAI_
 70
     0
 10
0.0
 20
0.0
 30
0.0
  3
A3WAKUKAWAJUN2017_HYOUDAI_
  1

  0
LINE
  5
19D44
330
19D42
100
AcDbEntity
  8
0
100
AcDbLine
 10
13.26299999998673
 20
-0.0001000000000317
 30
0.0
 11
9.236999999990758
 21
8.999899999990987
 31
0.0
1001
ACAD
1000
ASC_BOUNDS
1002
{
1070
    19
1005
19D85
1002
}
  0
LINE
  5
19D45
330
19D42
100
AcDbEntity
  8
0
100
AcDbLine
 10
5.657999999994331
 20
0.9999999999989768
 30
0.0
 11
9.236999999990758
 21
8.999999999991019
 31
0.0
1001
ACAD
1000
ASC_BOUNDS
1002
{
1070
    19
1005
19D85
1002
}
  0
LINE
  5
19D46
330
19D42
100
AcDbEntity
  8
0
100
AcDbLine
 10
18.59199999998134
 20
-0.2368999999997641
 30
0.0
 11
16.46099999998353
 21
5.432899999994561
 31
0.0
1001
ACAD
1000
ASC_BOUNDS
1002
{
1070
    19
1005
19D86
1002
}
  0
LINE
  5
19D47
330
19D42
100
AcDbEntity
  8
0
100
AcDbLine
 10
18.59199999998134
 20
-0.2368999999997641
 30
0.0
 11
22.38199999997767
 21
8.763099999991255
 31
0.0
1001
ACAD
1000
ASC_BOUNDS
1002
{
1070
    19
1005
19D86
1002
}
  0
LINE
  5
19D48
330
19D42
100
AcDbEntity
  8
0
100
AcDbLine
 10
14.32899999998563
 20
-0.2368999999997641
 30
0.0
 11
16.46099999998353
 21
5.432899999994561
 31
0.0
1001
ACAD
1000
ASC_BOUNDS
1002
{
1070
    19
1005
19D86
1002
}
  0
LINE
  5
19D49
330
19D42
100
AcDbEntity
  8
0
100
AcDbLine
 10
14.32899999998563
 20
-0.2368999999997641
 30
0.0
 11
10.53899999998941
 21
8.763099999991255
 31
0.0
1001
ACAD
1000
ASC_BOUNDS
1002
{
1070
    19
1005
19D86
1002
}
  0
LINE
  5
19D4A
330
19D42
100
AcDbEntity
  8
0
100
AcDbLine
 10
19.53899999998043
 20
-0.0001000000000317
 30
0.0
 11
23.56599999997638
 21
8.999899999990987
 31
0.0
1001
ACAD
1000
ASC_BOUNDS
1002
{
1070
    19
1005
19D87
1002
}
  0
LINE
  5
19D4B
330
19D42
100
AcDbEntity
  8
0
100
AcDbLine
 10
26.97358892824991
 20
1.383099999991202
 30
0.0
 11
23.56599999997638
 21
8.999899999990987
 31
0.0
1001
ACAD
1000
ASC_BOUNDS
1002
{
1070
    19
1005
19D87
1002
}
  0
LINE
  5
19D4C
330
19D42
100
AcDbEntity
  8
0
100
AcDbLine
 10
5.657999999994331
 20
0.9999999999989768
 30
0.0
 11
3.181999999996833
 21
4.668599999995308
 31
0.0
1001
ACAD
1000
ASC_BOUNDS
1002
{
1070
    19
1005
19D85
1002
}
  0
LINE
  5
19D4D
330
19D42
100
AcDbEntity
  8
0
100
AcDbLine
 10
4.617999999995391
 20
-0.0001000000000317
 30
0.0
 11
1.420999999998571
 21
4.736799999995242
 31
0.0
1001
ACAD
1000
ASC_BOUNDS
1002
{
1070
    19
1005
19D85
1002
}
  0
LINE
  5
19D4E
330
19D42
100
AcDbEntity
  8
0
100
AcDbLine
 10
1.420999999998571
 20
8.763099999991255
 30
0.0
 11
1.420999999998571
 21
0.0
 31
0.0
1001
ACAD
1000
ASC_BOUNDS
1002
{
1070
    19
1005
19D8A
1002
}
  0
LINE
  5
19D4F
330
19D42
100
AcDbEntity
  8
0
100
AcDbLine
 10
0.0
 20
8.763099999991255
 30
0.0
 11
0.0
 21
0.0
 31
0.0
1001
ACAD
1000
ASC_BOUNDS
1002
{
1070
    19
1005
19D8A
1002
}
  0
LINE
  5
19D50
330
19D42
100
AcDbEntity
  8
0
100
AcDbLine
 10
6.766999999993232
 20
-0.0001000000000317
 30
0.0
 11
7.826999999992154
 21
2.368399999997621
 31
0.0
1001
ACAD
1000
ASC_BOUNDS
1002
{
1070
    19
1005
19D85
1002
}
  0
LINE
  5
19D51
330
19D42
100
AcDbEntity
  8
0
100
AcDbLine
 10
0.0
 20
0.0
 30
0.0
 11
1.420999999998571
 21
0.0
 31
0.0
1001
ACAD
1000
ASC_BOUNDS
1002
{
1070
    19
1005
19D8A
1002
}
  0
LINE
  5
19D52
330
19D42
100
AcDbEntity
  8
0
100
AcDbLine
 10
4.617999999995391
 20
0.0
 30
0.0
 11
6.766999999993232
 21
0.0
 31
0.0
1001
ACAD
1000
ASC_BOUNDS
1002
{
1070
    19
1005
19D85
1002
}
  0
LINE
  5
19D53
330
19D42
100
AcDbEntity
  8
0
100
AcDbLine
 10
11.70599999998831
 20
-0.0001000000000317
 30
0.0
 11
10.64699999998936
 21
2.368399999997621
 31
0.0
1001
ACAD
1000
ASC_BOUNDS
1002
{
1070
    19
1005
19D85
1002
}
  0
LINE
  5
19D54
330
19D42
100
AcDbEntity
  8
0
100
AcDbLine
 10
7.826999999992154
 20
2.368399999997621
 30
0.0
 11
10.64699999998936
 21
2.368399999997621
 31
0.0
1001
ACAD
1000
ASC_BOUNDS
1002
{
1070
    19
1005
19D85
1002
}
  0
LINE
  5
19D55
330
19D42
100
AcDbEntity
  8
0
100
AcDbLine
 10
11.70599999998831
 20
0.0
 30
0.0
 11
13.26299999998673
 21
0.0
 31
0.0
1001
ACAD
1000
ASC_BOUNDS
1002
{
1070
    19
1005
19D85
1002
}
  0
LINE
  5
19D56
330
19D42
100
AcDbEntity
  8
0
100
AcDbLine
 10
22.15599999997789
 20
2.368399999997621
 30
0.0
 11
24.97599999997499
 21
2.368399999997621
 31
0.0
1001
ACAD
1000
ASC_BOUNDS
1002
{
1070
    19
1005
19D87
1002
}
  0
LINE
  5
19D57
330
19D42
100
AcDbEntity
  8
0
100
AcDbLine
 10
19.53899999998043
 20
0.0
 30
0.0
 11
21.09599999997886
 21
0.0
 31
0.0
1001
ACAD
1000
ASC_BOUNDS
1002
{
1070
    19
1005
19D87
1002
}
  0
LINE
  5
19D58
330
19D42
100
AcDbEntity
  8
0
100
AcDbLine
 10
21.09599999997886
 20
-0.0001000000000317
 30
0.0
 11
22.15599999997789
 21
2.368399999997621
 31
0.0
1001
ACAD
1000
ASC_BOUNDS
1002
{
1070
    19
1005
19D87
1002
}
  0
LINE
  5
19D59
330
19D42
100
AcDbEntity
  8
0
100
AcDbLine
 10
26.02015566812236
 20
0.0330999999912365
 30
0.0
 11
24.97599999997499
 21
2.368399999997621
 31
0.0
1001
ACAD
1000
ASC_BOUNDS
1002
{
1070
    19
1005
19D87
1002
}
  0
LINE
  5
19D5A
330
19D42
100
AcDbEntity
  8
0
100
AcDbLine
 10
14.32399999998563
 20
3.315799999996671
 30
0.0
 11
16.46099999998353
 21
8.999899999990987
 31
0.0
1001
ACAD
1000
ASC_BOUNDS
1002
{
1070
    19
1005
19D86
1002
}
  0
LINE
  5
19D5B
330
19D42
100
AcDbEntity
  8
0
100
AcDbLine
 10
6.432999999993513
 20
8.763099999991255
 30
0.0
 11
3.181999999996833
 21
4.668599999995308
 31
0.0
1001
ACAD
1000
ASC_BOUNDS
1002
{
1070
    19
1005
19D85
1002
}
  0
LINE
  5
19D5C
330
19D42
100
AcDbEntity
  8
0
100
AcDbLine
 10
4.617999999995391
 20
8.763099999991255
 30
0.0
 11
1.420999999998571
 21
4.736799999995242
 31
0.0
1001
ACAD
1000
ASC_BOUNDS
1002
{
1070
    19
1005
19D85
1002
}
  0
LINE
  5
19D5D
330
19D42
100
AcDbEntity
  8
0
100
AcDbLine
 10
0.0
 20
8.763099999991255
 30
0.0
 11
1.420999999998571
 21
8.763099999991255
 31
0.0
1001
ACAD
1000
ASC_BOUNDS
1002
{
1070
    19
1005
19D8A
1002
}
  0
LINE
  5
19D5E
330
19D42
100
AcDbEntity
  8
0
100
AcDbLine
 10
4.617999999995391
 20
8.763099999991255
 30
0.0
 11
6.432999999993513
 21
8.763099999991255
 31
0.0
1001
ACAD
1000
ASC_BOUNDS
1002
{
1070
    19
1005
19D85
1002
}
  0
LINE
  5
19D5F
330
19D42
100
AcDbEntity
  8
0
100
AcDbLine
 10
14.32399999998563
 20
3.315799999996671
 30
0.0
 11
12.02999999998792
 21
8.763099999991255
 31
0.0
1001
ACAD
1000
ASC_BOUNDS
1002
{
1070
    19
1005
19D86
1002
}
  0
LINE
  5
19D60
330
19D42
100
AcDbEntity
  8
0
100
AcDbLine
 10
10.06399999998996
 20
3.670999999996297
 30
0.0
 11
9.236999999990758
 21
5.5200999999945
 31
0.0
1001
ACAD
1000
ASC_BOUNDS
1002
{
1070
    19
1005
19D85
1002
}
  0
LINE
  5
19D61
330
19D42
100
AcDbEntity
  8
0
100
AcDbLine
 10
8.409999999991555
 20
3.670999999996297
 30
0.0
 11
9.236999999990758
 21
5.5200999999945
 31
0.0
1001
ACAD
1000
ASC_BOUNDS
1002
{
1070
    19
1005
19D85
1002
}
  0
LINE
  5
19D62
330
19D42
100
AcDbEntity
  8
0
100
AcDbLine
 10
8.409999999991555
 20
3.670999999996297
 30
0.0
 11
10.06399999998996
 21
3.670999999996297
 31
0.0
1001
ACAD
1000
ASC_BOUNDS
1002
{
1070
    19
1005
19D85
1002
}
  0
LINE
  5
19D63
330
19D42
100
AcDbEntity
  8
0
100
AcDbLine
 10
10.53899999998941
 20
8.763099999991255
 30
0.0
 11
12.02999999998792
 21
8.763099999991255
 31
0.0
1001
ACAD
1000
ASC_BOUNDS
1002
{
1070
    19
1005
19D86
1002
}
  0
LINE
  5
19D64
330
19D42
100
AcDbEntity
  8
0
100
AcDbLine
 10
22.7389999999773
 20
3.670999999996297
 30
0.0
 11
23.56599999997638
 21
5.5200999999945
 31
0.0
1001
ACAD
1000
ASC_BOUNDS
1002
{
1070
    19
1005
19D87
1002
}
  0
LINE
  5
19D65
330
19D42
100
AcDbEntity
  8
0
100
AcDbLine
 10
22.7389999999773
 20
3.670999999996297
 30
0.0
 11
24.39299999997559
 21
3.670999999996297
 31
0.0
1001
ACAD
1000
ASC_BOUNDS
1002
{
1070
    19
1005
19D87
1002
}
  0
LINE
  5
19D66
330
19D42
100
AcDbEntity
  8
0
100
AcDbLine
 10
18.59799999998143
 20
3.315799999996671
 30
0.0
 11
20.89099999997916
 21
8.763099999991255
 31
0.0
1001
ACAD
1000
ASC_BOUNDS
1002
{
1070
    19
1005
19D86
1002
}
  0
LINE
  5
19D67
330
19D42
100
AcDbEntity
  8
0
100
AcDbLine
 10
18.59799999998143
 20
3.315799999996671
 30
0.0
 11
16.46099999998353
 21
8.999899999990987
 31
0.0
1001
ACAD
1000
ASC_BOUNDS
1002
{
1070
    19
1005
19D86
1002
}
  0
LINE
  5
19D68
330
19D42
100
AcDbEntity
  8
0
100
AcDbLine
 10
20.89099999997916
 20
8.763099999991255
 30
0.0
 11
22.38199999997767
 21
8.763099999991255
 31
0.0
1001
ACAD
1000
ASC_BOUNDS
1002
{
1070
    19
1005
19D86
1002
}
  0
LINE
  5
19D69
330
19D42
100
AcDbEntity
  8
0
100
AcDbLine
 10
24.39299999997559
 20
3.670999999996297
 30
0.0
 11
23.56599999997638
 21
5.5200999999945
 31
0.0
1001
ACAD
1000
ASC_BOUNDS
1002
{
1070
    19
1005
19D87
1002
}
  0
LINE
  5
19D6A
330
19D42
100
AcDbEntity
  8
0
100
AcDbLine
 10
44.99999999995498
 20
-0.2368999999997641
 30
0.0
 11
40.02599999995994
 21
5.341799999994635
 31
0.0
1001
ACAD
1000
ASC_BOUNDS
1002
{
1070
    19
1005
19D89
1002
}
  0
LINE
  5
19D6B
330
19D42
100
AcDbEntity
  8
0
100
AcDbLine
 10
40.02599999995994
 20
5.341799999994635
 30
0.0
 11
40.02599999995994
 21
0.0
 31
0.0
1001
ACAD
1000
ASC_BOUNDS
1002
{
1070
    19
1005
19D89
1002
}
  0
LINE
  5
19D6C
330
19D42
100
AcDbEntity
  8
0
100
AcDbLine
 10
38.60499999996136
 20
8.999999999991019
 30
0.0
 11
38.60499999996136
 21
0.0
 31
0.0
1001
ACAD
1000
ASC_BOUNDS
1002
{
1070
    19
1005
19D89
1002
}
  0
LINE
  5
19D6D
330
19D42
100
AcDbEntity
  8
0
100
AcDbLine
 10
44.99999999995498
 20
8.763099999991255
 30
0.0
 11
44.99999999995498
 21
-0.2368999999997641
 31
0.0
1001
ACAD
1000
ASC_BOUNDS
1002
{
1070
    19
1005
19D89
1002
}
  0
LINE
  5
19D6E
330
19D42
100
AcDbEntity
  8
0
100
AcDbLine
 10
38.60499999996136
 20
0.0
 30
0.0
 11
40.02599999995994
 21
0.0
 31
0.0
1001
ACAD
1000
ASC_BOUNDS
1002
{
1070
    19
1005
19D89
1002
}
  0
LINE
  5
19D6F
330
19D42
100
AcDbEntity
  8
0
100
AcDbLine
 10
43.57899999995641
 20
3.421199999996588
 30
0.0
 11
38.60499999996136
 21
8.999899999990987
 31
0.0
1001
ACAD
1000
ASC_BOUNDS
1002
{
1070
    19
1005
19D89
1002
}
  0
LINE
  5
19D70
330
19D42
100
AcDbEntity
  8
0
100
AcDbLine
 10
43.57899999995641
 20
8.763099999991255
 30
0.0
 11
43.57899999995641
 21
3.421199999996588
 31
0.0
1001
ACAD
1000
ASC_BOUNDS
1002
{
1070
    19
1005
19D89
1002
}
  0
LINE
  5
19D71
330
19D42
100
AcDbEntity
  8
0
100
AcDbLine
 10
43.57899999995641
 20
8.763099999991255
 30
0.0
 11
44.99999999995498
 21
8.763099999991255
 31
0.0
1001
ACAD
1000
ASC_BOUNDS
1002
{
1070
    19
1005
19D89
1002
}
  0
LINE
  5
19D72
330
19D42
100
AcDbEntity
  8
0
100
AcDbLine
 10
37.67199999996831
 20
8.763099999991255
 30
0.0
 11
36.23199999996837
 21
8.763099999991255
 31
0.0
  0
LINE
  5
19D73
330
19D42
100
AcDbEntity
  8
0
100
AcDbLine
 10
31.64199999996833
 20
8.763099999991255
 30
0.0
 11
31.64199999996833
 21
2.481619422925121
 31
0.0
  0
LINE
  5
19D74
330
19D42
100
AcDbEntity
  8
0
100
AcDbLine
 10
37.67199999996831
 20
8.763099999991255
 30
0.0
 11
37.67199999996831
 21
2.481619422925121
 31
0.0
  0
LINE
  5
19D75
330
19D42
100
AcDbEntity
  8
0
100
AcDbLine
 10
36.23199999996837
 20
8.763099999991255
 30
0.0
 11
36.23199999996837
 21
2.481619422925064
 31
0.0
  0
LINE
  5
19D76
330
19D42
100
AcDbEntity
  8
0
100
AcDbLine
 10
33.08199999996839
 20
8.763099999991255
 30
0.0
 11
33.08199999996839
 21
2.481619422925121
 31
0.0
  0
ARC
  5
19D77
330
19D42
100
AcDbEntity
  8
0
100
AcDbCircle
 10
34.65699999996832
 20
3.183099999991214
 30
0.0
 40
3.420000000000007
100
AcDbArc
 50
240.0000000000255
 51
299.9999999999766
  0
ARC
  5
19D78
330
19D42
100
AcDbEntity
  8
0
100
AcDbCircle
 10
34.65699999996832
 20
3.183099999991214
 30
0.0
 40
1.97999999999999
100
AcDbArc
 50
240.000000000026
 51
299.9999999999703
  0
LINE
  5
19D79
330
19D42
100
AcDbEntity
  8
0
100
AcDbLine
 10
33.08199999996828
 20
8.763099999991255
 30
0.0
 11
31.64199999996833
 21
8.763099999991255
 31
0.0
  0
ARC
  5
19D7A
330
19D42
100
AcDbEntity
  8
0
100
AcDbCircle
 10
35.06199999996829
 20
2.481619422925064
 30
0.0
 40
1.17
100
AcDbArc
 50
299.9999999999699
 51
0.0
  0
ARC
  5
19D7B
330
19D42
100
AcDbEntity
  8
0
100
AcDbCircle
 10
34.25199999996835
 20
2.481619422925121
 30
0.0
 40
1.17
100
AcDbArc
 50
180.0
 51
240.0000000000238
  0
ARC
  5
19D7C
330
19D42
100
AcDbEntity
  8
0
100
AcDbCircle
 10
35.06199999996841
 20
2.481619422925121
 30
0.0
 40
2.61
100
AcDbArc
 50
299.9999999999756
 51
0.0
  0
ARC
  5
19D7D
330
19D42
100
AcDbEntity
  8
0
100
AcDbCircle
 10
34.25199999996835
 20
2.481619422925121
 30
0.0
 40
2.61
100
AcDbArc
 50
180.0
 51
240.0000000000244
  0
LINE
  5
19D7E
330
19D42
100
AcDbEntity
  8
0
100
AcDbLine
 10
29.30199999996933
 20
8.763099999991255
 30
0.0
 11
30.74199999996927
 21
8.763099999991255
 31
0.0
1001
ACAD
1000
ASC_BOUNDS
1002
{
1070
    19
1005
19D87
1002
}
  0
LINE
  5
19D7F
330
19D42
100
AcDbEntity
  8
0
100
AcDbLine
 10
30.74199999996927
 20
8.763099999991255
 30
0.0
 11
30.74199999996927
 21
2.373099999991211
 31
0.0
1001
ACAD
1000
ASC_BOUNDS
1002
{
1070
    19
1005
19D87
1002
}
  0
LINE
  5
19D80
330
19D42
100
AcDbEntity
  8
0
100
AcDbLine
 10
26.02015566812236
 20
0.0330999999912365
 30
0.0
 11
28.40199999996923
 21
0.0330999999912365
 31
0.0
1001
ACAD
1000
ASC_BOUNDS
1002
{
1070
    19
1005
19D87
1002
}
  0
LINE
  5
19D81
330
19D42
100
AcDbEntity
  8
0
100
AcDbLine
 10
29.30199999996933
 20
8.763099999991255
 30
0.0
 11
29.30199999996933
 21
2.283099999991236
 31
0.0
1001
ACAD
1000
ASC_BOUNDS
1002
{
1070
    19
1005
19D87
1002
}
  0
LINE
  5
19D82
330
19D42
100
AcDbEntity
  8
0
100
AcDbLine
 10
26.97358892824991
 20
1.383099999991202
 30
0.0
 11
28.40199999996923
 21
1.383099999991202
 31
0.0
1001
ACAD
1000
ASC_BOUNDS
1002
{
1070
    19
1005
19D87
1002
}
  0
ARC
  5
19D83
330
19D42
100
AcDbEntity
  8
0
100
AcDbCircle
 10
28.40199999996923
 20
2.283099999991236
 30
0.0
 40
0.9
100
AcDbArc
 50
270.0
 51
0.0
1001
ACAD
1000
ASC_BOUNDS
1002
{
1070
    19
1005
19D87
1002
}
  0
ARC
  5
19D84
330
19D42
100
AcDbEntity
  8
0
100
AcDbCircle
 10
28.40199999996923
 20
2.373099999991211
 30
0.0
 40
2.34
100
AcDbArc
 50
270.0
 51
0.0
1001
ACAD
1000
ASC_BOUNDS
1002
{
1070
    19
1005
19D87
1002
}
  0
INSERT
  5
19D85
330
19D42
100
AcDbEntity
  8
0
100
AcDbBlockReference
  2
*X146
 10
0.0
 20
0.0
 30
0.0
1001
ACAD
1000
HATCH
1002
{
1070
    19
1000
ANSI37
1040
0.15
1040
0.0
1000
ASC_BOUNDS
1070
     2
1070
     2
1070
    12
1005
19D44
1005
19D45
1005
19D4C
1005
19D5B
1005
19D5E
1005
19D5C
1005
19D4D
1005
19D52
1005
19D50
1005
19D54
1005
19D53
1005
19D55
1070
     2
1070
     3
1005
19D60
1005
19D62
1005
19D61
1000
ASC_SEEDPOINT
1011
3.614004224891801
1021
2.996669441146025
1031
0.0
1000
R14_HATCH_DATA
1000
19D85
1011
1.0
1021
0.0
1031
0.0
1011
0.0
1021
1.0
1031
0.0
1011
0.0
1021
0.0
1031
1.0
1040
0.0
1010
0.0
1020
0.0
1030
1.0
1000
ANSI37
1070
     0
1070
     1
1071
        2
1071
        7
1070
     0
1070
     1
1071
       17
1040
13.26299999998673
1040
-0.0001000000000317
1040
9.236999999990758
1040
8.999899999990987
1040
9.236999999990758
1040
8.999999999991019
1040
5.657999999994331
1040
0.9999999999989768
1040
3.181999999996833
1040
4.668599999995308
1040
6.432999999993513
1040
8.763099999991255
1040
4.617999999995391
1040
8.763099999991255
1040
1.420999999998571
1040
4.736799999995242
1040
4.617999999995391
1040
-0.0001000000000317
1040
4.617999999995391
1040
0.0
1040
6.766999999993232
1040
0.0
1040
6.766999999993232
1040
-0.0001000000000317
1040
7.826999999992154
1040
2.368399999997621
1040
10.64699999998936
1040
2.368399999997621
1040
11.70599999998831
1040
-0.0001000000000317
1040
11.70599999998831
1040
0.0
1040
13.26299999998673
1040
0.0
1071
       12
1005
19D44
1005
19D45
1005
19D4C
1005
19D5B
1005
19D5E
1005
19D5C
1005
19D4D
1005
19D52
1005
19D50
1005
19D54
1005
19D53
1005
19D55
1071
       22
1070
     0
1070
     1
1071
        3
1040
9.236999999990758
1040
5.5200999999945
1040
10.06399999998996
1040
3.670999999996297
1040
8.409999999991555
1040
3.670999999996297
1071
        3
1005
19D60
1005
19D62
1005
19D61
1070
     0
1070
     1
1040
0.0
1040
0.15
1070
     0
1070
     2
1040
0.7853981633974483
1040
49.29960901727088
1040
-10.17736998311392
1040
-0.3367596045400932
1040
0.3367596045400932
1070
     0
1040
2.356194490192345
1040
49.29960901727088
1040
-10.17736998311392
1040
-0.3367596045400932
1040
-0.3367596045400932
1070
     0
1040
0.0110235143455945
1071
        2
1040
3.614004224891801
1040
2.996669441146025
1040
0.0
1040
3.614004224891801
1040
2.996669441146025
1040
0.0
1002
}
  0
INSERT
  5
19D86
330
19D42
100
AcDbEntity
  8
0
100
AcDbBlockReference
  2
*X147
 10
0.0
 20
0.0
 30
0.0
1001
ACAD
1000
HATCH
1002
{
1070
    19
1000
ANSI37
1040
0.15
1040
0.0
1000
ASC_BOUNDS
1070
     1
1070
     2
1070
    10
1005
19D46
1005
19D47
1005
19D68
1005
19D66
1005
19D67
1005
19D5A
1005
19D5F
1005
19D63
1005
19D49
1005
19D48
1000
ASC_SEEDPOINT
1011
14.73245321214324
1021
2.798246178283421
1031
0.0
1000
R14_HATCH_DATA
1000
19D86
1011
1.0
1021
0.0
1031
0.0
1011
0.0
1021
1.0
1031
0.0
1011
0.0
1021
0.0
1031
1.0
1040
0.0
1010
0.0
1020
0.0
1030
1.0
1000
ANSI37
1070
     0
1070
     1
1071
        1
1071
        7
1070
     0
1070
     1
1071
       10
1040
16.46099999998353
1040
5.432899999994561
1040
18.59199999998134
1040
-0.2368999999997641
1040
22.38199999997767
1040
8.763099999991255
1040
20.89099999997916
1040
8.763099999991255
1040
18.59799999998143
1040
3.315799999996671
1040
16.46099999998353
1040
8.999899999990987
1040
14.32399999998563
1040
3.315799999996671
1040
12.02999999998792
1040
8.763099999991255
1040
10.53899999998941
1040
8.763099999991255
1040
14.32899999998563
1040
-0.2368999999997641
1071
       10
1005
19D46
1005
19D47
1005
19D68
1005
19D66
1005
19D67
1005
19D5A
1005
19D5F
1005
19D63
1005
19D49
1005
19D48
1070
     0
1070
     1
1040
0.0
1040
0.15
1070
     0
1070
     2
1040
0.7853981633974483
1040
49.29960901727088
1040
-10.17736998311392
1040
-0.3367596045400932
1040
0.3367596045400932
1070
     0
1040
2.356194490192345
1040
49.29960901727088
1040
-10.17736998311392
1040
-0.3367596045400932
1040
-0.3367596045400932
1070
     0
1040
0.0110235143455945
1071
        1
1040
14.73245321214324
1040
2.798246178283421
1040
0.0
1002
}
  0
INSERT
  5
19D87
330
19D42
100
AcDbEntity
  8
0
100
AcDbBlockReference
  2
*X148
 10
0.0
 20
0.0
 30
0.0
1001
ACAD
1000
HATCH
1002
{
1070
    19
1000
ANSI37
1040
0.15
1040
0.0
1000
ASC_BOUNDS
1070
     2
1070
     2
1070
    13
1005
19D4A
1005
19D57
1005
19D58
1005
19D56
1005
19D59
1005
19D80
1005
19D84
1005
19D7F
1005
19D7E
1005
19D81
1005
19D83
1005
19D82
1005
19D4B
1070
     2
1070
     3
1005
19D64
1005
19D69
1005
19D65
1000
ASC_SEEDPOINT
1011
21.97929957367762
1021
3.294304244259308
1031
0.0
1000
R14_HATCH_DATA
1000
19D87
1011
1.0
1021
0.0
1031
0.0
1011
0.0
1021
1.0
1031
0.0
1011
0.0
1021
0.0
1031
1.0
1040
0.0
1010
0.0
1020
0.0
1030
1.0
1000
ANSI37
1070
     0
1070
     1
1071
        2
1071
        7
1070
     1
1070
     1
1071
       15
1040
23.56599999997638
1040
8.999899999990987
1040
0.0
1040
19.53899999998043
1040
-0.0001000000000317
1040
0.0
1040
19.53899999998043
1040
0.0
1040
0.0
1040
21.09599999997886
1040
0.0
1040
0.0
1040
21.09599999997886
1040
-0.0001000000000317
1040
0.0
1040
22.15599999997789
1040
2.368399999997621
1040
0.0
1040
24.97599999997499
1040
2.368399999997621
1040
0.0
1040
26.02015566812236
1040
0.0330999999912365
1040
0.0
1040
28.40199999996923
1040
0.0330999999912365
1040
0.414213562373095
1040
30.74199999996923
1040
2.373099999991211
1040
0.0
1040
30.74199999996927
1040
8.763099999991255
1040
0.0
1040
29.30199999996933
1040
8.763099999991255
1040
0.0
1040
29.30199999996933
1040
2.283099999991236
1040
-0.414213562373095
1040
28.40199999996923
1040
1.383099999991237
1040
0.0
1040
26.97358892824991
1040
1.383099999991202
1040
0.0
1071
       13
1005
19D4A
1005
19D57
1005
19D58
1005
19D56
1005
19D59
1005
19D80
1005
19D84
1005
19D7F
1005
19D7E
1005
19D81
1005
19D83
1005
19D82
1005
19D4B
1071
       22
1070
     0
1070
     1
1071
        3
1040
22.7389999999773
1040
3.670999999996297
1040
23.56599999997638
1040
5.5200999999945
1040
24.39299999997559
1040
3.670999999996297
1071
        3
1005
19D64
1005
19D69
1005
19D65
1070
     0
1070
     1
1040
0.0
1040
0.15
1070
     0
1070
     2
1040
0.7853981633974483
1040
49.29960901727088
1040
-10.17736998311392
1040
-0.3367596045400932
1040
0.3367596045400932
1070
     0
1040
2.356194490192345
1040
49.29960901727088
1040
-10.17736998311392
1040
-0.3367596045400932
1040
-0.3367596045400932
1070
     0
1040
0.0110235143455945
1071
        2
1040
21.97929957367762
1040
3.294304244259308
1040
0.0
1040
21.97929957367762
1040
3.294304244259308
1040
0.0
1002
}
  0
INSERT
  5
19D88
330
19D42
100
AcDbEntity
  8
0
100
AcDbBlockReference
  2
*X149
 10
0.0
 20
0.0
 30
0.0
1001
ACAD
1000
HATCH
1002
{
1070
    19
1000
ANSI37
1040
0.15
1040
0.0
1000
R14_HATCH_DATA
1000
19D88
1011
1.0
1021
0.0
1031
0.0
1011
0.0
1021
1.0
1031
0.0
1011
0.0
1021
0.0
1031
1.0
1040
0.0
1010
0.0
1020
0.0
1030
1.0
1000
ANSI37
1070
     0
1070
     1
1071
        1
1071
        7
1070
     1
1070
     1
1071
       12
1040
31.64199999996833
1040
2.481619422925121
1040
0.2679491924310942
1040
32.94699999997067
1040
0.2212931190493919
1040
0.2679491924301353
1040
36.36699999995983
1040
0.2212931190459813
1040
0.2679491924321411
1040
37.67199999996831
1040
2.481619422928361
1040
0.0
1040
37.67199999996831
1040
8.763099999991255
1040
0.0
1040
36.23199999996837
1040
8.763099999991255
1040
0.0
1040
36.23199999996837
1040
2.481619422925064
1040
-0.2679491924310291
1040
35.64699999996708
1040
1.468369700498386
1040
-0.267949192430519
1040
33.66699999997093
1040
1.468369700497703
1040
-0.267949192431809
1040
33.08199999996839
1040
2.481619422926997
1040
0.0
1040
33.08199999996839
1040
8.763099999991255
1040
0.0
1040
31.64199999996833
1040
8.763099999991255
1040
0.0
1071
        0
1070
     0
1070
     1
1040
0.0
1040
0.15
1070
     0
1070
     2
1040
0.7853981633974483
1040
49.29960901727088
1040
-10.17736998311392
1040
-0.3367596045400932
1040
0.3367596045400932
1070
     0
1040
2.356194490192345
1040
49.29960901727088
1040
-10.17736998311392
1040
-0.3367596045400932
1040
-0.3367596045400932
1070
     0
1040
0.0110235143455945
1071
        1
1040
32.30357378967278
1040
3.988785755459219
1040
0.0
1002
}
  0
INSERT
  5
19D89
330
19D42
100
AcDbEntity
  8
0
100
AcDbBlockReference
  2
*X150
 10
0.0
 20
0.0
 30
0.0
1001
ACAD
1000
HATCH
1002
{
1070
    19
1000
ANSI37
1040
0.15
1040
0.0
1000
ASC_BOUNDS
1070
     1
1070
     2
1070
     8
1005
19D6A
1005
19D6D
1005
19D71
1005
19D70
1005
19D6F
1005
19D6C
1005
19D6E
1005
19D6B
1000
ASC_SEEDPOINT
1011
39.74896370716704
1021
4.484843821435049
1031
0.0
1000
R14_HATCH_DATA
1000
19D89
1011
1.0
1021
0.0
1031
0.0
1011
0.0
1021
1.0
1031
0.0
1011
0.0
1021
0.0
1031
1.0
1040
0.0
1010
0.0
1020
0.0
1030
1.0
1000
ANSI37
1070
     0
1070
     1
1071
        1
1071
        7
1070
     0
1070
     1
1071
        9
1040
40.02599999995994
1040
5.341799999994635
1040
44.99999999995498
1040
-0.2368999999997641
1040
44.99999999995498
1040
8.763099999991255
1040
43.57899999995641
1040
8.763099999991255
1040
43.57899999995641
1040
3.421199999996588
1040
38.60499999996136
1040
8.999899999990987
1040
38.60499999996136
1040
8.999999999991019
1040
38.60499999996136
1040
0.0
1040
40.02599999995994
1040
0.0
1071
        8
1005
19D6A
1005
19D6D
1005
19D71
1005
19D70
1005
19D6F
1005
19D6C
1005
19D6E
1005
19D6B
1070
     0
1070
     1
1040
0.0
1040
0.15
1070
     0
1070
     2
1040
0.7853981633974483
1040
49.29960901727088
1040
-10.17736998311392
1040
-0.3367596045400932
1040
0.3367596045400932
1070
     0
1040
2.356194490192345
1040
49.29960901727088
1040
-10.17736998311392
1040
-0.3367596045400932
1040
-0.3367596045400932
1070
     0
1040
0.0110235143455945
1071
        1
1040
39.74896370716704
1040
4.484843821435049
1040
0.0
1002
}
  0
INSERT
  5
19D8A
330
19D42
100
AcDbEntity
  8
0
100
AcDbBlockReference
  2
*X151
 10
0.0
 20
0.0
 30
0.0
1001
ACAD
1000
HATCH
1002
{
1070
    19
1000
ANSI37
1040
0.15
1040
0.0
1000
ASC_BOUNDS
1070
     1
1070
     2
1070
     4
1005
19D4E
1005
19D5D
1005
19D4F
1005
19D51
1000
ASC_SEEDPOINT
1011
1.079051535452663
1021
4.148538732891836
1031
0.0
1000
R14_HATCH_DATA
1000
19D8A
1011
1.0
1021
0.0
1031
0.0
1011
0.0
1021
1.0
1031
0.0
1011
0.0
1021
0.0
1031
1.0
1040
0.0
1010
0.0
1020
0.0
1030
1.0
1000
ANSI37
1070
     0
1070
     1
1071
        1
1071
        7
1070
     0
1070
     1
1071
        4
1040
1.420999999998571
1040
0.0
1040
1.420999999998571
1040
8.763099999991255
1040
0.0
1040
8.763099999991255
1040
0.0
1040
0.0
1071
        4
1005
19D4E
1005
19D5D
1005
19D4F
1005
19D51
1070
     0
1070
     1
1040
0.0
1040
0.15
1070
     0
1070
     2
1040
0.7853981633974483
1040
49.29960901727088
1040
-10.17736998311392
1040
-0.3367596045400932
1040
0.3367596045400932
1070
     0
1040
2.356194490192345
1040
49.29960901727088
1040
-10.17736998311392
1040
-0.3367596045400932
1040
-0.3367596045400932
1070
     0
1040
0.0053004257112761
1071
        1
1040
1.079051535452663
1040
4.148538732891836
1040
0.0
1002
}
  0
ENDBLK
  5
1A551
330
19D42
100
AcDbEntity
  8
0
100
AcDbBlockEnd
  0
BLOCK
  5
1B349
330
1B1BB
100
AcDbEntity
  8
0
100
AcDbBlockBegin
  2
*X146
 70
     1
 10
0.0
 20
0.0
 30
0.0
  3
*X146
  1

  0
LINE
  5
1B1BC
330
1B1BB
100
AcDbEntity
  8
0
  6
CONTINUOUS
100
AcDbLine
 10
3.418023043697893
 20
7.251849696850613
 30
0.0
 11
4.929273346838536
 21
8.763099999991255
 31
0.0
  0
LINE
  5
1B1BD
330
1B1BB
100
AcDbEntity
  8
0
  6
CONTINUOUS
100
AcDbLine
 10
1.483656411257782
 20
4.643963855330318
 30
0.0
 11
5.60279255591872
 21
8.763099999991255
 31
0.0
  0
LINE
  5
1B1BE
330
1B1BB
100
AcDbEntity
  8
0
  6
CONTINUOUS
100
AcDbLine
 10
1.755053947328235
 20
4.241842182320584
 30
0.0
 11
6.276311764998907
 21
8.763099999991255
 31
0.0
  0
LINE
  5
1B1BF
330
1B1BB
100
AcDbEntity
  8
0
  6
CONTINUOUS
100
AcDbLine
 10
2.026451483398688
 20
3.839720509310849
 30
0.0
 11
4.441040904851878
 21
6.254309930764039
 31
0.0
  0
LINE
  5
1B1C0
330
1B1BB
100
AcDbEntity
  8
0
  6
CONTINUOUS
100
AcDbLine
 10
2.297849019469139
 20
3.437598836301114
 30
0.0
 11
3.321765168359338
 21
4.461514985191313
 31
0.0
  0
LINE
  5
1B1C1
330
1B1BB
100
AcDbEntity
  8
0
  6
CONTINUOUS
100
AcDbLine
 10
2.569246555539591
 20
3.03547716329138
 30
0.0
 11
3.593163397972743
 21
4.059394005724531
 31
0.0
  0
LINE
  5
1B1C2
330
1B1BB
100
AcDbEntity
  8
0
  6
CONTINUOUS
100
AcDbLine
 10
2.840644091610043
 20
2.633355490281646
 30
0.0
 11
3.864561627586149
 21
3.657273026257751
 31
0.0
  0
LINE
  5
1B1C3
330
1B1BB
100
AcDbEntity
  8
0
  6
CONTINUOUS
100
AcDbLine
 10
3.112041627680496
 20
2.231233817271911
 30
0.0
 11
4.135959857199554
 21
3.25515204679097
 31
0.0
  0
LINE
  5
1B1C4
330
1B1BB
100
AcDbEntity
  8
0
  6
CONTINUOUS
100
AcDbLine
 10
3.383439163750948
 20
1.829112144262177
 30
0.0
 11
4.40735808681296
 21
2.853031067324189
 31
0.0
  0
LINE
  5
1B1C5
330
1B1BB
100
AcDbEntity
  8
0
  6
CONTINUOUS
100
AcDbLine
 10
3.654836699821399
 20
1.426990471252442
 30
0.0
 11
4.678756316426365
 21
2.450910087857407
 31
0.0
  0
LINE
  5
1B1C6
330
1B1BB
100
AcDbEntity
  8
0
  6
CONTINUOUS
100
AcDbLine
 10
3.926234235891853
 20
1.024868798242709
 30
0.0
 11
4.95015454603977
 21
2.048789108390626
 31
0.0
  0
LINE
  5
1B1C7
330
1B1BB
100
AcDbEntity
  8
0
  6
CONTINUOUS
100
AcDbLine
 10
4.197631771962304
 20
0.6227471252329737
 30
0.0
 11
5.221552775653176
 21
1.646668128923846
 31
0.0
  0
LINE
  5
1B1C8
330
1B1BB
100
AcDbEntity
  8
0
  6
CONTINUOUS
100
AcDbLine
 10
8.715877546767851
 20
7.835069736359266
 30
0.0
 11
9.435953450375058
 21
8.555145639966472
 31
0.0
  0
LINE
  5
1B1C9
330
1B1BB
100
AcDbEntity
  8
0
  6
CONTINUOUS
100
AcDbLine
 10
8.170620868422267
 20
6.616293848933497
 30
0.0
 11
9.644120833743461
 21
8.08979381425469
 31
0.0
  0
LINE
  5
1B1CA
330
1B1BB
100
AcDbEntity
  8
0
  6
CONTINUOUS
100
AcDbLine
 10
7.625364190076684
 20
5.397517961507727
 30
0.0
 11
9.852288217111864
 21
7.624441988542907
 31
0.0
  0
LINE
  5
1B1CB
330
1B1BB
100
AcDbEntity
  8
0
  6
CONTINUOUS
100
AcDbLine
 10
7.080107511731101
 20
4.178742074081957
 30
0.0
 11
10.06045560048027
 21
7.159090162831124
 31
0.0
  0
LINE
  5
1B1CC
330
1B1BB
100
AcDbEntity
  8
0
  6
CONTINUOUS
100
AcDbLine
 10
6.534850833385518
 20
2.959966186656187
 30
0.0
 11
10.26862298384867
 21
6.693738337119342
 31
0.0
  0
LINE
  5
1B1CD
330
1B1BB
100
AcDbEntity
  8
0
  6
CONTINUOUS
100
AcDbLine
 10
4.469029308032756
 20
0.2206254522232385
 30
0.0
 11
5.492951005266582
 21
1.244547149457064
 31
0.0
  0
LINE
  5
1B1CE
330
1B1BB
100
AcDbEntity
  8
0
  6
CONTINUOUS
100
AcDbLine
 10
5.989594155039935
 20
1.741190299230417
 30
0.0
 11
8.806950407233131
 21
4.558546551423613
 31
0.0
  0
LINE
  5
1B1CF
330
1B1BB
100
AcDbEntity
  8
0
  6
CONTINUOUS
100
AcDbLine
 10
9.401251593263643
 20
5.152847737454126
 30
0.0
 11
10.47679036721708
 21
6.228386511407559
 31
0.0
  0
LINE
  5
1B1D0
330
1B1BB
100
AcDbEntity
  8
0
  6
CONTINUOUS
100
AcDbLine
 10
4.921837203428691
 20
-0.0000858614610131
 30
0.0
 11
8.592923064886001
 21
3.670999999996297
 31
0.0
  0
LINE
  5
1B1D1
330
1B1BB
100
AcDbEntity
  8
0
  6
CONTINUOUS
100
AcDbLine
 10
9.609390446785305
 20
4.6874673818956
 30
0.0
 11
10.68495775058548
 21
5.763034685695775
 31
0.0
  0
LINE
  5
1B1D2
330
1B1BB
100
AcDbEntity
  8
0
  6
CONTINUOUS
100
AcDbLine
 10
5.595387755019432
 20
-0.0000545189504582
 30
0.0
 11
7.716137258923768
 21
2.120694984953879
 31
0.0
  0
LINE
  5
1B1D3
330
1B1BB
100
AcDbEntity
  8
0
  6
CONTINUOUS
100
AcDbLine
 10
6.268938306610172
 20
-0.000023176439905
 30
0.0
 11
7.170485805526503
 21
0.9015243224764267
 31
0.0
  0
LINE
  5
1B1D4
330
1B1BB
100
AcDbEntity
  8
0
  6
CONTINUOUS
100
AcDbLine
 10
7.963842273967511
 20
2.368399999997621
 30
0.0
 11
9.266442273966188
 21
3.670999999996297
 31
0.0
  0
LINE
  5
1B1D5
330
1B1BB
100
AcDbEntity
  8
0
  6
CONTINUOUS
100
AcDbLine
 10
8.637361483047696
 20
2.368399999997621
 30
0.0
 11
9.939961483046375
 21
3.670999999996297
 31
0.0
  0
LINE
  5
1B1D6
330
1B1BB
100
AcDbEntity
  8
0
  6
CONTINUOUS
100
AcDbLine
 10
9.817529300306965
 20
4.222087026337075
 30
0.0
 11
10.89312513395388
 21
5.297682859983993
 31
0.0
  0
LINE
  5
1B1D7
330
1B1BB
100
AcDbEntity
  8
0
  6
CONTINUOUS
100
AcDbLine
 10
10.02566815382863
 20
3.756706670778549
 30
0.0
 11
11.10129251732229
 21
4.832331034272211
 31
0.0
  0
LINE
  5
1B1D8
330
1B1BB
100
AcDbEntity
  8
0
  6
CONTINUOUS
100
AcDbLine
 10
9.310880692127883
 20
2.368399999997621
 30
0.0
 11
11.30945990069069
 21
4.366979208560428
 31
0.0
  0
LINE
  5
1B1D9
330
1B1BB
100
AcDbEntity
  8
0
  6
CONTINUOUS
100
AcDbLine
 10
9.98439990120807
 20
2.36839999999762
 30
0.0
 11
11.5176272840591
 21
3.901627382848645
 31
0.0
  0
LINE
  5
1B1DA
330
1B1BB
100
AcDbEntity
  8
0
  6
CONTINUOUS
100
AcDbLine
 10
10.65037369446246
 20
2.36085458417182
 30
0.0
 11
11.7257946674275
 21
3.436275557136862
 31
0.0
  0
LINE
  5
1B1DB
330
1B1BB
100
AcDbEntity
  8
0
  6
CONTINUOUS
100
AcDbLine
 10
10.85847197087848
 20
1.895433651507656
 30
0.0
 11
11.9339620507959
 21
2.97092373142508
 31
0.0
  0
LINE
  5
1B1DC
330
1B1BB
100
AcDbEntity
  8
0
  6
CONTINUOUS
100
AcDbLine
 10
11.0665702472945
 20
1.430012718843491
 30
0.0
 11
12.14212943416431
 21
2.505571905713296
 31
0.0
  0
LINE
  5
1B1DD
330
1B1BB
100
AcDbEntity
  8
0
  6
CONTINUOUS
100
AcDbLine
 10
11.27466852371052
 20
0.9645917861793256
 30
0.0
 11
12.35029681753271
 21
2.040220080001513
 31
0.0
  0
LINE
  5
1B1DE
330
1B1BB
100
AcDbEntity
  8
0
  6
CONTINUOUS
100
AcDbLine
 10
11.48276680012654
 20
0.4991708535151611
 30
0.0
 11
12.55846420090111
 21
1.57486825428973
 31
0.0
  0
LINE
  5
1B1DF
330
1B1BB
100
AcDbEntity
  8
0
  6
CONTINUOUS
100
AcDbLine
 10
11.69086507654257
 20
0.0337499208509957
 30
0.0
 11
12.76663158426952
 21
1.109516428577947
 31
0.0
  0
LINE
  5
1B1E0
330
1B1BB
100
AcDbEntity
  8
0
  6
CONTINUOUS
100
AcDbLine
 10
12.33057447873954
 20
-0.0000598860322123
 30
0.0
 11
12.97479896763792
 21
0.6441646028661663
 31
0.0
  0
LINE
  5
1B1E1
330
1B1BB
100
AcDbEntity
  8
0
  6
CONTINUOUS
100
AcDbLine
 10
13.00413694809395
 20
-0.0000166257579952
 30
0.0
 11
13.18296635100632
 21
0.1788127771543824
 31
0.0
  0
LINE
  5
1B1E2
330
1B1BB
100
AcDbEntity
  8
0
  6
CONTINUOUS
100
AcDbLine
 10
4.772852165289667
 20
-0.000092794222212
 30
0.0
 11
4.296495091028902
 21
0.4762642800385528
 31
0.0
  0
LINE
  5
1B1E3
330
1B1BB
100
AcDbEntity
  8
0
  6
CONTINUOUS
100
AcDbLine
 10
5.446340034776103
 20
-0.0000614546284616
 30
0.0
 11
2.898195908335625
 21
2.548082671812017
 31
0.0
  0
LINE
  5
1B1E4
330
1B1BB
100
AcDbEntity
  8
0
  6
CONTINUOUS
100
AcDbLine
 10
6.119827904262539
 20
-0.0000301150347113
 30
0.0
 11
1.499896725642348
 21
4.61990106358548
 31
0.0
  0
LINE
  5
1B1E5
330
1B1BB
100
AcDbEntity
  8
0
  6
CONTINUOUS
100
AcDbLine
 10
6.775136745476159
 20
0.0181802528318542
 30
0.0
 11
5.699826040202669
 21
1.093490958105344
 31
0.0
  0
LINE
  5
1B1E6
330
1B1BB
100
AcDbEntity
  8
0
  6
CONTINUOUS
100
AcDbLine
 10
6.983376846288489
 20
0.4834593610997118
 30
0.0
 11
5.908008617934405
 21
1.558827589453796
 31
0.0
  0
LINE
  5
1B1E7
330
1B1BB
100
AcDbEntity
  8
0
  6
CONTINUOUS
100
AcDbLine
 10
5.377063484962296
 20
1.416253513345719
 30
0.0
 11
1.702276957014131
 21
5.091040041293883
 31
0.0
  0
LINE
  5
1B1E8
330
1B1BB
100
AcDbEntity
  8
0
  6
CONTINUOUS
100
AcDbLine
 10
3.978745891735324
 20
3.488090315652877
 30
0.0
 11
2.000373521109399
 21
5.466462686278803
 31
0.0
  0
LINE
  5
1B1E9
330
1B1BB
100
AcDbEntity
  8
0
  6
CONTINUOUS
100
AcDbLine
 10
7.191616947100819
 20
0.948738469367568
 30
0.0
 11
6.11619119566614
 21
2.024164220802247
 31
0.0
  0
LINE
  5
1B1EA
330
1B1BB
100
AcDbEntity
  8
0
  6
CONTINUOUS
100
AcDbLine
 10
7.399857047913149
 20
1.414017577635424
 30
0.0
 11
6.324373773397875
 21
2.489500852150698
 31
0.0
  0
LINE
  5
1B1EB
330
1B1BB
100
AcDbEntity
  8
0
  6
CONTINUOUS
100
AcDbLine
 10
7.608097148725479
 20
1.879296685903281
 30
0.0
 11
6.53255635112961
 21
2.95483748349915
 31
0.0
  0
LINE
  5
1B1EC
330
1B1BB
100
AcDbEntity
  8
0
  6
CONTINUOUS
100
AcDbLine
 10
7.816337249537808
 20
2.344575794171138
 30
0.0
 11
6.740738928861345
 21
3.420174114847601
 31
0.0
  0
LINE
  5
1B1ED
330
1B1BB
100
AcDbEntity
  8
0
  6
CONTINUOUS
100
AcDbLine
 10
3.310241080789734
 20
4.830114335678653
 30
0.0
 11
2.298470085204666
 21
5.84188533126372
 31
0.0
  0
LINE
  5
1B1EE
330
1B1BB
100
AcDbEntity
  8
0
  6
CONTINUOUS
100
AcDbLine
 10
3.60832983563551
 20
5.205544789913063
 30
0.0
 11
2.596566649299935
 21
6.217307976248638
 31
0.0
  0
LINE
  5
1B1EF
330
1B1BB
100
AcDbEntity
  8
0
  6
CONTINUOUS
100
AcDbLine
 10
3.906418590481286
 20
5.580975244147473
 30
0.0
 11
2.894663213395203
 21
6.592730621233557
 31
0.0
  0
LINE
  5
1B1F0
330
1B1BB
100
AcDbEntity
  8
0
  6
CONTINUOUS
100
AcDbLine
 10
4.204507345327062
 20
5.956405698381884
 30
0.0
 11
3.192759777490472
 21
6.968153266218474
 31
0.0
  0
LINE
  5
1B1F1
330
1B1BB
100
AcDbEntity
  8
0
  6
CONTINUOUS
100
AcDbLine
 10
8.466032252791512
 20
2.368399999997621
 30
0.0
 11
6.948921506593081
 21
3.885510746196053
 31
0.0
  0
LINE
  5
1B1F2
330
1B1BB
100
AcDbEntity
  8
0
  6
CONTINUOUS
100
AcDbLine
 10
9.139551461871699
 20
2.36839999999762
 30
0.0
 11
7.157104084324816
 21
4.350847377544504
 31
0.0
  0
LINE
  5
1B1F3
330
1B1BB
100
AcDbEntity
  8
0
  6
CONTINUOUS
100
AcDbLine
 10
4.502596100172839
 20
6.331836152616295
 30
0.0
 11
3.49085634158574
 21
7.343575911203393
 31
0.0
  0
LINE
  5
1B1F4
330
1B1BB
100
AcDbEntity
  8
0
  6
CONTINUOUS
100
AcDbLine
 10
4.800684855018615
 20
6.707266606850705
 30
0.0
 11
3.788952905681008
 21
7.718998556188312
 31
0.0
  0
LINE
  5
1B1F5
330
1B1BB
100
AcDbEntity
  8
0
  6
CONTINUOUS
100
AcDbLine
 10
12.18154012887317
 20
-0.0000694579236642
 30
0.0
 11
11.32140332908496
 21
0.8600673418645499
 31
0.0
  0
LINE
  5
1B1F6
330
1B1BB
100
AcDbEntity
  8
0
  6
CONTINUOUS
100
AcDbLine
 10
12.85501608323566
 20
-0.0000262032059659
 30
0.0
 11
10.77672456435345
 21
2.078265315676246
 31
0.0
  0
LINE
  5
1B1F7
330
1B1BB
100
AcDbEntity
  8
0
  6
CONTINUOUS
100
AcDbLine
 10
9.813070670951886
 20
2.36839999999762
 30
0.0
 11
8.51047067095321
 21
3.670999999996297
 31
0.0
  0
LINE
  5
1B1F8
330
1B1BB
100
AcDbEntity
  8
0
  6
CONTINUOUS
100
AcDbLine
 10
10.48658988003207
 20
2.36839999999762
 30
0.0
 11
9.183989880033396
 21
3.670999999996297
 31
0.0
  0
LINE
  5
1B1F9
330
1B1BB
100
AcDbEntity
  8
0
  6
CONTINUOUS
100
AcDbLine
 10
8.441048632286794
 20
3.740422038662712
 30
0.0
 11
7.365286662056551
 21
4.816184008892956
 31
0.0
  0
LINE
  5
1B1FA
330
1B1BB
100
AcDbEntity
  8
0
  6
CONTINUOUS
100
AcDbLine
 10
8.649187485808454
 20
4.205802394221237
 30
0.0
 11
7.573469239788285
 21
5.281520640241407
 31
0.0
  0
LINE
  5
1B1FB
330
1B1BB
100
AcDbEntity
  8
0
  6
CONTINUOUS
100
AcDbLine
 10
5.098773609864391
 20
7.082697061085115
 30
0.0
 11
4.087049469776277
 21
8.09442120117323
 31
0.0
  0
LINE
  5
1B1FC
330
1B1BB
100
AcDbEntity
  8
0
  6
CONTINUOUS
100
AcDbLine
 10
5.396862364710167
 20
7.458127515319526
 30
0.0
 11
4.385146033871544
 21
8.469843846158149
 31
0.0
  0
LINE
  5
1B1FD
330
1B1BB
100
AcDbEntity
  8
0
  6
CONTINUOUS
100
AcDbLine
 10
13.04801363231285
 20
0.4804954567970334
 30
0.0
 11
9.85750908911358
 21
3.670999999996297
 31
0.0
  0
LINE
  5
1B1FE
330
1B1BB
100
AcDbEntity
  8
0
  6
CONTINUOUS
100
AcDbLine
 10
8.857326339330116
 20
4.671182749779763
 30
0.0
 11
7.781651817520021
 21
5.746857271589858
 31
0.0
  0
LINE
  5
1B1FF
330
1B1BB
100
AcDbEntity
  8
0
  6
CONTINUOUS
100
AcDbLine
 10
5.694951119555943
 20
7.833557969553937
 30
0.0
 11
4.765409089118624
 21
8.763099999991255
 31
0.0
  0
LINE
  5
1B200
330
1B1BB
100
AcDbEntity
  8
0
  6
CONTINUOUS
100
AcDbLine
 10
12.50286117236978
 20
1.699167125820288
 30
0.0
 11
9.68611877250287
 21
4.515909525687196
 31
0.0
  0
LINE
  5
1B201
330
1B1BB
100
AcDbEntity
  8
0
  6
CONTINUOUS
100
AcDbLine
 10
9.065465192851777
 20
5.136563105338288
 30
0.0
 11
7.989834395251757
 21
6.21219390293831
 31
0.0
  0
LINE
  5
1B202
330
1B1BB
100
AcDbEntity
  8
0
  6
CONTINUOUS
100
AcDbLine
 10
5.993039874401719
 20
8.208988423788346
 30
0.0
 11
5.43892829819881
 21
8.763099999991255
 31
0.0
  0
LINE
  5
1B203
330
1B1BB
100
AcDbEntity
  8
0
  6
CONTINUOUS
100
AcDbLine
 10
11.95770871242671
 20
2.917838794843543
 30
0.0
 11
8.19801697298349
 21
6.677530534286761
 31
0.0
  0
LINE
  5
1B204
330
1B1BB
100
AcDbEntity
  8
0
  6
CONTINUOUS
100
AcDbLine
 10
6.291128629247495
 20
8.584418878022756
 30
0.0
 11
6.112447507278997
 21
8.763099999991255
 31
0.0
  0
LINE
  5
1B205
330
1B1BB
100
AcDbEntity
  8
0
  6
CONTINUOUS
100
AcDbLine
 10
11.41255625248364
 20
4.136510463866797
 30
0.0
 11
8.406199550715227
 21
7.142867165635211
 31
0.0
  0
LINE
  5
1B206
330
1B1BB
100
AcDbEntity
  8
0
  6
CONTINUOUS
100
AcDbLine
 10
10.86740379254057
 20
5.355182132890051
 30
0.0
 11
8.614382128446962
 21
7.608203796983664
 31
0.0
  0
LINE
  5
1B207
330
1B1BB
100
AcDbEntity
  8
0
  6
CONTINUOUS
100
AcDbLine
 10
10.3222513325975
 20
6.573853801913305
 30
0.0
 11
8.822564706178696
 21
8.073540428332114
 31
0.0
  0
LINE
  5
1B208
330
1B1BB
100
AcDbEntity
  8
0
  6
CONTINUOUS
100
AcDbLine
 10
9.777098872654436
 20
7.792525470936562
 30
0.0
 11
9.030747283910433
 21
8.538877059680566
 31
0.0
  0
ENDBLK
  5
1B34A
330
1B1BB
100
AcDbEntity
  8
0
100
AcDbBlockEnd
  0
BLOCK
  5
1B34B
330
1B209
100
AcDbEntity
  8
0
100
AcDbBlockBegin
  2
*X147
 70
     1
 10
0.0
 20
0.0
 30
0.0
  3
*X147
  1

  0
LINE
  5
1B20A
330
1B209
100
AcDbEntity
  8
0
  6
CONTINUOUS
100
AcDbLine
 10
10.67292308101235
 20
8.445076852443387
 30
0.0
 11
10.99094622856022
 21
8.763099999991255
 31
0.0
  0
LINE
  5
1B20B
330
1B209
100
AcDbEntity
  8
0
  6
CONTINUOUS
100
AcDbLine
 10
10.87250383178748
 20
7.971138394138331
 30
0.0
 11
11.6644654376404
 21
8.763099999991255
 31
0.0
  0
LINE
  5
1B20C
330
1B209
100
AcDbEntity
  8
0
  6
CONTINUOUS
100
AcDbLine
 10
11.07208458256261
 20
7.497199935833273
 30
0.0
 11
12.12126590876355
 21
8.546381262034211
 31
0.0
  0
LINE
  5
1B20D
330
1B209
100
AcDbEntity
  8
0
  6
CONTINUOUS
100
AcDbLine
 10
11.27166533333774
 20
7.023261477528216
 30
0.0
 11
12.32085164573666
 21
8.072447789927136
 31
0.0
  0
LINE
  5
1B20E
330
1B209
100
AcDbEntity
  8
0
  6
CONTINUOUS
100
AcDbLine
 10
11.47124608411287
 20
6.549323019223158
 30
0.0
 11
12.52043738270977
 21
7.59851431782006
 31
0.0
  0
LINE
  5
1B20F
330
1B209
100
AcDbEntity
  8
0
  6
CONTINUOUS
100
AcDbLine
 10
11.670826834888
 20
6.075384560918101
 30
0.0
 11
12.72002311968288
 21
7.124580845712984
 31
0.0
  0
LINE
  5
1B210
330
1B209
100
AcDbEntity
  8
0
  6
CONTINUOUS
100
AcDbLine
 10
11.87040758566313
 20
5.601446102613043
 30
0.0
 11
12.91960885665599
 21
6.650647373605907
 31
0.0
  0
LINE
  5
1B211
330
1B209
100
AcDbEntity
  8
0
  6
CONTINUOUS
100
AcDbLine
 10
12.06998833643825
 20
5.127507644307986
 30
0.0
 11
13.1191945936291
 21
6.176713901498832
 31
0.0
  0
LINE
  5
1B212
330
1B209
100
AcDbEntity
  8
0
  6
CONTINUOUS
100
AcDbLine
 10
12.26956908721338
 20
4.65356918600293
 30
0.0
 11
13.31878033060221
 21
5.702780429391757
 31
0.0
  0
LINE
  5
1B213
330
1B209
100
AcDbEntity
  8
0
  6
CONTINUOUS
100
AcDbLine
 10
12.46914983798851
 20
4.179630727697873
 30
0.0
 11
13.51836606757532
 21
5.228846957284683
 31
0.0
  0
LINE
  5
1B214
330
1B209
100
AcDbEntity
  8
0
  6
CONTINUOUS
100
AcDbLine
 10
12.66873058876364
 20
3.705692269392816
 30
0.0
 11
13.71795180454843
 21
4.754913485177607
 31
0.0
  0
LINE
  5
1B215
330
1B209
100
AcDbEntity
  8
0
  6
CONTINUOUS
100
AcDbLine
 10
12.86831133953877
 20
3.231753811087759
 30
0.0
 11
13.91753754152154
 21
4.280980013070531
 31
0.0
  0
LINE
  5
1B216
330
1B209
100
AcDbEntity
  8
0
  6
CONTINUOUS
100
AcDbLine
 10
13.0678920903139
 20
2.757815352782702
 30
0.0
 11
14.11712327849465
 21
3.807046540963456
 31
0.0
  0
LINE
  5
1B217
330
1B209
100
AcDbEntity
  8
0
  6
CONTINUOUS
100
AcDbLine
 10
13.26747284108903
 20
2.283876894477644
 30
0.0
 11
14.31670901546777
 21
3.333113068856379
 31
0.0
  0
LINE
  5
1B218
330
1B209
100
AcDbEntity
  8
0
  6
CONTINUOUS
100
AcDbLine
 10
16.36767838827179
 20
8.751678487061342
 30
0.0
 11
16.50332410898388
 21
8.887324207773432
 31
0.0
  0
LINE
  5
1B219
330
1B209
100
AcDbEntity
  8
0
  6
CONTINUOUS
100
AcDbLine
 10
15.96190732182191
 20
7.67238821153127
 30
0.0
 11
16.68735328004734
 21
8.397834169756699
 31
0.0
  0
LINE
  5
1B21A
330
1B209
100
AcDbEntity
  8
0
  6
CONTINUOUS
100
AcDbLine
 10
15.55613625537202
 20
6.593097936001196
 30
0.0
 11
16.87138245111079
 21
7.908344131739965
 31
0.0
  0
LINE
  5
1B21B
330
1B209
100
AcDbEntity
  8
0
  6
CONTINUOUS
100
AcDbLine
 10
15.15036518892213
 20
5.513807660471122
 30
0.0
 11
17.05541162217424
 21
7.418854093723231
 31
0.0
  0
LINE
  5
1B21C
330
1B209
100
AcDbEntity
  8
0
  6
CONTINUOUS
100
AcDbLine
 10
14.74459412247225
 20
4.434517384941048
 30
0.0
 11
17.2394407932377
 21
6.929364055706499
 31
0.0
  0
LINE
  5
1B21D
330
1B209
100
AcDbEntity
  8
0
  6
CONTINUOUS
100
AcDbLine
 10
14.33882305602236
 20
3.355227109410975
 30
0.0
 11
17.42346996430115
 21
6.439874017689766
 31
0.0
  0
LINE
  5
1B21E
330
1B209
100
AcDbEntity
  8
0
  6
CONTINUOUS
100
AcDbLine
 10
13.46705359186416
 20
1.809938436172586
 30
0.0
 11
16.0819338255367
 21
4.424818669845129
 31
0.0
  0
LINE
  5
1B21F
330
1B209
100
AcDbEntity
  8
0
  6
CONTINUOUS
100
AcDbLine
 10
16.63283254238972
 20
4.975717386698149
 30
0.0
 11
17.60749913536461
 21
5.950383979673033
 31
0.0
  0
LINE
  5
1B220
330
1B209
100
AcDbEntity
  8
0
  6
CONTINUOUS
100
AcDbLine
 10
13.66663434263929
 20
1.335999977867529
 30
0.0
 11
15.67604797733754
 21
3.345413612565779
 31
0.0
  0
LINE
  5
1B221
330
1B209
100
AcDbEntity
  8
0
  6
CONTINUOUS
100
AcDbLine
 10
13.86621509341442
 20
0.8620615195624723
 30
0.0
 11
15.27016212913838
 21
2.26600855528643
 31
0.0
  0
LINE
  5
1B222
330
1B209
100
AcDbEntity
  8
0
  6
CONTINUOUS
100
AcDbLine
 10
16.81682257348267
 20
4.486188208710908
 30
0.0
 11
17.79152830642806
 21
5.460893941656299
 31
0.0
  0
LINE
  5
1B223
330
1B209
100
AcDbEntity
  8
0
  6
CONTINUOUS
100
AcDbLine
 10
17.00081260457561
 20
3.996659030723667
 30
0.0
 11
17.97555747749151
 21
4.971403903639565
 31
0.0
  0
LINE
  5
1B224
330
1B209
100
AcDbEntity
  8
0
  6
CONTINUOUS
100
AcDbLine
 10
20.74362343514722
 20
8.412989070375462
 30
0.0
 11
21.09373436476302
 21
8.763099999991256
 31
0.0
  0
LINE
  5
1B225
330
1B209
100
AcDbEntity
  8
0
  6
CONTINUOUS
100
AcDbLine
 10
20.25401257174777
 20
7.249858997895826
 30
0.0
 11
21.7672535738432
 21
8.763099999991255
 31
0.0
  0
LINE
  5
1B226
330
1B209
100
AcDbEntity
  8
0
  6
CONTINUOUS
100
AcDbLine
 10
14.06579584418955
 20
0.3881230612574149
 30
0.0
 11
14.86427628093921
 21
1.186603498007082
 31
0.0
  0
LINE
  5
1B227
330
1B209
100
AcDbEntity
  8
0
  6
CONTINUOUS
100
AcDbLine
 10
14.26537659496467
 20
-0.0858153970476412
 30
0.0
 11
14.45839043274005
 21
0.1071984407277329
 31
0.0
  0
LINE
  5
1B228
330
1B209
100
AcDbEntity
  8
0
  6
CONTINUOUS
100
AcDbLine
 10
17.18480263566856
 20
3.507129852736426
 30
0.0
 11
18.15958664855496
 21
4.481913865622833
 31
0.0
  0
LINE
  5
1B229
330
1B209
100
AcDbEntity
  8
0
  6
CONTINUOUS
100
AcDbLine
 10
17.3687926667615
 20
3.017600674749186
 30
0.0
 11
18.34361581961842
 21
3.9924238276061
 31
0.0
  0
LINE
  5
1B22A
330
1B209
100
AcDbEntity
  8
0
  6
CONTINUOUS
100
AcDbLine
 10
19.76440170834832
 20
6.086728925416191
 30
0.0
 11
22.33924590259489
 21
8.661573119662755
 31
0.0
  0
LINE
  5
1B22B
330
1B209
100
AcDbEntity
  8
0
  6
CONTINUOUS
100
AcDbLine
 10
19.27479084494887
 20
4.923598852936555
 30
0.0
 11
21.84929622842713
 21
7.498104236414807
 31
0.0
  0
LINE
  5
1B22C
330
1B209
100
AcDbEntity
  8
0
  6
CONTINUOUS
100
AcDbLine
 10
17.55278269785445
 20
2.528071496761945
 30
0.0
 11
18.52764499068187
 21
3.502933789589366
 31
0.0
  0
LINE
  5
1B22D
330
1B209
100
AcDbEntity
  8
0
  6
CONTINUOUS
100
AcDbLine
 10
18.78517998154942
 20
3.760468780456919
 30
0.0
 11
21.35934655425936
 21
6.33463535316686
 31
0.0
  0
LINE
  5
1B22E
330
1B209
100
AcDbEntity
  8
0
  6
CONTINUOUS
100
AcDbLine
 10
17.73677272894739
 20
2.038542318774704
 30
0.0
 11
20.8693968800916
 21
5.171166469918914
 31
0.0
  0
LINE
  5
1B22F
330
1B209
100
AcDbEntity
  8
0
  6
CONTINUOUS
100
AcDbLine
 10
17.92076276004034
 20
1.549013140787464
 30
0.0
 11
20.37944720592384
 21
4.007697586670968
 31
0.0
  0
LINE
  5
1B230
330
1B209
100
AcDbEntity
  8
0
  6
CONTINUOUS
100
AcDbLine
 10
18.10475279113329
 20
1.059483962800223
 30
0.0
 11
19.88949753175608
 21
2.84422870342302
 31
0.0
  0
LINE
  5
1B231
330
1B209
100
AcDbEntity
  8
0
  6
CONTINUOUS
100
AcDbLine
 10
18.28874282222623
 20
0.5699547848129822
 30
0.0
 11
19.39954785758832
 21
1.680759820175074
 31
0.0
  0
LINE
  5
1B232
330
1B209
100
AcDbEntity
  8
0
  6
CONTINUOUS
100
AcDbLine
 10
18.47273285331918
 20
0.0804256068257416
 30
0.0
 11
18.90959818342056
 21
0.517290936927127
 31
0.0
  0
LINE
  5
1B233
330
1B209
100
AcDbEntity
  8
0
  6
CONTINUOUS
100
AcDbLine
 10
14.3590401358224
 20
-0.1570118376323384
 30
0.0
 11
14.24903296539946
 21
-0.0470046672093929
 31
0.0
  0
LINE
  5
1B234
330
1B209
100
AcDbEntity
  8
0
  6
CONTINUOUS
100
AcDbLine
 10
14.54309291258661
 20
0.332454594683643
 30
0.0
 11
13.75908329123172
 21
1.116464216038529
 31
0.0
  0
LINE
  5
1B235
330
1B209
100
AcDbEntity
  8
0
  6
CONTINUOUS
100
AcDbLine
 10
14.72714568935081
 20
0.8219210269996244
 30
0.0
 11
13.26913361706399
 21
2.27993309928645
 31
0.0
  0
LINE
  5
1B236
330
1B209
100
AcDbEntity
  8
0
  6
CONTINUOUS
100
AcDbLine
 10
14.91119846611502
 20
1.311387459315606
 30
0.0
 11
12.77918394289625
 21
3.443401982534371
 31
0.0
  0
LINE
  5
1B237
330
1B209
100
AcDbEntity
  8
0
  6
CONTINUOUS
100
AcDbLine
 10
15.09525124287922
 20
1.800853891631587
 30
0.0
 11
12.28923426872852
 21
4.606870865782293
 31
0.0
  0
LINE
  5
1B238
330
1B209
100
AcDbEntity
  8
0
  6
CONTINUOUS
100
AcDbLine
 10
15.27930401964343
 20
2.290320323947569
 30
0.0
 11
11.79928459456078
 21
5.770339749030213
 31
0.0
  0
LINE
  5
1B239
330
1B209
100
AcDbEntity
  8
0
  6
CONTINUOUS
100
AcDbLine
 10
15.46335679640763
 20
2.77978675626355
 30
0.0
 11
14.48885470994921
 21
3.754288842721972
 31
0.0
  0
LINE
  5
1B23A
330
1B209
100
AcDbEntity
  8
0
  6
CONTINUOUS
100
AcDbLine
 10
13.88507249233704
 20
4.358071060334137
 30
0.0
 11
11.30933492039305
 21
6.933808632278135
 31
0.0
  0
LINE
  5
1B23B
330
1B209
100
AcDbEntity
  8
0
  6
CONTINUOUS
100
AcDbLine
 10
18.75840522805855
 20
0.1582575336928151
 30
0.0
 11
18.25383727664818
 21
0.6628254851031863
 31
0.0
  0
LINE
  5
1B23C
330
1B209
100
AcDbEntity
  8
0
  6
CONTINUOUS
100
AcDbLine
 10
15.64740957317184
 20
3.269253188579531
 30
0.0
 11
14.67288388101266
 21
4.243778880738705
 31
0.0
  0
LINE
  5
1B23D
330
1B209
100
AcDbEntity
  8
0
  6
CONTINUOUS
100
AcDbLine
 10
13.39509276772158
 20
5.521569994029786
 30
0.0
 11
10.81938524622531
 21
8.097277515526056
 31
0.0
  0
LINE
  5
1B23E
330
1B209
100
AcDbEntity
  8
0
  6
CONTINUOUS
100
AcDbLine
 10
18.95798597883369
 20
0.6321959919978686
 30
0.0
 11
17.84825644852853
 21
1.741925522303024
 31
0.0
  0
LINE
  5
1B23F
330
1B209
100
AcDbEntity
  8
0
  6
CONTINUOUS
100
AcDbLine
 10
19.15756672960882
 20
1.106134450302922
 30
0.0
 11
17.44267562040888
 21
2.821025559502861
 31
0.0
  0
LINE
  5
1B240
330
1B209
100
AcDbEntity
  8
0
  6
CONTINUOUS
100
AcDbLine
 10
15.83146234993604
 20
3.758719620895513
 30
0.0
 11
14.85691305207612
 21
4.733268918755439
 31
0.0
  0
LINE
  5
1B241
330
1B209
100
AcDbEntity
  8
0
  6
CONTINUOUS
100
AcDbLine
 10
16.01551512670025
 20
4.248186053211494
 30
0.0
 11
15.04094222313957
 21
5.222758956772172
 31
0.0
  0
LINE
  5
1B242
330
1B209
100
AcDbEntity
  8
0
  6
CONTINUOUS
100
AcDbLine
 10
12.90511304310612
 20
6.685068927725435
 30
0.0
 11
10.8270819708403
 21
8.763099999991255
 31
0.0
  0
LINE
  5
1B243
330
1B209
100
AcDbEntity
  8
0
  6
CONTINUOUS
100
AcDbLine
 10
12.41513331849066
 20
7.848567861421083
 30
0.0
 11
11.50060117992049
 21
8.763099999991255
 31
0.0
  0
LINE
  5
1B244
330
1B209
100
AcDbEntity
  8
0
  6
CONTINUOUS
100
AcDbLine
 10
19.35714748038395
 20
1.580072908607975
 30
0.0
 11
17.03709479228923
 21
3.900125596702697
 31
0.0
  0
LINE
  5
1B245
330
1B209
100
AcDbEntity
  8
0
  6
CONTINUOUS
100
AcDbLine
 10
19.55672823115909
 20
2.054011366913028
 30
0.0
 11
16.63151396416958
 21
4.979225633902534
 31
0.0
  0
LINE
  5
1B246
330
1B209
100
AcDbEntity
  8
0
  6
CONTINUOUS
100
AcDbLine
 10
16.19956790346445
 20
4.737652485527476
 30
0.0
 11
15.22497139420302
 21
5.712248994788904
 31
0.0
  0
LINE
  5
1B247
330
1B209
100
AcDbEntity
  8
0
  6
CONTINUOUS
100
AcDbLine
 10
16.38362068022866
 20
5.227118917843457
 30
0.0
 11
15.40900056526648
 21
6.201739032805637
 31
0.0
  0
LINE
  5
1B248
330
1B209
100
AcDbEntity
  8
0
  6
CONTINUOUS
100
AcDbLine
 10
19.75630898193422
 20
2.527949825218081
 30
0.0
 11
18.70774536448286
 21
3.576513442669441
 31
0.0
  0
LINE
  5
1B249
330
1B209
100
AcDbEntity
  8
0
  6
CONTINUOUS
100
AcDbLine
 10
19.95588973270936
 20
3.001888283523134
 30
0.0
 11
18.90726987211446
 21
4.050508144118028
 31
0.0
  0
LINE
  5
1B24A
330
1B209
100
AcDbEntity
  8
0
  6
CONTINUOUS
100
AcDbLine
 10
20.15547048348449
 20
3.475826741828186
 30
0.0
 11
19.10679437974606
 21
4.524502845566614
 31
0.0
  0
LINE
  5
1B24B
330
1B209
100
AcDbEntity
  8
0
  6
CONTINUOUS
100
AcDbLine
 10
20.35505123425962
 20
3.94976520013324
 30
0.0
 11
19.30631888737766
 21
4.998497547015201
 31
0.0
  0
LINE
  5
1B24C
330
1B209
100
AcDbEntity
  8
0
  6
CONTINUOUS
100
AcDbLine
 10
20.55463198503475
 20
4.423703658438292
 30
0.0
 11
19.50584339500926
 21
5.472492248463787
 31
0.0
  0
LINE
  5
1B24D
330
1B209
100
AcDbEntity
  8
0
  6
CONTINUOUS
100
AcDbLine
 10
18.37481191085755
 20
3.909446896294752
 30
0.0
 11
15.59302973632993
 21
6.691229070822371
 31
0.0
  0
LINE
  5
1B24E
330
1B209
100
AcDbEntity
  8
0
  6
CONTINUOUS
100
AcDbLine
 10
17.96904084440766
 20
4.988737171824825
 30
0.0
 11
15.77705890739338
 21
7.180719108839104
 31
0.0
  0
LINE
  5
1B24F
330
1B209
100
AcDbEntity
  8
0
  6
CONTINUOUS
100
AcDbLine
 10
17.56326977795777
 20
6.068027447354899
 30
0.0
 11
15.96108807845684
 21
7.670209146855838
 31
0.0
  0
LINE
  5
1B250
330
1B209
100
AcDbEntity
  8
0
  6
CONTINUOUS
100
AcDbLine
 10
17.15749871150789
 20
7.147317722884972
 30
0.0
 11
16.14511724952029
 21
8.15969918487257
 31
0.0
  0
LINE
  5
1B251
330
1B209
100
AcDbEntity
  8
0
  6
CONTINUOUS
100
AcDbLine
 10
16.751727645058
 20
8.226607998415046
 30
0.0
 11
16.32914642058374
 21
8.649189222889303
 31
0.0
  0
LINE
  5
1B252
330
1B209
100
AcDbEntity
  8
0
  6
CONTINUOUS
100
AcDbLine
 10
20.75421273580989
 20
4.897642116743345
 30
0.0
 11
19.70536790264086
 21
5.946486949912374
 31
0.0
  0
LINE
  5
1B253
330
1B209
100
AcDbEntity
  8
0
  6
CONTINUOUS
100
AcDbLine
 10
20.95379348658502
 20
5.371580575048398
 30
0.0
 11
19.90489241027246
 21
6.42048165136096
 31
0.0
  0
LINE
  5
1B254
330
1B209
100
AcDbEntity
  8
0
  6
CONTINUOUS
100
AcDbLine
 10
21.15337423736015
 20
5.845519033353452
 30
0.0
 11
20.10441691790406
 21
6.894476352809547
 31
0.0
  0
LINE
  5
1B255
330
1B209
100
AcDbEntity
  8
0
  6
CONTINUOUS
100
AcDbLine
 10
21.35295498813529
 20
6.319457491658505
 30
0.0
 11
20.30394142553566
 21
7.368471054258134
 31
0.0
  0
LINE
  5
1B256
330
1B209
100
AcDbEntity
  8
0
  6
CONTINUOUS
100
AcDbLine
 10
21.55253573891042
 20
6.793395949963558
 30
0.0
 11
20.50346593316726
 21
7.842465755706721
 31
0.0
  0
LINE
  5
1B257
330
1B209
100
AcDbEntity
  8
0
  6
CONTINUOUS
100
AcDbLine
 10
21.75211648968556
 20
7.267334408268612
 30
0.0
 11
20.70299044079886
 21
8.316460457155308
 31
0.0
  0
LINE
  5
1B258
330
1B209
100
AcDbEntity
  8
0
  6
CONTINUOUS
100
AcDbLine
 10
21.95169724046069
 20
7.741272866573663
 30
0.0
 11
20.9298701070431
 21
8.763099999991256
 31
0.0
  0
LINE
  5
1B259
330
1B209
100
AcDbEntity
  8
0
  6
CONTINUOUS
100
AcDbLine
 10
22.15127799123582
 20
8.215211324878716
 30
0.0
 11
21.60338931612328
 21
8.763099999991256
 31
0.0
  0
LINE
  5
1B25A
330
1B209
100
AcDbEntity
  8
0
  6
CONTINUOUS
100
AcDbLine
 10
22.35085874201096
 20
8.689149783183769
 30
0.0
 11
22.27690852520347
 21
8.763099999991255
 31
0.0
  0
ENDBLK
  5
1B34C
330
1B209
100
AcDbEntity
  8
0
100
AcDbBlockEnd
  0
BLOCK
  5
1B34D
330
1B25B
100
AcDbEntity
  8
0
100
AcDbBlockBegin
  2
*X148
 70
     1
 10
0.0
 20
0.0
 30
0.0
  3
*X148
  1

  0
LINE
  5
1B25C
330
1B25B
100
AcDbEntity
  8
0
  6
CONTINUOUS
100
AcDbLine
 10
23.19462913593892
 20
8.169917934846424
 30
0.0
 11
23.70775465517246
 21
8.683043454079957
 31
0.0
  0
LINE
  5
1B25D
330
1B25B
100
AcDbEntity
  8
0
  6
CONTINUOUS
100
AcDbLine
 10
22.64923161835078
 20
6.951001208178088
 30
0.0
 11
23.9159364069932
 21
8.217705996820516
 31
0.0
  0
LINE
  5
1B25E
330
1B25B
100
AcDbEntity
  8
0
  6
CONTINUOUS
100
AcDbLine
 10
22.10383410076263
 20
5.732084481509751
 30
0.0
 11
24.12411815881395
 21
7.752368539561078
 31
0.0
  0
LINE
  5
1B25F
330
1B25B
100
AcDbEntity
  8
0
  6
CONTINUOUS
100
AcDbLine
 10
21.55843658317447
 20
4.513167754841414
 30
0.0
 11
24.3322999106347
 21
7.287031082301639
 31
0.0
  0
LINE
  5
1B260
330
1B25B
100
AcDbEntity
  8
0
  6
CONTINUOUS
100
AcDbLine
 10
21.01303906558632
 20
3.294251028173077
 30
0.0
 11
24.54048166245544
 21
6.821693625042199
 31
0.0
  0
LINE
  5
1B261
330
1B25B
100
AcDbEntity
  8
0
  6
CONTINUOUS
100
AcDbLine
 10
20.46764154799817
 20
2.075334301504738
 30
0.0
 11
23.28571549467848
 21
4.89340824818505
 31
0.0
  0
LINE
  5
1B262
330
1B25B
100
AcDbEntity
  8
0
  6
CONTINUOUS
100
AcDbLine
 10
19.92224403041002
 20
0.8564175748364002
 30
0.0
 11
22.74075865492779
 21
3.674932199354171
 31
0.0
  0
LINE
  5
1B263
330
1B25B
100
AcDbEntity
  8
0
  6
CONTINUOUS
100
AcDbLine
 10
23.67305085490148
 20
5.280743608408048
 30
0.0
 11
24.74866341427619
 21
6.356356167782759
 31
0.0
  0
LINE
  5
1B264
330
1B25B
100
AcDbEntity
  8
0
  6
CONTINUOUS
100
AcDbLine
 10
23.88118970842314
 20
4.815363252849522
 30
0.0
 11
24.95684516609694
 21
5.89101871052332
 31
0.0
  0
LINE
  5
1B265
330
1B25B
100
AcDbEntity
  8
0
  6
CONTINUOUS
100
AcDbLine
 10
19.73925852647308
 20
-0.0000871381807288
 30
0.0
 11
23.4103456646501
 21
3.670999999996297
 31
0.0
  0
LINE
  5
1B266
330
1B25B
100
AcDbEntity
  8
0
  6
CONTINUOUS
100
AcDbLine
 10
24.0893285619448
 20
4.349982897290997
 30
0.0
 11
25.16502691791769
 21
5.42568125326388
 31
0.0
  0
LINE
  5
1B267
330
1B25B
100
AcDbEntity
  8
0
  6
CONTINUOUS
100
AcDbLine
 10
20.41282099582748
 20
-0.0000438779065108
 30
0.0
 11
21.64944178675636
 21
1.236576913022366
 31
0.0
  0
LINE
  5
1B268
330
1B25B
100
AcDbEntity
  8
0
  6
CONTINUOUS
100
AcDbLine
 10
22.78126487373161
 20
2.36839999999762
 30
0.0
 11
24.08386487373029
 21
3.670999999996297
 31
0.0
  0
LINE
  5
1B269
330
1B25B
100
AcDbEntity
  8
0
  6
CONTINUOUS
100
AcDbLine
 10
24.29746741546646
 20
3.884602541732471
 30
0.0
 11
25.37320866973843
 21
4.960343796004441
 31
0.0
  0
LINE
  5
1B26A
330
1B25B
100
AcDbEntity
  8
0
  6
CONTINUOUS
100
AcDbLine
 10
21.08638346518189
 20
-0.0000006176322938
 30
0.0
 11
21.10379033335899
 21
0.0174062505448083
 31
0.0
  0
LINE
  5
1B26B
330
1B25B
100
AcDbEntity
  8
0
  6
CONTINUOUS
100
AcDbLine
 10
23.4547840828118
 20
2.36839999999762
 30
0.0
 11
25.58139042155918
 21
4.495006338745002
 31
0.0
  0
LINE
  5
1B26C
330
1B25B
100
AcDbEntity
  8
0
  6
CONTINUOUS
100
AcDbLine
 10
29.30199999996933
 20
8.215615917155148
 30
0.0
 11
29.84948408280543
 21
8.763099999991255
 31
0.0
  0
LINE
  5
1B26D
330
1B25B
100
AcDbEntity
  8
0
  6
CONTINUOUS
100
AcDbLine
 10
24.12830329189199
 20
2.36839999999762
 30
0.0
 11
25.78957217337993
 21
4.029668881485562
 31
0.0
  0
LINE
  5
1B26E
330
1B25B
100
AcDbEntity
  8
0
  6
CONTINUOUS
100
AcDbLine
 10
29.30199999996933
 20
7.54209670807496
 30
0.0
 11
30.52300329188562
 21
8.763099999991255
 31
0.0
  0
LINE
  5
1B26F
330
1B25B
100
AcDbEntity
  8
0
  6
CONTINUOUS
100
AcDbLine
 10
24.80182250097217
 20
2.36839999999762
 30
0.0
 11
25.99775392520067
 21
3.564331424226122
 31
0.0
  0
LINE
  5
1B270
330
1B25B
100
AcDbEntity
  8
0
  6
CONTINUOUS
100
AcDbLine
 10
29.30199999996933
 20
6.868577498994774
 30
0.0
 11
30.74199999996926
 21
8.308577498994712
 31
0.0
  0
LINE
  5
1B271
330
1B25B
100
AcDbEntity
  8
0
  6
CONTINUOUS
100
AcDbLine
 10
25.13028238392013
 20
2.023340673865392
 30
0.0
 11
26.20593567702142
 21
3.098993966966683
 31
0.0
  0
LINE
  5
1B272
330
1B25B
100
AcDbEntity
  8
0
  6
CONTINUOUS
100
AcDbLine
 10
25.33838066033617
 20
1.557919741201244
 30
0.0
 11
26.41411742884217
 21
2.633656509707244
 31
0.0
  0
LINE
  5
1B273
330
1B25B
100
AcDbEntity
  8
0
  6
CONTINUOUS
100
AcDbLine
 10
25.54647893675221
 20
1.092498808537098
 30
0.0
 11
26.62229918066291
 21
2.168319052447804
 31
0.0
  0
LINE
  5
1B274
330
1B25B
100
AcDbEntity
  8
0
  6
CONTINUOUS
100
AcDbLine
 10
25.75457721316825
 20
0.62707787587295
 30
0.0
 11
26.83048093248366
 21
1.702981595188365
 31
0.0
  0
LINE
  5
1B275
330
1B25B
100
AcDbEntity
  8
0
  6
CONTINUOUS
100
AcDbLine
 10
29.30199999996933
 20
6.195058289914587
 30
0.0
 11
30.74199999996926
 21
7.635058289914522
 31
0.0
  0
LINE
  5
1B276
330
1B25B
100
AcDbEntity
  8
0
  6
CONTINUOUS
100
AcDbLine
 10
29.30199999996933
 20
5.521539080834401
 30
0.0
 11
30.74199999996926
 21
6.961539080834331
 31
0.0
  0
LINE
  5
1B277
330
1B25B
100
AcDbEntity
  8
0
  6
CONTINUOUS
100
AcDbLine
 10
29.30199999996933
 20
4.848019871754214
 30
0.0
 11
30.74199999996925
 21
6.288019871754143
 31
0.0
  0
LINE
  5
1B278
330
1B25B
100
AcDbEntity
  8
0
  6
CONTINUOUS
100
AcDbLine
 10
29.30199999996933
 20
4.174500662674028
 30
0.0
 11
30.74199999996925
 21
5.614500662673953
 31
0.0
  0
LINE
  5
1B279
330
1B25B
100
AcDbEntity
  8
0
  6
CONTINUOUS
100
AcDbLine
 10
25.96267548958429
 20
0.1616569432088024
 30
0.0
 11
27.18411854636669
 21
1.383099999991207
 31
0.0
  0
LINE
  5
1B27A
330
1B25B
100
AcDbEntity
  8
0
  6
CONTINUOUS
100
AcDbLine
 10
29.30199999996933
 20
3.500981453593841
 30
0.0
 11
30.74199999996925
 21
4.940981453593762
 31
0.0
  0
LINE
  5
1B27B
330
1B25B
100
AcDbEntity
  8
0
  6
CONTINUOUS
100
AcDbLine
 10
26.50763775544691
 20
0.0330999999912356
 30
0.0
 11
27.85763775544689
 21
1.383099999991223
 31
0.0
  0
LINE
  5
1B27C
330
1B25B
100
AcDbEntity
  8
0
  6
CONTINUOUS
100
AcDbLine
 10
29.30199999996933
 20
2.827462244513656
 30
0.0
 11
30.74199999996925
 21
4.267462244513574
 31
0.0
  0
LINE
  5
1B27D
330
1B25B
100
AcDbEntity
  8
0
  6
CONTINUOUS
100
AcDbLine
 10
27.18115696452709
 20
0.0330999999912356
 30
0.0
 11
28.55073879889363
 21
1.402681834357775
 31
0.0
  0
LINE
  5
1B27E
330
1B25B
100
AcDbEntity
  8
0
  6
CONTINUOUS
100
AcDbLine
 10
29.28241816560272
 20
2.134361201066866
 30
0.0
 11
30.74199999996924
 21
3.593943035433383
 31
0.0
  0
LINE
  5
1B27F
330
1B25B
100
AcDbEntity
  8
0
  6
CONTINUOUS
100
AcDbLine
 10
27.85467617360728
 20
0.0330999999912356
 30
0.0
 11
30.74199999996924
 21
2.920423826353195
 31
0.0
  0
LINE
  5
1B280
330
1B25B
100
AcDbEntity
  8
0
  6
CONTINUOUS
100
AcDbLine
 10
28.53897559587887
 20
0.0438802131826428
 30
0.0
 11
30.73121978677781
 21
2.236124404081585
 31
0.0
  0
LINE
  5
1B281
330
1B25B
100
AcDbEntity
  8
0
  6
CONTINUOUS
100
AcDbLine
 10
29.45140055588722
 20
0.2827859641107988
 30
0.0
 11
30.49231403584965
 21
1.323699444073236
 31
0.0
  0
LINE
  5
1B282
330
1B25B
100
AcDbEntity
  8
0
  6
CONTINUOUS
100
AcDbLine
 10
19.59027867740337
 20
-0.0000967065718083
 30
0.0
 11
19.55485265190471
 21
0.035329318926844
 31
0.0
  0
LINE
  5
1B283
330
1B25B
100
AcDbEntity
  8
0
  6
CONTINUOUS
100
AcDbLine
 10
20.26375463176586
 20
-0.0000534518541091
 30
0.0
 11
19.76305575737534
 21
0.5006454225364014
 31
0.0
  0
LINE
  5
1B284
330
1B25B
100
AcDbEntity
  8
0
  6
CONTINUOUS
100
AcDbLine
 10
20.93723058612834
 20
-0.0000101971364099
 30
0.0
 11
19.97125886284597
 21
0.965961526145958
 31
0.0
  0
LINE
  5
1B285
330
1B25B
100
AcDbEntity
  8
0
  6
CONTINUOUS
100
AcDbLine
 10
21.25514828313686
 20
0.355591314935257
 30
0.0
 11
20.1794619683166
 21
1.431277629755512
 31
0.0
  0
LINE
  5
1B286
330
1B25B
100
AcDbEntity
  8
0
  6
CONTINUOUS
100
AcDbLine
 10
21.46338838394921
 20
0.8208704232030986
 30
0.0
 11
20.38766507378723
 21
1.896593733365069
 31
0.0
  0
LINE
  5
1B287
330
1B25B
100
AcDbEntity
  8
0
  6
CONTINUOUS
100
AcDbLine
 10
21.67162848476155
 20
1.28614953147094
 30
0.0
 11
20.59586817925786
 21
2.361909836974626
 31
0.0
  0
LINE
  5
1B288
330
1B25B
100
AcDbEntity
  8
0
  6
CONTINUOUS
100
AcDbLine
 10
21.8798685855739
 20
1.751428639738782
 30
0.0
 11
20.80407128472849
 21
2.827225940584183
 31
0.0
  0
LINE
  5
1B289
330
1B25B
100
AcDbEntity
  8
0
  6
CONTINUOUS
100
AcDbLine
 10
22.08810868638624
 20
2.216707748006623
 30
0.0
 11
21.01227439019912
 21
3.292542044193739
 31
0.0
  0
LINE
  5
1B28A
330
1B25B
100
AcDbEntity
  8
0
  6
CONTINUOUS
100
AcDbLine
 10
22.60993564347543
 20
2.36839999999762
 30
0.0
 11
21.22047749566975
 21
3.757858147803296
 31
0.0
  0
LINE
  5
1B28B
330
1B25B
100
AcDbEntity
  8
0
  6
CONTINUOUS
100
AcDbLine
 10
23.28345485255561
 20
2.36839999999762
 30
0.0
 11
21.42868060114038
 21
4.223174251412853
 31
0.0
  0
LINE
  5
1B28C
330
1B25B
100
AcDbEntity
  8
0
  6
CONTINUOUS
100
AcDbLine
 10
26.29227406164219
 20
0.0330999999912356
 30
0.0
 11
25.80009199592872
 21
0.5252820657046957
 31
0.0
  0
LINE
  5
1B28D
330
1B25B
100
AcDbEntity
  8
0
  6
CONTINUOUS
100
AcDbLine
 10
23.9569740616358
 20
2.36839999999762
 30
0.0
 11
21.63688370661101
 21
4.688490355022409
 31
0.0
  0
LINE
  5
1B28E
330
1B25B
100
AcDbEntity
  8
0
  6
CONTINUOUS
100
AcDbLine
 10
26.96579327072237
 20
0.0330999999912356
 30
0.0
 11
25.2554132311971
 21
1.743480039516508
 31
0.0
  0
LINE
  5
1B28F
330
1B25B
100
AcDbEntity
  8
0
  6
CONTINUOUS
100
AcDbLine
 10
24.63049327071599
 20
2.36839999999762
 30
0.0
 11
23.32789327071731
 21
3.670999999996297
 31
0.0
  0
LINE
  5
1B290
330
1B25B
100
AcDbEntity
  8
0
  6
CONTINUOUS
100
AcDbLine
 10
22.92098674744635
 20
4.077906523267254
 30
0.0
 11
21.84508681208164
 21
5.153806458631966
 31
0.0
  0
LINE
  5
1B291
330
1B25B
100
AcDbEntity
  8
0
  6
CONTINUOUS
100
AcDbLine
 10
27.63931247980256
 20
0.0330999999912356
 30
0.0
 11
24.0014124797975
 21
3.670999999996297
 31
0.0
  0
LINE
  5
1B292
330
1B25B
100
AcDbEntity
  8
0
  6
CONTINUOUS
100
AcDbLine
 10
23.129125600968
 20
4.5432868788258
 30
0.0
 11
22.05328991755227
 21
5.619122562241522
 31
0.0
  0
LINE
  5
1B293
330
1B25B
100
AcDbEntity
  8
0
  6
CONTINUOUS
100
AcDbLine
 10
28.31283168888275
 20
0.0330999999912356
 30
0.0
 11
24.16488385994816
 21
4.181047828925828
 31
0.0
  0
LINE
  5
1B294
330
1B25B
100
AcDbEntity
  8
0
  6
CONTINUOUS
100
AcDbLine
 10
23.33726445448964
 20
5.008667234384345
 30
0.0
 11
22.2614930230229
 21
6.084438665851079
 31
0.0
  0
LINE
  5
1B295
330
1B25B
100
AcDbEntity
  8
0
  6
CONTINUOUS
100
AcDbLine
 10
28.92085740005492
 20
0.0985934978992438
 30
0.0
 11
27.63635089796295
 21
1.383099999991217
 31
0.0
  0
LINE
  5
1B296
330
1B25B
100
AcDbEntity
  8
0
  6
CONTINUOUS
100
AcDbLine
 10
26.43704649509776
 20
2.582404402856405
 30
0.0
 11
23.61992702019732
 21
5.399523877756844
 31
0.0
  0
LINE
  5
1B297
330
1B25B
100
AcDbEntity
  8
0
  6
CONTINUOUS
100
AcDbLine
 10
23.54540330801128
 20
5.47404758994289
 30
0.0
 11
22.46969612849353
 21
6.549754769460635
 31
0.0
  0
LINE
  5
1B298
330
1B25B
100
AcDbEntity
  8
0
  6
CONTINUOUS
100
AcDbLine
 10
29.42225615078443
 20
0.2707139562499279
 30
0.0
 11
28.30987010704312
 21
1.383099999991234
 31
0.0
  0
LINE
  5
1B299
330
1B25B
100
AcDbEntity
  8
0
  6
CONTINUOUS
100
AcDbLine
 10
25.89179548232307
 20
3.801174624711282
 30
0.0
 11
22.67789923396416
 21
7.015070873070191
 31
0.0
  0
LINE
  5
1B29A
330
1B25B
100
AcDbEntity
  8
0
  6
CONTINUOUS
100
AcDbLine
 10
29.83624534690007
 20
0.5302439692144705
 30
0.0
 11
28.85811781497101
 21
1.508371501143527
 31
0.0
  0
LINE
  5
1B29B
330
1B25B
100
AcDbEntity
  8
0
  6
CONTINUOUS
100
AcDbLine
 10
25.34654446954838
 20
5.01994484656616
 30
0.0
 11
22.88610233943479
 21
7.480386976679748
 31
0.0
  0
LINE
  5
1B29C
330
1B25B
100
AcDbEntity
  8
0
  6
CONTINUOUS
100
AcDbLine
 10
30.17865975401872
 20
0.8613487711760022
 30
0.0
 11
29.18888744090175
 21
1.851121084292977
 31
0.0
  0
LINE
  5
1B29D
330
1B25B
100
AcDbEntity
  8
0
  6
CONTINUOUS
100
AcDbLine
 10
24.80129345677369
 20
6.238715068421037
 30
0.0
 11
23.09430544490542
 21
7.945703080289305
 31
0.0
  0
LINE
  5
1B29E
330
1B25B
100
AcDbEntity
  8
0
  6
CONTINUOUS
100
AcDbLine
 10
30.45496647202376
 20
1.258561262251155
 30
0.0
 11
29.30199999996933
 21
2.411527734305588
 31
0.0
  0
LINE
  5
1B29F
330
1B25B
100
AcDbEntity
  8
0
  6
CONTINUOUS
100
AcDbLine
 10
24.256042443999
 20
7.457485290275915
 30
0.0
 11
23.30250855037605
 21
8.411019183898862
 31
0.0
  0
LINE
  5
1B2A0
330
1B25B
100
AcDbEntity
  8
0
  6
CONTINUOUS
100
AcDbLine
 10
30.64868582078271
 20
1.738361122572387
 30
0.0
 11
29.30199999996933
 21
3.085046943385775
 31
0.0
  0
LINE
  5
1B2A1
330
1B25B
100
AcDbEntity
  8
0
  6
CONTINUOUS
100
AcDbLine
 10
23.71079143122431
 20
8.676255512130794
 30
0.0
 11
23.51071165584668
 21
8.876335287508416
 31
0.0
  0
LINE
  5
1B2A2
330
1B25B
100
AcDbEntity
  8
0
  6
CONTINUOUS
100
AcDbLine
 10
30.73802122914428
 20
2.322544923291007
 30
0.0
 11
29.30199999996933
 21
3.758566152465961
 31
0.0
  0
LINE
  5
1B2A3
330
1B25B
100
AcDbEntity
  8
0
  6
CONTINUOUS
100
AcDbLine
 10
30.74199999996924
 20
2.992085361546236
 30
0.0
 11
29.30199999996933
 21
4.432085361546148
 31
0.0
  0
LINE
  5
1B2A4
330
1B25B
100
AcDbEntity
  8
0
  6
CONTINUOUS
100
AcDbLine
 10
30.74199999996924
 20
3.665604570626419
 30
0.0
 11
29.30199999996933
 21
5.105604570626333
 31
0.0
  0
LINE
  5
1B2A5
330
1B25B
100
AcDbEntity
  8
0
  6
CONTINUOUS
100
AcDbLine
 10
30.74199999996925
 20
4.339123779706602
 30
0.0
 11
29.30199999996933
 21
5.77912377970652
 31
0.0
  0
LINE
  5
1B2A6
330
1B25B
100
AcDbEntity
  8
0
  6
CONTINUOUS
100
AcDbLine
 10
30.74199999996925
 20
5.012642988786785
 30
0.0
 11
29.30199999996933
 21
6.452642988786707
 31
0.0
  0
LINE
  5
1B2A7
330
1B25B
100
AcDbEntity
  8
0
  6
CONTINUOUS
100
AcDbLine
 10
30.74199999996925
 20
5.68616219786697
 30
0.0
 11
29.30199999996933
 21
7.126162197866894
 31
0.0
  0
LINE
  5
1B2A8
330
1B25B
100
AcDbEntity
  8
0
  6
CONTINUOUS
100
AcDbLine
 10
30.74199999996925
 20
6.359681406947153
 30
0.0
 11
29.30199999996933
 21
7.799681406947081
 31
0.0
  0
LINE
  5
1B2A9
330
1B25B
100
AcDbEntity
  8
0
  6
CONTINUOUS
100
AcDbLine
 10
30.74199999996926
 20
7.033200616027337
 30
0.0
 11
29.30199999996933
 21
8.473200616027269
 31
0.0
  0
LINE
  5
1B2AA
330
1B25B
100
AcDbEntity
  8
0
  6
CONTINUOUS
100
AcDbLine
 10
30.74199999996926
 20
7.706719825107518
 30
0.0
 11
29.68561982508552
 21
8.763099999991255
 31
0.0
  0
LINE
  5
1B2AB
330
1B25B
100
AcDbEntity
  8
0
  6
CONTINUOUS
100
AcDbLine
 10
30.74199999996926
 20
8.380239034187703
 30
0.0
 11
30.35913903416571
 21
8.763099999991255
 31
0.0
  0
ENDBLK
  5
1B34E
330
1B25B
100
AcDbEntity
  8
0
100
AcDbBlockEnd
  0
BLOCK
  5
1B34F
330
1B2AC
100
AcDbEntity
  8
0
100
AcDbBlockBegin
  2
*X149
 70
     1
 10
0.0
 20
0.0
 30
0.0
  3
*X149
  1

  0
LINE
  5
1B2AD
330
1B2AC
100
AcDbEntity
  8
0
  6
CONTINUOUS
100
AcDbLine
 10
31.64199999996833
 20
8.535058289913598
 30
0.0
 11
31.87004171004599
 21
8.763099999991255
 31
0.0
  0
LINE
  5
1B2AE
330
1B2AC
100
AcDbEntity
  8
0
  6
CONTINUOUS
100
AcDbLine
 10
31.64199999996833
 20
7.861539080833412
 30
0.0
 11
32.54356091912618
 21
8.763099999991255
 31
0.0
  0
LINE
  5
1B2AF
330
1B2AC
100
AcDbEntity
  8
0
  6
CONTINUOUS
100
AcDbLine
 10
31.64199999996833
 20
7.188019871753226
 30
0.0
 11
33.08199999996839
 21
8.628019871753281
 31
0.0
  0
LINE
  5
1B2B0
330
1B2AC
100
AcDbEntity
  8
0
  6
CONTINUOUS
100
AcDbLine
 10
31.64199999996833
 20
6.51450066267304
 30
0.0
 11
33.08199999996839
 21
7.954500662673095
 31
0.0
  0
LINE
  5
1B2B1
330
1B2AC
100
AcDbEntity
  8
0
  6
CONTINUOUS
100
AcDbLine
 10
31.64199999996833
 20
5.840981453592853
 30
0.0
 11
33.08199999996839
 21
7.280981453592908
 31
0.0
  0
LINE
  5
1B2B2
330
1B2AC
100
AcDbEntity
  8
0
  6
CONTINUOUS
100
AcDbLine
 10
31.64199999996833
 20
5.167462244512667
 30
0.0
 11
33.08199999996839
 21
6.607462244512721
 31
0.0
  0
LINE
  5
1B2B3
330
1B2AC
100
AcDbEntity
  8
0
  6
CONTINUOUS
100
AcDbLine
 10
31.64199999996833
 20
4.493943035432481
 30
0.0
 11
33.08199999996839
 21
5.933943035432535
 31
0.0
  0
LINE
  5
1B2B4
330
1B2AC
100
AcDbEntity
  8
0
  6
CONTINUOUS
100
AcDbLine
 10
31.64199999996833
 20
3.820423826352293
 30
0.0
 11
33.08199999996839
 21
5.260423826352348
 31
0.0
  0
LINE
  5
1B2B5
330
1B2AC
100
AcDbEntity
  8
0
  6
CONTINUOUS
100
AcDbLine
 10
31.64199999996833
 20
3.146904617272106
 30
0.0
 11
33.08199999996839
 21
4.586904617272161
 31
0.0
  0
LINE
  5
1B2B6
330
1B2AC
100
AcDbEntity
  8
0
  6
CONTINUOUS
100
AcDbLine
 10
36.23199999996837
 20
8.410423826352325
 30
0.0
 11
36.5846761736073
 21
8.763099999991255
 31
0.0
  0
LINE
  5
1B2B7
330
1B2AC
100
AcDbEntity
  8
0
  6
CONTINUOUS
100
AcDbLine
 10
36.23199999996837
 20
7.73690461727214
 30
0.0
 11
37.25819538268748
 21
8.763099999991255
 31
0.0
  0
LINE
  5
1B2B8
330
1B2AC
100
AcDbEntity
  8
0
  6
CONTINUOUS
100
AcDbLine
 10
31.64257403601376
 20
2.473959444237348
 30
0.0
 11
33.08199999996839
 21
3.913385408191974
 31
0.0
  0
LINE
  5
1B2B9
330
1B2AC
100
AcDbEntity
  8
0
  6
CONTINUOUS
100
AcDbLine
 10
36.23199999996837
 20
7.063385408191953
 30
0.0
 11
37.67199999996831
 21
8.503385408191894
 31
0.0
  0
LINE
  5
1B2BA
330
1B2AC
100
AcDbEntity
  8
0
  6
CONTINUOUS
100
AcDbLine
 10
31.72013636841932
 20
1.87800256756272
 30
0.0
 11
33.08199999996839
 21
3.239866199111788
 31
0.0
  0
LINE
  5
1B2BB
330
1B2AC
100
AcDbEntity
  8
0
  6
CONTINUOUS
100
AcDbLine
 10
36.23199999996837
 20
6.389866199111767
 30
0.0
 11
37.67199999996831
 21
7.829866199111708
 31
0.0
  0
LINE
  5
1B2BC
330
1B2AC
100
AcDbEntity
  8
0
  6
CONTINUOUS
100
AcDbLine
 10
31.89042734314753
 20
1.374774333210744
 30
0.0
 11
33.08199999996839
 21
2.566346990031601
 31
0.0
  0
LINE
  5
1B2BD
330
1B2AC
100
AcDbEntity
  8
0
  6
CONTINUOUS
100
AcDbLine
 10
36.23199999996837
 20
5.71634699003158
 30
0.0
 11
37.67199999996831
 21
7.156346990031521
 31
0.0
  0
LINE
  5
1B2BE
330
1B2AC
100
AcDbEntity
  8
0
  6
CONTINUOUS
100
AcDbLine
 10
32.14210568064475
 20
0.952933461627778
 30
0.0
 11
33.18745552475986
 21
1.998283305742888
 31
0.0
  0
LINE
  5
1B2BF
330
1B2AC
100
AcDbEntity
  8
0
  6
CONTINUOUS
100
AcDbLine
 10
36.23199999996837
 20
5.042827780951393
 30
0.0
 11
37.67199999996831
 21
6.482827780951334
 31
0.0
  0
LINE
  5
1B2C0
330
1B2AC
100
AcDbEntity
  8
0
  6
CONTINUOUS
100
AcDbLine
 10
32.45820639400955
 20
0.5955149659123915
 30
0.0
 11
33.47242681921943
 21
1.60973539112227
 31
0.0
  0
LINE
  5
1B2C1
330
1B2AC
100
AcDbEntity
  8
0
  6
CONTINUOUS
100
AcDbLine
 10
36.23199999996837
 20
4.369308571871207
 30
0.0
 11
37.67199999996831
 21
5.809308571871147
 31
0.0
  0
LINE
  5
1B2C2
330
1B2AC
100
AcDbEntity
  8
0
  6
CONTINUOUS
100
AcDbLine
 10
32.83432456621412
 20
0.2981139290367771
 30
0.0
 11
33.89722476612215
 21
1.361014128944803
 31
0.0
  0
LINE
  5
1B2C3
330
1B2AC
100
AcDbEntity
  8
0
  6
CONTINUOUS
100
AcDbLine
 10
36.23199999996837
 20
3.69578936279102
 30
0.0
 11
37.67199999996831
 21
5.135789362790962
 31
0.0
  0
LINE
  5
1B2C4
330
1B2AC
100
AcDbEntity
  8
0
  6
CONTINUOUS
100
AcDbLine
 10
33.2711633111245
 20
0.0614334648669672
 30
0.0
 11
34.43247338014423
 21
1.222743533886696
 31
0.0
  0
LINE
  5
1B2C5
330
1B2AC
100
AcDbEntity
  8
0
  6
CONTINUOUS
100
AcDbLine
 10
36.23199999996837
 20
3.022270153710834
 30
0.0
 11
37.67199999996831
 21
4.462270153710775
 31
0.0
  0
LINE
  5
1B2C6
330
1B2AC
100
AcDbEntity
  8
0
  6
CONTINUOUS
100
AcDbLine
 10
33.76515245874577
 20
-0.1180965965919523
 30
0.0
 11
35.1587445516215
 21
1.27549549628378
 31
0.0
  0
LINE
  5
1B2C7
330
1B2AC
100
AcDbEntity
  8
0
  6
CONTINUOUS
100
AcDbLine
 10
36.21639478609585
 20
2.333145730758136
 30
0.0
 11
37.67199999996831
 21
3.788750944630588
 31
0.0
  0
LINE
  5
1B2C8
330
1B2AC
100
AcDbEntity
  8
0
  6
CONTINUOUS
100
AcDbLine
 10
34.34060583368432
 20
-0.2161624307335863
 30
0.0
 11
37.67199999996831
 21
3.115231735550401
 31
0.0
  0
LINE
  5
1B2C9
330
1B2AC
100
AcDbEntity
  8
0
  6
CONTINUOUS
100
AcDbLine
 10
35.01698193613905
 20
-0.2133055373590427
 30
0.0
 11
37.66876712070525
 21
2.438479647207154
 31
0.0
  0
LINE
  5
1B2CA
330
1B2AC
100
AcDbEntity
  8
0
  6
CONTINUOUS
100
AcDbLine
 10
35.90743367693304
 20
0.0036269943547609
 30
0.0
 11
37.51723902192366
 21
1.613432339345381
 31
0.0
  0
LINE
  5
1B2CB
330
1B2AC
100
AcDbEntity
  8
0
  6
CONTINUOUS
100
AcDbLine
 10
32.55309425579761
 20
0.5074718966376706
 30
0.0
 11
32.27784730925847
 21
0.7827188431768102
 31
0.0
  0
LINE
  5
1B2CC
330
1B2AC
100
AcDbEntity
  8
0
  6
CONTINUOUS
100
AcDbLine
 10
33.87496468909684
 20
-0.1408793275813673
 30
0.0
 11
31.67993083278052
 21
2.054154528734943
 31
0.0
  0
LINE
  5
1B2CD
330
1B2AC
100
AcDbEntity
  8
0
  6
CONTINUOUS
100
AcDbLine
 10
34.64362813207632
 20
-0.2360235614806649
 30
0.0
 11
31.64199999996833
 21
2.765604570627322
 31
0.0
  0
LINE
  5
1B2CE
330
1B2AC
100
AcDbEntity
  8
0
  6
CONTINUOUS
100
AcDbLine
 10
35.25801106796118
 20
-0.1768872882853429
 30
0.0
 11
31.64199999996833
 21
3.439123779707508
 31
0.0
  0
LINE
  5
1B2CF
330
1B2AC
100
AcDbEntity
  8
0
  6
CONTINUOUS
100
AcDbLine
 10
35.79065650332146
 20
-0.0360135145654361
 30
0.0
 11
34.54143210838231
 21
1.213210880373721
 31
0.0
  0
LINE
  5
1B2D0
330
1B2AC
100
AcDbEntity
  8
0
  6
CONTINUOUS
100
AcDbLine
 10
33.08199999996839
 20
2.67264298878764
 30
0.0
 11
31.64199999996833
 21
4.112642988787695
 31
0.0
  0
LINE
  5
1B2D1
330
1B2AC
100
AcDbEntity
  8
0
  6
CONTINUOUS
100
AcDbLine
 10
36.25975597779143
 20
0.1684062200447833
 30
0.0
 11
35.15395110240023
 21
1.274211095435983
 31
0.0
  0
LINE
  5
1B2D2
330
1B2AC
100
AcDbEntity
  8
0
  6
CONTINUOUS
100
AcDbLine
 10
33.08199999996839
 20
3.346162197867826
 30
0.0
 11
31.64199999996833
 21
4.786162197867881
 31
0.0
  0
LINE
  5
1B2D3
330
1B2AC
100
AcDbEntity
  8
0
  6
CONTINUOUS
100
AcDbLine
 10
36.67226329638774
 20
0.4294181105286579
 30
0.0
 11
35.63766478748767
 21
1.464016619428737
 31
0.0
  0
LINE
  5
1B2D4
330
1B2AC
100
AcDbEntity
  8
0
  6
CONTINUOUS
100
AcDbLine
 10
33.08199999996839
 20
4.019681406948012
 30
0.0
 11
31.64199999996833
 21
5.459681406948068
 31
0.0
  0
LINE
  5
1B2D5
330
1B2AC
100
AcDbEntity
  8
0
  6
CONTINUOUS
100
AcDbLine
 10
37.01677749710036
 20
0.7584231188962329
 30
0.0
 11
35.99563422741351
 21
1.779566388583076
 31
0.0
  0
LINE
  5
1B2D6
330
1B2AC
100
AcDbEntity
  8
0
  6
CONTINUOUS
100
AcDbLine
 10
33.08199999996839
 20
4.693200616028199
 30
0.0
 11
31.64199999996833
 21
6.133200616028255
 31
0.0
  0
LINE
  5
1B2D7
330
1B2AC
100
AcDbEntity
  8
0
  6
CONTINUOUS
100
AcDbLine
 10
37.29859977568887
 20
1.1501200493879
 30
0.0
 11
36.20680593341555
 21
2.241913891661226
 31
0.0
  0
LINE
  5
1B2D8
330
1B2AC
100
AcDbEntity
  8
0
  6
CONTINUOUS
100
AcDbLine
 10
33.08199999996839
 20
5.366719825108386
 30
0.0
 11
31.64199999996833
 21
6.80671982510844
 31
0.0
  0
LINE
  5
1B2D9
330
1B2AC
100
AcDbEntity
  8
0
  6
CONTINUOUS
100
AcDbLine
 10
37.5148623517228
 20
1.607376682434161
 30
0.0
 11
36.23199999996837
 21
2.890239034188594
 31
0.0
  0
LINE
  5
1B2DA
330
1B2AC
100
AcDbEntity
  8
0
  6
CONTINUOUS
100
AcDbLine
 10
33.08199999996839
 20
6.040239034188573
 30
0.0
 11
31.64199999996833
 21
7.480239034188627
 31
0.0
  0
LINE
  5
1B2DB
330
1B2AC
100
AcDbEntity
  8
0
  6
CONTINUOUS
100
AcDbLine
 10
37.64705163358367
 20
2.148706609653477
 30
0.0
 11
36.23199999996837
 21
3.56375824326878
 31
0.0
  0
LINE
  5
1B2DC
330
1B2AC
100
AcDbEntity
  8
0
  6
CONTINUOUS
100
AcDbLine
 10
33.08199999996839
 20
6.713758243268758
 30
0.0
 11
31.64199999996833
 21
8.153758243268815
 31
0.0
  0
LINE
  5
1B2DD
330
1B2AC
100
AcDbEntity
  8
0
  6
CONTINUOUS
100
AcDbLine
 10
37.67199999996831
 20
2.797277452349026
 30
0.0
 11
36.23199999996837
 21
4.237277452348967
 31
0.0
  0
LINE
  5
1B2DE
330
1B2AC
100
AcDbEntity
  8
0
  6
CONTINUOUS
100
AcDbLine
 10
37.67199999996831
 20
3.470796661429213
 30
0.0
 11
36.23199999996837
 21
4.910796661429154
 31
0.0
  0
LINE
  5
1B2DF
330
1B2AC
100
AcDbEntity
  8
0
  6
CONTINUOUS
100
AcDbLine
 10
37.67199999996831
 20
4.144315870509399
 30
0.0
 11
36.23199999996837
 21
5.58431587050934
 31
0.0
  0
LINE
  5
1B2E0
330
1B2AC
100
AcDbEntity
  8
0
  6
CONTINUOUS
100
AcDbLine
 10
33.08199999996839
 20
7.387277452348945
 30
0.0
 11
31.70617745232608
 21
8.763099999991255
 31
0.0
  0
LINE
  5
1B2E1
330
1B2AC
100
AcDbEntity
  8
0
  6
CONTINUOUS
100
AcDbLine
 10
33.08199999996839
 20
8.060796661429132
 30
0.0
 11
32.37969666140626
 21
8.763099999991255
 31
0.0
  0
LINE
  5
1B2E2
330
1B2AC
100
AcDbEntity
  8
0
  6
CONTINUOUS
100
AcDbLine
 10
33.08199999996839
 20
8.734315870509318
 30
0.0
 11
33.05321587048645
 21
8.763099999991255
 31
0.0
  0
LINE
  5
1B2E3
330
1B2AC
100
AcDbEntity
  8
0
  6
CONTINUOUS
100
AcDbLine
 10
37.67199999996831
 20
4.817835079589585
 30
0.0
 11
36.23199999996837
 21
6.257835079589526
 31
0.0
  0
LINE
  5
1B2E4
330
1B2AC
100
AcDbEntity
  8
0
  6
CONTINUOUS
100
AcDbLine
 10
37.67199999996831
 20
5.491354288669771
 30
0.0
 11
36.23199999996837
 21
6.931354288669713
 31
0.0
  0
LINE
  5
1B2E5
330
1B2AC
100
AcDbEntity
  8
0
  6
CONTINUOUS
100
AcDbLine
 10
37.67199999996831
 20
6.164873497749958
 30
0.0
 11
36.23199999996837
 21
7.6048734977499
 31
0.0
  0
LINE
  5
1B2E6
330
1B2AC
100
AcDbEntity
  8
0
  6
CONTINUOUS
100
AcDbLine
 10
37.67199999996831
 20
6.838392706830144
 30
0.0
 11
36.23199999996837
 21
8.278392706830086
 31
0.0
  0
LINE
  5
1B2E7
330
1B2AC
100
AcDbEntity
  8
0
  6
CONTINUOUS
100
AcDbLine
 10
37.67199999996831
 20
7.511911915910332
 30
0.0
 11
36.42081191588738
 21
8.763099999991255
 31
0.0
  0
LINE
  5
1B2E8
330
1B2AC
100
AcDbEntity
  8
0
  6
CONTINUOUS
100
AcDbLine
 10
37.67199999996831
 20
8.185431124990519
 30
0.0
 11
37.09433112496757
 21
8.763099999991255
 31
0.0
  0
ENDBLK
  5
1B350
330
1B2AC
100
AcDbEntity
  8
0
100
AcDbBlockEnd
  0
BLOCK
  5
1B351
330
1B2E9
100
AcDbEntity
  8
0
100
AcDbBlockBegin
  2
*X150
 70
     1
 10
0.0
 20
0.0
 30
0.0
  3
*X150
  1

  0
LINE
  5
1B2EA
330
1B2E9
100
AcDbEntity
  8
0
  6
CONTINUOUS
100
AcDbLine
 10
38.60499999996136
 20
8.762866199104765
 30
0.0
 11
38.71672554182345
 21
8.874591740966855
 31
0.0
  0
LINE
  5
1B2EB
330
1B2E9
100
AcDbEntity
  8
0
  6
CONTINUOUS
100
AcDbLine
 10
38.60499999996136
 20
8.089346990024577
 30
0.0
 11
39.03418785440363
 21
8.518534844466847
 31
0.0
  0
LINE
  5
1B2EC
330
1B2E9
100
AcDbEntity
  8
0
  6
CONTINUOUS
100
AcDbLine
 10
38.60499999996136
 20
7.41582778094439
 30
0.0
 11
39.35165016698382
 21
8.16247794796684
 31
0.0
  0
LINE
  5
1B2ED
330
1B2E9
100
AcDbEntity
  8
0
  6
CONTINUOUS
100
AcDbLine
 10
38.60499999996136
 20
6.742308571864204
 30
0.0
 11
39.66911247956399
 21
7.806421051466834
 31
0.0
  0
LINE
  5
1B2EE
330
1B2E9
100
AcDbEntity
  8
0
  6
CONTINUOUS
100
AcDbLine
 10
38.60499999996136
 20
6.068789362784018
 30
0.0
 11
39.98657479214418
 21
7.450364154966827
 31
0.0
  0
LINE
  5
1B2EF
330
1B2E9
100
AcDbEntity
  8
0
  6
CONTINUOUS
100
AcDbLine
 10
38.60499999996136
 20
5.395270153703832
 30
0.0
 11
40.30403710472435
 21
7.09430725846682
 31
0.0
  0
LINE
  5
1B2F0
330
1B2E9
100
AcDbEntity
  8
0
  6
CONTINUOUS
100
AcDbLine
 10
38.60499999996136
 20
4.721750944623645
 30
0.0
 11
40.62149941730453
 21
6.738250361966813
 31
0.0
  0
LINE
  5
1B2F1
330
1B2E9
100
AcDbEntity
  8
0
  6
CONTINUOUS
100
AcDbLine
 10
38.60499999996136
 20
4.048231735543458
 30
0.0
 11
40.93896172988471
 21
6.382193465466806
 31
0.0
  0
LINE
  5
1B2F2
330
1B2E9
100
AcDbEntity
  8
0
  6
CONTINUOUS
100
AcDbLine
 10
38.60499999996136
 20
3.374712526463272
 30
0.0
 11
40.02599999995994
 21
4.795712526461843
 31
0.0
  0
LINE
  5
1B2F3
330
1B2E9
100
AcDbEntity
  8
0
  6
CONTINUOUS
100
AcDbLine
 10
38.60499999996136
 20
2.701193317383085
 30
0.0
 11
40.02599999995994
 21
4.122193317381657
 31
0.0
  0
LINE
  5
1B2F4
330
1B2E9
100
AcDbEntity
  8
0
  6
CONTINUOUS
100
AcDbLine
 10
40.28339754687704
 20
5.053110073378947
 30
0.0
 11
41.25642404246489
 21
6.026136568966799
 31
0.0
  0
LINE
  5
1B2F5
330
1B2E9
100
AcDbEntity
  8
0
  6
CONTINUOUS
100
AcDbLine
 10
40.60085985945722
 20
4.697053176878939
 30
0.0
 11
41.57388635504507
 21
5.670079672466793
 31
0.0
  0
LINE
  5
1B2F6
330
1B2E9
100
AcDbEntity
  8
0
  6
CONTINUOUS
100
AcDbLine
 10
43.57899999995641
 20
8.348712526458318
 30
0.0
 11
43.99338747348935
 21
8.763099999991255
 31
0.0
  0
LINE
  5
1B2F7
330
1B2E9
100
AcDbEntity
  8
0
  6
CONTINUOUS
100
AcDbLine
 10
43.57899999995641
 20
7.675193317378131
 30
0.0
 11
44.66690668256953
 21
8.763099999991255
 31
0.0
  0
LINE
  5
1B2F8
330
1B2E9
100
AcDbEntity
  8
0
  6
CONTINUOUS
100
AcDbLine
 10
38.60499999996136
 20
2.027674108302898
 30
0.0
 11
40.02599999995994
 21
3.44867410830147
 31
0.0
  0
LINE
  5
1B2F9
330
1B2E9
100
AcDbEntity
  8
0
  6
CONTINUOUS
100
AcDbLine
 10
38.60499999996136
 20
1.354154899222712
 30
0.0
 11
40.02599999995994
 21
2.775154899221284
 31
0.0
  0
LINE
  5
1B2FA
330
1B2E9
100
AcDbEntity
  8
0
  6
CONTINUOUS
100
AcDbLine
 10
38.60499999996136
 20
0.6806356901425255
 30
0.0
 11
40.02599999995994
 21
2.101635690141098
 31
0.0
  0
LINE
  5
1B2FB
330
1B2E9
100
AcDbEntity
  8
0
  6
CONTINUOUS
100
AcDbLine
 10
38.60499999996136
 20
0.0071164810623383
 30
0.0
 11
40.02599999995994
 21
1.428116481060911
 31
0.0
  0
LINE
  5
1B2FC
330
1B2E9
100
AcDbEntity
  8
0
  6
CONTINUOUS
100
AcDbLine
 10
40.9183221720374
 20
4.340996280378933
 30
0.0
 11
41.89134866762525
 21
5.314022775966786
 31
0.0
  0
LINE
  5
1B2FD
330
1B2E9
100
AcDbEntity
  8
0
  6
CONTINUOUS
100
AcDbLine
 10
41.23578448461758
 20
3.984939383878926
 30
0.0
 11
42.20881098020543
 21
4.957965879466778
 31
0.0
  0
LINE
  5
1B2FE
330
1B2E9
100
AcDbEntity
  8
0
  6
CONTINUOUS
100
AcDbLine
 10
41.55324679719776
 20
3.628882487378919
 30
0.0
 11
42.52627329278561
 21
4.601908982966772
 31
0.0
  0
LINE
  5
1B2FF
330
1B2E9
100
AcDbEntity
  8
0
  6
CONTINUOUS
100
AcDbLine
 10
41.87070910977793
 20
3.272825590878912
 30
0.0
 11
42.84373560536579
 21
4.245852086466765
 31
0.0
  0
LINE
  5
1B300
330
1B2E9
100
AcDbEntity
  8
0
  6
CONTINUOUS
100
AcDbLine
 10
43.57899999995641
 20
7.001674108297943
 30
0.0
 11
44.99999999995498
 21
8.422674108296516
 31
0.0
  0
LINE
  5
1B301
330
1B2E9
100
AcDbEntity
  8
0
  6
CONTINUOUS
100
AcDbLine
 10
43.57899999995641
 20
6.328154899217758
 30
0.0
 11
44.99999999995498
 21
7.749154899216329
 31
0.0
  0
LINE
  5
1B302
330
1B2E9
100
AcDbEntity
  8
0
  6
CONTINUOUS
100
AcDbLine
 10
43.57899999995641
 20
5.654635690137571
 30
0.0
 11
44.99999999995498
 21
7.075635690136142
 31
0.0
  0
LINE
  5
1B303
330
1B2E9
100
AcDbEntity
  8
0
  6
CONTINUOUS
100
AcDbLine
 10
43.57899999995641
 20
4.981116481057384
 30
0.0
 11
44.99999999995498
 21
6.402116481055955
 31
0.0
  0
LINE
  5
1B304
330
1B2E9
100
AcDbEntity
  8
0
  6
CONTINUOUS
100
AcDbLine
 10
39.27140272797921
 20
-0.0000000000000009
 30
0.0
 11
40.02599999995994
 21
0.7545972719807246
 31
0.0
  0
LINE
  5
1B305
330
1B2E9
100
AcDbEntity
  8
0
  6
CONTINUOUS
100
AcDbLine
 10
39.9449219370594
 20
-0.0000000000000009
 30
0.0
 11
40.02599999995994
 21
0.0810780629005379
 31
0.0
  0
LINE
  5
1B306
330
1B2E9
100
AcDbEntity
  8
0
  6
CONTINUOUS
100
AcDbLine
 10
42.18817142235812
 20
2.916768694378905
 30
0.0
 11
43.16119791794597
 21
3.889795189966758
 31
0.0
  0
LINE
  5
1B307
330
1B2E9
100
AcDbEntity
  8
0
  6
CONTINUOUS
100
AcDbLine
 10
42.50563373493829
 20
2.560711797878898
 30
0.0
 11
43.47866023052615
 21
3.533738293466751
 31
0.0
  0
LINE
  5
1B308
330
1B2E9
100
AcDbEntity
  8
0
  6
CONTINUOUS
100
AcDbLine
 10
43.57899999995641
 20
4.307597271977198
 30
0.0
 11
44.99999999995498
 21
5.728597271975769
 31
0.0
  0
LINE
  5
1B309
330
1B2E9
100
AcDbEntity
  8
0
  6
CONTINUOUS
100
AcDbLine
 10
43.57899999995641
 20
3.634078062897011
 30
0.0
 11
44.99999999995498
 21
5.055078062895582
 31
0.0
  0
LINE
  5
1B30A
330
1B2E9
100
AcDbEntity
  8
0
  6
CONTINUOUS
100
AcDbLine
 10
42.82309604751848
 20
2.204654901378891
 30
0.0
 11
44.99999999995498
 21
4.381558853815395
 31
0.0
  0
LINE
  5
1B30B
330
1B2E9
100
AcDbEntity
  8
0
  6
CONTINUOUS
100
AcDbLine
 10
43.14055836009865
 20
1.848598004878885
 30
0.0
 11
44.99999999995498
 21
3.70803964473521
 31
0.0
  0
LINE
  5
1B30C
330
1B2E9
100
AcDbEntity
  8
0
  6
CONTINUOUS
100
AcDbLine
 10
43.45802067267883
 20
1.492541108378878
 30
0.0
 11
44.99999999995498
 21
3.034520435655023
 31
0.0
  0
LINE
  5
1B30D
330
1B2E9
100
AcDbEntity
  8
0
  6
CONTINUOUS
100
AcDbLine
 10
43.77548298525902
 20
1.136484211878871
 30
0.0
 11
44.99999999995498
 21
2.361001226574837
 31
0.0
  0
LINE
  5
1B30E
330
1B2E9
100
AcDbEntity
  8
0
  6
CONTINUOUS
100
AcDbLine
 10
44.09294529783919
 20
0.7804273153788639
 30
0.0
 11
44.99999999995498
 21
1.687482017494649
 31
0.0
  0
LINE
  5
1B30F
330
1B2E9
100
AcDbEntity
  8
0
  6
CONTINUOUS
100
AcDbLine
 10
44.41040761041938
 20
0.4243704188788566
 30
0.0
 11
44.99999999995498
 21
1.013962808414463
 31
0.0
  0
LINE
  5
1B310
330
1B2E9
100
AcDbEntity
  8
0
  6
CONTINUOUS
100
AcDbLine
 10
44.72786992299955
 20
0.0683135223788494
 30
0.0
 11
44.99999999995498
 21
0.340443599334276
 31
0.0
  0
LINE
  5
1B311
330
1B2E9
100
AcDbEntity
  8
0
  6
CONTINUOUS
100
AcDbLine
 10
39.12223903415696
 20
-0.0000000000000009
 30
0.0
 11
38.60499999996136
 21
0.5172390341955961
 31
0.0
  0
LINE
  5
1B312
330
1B2E9
100
AcDbEntity
  8
0
  6
CONTINUOUS
100
AcDbLine
 10
39.79575824323715
 20
-0.0000000000000009
 30
0.0
 11
38.60499999996136
 21
1.190758243275783
 31
0.0
  0
LINE
  5
1B313
330
1B2E9
100
AcDbEntity
  8
0
  6
CONTINUOUS
100
AcDbLine
 10
40.02599999995994
 20
0.443277452357397
 30
0.0
 11
38.60499999996136
 21
1.864277452355969
 31
0.0
  0
LINE
  5
1B314
330
1B2E9
100
AcDbEntity
  8
0
  6
CONTINUOUS
100
AcDbLine
 10
40.02599999995994
 20
1.116796661437583
 30
0.0
 11
38.60499999996136
 21
2.537796661436155
 31
0.0
  0
LINE
  5
1B315
330
1B2E9
100
AcDbEntity
  8
0
  6
CONTINUOUS
100
AcDbLine
 10
40.02599999995994
 20
1.79031587051777
 30
0.0
 11
38.60499999996136
 21
3.211315870516341
 31
0.0
  0
LINE
  5
1B316
330
1B2E9
100
AcDbEntity
  8
0
  6
CONTINUOUS
100
AcDbLine
 10
40.02599999995994
 20
2.463835079597956
 30
0.0
 11
38.60499999996136
 21
3.884835079596527
 31
0.0
  0
LINE
  5
1B317
330
1B2E9
100
AcDbEntity
  8
0
  6
CONTINUOUS
100
AcDbLine
 10
40.02599999995994
 20
3.137354288678143
 30
0.0
 11
38.60499999996136
 21
4.558354288676714
 31
0.0
  0
LINE
  5
1B318
330
1B2E9
100
AcDbEntity
  8
0
  6
CONTINUOUS
100
AcDbLine
 10
40.02599999995994
 20
3.810873497758329
 30
0.0
 11
38.60499999996136
 21
5.2318734977569
 31
0.0
  0
LINE
  5
1B319
330
1B2E9
100
AcDbEntity
  8
0
  6
CONTINUOUS
100
AcDbLine
 10
40.02599999995994
 20
4.484392706838515
 30
0.0
 11
38.60499999996136
 21
5.905392706837086
 31
0.0
  0
LINE
  5
1B31A
330
1B2E9
100
AcDbEntity
  8
0
  6
CONTINUOUS
100
AcDbLine
 10
44.99999999995498
 20
0.183911915923658
 30
0.0
 11
41.53858364506288
 21
3.64532827081576
 31
0.0
  0
LINE
  5
1B31B
330
1B2E9
100
AcDbEntity
  8
0
  6
CONTINUOUS
100
AcDbLine
 10
40.02599999995994
 20
5.157911915918703
 30
0.0
 11
38.60499999996136
 21
6.578911915917274
 31
0.0
  0
LINE
  5
1B31C
330
1B2E9
100
AcDbEntity
  8
0
  6
CONTINUOUS
100
AcDbLine
 10
44.99999999995498
 20
0.8574311250038447
 30
0.0
 11
38.60499999996136
 21
7.25243112499746
 31
0.0
  0
LINE
  5
1B31D
330
1B2E9
100
AcDbEntity
  8
0
  6
CONTINUOUS
100
AcDbLine
 10
44.99999999995498
 20
1.530950334084031
 30
0.0
 11
38.60499999996136
 21
7.925950334077647
 31
0.0
  0
LINE
  5
1B31E
330
1B2E9
100
AcDbEntity
  8
0
  6
CONTINUOUS
100
AcDbLine
 10
44.99999999995498
 20
2.204469543164218
 30
0.0
 11
43.57899999995641
 21
3.625469543162789
 31
0.0
  0
LINE
  5
1B31F
330
1B2E9
100
AcDbEntity
  8
0
  6
CONTINUOUS
100
AcDbLine
 10
41.89876730984767
 20
5.305702233271528
 30
0.0
 11
38.60499999996136
 21
8.599469543157834
 31
0.0
  0
LINE
  5
1B320
330
1B2E9
100
AcDbEntity
  8
0
  6
CONTINUOUS
100
AcDbLine
 10
44.99999999995498
 20
2.877988752244405
 30
0.0
 11
43.57899999995641
 21
4.298988752242975
 31
0.0
  0
LINE
  5
1B321
330
1B2E9
100
AcDbEntity
  8
0
  6
CONTINUOUS
100
AcDbLine
 10
44.99999999995498
 20
3.551507961324591
 30
0.0
 11
43.57899999995641
 21
4.972507961323163
 31
0.0
  0
LINE
  5
1B322
330
1B2E9
100
AcDbEntity
  8
0
  6
CONTINUOUS
100
AcDbLine
 10
44.99999999995498
 20
4.225027170404777
 30
0.0
 11
43.57899999995641
 21
5.646027170403348
 31
0.0
  0
LINE
  5
1B323
330
1B2E9
100
AcDbEntity
  8
0
  6
CONTINUOUS
100
AcDbLine
 10
44.99999999995498
 20
4.898546379484964
 30
0.0
 11
43.57899999995641
 21
6.319546379483535
 31
0.0
  0
LINE
  5
1B324
330
1B2E9
100
AcDbEntity
  8
0
  6
CONTINUOUS
100
AcDbLine
 10
44.99999999995498
 20
5.572065588565151
 30
0.0
 11
43.57899999995641
 21
6.993065588563722
 31
0.0
  0
LINE
  5
1B325
330
1B2E9
100
AcDbEntity
  8
0
  6
CONTINUOUS
100
AcDbLine
 10
44.99999999995498
 20
6.245584797645336
 30
0.0
 11
43.57899999995641
 21
7.666584797643908
 31
0.0
  0
LINE
  5
1B326
330
1B2E9
100
AcDbEntity
  8
0
  6
CONTINUOUS
100
AcDbLine
 10
44.99999999995498
 20
6.919104006725522
 30
0.0
 11
43.57899999995641
 21
8.340104006724093
 31
0.0
  0
LINE
  5
1B327
330
1B2E9
100
AcDbEntity
  8
0
  6
CONTINUOUS
100
AcDbLine
 10
44.99999999995498
 20
7.592623215805709
 30
0.0
 11
43.82952321576943
 21
8.763099999991255
 31
0.0
  0
LINE
  5
1B328
330
1B2E9
100
AcDbEntity
  8
0
  6
CONTINUOUS
100
AcDbLine
 10
44.99999999995498
 20
8.266142424885896
 30
0.0
 11
44.50304242484962
 21
8.763099999991255
 31
0.0
  0
ENDBLK
  5
1B352
330
1B2E9
100
AcDbEntity
  8
0
100
AcDbBlockEnd
  0
BLOCK
  5
1B353
330
1B329
100
AcDbEntity
  8
0
100
AcDbBlockBegin
  2
*X151
 70
     1
 10
0.0
 20
0.0
 30
0.0
  3
*X151
  1

  0
LINE
  5
1B32A
330
1B329
100
AcDbEntity
  8
0
  6
CONTINUOUS
100
AcDbLine
 10
0.0
 20
8.548461116714023
 30
0.0
 11
0.2146388832772324
 21
8.763099999991255
 31
0.0
  0
LINE
  5
1B32B
330
1B329
100
AcDbEntity
  8
0
  6
CONTINUOUS
100
AcDbLine
 10
-0.0000000000000002
 20
7.874941907633837
 30
0.0
 11
0.8881580923574184
 21
8.763099999991255
 31
0.0
  0
LINE
  5
1B32C
330
1B329
100
AcDbEntity
  8
0
  6
CONTINUOUS
100
AcDbLine
 10
0.0
 20
7.20142269855365
 30
0.0
 11
1.420999999998572
 21
8.622422698552223
 31
0.0
  0
LINE
  5
1B32D
330
1B329
100
AcDbEntity
  8
0
  6
CONTINUOUS
100
AcDbLine
 10
-0.0000000000000001
 20
6.527903489473465
 30
0.0
 11
1.420999999998571
 21
7.948903489472036
 31
0.0
  0
LINE
  5
1B32E
330
1B329
100
AcDbEntity
  8
0
  6
CONTINUOUS
100
AcDbLine
 10
-0.0000000000000002
 20
5.854384280393278
 30
0.0
 11
1.420999999998571
 21
7.275384280391849
 31
0.0
  0
LINE
  5
1B32F
330
1B329
100
AcDbEntity
  8
0
  6
CONTINUOUS
100
AcDbLine
 10
-0.0000000000000002
 20
5.180865071313091
 30
0.0
 11
1.420999999998571
 21
6.601865071311663
 31
0.0
  0
LINE
  5
1B330
330
1B329
100
AcDbEntity
  8
0
  6
CONTINUOUS
100
AcDbLine
 10
0.0
 20
4.507345862232905
 30
0.0
 11
1.420999999998571
 21
5.928345862231477
 31
0.0
  0
LINE
  5
1B331
330
1B329
100
AcDbEntity
  8
0
  6
CONTINUOUS
100
AcDbLine
 10
-0.0000000000000003
 20
3.833826653152718
 30
0.0
 11
1.420999999998571
 21
5.25482665315129
 31
0.0
  0
LINE
  5
1B332
330
1B329
100
AcDbEntity
  8
0
  6
CONTINUOUS
100
AcDbLine
 10
-0.0000000000000002
 20
3.160307444072532
 30
0.0
 11
1.420999999998571
 21
4.581307444071103
 31
0.0
  0
LINE
  5
1B333
330
1B329
100
AcDbEntity
  8
0
  6
CONTINUOUS
100
AcDbLine
 10
-0.0000000000000001
 20
2.486788234992345
 30
0.0
 11
1.420999999998571
 21
3.907788234990917
 31
0.0
  0
LINE
  5
1B334
330
1B329
100
AcDbEntity
  8
0
  6
CONTINUOUS
100
AcDbLine
 10
-0.0000000000000006
 20
1.813269025912159
 30
0.0
 11
1.420999999998571
 21
3.234269025910731
 31
0.0
  0
LINE
  5
1B335
330
1B329
100
AcDbEntity
  8
0
  6
CONTINUOUS
100
AcDbLine
 10
0.0
 20
1.139749816831973
 30
0.0
 11
1.420999999998571
 21
2.560749816830544
 31
0.0
  0
LINE
  5
1B336
330
1B329
100
AcDbEntity
  8
0
  6
CONTINUOUS
100
AcDbLine
 10
0.0000000000000002
 20
0.466230607751787
 30
0.0
 11
1.420999999998571
 21
1.887230607750358
 31
0.0
  0
LINE
  5
1B337
330
1B329
100
AcDbEntity
  8
0
  6
CONTINUOUS
100
AcDbLine
 10
0.2072886013284003
 20
-0.0000000000000009
 30
0.0
 11
1.420999999998571
 21
1.213711398670171
 31
0.0
  0
LINE
  5
1B338
330
1B329
100
AcDbEntity
  8
0
  6
CONTINUOUS
100
AcDbLine
 10
0.8808078104085864
 20
-0.0000000000000009
 30
0.0
 11
1.420999999998571
 21
0.5401921895899839
 31
0.0
  0
LINE
  5
1B339
330
1B329
100
AcDbEntity
  8
0
  6
CONTINUOUS
100
AcDbLine
 10
0.0581249075061505
 20
-0.0000000000000009
 30
0.0
 11
-0.0000000000000002
 21
0.0581249075061496
 31
0.0
  0
LINE
  5
1B33A
330
1B329
100
AcDbEntity
  8
0
  6
CONTINUOUS
100
AcDbLine
 10
0.7316441165863372
 20
-0.0000000000000009
 30
0.0
 11
-0.0000000000000002
 21
0.7316441165863363
 31
0.0
  0
LINE
  5
1B33B
330
1B329
100
AcDbEntity
  8
0
  6
CONTINUOUS
100
AcDbLine
 10
1.405163325666523
 20
-0.0000000000000009
 30
0.0
 11
-0.0000000000000002
 21
1.405163325666523
 31
0.0
  0
LINE
  5
1B33C
330
1B329
100
AcDbEntity
  8
0
  6
CONTINUOUS
100
AcDbLine
 10
1.420999999998572
 20
0.6576825347481381
 30
0.0
 11
-0.0000000000000001
 21
2.07868253474671
 31
0.0
  0
LINE
  5
1B33D
330
1B329
100
AcDbEntity
  8
0
  6
CONTINUOUS
100
AcDbLine
 10
1.420999999998571
 20
1.331201743828324
 30
0.0
 11
-0.0000000000000001
 21
2.752201743826896
 31
0.0
  0
LINE
  5
1B33E
330
1B329
100
AcDbEntity
  8
0
  6
CONTINUOUS
100
AcDbLine
 10
1.420999999998571
 20
2.004720952908511
 30
0.0
 11
-0.0000000000000002
 21
3.425720952907082
 31
0.0
  0
LINE
  5
1B33F
330
1B329
100
AcDbEntity
  8
0
  6
CONTINUOUS
100
AcDbLine
 10
1.420999999998571
 20
2.678240161988697
 30
0.0
 11
-0.0000000000000001
 21
4.099240161987269
 31
0.0
  0
LINE
  5
1B340
330
1B329
100
AcDbEntity
  8
0
  6
CONTINUOUS
100
AcDbLine
 10
1.420999999998572
 20
3.351759371068884
 30
0.0
 11
0.0
 21
4.772759371067455
 31
0.0
  0
LINE
  5
1B341
330
1B329
100
AcDbEntity
  8
0
  6
CONTINUOUS
100
AcDbLine
 10
1.420999999998571
 20
4.02527858014907
 30
0.0
 11
-0.0000000000000003
 21
5.446278580147642
 31
0.0
  0
LINE
  5
1B342
330
1B329
100
AcDbEntity
  8
0
  6
CONTINUOUS
100
AcDbLine
 10
1.420999999998571
 20
4.698797789229257
 30
0.0
 11
0.0
 21
6.119797789227828
 31
0.0
  0
LINE
  5
1B343
330
1B329
100
AcDbEntity
  8
0
  6
CONTINUOUS
100
AcDbLine
 10
1.420999999998571
 20
5.372316998309444
 30
0.0
 11
-0.0000000000000001
 21
6.793316998308015
 31
0.0
  0
LINE
  5
1B344
330
1B329
100
AcDbEntity
  8
0
  6
CONTINUOUS
100
AcDbLine
 10
1.420999999998572
 20
6.045836207389629
 30
0.0
 11
-0.0000000000000004
 21
7.466836207388202
 31
0.0
  0
LINE
  5
1B345
330
1B329
100
AcDbEntity
  8
0
  6
CONTINUOUS
100
AcDbLine
 10
1.420999999998571
 20
6.719355416469816
 30
0.0
 11
0.0
 21
8.140355416468388
 31
0.0
  0
LINE
  5
1B346
330
1B329
100
AcDbEntity
  8
0
  6
CONTINUOUS
100
AcDbLine
 10
1.420999999998571
 20
7.392874625550003
 30
0.0
 11
0.0507746255573185
 21
8.763099999991255
 31
0.0
  0
LINE
  5
1B347
330
1B329
100
AcDbEntity
  8
0
  6
CONTINUOUS
100
AcDbLine
 10
1.420999999998571
 20
8.06639383463019
 30
0.0
 11
0.7242938346375052
 21
8.763099999991255
 31
0.0
  0
LINE
  5
1B348
330
1B329
100
AcDbEntity
  8
0
  6
CONTINUOUS
100
AcDbLine
 10
1.420999999998571
 20
8.739913043710375
 30
0.0
 11
1.397813043717691
 21
8.763099999991255
 31
0.0
  0
ENDBLK
  5
1B354
330
1B329
100
AcDbEntity
  8
0
100
AcDbBlockEnd
  0
ENDSEC
  0
SECTION
  2
ENTITIES
  0
LINE
  5
1AD05
330
18
100
AcDbEntity
  8
01
100
AcDbLine
 10
2541.808687200671
 20
-534.2883782124612
 30
0.0
 11
2555.808687200671
 21
-534.2883782124612
 31
0.0
  0
LINE
  5
1AD06
330
18
100
AcDbEntity
  8
01
100
AcDbLine
 10
2546.809571382731
 20
-322.2883782134899
 30
0.0
 11
2700.563951537764
 21
-322.2883782134899
 31
0.0
  0
LINE
  5
1AD07
330
18
100
AcDbEntity
  8
01
  6
BYBLOCK
100
AcDbLine
 10
2546.809571382731
 20
-322.2883782134899
 30
0.0
 11
2546.809571382731
 21
-362.2883782134899
 31
0.0
  0
LINE
  5
1AD0B
330
18
100
AcDbEntity
  8
01
100
AcDbLine
 10
2597.808687200669
 20
-327.2883782145185
 30
0.0
 11
2597.808687200669
 21
-296.3702980252696
 31
0.0
  0
LINE
  5
1AD0C
330
18
100
AcDbEntity
  8
01
  6
BYBLOCK
100
AcDbLine
 10
2548.308687200671
 20
-526.3883782124611
 30
0.0
 11
2548.308687200671
 21
-656.1883782124611
 31
0.0
  0
LINE
  5
1AD0D
330
18
100
AcDbEntity
  8
01
  6
BYBLOCK
100
AcDbLine
 10
2548.308687200671
 20
-655.2883782124612
 30
0.0
 11
2550.808687200671
 21
-655.2883782124612
 31
0.0
  0
LINE
  5
1AD0E
330
18
100
AcDbEntity
  8
01
  6
BYBLOCK
100
AcDbLine
 10
2550.808687200671
 20
-655.2883782124612
 30
0.0
 11
2550.808687200671
 21
-638.7854344873089
 31
0.0
  0
LINE
  5
1AD0F
330
18
100
AcDbEntity
  8
01
  6
BYBLOCK
100
AcDbLine
 10
2546.808687200671
 20
-526.3883782124611
 30
0.0
 11
2546.808687200671
 21
-656.1883782124611
 31
0.0
  0
LINE
  5
1AD10
330
18
100
AcDbEntity
  8
01
  6
BYBLOCK
100
AcDbLine
 10
2546.808687200671
 20
-656.1883782124611
 30
0.0
 11
2548.308687200671
 21
-656.1883782124611
 31
0.0
  0
LINE
  5
1AD11
330
18
100
AcDbEntity
  8
01
  6
BYBLOCK
100
AcDbLine
 10
2548.308687200671
 20
-527.2883782124612
 30
0.0
 11
2550.808687200671
 21
-527.2883782124612
 31
0.0
  0
LINE
  5
1AD12
330
18
100
AcDbEntity
  8
01
  6
BYBLOCK
100
AcDbLine
 10
2546.808687200671
 20
-526.3883782124611
 30
0.0
 11
2548.308687200671
 21
-526.3883782124611
 31
0.0
  0
LINE
  5
1AD13
330
18
100
AcDbEntity
  8
01
  6
BYBLOCK
100
AcDbLine
 10
2548.308687200671
 20
-551.2883782124612
 30
0.0
 11
2549.508687200671
 21
-551.2883782124612
 31
0.0
  0
LINE
  5
1AD14
330
18
100
AcDbEntity
  8
01
  6
BYBLOCK
100
AcDbLine
 10
2549.508687200671
 20
-545.588378212461
 30
0.0
 11
2549.508687200671
 21
-636.988378212461
 31
0.0
  0
LINE
  5
1AD15
330
18
100
AcDbEntity
  8
01
  6
BYBLOCK
100
AcDbLine
 10
2549.608687200671
 20
-655.2883782124612
 30
0.0
 11
2549.608687200671
 21
-638.6883782124611
 31
0.0
  0
LINE
  5
1AD16
330
18
100
AcDbEntity
  8
01
  6
BYBLOCK
100
AcDbLine
 10
2549.608687200671
 20
-638.6883782124611
 30
0.0
 11
2548.660159063247
 21
-637.7398500750372
 31
0.0
  0
LINE
  5
1AD17
330
18
100
AcDbEntity
  8
01
  6
BYBLOCK
100
AcDbLine
 10
2550.457215338095
 20
-637.9369063498849
 30
0.0
 11
2549.508687200671
 21
-636.988378212461
 31
0.0
  0
ARC
  5
1AD18
330
18
100
AcDbEntity
  8
01
  6
BYBLOCK
100
AcDbCircle
 10
2549.608687200671
 20
-638.7854344873089
 30
0.0
 40
1.2
100
AcDbArc
 50
0.0
 51
45.00000000003838
  0
ARC
  5
1AD19
330
18
100
AcDbEntity
  8
01
  6
BYBLOCK
100
AcDbCircle
 10
2549.508687200671
 20
-636.8913219376133
 30
0.0
 40
1.2
100
AcDbArc
 50
180.0
 51
225.0000000000384
  0
LINE
  5
1AD1A
330
18
100
AcDbEntity
  8
01
  6
BYBLOCK
100
AcDbLine
 10
2550.808687200671
 20
-527.2883782124612
 30
0.0
 11
2550.808687200671
 21
-543.7913219376134
 31
0.0
  0
LINE
  5
1AD1B
330
18
100
AcDbEntity
  8
01
  6
BYBLOCK
100
AcDbLine
 10
2549.608687200671
 20
-527.2883782124612
 30
0.0
 11
2549.608687200671
 21
-543.8883782124611
 31
0.0
  0
LINE
  5
1AD1C
330
18
100
AcDbEntity
  8
01
  6
BYBLOCK
100
AcDbLine
 10
2549.608687200671
 20
-543.8883782124611
 30
0.0
 11
2548.660159063247
 21
-544.836906349885
 31
0.0
  0
LINE
  5
1AD1D
330
18
100
AcDbEntity
  8
01
  6
BYBLOCK
100
AcDbLine
 10
2550.457215338095
 20
-544.6398500750373
 30
0.0
 11
2549.508687200671
 21
-545.5883782124612
 31
0.0
  0
ARC
  5
1AD1E
330
18
100
AcDbEntity
  8
01
  6
BYBLOCK
100
AcDbCircle
 10
2549.608687200671
 20
-543.7913219376134
 30
0.0
 40
1.2
100
AcDbArc
 50
314.9999999999616
 51
0.0
  0
ARC
  5
1AD1F
330
18
100
AcDbEntity
  8
01
  6
BYBLOCK
100
AcDbCircle
 10
2549.508687200671
 20
-545.685434487309
 30
0.0
 40
1.2
100
AcDbArc
 50
134.9999999999616
 51
180.0
  0
CIRCLE
  5
1AD20
330
18
100
AcDbEntity
  8
01
  6
BYBLOCK
100
AcDbCircle
 10
2597.808687200671
 20
-562.2883782124612
 30
0.0
 40
4.75
  0
LINE
  5
1AD21
330
18
100
AcDbEntity
  8
01
  6
BYBLOCK
100
AcDbLine
 10
2549.508687200671
 20
-628.2883782124615
 30
0.0
 11
2574.223734370529
 21
-628.2883782124612
 31
0.0
  0
ARC
  5
1AD22
330
18
100
AcDbEntity
  8
01
  6
BYBLOCK
100
AcDbCircle
 10
2549.909571382731
 20
-338.7271276704899
 30
0.0
 40
1.6
100
AcDbArc
 50
115.9444797720007
 51
180.0
  0
ARC
  5
1AD23
330
18
100
AcDbEntity
  8
01
  6
BYBLOCK
100
AcDbCircle
 10
2549.909571382731
 20
-345.8496287564898
 30
0.0
 40
1.6
100
AcDbArc
 50
180.0
 51
244.0555202279993
  0
ARC
  5
1AD24
330
18
100
AcDbEntity
  8
01
  6
BYBLOCK
100
AcDbCircle
 10
2549.209571382731
 20
-347.1271276704898
 30
0.0
 40
1.6
100
AcDbArc
 50
0.0
 51
64.05552022799934
  0
ARC
  5
1AD25
330
18
100
AcDbEntity
  8
01
  6
BYBLOCK
100
AcDbCircle
 10
2549.209571382731
 20
-337.4496287564899
 30
0.0
 40
1.6
100
AcDbArc
 50
295.9444797720006
 51
0.0
  0
LINE
  5
1AD26
330
18
100
AcDbEntity
  8
01
  6
BYBLOCK
100
AcDbLine
 10
2550.809571382731
 20
-337.4496287564899
 30
0.0
 11
2550.809571382731
 21
-330.0883782134898
 31
0.0
  0
LINE
  5
1AD27
330
18
100
AcDbEntity
  8
01
  6
BYBLOCK
100
AcDbLine
 10
2549.909571382731
 20
-345.68837821349
 30
0.0
 11
2549.909571382731
 21
-338.8883782134898
 31
0.0
  0
LINE
  5
1AD28
330
18
100
AcDbEntity
  8
01
  6
BYBLOCK
100
AcDbLine
 10
2550.809571382731
 20
-354.2883782134899
 30
0.0
 11
2550.809571382731
 21
-347.1271276704898
 31
0.0
  0
LINE
  5
1AD29
330
18
100
AcDbEntity
  8
01
  6
BYBLOCK
100
AcDbLine
 10
2549.209571382731
 20
-337.2883782134899
 30
0.0
 11
2549.209571382732
 21
-330.0883782134898
 31
0.0
  0
LINE
  5
1AD2A
330
18
100
AcDbEntity
  8
01
  6
BYBLOCK
100
AcDbLine
 10
2549.209571382731
 20
-347.2883782134899
 30
0.0
 11
2549.209571382731
 21
-354.3883782134898
 31
0.0
  0
ARC
  5
1AD2B
330
18
100
AcDbEntity
  8
01
  6
BYBLOCK
100
AcDbCircle
 10
2614.209571382731
 20
-334.3883782134898
 30
0.0
 40
1.6
100
AcDbArc
 50
0.0
 51
90.0
  0
LINE
  5
1AD2C
330
18
100
AcDbEntity
  8
01
  6
BYBLOCK
100
AcDbLine
 10
2548.309571382731
 20
-329.8883782134898
 30
0.0
 11
2548.309571382731
 21
-354.6883782134897
 31
0.0
  0
LINE
  5
1AD2D
330
18
100
AcDbEntity
  8
01
  6
BYBLOCK
100
AcDbLine
 10
2614.209571382731
 20
-332.7883782134899
 30
0.0
 11
2550.809571382731
 21
-332.7883782134899
 31
0.0
  0
LINE
  5
1AD2E
330
18
100
AcDbEntity
  8
01
  6
BYBLOCK
100
AcDbLine
 10
2614.209571382731
 20
-349.9883782134899
 30
0.0
 11
2614.209571382731
 21
-332.7883782134899
 31
0.0
  0
LINE
  5
1AD2F
330
18
100
AcDbEntity
  8
01
  6
BYBLOCK
100
AcDbLine
 10
2615.809571382731
 20
-351.5883782134898
 30
0.0
 11
2615.809571382731
 21
-334.3883782134898
 31
0.0
  0
LINE
  5
1AD30
330
18
100
AcDbEntity
  8
01
  6
BYBLOCK
100
AcDbLine
 10
2548.309571382731
 20
-330.0883782134898
 30
0.0
 11
2550.809571382731
 21
-330.0883782134898
 31
0.0
  0
LINE
  5
1AD31
330
18
100
AcDbEntity
  8
01
  6
BYBLOCK
100
AcDbLine
 10
2550.809571382731
 20
-354.2883782134899
 30
0.0
 11
2549.209571382731
 21
-354.2883782134899
 31
0.0
  0
LINE
  5
1AD32
330
18
100
AcDbEntity
  8
01
  6
BYBLOCK
100
AcDbLine
 10
2549.209571382731
 20
-354.3883782134898
 30
0.0
 11
2548.309571382731
 21
-354.3883782134898
 31
0.0
  0
ARC
  5
1AD33
330
18
100
AcDbEntity
  8
01
  6
BYBLOCK
100
AcDbCircle
 10
2545.51016631013
 20
-347.9883782134892
 30
0.0
 40
0.3000000000000051
100
AcDbArc
 50
232.8678058729264
 51
270.0
  0
LINE
  5
1AD34
330
18
100
AcDbEntity
  8
01
  6
BYBLOCK
100
AcDbLine
 10
2546.309571382731
 20
-348.2883782134892
 30
0.0
 11
2545.51016631013
 21
-348.2883782134892
 31
0.0
  0
LINE
  5
1AD35
330
18
100
AcDbEntity
  8
01
  6
BYBLOCK
100
AcDbLine
 10
2535.909571382731
 20
-338.615389347285
 30
0.0
 11
2535.909571382731
 21
-338.7860114028341
 31
0.0
  0
ARC
  5
1AD36
330
18
100
AcDbEntity
  8
01
  6
BYBLOCK
100
AcDbCircle
 10
2536.209571382731
 20
-338.7860114028341
 30
0.0
 40
0.3
100
AcDbArc
 50
180.0
 51
217.7405295629754
  0
ARC
  5
1AD37
330
18
100
AcDbEntity
  8
01
  6
BYBLOCK
100
AcDbCircle
 10
2575.511871982015
 20
-308.3653084588933
 30
0.0
 40
50.00000000000002
100
AcDbArc
 50
217.7405295629802
 51
232.8678058729729
  0
LINE
  5
1AD38
330
18
100
AcDbEntity
  8
01
  6
BYBLOCK
100
AcDbLine
 10
2535.709571382731
 20
-337.4883782134897
 30
0.0
 11
2535.709571382731
 21
-336.7883782134899
 31
0.0
  0
ARC
  5
1AD39
330
18
100
AcDbEntity
  8
01
  6
BYBLOCK
100
AcDbCircle
 10
2536.209571382731
 20
-336.7883782134899
 30
0.0
 40
0.5000000000000142
100
AcDbArc
 50
90.0
 51
180.0
  0
LINE
  5
1AD3A
330
18
100
AcDbEntity
  8
01
  6
BYBLOCK
100
AcDbLine
 10
2546.309571382731
 20
-336.2883782134899
 30
0.0
 11
2536.209571382731
 21
-336.2883782134899
 31
0.0
  0
LINE
  5
1AD3B
330
18
100
AcDbEntity
  8
01
  6
BYBLOCK
100
AcDbLine
 10
2535.709571382731
 20
-337.8670578699301
 30
0.0
 11
2535.709571382731
 21
-337.4883782134897
 31
0.0
  0
SPLINE
  5
1AD3C
330
18
100
AcDbEntity
  8
01
  6
BYBLOCK
100
AcDbSpline
210
0.0
220
0.0
230
1.0
 70
     8
 71
     3
 72
     8
 73
     4
 74
     0
 42
0.0000000001
 43
0.0000000001
 40
0.0
 40
0.0
 40
0.0
 40
0.0
 40
1.0
 40
1.0
 40
1.0
 40
1.0
 10
2535.735303923996
 20
-338.1437082993792
 30
0.0
 10
2535.717836037884
 20
-338.0506221034988
 30
0.0
 10
2535.709571382731
 20
-337.9573560926073
 30
0.0
 10
2535.709571382731
 20
-337.8670578699297
 30
0.0
  0
ARC
  5
1AD3D
330
18
100
AcDbEntity
  8
01
  6
BYBLOCK
100
AcDbCircle
 10
2537.209571382731
 20
-337.8670578699301
 30
0.0
 40
1.499999999999998
100
AcDbArc
 50
190.628112987605
 51
225.0000000000384
  0
LINE
  5
1AD3E
330
18
100
AcDbEntity
  8
01
  6
BYBLOCK
100
AcDbLine
 10
2546.809571382731
 20
-335.4383782134897
 30
0.0
 11
2546.309571382731
 21
-335.4383782134897
 31
0.0
  0
LINE
  5
1AD3F
330
18
100
AcDbEntity
  8
01
  6
BYBLOCK
100
AcDbLine
 10
2546.309571382731
 20
-349.1383782134898
 30
0.0
 11
2546.809571382731
 21
-349.1383782134898
 31
0.0
  0
LINE
  5
1AD40
330
18
100
AcDbEntity
  8
01
  6
BYBLOCK
100
AcDbLine
 10
2546.309571382731
 20
-349.1383782134898
 30
0.0
 11
2546.309571382731
 21
-335.4383782134897
 31
0.0
  0
LINE
  5
1AD41
330
18
100
AcDbEntity
  8
01
  6
BYBLOCK
100
AcDbLine
 10
2546.809571382731
 20
-329.8883782134898
 30
0.0
 11
2548.309571382731
 21
-329.8883782134898
 31
0.0
  0
LINE
  5
1AD42
330
18
100
AcDbEntity
  8
01
  6
BYBLOCK
100
AcDbLine
 10
2546.809571382731
 20
-354.6883782134897
 30
0.0
 11
2548.309571382731
 21
-354.6883782134897
 31
0.0
  0
LINE
  5
1AD43
330
18
100
AcDbEntity
  8
01
  6
BYBLOCK
100
AcDbLine
 10
2546.809571382731
 20
-354.6883782134897
 30
0.0
 11
2546.809571382731
 21
-329.8883782134898
 31
0.0
  0
LINE
  5
1AD44
330
18
100
AcDbEntity
  8
01
  6
BYBLOCK
100
AcDbLine
 10
2615.809571382731
 20
-349.9883782134899
 30
0.0
 11
2550.809571382731
 21
-349.9883782134899
 31
0.0
  0
LINE
  5
1AD45
330
18
100
AcDbEntity
  8
01
  6
BYBLOCK
100
AcDbLine
 10
2615.809571382731
 20
-351.5883782134898
 30
0.0
 11
2565.409571382731
 21
-351.5883782134898
 31
0.0
  0
LINE
  5
1AD46
330
18
100
AcDbEntity
  8
01
  6
BYBLOCK
100
AcDbLine
 10
2568.246829682934
 20
-351.5883782134898
 30
0.0
 11
2550.809571382731
 21
-351.5883782134898
 31
0.0
  0
LINE
  5
1AD47
330
18
100
AcDbEntity
  8
01
  6
BYBLOCK
100
AcDbLine
 10
2545.363124773324
 20
-348.1419316040832
 30
0.0
 11
2536.148911210951
 21
-338.9277180417101
 31
0.0
  0
ARC
  5
1AD48
330
18
100
AcDbEntity
  8
01
  6
BYBLOCK
100
AcDbCircle
 10
2545.716678163918
 20
-347.7883782134899
 30
0.0
 40
0.5
100
AcDbArc
 50
224.9999999999954
 51
270.0
  0
LINE
  5
1AD49
330
18
100
AcDbEntity
  8
01
  6
BYBLOCK
100
AcDbLine
 10
2546.309571382731
 20
-348.2883782134899
 30
0.0
 11
2545.716678163918
 21
-348.2883782134899
 31
0.0
  0
LINE
  5
1AD4B
330
18
100
AcDbEntity
  8
01
  6
BYBLOCK
100
AcDbLine
 10
2594.202442616619
 20
-562.2883782124612
 30
0.0
 11
2597.808687200671
 21
-558.6821336284098
 31
0.0
  0
LINE
  5
1AD4C
330
18
100
AcDbEntity
  8
01
  6
BYBLOCK
100
AcDbLine
 10
2601.414931784723
 20
-562.2883782124612
 30
0.0
 11
2597.808687200671
 21
-558.6821336284098
 31
0.0
  0
LINE
  5
1AD4D
330
18
100
AcDbEntity
  8
01
  6
BYBLOCK
100
AcDbLine
 10
2594.202442616619
 20
-562.2883782124612
 30
0.0
 11
2597.808687200671
 21
-565.8946227965124
 31
0.0
  0
LINE
  5
1AD4E
330
18
100
AcDbEntity
  8
01
  6
BYBLOCK
100
AcDbLine
 10
2601.414931784723
 20
-562.2883782124612
 30
0.0
 11
2597.808687200671
 21
-565.8946227965124
 31
0.0
  0
LINE
  5
1AD4F
330
18
100
AcDbEntity
  8
01
  6
BYBLOCK
100
AcDbLine
 10
2535.808687200671
 20
-581.2567079454451
 30
0.0
 11
2535.808687200671
 21
-599.320048479451
 31
0.0
  0
LINE
  5
1AD50
330
18
100
AcDbEntity
  8
01
  6
BYBLOCK
100
AcDbLine
 10
2540.101580419484
 20
-580.288378212448
 30
0.0
 11
2546.808687200671
 21
-580.288378212448
 31
0.0
  0
LINE
  5
1AD51
330
18
100
AcDbEntity
  8
01
  6
BYBLOCK
100
AcDbLine
 10
2540.101580419484
 20
-600.288378212448
 30
0.0
 11
2546.808687200671
 21
-600.288378212448
 31
0.0
  0
LINE
  5
1AD52
330
18
100
AcDbEntity
  8
01
  6
BYBLOCK
100
AcDbLine
 10
2545.601580419485
 20
-585.038378212448
 30
0.0
 11
2545.601580419484
 21
-595.538378212448
 31
0.0
  0
ARC
  5
1AD53
330
18
100
AcDbEntity
  8
01
  6
BYBLOCK
100
AcDbCircle
 10
2540.101580419484
 20
-590.288378212448
 30
0.0
 40
10.00000000000009
100
AcDbArc
 50
53.13010235414986
 51
115.4224671781178
  0
ARC
  5
1AD54
330
18
100
AcDbEntity
  8
01
  6
BYBLOCK
100
AcDbCircle
 10
2540.101580419484
 20
-590.2883782124478
 30
0.0
 40
10.00000000000009
100
AcDbArc
 50
244.5775328218822
 51
306.8698976458437
  0
LINE
  5
1AD55
330
18
100
AcDbEntity
  8
01
  6
BYBLOCK
100
AcDbLine
 10
2546.101580419485
 20
-582.288378212448
 30
0.0
 11
2546.101580419485
 21
-598.288378212448
 31
0.0
  0
LINE
  5
1AD56
330
18
100
AcDbEntity
  8
01
  6
BYBLOCK
100
AcDbLine
 10
2535.808687200671
 20
-585.038378212448
 30
0.0
 11
2545.601580419485
 21
-585.038378212448
 31
0.0
  0
LINE
  5
1AD57
330
18
100
AcDbEntity
  8
01
  6
BYBLOCK
100
AcDbLine
 10
2535.808687200671
 20
-595.538378212448
 30
0.0
 11
2545.601580419485
 21
-595.538378212448
 31
0.0
  0
LINE
  5
1AD58
330
18
100
AcDbEntity
  8
01
  6
BYBLOCK
100
AcDbLine
 10
2421.408803540416
 20
-526.3883782124618
 30
0.0
 11
2434.208803540415
 21
-526.3883782124618
 31
0.0
  0
LINE
  5
1AD59
330
18
100
AcDbEntity
  8
01
  6
BYBLOCK
100
AcDbLine
 10
2421.408803540416
 20
-656.1883782124618
 30
0.0
 11
2434.208803540415
 21
-656.1883782124618
 31
0.0
  0
LINE
  5
1AD5A
330
18
100
AcDbEntity
  8
01
  6
BYBLOCK
100
AcDbLine
 10
2415.408803540416
 20
-532.3883782124618
 30
0.0
 11
2415.408803540416
 21
-650.1883782124618
 31
0.0
  0
LINE
  5
1AD5B
330
18
100
AcDbEntity
  8
01
  6
BYBLOCK
100
AcDbLine
 10
2440.208803540415
 20
-532.3883782124618
 30
0.0
 11
2440.208803540415
 21
-650.1883782124618
 31
0.0
  0
ARC
  5
1AD5C
330
18
100
AcDbEntity
  8
01
  6
BYBLOCK
100
AcDbCircle
 10
2421.408803540416
 20
-650.1883782124618
 30
0.0
 40
6.0
100
AcDbArc
 50
180.0
 51
270.0
  0
ARC
  5
1AD5D
330
18
100
AcDbEntity
  8
01
  6
BYBLOCK
100
AcDbCircle
 10
2434.208803540415
 20
-650.1883782124618
 30
0.0
 40
6.0
100
AcDbArc
 50
270.0
 51
0.0
  0
ARC
  5
1AD5E
330
18
100
AcDbEntity
  8
01
  6
BYBLOCK
100
AcDbCircle
 10
2421.408803540416
 20
-532.3883782124618
 30
0.0
 40
6.0
100
AcDbArc
 50
90.0
 51
180.0
  0
ARC
  5
1AD5F
330
18
100
AcDbEntity
  8
01
  6
BYBLOCK
100
AcDbCircle
 10
2434.208803540415
 20
-532.3883782124618
 30
0.0
 40
6.0
100
AcDbArc
 50
0.0
 51
90.0
  0
CIRCLE
  5
1AD60
330
18
100
AcDbEntity
  8
01
  6
BYBLOCK
100
AcDbCircle
 10
2427.808803540416
 20
-648.2883782124617
 30
0.0
 40
2.75
  0
CIRCLE
  5
1AD61
330
18
100
AcDbEntity
  8
01
  6
BYBLOCK
100
AcDbCircle
 10
2427.808803540416
 20
-648.2883782124617
 30
0.0
 40
4.25
  0
CIRCLE
  5
1AD62
330
18
100
AcDbEntity
  8
01
  6
BYBLOCK
100
AcDbCircle
 10
2427.808803540416
 20
-534.2883782124619
 30
0.0
 40
2.75
  0
CIRCLE
  5
1AD63
330
18
100
AcDbEntity
  8
01
  6
BYBLOCK
100
AcDbCircle
 10
2427.808803540416
 20
-534.2883782124619
 30
0.0
 40
4.25
  0
LINE
  5
1AD64
330
18
100
AcDbEntity
  8
1CENTER
100
AcDbLine
 10
2433.683828948322
 20
-648.2883782124619
 30
0.0
 11
2421.93377813251
 21
-648.2883782124619
 31
0.0
  0
LINE
  5
1AD65
330
18
100
AcDbEntity
  8
1CENTER
100
AcDbLine
 10
2427.808803540416
 20
-642.4133528045555
 30
0.0
 11
2427.808803540416
 21
-654.1634036203681
 31
0.0
  0
LINE
  5
1AD66
330
18
100
AcDbEntity
  8
1CENTER
100
AcDbLine
 10
2433.683828948322
 20
-534.2883782124619
 30
0.0
 11
2421.93377813251
 21
-534.2883782124619
 31
0.0
  0
LINE
  5
1AD67
330
18
100
AcDbEntity
  8
1CENTER
100
AcDbLine
 10
2427.808803540416
 20
-528.4133528045555
 30
0.0
 11
2427.808803540416
 21
-540.1634036203681
 31
0.0
  0
ARC
  5
1AD68
330
18
100
AcDbEntity
  8
01
  6
BYBLOCK
100
AcDbCircle
 10
2427.808803540416
 20
-590.2883782124617
 30
0.0
 40
10.15
100
AcDbArc
 50
231.9925780701365
 51
308.0074219298635
  0
LINE
  5
1AD69
330
18
100
AcDbEntity
  8
01
  6
BYBLOCK
100
AcDbLine
 10
2421.558803540416
 20
-582.2908786032089
 30
0.0
 11
2421.558803540416
 21
-598.2858778217145
 31
0.0
  0
LINE
  5
1AD6A
330
18
100
AcDbEntity
  8
01
  6
BYBLOCK
100
AcDbLine
 10
2434.058803540416
 20
-582.2908786032089
 30
0.0
 11
2434.058803540416
 21
-598.2858778217145
 31
0.0
  0
ARC
  5
1AD6B
330
18
100
AcDbEntity
  8
01
  6
BYBLOCK
100
AcDbCircle
 10
2427.808803540416
 20
-590.2883782124617
 30
0.0
 40
10.15
100
AcDbArc
 50
51.9925780701429
 51
128.0074219298571
  0
LINE
  5
1AD6C
330
18
100
AcDbEntity
  8
01
  6
BYBLOCK
100
AcDbLine
 10
2423.308803540416
 20
-585.0383782124617
 30
0.0
 11
2423.308803540416
 21
-595.5383782124617
 31
0.0
  0
LINE
  5
1AD6D
330
18
100
AcDbEntity
  8
01
  6
BYBLOCK
100
AcDbLine
 10
2433.308803540416
 20
-585.0383782124617
 30
0.0
 11
2433.308803540416
 21
-595.5383782124617
 31
0.0
  0
LINE
  5
1AD6E
330
18
100
AcDbEntity
  8
01
  6
BYBLOCK
100
AcDbLine
 10
2423.808803540416
 20
-580.9597931107434
 30
0.0
 11
2423.808803540416
 21
-585.0383782124619
 31
0.0
  0
LINE
  5
1AD6F
330
18
100
AcDbEntity
  8
01
  6
BYBLOCK
100
AcDbLine
 10
2422.308803540416
 20
-585.0383782124619
 30
0.0
 11
2422.308803540416
 21
-595.5383782124617
 31
0.0
  0
LINE
  5
1AD70
330
18
100
AcDbEntity
  8
01
  6
BYBLOCK
100
AcDbLine
 10
2423.808803540416
 20
-595.5383782124617
 30
0.0
 11
2423.808803540416
 21
-599.61696331418
 31
0.0
  0
LINE
  5
1AD71
330
18
100
AcDbEntity
  8
01
  6
BYBLOCK
100
AcDbLine
 10
2422.308803540416
 20
-585.0383782124617
 30
0.0
 11
2433.308803540416
 21
-585.0383782124617
 31
0.0
  0
LINE
  5
1AD72
330
18
100
AcDbEntity
  8
01
  6
BYBLOCK
100
AcDbLine
 10
2422.308803540416
 20
-595.5383782124617
 30
0.0
 11
2433.308803540416
 21
-595.5383782124617
 31
0.0
  0
LINE
  5
1AD74
330
18
100
AcDbEntity
  8
01
100
AcDbLine
 10
2407.808919880159
 20
-492.2883782124615
 30
0.0
 11
2407.808919880159
 21
-682.2883782124617
 31
0.0
  0
LINE
  5
1AD75
330
18
100
AcDbEntity
  8
01
100
AcDbLine
 10
2409.937205262591
 20
-612.2883782124617
 30
0.0
 11
2387.308919880159
 21
-612.2883782124617
 31
0.0
  0
LINE
  5
1AD76
330
18
100
AcDbEntity
  8
01
100
AcDbLine
 10
2541.808687200959
 20
-648.2883782121725
 30
0.0
 11
2555.808687200959
 21
-648.2883782121725
 31
0.0
  0
LINE
  5
1AD77
330
18
100
AcDbEntity
  8
01
100
AcDbLine
 10
2609.120575468212
 20
-562.2883782124612
 30
0.0
 11
2586.496798933129
 21
-562.2883782124612
 31
0.0
  0
LINE
  5
1AD78
330
18
100
AcDbEntity
  8
01
100
AcDbLine
 10
2597.808687200671
 20
-550.9764899449195
 30
0.0
 11
2597.808687200671
 21
-573.6002664800029
 31
0.0
  0
LINE
  5
1AD79
330
18
100
AcDbEntity
  8
01
  6
BYBLOCK
100
AcDbLine
 10
2319.808919880162
 20
-581.2567079454451
 30
0.0
 11
2319.808919880162
 21
-599.320048479451
 31
0.0
  0
LINE
  5
1AD7A
330
18
100
AcDbEntity
  8
01
  6
BYBLOCK
100
AcDbLine
 10
2315.516026661349
 20
-580.288378212448
 30
0.0
 11
2308.808919880162
 21
-580.288378212448
 31
0.0
  0
LINE
  5
1AD7B
330
18
100
AcDbEntity
  8
01
  6
BYBLOCK
100
AcDbLine
 10
2315.516026661349
 20
-600.288378212448
 30
0.0
 11
2308.808919880162
 21
-600.288378212448
 31
0.0
  0
ARC
  5
1AD7C
330
18
100
AcDbEntity
  8
01
  6
BYBLOCK
100
AcDbCircle
 10
2315.516026661349
 20
-590.288378212448
 30
0.0
 40
10.00000000000009
100
AcDbArc
 50
64.57753282188216
 51
90.0
  0
LINE
  5
1AD7D
330
18
100
AcDbEntity
  8
01
  6
CONTINUOUS
100
AcDbLine
 10
2319.308919880162
 20
-598.6031724052788
 30
0.0
 11
2308.808919880162
 21
-598.6031724052788
 31
0.0
  0
ARC
  5
1AD7E
330
18
100
AcDbEntity
  8
01
  6
CONTINUOUS
100
AcDbCircle
 10
2319.347500127076
 20
-598.141033174472
 30
0.0
 40
0.4637468103423796
100
AcDbArc
 50
265.2279066161926
 51
354.2577450626241
  0
LINE
  5
1AD7F
330
18
100
AcDbEntity
  8
01
  6
CONTINUOUS
100
AcDbLine
 10
2319.808919880162
 20
-582.8050634389
 30
0.0
 11
2319.808919880162
 21
-597.7716929859959
 31
0.0
  0
ARC
  5
1AD80
330
18
100
AcDbEntity
  8
01
  6
CONTINUOUS
100
AcDbCircle
 10
2319.347500127076
 20
-582.4357232504236
 30
0.0
 40
0.4637468103423387
100
AcDbArc
 50
5.742254937375924
 51
94.77209338380747
  0
ARC
  5
1AD81
330
18
100
AcDbEntity
  8
01
  6
BYBLOCK
100
AcDbCircle
 10
2315.516026661349
 20
-590.2883782124478
 30
0.0
 40
10.00000000000009
100
AcDbArc
 50
270.0
 51
295.4224671781178
  0
LINE
  5
1AD82
330
18
100
AcDbEntity
  8
01
  6
CONTINUOUS
100
AcDbLine
 10
2308.808919880162
 20
-581.9735840196169
 30
0.0
 11
2319.308919880162
 21
-581.9735840196169
 31
0.0
  0
LINE
  5
1AD83
330
18
100
AcDbEntity
  8
01
100
AcDbLine
 10
2615.808687200671
 20
-590.1919984184959
 30
0.0
 11
2615.808687200671
 21
-627.0883782124612
 31
0.0
  0
ARC
  5
1AD84
330
18
100
AcDbEntity
  8
01
100
AcDbCircle
 10
2614.808687200671
 20
-627.2883782124612
 30
0.0
 40
1.0
100
AcDbArc
 50
270.0
 51
0.0
  0
LINE
  5
1AD85
330
18
100
AcDbEntity
  8
01
100
AcDbLine
 10
2574.223734370529
 20
-628.2883782124612
 30
0.0
 11
2614.808687200671
 21
-628.288378212461
 31
0.0
  0
LINE
  5
1AD86
330
18
100
AcDbEntity
  8
01
100
AcDbLine
 10
2287.808919880162
 20
-612.2883782124612
 30
0.0
 11
2227.808919880162
 21
-612.2883782124612
 31
0.0
  0
LINE
  5
1AD87
330
18
100
AcDbEntity
  8
01
100
AcDbLine
 10
2257.808919880162
 20
-582.2883782124612
 30
0.0
 11
2257.808919880162
 21
-642.2883782124612
 31
0.0
  0
LINE
  5
1AD88
330
18
100
AcDbEntity
  8
01
  6
BYBLOCK
100
AcDbLine
 10
2615.808687200671
 20
-565.5062592448829
 30
0.0000000000001137
 11
2615.808687200671
 21
-590.1919984184959
 31
0.0
  0
LINE
  5
1AD89
330
18
100
AcDbEntity
  8
01
  6
BYBLOCK
100
AcDbLine
 10
2549.508687200671
 20
-554.2883782124612
 30
0.0
 11
2577.965584122688
 21
-554.2883782124612
 31
0.0000000000001137
  0
ARC
  5
1AD8A
330
18
100
AcDbEntity
  8
01
  6
BYBLOCK
100
AcDbCircle
 10
2614.808687200671
 20
-555.2883782124612
 30
0.0
 40
1.0
100
AcDbArc
 50
0.0
 51
90.0
  0
LINE
  5
1AD8B
330
18
100
AcDbEntity
  8
01
  6
BYBLOCK
100
AcDbLine
 10
2577.965584122688
 20
-554.2883782124612
 30
0.0000000000001137
 11
2614.808687200671
 21
-554.2883782124612
 31
0.0
  0
LINE
  5
1AD8C
330
18
100
AcDbEntity
  8
01
  6
BYBLOCK
100
AcDbLine
 10
2615.808687200671
 20
-555.2883782124612
 30
0.0
 11
2615.808687200671
 21
-565.5062592448829
 31
0.0000000000001137
  0
LINE
  5
1AD8D
330
18
100
AcDbEntity
  8
01
100
AcDbLine
 10
2313.808919880162
 20
-534.2883782124612
 30
0.0
 11
2299.808919880162
 21
-534.2883782124612
 31
0.0
  0
LINE
  5
1AD8E
330
18
100
AcDbEntity
  8
01
  6
BYBLOCK
100
AcDbLine
 10
2307.308919880162
 20
-526.3883782124611
 30
0.0
 11
2307.308919880162
 21
-656.1883782124611
 31
0.0
  0
LINE
  5
1AD8F
330
18
100
AcDbEntity
  8
01
  6
BYBLOCK
100
AcDbLine
 10
2307.308919880162
 20
-655.2883782124612
 30
0.0
 11
2304.808919880162
 21
-655.2883782124612
 31
0.0
  0
LINE
  5
1AD90
330
18
100
AcDbEntity
  8
01
  6
BYBLOCK
100
AcDbLine
 10
2304.808919880162
 20
-655.2883782124612
 30
0.0
 11
2304.808919880162
 21
-638.7854344873089
 31
0.0
  0
LINE
  5
1AD91
330
18
100
AcDbEntity
  8
01
  6
BYBLOCK
100
AcDbLine
 10
2308.808919880162
 20
-526.3883782124611
 30
0.0
 11
2308.808919880162
 21
-656.1883782124611
 31
0.0
  0
LINE
  5
1AD92
330
18
100
AcDbEntity
  8
01
  6
BYBLOCK
100
AcDbLine
 10
2308.808919880162
 20
-656.1883782124611
 30
0.0
 11
2307.308919880162
 21
-656.1883782124611
 31
0.0
  0
LINE
  5
1AD93
330
18
100
AcDbEntity
  8
01
  6
BYBLOCK
100
AcDbLine
 10
2307.308919880162
 20
-527.2883782124612
 30
0.0
 11
2304.808919880162
 21
-527.2883782124612
 31
0.0
  0
LINE
  5
1AD94
330
18
100
AcDbEntity
  8
01
  6
BYBLOCK
100
AcDbLine
 10
2308.808919880162
 20
-526.3883782124611
 30
0.0
 11
2307.308919880162
 21
-526.3883782124611
 31
0.0
  0
LINE
  5
1AD95
330
18
100
AcDbEntity
  8
01
  6
BYBLOCK
100
AcDbLine
 10
2307.308919880162
 20
-551.2883782124612
 30
0.0
 11
2306.108919880162
 21
-551.2883782124612
 31
0.0
  0
LINE
  5
1AD96
330
18
100
AcDbEntity
  8
01
  6
BYBLOCK
100
AcDbLine
 10
2306.108919880162
 20
-545.588378212461
 30
0.0
 11
2306.108919880162
 21
-636.988378212461
 31
0.0
  0
LINE
  5
1AD97
330
18
100
AcDbEntity
  8
01
  6
BYBLOCK
100
AcDbLine
 10
2306.008919880162
 20
-655.2883782124612
 30
0.0
 11
2306.008919880162
 21
-638.6883782124611
 31
0.0
  0
LINE
  5
1AD98
330
18
100
AcDbEntity
  8
01
  6
BYBLOCK
100
AcDbLine
 10
2306.008919880162
 20
-638.6883782124611
 30
0.0
 11
2306.957448017587
 21
-637.7398500750372
 31
0.0
  0
LINE
  5
1AD99
330
18
100
AcDbEntity
  8
01
  6
BYBLOCK
100
AcDbLine
 10
2305.160391742739
 20
-637.9369063498849
 30
0.0
 11
2306.108919880162
 21
-636.988378212461
 31
0.0
  0
ARC
  5
1AD9A
330
18
100
AcDbEntity
  8
01
  6
BYBLOCK
100
AcDbCircle
 10
2306.008919880162
 20
-638.7854344873089
 30
0.0
 40
1.2
100
AcDbArc
 50
134.9999999999616
 51
180.0
  0
ARC
  5
1AD9B
330
18
100
AcDbEntity
  8
01
  6
BYBLOCK
100
AcDbCircle
 10
2306.108919880162
 20
-636.8913219376133
 30
0.0
 40
1.2
100
AcDbArc
 50
314.9999999999616
 51
0.0
  0
LINE
  5
1AD9C
330
18
100
AcDbEntity
  8
01
  6
BYBLOCK
100
AcDbLine
 10
2304.808919880162
 20
-527.2883782124612
 30
0.0
 11
2304.808919880162
 21
-543.7913219376134
 31
0.0
  0
LINE
  5
1AD9D
330
18
100
AcDbEntity
  8
01
  6
BYBLOCK
100
AcDbLine
 10
2306.008919880162
 20
-527.2883782124612
 30
0.0
 11
2306.008919880162
 21
-543.8883782124611
 31
0.0
  0
LINE
  5
1AD9E
330
18
100
AcDbEntity
  8
01
  6
BYBLOCK
100
AcDbLine
 10
2306.008919880162
 20
-543.8883782124611
 30
0.0
 11
2306.957448017587
 21
-544.836906349885
 31
0.0
  0
LINE
  5
1AD9F
330
18
100
AcDbEntity
  8
01
  6
BYBLOCK
100
AcDbLine
 10
2305.160391742739
 20
-544.6398500750373
 30
0.0
 11
2306.108919880162
 21
-545.5883782124612
 31
0.0
  0
ARC
  5
1ADA0
330
18
100
AcDbEntity
  8
01
  6
BYBLOCK
100
AcDbCircle
 10
2306.008919880162
 20
-543.7913219376134
 30
0.0
 40
1.2
100
AcDbArc
 50
180.0
 51
225.0000000000384
  0
ARC
  5
1ADA1
330
18
100
AcDbEntity
  8
01
  6
BYBLOCK
100
AcDbCircle
 10
2306.108919880162
 20
-545.685434487309
 30
0.0
 40
1.2
100
AcDbArc
 50
0.0
 51
45.00000000003838
  0
CIRCLE
  5
1ADA2
330
18
100
AcDbEntity
  8
01
  6
BYBLOCK
100
AcDbCircle
 10
2257.808919880162
 20
-562.2883782124612
 30
0.0
 40
4.749999999999998
  0
LINE
  5
1ADA3
330
18
100
AcDbEntity
  8
01
  6
BYBLOCK
100
AcDbLine
 10
2306.108919880162
 20
-628.2883782124615
 30
0.0
 11
2281.393872710303
 21
-628.2883782124612
 31
0.0
  0
LINE
  5
1ADA4
330
18
100
AcDbEntity
  8
01
  6
BYBLOCK
100
AcDbLine
 10
2261.415164464214
 20
-562.2883782124612
 30
0.0
 11
2257.808919880162
 21
-558.6821336284098
 31
0.0
  0
LINE
  5
1ADA5
330
18
100
AcDbEntity
  8
01
  6
BYBLOCK
100
AcDbLine
 10
2254.202675296111
 20
-562.2883782124612
 30
0.0
 11
2257.808919880162
 21
-558.6821336284098
 31
0.0
  0
LINE
  5
1ADA6
330
18
100
AcDbEntity
  8
01
  6
BYBLOCK
100
AcDbLine
 10
2261.415164464214
 20
-562.2883782124612
 30
0.0
 11
2257.808919880162
 21
-565.8946227965124
 31
0.0
  0
LINE
  5
1ADA7
330
18
100
AcDbEntity
  8
01
  6
BYBLOCK
100
AcDbLine
 10
2254.202675296111
 20
-562.2883782124612
 30
0.0
 11
2257.808919880162
 21
-565.8946227965124
 31
0.0
  0
LINE
  5
1ADA8
330
18
100
AcDbEntity
  8
01
  6
BYBLOCK
100
AcDbLine
 10
2315.516026661349
 20
-580.288378212448
 30
0.0
 11
2308.808919880162
 21
-580.288378212448
 31
0.0
  0
LINE
  5
1ADA9
330
18
100
AcDbEntity
  8
01
  6
BYBLOCK
100
AcDbLine
 10
2315.516026661349
 20
-600.288378212448
 30
0.0
 11
2308.808919880162
 21
-600.288378212448
 31
0.0
  0
LINE
  5
1ADAA
330
18
100
AcDbEntity
  8
01
100
AcDbLine
 10
2313.808919879875
 20
-648.2883782121725
 30
0.0
 11
2299.808919879875
 21
-648.2883782121725
 31
0.0
  0
LINE
  5
1ADAB
330
18
100
AcDbEntity
  8
01
  6
BYBLOCK
100
AcDbLine
 10
2239.808919880162
 20
-565.5062592448829
 30
0.0000000000001137
 11
2239.808919880162
 21
-590.1919984184946
 31
0.0
  0
LINE
  5
1ADAC
330
18
100
AcDbEntity
  8
01
  6
BYBLOCK
100
AcDbLine
 10
2306.108919880162
 20
-554.2883782124612
 30
0.0
 11
2277.652022958145
 21
-554.2883782124612
 31
0.0000000000001137
  0
ARC
  5
1ADAD
330
18
100
AcDbEntity
  8
01
  6
BYBLOCK
100
AcDbCircle
 10
2240.808919880162
 20
-555.2883782124612
 30
0.0
 40
0.9999999999999996
100
AcDbArc
 50
90.0
 51
180.0
  0
LINE
  5
1ADAE
330
18
100
AcDbEntity
  8
01
  6
BYBLOCK
100
AcDbLine
 10
2277.652022958145
 20
-554.2883782124612
 30
0.0000000000001137
 11
2240.808919880162
 21
-554.2883782124612
 31
0.0
  0
LINE
  5
1ADAF
330
18
100
AcDbEntity
  8
01
  6
BYBLOCK
100
AcDbLine
 10
2239.808919880162
 20
-555.2883782124612
 30
0.0
 11
2239.808919880162
 21
-565.5062592448829
 31
0.0000000000001137
  0
TEXT
  5
1ADB2
330
18
100
AcDbEntity
  8
1TEXT
100
AcDbText
 10
2239.808819540416
 20
-330.7883782124612
 30
0.0
 40
20.0
  1
1-K5B-X-LJ
100
AcDbText
  0
LINE
  5
1ADB3
330
18
100
AcDbEntity
  8
1DIM
100
AcDbLine
 10
2239.808819540416
 20
-360.7883782124612
 30
0.0
 11
2344.808819540416
 21
-360.7883782124612
 31
0.0
  0
LINE
  5
1ADB4
330
18
100
AcDbEntity
  8
1DIM
100
AcDbLine
 10
2239.808819540416
 20
-392.2883782124612
 30
0.0
 11
2239.808819540416
 21
-381.7883782124612
 31
0.0
  0
LINE
  5
1ADB5
330
18
100
AcDbEntity
  8
1DIM
100
AcDbLine
 10
2239.808819540416
 20
-381.7883782124612
 30
0.0
 11
2239.808819540416
 21
-360.7883782124612
 31
0.0
  0
LINE
  5
1ADB6
330
18
100
AcDbEntity
  8
1DIM
100
AcDbLine
 10
2239.808819540416
 20
-402.7883782124612
 30
0.0
 11
2239.808819540416
 21
-392.2883782124612
 31
0.0
  0
LINE
  5
1ADB7
330
18
100
AcDbEntity
  8
01
100
AcDbLine
 10
2447.808687200671
 20
-587.2883782124612
 30
0.0
 11
2447.808687200671
 21
-637.2883782124612
 31
0.0
  0
LINE
  5
1ADB8
330
18
100
AcDbEntity
  8
01
100
AcDbLine
 10
2445.680401818241
 20
-612.2883782124612
 30
0.0
 11
2468.308687200671
 21
-612.2883782124612
 31
0.0
  0
LINE
  5
1ADB9
330
18
100
AcDbEntity
  8
01
  6
BYBLOCK
100
AcDbLine
 10
2546.809571382731
 20
-362.2883782134899
 30
0.0
 11
2700.563951537762
 21
-362.2883782134899
 31
0.0
  0
LINE
  5
1ADBA
330
18
100
AcDbEntity
  8
01
100
AcDbLine
 10
2597.808803540414
 20
-387.2896965265926
 30
0.0
 11
2597.808803540414
 21
-413.7896965265926
 31
0.0
  0
LINE
  5
1ADBB
330
18
100
AcDbEntity
  8
01
100
AcDbLine
 10
2447.808687200671
 20
-492.2883782124612
 30
0.0
 11
2447.808687200671
 21
-682.2883782124612
 31
0.0
  0
LINE
  5
1ADBC
330
18
100
AcDbEntity
  8
1CENTER
100
AcDbLine
 10
2462.308687200671
 20
-627.2883782124612
 30
0.0
 11
2462.308687200671
 21
-619.2883782124612
 31
0.0
  0
LINE
  5
1ADBD
330
18
100
AcDbEntity
  8
01
100
AcDbLine
 10
2567.808687200671
 20
-612.2883782124612
 30
0.0
 11
2627.808687200671
 21
-612.2883782124612
 31
0.0
  0
LINE
  5
1ADBE
330
18
100
AcDbEntity
  8
01
100
AcDbLine
 10
2597.808687200671
 20
-582.2883782124612
 30
0.0
 11
2597.808687200671
 21
-642.2883782124612
 31
0.0
  0
LINE
  5
1ADC0
330
18
100
AcDbEntity
  8
01
100
AcDbLine
 10
2447.808687200671
 20
-587.2883782124612
 30
0.0
 11
2447.808687200671
 21
-637.2883782124612
 31
0.0
  0
LINE
  5
1ADC1
330
18
100
AcDbEntity
  8
01
100
AcDbLine
 10
2572.808803540414
 20
-362.2883782134899
 30
0.0
 11
2622.808803540414
 21
-362.2883782134899
 31
0.0
  0
LINE
  5
1ADC2
330
18
100
AcDbEntity
  8
01
100
AcDbLine
 10
2597.808803540414
 20
-357.2883782134899
 30
0.0
 11
2597.808803540414
 21
-383.7883782134899
 31
0.0
  0
LINE
  5
1ADC8
330
18
100
AcDbEntity
  8
01
100
AcDbLine
 10
2447.808687200671
 20
-492.2883782124612
 30
0.0
 11
2447.808687200671
 21
-682.2883782124612
 31
0.0
  0
LINE
  5
1ADC9
330
18
100
AcDbEntity
  8
01
100
AcDbLine
 10
2569.308803540412
 20
-362.2883782134899
 30
0.0
 11
2569.308803540412
 21
-365.8208718055206
 31
0.0
  0
ARC
  5
1ADCA
330
18
100
AcDbEntity
  8
01
100
AcDbCircle
 10
2569.808803540412
 20
-365.8208718055206
 30
0.0
 40
0.5
100
AcDbArc
 50
180.0
 51
236.2947042116458
  0
LINE
  5
1ADCB
330
18
100
AcDbEntity
  8
01
100
AcDbLine
 10
2573.02790660422
 20
-370.221724868646
 30
0.0
 11
2572.823225747758
 21
-369.2781390848244
 31
0.0
  0
LINE
  5
1ADCC
330
18
100
AcDbEntity
  8
01
100
AcDbLine
 10
2626.308803540416
 20
-362.2883782134899
 30
0.0
 11
2626.308803540415
 21
-365.8305818641987
 31
0.0
  0
LINE
  5
1ADCD
330
18
100
AcDbEntity
  8
01
100
AcDbLine
 10
2607.308803540408
 20
-371.0883782134919
 30
0.0
 11
2588.308803540419
 21
-371.0883782134864
 31
0.0
  0
LINE
  5
1ADCE
330
18
100
AcDbEntity
  8
01
100
AcDbLine
 10
2571.767348413392
 20
-367.7283521541834
 30
0.0
 11
2569.531342879554
 21
-366.2368232229677
 31
0.0
  0
ARC
  5
1ADCF
330
18
100
AcDbEntity
  8
01
100
AcDbCircle
 10
2570.380045109099
 20
-369.8081092414171
 30
0.0
 40
2.5
100
AcDbArc
 50
12.23888328829404
 51
56.29470421169498
  0
ARC
  5
1ADD0
330
18
100
AcDbEntity
  8
01
100
AcDbCircle
 10
2625.808803540415
 20
-365.8305818641987
 30
0.0
 40
0.5
100
AcDbArc
 50
303.5799834520478
 51
0.0
  0
ARC
  5
1ADD1
330
18
100
AcDbEntity
  8
01
100
AcDbCircle
 10
2587.279440086801
 20
-171.0910272038331
 30
0.0
 40
200.0
100
AcDbArc
 50
266.0441967006435
 51
270.2948922093163
  0
ARC
  5
1ADD2
330
18
100
AcDbEntity
  8
01
100
AcDbCircle
 10
2573.516542731951
 20
-370.1157308373271
 30
0.0
 40
0.5
100
AcDbArc
 50
192.2388832883545
 51
266.0441967006435
  0
ARC
  5
1ADD3
330
18
100
AcDbEntity
  8
01
100
AcDbCircle
 10
2608.33816699403
 20
-171.0910272038331
 30
0.0
 40
200.0
100
AcDbArc
 50
269.7051077906316
 51
273.9558032993565
  0
LINE
  5
1ADD4
330
18
100
AcDbEntity
  8
01
100
AcDbLine
 10
2569.38638156928
 20
-366.0883782134891
 30
0.0
 11
2626.23722044285
 21
-366.0883782134891
 31
0.0
  0
LINE
  5
1ADD5
330
18
100
AcDbEntity
  8
01
100
AcDbLine
 10
2572.366063078692
 20
-368.2896453385041
 30
0.0
 11
2623.234949835408
 21
-368.2896453385041
 31
0.0
  0
LINE
  5
1ADD6
330
18
100
AcDbEntity
  8
01
100
AcDbLine
 10
2573.353434001937
 20
-370.5883782134891
 30
0.0
 11
2622.264173078894
 21
-370.5883782134891
 31
0.0
  0
ARC
  5
1ADD7
330
18
100
AcDbEntity
  8
01
100
AcDbCircle
 10
2622.10107253196
 20
-370.1157308373271
 30
0.0
 40
0.5
100
AcDbArc
 50
273.9558032993565
 51
347.7611167116456
  0
LINE
  5
1ADD8
330
18
100
AcDbEntity
  8
01
100
AcDbLine
 10
2623.85026685052
 20
-367.7283521541834
 30
0.0
 11
2626.086272384358
 21
-366.2368232229677
 31
0.0
  0
ARC
  5
1ADD9
330
18
100
AcDbEntity
  8
01
100
AcDbCircle
 10
2625.237570154813
 20
-369.8081092414171
 30
0.0
 40
2.5
100
AcDbArc
 50
123.705295788305
 51
167.761116711706
  0
LINE
  5
1ADDA
330
18
100
AcDbEntity
  8
01
100
AcDbLine
 10
2622.589708659692
 20
-370.221724868646
 30
0.0
 11
2622.794389516153
 21
-369.2781390848244
 31
0.0
  0
LINE
  5
1ADDB
330
18
100
AcDbEntity
  8
01
100
AcDbLine
 10
2569.308803540412
 20
-362.2883782134899
 30
0.0
 11
2626.308803540416
 21
-362.2883782134899
 31
0.0
  0
LINE
  5
1ADDC
330
18
100
AcDbEntity
  8
01
100
AcDbLine
 10
2447.808687200671
 20
-583.7883782124599
 30
0.0
 11
2451.341180792702
 21
-583.7883782124599
 31
0.0
  0
ARC
  5
1ADDD
330
18
100
AcDbEntity
  8
01
100
AcDbCircle
 10
2451.341180792702
 20
-584.2883782124599
 30
0.0
 40
0.5
100
AcDbArc
 50
33.70529578820963
 51
90.0
  0
LINE
  5
1ADDE
330
18
100
AcDbEntity
  8
01
100
AcDbLine
 10
2455.742033855827
 20
-587.5074812762672
 30
0.0
 11
2454.798448072006
 21
-587.3028004198053
 31
0.0
  0
LINE
  5
1ADDF
330
18
100
AcDbEntity
  8
01
100
AcDbLine
 10
2447.808687200671
 20
-640.7883782124626
 30
0.0
 11
2451.350890851381
 21
-640.7883782124621
 31
0.0
  0
LINE
  5
1ADE0
330
18
100
AcDbEntity
  8
01
100
AcDbLine
 10
2456.608687200673
 20
-621.7883782124558
 30
0.0
 11
2456.608687200668
 21
-602.7883782124662
 31
0.0
  0
LINE
  5
1ADE1
330
18
100
AcDbEntity
  8
01
100
AcDbLine
 10
2453.248661141366
 20
-586.2469230854389
 30
0.0
 11
2451.75713221015
 21
-584.0109175516012
 31
0.0
  0
ARC
  5
1ADE2
330
18
100
AcDbEntity
  8
01
100
AcDbCircle
 10
2455.328418228598
 20
-584.8596197811461
 30
0.0
 40
2.5
100
AcDbArc
 50
213.7052957882761
 51
257.7611167116838
  0
ARC
  5
1ADE3
330
18
100
AcDbEntity
  8
01
100
AcDbCircle
 10
2451.350890851381
 20
-640.2883782124621
 30
0.0
 40
0.5
100
AcDbArc
 50
270.0
 51
326.4200165480497
  0
ARC
  5
1ADE4
330
18
100
AcDbEntity
  8
01
100
AcDbCircle
 10
2256.611336191015
 20
-601.7590147588484
 30
0.0
 40
200.0
100
AcDbArc
 50
359.7051077906837
 51
3.955803299331897
  0
ARC
  5
1ADE5
330
18
100
AcDbEntity
  8
01
100
AcDbCircle
 10
2455.636039824508
 20
-587.9961174039989
 30
0.0
 40
0.5
100
AcDbArc
 50
3.955803299331885
 51
77.76111671164193
  0
ARC
  5
1ADE6
330
18
100
AcDbEntity
  8
01
100
AcDbCircle
 10
2256.611336191015
 20
-622.8177416660777
 30
0.0
 40
200.0
100
AcDbArc
 50
356.0441967006681
 51
0.2948922093423034
  0
LINE
  5
1ADE7
330
18
100
AcDbEntity
  8
01
100
AcDbLine
 10
2451.608687200671
 20
-583.8659562413271
 30
0.0
 11
2451.608687200671
 21
-640.716795114898
 31
0.0
  0
LINE
  5
1ADE8
330
18
100
AcDbEntity
  8
01
100
AcDbLine
 10
2453.809954325686
 20
-586.8456377507399
 30
0.0
 11
2453.809954325686
 21
-637.7145245074561
 31
0.0
  0
LINE
  5
1ADE9
330
18
100
AcDbEntity
  8
01
100
AcDbLine
 10
2456.10868720067
 20
-587.8330086739855
 30
0.0
 11
2456.10868720067
 21
-636.743747750941
 31
0.0
  0
ARC
  5
1ADEA
330
18
100
AcDbEntity
  8
01
100
AcDbCircle
 10
2455.636039824508
 20
-636.580647204007
 30
0.0
 40
0.5
100
AcDbArc
 50
282.2388832883581
 51
356.0441967006681
  0
LINE
  5
1ADEB
330
18
100
AcDbEntity
  8
01
100
AcDbLine
 10
2453.248661141366
 20
-638.3298415225676
 30
0.0
 11
2451.75713221015
 21
-640.5658470564048
 31
0.0
  0
ARC
  5
1ADEC
330
18
100
AcDbEntity
  8
01
100
AcDbCircle
 10
2455.328418228598
 20
-639.7171448268604
 30
0.0
 40
2.5
100
AcDbArc
 50
102.2388832883162
 51
146.2947042117239
  0
LINE
  5
1ADED
330
18
100
AcDbEntity
  8
01
100
AcDbLine
 10
2455.742033855827
 20
-637.0692833317388
 30
0.0
 11
2454.798448072006
 21
-637.2739641882007
 31
0.0
  0
LINE
  5
1ADEE
330
18
100
AcDbEntity
  8
01
100
AcDbLine
 10
2447.808687200671
 20
-583.7883782124599
 30
0.0
 11
2447.808687200671
 21
-640.7883782124626
 31
0.0
  0
ARC
  5
1ADEF
330
18
100
AcDbEntity
  8
01
100
AcDbCircle
 10
2597.808687200648
 20
-612.288378212448
 30
0.0
 40
28.49999999998931
100
AcDbArc
 50
17.70455576284566
 51
342.3207897638106
  0
ARC
  5
1ADF0
330
18
100
AcDbEntity
  8
01
100
AcDbCircle
 10
2597.808687200671
 20
-612.2883782124612
 30
0.0
 40
24.70000000000277
100
AcDbArc
 50
17.68826745425523
 51
342.3423405953504
  0
ARC
  5
1ADF1
330
18
100
AcDbEntity
  8
01
100
AcDbCircle
 10
2597.808687200671
 20
-612.2883782124612
 30
0.0
 40
25.20000000001778
100
AcDbArc
 50
17.29206595687041
 51
342.740549224963
  0
SPLINE
  5
1ADF2
330
18
100
AcDbEntity
  8
01
100
AcDbSpline
210
0.0
220
0.0
230
1.0
 70
    12
 71
     2
 72
     6
 73
     3
 74
     0
 42
0.0000000001
 43
0.0000000001
 40
0.0
 40
0.0
 40
0.0
 40
0.1345419027129296
 40
0.1345419027129296
 40
0.1345419027129296
 10
2720.898759917461
 20
-401.1792497939235
 30
0.0
 41
1.0
 10
2720.864442386569
 20
-401.1213901757686
 30
0.0
 41
0.999992137232987
 10
2720.82966704986
 20
-401.0638045499903
 30
0.0
 41
1.0
  0
SPLINE
  5
1ADF3
330
18
100
AcDbEntity
  8
01
100
AcDbSpline
210
0.0
220
0.0
230
1.0
 70
     8
 71
     3
 72
    12
 73
     8
 74
     0
 42
0.0000000001
 43
0.0000000001
 40
0.2861255186660753
 40
0.2861255186660753
 40
0.2861255186660753
 40
0.2861255186660753
 40
1.440454329920661
 40
1.440454329920661
 40
5.654846439712665
 40
5.654846439712665
 40
7.620038680388925
 40
7.620038680388925
 40
7.620038680388925
 40
7.620038680388925
 10
2720.262626833472
 20
-426.1274681016042
 30
0.0
 10
2720.445396256798
 20
-425.7775715343799
 30
0.0
 10
2720.525514572013
 20
-425.6032059688308
 30
0.0
 10
2720.82668957285
 20
-424.7781562410022
 30
0.0
 10
2720.857114268696
 20
-424.0891011972666
 30
0.0
 10
2720.603093616637
 20
-423.1091485222299
 30
0.0
 10
2720.478510581383
 20
-422.8015111528442
 30
0.0
 10
2720.311406274213
 20
-422.5019862935163
 30
0.0
  0
POINT
  5
1ADF4
330
18
100
AcDbEntity
  8
01
100
AcDbPoint
 10
2609.845630964375
 20
-373.287777780943
 30
0.0
 50
180.0
  0
POINT
  5
1ADF5
330
18
100
AcDbEntity
  8
01
100
AcDbPoint
 10
2606.139475914873
 20
-395.9898204890363
 30
0.0
 50
180.0
  0
POINT
  5
1ADF6
330
18
100
AcDbEntity
  8
01
100
AcDbPoint
 10
2585.824594213061
 20
-373.2882950956995
 30
0.0
 50
180.0
  0
LINE
  5
1ADF7
330
18
100
AcDbEntity
  8
01
100
AcDbLine
 10
2610.97265313211
 20
-418.888145039295
 30
0.0
 11
2617.139636128838
 21
-419.124164887255
 31
0.0
  0
ARC
  5
1ADF8
330
18
100
AcDbEntity
  8
01
100
AcDbCircle
 10
2489.333094866658
 20
-399.2216608430366
 30
0.0
 40
100.2529751463501
100
AcDbArc
 50
2.416253689491119
 51
13.29541576663791
  0
ARC
  5
1ADF9
330
18
100
AcDbEntity
  8
01
100
AcDbCircle
 10
2577.625510689722
 20
-377.9887641719491
 30
0.0
 40
9.450889447845686
100
AcDbArc
 50
11.11831181576348
 51
29.82202407746661
  0
LINE
  5
1ADFA
330
18
100
AcDbEntity
  8
01
100
AcDbLine
 10
2622.849850291268
 20
-419.3146060462726
 30
0.0
 11
2617.139636128838
 21
-419.124164887255
 31
0.0
  0
LINE
  5
1ADFB
330
18
100
AcDbEntity
  8
01
100
AcDbLine
 10
2585.824594213061
 20
-373.2882950956995
 30
0.0
 11
2609.845359729222
 21
-373.2882462367246
 31
0.0
  0
LINE
  5
1ADFC
330
18
100
AcDbEntity
  8
01
100
AcDbLine
 10
2624.256284113509
 20
-419.9244612946699
 30
0.0
 11
2625.501318429633
 21
-421.2137184278239
 31
0.0
  0
LINE
  5
1ADFD
330
18
100
AcDbEntity
  8
01
100
AcDbLine
 10
2625.852265686975
 20
-421.3663056619556
 30
0.0
 11
2626.582743115936
 21
-421.3790074320262
 31
0.0
  0
LINE
  5
1ADFE
330
18
100
AcDbEntity
  8
01
100
AcDbLine
 10
2628.173933891179
 20
-422.9889457979192
 30
0.0
 11
2627.980199587166
 21
-422.4040161475945
 31
0.0
  0
LINE
  5
1ADFF
330
18
100
AcDbEntity
  8
01
100
AcDbLine
 10
2626.183362003192
 20
-402.3694225302655
 30
0.0
 11
2626.91392503937
 21
-402.3821622934469
 31
0.0
  0
LINE
  5
1AE00
330
18
100
AcDbEntity
  8
01
100
AcDbLine
 10
2628.346121254179
 20
-401.404904081471
 30
0.0
 11
2628.560268384803
 21
-400.8286600948962
 31
0.0
  0
LINE
  5
1AE01
330
18
100
AcDbEntity
  8
01
100
AcDbLine
 10
2632.880613477682
 20
-402.6164419145683
 30
0.0
 11
2630.112062698431
 21
-400.3881397529343
 31
0.0
  0
LINE
  5
1AE02
330
18
100
AcDbEntity
  8
01
100
AcDbLine
 10
2629.709218482985
 20
-423.4835372510282
 30
0.0
 11
2632.560635104018
 21
-421.376026232508
 31
0.0
  0
LINE
  5
1AE03
330
18
100
AcDbEntity
  8
01
100
AcDbLine
 10
2585.824594213061
 20
-373.2882950956995
 30
0.0
 11
2585.823807071944
 21
-373.2882779210526
 31
0.0
  0
LINE
  5
1AE04
330
18
100
AcDbEntity
  8
01
100
AcDbLine
 10
2585.760698152678
 20
-373.2869009463305
 30
0.0
 11
2585.758801685689
 21
-373.2868595672811
 31
0.0
  0
LINE
  5
1AE05
330
18
100
AcDbEntity
  8
01
100
AcDbLine
 10
2585.81406428005
 20
-371.2883615933455
 30
0.0
 11
2609.814103782628
 21
-371.2883491763099
 31
0.0
  0
ARC
  5
1AE06
330
18
100
AcDbEntity
  8
01
100
AcDbCircle
 10
2706.284512214169
 20
-399.2216608430366
 30
0.0
 40
100.2529751463501
100
AcDbArc
 50
166.7045842333621
 51
177.9906112377139
  0
ARC
  5
1AE07
330
18
100
AcDbEntity
  8
01
100
AcDbCircle
 10
2614.088263901776
 20
-395.9869706766261
 30
0.0
 40
8.0
100
AcDbArc
 50
177.9906112377132
 51
267.9362312726354
  0
ARC
  5
1AE08
330
18
100
AcDbEntity
  8
01
100
AcDbCircle
 10
2617.992096391104
 20
-377.9887641719491
 30
0.0
 40
9.450889447845686
100
AcDbArc
 50
150.1779759225334
 51
168.8816881842587
  0
LINE
  5
1AE09
330
18
100
AcDbEntity
  8
01
100
AcDbLine
 10
2613.800169732843
 20
-403.9817816030849
 30
0.0
 11
2623.121139353067
 21
-404.3176640925006
 31
0.0
  0
ARC
  5
1AE0A
330
18
100
AcDbEntity
  8
01
100
AcDbCircle
 10
2612.477623257329
 20
-395.9374355748317
 30
0.0
 40
23.0
100
AcDbArc
 50
177.6518392425058
 51
266.2482570832246
  0
LINE
  5
1AE0B
330
18
100
AcDbEntity
  8
01
100
AcDbLine
 10
2719.089457222966
 20
-426.5794533437542
 30
0.0
 11
2633.873424417061
 21
-420.9936340059361
 31
0.0
  0
LINE
  5
1AE0C
330
18
100
AcDbEntity
  8
01
100
AcDbLine
 10
2719.590893601571
 20
-400.4097920636835
 30
0.0
 11
2634.133402039942
 21
-403.0522460410606
 31
0.0
  0
ARC
  5
1AE0D
330
18
100
AcDbEntity
  8
01
100
AcDbCircle
 10
2629.122864191516
 20
-422.6734969033563
 30
0.0
 40
0.9999883599222319
100
AcDbArc
 50
198.3881370052468
 51
307.0377619056052
  0
ARC
  5
1AE0E
330
18
100
AcDbEntity
  8
01
100
AcDbCircle
 10
2626.556050142552
 20
-422.8805224659994
 30
0.0
 40
1.501752280529346
100
AcDbArc
 50
18.49973153585016
 51
88.9815396467717
  0
ARC
  5
1AE0F
330
18
100
AcDbEntity
  8
01
100
AcDbCircle
 10
2633.742655628748
 20
-422.9893543079837
 30
0.0
 40
2.0
100
AcDbArc
 50
86.248300921085
 51
126.2287323016765
  0
ARC
  5
1AE10
330
18
100
AcDbEntity
  8
01
100
AcDbCircle
 10
2622.818161896755
 20
-421.314354991929
 30
0.0
 40
2.0
100
AcDbArc
 50
44.0012104132293
 51
89.09215637978988
  0
LINE
  5
1AE11
330
18
100
AcDbEntity
  8
01
100
AcDbLine
 10
2624.53628409055
 20
-403.7565661295524
 30
0.0
 11
2625.827395605154
 21
-402.5096855867536
 31
0.0
  0
ARC
  5
1AE12
330
18
100
AcDbEntity
  8
01
100
AcDbCircle
 10
2623.147024226
 20
-402.3178316061779
 30
0.0
 40
2.0
100
AcDbArc
 50
269.2584323101406
 51
314.0054177108355
  0
ARC
  5
1AE13
330
18
100
AcDbEntity
  8
01
100
AcDbCircle
 10
2626.174732485023
 20
-402.8693480561354
 30
0.0
 40
0.5
100
AcDbArc
 50
88.99084171075447
 51
134.0012257767615
  0
ARC
  5
1AE14
330
18
100
AcDbEntity
  8
01
100
AcDbCircle
 10
2626.614156404983
 20
-400.4047552119795
 30
0.0
 40
2.0
100
AcDbArc
 50
278.6202226326501
 51
329.9950753146851
  0
ARC
  5
1AE15
330
18
100
AcDbEntity
  8
01
100
AcDbCircle
 10
2629.497559112919
 20
-401.1769312772871
 30
0.0
 40
0.9999033580781345
100
AcDbArc
 50
52.0798276422541
 51
159.6163332434247
  0
ARC
  5
1AE16
330
18
100
AcDbEntity
  8
01
100
AcDbCircle
 10
2634.12710366187
 20
-401.0522559584764
 30
0.0
 40
2.0
100
AcDbArc
 50
231.4457120844481
 51
271.6784364462309
  0
ARC
  5
1AE17
330
18
100
AcDbEntity
  8
01
100
AcDbCircle
 10
2625.860980972382
 20
-420.8663816239253
 30
0.0
 40
0.5
100
AcDbArc
 50
224.0012136741685
 51
269.0012497092198
  0
ARC
  5
1AE18
330
18
100
AcDbEntity
  8
01
100
AcDbCircle
 10
2694.568078087033
 20
-410.7111300246983
 30
0.0
 40
30.0
100
AcDbArc
 50
329.4587067178923
 51
341.4553660138027
  0
ARC
  5
1AE19
330
18
100
AcDbEntity
  8
01
100
AcDbCircle
 10
2724.906515974304
 20
-420.8885160623907
 30
0.0
 40
2.0
100
AcDbArc
 50
96.13036648151187
 51
161.4553660138158
  0
ARC
  5
1AE1A
330
18
100
AcDbEntity
  8
01
100
AcDbCircle
 10
2694.502172656053
 20
-415.4642295482439
 30
0.0
 40
30.0
100
AcDbArc
 50
16.64195377983817
 51
28.80965507434749
  0
ARC
  5
1AE1B
330
18
100
AcDbEntity
  8
01
100
AcDbCircle
 10
2725.161792736924
 20
-406.2997493940469
 30
0.0
 40
2.0
100
AcDbArc
 50
196.6419537798398
 51
261.8779757257044
  0
ARC
  5
1AE1C
330
18
100
AcDbEntity
  8
01
100
AcDbCircle
 10
2719.186415735543
 20
-425.0825902749206
 30
0.0
 40
1.5
100
AcDbArc
 50
266.2055030308151
 51
324.3938171892477
  0
ARC
  5
1AE1D
330
18
100
AcDbEntity
  8
01
100
AcDbCircle
 10
2719.590893601571
 20
-401.9097920636835
 30
0.0
 40
1.5
100
AcDbArc
 50
36.99426401954786
 51
91.80038915695403
  0
ARC
  5
1AE1E
330
18
100
AcDbEntity
  8
01
100
AcDbCircle
 10
2726.223850122294
 20
-417.7297732480087
 30
0.0
 40
1.0
100
AcDbArc
 50
276.1274455852726
 51
357.3815180283141
  0
LINE
  5
1AE1F
330
18
100
AcDbEntity
  8
01
100
AcDbLine
 10
2727.222806007317
 20
-417.7754584729668
 30
0.0
 11
2727.363218145099
 21
-409.4120693106191
 31
0.0
  0
ARC
  5
1AE20
330
18
100
AcDbEntity
  8
01
100
AcDbCircle
 10
2726.367286936058
 20
-409.5021860507862
 30
0.0
 40
1.0
100
AcDbArc
 50
5.170323100513645
 51
81.8750793015425
  0
LINE
  5
1AE21
330
18
100
AcDbEntity
  8
01
100
AcDbLine
 10
2726.330691858436
 20
-418.7240492878585
 30
0.0
 11
2724.682681695553
 21
-418.9010542299769
 31
0.0
  0
LINE
  5
1AE22
330
18
100
AcDbEntity
  8
01
100
AcDbLine
 10
2726.508618756111
 20
-408.512223770373
 30
0.0
 11
2724.879229171418
 21
-408.2796882394272
 31
0.0
  0
ARC
  5
1AE23
330
18
100
AcDbEntity
  8
01
100
AcDbCircle
 10
2609.803321298961
 20
-372.2885917769412
 30
0.0
 40
1.000230209892093
100
AcDbArc
 50
269.3942691040958
 51
89.98686230959994
  0
ARC
  5
1AE24
330
18
100
AcDbEntity
  8
01
100
AcDbCircle
 10
2585.814055571972
 20
-372.2883254680586
 30
0.0
 40
1.0
100
AcDbArc
 50
89.51301208651535
 51
270.5587286472999
  0
LINE
  5
1AE25
330
18
100
AcDbEntity
  8
01
100
AcDbLine
 10
2723.582919767401
 20
-407.5274139028228
 30
0.0
 11
2723.582919767401
 21
-419.3891518367703
 31
0.0
  0
LINE
  5
1AE26
330
18
100
AcDbEntity
  8
01
100
AcDbLine
 10
2633.448401240885
 20
-403.0734328823977
 30
0.0
 11
2633.142799847668
 21
-420.9457423508796
 31
0.0
  0
LINE
  5
1AE27
330
18
100
AcDbEntity
  8
01
100
AcDbLine
 10
2625.975589017778
 20
-402.4107176172705
 30
0.0
 11
2625.645977593596
 21
-421.3177944583807
 31
0.0
  0
LINE
  5
1AE28
330
18
100
AcDbEntity
  8
01
100
AcDbLine
 10
2623.694552844224
 20
-419.3427776924894
 30
0.0
 11
2623.9252769954
 21
-404.3466413088357
 31
0.0
  0
LINE
  5
1AE29
330
18
100
AcDbEntity
  8
01
100
AcDbLine
 10
2627.976063687204
 20
-402.4006841651666
 30
0.0
 11
2627.646835173873
 21
-421.3975101976406
 31
0.0
  0
LINE
  5
1AE2A
330
18
100
AcDbEntity
  8
01
100
AcDbLine
 10
2629.03037848399
 20
-400.2928786852711
 30
0.0
 11
2628.620839824835
 21
-423.5383369204914
 31
0.0
  0
LINE
  5
1AE2B
330
18
100
AcDbEntity
  8
01
100
AcDbLine
 10
2720.367628730296
 20
-404.4072978709113
 30
0.0
 11
2633.401603849643
 21
-405.810257638965
 31
0.0
  0
LINE
  5
1AE2C
330
18
100
AcDbEntity
  8
01
100
AcDbLine
 10
2720.311406274152
 20
-422.5019862935127
 30
0.0
 11
2633.19412743711
 21
-418.1682062279955
 31
0.0
  0
LINE
  5
1AE2D
330
18
100
AcDbEntity
  8
01
100
AcDbLine
 10
2633.295949159439
 20
-411.9891997578155
 30
0.0
 11
2720.214400013172
 21
-413.4484652852756
 31
0.0
  0
ARC
  5
1AE2E
330
18
100
AcDbEntity
  8
01
100
AcDbCircle
 10
2703.30041742353
 20
-417.8213029121274
 30
0.0
 40
17.64320091692204
100
AcDbArc
 50
344.615415150061
 51
14.68063763589067
  0
ARC
  5
1AE2F
330
18
100
AcDbEntity
  8
01
100
AcDbCircle
 10
2703.302130338034
 20
-408.8786328846503
 30
0.0
 40
17.64154392850468
100
AcDbArc
 50
345.3179524860328
 51
14.68204751396719
  0
ARC
  5
1AE30
330
18
100
AcDbEntity
  8
01
100
AcDbCircle
 10
2716.942756912106
 20
-402.3364972480971
 30
0.0
 40
4.002244644006566
100
AcDbArc
 50
328.8413338016948
 51
21.63879708709205
  0
SPLINE
  5
1AE31
330
18
100
AcDbEntity
  8
01
100
AcDbSpline
210
0.0
220
0.0
230
1.0
 70
     8
 71
     3
 72
    12
 73
     8
 74
     0
 42
0.0000000001
 43
0.0000000001
 40
0.0
 40
0.0
 40
0.0
 40
0.0
 40
0.3036965174894802
 40
0.6118185173728741
 40
1.227001076013138
 40
1.838134664504153
 40
2.445936080305662
 40
2.445936080305662
 40
2.445936080305662
 40
2.445936080305662
 10
2723.015290416364
 20
-618.9698053405181
 30
0.0
 10
2723.036309440805
 20
-618.8707644238146
 30
0.0
 10
2723.095234906171
 20
-618.6748785098406
 30
0.0
 10
2723.272807991172
 20
-618.3050407888771
 30
0.0
 10
2723.598427153019
 20
-617.9026838459766
 30
0.0
 10
2724.114897240368
 20
-617.5622115810114
 30
0.0
 10
2724.510128784202
 20
-617.4493947094414
 30
0.0
 10
2724.711146646575
 20
-617.4240616610003
 30
0.0
  0
SPLINE
  5
1AE32
330
18
100
AcDbEntity
  8
01
100
AcDbSpline
210
0.0
220
0.0
230
1.0
 70
    24
 71
     2
 72
     6
 73
     3
 74
     0
 42
0.0000000001
 43
0.0000000001
 40
0.0
 40
0.0
 40
0.0
 40
1.656894817823371
 40
1.656894817823371
 40
1.656894817823371
 10
2724.711347488968
 20
-617.4239520996256
 30
0.0
 10
2725.533269656074
 20
-617.3201780154208
 30
0.0
 10
2726.35519182318
 20
-617.216403931216
 30
0.0
  0
SPLINE
  5
1AE33
330
18
100
AcDbEntity
  8
01
100
AcDbSpline
210
0.0
220
0.0
230
1.0
 70
    24
 71
     2
 72
     6
 73
     3
 74
     0
 42
0.0000000001
 43
0.0000000001
 40
0.0
 40
0.0
 40
0.0
 40
0.728589996431484
 40
0.728589996431484
 40
0.728589996431484
 10
2625.958972019756
 20
-621.729305786664
 30
0.0
 10
2626.323266747191
 20
-621.728861615575
 30
0.0
 10
2626.687561474625
 20
-621.7284174444861
 30
0.0
  0
SPLINE
  5
1AE34
330
18
100
AcDbEntity
  8
01
100
AcDbSpline
210
0.0
220
0.0
230
1.0
 70
     8
 71
     3
 72
    14
 73
    10
 74
     0
 42
0.0000000001
 43
0.0000000001
 40
0.0
 40
0.0
 40
0.0
 40
0.0
 40
0.2097199602789231
 40
0.4191705282148602
 40
0.8409022804462526
 40
1.228638121822855
 40
1.427649568086435
 40
1.565386280032407
 40
1.755721759589097
 40
1.755721759589097
 40
1.755721759589097
 40
1.755721759589097
 10
2726.355393124478
 20
-617.2165923804663
 30
0.0
 10
2726.424746529946
 20
-617.207867052541
 30
0.0
 10
2726.561532701371
 20
-617.1757073543848
 30
0.0
 10
2726.816581348432
 20
-617.0559392175277
 30
0.0
 10
2727.069772056554
 20
-616.8181416044066
 30
0.0
 10
2727.206925402129
 20
-616.504453485359
 30
0.0
 10
2727.239124352809
 20
-616.2643085506164
 30
0.0
 10
2727.250212652988
 20
-616.089148351661
 30
0.0
 10
2727.255293684149
 20
-615.9797805461029
 30
0.0
 10
2727.257642973096
 20
-615.9164228952781
 30
0.0
  0
SPLINE
  5
1AE35
330
18
100
AcDbEntity
  8
01
100
AcDbSpline
210
0.0
220
0.0
230
1.0
 70
     8
 71
     3
 72
    11
 73
     7
 74
     0
 42
0.0000000001
 43
0.0000000001
 40
0.0
 40
0.0
 40
0.0
 40
0.0
 40
0.1924800216897238
 40
0.3799201783946904
 40
0.7545508149157371
 40
1.501630252415058
 40
1.501630252415058
 40
1.501630252415058
 40
1.501630252415058
 10
2720.554665773868
 20
-599.9839349704265
 30
0.0
 10
2720.516857288073
 20
-599.9321266955307
 30
0.0
 10
2720.436684739679
 20
-599.8337276310289
 30
0.0
 10
2720.254403469729
 20
-599.6598398379673
 30
0.0
 10
2719.885682633981
 20
-599.4198462397229
 30
0.0
 10
2719.508191007591
 20
-599.3419371812719
 30
0.0
 10
2719.259371071162
 20
-599.3539503291871
 30
0.0
  0
POINT
  5
1AE36
330
18
100
AcDbEntity
  8
01
100
AcDbPoint
 10
2622.938714869514
 20
-604.8267411369405
 30
0.0
 50
270.0
  0
SPLINE
  5
1AE37
330
18
100
AcDbEntity
  8
01
100
AcDbSpline
210
0.0
220
0.0
230
1.0
 70
     8
 71
     3
 72
    11
 73
     7
 74
     0
 42
0.0000000001
 43
0.0000000001
 40
0.0
 40
0.0
 40
0.0
 40
0.0
 40
0.6835096342167513
 40
1.490903194967845
 40
2.42533861308265
 40
3.537505741574028
 40
3.537505741574028
 40
3.537505741574028
 40
3.537505741574028
 10
2629.856273126317
 20
-623.773420269113
 30
0.0
 10
2630.036057531062
 20
-623.6334664028476
 30
0.0
 10
2630.428869985156
 20
-623.3290391247309
 30
0.0
 10
2631.069324247303
 20
-622.8356785893196
 30
0.0
 10
2631.824186886431
 20
-622.2567004489914
 30
0.0
 10
2632.366138618704
 20
-621.8423496947697
 30
0.0
 10
2632.66076017035
 20
-621.6173314434203
 30
0.0
  0
SPLINE
  5
1AE38
330
18
100
AcDbEntity
  8
01
100
AcDbSpline
210
0.0
220
0.0
230
1.0
 70
    12
 71
     2
 72
     6
 73
     3
 74
     0
 42
0.0000000001
 43
0.0000000001
 40
0.0
 40
0.0
 40
0.0
 40
6.116405636410633
 40
6.116405636410633
 40
6.116405636410633
 10
2720.574360272921
 20
-624.549625522929
 30
0.0
 41
1.0
 10
2722.367383564618
 20
-622.0193546059585
 30
0.0
 41
0.9793502049823606
 10
2723.011864868771
 20
-618.9858999274715
 30
0.0
 41
1.0
  0
SPLINE
  5
1AE39
330
18
100
AcDbEntity
  8
01
100
AcDbSpline
210
0.0
220
0.0
230
1.0
 70
     8
 71
     3
 72
    12
 73
     8
 74
     0
 42
0.0000000001
 43
0.0000000001
 40
0.0
 40
0.0
 40
0.0
 40
0.0
 40
0.3068887477162857
 40
0.6098369806450664
 40
1.222863454516894
 40
1.836954202601258
 40
2.446088008612362
 40
2.446088008612362
 40
2.446088008612362
 40
2.446088008612362
 10
2724.711146646612
 20
-607.1368605138899
 30
0.0
 10
2724.609666078111
 20
-607.1240513579577
 30
0.0
 10
2724.409926574097
 20
-607.0830021242822
 30
0.0
 10
2724.026682393347
 20
-606.9409405721202
 30
0.0
 10
2723.596095747972
 20
-606.6562658191718
 30
0.0
 10
2723.207474491659
 20
-606.1740994692826
 30
0.0
 10
2723.057611586153
 20
-605.7895933710123
 30
0.0
 10
2723.015259147343
 20
-605.5909690992333
 30
0.0
  0
SPLINE
  5
1AE3A
330
18
100
AcDbEntity
  8
01
100
AcDbSpline
210
0.0
220
0.0
230
1.0
 70
     8
 71
     3
 72
    12
 73
     8
 74
     0
 42
0.0000000001
 43
0.0000000001
 40
0.0
 40
0.0
 40
0.0
 40
0.0
 40
0.1859709815753115
 40
0.37212641791537
 40
0.7460776649155251
 40
1.121741301734765
 40
1.501629654716376
 40
1.501629654716376
 40
1.501629654716376
 40
1.501629654716376
 10
2719.259371070969
 20
-625.2069718460046
 30
0.0
 10
2719.321308925571
 20
-625.2098822613883
 30
0.0
 10
2719.445530163622
 20
-625.2079379750174
 30
0.0
 10
2719.692374243448
 20
-625.1734338872483
 30
0.0
 10
2719.990025558165
 20
-625.0727049370497
 30
0.0
 10
2720.308613713747
 20
-624.8663256130798
 30
0.0
 10
2720.480275198382
 20
-624.6794297018326
 30
0.0
 10
2720.554665750445
 20
-624.5769872147961
 30
0.0
  0
SPLINE
  5
1AE3B
330
18
100
AcDbEntity
  8
01
100
AcDbSpline
210
0.0
220
0.0
230
1.0
 70
    24
 71
     2
 72
     6
 73
     3
 74
     0
 42
0.0000000001
 43
0.0000000001
 40
0.0
 40
0.0
 40
0.0
 40
0.7285881454290491
 40
0.7285881454290491
 40
0.7285881454290491
 10
2626.687561474625
 20
-602.8325047304942
 30
0.0
 10
2626.323267672691
 20
-602.8320605605335
 30
0.0
 10
2625.958973870757
 20
-602.8316163905732
 30
0.0
  0
SPLINE
  5
1AE3C
330
18
100
AcDbEntity
  8
01
100
AcDbSpline
210
0.0
220
0.0
230
1.0
 70
    24
 71
     2
 72
     6
 73
     3
 74
     0
 42
0.0000000001
 43
0.0000000001
 40
0.0
 40
0.0
 40
0.0
 40
0.6138307101416199
 40
0.6138307101416199
 40
0.6138307101416199
 10
2628.300531887538
 20
-601.2661849558702
 30
0.0
 10
2628.198422085583
 20
-601.5556165082675
 30
0.0
 10
2628.09631228363
 20
-601.8450480606651
 30
0.0
  0
SPLINE
  5
1AE3D
330
18
100
AcDbEntity
  8
01
100
AcDbSpline
210
0.0
220
0.0
230
1.0
 70
    24
 71
     2
 72
     6
 73
     3
 74
     0
 42
0.0000000001
 43
0.0000000001
 40
0.0
 40
0.0
 40
0.0
 40
1.789439070678972
 40
1.789439070678972
 40
1.789439070678972
 10
2624.333949468547
 20
-620.3160766232439
 30
0.0
 10
2624.96728659843
 20
-620.9480632740773
 30
0.0
 10
2625.60062372831
 20
-621.5800499249107
 30
0.0
  0
SPLINE
  5
1AE3E
330
18
100
AcDbEntity
  8
01
100
AcDbSpline
210
0.0
220
0.0
230
1.0
 70
    24
 71
     2
 72
     6
 73
     3
 74
     0
 42
0.0000000001
 43
0.0000000001
 40
0.0
 40
0.0
 40
0.0
 40
85.38394009347476
 40
85.38394009347476
 40
85.38394009347476
 10
2633.967994200354
 20
-621.2075014701999
 30
0.0
 10
2676.613105451813
 20
-623.2071996529679
 30
0.0
 10
2719.258216703274
 20
-625.206897835736
 30
0.0
  0
SPLINE
  5
1AE3F
330
18
100
AcDbEntity
  8
01
100
AcDbSpline
210
0.0
220
0.0
230
1.0
 70
     8
 71
     3
 72
    13
 73
     9
 74
     0
 42
0.0000000001
 43
0.0000000001
 40
0.0
 40
0.0
 40
0.0
 40
0.0
 40
0.1903448959808304
 40
0.3280721908774044
 40
0.5264636074654618
 40
0.9148325723834824
 40
1.336558950878469
 40
1.755722258486064
 40
1.755722258486064
 40
1.755722258486064
 40
1.755722258486064
 10
2727.257642802425
 20
-608.6444992850242
 30
0.0
 10
2727.255284178367
 20
-608.5811344592324
 30
0.0
 10
2727.250216530052
 20
-608.4717731689256
 30
0.0
 10
2727.239135557425
 20
-608.2968164175658
 30
0.0
 10
2727.206960779523
 20
-608.0566704295601
 30
0.0
 10
2727.06992890098
 20
-607.7429227058336
 30
0.0
 10
2726.76448995996
 20
-607.4560081428907
 30
0.0
 10
2726.49405871137
 20
-607.361723114463
 30
0.0
 10
2726.355393124478
 20
-607.3443297945136
 30
0.0
  0
SPLINE
  5
1AE40
330
18
100
AcDbEntity
  8
01
100
AcDbSpline
210
0.0
220
0.0
230
1.0
 70
    24
 71
     2
 72
     6
 73
     3
 74
     0
 42
0.0000000001
 43
0.0000000001
 40
0.0
 40
0.0
 40
0.0
 40
1.656894817827469
 40
1.656894817827469
 40
1.656894817827469
 10
2726.35519182318
 20
-607.3445182437644
 30
0.0
 10
2725.533269656072
 20
-607.2407441595591
 30
0.0
 10
2724.711347488964
 20
-607.1369700753543
 30
0.0
  0
SPLINE
  5
1AE41
330
18
100
AcDbEntity
  8
01
100
AcDbSpline
210
0.0
220
0.0
230
1.0
 70
    12
 71
     2
 72
     6
 73
     3
 74
     0
 42
0.0000000001
 43
0.0000000001
 40
0.0
 40
0.0
 40
0.0
 40
6.116269779478222
 40
6.116269779478222
 40
6.116269779478222
 10
2723.011864870961
 20
-605.5750222474566
 30
0.0
 41
1.0
 10
2722.367398266377
 20
-602.5416368535324
 30
0.0
 41
0.9793511208268821
 10
2720.574438833078
 20
-600.011407491785
 30
0.0
 41
1.0
  0
SPLINE
  5
1AE42
330
18
100
AcDbEntity
  8
01
100
AcDbSpline
210
0.0
220
0.0
230
1.0
 70
    24
 71
     2
 72
     6
 73
     3
 74
     0
 42
0.0000000001
 43
0.0000000001
 40
0.0
 40
0.0
 40
0.0
 40
85.38394593612506
 40
85.38394593612506
 40
85.38394593612506
 10
2719.258216703274
 20
-599.3540243392443
 30
0.0
 10
2676.613102533695
 20
-601.3537226588472
 30
0.0
 10
2633.967988364117
 20
-603.3534209784506
 30
0.0
  0
SPLINE
  5
1AE43
330
18
100
AcDbEntity
  8
01
100
AcDbSpline
210
0.0
220
0.0
230
1.0
 70
    12
 71
     2
 72
     6
 73
     3
 74
     0
 42
0.0000000001
 43
0.0000000001
 40
0.0
 40
0.0
 40
0.0
 40
4.079445883701146
 40
4.079445883701146
 40
4.079445883701146
 10
2602.467657722055
 20
-604.2737452445543
 30
0.0
 41
1.0
 10
2600.429931370263
 20
-604.1831897908168
 30
0.0
 41
0.9999893110651952
 10
2598.391454765525
 20
-604.1114813050802
 30
0.0
 41
1.0
  0
SPLINE
  5
1AE44
330
18
100
AcDbEntity
  8
01
100
AcDbSpline
210
0.0
220
0.0
230
1.0
 70
    24
 71
     2
 72
     6
 73
     3
 74
     0
 42
0.0000000001
 43
0.0000000001
 40
0.0
 40
0.0
 40
0.0
 40
0.6135311876769587
 40
0.6135311876769587
 40
0.6135311876769587
 10
2628.096312283699
 20
-622.7158741145098
 30
0.0
 10
2628.198372260547
 20
-623.0051644370045
 30
0.0
 10
2628.300432237394
 20
-623.2944547594988
 30
0.0
  0
SPLINE
  5
1AE45
330
18
100
AcDbEntity
  8
01
100
AcDbSpline
210
0.0
220
0.0
230
1.0
 70
    24
 71
     2
 72
     6
 73
     3
 74
     0
 42
0.0000000001
 43
0.0000000001
 40
0.0
 40
0.0
 40
0.0
 40
1.789439070678992
 40
1.789439070678992
 40
1.789439070678992
 10
2625.60062372831
 20
-602.9808722500692
 30
0.0
 10
2624.96728659843
 20
-603.6128589009026
 30
0.0
 10
2624.333949468547
 20
-604.2448455517359
 30
0.0
  0
SPLINE
  5
1AE46
330
18
100
AcDbEntity
  8
01
100
AcDbSpline
210
0.0
220
0.0
230
1.0
 70
    12
 71
     3
 72
    12
 73
     8
 74
     0
 42
0.0000000001
 43
0.0000000001
 40
-0.9117113100232584
 40
-0.9117113100232584
 40
-0.9117113100232584
 40
-0.9117113100232584
 40
-0.5320008967720578
 40
-0.5320008967720578
 40
-0.273156018045988
 40
-0.273156018045988
 40
-0.0143111393199191
 40
-0.0143111393199191
 40
-0.0143111393199191
 40
-0.0143111393199191
 10
2629.856271318733
 20
-623.7734164972134
 30
0.0
 41
1.0
 10
2629.853878785336
 20
-623.7754126796261
 30
0.0
 41
1.0
 10
2629.851494864435
 20
-623.7748144660317
 30
0.0
 41
1.0
 10
2629.847494232884
 20
-623.7693999130432
 30
0.0
 41
1.0
 10
2629.845874287565
 20
-623.7659095918397
 30
0.0
 41
1.0
 10
2629.842628865435
 20
-623.7568861626017
 30
0.0
 41
1.0
 10
2629.841013711817
 20
-623.750241518322
 30
0.0
 41
1.0
 10
2629.839375101219
 20
-623.7445473916849
 30
0.0
 41
1.0
  0
SPLINE
  5
1AE47
330
18
100
AcDbEntity
  8
01
100
AcDbSpline
210
0.0
220
0.0
230
1.0
 70
     8
 71
     3
 72
    11
 73
     7
 74
     0
 42
0.0000000001
 43
0.0000000001
 40
0.0
 40
0.0
 40
0.0
 40
0.0
 40
1.112167128491534
 40
2.046602546606471
 40
2.853996107356692
 40
3.537291878456162
 40
3.537291878456162
 40
3.537291878456162
 40
3.537291878456162
 10
2632.66076017035
 20
-602.9435907315595
 30
0.0
 10
2632.366138618755
 20
-602.7185724801556
 30
0.0
 10
2631.824186886329
 20
-602.304221726098
 30
0.0
 10
2631.069324247419
 20
-601.7252435855374
 30
0.0
 10
2630.428926459349
 20
-601.2319265543468
 30
0.0
 10
2630.036170225658
 20
-600.9275431090799
 30
0.0
 10
2629.856441883715
 20
-600.787633276996
 30
0.0
  0
SPLINE
  5
1AE48
330
18
100
AcDbEntity
  8
01
100
AcDbSpline
210
0.0
220
0.0
230
1.0
 70
    12
 71
     2
 72
     6
 73
     3
 74
     0
 42
0.0000000001
 43
0.0000000001
 40
0.0
 40
0.0
 40
0.0
 40
1.395630968286188
 40
1.395630968286188
 40
1.395630968286188
 10
2632.661366490699
 20
-621.6168713683409
 30
0.0
 41
1.0
 10
2633.238814221625
 20
-621.173817913478
 30
0.0
 41
0.9392674705570996
 10
2633.965873010619
 20
-621.2074000986976
 30
0.0
 41
1.0
  0
LINE
  5
1AE49
330
18
100
AcDbEntity
  8
01
100
AcDbLine
 10
2622.938714869514
 20
-604.8267411369405
 30
0.0
 11
2602.467657722055
 21
-604.2737452445543
 31
0.0
  0
LINE
  5
1AE4A
330
18
100
AcDbEntity
  8
01
100
AcDbLine
 10
2622.938714869514
 20
-619.7341810407369
 30
0.0
 11
2598.395851814332
 21
-620.449069903448
 31
0.0
  0
ARC
  5
1AE4B
330
18
100
AcDbEntity
  8
01
100
AcDbCircle
 10
2597.808687200671
 20
-612.2883782124612
 30
0.0
 40
13.0
100
AcDbArc
 50
37.2055221911528
 51
322.7211548208888
  0
ARC
  5
1AE4C
330
18
100
AcDbEntity
  8
01
100
AcDbCircle
 10
2597.808687200671
 20
-612.2883782124612
 30
0.0
 40
12.0
100
AcDbArc
 50
41.15003930443559
 51
318.7489069229419
  0
LINE
  5
1AE4D
330
18
100
AcDbEntity
  8
01
100
AcDbLine
 10
2719.590581898536
 20
-612.2883782124612
 30
0.0
 11
2633.269618141559
 21
-612.2883782124612
 31
0.0
  0
ARC
  5
1AE4E
330
18
100
AcDbEntity
  8
01
100
AcDbCircle
 10
2625.957385409655
 20
-603.331613867358
 30
0.0
 40
0.5
100
AcDbArc
 50
89.81797545966948
 51
135.4878389727639
  0
ARC
  5
1AE4F
330
18
100
AcDbEntity
  8
01
100
AcDbCircle
 10
2622.92359310791
 20
-602.8267983046761
 30
0.0
 40
2.0
100
AcDbArc
 50
270.4332106869749
 51
314.8286729073024
  0
ARC
  5
1AE50
330
18
100
AcDbEntity
  8
01
100
AcDbCircle
 10
2626.355192999568
 20
-600.8609222360523
 30
0.0
 40
2.0
100
AcDbArc
 50
279.5660146350062
 51
330.5237387722424
  0
ARC
  5
1AE51
330
18
100
AcDbEntity
  8
01
100
AcDbCircle
 10
2629.252304125599
 20
-601.5920392645861
 30
0.0
 40
1.006007665802284
100
AcDbArc
 50
53.09213627364994
 51
161.1005476362994
  0
ARC
  5
1AE52
330
18
100
AcDbEntity
  8
01
100
AcDbCircle
 10
2633.876417464647
 20
-601.3555183856373
 30
0.0
 40
2.0
100
AcDbArc
 50
232.5780406233149
 51
272.6242304436763
  0
ARC
  5
1AE53
330
18
100
AcDbEntity
  8
01
100
AcDbCircle
 10
2629.252171763101
 20
-622.9693147419988
 30
0.0
 40
1.005745572087602
100
AcDbArc
 50
198.8615576873617
 51
306.9164849962587
  0
ARC
  5
1AE54
330
18
100
AcDbEntity
  8
01
100
AcDbCircle
 10
2626.692822619686
 20
-623.2195330651178
 30
0.0
 40
1.491124902125848
100
AcDbArc
 50
19.74112821364267
 51
90.20215746669479
  0
ARC
  5
1AE55
330
18
100
AcDbEntity
  8
01
100
AcDbCircle
 10
2625.958538883012
 20
-621.2257360305961
 30
0.0
 40
0.5036284281786252
100
AcDbArc
 50
224.7102964797623
 51
270.0492163702584
  0
ARC
  5
1AE56
330
18
100
AcDbEntity
  8
01
100
AcDbCircle
 10
2622.929850062472
 20
-621.7190895842303
 30
0.0
 40
1.984928338967705
100
AcDbArc
 50
44.97782464433337
 51
89.74411281847269
  0
ARC
  5
1AE57
330
18
100
AcDbEntity
  8
01
100
AcDbCircle
 10
2594.80991516321
 20
-622.5919957052096
 30
0.0
 40
0.1715298472992418
100
AcDbArc
 50
118.0213122223491
 51
184.007600789484
  0
ARC
  5
1AE58
330
18
100
AcDbEntity
  8
01
100
AcDbCircle
 10
2595.025760827274
 20
-622.5450961159444
 30
0.0
 40
0.3914112433753167
100
AcDbArc
 50
188.6529736852958
 51
220.7699707863051
  0
ARC
  5
1AE59
330
18
100
AcDbEntity
  8
01
100
AcDbCircle
 10
2597.134112267039
 20
-620.5421333626713
 30
0.0
 40
3.299103684660637
100
AcDbArc
 50
223.204091181642
 51
240.2090281448097
  0
ARC
  5
1AE5A
330
18
100
AcDbEntity
  8
01
100
AcDbCircle
 10
2595.10066682671
 20
-623.1386390668325
 30
0.0
 40
0.7906869275720196
100
AcDbArc
 50
94.33418164573354
 51
118.0107804969678
  0
ARC
  5
1AE5B
330
18
100
AcDbEntity
  8
01
100
AcDbCircle
 10
2595.451615743632
 20
-626.1901510458878
 30
0.0
 40
3.861838870120196
100
AcDbArc
 50
89.35639806020825
 51
96.10491296587814
  0
ARC
  5
1AE5C
330
18
100
AcDbEntity
  8
01
100
AcDbCircle
 10
2594.940661723336
 20
-659.7487364520147
 30
0.0
 40
37.42428628511693
100
AcDbArc
 50
87.49094386431258
 51
89.1512969715459
  0
ARC
  5
1AE5D
330
18
100
AcDbEntity
  8
01
100
AcDbCircle
 10
2597.841572993443
 20
-589.4449205465634
 30
0.0
 40
32.93961395680946
100
AcDbArc
 50
267.8033114923633
 51
269.9427978285762
  0
ARC
  5
1AE5E
330
18
100
AcDbEntity
  8
01
100
AcDbCircle
 10
2597.921565284888
 20
-619.4010685807701
 30
0.0
 40
4.682054281195472
100
AcDbArc
 50
238.7836899063979
 51
253.3366390974969
  0
ARC
  5
1AE5F
330
18
100
AcDbEntity
  8
01
100
AcDbCircle
 10
2597.752974206234
 20
-619.9570426548765
 30
0.0
 40
4.101085133100715
100
AcDbArc
 50
253.365794142713
 51
270.7783836556369
  0
ARC
  5
1AE60
330
18
100
AcDbEntity
  8
01
100
AcDbCircle
 10
2600.807459238133
 20
-622.5919957052096
 30
0.0
 40
0.1715298472992418
100
AcDbArc
 50
355.9923992105159
 51
61.97868777765093
  0
ARC
  5
1AE61
330
18
100
AcDbEntity
  8
01
100
AcDbCircle
 10
2600.591613574069
 20
-622.5450961159444
 30
0.0
 40
0.3914112433753167
100
AcDbArc
 50
319.2300292136948
 51
351.3470263147042
  0
ARC
  5
1AE62
330
18
100
AcDbEntity
  8
01
100
AcDbCircle
 10
2598.483262134304
 20
-620.5421333626713
 30
0.0
 40
3.299103684660637
100
AcDbArc
 50
299.7909718551903
 51
316.795908818358
  0
ARC
  5
1AE63
330
18
100
AcDbEntity
  8
01
100
AcDbCircle
 10
2600.516707574633
 20
-623.1386390668325
 30
0.0
 40
0.7906869275720196
100
AcDbArc
 50
61.98921950303217
 51
85.66581835426646
  0
ARC
  5
1AE64
330
18
100
AcDbEntity
  8
01
100
AcDbCircle
 10
2600.165758657711
 20
-626.1901510458878
 30
0.0
 40
3.861838870120196
100
AcDbArc
 50
83.89508703412186
 51
90.64360193979175
  0
ARC
  5
1AE65
330
18
100
AcDbEntity
  8
01
100
AcDbCircle
 10
2600.676712678007
 20
-659.7487364520147
 30
0.0
 40
37.42428628511693
100
AcDbArc
 50
90.84870302845411
 51
92.5090561356874
  0
ARC
  5
1AE66
330
18
100
AcDbEntity
  8
01
100
AcDbCircle
 10
2597.7758014079
 20
-589.4449205465634
 30
0.0
 40
32.93961395680946
100
AcDbArc
 50
270.057202171476
 51
272.1966885076367
  0
ARC
  5
1AE67
330
18
100
AcDbEntity
  8
01
100
AcDbCircle
 10
2597.695809116455
 20
-619.4010685807701
 30
0.0
 40
4.682054281195472
100
AcDbArc
 50
286.663360902503
 51
301.2163100936021
  0
ARC
  5
1AE68
330
18
100
AcDbEntity
  8
01
100
AcDbCircle
 10
2597.864400195109
 20
-619.9570426548765
 30
0.0
 40
4.101085133100715
100
AcDbArc
 50
269.2216163443123
 51
286.6342058572869
  0
LINE
  5
1AE69
330
18
100
AcDbEntity
  8
01
100
AcDbLine
 10
2720.554665750445
 20
-624.5769872147961
 30
0.0
 11
2720.574360272921
 21
-624.549625522929
 31
0.0
  0
LINE
  5
1AE6A
330
18
100
AcDbEntity
  8
01
100
AcDbLine
 10
2720.554665773868
 20
-599.9839349704265
 30
0.0
 11
2720.574438833078
 21
-600.011407491785
 31
0.0
  0
ARC
  5
1AE6B
330
18
100
AcDbEntity
  8
01
100
AcDbCircle
 10
2558.205440667861
 20
-612.2804650577608
 30
0.0
 40
169.091298692884
100
AcDbArc
 50
358.7678780776418
 51
1.232124611761681
  0
LINE
  5
1AE6C
330
18
100
AcDbEntity
  8
01
100
AcDbLine
 10
2633.269618141559
 20
-603.2612451712756
 30
0.0
 11
2633.269618141558
 21
-621.2991650094558
 31
0.0
  0
LINE
  5
1AE6D
330
18
100
AcDbEntity
  8
01
100
AcDbLine
 10
2628.974279427026
 20
-623.9359066958885
 30
0.0
 11
2628.974279427026
 21
-600.6252126562243
 31
0.0
  0
LINE
  5
1AE6E
330
18
100
AcDbEntity
  8
01
100
AcDbLine
 10
2625.933705971213
 20
-621.7287518555571
 30
0.0
 11
2625.933705971213
 21
-602.8321748979182
 31
0.0
  0
LINE
  5
1AE6F
330
18
100
AcDbEntity
  8
01
100
AcDbLine
 10
2623.710002417693
 20
-619.893903891354
 30
0.0
 11
2623.710002417693
 21
-604.6657002589644
 31
0.0
  0
LINE
  5
1AE70
330
18
100
AcDbEntity
  8
01
100
AcDbLine
 10
2633.269618141559
 20
-606.1020717839823
 30
0.0
 11
2719.590581898536
 21
-603.3457081849837
 31
0.0
  0
LINE
  5
1AE71
330
18
100
AcDbEntity
  8
01
100
AcDbLine
 10
2633.269618141559
 20
-618.4746846409397
 30
0.0
 11
2719.590581898536
 21
-621.2310482399383
 31
0.0
  0
ARC
  5
1AE72
330
18
100
AcDbEntity
  8
01
100
AcDbCircle
 10
2702.52337059177
 20
-616.7597132261998
 30
0.0
 40
17.64320091692204
100
AcDbArc
 50
345.3193623641093
 51
14.68063763589067
  0
ARC
  5
1AE73
330
18
100
AcDbEntity
  8
01
100
AcDbCircle
 10
2702.525083506275
 20
-607.8170431987222
 30
0.0
 40
17.64154392850468
100
AcDbArc
 50
345.3179524860342
 51
14.68204751396576
  0
ARC
  5
1AE74
330
18
100
AcDbEntity
  8
01
100
AcDbCircle
 10
2716.457767960233
 20
-601.3604839080048
 30
0.0
 40
3.70885947454647
100
AcDbArc
 50
327.6380857046034
 51
32.36191429539662
  0
ARC
  5
1AE75
330
18
100
AcDbEntity
  8
01
100
AcDbCircle
 10
2716.457767960233
 20
-623.2162725169172
 30
0.0
 40
3.70885947454647
100
AcDbArc
 50
327.6380857046034
 51
32.36191429539662
  0
LINE
  5
1AE76
330
18
100
AcDbEntity
  8
01
100
AcDbLine
 10
2723.997658960473
 20
-606.9046345451183
 30
0.0
 11
2723.997658960473
 21
-617.6562823466655
 31
0.0
  0
SPLINE
  5
1AE77
330
18
100
AcDbEntity
  8
01
100
AcDbSpline
210
0.0
220
0.0
230
1.0
 70
    12
 71
     2
 72
     6
 73
     3
 74
     0
 42
0.0000000001
 43
0.0000000001
 40
0.0
 40
0.0
 40
0.0
 40
0.0219791659518225
 40
0.0219791659518225
 40
0.0219791659518225
 10
2511.892085900653
 20
-613.2705785883617
 30
0.0
 41
1.0
 10
2511.898715106288
 20
-613.261731273108
 30
0.0
 41
0.991096925981698
 10
2511.902774351852
 20
-613.2514480887793
 30
0.0
 41
1.0
  0
SPLINE
  5
1AE78
330
18
100
AcDbEntity
  8
01
100
AcDbSpline
210
0.0
220
0.0
230
1.0
 70
    12
 71
     2
 72
     6
 73
     3
 74
     0
 42
0.0000000001
 43
0.0000000001
 40
0.0
 40
0.0
 40
0.0
 40
0.0103136409460265
 40
0.0103136409460265
 40
0.0103136409460265
 10
2511.906090561266
 20
-613.2409392021626
 30
0.0
 41
1.0
 10
2511.907302947636
 20
-613.2359203791519
 30
0.0
 41
0.9981524124939076
 10
2511.907897623106
 20
-613.2307915560704
 30
0.0
 41
1.0
  0
SPLINE
  5
1AE79
330
18
100
AcDbEntity
  8
01
100
AcDbSpline
210
0.0
220
0.0
230
1.0
 70
    12
 71
     2
 72
     6
 73
     3
 74
     0
 42
0.0000000001
 43
0.0000000001
 40
0.0
 40
0.0
 40
0.0
 40
2.351416433639576
 40
2.351416433639576
 40
2.351416433639576
 10
2508.934936179344
 20
-620.4107864106571
 30
0.0
 41
1.0
 10
2508.453069569055
 20
-621.5507227783168
 30
0.0
 41
0.9266479884704102
 10
2507.313196159586
 20
-622.0327382996528
 30
0.0
 41
1.0
  0
SPLINE
  5
1AE7A
330
18
100
AcDbEntity
  8
01
100
AcDbSpline
210
0.0
220
0.0
230
1.0
 70
    12
 71
     2
 72
     6
 73
     3
 74
     0
 42
0.0000000001
 43
0.0000000001
 40
0.0
 40
0.0
 40
0.0
 40
0.0094768305193584
 40
0.0094768305193584
 40
0.0094768305193584
 10
2508.919164847528
 20
-604.1293434888374
 30
0.0
 41
1.0
 10
2508.92216805459
 20
-604.1330168217945
 30
0.0
 41
0.9979993718307896
 10
2508.924683697328
 20
-604.1370397770878
 30
0.0
 41
1.0
  0
SPLINE
  5
1AE7B
330
18
100
AcDbEntity
  8
01
100
AcDbSpline
210
0.0
220
0.0
230
1.0
 70
    12
 71
     2
 72
     6
 73
     3
 74
     0
 42
0.0000000001
 43
0.0000000001
 40
0.0
 40
0.0
 40
0.0
 40
0.4552824564885129
 40
0.4552824564885129
 40
0.4552824564885129
 10
2459.220040637581
 20
-624.0661573050182
 30
0.0
 41
1.0
 10
2459.017438853134
 20
-624.1700564204192
 30
0.0
 41
0.9996820078883916
 10
2458.808578124175
 20
-624.288412223007
 30
0.0
 41
1.0
  0
SPLINE
  5
1AE7C
330
18
100
AcDbEntity
  8
01
100
AcDbSpline
210
0.0
220
0.0
230
1.0
 70
    12
 71
     2
 72
     6
 73
     3
 74
     0
 42
0.0000000001
 43
0.0000000001
 40
0.0
 40
0.0
 40
0.0
 40
0.0206063629071711
 40
0.0206063629071711
 40
0.0206063629071711
 10
2508.929499435673
 20
-604.146165824979
 30
0.0
 41
1.0
 10
2508.933636394682
 20
-604.1556784820813
 30
0.0
 41
0.9898934027611213
 10
2508.934936179344
 20
-604.1659700142717
 30
0.0
 41
1.0
  0
SPLINE
  5
1AE7D
330
18
100
AcDbEntity
  8
01
100
AcDbSpline
210
0.0
220
0.0
230
1.0
 70
    12
 71
     2
 72
     6
 73
     3
 74
     0
 42
0.0000000001
 43
0.0000000001
 40
0.0
 40
0.0
 40
0.0
 40
2.147273137677929
 40
2.147273137677929
 40
2.147273137677929
 10
2490.741325480024
 20
-602.5443706896875
 30
0.0
 41
1.0
 10
2489.707619264207
 20
-602.9779722606455
 30
0.0
 41
0.93785705241624
 10
2489.205116650851
 20
-603.9799952077509
 30
0.0
 41
1.0
  0
LINE
  5
1AE7E
330
18
100
AcDbEntity
  8
01
100
AcDbLine
 10
2458.808626908794
 20
-600.3042028956551
 30
0.0
 11
2458.808578124175
 21
-624.288412223007
 31
0.0
  0
LINE
  5
1AE7F
330
18
100
AcDbEntity
  8
01
100
AcDbLine
 10
2456.808693406439
 20
-600.2936729626443
 30
0.0
 11
2456.808680989404
 21
-624.2937124652216
 31
0.0
  0
ARC
  5
1AE80
330
18
100
AcDbEntity
  8
01
100
AcDbCircle
 10
2457.808642529866
 20
-624.2832103689524
 30
0.0
 40
0.9999491247318987
100
AcDbArc
 50
179.9970755514788
 51
359.7019392087967
  0
ARC
  5
1AE81
330
18
100
AcDbEntity
  8
01
100
AcDbCircle
 10
2484.913458208289
 20
-719.7277063702776
 30
0.0
 40
99.2681531282155
100
AcDbArc
 50
90.38624449076451
 51
101.3253626397292
  0
ARC
  5
1AE82
330
18
100
AcDbEntity
  8
01
100
AcDbCircle
 10
2484.910298566386
 20
-504.8808349376419
 30
0.0
 40
99.23618831812655
100
AcDbArc
 50
258.6728015981838
 51
269.6154554114897
  0
ARC
  5
1AE83
330
18
100
AcDbEntity
  8
01
100
AcDbCircle
 10
2483.287892293063
 20
-512.1001813799518
 30
0.0
 40
91.838966879867
100
AcDbArc
 50
255.8559412944875
 51
258.7806321990339
  0
ARC
  5
1AE84
330
18
100
AcDbEntity
  8
01
100
AcDbCircle
 10
2464.455038071209
 20
-631.5746517857168
 30
0.0
 40
9.232724669823623
100
AcDbArc
 50
84.00131250422082
 51
113.0099167284769
  0
ARC
  5
1AE85
330
18
100
AcDbEntity
  8
01
100
AcDbCircle
 10
2463.911318619062
 20
-629.94341273822
 30
0.0
 40
7.51998806692129
100
AcDbArc
 50
114.0551377598755
 51
128.5971811873094
  0
LINE
  5
1AE86
330
18
100
AcDbEntity
  8
01
100
AcDbLine
 10
2459.220040637581
 20
-624.0661235218612
 30
0.0
 11
2458.808578124175
 21
-624.2884122231061
 31
0.0
  0
ARC
  5
1AE87
330
18
100
AcDbEntity
  8
01
100
AcDbCircle
 10
2463.685559229034
 20
-591.4901563275879
 30
0.0
 40
10.0733254568822
100
AcDbArc
 50
241.0436456112526
 51
253.6273454080148
  0
ARC
  5
1AE88
330
18
100
AcDbEntity
  8
01
100
AcDbCircle
 10
2483.929564402484
 20
-389.5771290751703
 30
0.0
 40
230.8848942263112
100
AcDbArc
 50
270.0780972759344
 51
273.2181177576416
  0
ARC
  5
1AE89
330
18
100
AcDbEntity
  8
01
100
AcDbCircle
 10
2478.125504846071
 20
-1217.349084390452
 30
0.0
 40
613.2648215387961
100
AcDbArc
 50
88.24631221787305
 51
89.42832949673341
  0
ARC
  5
1AE8A
330
18
100
AcDbEntity
  8
01
100
AcDbCircle
 10
2497.457244910328
 20
-612.2350493649027
 30
0.0
 40
11.74801361451854
100
AcDbArc
 50
224.0579865139983
 51
359.7387849835336
  0
ARC
  5
1AE8B
330
18
100
AcDbEntity
  8
01
100
AcDbCircle
 10
2497.457244910328
 20
-612.3417070600261
 30
0.0
 40
11.74801361451854
100
AcDbArc
 50
0.2612150165185069
 51
135.9420134860017
  0
LINE
  5
1AE8C
330
18
100
AcDbEntity
  8
01
100
AcDbLine
 10
2508.934936179344
 20
-604.1659700142717
 30
0.0
 11
2511.892085900653
 21
-611.3061778365671
 31
0.0
  0
LINE
  5
1AE8D
330
18
100
AcDbEntity
  8
01
100
AcDbLine
 10
2511.892085900653
 20
-613.2705785883617
 30
0.0
 11
2508.934936179344
 21
-620.4107864106571
 31
0.0
  0
LINE
  5
1AE8E
330
18
100
AcDbEntity
  8
01
100
AcDbLine
 10
2507.313196159586
 20
-602.544018125276
 30
0.0
 11
2500.174004446533
 21
-599.5865730600952
 31
0.0
  0
LINE
  5
1AE8F
330
18
100
AcDbEntity
  8
01
100
AcDbLine
 10
2507.313196159586
 20
-622.0327382996528
 30
0.0
 11
2500.174004446533
 21
-624.9901833648336
 31
0.0
  0
LINE
  5
1AE90
330
18
100
AcDbEntity
  8
01
100
AcDbLine
 10
2494.482258997464
 20
-623.6001398927064
 30
0.0
 11
2497.880516697081
 21
-624.9901344807485
 31
0.0
  0
LINE
  5
1AE91
330
18
100
AcDbEntity
  8
01
100
AcDbLine
 10
2494.482258997464
 20
-600.9766165322216
 30
0.0
 11
2497.880516697081
 21
-599.5866219441804
 31
0.0
  0
ARC
  5
1AE92
330
18
100
AcDbEntity
  8
01
100
AcDbCircle
 10
2509.79762800607
 20
-612.2883782124644
 30
0.0
 40
2.313324761160847
100
AcDbArc
 50
334.8756735178609
 51
25.12432648223504
  0
ARC
  5
1AE93
330
18
100
AcDbEntity
  8
01
100
AcDbCircle
 10
2499.027320072915
 20
-622.198553819995
 30
0.0
 40
3.017959669763167
100
AcDbArc
 50
247.6667544874061
 51
292.3308030737397
  0
ARC
  5
1AE94
330
18
100
AcDbEntity
  8
01
100
AcDbCircle
 10
2506.125053443847
 20
-605.3537456721705
 30
0.0
 40
3.050615020080519
100
AcDbArc
 50
22.91444185517038
 51
67.0780733322458
  0
ARC
  5
1AE95
330
18
100
AcDbEntity
  8
01
100
AcDbCircle
 10
2497.346895250228
 20
-612.3354667868851
 30
0.0
 40
7.499509378188495
100
AcDbArc
 50
0.3597561079977075
 51
54.52629762829512
  0
ARC
  5
1AE96
330
18
100
AcDbEntity
  8
01
100
AcDbCircle
 10
2497.373953190146
 20
-612.321345324537
 30
0.0
 40
8.069101423651501
100
AcDbArc
 50
78.44211147264517
 51
98.8645757166624
  0
ARC
  5
1AE97
330
18
100
AcDbEntity
  8
01
100
AcDbCircle
 10
2496.692167739072
 20
-612.0273463106577
 30
0.0
 40
7.661694784477633
100
AcDbArc
 50
49.19404485657883
 51
84.57625261860052
  0
ARC
  5
1AE98
330
18
100
AcDbEntity
  8
01
100
AcDbCircle
 10
2496.720366846375
 20
-612.3737106463658
 30
0.0
 40
8.004074010794676
100
AcDbArc
 50
85.01156568040436
 51
88.77988185850862
  0
ARC
  5
1AE99
330
18
100
AcDbEntity
  8
01
100
AcDbCircle
 10
2497.348201385866
 20
-612.1354503719875
 30
0.0
 40
7.499509378188495
100
AcDbArc
 50
304.7254138287706
 51
358.8919553491116
  0
ARC
  5
1AE9A
330
18
100
AcDbEntity
  8
01
100
AcDbCircle
 10
2496.689505741625
 20
-612.4349940081983
 30
0.0
 40
7.661694784477632
100
AcDbArc
 50
274.6754588384393
 51
310.0576666005607
  0
ARC
  5
1AE9B
330
18
100
AcDbEntity
  8
01
100
AcDbCircle
 10
2496.722225867919
 20
-612.0890274837501
 30
0.0
 40
8.004074010794675
100
AcDbArc
 50
271.2068076721808
 51
274.2401457766637
  0
LINE
  5
1AE9C
330
18
100
AcDbEntity
  8
01
100
AcDbLine
 10
2491.462863906426
 20
-602.2380829445427
 30
0.0
 11
2490.72950563656
 21
-602.5493581337186
 31
0.0
  0
SPLINE
  5
1AE9D
330
18
100
AcDbEntity
  8
01
100
AcDbSpline
210
0.0
220
0.0
230
1.0
 70
    12
 71
     2
 72
     6
 73
     3
 74
     0
 42
0.0000000001
 43
0.0000000001
 40
0.0
 40
0.0
 40
0.0
 40
2.147273137677929
 40
2.147273137677929
 40
2.147273137677929
 10
2490.742411221417
 20
-622.0340252160066
 30
0.0
 41
1.0
 10
2489.708656701341
 20
-621.6005388203956
 30
0.0
 41
0.93785705241624
 10
2489.206042448511
 20
-620.5985718669443
 30
0.0
 41
1.0
  0
LINE
  5
1AE9E
330
18
100
AcDbEntity
  8
01
100
AcDbLine
 10
2491.463983769062
 20
-622.3402325674577
 30
0.0
 11
2490.730590822338
 21
-622.0290390889403
 31
0.0
  0
ARC
  5
1AE9F
330
18
100
AcDbEntity
  8
01
100
AcDbCircle
 10
2497.377626282555
 20
-612.3670062888858
 30
0.0
 40
9.533355688299292
100
AcDbArc
 50
0.4723582574415238
 51
68.49154350823326
  0
ARC
  5
1AEA0
330
18
100
AcDbEntity
  8
01
100
AcDbCircle
 10
2497.399452806514
 20
-612.3363182976581
 30
0.0
 40
9.49680657288603
100
AcDbArc
 50
68.54616476245634
 51
121.8789163231404
  0
ARC
  5
1AEA1
330
18
100
AcDbEntity
  8
01
100
AcDbCircle
 10
2497.377627836531
 20
-612.2097490779141
 30
0.0
 40
9.533355688299292
100
AcDbArc
 50
291.5073241274169
 51
359.5265093781912
  0
ARC
  5
1AEA2
330
18
100
AcDbEntity
  8
01
100
AcDbCircle
 10
2497.399453753983
 20
-612.2404375005043
 30
0.0
 40
9.49680657288603
100
AcDbArc
 50
238.1199513125068
 51
291.4527028731296
  0
ARC
  5
1AEA3
330
18
100
AcDbEntity
  8
01
100
AcDbCircle
 10
2499.027320072915
 20
-602.3782026049274
 30
0.0
 40
3.017959669763167
100
AcDbArc
 50
67.66919692626028
 51
112.3332455125939
  0
LINE
  5
1AEA4
330
18
100
AcDbEntity
  8
01
100
AcDbLine
 10
2498.566986021551
 20
-600.6462250882072
 30
0.0
 11
2499.045045393893
 21
-599.3602949884961
 31
0.0
  0
LINE
  5
1AEA5
330
18
100
AcDbEntity
  8
01
100
AcDbLine
 10
2506.177315757569
 20
-604.4692113753016
 30
0.0
 11
2508.23926474539
 21
-603.1545725154668
 31
0.0
  0
LINE
  5
1AEA6
330
18
100
AcDbEntity
  8
01
100
AcDbLine
 10
2509.205136433551
 20
-612.2886091028998
 30
0.0
 11
2512.110952755709
 21
-612.2886091028998
 31
0.0
  0
LINE
  5
1AEA7
330
18
100
AcDbEntity
  8
01
100
AcDbLine
 10
2498.566986021551
 20
-623.9309931175925
 30
0.0
 11
2499.045045393893
 21
-625.2169232173031
 31
0.0
  0
LINE
  5
1AEA8
330
18
100
AcDbEntity
  8
01
100
AcDbLine
 10
2506.177315757569
 20
-620.1080068304976
 30
0.0
 11
2508.23926474539
 21
-621.4226456903328
 31
0.0
  0
ARC
  5
1AEA9
330
18
100
AcDbEntity
  8
01
100
AcDbCircle
 10
2457.808642529866
 20
-600.3094047497096
 30
0.0
 40
0.9999491247318987
100
AcDbArc
 50
0.2980607912033038
 51
180.0029244485212
  0
LINE
  5
1AEAA
330
18
100
AcDbEntity
  8
01
100
AcDbLine
 10
2287.80891988016
 20
-612.2883782124612
 30
0.0
 11
2227.80891988016
 21
-612.2883782124612
 31
0.0
  0
LINE
  5
1AEAB
330
18
100
AcDbEntity
  8
01
100
AcDbLine
 10
2257.80891988016
 20
-582.2883782124612
 30
0.0
 11
2257.80891988016
 21
-642.2883782124612
 31
0.0
  0
ARC
  5
1AEAC
330
18
100
AcDbEntity
  8
01
100
AcDbCircle
 10
2257.808919880183
 20
-612.288378212448
 30
0.0
 40
28.49999999998931
100
AcDbArc
 50
197.6792102361894
 51
162.2954442371544
  0
ARC
  5
1AEAD
330
18
100
AcDbEntity
  8
01
100
AcDbCircle
 10
2257.80891988016
 20
-612.2883782124612
 30
0.0
 40
24.70000000000277
100
AcDbArc
 50
197.6576594046496
 51
162.3117325457448
  0
ARC
  5
1AEAE
330
18
100
AcDbEntity
  8
01
100
AcDbCircle
 10
2257.80891988016
 20
-612.2883782124612
 30
0.0
 40
25.20000000001778
100
AcDbArc
 50
197.259450775037
 51
162.7079340431296
  0
SPLINE
  5
1AEAF
330
18
100
AcDbEntity
  8
01
100
AcDbSpline
210
0.0
220
0.0
230
1.0
 70
     8
 71
     3
 72
    12
 73
     8
 74
     0
 42
0.0000000001
 43
0.0000000001
 40
0.0
 40
0.0
 40
0.0
 40
0.0
 40
0.3036965174894802
 40
0.6118185173728741
 40
1.227001076013138
 40
1.838134664504153
 40
2.445936080305662
 40
2.445936080305662
 40
2.445936080305662
 40
2.445936080305662
 10
2132.602316664468
 20
-618.9698053405181
 30
0.0
 10
2132.581297640026
 20
-618.8707644238146
 30
0.0
 10
2132.52237217466
 20
-618.6748785098406
 30
0.0
 10
2132.34479908966
 20
-618.3050407888771
 30
0.0
 10
2132.019179927812
 20
-617.9026838459766
 30
0.0
 10
2131.502709840464
 20
-617.5622115810114
 30
0.0
 10
2131.107478296629
 20
-617.4493947094414
 30
0.0
 10
2130.906460434256
 20
-617.4240616610003
 30
0.0
  0
SPLINE
  5
1AEB0
330
18
100
AcDbEntity
  8
01
100
AcDbSpline
210
0.0
220
0.0
230
1.0
 70
    24
 71
     2
 72
     6
 73
     3
 74
     0
 42
0.0000000001
 43
0.0000000001
 40
0.0
 40
0.0
 40
0.0
 40
1.656894817823371
 40
1.656894817823371
 40
1.656894817823371
 10
2130.906259591864
 20
-617.4239520996256
 30
0.0
 10
2130.084337424757
 20
-617.3201780154208
 30
0.0
 10
2129.262415257651
 20
-617.216403931216
 30
0.0
  0
SPLINE
  5
1AEB1
330
18
100
AcDbEntity
  8
01
100
AcDbSpline
210
0.0
220
0.0
230
1.0
 70
    24
 71
     2
 72
     6
 73
     3
 74
     0
 42
0.0000000001
 43
0.0000000001
 40
0.0
 40
0.0
 40
0.0
 40
0.728589996431484
 40
0.728589996431484
 40
0.728589996431484
 10
2229.658635061076
 20
-621.729305786664
 30
0.0
 10
2229.294340333641
 20
-621.728861615575
 30
0.0
 10
2228.930045606206
 20
-621.7284174444861
 30
0.0
  0
SPLINE
  5
1AEB2
330
18
100
AcDbEntity
  8
01
100
AcDbSpline
210
0.0
220
0.0
230
1.0
 70
     8
 71
     3
 72
    14
 73
    10
 74
     0
 42
0.0000000001
 43
0.0000000001
 40
0.0
 40
0.0
 40
0.0
 40
0.0
 40
0.2097199602789231
 40
0.4191705282148602
 40
0.8409022804462526
 40
1.228638121822855
 40
1.427649568086435
 40
1.565386280032407
 40
1.755721759589097
 40
1.755721759589097
 40
1.755721759589097
 40
1.755721759589097
 10
2129.262213956353
 20
-617.2165923804663
 30
0.0
 10
2129.192860550885
 20
-617.207867052541
 30
0.0
 10
2129.056074379461
 20
-617.1757073543848
 30
0.0
 10
2128.8010257324
 20
-617.0559392175277
 30
0.0
 10
2128.547835024277
 20
-616.8181416044066
 30
0.0
 10
2128.410681678702
 20
-616.504453485359
 30
0.0
 10
2128.378482728023
 20
-616.2643085506164
 30
0.0
 10
2128.367394427843
 20
-616.089148351661
 30
0.0
 10
2128.362313396683
 20
-615.9797805461029
 30
0.0
 10
2128.359964107736
 20
-615.9164228952781
 30
0.0
  0
SPLINE
  5
1AEB3
330
18
100
AcDbEntity
  8
01
100
AcDbSpline
210
0.0
220
0.0
230
1.0
 70
     8
 71
     3
 72
    11
 73
     7
 74
     0
 42
0.0000000001
 43
0.0000000001
 40
0.0
 40
0.0
 40
0.0
 40
0.0
 40
0.1924800216897238
 40
0.3799201783946904
 40
0.7545508149157371
 40
1.501630252415058
 40
1.501630252415058
 40
1.501630252415058
 40
1.501630252415058
 10
2135.062941306963
 20
-599.9839349704265
 30
0.0
 10
2135.100749792758
 20
-599.9321266955307
 30
0.0
 10
2135.180922341152
 20
-599.8337276310289
 30
0.0
 10
2135.363203611103
 20
-599.6598398379673
 30
0.0
 10
2135.73192444685
 20
-599.4198462397229
 30
0.0
 10
2136.10941607324
 20
-599.3419371812719
 30
0.0
 10
2136.358236009669
 20
-599.3539503291871
 30
0.0
  0
POINT
  5
1AEB4
330
18
100
AcDbEntity
  8
01
100
AcDbPoint
 10
2232.678892211318
 20
-604.8267411369405
 30
0.0
 50
270.0
  0
SPLINE
  5
1AEB5
330
18
100
AcDbEntity
  8
01
100
AcDbSpline
210
0.0
220
0.0
230
1.0
 70
     8
 71
     3
 72
    11
 73
     7
 74
     0
 42
0.0000000001
 43
0.0000000001
 40
0.0
 40
0.0
 40
0.0
 40
0.0
 40
0.6835096342167513
 40
1.490903194967845
 40
2.42533861308265
 40
3.537505741574028
 40
3.537505741574028
 40
3.537505741574028
 40
3.537505741574028
 10
2225.761333954515
 20
-623.773420269113
 30
0.0
 10
2225.58154954977
 20
-623.6334664028476
 30
0.0
 10
2225.188737095675
 20
-623.3290391247309
 30
0.0
 10
2224.548282833528
 20
-622.8356785893196
 30
0.0
 10
2223.7934201944
 20
-622.2567004489914
 30
0.0
 10
2223.251468462128
 20
-621.8423496947697
 30
0.0
 10
2222.956846910481
 20
-621.6173314434203
 30
0.0
  0
SPLINE
  5
1AEB6
330
18
100
AcDbEntity
  8
01
100
AcDbSpline
210
0.0
220
0.0
230
1.0
 70
    12
 71
     2
 72
     6
 73
     3
 74
     0
 42
0.0000000001
 43
0.0000000001
 40
0.0
 40
0.0
 40
0.0
 40
6.116405636410633
 40
6.116405636410633
 40
6.116405636410633
 10
2135.04324680791
 20
-624.549625522929
 30
0.0
 41
1.0
 10
2133.250223516213
 20
-622.0193546059585
 30
0.0
 41
0.9793502049823606
 10
2132.605742212061
 20
-618.9858999274715
 30
0.0
 41
1.0
  0
SPLINE
  5
1AEB7
330
18
100
AcDbEntity
  8
01
100
AcDbSpline
210
0.0
220
0.0
230
1.0
 70
     8
 71
     3
 72
    12
 73
     8
 74
     0
 42
0.0000000001
 43
0.0000000001
 40
0.0
 40
0.0
 40
0.0
 40
0.0
 40
0.3068887477162857
 40
0.6098369806450664
 40
1.222863454516894
 40
1.836954202601258
 40
2.446088008612362
 40
2.446088008612362
 40
2.446088008612362
 40
2.446088008612362
 10
2130.90646043422
 20
-607.1368605138899
 30
0.0
 10
2131.007941002721
 20
-607.1240513579577
 30
0.0
 10
2131.207680506735
 20
-607.0830021242822
 30
0.0
 10
2131.590924687485
 20
-606.9409405721202
 30
0.0
 10
2132.021511332859
 20
-606.6562658191718
 30
0.0
 10
2132.410132589173
 20
-606.1740994692826
 30
0.0
 10
2132.559995494679
 20
-605.7895933710123
 30
0.0
 10
2132.602347933489
 20
-605.5909690992333
 30
0.0
  0
SPLINE
  5
1AEB8
330
18
100
AcDbEntity
  8
01
100
AcDbSpline
210
0.0
220
0.0
230
1.0
 70
     8
 71
     3
 72
    12
 73
     8
 74
     0
 42
0.0000000001
 43
0.0000000001
 40
0.0
 40
0.0
 40
0.0
 40
0.0
 40
0.1859709815753115
 40
0.37212641791537
 40
0.7460776649155251
 40
1.121741301734765
 40
1.501629654716376
 40
1.501629654716376
 40
1.501629654716376
 40
1.501629654716376
 10
2136.358236009862
 20
-625.2069718460046
 30
0.0
 10
2136.296298155261
 20
-625.2098822613883
 30
0.0
 10
2136.172076917209
 20
-625.2079379750174
 30
0.0
 10
2135.925232837384
 20
-625.1734338872483
 30
0.0
 10
2135.627581522667
 20
-625.0727049370497
 30
0.0
 10
2135.308993367085
 20
-624.8663256130798
 30
0.0
 10
2135.137331882449
 20
-624.6794297018326
 30
0.0
 10
2135.062941330386
 20
-624.5769872147961
 30
0.0
  0
SPLINE
  5
1AEB9
330
18
100
AcDbEntity
  8
01
100
AcDbSpline
210
0.0
220
0.0
230
1.0
 70
    24
 71
     2
 72
     6
 73
     3
 74
     0
 42
0.0000000001
 43
0.0000000001
 40
0.0
 40
0.0
 40
0.0
 40
0.7285881454290491
 40
0.7285881454290491
 40
0.7285881454290491
 10
2228.930045606206
 20
-602.8325047304942
 30
0.0
 10
2229.294339408141
 20
-602.8320605605335
 30
0.0
 10
2229.658633210075
 20
-602.8316163905732
 30
0.0
  0
SPLINE
  5
1AEBA
330
18
100
AcDbEntity
  8
01
100
AcDbSpline
210
0.0
220
0.0
230
1.0
 70
    24
 71
     2
 72
     6
 73
     3
 74
     0
 42
0.0000000001
 43
0.0000000001
 40
0.0
 40
0.0
 40
0.0
 40
0.6138307101416199
 40
0.6138307101416199
 40
0.6138307101416199
 10
2227.317075193293
 20
-601.2661849558702
 30
0.0
 10
2227.419184995248
 20
-601.5556165082675
 30
0.0
 10
2227.521294797202
 20
-601.8450480606651
 30
0.0
  0
SPLINE
  5
1AEBB
330
18
100
AcDbEntity
  8
01
100
AcDbSpline
210
0.0
220
0.0
230
1.0
 70
    24
 71
     2
 72
     6
 73
     3
 74
     0
 42
0.0000000001
 43
0.0000000001
 40
0.0
 40
0.0
 40
0.0
 40
1.789439070678972
 40
1.789439070678972
 40
1.789439070678972
 10
2231.283657612284
 20
-620.3160766232439
 30
0.0
 10
2230.650320482402
 20
-620.9480632740773
 30
0.0
 10
2230.016983352521
 20
-621.5800499249107
 30
0.0
  0
SPLINE
  5
1AEBC
330
18
100
AcDbEntity
  8
01
100
AcDbSpline
210
0.0
220
0.0
230
1.0
 70
    24
 71
     2
 72
     6
 73
     3
 74
     0
 42
0.0000000001
 43
0.0000000001
 40
0.0
 40
0.0
 40
0.0
 40
85.38394009347476
 40
85.38394009347476
 40
85.38394009347476
 10
2221.649612880477
 20
-621.2075014701999
 30
0.0
 10
2179.004501629018
 20
-623.2071996529679
 30
0.0
 10
2136.359390377558
 20
-625.206897835736
 30
0.0
  0
SPLINE
  5
1AEBD
330
18
100
AcDbEntity
  8
01
100
AcDbSpline
210
0.0
220
0.0
230
1.0
 70
     8
 71
     3
 72
    13
 73
     9
 74
     0
 42
0.0000000001
 43
0.0000000001
 40
0.0
 40
0.0
 40
0.0
 40
0.0
 40
0.1903448959808304
 40
0.3280721908774044
 40
0.5264636074654618
 40
0.9148325723834824
 40
1.336558950878469
 40
1.755722258486064
 40
1.755722258486064
 40
1.755722258486064
 40
1.755722258486064
 10
2128.359964278406
 20
-608.6444992850242
 30
0.0
 10
2128.362322902465
 20
-608.5811344592324
 30
0.0
 10
2128.36739055078
 20
-608.4717731689256
 30
0.0
 10
2128.378471523406
 20
-608.2968164175658
 30
0.0
 10
2128.410646301308
 20
-608.0566704295601
 30
0.0
 10
2128.547678179851
 20
-607.7429227058336
 30
0.0
 10
2128.853117120872
 20
-607.4560081428907
 30
0.0
 10
2129.123548369461
 20
-607.361723114463
 30
0.0
 10
2129.262213956353
 20
-607.3443297945136
 30
0.0
  0
SPLINE
  5
1AEBE
330
18
100
AcDbEntity
  8
01
100
AcDbSpline
210
0.0
220
0.0
230
1.0
 70
    24
 71
     2
 72
     6
 73
     3
 74
     0
 42
0.0000000001
 43
0.0000000001
 40
0.0
 40
0.0
 40
0.0
 40
1.656894817827469
 40
1.656894817827469
 40
1.656894817827469
 10
2129.262415257651
 20
-607.3445182437644
 30
0.0
 10
2130.084337424759
 20
-607.2407441595591
 30
0.0
 10
2130.906259591867
 20
-607.1369700753543
 30
0.0
  0
SPLINE
  5
1AEBF
330
18
100
AcDbEntity
  8
01
100
AcDbSpline
210
0.0
220
0.0
230
1.0
 70
    12
 71
     2
 72
     6
 73
     3
 74
     0
 42
0.0000000001
 43
0.0000000001
 40
0.0
 40
0.0
 40
0.0
 40
6.116269779478222
 40
6.116269779478222
 40
6.116269779478222
 10
2132.605742209871
 20
-605.5750222474566
 30
0.0
 41
1.0
 10
2133.250208814454
 20
-602.5416368535324
 30
0.0
 41
0.9793511208268821
 10
2135.043168247753
 20
-600.011407491785
 30
0.0
 41
1.0
  0
SPLINE
  5
1AEC0
330
18
100
AcDbEntity
  8
01
100
AcDbSpline
210
0.0
220
0.0
230
1.0
 70
    24
 71
     2
 72
     6
 73
     3
 74
     0
 42
0.0000000001
 43
0.0000000001
 40
0.0
 40
0.0
 40
0.0
 40
85.38394593612506
 40
85.38394593612506
 40
85.38394593612506
 10
2136.359390377558
 20
-599.3540243392443
 30
0.0
 10
2179.004504547137
 20
-601.3537226588472
 30
0.0
 10
2221.649618716714
 20
-603.3534209784506
 30
0.0
  0
SPLINE
  5
1AEC1
330
18
100
AcDbEntity
  8
01
100
AcDbSpline
210
0.0
220
0.0
230
1.0
 70
    12
 71
     2
 72
     6
 73
     3
 74
     0
 42
0.0000000001
 43
0.0000000001
 40
0.0
 40
0.0
 40
0.0
 40
4.079445883701146
 40
4.079445883701146
 40
4.079445883701146
 10
2253.149949358777
 20
-604.2737452445543
 30
0.0
 41
1.0
 10
2255.187675710569
 20
-604.1831897908168
 30
0.0
 41
0.9999893110651952
 10
2257.226152315306
 20
-604.1114813050802
 30
0.0
 41
1.0
  0
SPLINE
  5
1AEC2
330
18
100
AcDbEntity
  8
01
100
AcDbSpline
210
0.0
220
0.0
230
1.0
 70
    24
 71
     2
 72
     6
 73
     3
 74
     0
 42
0.0000000001
 43
0.0000000001
 40
0.0
 40
0.0
 40
0.0
 40
0.6135311876769587
 40
0.6135311876769587
 40
0.6135311876769587
 10
2227.521294797133
 20
-622.7158741145098
 30
0.0
 10
2227.419234820285
 20
-623.0051644370045
 30
0.0
 10
2227.317174843437
 20
-623.2944547594988
 30
0.0
  0
SPLINE
  5
1AEC3
330
18
100
AcDbEntity
  8
01
100
AcDbSpline
210
0.0
220
0.0
230
1.0
 70
    24
 71
     2
 72
     6
 73
     3
 74
     0
 42
0.0000000001
 43
0.0000000001
 40
0.0
 40
0.0
 40
0.0
 40
1.789439070678992
 40
1.789439070678992
 40
1.789439070678992
 10
2230.016983352521
 20
-602.9808722500692
 30
0.0
 10
2230.650320482402
 20
-603.6128589009026
 30
0.0
 10
2231.283657612284
 20
-604.2448455517359
 30
0.0
  0
SPLINE
  5
1AEC4
330
18
100
AcDbEntity
  8
01
100
AcDbSpline
210
0.0
220
0.0
230
1.0
 70
    12
 71
     3
 72
    12
 73
     8
 74
     0
 42
0.0000000001
 43
0.0000000001
 40
-0.9117113100232584
 40
-0.9117113100232584
 40
-0.9117113100232584
 40
-0.9117113100232584
 40
-0.5320008967720578
 40
-0.5320008967720578
 40
-0.273156018045988
 40
-0.273156018045988
 40
-0.0143111393199191
 40
-0.0143111393199191
 40
-0.0143111393199191
 40
-0.0143111393199191
 10
2225.761335762098
 20
-623.7734164972134
 30
0.0
 41
1.0
 10
2225.763728295495
 20
-623.7754126796261
 30
0.0
 41
1.0
 10
2225.766112216397
 20
-623.7748144660317
 30
0.0
 41
1.0
 10
2225.770112847947
 20
-623.7693999130432
 30
0.0
 41
1.0
 10
2225.771732793266
 20
-623.7659095918397
 30
0.0
 41
1.0
 10
2225.774978215396
 20
-623.7568861626017
 30
0.0
 41
1.0
 10
2225.776593369015
 20
-623.750241518322
 30
0.0
 41
1.0
 10
2225.778231979613
 20
-623.7445473916849
 30
0.0
 41
1.0
  0
SPLINE
  5
1AEC5
330
18
100
AcDbEntity
  8
01
100
AcDbSpline
210
0.0
220
0.0
230
1.0
 70
     8
 71
     3
 72
    11
 73
     7
 74
     0
 42
0.0000000001
 43
0.0000000001
 40
0.0
 40
0.0
 40
0.0
 40
0.0
 40
1.112167128491534
 40
2.046602546606471
 40
2.853996107356692
 40
3.537291878456162
 40
3.537291878456162
 40
3.537291878456162
 40
3.537291878456162
 10
2222.956846910481
 20
-602.9435907315595
 30
0.0
 10
2223.251468462076
 20
-602.7185724801556
 30
0.0
 10
2223.793420194502
 20
-602.304221726098
 30
0.0
 10
2224.548282833413
 20
-601.7252435855374
 30
0.0
 10
2225.188680621482
 20
-601.2319265543468
 30
0.0
 10
2225.581436855173
 20
-600.9275431090799
 30
0.0
 10
2225.761165197116
 20
-600.787633276996
 30
0.0
  0
SPLINE
  5
1AEC6
330
18
100
AcDbEntity
  8
01
100
AcDbSpline
210
0.0
220
0.0
230
1.0
 70
    12
 71
     2
 72
     6
 73
     3
 74
     0
 42
0.0000000001
 43
0.0000000001
 40
0.0
 40
0.0
 40
0.0
 40
1.395630968286188
 40
1.395630968286188
 40
1.395630968286188
 10
2222.956240590133
 20
-621.6168713683409
 30
0.0
 41
1.0
 10
2222.378792859206
 20
-621.173817913478
 30
0.0
 41
0.9392674705570996
 10
2221.651734070213
 20
-621.2074000986976
 30
0.0
 41
1.0
  0
LINE
  5
1AEC7
330
18
100
AcDbEntity
  8
01
100
AcDbLine
 10
2232.678892211318
 20
-604.8267411369405
 30
0.0
 11
2253.149949358777
 21
-604.2737452445543
 31
0.0
  0
LINE
  5
1AEC8
330
18
100
AcDbEntity
  8
01
100
AcDbLine
 10
2232.678892211318
 20
-619.7341810407369
 30
0.0
 11
2257.221755266499
 21
-620.449069903448
 31
0.0
  0
ARC
  5
1AEC9
330
18
100
AcDbEntity
  8
01
100
AcDbCircle
 10
2257.80891988016
 20
-612.2883782124612
 30
0.0
 40
13.0
100
AcDbArc
 50
217.2788451791108
 51
142.7944778088472
  0
ARC
  5
1AECA
330
18
100
AcDbEntity
  8
01
100
AcDbCircle
 10
2257.80891988016
 20
-612.2883782124612
 30
0.0
 40
12.0
100
AcDbArc
 50
221.2510930770581
 51
138.8499606955644
  0
LINE
  5
1AECB
330
18
100
AcDbEntity
  8
01
100
AcDbLine
 10
2136.027025182295
 20
-612.2883782124612
 30
0.0
 11
2222.347988939272
 21
-612.2883782124612
 31
0.0
  0
ARC
  5
1AECC
330
18
100
AcDbEntity
  8
01
100
AcDbCircle
 10
2229.660221671177
 20
-603.331613867358
 30
0.0
 40
0.5
100
AcDbArc
 50
44.5121610272361
 51
90.18202454033052
  0
ARC
  5
1AECD
330
18
100
AcDbEntity
  8
01
100
AcDbCircle
 10
2232.694013972922
 20
-602.8267983046761
 30
0.0
 40
2.0
100
AcDbArc
 50
225.1713270926976
 51
269.5667893130251
  0
ARC
  5
1AECE
330
18
100
AcDbEntity
  8
01
100
AcDbCircle
 10
2229.262414081264
 20
-600.8609222360523
 30
0.0
 40
2.0
100
AcDbArc
 50
209.4762612277576
 51
260.4339853649938
  0
ARC
  5
1AECF
330
18
100
AcDbEntity
  8
01
100
AcDbCircle
 10
2226.365302955232
 20
-601.5920392645861
 30
0.0
 40
1.006007665802284
100
AcDbArc
 50
18.89945236370066
 51
126.9078637263501
  0
ARC
  5
1AED0
330
18
100
AcDbEntity
  8
01
100
AcDbCircle
 10
2221.741189616184
 20
-601.3555183856373
 30
0.0
 40
2.0
100
AcDbArc
 50
267.3757695563237
 51
307.4219593766851
  0
ARC
  5
1AED1
330
18
100
AcDbEntity
  8
01
100
AcDbCircle
 10
2226.36543531773
 20
-622.9693147419988
 30
0.0
 40
1.005745572087602
100
AcDbArc
 50
233.0835150037413
 51
341.1384423126382
  0
ARC
  5
1AED2
330
18
100
AcDbEntity
  8
01
100
AcDbCircle
 10
2228.924784461146
 20
-623.2195330651178
 30
0.0
 40
1.491124902125848
100
AcDbArc
 50
89.79784253330523
 51
160.2588717863573
  0
ARC
  5
1AED3
330
18
100
AcDbEntity
  8
01
100
AcDbCircle
 10
2229.659068197819
 20
-621.2257360305961
 30
0.0
 40
0.5036284281786252
100
AcDbArc
 50
269.9507836297416
 51
315.2897035202377
  0
ARC
  5
1AED4
330
18
100
AcDbEntity
  8
01
100
AcDbCircle
 10
2232.687757018359
 20
-621.7190895842303
 30
0.0
 40
1.984928338967705
100
AcDbArc
 50
90.25588718152733
 51
135.0221753556667
  0
ARC
  5
1AED5
330
18
100
AcDbEntity
  8
01
100
AcDbCircle
 10
2260.807691917621
 20
-622.5919957052096
 30
0.0
 40
0.1715298472992418
100
AcDbArc
 50
355.9923992105159
 51
61.97868777765093
  0
ARC
  5
1AED6
330
18
100
AcDbEntity
  8
01
100
AcDbCircle
 10
2260.591846253558
 20
-622.5450961159444
 30
0.0
 40
0.3914112433753167
100
AcDbArc
 50
319.2300292136948
 51
351.3470263147042
  0
ARC
  5
1AED7
330
18
100
AcDbEntity
  8
01
100
AcDbCircle
 10
2258.483494813793
 20
-620.5421333626713
 30
0.0
 40
3.299103684660637
100
AcDbArc
 50
299.7909718551903
 51
316.795908818358
  0
ARC
  5
1AED8
330
18
100
AcDbEntity
  8
01
100
AcDbCircle
 10
2260.516940254121
 20
-623.1386390668325
 30
0.0
 40
0.7906869275720196
100
AcDbArc
 50
61.98921950303217
 51
85.66581835426646
  0
ARC
  5
1AED9
330
18
100
AcDbEntity
  8
01
100
AcDbCircle
 10
2260.165991337199
 20
-626.1901510458878
 30
0.0
 40
3.861838870120196
100
AcDbArc
 50
83.89508703412186
 51
90.64360193979175
  0
ARC
  5
1AEDA
330
18
100
AcDbEntity
  8
01
100
AcDbCircle
 10
2260.676945357496
 20
-659.7487364520147
 30
0.0
 40
37.42428628511693
100
AcDbArc
 50
90.84870302845411
 51
92.5090561356874
  0
ARC
  5
1AEDB
330
18
100
AcDbEntity
  8
01
100
AcDbCircle
 10
2257.776034087389
 20
-589.4449205465634
 30
0.0
 40
32.93961395680946
100
AcDbArc
 50
270.0572021714238
 51
272.1966885076367
  0
ARC
  5
1AEDC
330
18
100
AcDbEntity
  8
01
100
AcDbCircle
 10
2257.696041795943
 20
-619.4010685807701
 30
0.0
 40
4.682054281195472
100
AcDbArc
 50
286.663360902503
 51
301.2163100936021
  0
ARC
  5
1AEDD
330
18
100
AcDbEntity
  8
01
100
AcDbCircle
 10
2257.864632874598
 20
-619.9570426548765
 30
0.0
 40
4.101085133100715
100
AcDbArc
 50
269.2216163443631
 51
286.6342058572869
  0
ARC
  5
1AEDE
330
18
100
AcDbEntity
  8
01
100
AcDbCircle
 10
2254.810147842698
 20
-622.5919957052096
 30
0.0
 40
0.1715298472992418
100
AcDbArc
 50
118.0213122223491
 51
184.007600789484
  0
ARC
  5
1AEDF
330
18
100
AcDbEntity
  8
01
100
AcDbCircle
 10
2255.025993506762
 20
-622.5450961159444
 30
0.0
 40
0.3914112433753167
100
AcDbArc
 50
188.6529736852958
 51
220.7699707863051
  0
ARC
  5
1AEE0
330
18
100
AcDbEntity
  8
01
100
AcDbCircle
 10
2257.134344946527
 20
-620.5421333626713
 30
0.0
 40
3.299103684660637
100
AcDbArc
 50
223.204091181642
 51
240.2090281448097
  0
ARC
  5
1AEE1
330
18
100
AcDbEntity
  8
01
100
AcDbCircle
 10
2255.100899506199
 20
-623.1386390668325
 30
0.0
 40
0.7906869275720196
100
AcDbArc
 50
94.33418164573354
 51
118.0107804969678
  0
ARC
  5
1AEE2
330
18
100
AcDbEntity
  8
01
100
AcDbCircle
 10
2255.451848423121
 20
-626.1901510458878
 30
0.0
 40
3.861838870120196
100
AcDbArc
 50
89.35639806020825
 51
96.10491296587814
  0
ARC
  5
1AEE3
330
18
100
AcDbEntity
  8
01
100
AcDbCircle
 10
2254.940894402824
 20
-659.7487364520147
 30
0.0
 40
37.42428628511693
100
AcDbArc
 50
87.49094386431258
 51
89.1512969715459
  0
ARC
  5
1AEE4
330
18
100
AcDbEntity
  8
01
100
AcDbCircle
 10
2257.841805672931
 20
-589.4449205465634
 30
0.0
 40
32.93961395680946
100
AcDbArc
 50
267.8033114923633
 51
269.942797828524
  0
ARC
  5
1AEE5
330
18
100
AcDbEntity
  8
01
100
AcDbCircle
 10
2257.921797964377
 20
-619.4010685807701
 30
0.0
 40
4.682054281195472
100
AcDbArc
 50
238.7836899063979
 51
253.3366390974969
  0
ARC
  5
1AEE6
330
18
100
AcDbEntity
  8
01
100
AcDbCircle
 10
2257.753206885722
 20
-619.9570426548765
 30
0.0
 40
4.101085133100715
100
AcDbArc
 50
253.365794142713
 51
270.7783836556877
  0
LINE
  5
1AEE7
330
18
100
AcDbEntity
  8
01
100
AcDbLine
 10
2135.062941330386
 20
-624.5769872147961
 30
0.0
 11
2135.04324680791
 21
-624.549625522929
 31
0.0
  0
LINE
  5
1AEE8
330
18
100
AcDbEntity
  8
01
100
AcDbLine
 10
2135.062941306963
 20
-599.9839349704265
 30
0.0
 11
2135.043168247753
 21
-600.011407491785
 31
0.0
  0
ARC
  5
1AEE9
330
18
100
AcDbEntity
  8
01
100
AcDbCircle
 10
2297.41216641297
 20
-612.2804650577608
 30
0.0
 40
169.091298692884
100
AcDbArc
 50
178.7678753882383
 51
181.2321219223582
  0
LINE
  5
1AEEA
330
18
100
AcDbEntity
  8
01
100
AcDbLine
 10
2222.347988939272
 20
-603.2612451712756
 30
0.0
 11
2222.347988939273
 21
-621.2991650094558
 31
0.0
  0
LINE
  5
1AEEB
330
18
100
AcDbEntity
  8
01
100
AcDbLine
 10
2226.643327653805
 20
-623.9359066958885
 30
0.0
 11
2226.643327653805
 21
-600.6252126562243
 31
0.0
  0
LINE
  5
1AEEC
330
18
100
AcDbEntity
  8
01
100
AcDbLine
 10
2229.683901109619
 20
-621.7287518555571
 30
0.0
 11
2229.683901109619
 21
-602.8321748979182
 31
0.0
  0
LINE
  5
1AEED
330
18
100
AcDbEntity
  8
01
100
AcDbLine
 10
2231.907604663138
 20
-619.893903891354
 30
0.0
 11
2231.907604663138
 21
-604.6657002589644
 31
0.0
  0
LINE
  5
1AEEE
330
18
100
AcDbEntity
  8
01
100
AcDbLine
 10
2222.347988939272
 20
-606.1020717839823
 30
0.0
 11
2136.027025182295
 21
-603.3457081849837
 31
0.0
  0
LINE
  5
1AEEF
330
18
100
AcDbEntity
  8
01
100
AcDbLine
 10
2222.347988939272
 20
-618.4746846409397
 30
0.0
 11
2136.027025182295
 21
-621.2310482399383
 31
0.0
  0
ARC
  5
1AEF0
330
18
100
AcDbEntity
  8
01
100
AcDbCircle
 10
2153.094236489061
 20
-616.7597132261998
 30
0.0
 40
17.64320091692204
100
AcDbArc
 50
165.3193623641093
 51
194.6806376358907
  0
ARC
  5
1AEF1
330
18
100
AcDbEntity
  8
01
100
AcDbCircle
 10
2153.092523574557
 20
-607.8170431987222
 30
0.0
 40
17.64154392850468
100
AcDbArc
 50
165.3179524860342
 51
194.6820475139658
  0
ARC
  5
1AEF2
330
18
100
AcDbEntity
  8
01
100
AcDbCircle
 10
2139.159839120598
 20
-601.3604839080048
 30
0.0
 40
3.70885947454647
100
AcDbArc
 50
147.6380857046034
 51
212.3619142953966
  0
ARC
  5
1AEF3
330
18
100
AcDbEntity
  8
01
100
AcDbCircle
 10
2139.159839120598
 20
-623.2162725169172
 30
0.0
 40
3.70885947454647
100
AcDbArc
 50
147.6380857046034
 51
212.3619142953966
  0
LINE
  5
1AEF4
330
18
100
AcDbEntity
  8
01
100
AcDbLine
 10
2131.619948120359
 20
-606.9046345451183
 30
0.0
 11
2131.619948120359
 21
-617.6562823466655
 31
0.0
  0
LINE
  5
1AEF5
330
18
100
AcDbEntity
  8
01
100
AcDbLine
 10
2407.80891988016
 20
-587.2883782124612
 30
0.0
 11
2407.80891988016
 21
-637.2883782124612
 31
0.0
  0
LINE
  5
1AEF6
330
18
100
AcDbEntity
  8
1CENTER
100
AcDbLine
 10
2393.30891988016
 20
-627.2883782124612
 30
0.0
 11
2393.30891988016
 21
-619.2883782124612
 31
0.0
  0
LINE
  5
1AEF7
330
18
100
AcDbEntity
  8
01
100
AcDbLine
 10
2407.80891988016
 20
-587.2883782124612
 30
0.0
 11
2407.80891988016
 21
-637.2883782124612
 31
0.0
  0
LINE
  5
1AEF8
330
18
100
AcDbEntity
  8
01
100
AcDbLine
 10
2407.80891988016
 20
-583.7883782124599
 30
0.0
 11
2404.27642628813
 21
-583.7883782124599
 31
0.0
  0
ARC
  5
1AEF9
330
18
100
AcDbEntity
  8
01
100
AcDbCircle
 10
2404.27642628813
 20
-584.2883782124599
 30
0.0
 40
0.5
100
AcDbArc
 50
90.0
 51
146.2947042117904
  0
LINE
  5
1AEFA
330
18
100
AcDbEntity
  8
01
100
AcDbLine
 10
2399.875573225004
 20
-587.5074812762672
 30
0.0
 11
2400.819159008826
 21
-587.3028004198053
 31
0.0
  0
LINE
  5
1AEFB
330
18
100
AcDbEntity
  8
01
100
AcDbLine
 10
2407.80891988016
 20
-640.7883782124626
 30
0.0
 11
2404.266716229451
 21
-640.7883782124621
 31
0.0
  0
LINE
  5
1AEFC
330
18
100
AcDbEntity
  8
01
100
AcDbLine
 10
2399.008919880158
 20
-621.7883782124558
 30
0.0
 11
2399.008919880164
 21
-602.7883782124662
 31
0.0
  0
LINE
  5
1AEFD
330
18
100
AcDbEntity
  8
01
100
AcDbLine
 10
2402.368945939466
 20
-586.2469230854389
 30
0.0
 11
2403.860474870682
 21
-584.0109175516012
 31
0.0
  0
ARC
  5
1AEFE
330
18
100
AcDbEntity
  8
01
100
AcDbCircle
 10
2400.289188852233
 20
-584.8596197811461
 30
0.0
 40
2.5
100
AcDbArc
 50
282.2388832883162
 51
326.2947042117239
  0
ARC
  5
1AEFF
330
18
100
AcDbEntity
  8
01
100
AcDbCircle
 10
2404.266716229451
 20
-640.2883782124621
 30
0.0
 40
0.5
100
AcDbArc
 50
213.5799834519503
 51
270.0
  0
ARC
  5
1AF00
330
18
100
AcDbEntity
  8
01
100
AcDbCircle
 10
2599.006270889816
 20
-601.7590147588484
 30
0.0
 40
200.0
100
AcDbArc
 50
176.0441967006681
 51
180.2948922093162
  0
ARC
  5
1AF01
330
18
100
AcDbEntity
  8
01
100
AcDbCircle
 10
2399.981567256323
 20
-587.9961174039989
 30
0.0
 40
0.5
100
AcDbArc
 50
102.2388832883581
 51
176.0441967006681
  0
ARC
  5
1AF02
330
18
100
AcDbEntity
  8
01
100
AcDbCircle
 10
2599.006270889816
 20
-622.8177416660777
 30
0.0
 40
200.0
100
AcDbArc
 50
179.7051077906577
 51
183.9558032993319
  0
LINE
  5
1AF03
330
18
100
AcDbEntity
  8
01
100
AcDbLine
 10
2404.00891988016
 20
-583.8659562413271
 30
0.0
 11
2404.00891988016
 21
-640.716795114898
 31
0.0
  0
LINE
  5
1AF04
330
18
100
AcDbEntity
  8
01
100
AcDbLine
 10
2401.807652755145
 20
-586.8456377507399
 30
0.0
 11
2401.807652755145
 21
-637.7145245074561
 31
0.0
  0
LINE
  5
1AF05
330
18
100
AcDbEntity
  8
01
100
AcDbLine
 10
2399.508919880161
 20
-587.8330086739855
 30
0.0
 11
2399.508919880161
 21
-636.743747750941
 31
0.0
  0
ARC
  5
1AF06
330
18
100
AcDbEntity
  8
01
100
AcDbCircle
 10
2399.981567256323
 20
-636.580647204007
 30
0.0
 40
0.5
100
AcDbArc
 50
183.9558032993319
 51
257.7611167116419
  0
LINE
  5
1AF07
330
18
100
AcDbEntity
  8
01
100
AcDbLine
 10
2402.368945939466
 20
-638.3298415225676
 30
0.0
 11
2403.860474870682
 21
-640.5658470564048
 31
0.0
  0
ARC
  5
1AF08
330
18
100
AcDbEntity
  8
01
100
AcDbCircle
 10
2400.289188852233
 20
-639.7171448268604
 30
0.0
 40
2.5
100
AcDbArc
 50
33.70529578827611
 51
77.76111671168377
  0
LINE
  5
1AF09
330
18
100
AcDbEntity
  8
01
100
AcDbLine
 10
2399.875573225004
 20
-637.0692833317388
 30
0.0
 11
2400.819159008826
 21
-637.2739641882007
 31
0.0
  0
LINE
  5
1AF0A
330
18
100
AcDbEntity
  8
01
100
AcDbLine
 10
2407.80891988016
 20
-583.7883782124599
 30
0.0
 11
2407.80891988016
 21
-640.7883782124626
 31
0.0
  0
SPLINE
  5
1AF0B
330
18
100
AcDbEntity
  8
01
100
AcDbSpline
210
0.0
220
0.0
230
1.0
 70
    12
 71
     2
 72
     6
 73
     3
 74
     0
 42
0.0000000001
 43
0.0000000001
 40
0.0
 40
0.0
 40
0.0
 40
0.0219791659518225
 40
0.0219791659518225
 40
0.0219791659518225
 10
2343.725521180178
 20
-613.2705785883617
 30
0.0
 41
1.0
 10
2343.718891974544
 20
-613.261731273108
 30
0.0
 41
0.991096925981698
 10
2343.714832728979
 20
-613.2514480887793
 30
0.0
 41
1.0
  0
SPLINE
  5
1AF0C
330
18
100
AcDbEntity
  8
01
100
AcDbSpline
210
0.0
220
0.0
230
1.0
 70
    12
 71
     2
 72
     6
 73
     3
 74
     0
 42
0.0000000001
 43
0.0000000001
 40
0.0
 40
0.0
 40
0.0
 40
0.0103136409460265
 40
0.0103136409460265
 40
0.0103136409460265
 10
2343.711516519566
 20
-613.2409392021626
 30
0.0
 41
1.0
 10
2343.710304133195
 20
-613.2359203791519
 30
0.0
 41
0.9981524124939076
 10
2343.709709457725
 20
-613.2307915560704
 30
0.0
 41
1.0
  0
SPLINE
  5
1AF0D
330
18
100
AcDbEntity
  8
01
100
AcDbSpline
210
0.0
220
0.0
230
1.0
 70
    12
 71
     2
 72
     6
 73
     3
 74
     0
 42
0.0000000001
 43
0.0000000001
 40
0.0
 40
0.0
 40
0.0
 40
2.351416433639576
 40
2.351416433639576
 40
2.351416433639576
 10
2346.682670901487
 20
-620.4107864106571
 30
0.0
 41
1.0
 10
2347.164537511776
 20
-621.5507227783168
 30
0.0
 41
0.9266479884704102
 10
2348.304410921246
 20
-622.0327382996528
 30
0.0
 41
1.0
  0
SPLINE
  5
1AF0E
330
18
100
AcDbEntity
  8
01
100
AcDbSpline
210
0.0
220
0.0
230
1.0
 70
    12
 71
     2
 72
     6
 73
     3
 74
     0
 42
0.0000000001
 43
0.0000000001
 40
0.0
 40
0.0
 40
0.0
 40
0.0094768305193584
 40
0.0094768305193584
 40
0.0094768305193584
 10
2346.698442233304
 20
-604.1293434888374
 30
0.0
 41
1.0
 10
2346.695439026241
 20
-604.1330168217945
 30
0.0
 41
0.9979993718307896
 10
2346.692923383503
 20
-604.1370397770878
 30
0.0
 41
1.0
  0
SPLINE
  5
1AF0F
330
18
100
AcDbEntity
  8
01
100
AcDbSpline
210
0.0
220
0.0
230
1.0
 70
    12
 71
     2
 72
     6
 73
     3
 74
     0
 42
0.0000000001
 43
0.0000000001
 40
0.0
 40
0.0
 40
0.0
 40
0.4552824564885129
 40
0.4552824564885129
 40
0.4552824564885129
 10
2396.397566443251
 20
-624.0661573050182
 30
0.0
 41
1.0
 10
2396.600168227698
 20
-624.1700564204192
 30
0.0
 41
0.9996820078883916
 10
2396.809028956657
 20
-624.288412223007
 30
0.0
 41
1.0
  0
SPLINE
  5
1AF10
330
18
100
AcDbEntity
  8
01
100
AcDbSpline
210
0.0
220
0.0
230
1.0
 70
    12
 71
     2
 72
     6
 73
     3
 74
     0
 42
0.0000000001
 43
0.0000000001
 40
0.0
 40
0.0
 40
0.0
 40
0.0206063629071711
 40
0.0206063629071711
 40
0.0206063629071711
 10
2346.688107645159
 20
-604.146165824979
 30
0.0
 41
1.0
 10
2346.68397068615
 20
-604.1556784820813
 30
0.0
 41
0.9898934027611213
 10
2346.682670901487
 20
-604.1659700142717
 30
0.0
 41
1.0
  0
SPLINE
  5
1AF11
330
18
100
AcDbEntity
  8
01
100
AcDbSpline
210
0.0
220
0.0
230
1.0
 70
    12
 71
     2
 72
     6
 73
     3
 74
     0
 42
0.0000000001
 43
0.0000000001
 40
0.0
 40
0.0
 40
0.0
 40
2.147273137677929
 40
2.147273137677929
 40
2.147273137677929
 10
2364.876281600807
 20
-602.5443706896875
 30
0.0
 41
1.0
 10
2365.909987816625
 20
-602.9779722606455
 30
0.0
 41
0.93785705241624
 10
2366.41249042998
 20
-603.9799952077509
 30
0.0
 41
1.0
  0
LINE
  5
1AF12
330
18
100
AcDbEntity
  8
01
100
AcDbLine
 10
2396.808980172038
 20
-600.3042028956551
 30
0.0
 11
2396.809028956657
 21
-624.288412223007
 31
0.0
  0
LINE
  5
1AF13
330
18
100
AcDbEntity
  8
01
100
AcDbLine
 10
2398.808913674392
 20
-600.2936729626443
 30
0.0
 11
2398.808926091427
 21
-624.2937124652216
 31
0.0
  0
ARC
  5
1AF14
330
18
100
AcDbEntity
  8
01
100
AcDbCircle
 10
2397.808964550966
 20
-624.2832103689524
 30
0.0
 40
0.9999491247318987
100
AcDbArc
 50
180.2980607912033
 51
0.0029244485211452
  0
ARC
  5
1AF15
330
18
100
AcDbEntity
  8
01
100
AcDbCircle
 10
2370.704148872542
 20
-719.7277063702776
 30
0.0
 40
99.2681531282155
100
AcDbArc
 50
78.67463736027085
 51
89.6137555092355
  0
ARC
  5
1AF16
330
18
100
AcDbEntity
  8
01
100
AcDbCircle
 10
2370.707308514445
 20
-504.8808349376419
 30
0.0
 40
99.23618831812655
100
AcDbArc
 50
270.3845445885103
 51
281.3271984018162
  0
ARC
  5
1AF17
330
18
100
AcDbEntity
  8
01
100
AcDbCircle
 10
2372.329714787769
 20
-512.1001813799518
 30
0.0
 40
91.838966879867
100
AcDbArc
 50
281.2193678009661
 51
284.1440587055125
  0
ARC
  5
1AF18
330
18
100
AcDbEntity
  8
01
100
AcDbCircle
 10
2391.162569009622
 20
-631.5746517857168
 30
0.0
 40
9.232724669823623
100
AcDbArc
 50
66.99008327152313
 51
95.9986874957792
  0
ARC
  5
1AF19
330
18
100
AcDbEntity
  8
01
100
AcDbCircle
 10
2391.706288461769
 20
-629.94341273822
 30
0.0
 40
7.51998806692129
100
AcDbArc
 50
51.40281881269058
 51
65.94486224012451
  0
LINE
  5
1AF1A
330
18
100
AcDbEntity
  8
01
100
AcDbLine
 10
2396.397566443251
 20
-624.0661235218612
 30
0.0
 11
2396.809028956657
 21
-624.2884122231061
 31
0.0
  0
ARC
  5
1AF1B
330
18
100
AcDbEntity
  8
01
100
AcDbCircle
 10
2391.932047851798
 20
-591.4901563275879
 30
0.0
 40
10.0733254568822
100
AcDbArc
 50
286.3726545919852
 51
298.9563543887474
  0
ARC
  5
1AF1C
330
18
100
AcDbEntity
  8
01
100
AcDbCircle
 10
2371.688042678348
 20
-389.5771290751703
 30
0.0
 40
230.8848942263112
100
AcDbArc
 50
266.7818822423584
 51
269.9219027240656
  0
ARC
  5
1AF1D
330
18
100
AcDbEntity
  8
01
100
AcDbCircle
 10
2377.49210223476
 20
-1217.349084390452
 30
0.0
 40
613.2648215387961
100
AcDbArc
 50
90.57167050326659
 51
91.75368778212695
  0
ARC
  5
1AF1E
330
18
100
AcDbEntity
  8
01
100
AcDbCircle
 10
2358.160362170503
 20
-612.2350493649027
 30
0.0
 40
11.74801361451854
100
AcDbArc
 50
180.2612150164664
 51
315.9420134860017
  0
ARC
  5
1AF1F
330
18
100
AcDbEntity
  8
01
100
AcDbCircle
 10
2358.160362170503
 20
-612.3417070600261
 30
0.0
 40
11.74801361451854
100
AcDbArc
 50
44.05798651399832
 51
179.7387849834815
  0
LINE
  5
1AF20
330
18
100
AcDbEntity
  8
01
100
AcDbLine
 10
2346.682670901487
 20
-604.1659700142717
 30
0.0
 11
2343.725521180178
 21
-611.3061778365671
 31
0.0
  0
LINE
  5
1AF21
330
18
100
AcDbEntity
  8
01
100
AcDbLine
 10
2343.725521180178
 20
-613.2705785883617
 30
0.0
 11
2346.682670901487
 21
-620.4107864106571
 31
0.0
  0
LINE
  5
1AF22
330
18
100
AcDbEntity
  8
01
100
AcDbLine
 10
2348.304410921246
 20
-602.544018125276
 30
0.0
 11
2355.443602634299
 21
-599.5865730600952
 31
0.0
  0
LINE
  5
1AF23
330
18
100
AcDbEntity
  8
01
100
AcDbLine
 10
2348.304410921246
 20
-622.0327382996528
 30
0.0
 11
2355.443602634299
 21
-624.9901833648336
 31
0.0
  0
LINE
  5
1AF24
330
18
100
AcDbEntity
  8
01
100
AcDbLine
 10
2361.135348083367
 20
-623.6001398927064
 30
0.0
 11
2357.73709038375
 21
-624.9901344807485
 31
0.0
  0
LINE
  5
1AF25
330
18
100
AcDbEntity
  8
01
100
AcDbLine
 10
2361.135348083367
 20
-600.9766165322216
 30
0.0
 11
2357.73709038375
 21
-599.5866219441804
 31
0.0
  0
ARC
  5
1AF26
330
18
100
AcDbEntity
  8
01
100
AcDbCircle
 10
2345.819979074762
 20
-612.2883782124644
 30
0.0
 40
2.313324761160847
100
AcDbArc
 50
154.875673517765
 51
205.1243264821292
  0
ARC
  5
1AF27
330
18
100
AcDbEntity
  8
01
100
AcDbCircle
 10
2356.590287007917
 20
-622.198553819995
 30
0.0
 40
3.017959669763167
100
AcDbArc
 50
247.6691969262602
 51
292.3332455125939
  0
ARC
  5
1AF28
330
18
100
AcDbEntity
  8
01
100
AcDbCircle
 10
2349.492553636984
 20
-605.3537456721705
 30
0.0
 40
3.050615020080519
100
AcDbArc
 50
112.9219266677542
 51
157.0855581448296
  0
ARC
  5
1AF29
330
18
100
AcDbEntity
  8
01
100
AcDbCircle
 10
2358.270711830604
 20
-612.3354667868851
 30
0.0
 40
7.499509378188495
100
AcDbArc
 50
125.4737023717049
 51
179.6402438920023
  0
ARC
  5
1AF2A
330
18
100
AcDbEntity
  8
01
100
AcDbCircle
 10
2358.243653890685
 20
-612.321345324537
 30
0.0
 40
8.069101423651501
100
AcDbArc
 50
81.1354242833376
 51
101.5578885273548
  0
ARC
  5
1AF2B
330
18
100
AcDbEntity
  8
01
100
AcDbCircle
 10
2358.925439341759
 20
-612.0273463106577
 30
0.0
 40
7.661694784477633
100
AcDbArc
 50
95.42374738139948
 51
130.8059551434212
  0
ARC
  5
1AF2C
330
18
100
AcDbEntity
  8
01
100
AcDbCircle
 10
2358.897240234457
 20
-612.3737106463658
 30
0.0
 40
8.004074010794676
100
AcDbArc
 50
91.22011814149138
 51
94.98843431959565
  0
ARC
  5
1AF2D
330
18
100
AcDbEntity
  8
01
100
AcDbCircle
 10
2358.269405694965
 20
-612.1354503719875
 30
0.0
 40
7.499509378188495
100
AcDbArc
 50
181.1080446508883
 51
235.2745861712294
  0
ARC
  5
1AF2E
330
18
100
AcDbEntity
  8
01
100
AcDbCircle
 10
2358.928101339206
 20
-612.4349940081983
 30
0.0
 40
7.661694784477632
100
AcDbArc
 50
229.9423333994393
 51
265.3245411615606
  0
ARC
  5
1AF2F
330
18
100
AcDbEntity
  8
01
100
AcDbCircle
 10
2358.895381212913
 20
-612.0890274837501
 30
0.0
 40
8.004074010794675
100
AcDbArc
 50
265.7598542233363
 51
268.7931923278192
  0
LINE
  5
1AF30
330
18
100
AcDbEntity
  8
01
100
AcDbLine
 10
2364.154743174405
 20
-602.2380829445427
 30
0.0
 11
2364.888101444272
 21
-602.5493581337186
 31
0.0
  0
SPLINE
  5
1AF31
330
18
100
AcDbEntity
  8
01
100
AcDbSpline
210
0.0
220
0.0
230
1.0
 70
    12
 71
     2
 72
     6
 73
     3
 74
     0
 42
0.0000000001
 43
0.0000000001
 40
0.0
 40
0.0
 40
0.0
 40
2.147273137677929
 40
2.147273137677929
 40
2.147273137677929
 10
2364.875195859414
 20
-622.0340252160066
 30
0.0
 41
1.0
 10
2365.908950379491
 20
-621.6005388203956
 30
0.0
 41
0.93785705241624
 10
2366.41156463232
 20
-620.5985718669443
 30
0.0
 41
1.0
  0
LINE
  5
1AF32
330
18
100
AcDbEntity
  8
01
100
AcDbLine
 10
2364.153623311769
 20
-622.3402325674577
 30
0.0
 11
2364.887016258493
 21
-622.0290390889403
 31
0.0
  0
ARC
  5
1AF33
330
18
100
AcDbEntity
  8
01
100
AcDbCircle
 10
2358.239980798276
 20
-612.3670062888858
 30
0.0
 40
9.533355688299292
100
AcDbArc
 50
111.5084564917667
 51
179.5276417425585
  0
ARC
  5
1AF34
330
18
100
AcDbEntity
  8
01
100
AcDbCircle
 10
2358.218154274318
 20
-612.3363182976581
 30
0.0
 40
9.49680657288603
100
AcDbArc
 50
58.12108367685964
 51
111.4538352375437
  0
ARC
  5
1AF35
330
18
100
AcDbEntity
  8
01
100
AcDbCircle
 10
2358.239979244301
 20
-612.2097490779141
 30
0.0
 40
9.533355688299292
100
AcDbArc
 50
180.4734906218088
 51
248.4926758725831
  0
ARC
  5
1AF36
330
18
100
AcDbEntity
  8
01
100
AcDbCircle
 10
2358.218153326848
 20
-612.2404375005043
 30
0.0
 40
9.49680657288603
100
AcDbArc
 50
248.5472971268704
 51
301.8800486874932
  0
ARC
  5
1AF37
330
18
100
AcDbEntity
  8
01
100
AcDbCircle
 10
2356.590287007917
 20
-602.3782026049274
 30
0.0
 40
3.017959669763167
100
AcDbArc
 50
67.66675448740608
 51
112.3308030737397
  0
LINE
  5
1AF38
330
18
100
AcDbEntity
  8
01
100
AcDbLine
 10
2357.050621059281
 20
-600.6462250882072
 30
0.0
 11
2356.572561686938
 21
-599.3602949884961
 31
0.0
  0
LINE
  5
1AF39
330
18
100
AcDbEntity
  8
01
100
AcDbLine
 10
2349.440291323262
 20
-604.4692113753016
 30
0.0
 11
2347.378342335441
 21
-603.1545725154668
 31
0.0
  0
LINE
  5
1AF3A
330
18
100
AcDbEntity
  8
01
100
AcDbLine
 10
2346.412470647281
 20
-612.2886091028998
 30
0.0
 11
2343.506654325123
 21
-612.2886091028998
 31
0.0
  0
LINE
  5
1AF3B
330
18
100
AcDbEntity
  8
01
100
AcDbLine
 10
2357.050621059281
 20
-623.9309931175925
 30
0.0
 11
2356.572561686938
 21
-625.2169232173031
 31
0.0
  0
LINE
  5
1AF3C
330
18
100
AcDbEntity
  8
01
100
AcDbLine
 10
2349.440291323262
 20
-620.1080068304976
 30
0.0
 11
2347.378342335441
 21
-621.4226456903328
 31
0.0
  0
ARC
  5
1AF3D
330
18
100
AcDbEntity
  8
01
100
AcDbCircle
 10
2397.808964550966
 20
-600.3094047497096
 30
0.0
 40
0.9999491247318987
100
AcDbArc
 50
359.9970755514788
 51
179.7019392087967
  0
LINE
  5
1AF3E
330
18
100
AcDbEntity
  8
01
  6
BYBLOCK
100
AcDbLine
 10
2546.809571382731
 20
-322.2883782134899
 30
0.0
 11
2700.563951537762
 21
-322.2883782134899
 31
0.0
  0
LINE
  5
1AF3F
330
18
100
AcDbEntity
  8
01
100
AcDbLine
 10
2597.808803540414
 20
-297.2870599003871
 30
0.0
 11
2597.808803540414
 21
-270.7870599003871
 31
0.0
  0
LINE
  5
1AF40
330
18
100
AcDbEntity
  8
01
100
AcDbLine
 10
2572.808803540414
 20
-322.2883782134899
 30
0.0
 11
2622.808803540414
 21
-322.2883782134899
 31
0.0
  0
LINE
  5
1AF41
330
18
100
AcDbEntity
  8
01
100
AcDbLine
 10
2597.808803540414
 20
-327.2883782134899
 30
0.0
 11
2597.808803540414
 21
-300.7883782134899
 31
0.0
  0
LINE
  5
1AF42
330
18
100
AcDbEntity
  8
01
100
AcDbLine
 10
2569.308803540412
 20
-322.2883782134899
 30
0.0
 11
2569.308803540412
 21
-318.7558846214591
 31
0.0
  0
ARC
  5
1AF43
330
18
100
AcDbEntity
  8
01
100
AcDbCircle
 10
2569.808803540412
 20
-318.7558846214591
 30
0.0
 40
0.5
100
AcDbArc
 50
123.7052957883541
 51
180.0
  0
LINE
  5
1AF44
330
18
100
AcDbEntity
  8
01
100
AcDbLine
 10
2573.02790660422
 20
-314.3550315583337
 30
0.0
 11
2572.823225747758
 21
-315.2986173421554
 31
0.0
  0
LINE
  5
1AF45
330
18
100
AcDbEntity
  8
01
100
AcDbLine
 10
2626.308803540416
 20
-322.2883782134899
 30
0.0
 11
2626.308803540415
 21
-318.746174562781
 31
0.0
  0
LINE
  5
1AF46
330
18
100
AcDbEntity
  8
01
100
AcDbLine
 10
2607.308803540408
 20
-313.4883782134879
 30
0.0
 11
2588.308803540419
 21
-313.4883782134933
 31
0.0
  0
LINE
  5
1AF47
330
18
100
AcDbEntity
  8
01
100
AcDbLine
 10
2571.767348413392
 20
-316.8484042727963
 30
0.0
 11
2569.531342879554
 21
-318.339933204012
 31
0.0
  0
ARC
  5
1AF48
330
18
100
AcDbEntity
  8
01
100
AcDbCircle
 10
2570.380045109099
 20
-314.7686471855626
 30
0.0
 40
2.5
100
AcDbArc
 50
303.705295788305
 51
347.761116711706
  0
ARC
  5
1AF49
330
18
100
AcDbEntity
  8
01
100
AcDbCircle
 10
2625.808803540415
 20
-318.746174562781
 30
0.0
 40
0.5
100
AcDbArc
 50
0.0
 51
56.42001654795219
  0
ARC
  5
1AF4A
330
18
100
AcDbEntity
  8
01
100
AcDbCircle
 10
2587.279440086801
 20
-513.4857292231467
 30
0.0
 40
200.0
100
AcDbArc
 50
89.70510779068368
 51
93.95580329935652
  0
ARC
  5
1AF4B
330
18
100
AcDbEntity
  8
01
100
AcDbCircle
 10
2573.516542731951
 20
-314.4610255896526
 30
0.0
 40
0.5
100
AcDbArc
 50
93.95580329935652
 51
167.7611167116455
  0
ARC
  5
1AF4C
330
18
100
AcDbEntity
  8
01
100
AcDbCircle
 10
2608.33816699403
 20
-513.4857292231467
 30
0.0
 40
200.0
100
AcDbArc
 50
86.0441967006435
 51
90.29489220936843
  0
LINE
  5
1AF4D
330
18
100
AcDbEntity
  8
01
100
AcDbLine
 10
2569.38638156928
 20
-318.4883782134906
 30
0.0
 11
2626.23722044285
 21
-318.4883782134906
 31
0.0
  0
LINE
  5
1AF4E
330
18
100
AcDbEntity
  8
01
100
AcDbLine
 10
2572.366063078692
 20
-316.2871110884756
 30
0.0
 11
2623.234949835408
 21
-316.2871110884756
 31
0.0
  0
LINE
  5
1AF4F
330
18
100
AcDbEntity
  8
01
100
AcDbLine
 10
2573.353434001937
 20
-313.9883782134906
 30
0.0
 11
2622.264173078894
 21
-313.9883782134906
 31
0.0
  0
ARC
  5
1AF50
330
18
100
AcDbEntity
  8
01
100
AcDbCircle
 10
2622.10107253196
 20
-314.4610255896526
 30
0.0
 40
0.5
100
AcDbArc
 50
12.23888328835447
 51
86.04419670064347
  0
LINE
  5
1AF51
330
18
100
AcDbEntity
  8
01
100
AcDbLine
 10
2623.85026685052
 20
-316.8484042727963
 30
0.0
 11
2626.086272384358
 21
-318.339933204012
 31
0.0
  0
ARC
  5
1AF52
330
18
100
AcDbEntity
  8
01
100
AcDbCircle
 10
2625.237570154813
 20
-314.7686471855626
 30
0.0
 40
2.5
100
AcDbArc
 50
192.238883288294
 51
236.294704211695
  0
LINE
  5
1AF53
330
18
100
AcDbEntity
  8
01
100
AcDbLine
 10
2622.589708659692
 20
-314.3550315583337
 30
0.0
 11
2622.794389516153
 21
-315.2986173421554
 31
0.0
  0
LINE
  5
1AF54
330
18
100
AcDbEntity
  8
01
100
AcDbLine
 10
2569.308803540412
 20
-322.2883782134899
 30
0.0
 11
2626.308803540416
 21
-322.2883782134899
 31
0.0
  0
SPLINE
  5
1AF55
330
18
100
AcDbEntity
  8
01
100
AcDbSpline
210
0.0
220
0.0
230
1.0
 70
    12
 71
     2
 72
     6
 73
     3
 74
     0
 42
0.0000000001
 43
0.0000000001
 40
0.0
 40
0.0
 40
0.0
 40
0.1345419027129296
 40
0.1345419027129296
 40
0.1345419027129296
 10
2720.898759917461
 20
-283.3975066330562
 30
0.0
 41
1.0
 10
2720.864442386569
 20
-283.4553662512111
 30
0.0
 41
0.999992137232987
 10
2720.82966704986
 20
-283.5129518769894
 30
0.0
 41
1.0
  0
SPLINE
  5
1AF56
330
18
100
AcDbEntity
  8
01
100
AcDbSpline
210
0.0
220
0.0
230
1.0
 70
     8
 71
     3
 72
    12
 73
     8
 74
     0
 42
0.0000000001
 43
0.0000000001
 40
0.2861255186660753
 40
0.2861255186660753
 40
0.2861255186660753
 40
0.2861255186660753
 40
1.440454329920661
 40
1.440454329920661
 40
5.654846439712665
 40
5.654846439712665
 40
7.620038680388925
 40
7.620038680388925
 40
7.620038680388925
 40
7.620038680388925
 10
2720.262626833472
 20
-258.4492883253755
 30
0.0
 10
2720.445396256798
 20
-258.7991848925998
 30
0.0
 10
2720.525514572013
 20
-258.9735504581489
 30
0.0
 10
2720.82668957285
 20
-259.7986001859775
 30
0.0
 10
2720.857114268696
 20
-260.4876552297131
 30
0.0
 10
2720.603093616637
 20
-261.4676079047498
 30
0.0
 10
2720.478510581383
 20
-261.7752452741355
 30
0.0
 10
2720.311406274213
 20
-262.0747701334634
 30
0.0
  0
POINT
  5
1AF57
330
18
100
AcDbEntity
  8
01
100
AcDbPoint
 10
2609.845630964375
 20
-311.2889786460368
 30
0.0
 50
180.0
  0
POINT
  5
1AF58
330
18
100
AcDbEntity
  8
01
100
AcDbPoint
 10
2606.139475914873
 20
-288.5869359379434
 30
0.0
 50
180.0
  0
POINT
  5
1AF59
330
18
100
AcDbEntity
  8
01
100
AcDbPoint
 10
2585.824594213061
 20
-311.2884613312802
 30
0.0
 50
180.0
  0
LINE
  5
1AF5A
330
18
100
AcDbEntity
  8
01
100
AcDbLine
 10
2610.97265313211
 20
-265.6886113876848
 30
0.0
 11
2617.139636128838
 21
-265.4525915397247
 31
0.0
  0
ARC
  5
1AF5B
330
18
100
AcDbEntity
  8
01
100
AcDbCircle
 10
2489.333094866658
 20
-285.3550955839431
 30
0.0
 40
100.2529751463501
100
AcDbArc
 50
346.7045842333621
 51
357.5837463105089
  0
ARC
  5
1AF5C
330
18
100
AcDbEntity
  8
01
100
AcDbCircle
 10
2577.625510689722
 20
-306.5879922550306
 30
0.0
 40
9.450889447845686
100
AcDbArc
 50
330.1779759225334
 51
348.8816881842365
  0
LINE
  5
1AF5D
330
18
100
AcDbEntity
  8
01
100
AcDbLine
 10
2622.849850291268
 20
-265.2621503807071
 30
0.0
 11
2617.139636128838
 21
-265.4525915397247
 31
0.0
  0
LINE
  5
1AF5E
330
18
100
AcDbEntity
  8
01
100
AcDbLine
 10
2585.824594213061
 20
-311.2884613312802
 30
0.0
 11
2609.845359729222
 21
-311.2885101902551
 31
0.0
  0
LINE
  5
1AF5F
330
18
100
AcDbEntity
  8
01
100
AcDbLine
 10
2624.256284113509
 20
-264.6522951323099
 30
0.0
 11
2625.501318429633
 21
-263.3630379991558
 31
0.0
  0
LINE
  5
1AF60
330
18
100
AcDbEntity
  8
01
100
AcDbLine
 10
2625.852265686975
 20
-263.2104507650241
 30
0.0
 11
2626.582743115936
 21
-263.1977489949535
 31
0.0
  0
LINE
  5
1AF61
330
18
100
AcDbEntity
  8
01
100
AcDbLine
 10
2628.173933891179
 20
-261.5878106290605
 30
0.0
 11
2627.980199587166
 21
-262.1727402793853
 31
0.0
  0
LINE
  5
1AF62
330
18
100
AcDbEntity
  8
01
100
AcDbLine
 10
2626.183362003192
 20
-282.2073338967142
 30
0.0
 11
2626.91392503937
 21
-282.1945941335329
 31
0.0
  0
LINE
  5
1AF63
330
18
100
AcDbEntity
  8
01
100
AcDbLine
 10
2628.346121254179
 20
-283.1718523455087
 30
0.0
 11
2628.560268384803
 21
-283.7480963320835
 31
0.0
  0
LINE
  5
1AF64
330
18
100
AcDbEntity
  8
01
100
AcDbLine
 10
2632.880613477682
 20
-281.9603145124114
 30
0.0
 11
2630.112062698431
 21
-284.1886166740454
 31
0.0
  0
LINE
  5
1AF65
330
18
100
AcDbEntity
  8
01
100
AcDbLine
 10
2629.709218482985
 20
-261.0932191759515
 30
0.0
 11
2632.560635104018
 21
-263.2007301944717
 31
0.0
  0
LINE
  5
1AF66
330
18
100
AcDbEntity
  8
01
100
AcDbLine
 10
2585.824594213061
 20
-311.2884613312802
 30
0.0
 11
2585.823807071944
 21
-311.2884785059272
 31
0.0
  0
LINE
  5
1AF67
330
18
100
AcDbEntity
  8
01
100
AcDbLine
 10
2585.760698152678
 20
-311.2898554806492
 30
0.0
 11
2585.758801685689
 21
-311.2898968596986
 31
0.0
  0
LINE
  5
1AF68
330
18
100
AcDbEntity
  8
01
100
AcDbLine
 10
2585.81406428005
 20
-313.2883948336342
 30
0.0
 11
2609.814103782628
 21
-313.2884072506698
 31
0.0
  0
ARC
  5
1AF69
330
18
100
AcDbEntity
  8
01
100
AcDbCircle
 10
2706.284512214169
 20
-285.3550955839431
 30
0.0
 40
100.2529751463501
100
AcDbArc
 50
182.0093887622861
 51
193.2954157666379
  0
ARC
  5
1AF6A
330
18
100
AcDbEntity
  8
01
100
AcDbCircle
 10
2614.088263901776
 20
-288.5897857503536
 30
0.0
 40
8.0
100
AcDbArc
 50
92.0637687273646
 51
182.0093887622868
  0
ARC
  5
1AF6B
330
18
100
AcDbEntity
  8
01
100
AcDbCircle
 10
2617.992096391104
 20
-306.5879922550306
 30
0.0
 40
9.450889447845686
100
AcDbArc
 50
191.1183118157413
 51
209.8220240774666
  0
LINE
  5
1AF6C
330
18
100
AcDbEntity
  8
01
100
AcDbLine
 10
2613.800169732843
 20
-280.5949748238949
 30
0.0
 11
2623.121139353067
 21
-280.2590923344791
 31
0.0
  0
ARC
  5
1AF6D
330
18
100
AcDbEntity
  8
01
100
AcDbCircle
 10
2612.477623257329
 20
-288.639320852148
 30
0.0
 40
23.0
100
AcDbArc
 50
93.75174291677536
 51
182.3481607574942
  0
LINE
  5
1AF6E
330
18
100
AcDbEntity
  8
01
100
AcDbLine
 10
2719.089457222966
 20
-257.9973030832256
 30
0.0
 11
2633.873424417061
 21
-263.5831224210436
 31
0.0
  0
LINE
  5
1AF6F
330
18
100
AcDbEntity
  8
01
100
AcDbLine
 10
2719.590893601571
 20
-284.1669643632962
 30
0.0
 11
2634.133402039942
 21
-281.5245103859191
 31
0.0
  0
ARC
  5
1AF70
330
18
100
AcDbEntity
  8
01
100
AcDbCircle
 10
2629.122864191516
 20
-261.9032595236234
 30
0.0
 40
0.9999883599222319
100
AcDbArc
 50
52.96223809439487
 51
161.6118629947532
  0
ARC
  5
1AF71
330
18
100
AcDbEntity
  8
01
100
AcDbCircle
 10
2626.556050142552
 20
-261.6962339609803
 30
0.0
 40
1.501752280529346
100
AcDbArc
 50
271.0184603532283
 51
341.5002684641499
  0
ARC
  5
1AF72
330
18
100
AcDbEntity
  8
01
100
AcDbCircle
 10
2633.742655628748
 20
-261.587402118996
 30
0.0
 40
2.0
100
AcDbArc
 50
233.7712676983235
 51
273.751699078915
  0
ARC
  5
1AF73
330
18
100
AcDbEntity
  8
01
100
AcDbCircle
 10
2622.818161896755
 20
-263.2624014350507
 30
0.0
 40
2.0
100
AcDbArc
 50
270.9078436202101
 51
315.9987895867707
  0
LINE
  5
1AF74
330
18
100
AcDbEntity
  8
01
100
AcDbLine
 10
2624.53628409055
 20
-280.8201902974273
 30
0.0
 11
2625.827395605154
 21
-282.0670708402262
 31
0.0
  0
ARC
  5
1AF75
330
18
100
AcDbEntity
  8
01
100
AcDbCircle
 10
2623.147024226
 20
-282.2589248208018
 30
0.0
 40
2.0
100
AcDbArc
 50
45.99458228916451
 51
90.74156768985947
  0
ARC
  5
1AF76
330
18
100
AcDbEntity
  8
01
100
AcDbCircle
 10
2626.174732485023
 20
-281.7074083708443
 30
0.0
 40
0.5
100
AcDbArc
 50
225.9987742232385
 51
271.0091582892455
  0
ARC
  5
1AF77
330
18
100
AcDbEntity
  8
01
100
AcDbCircle
 10
2626.614156404983
 20
-284.1720012150003
 30
0.0
 40
2.0
100
AcDbArc
 50
30.00492468531487
 51
81.37977736734989
  0
ARC
  5
1AF78
330
18
100
AcDbEntity
  8
01
100
AcDbCircle
 10
2629.497559112919
 20
-283.3998251496927
 30
0.0
 40
0.9999033580781345
100
AcDbArc
 50
200.3836667565753
 51
307.9201723577459
  0
ARC
  5
1AF79
330
18
100
AcDbEntity
  8
01
100
AcDbCircle
 10
2634.12710366187
 20
-283.5245004685033
 30
0.0
 40
2.0
100
AcDbArc
 50
88.32156355376907
 51
128.5542879155519
  0
ARC
  5
1AF7A
330
18
100
AcDbEntity
  8
01
100
AcDbCircle
 10
2625.860980972382
 20
-263.7103748030544
 30
0.0
 40
0.5
100
AcDbArc
 50
90.99875029078021
 51
135.9987863258315
  0
ARC
  5
1AF7B
330
18
100
AcDbEntity
  8
01
100
AcDbCircle
 10
2694.568078087033
 20
-273.8656264022815
 30
0.0
 40
30.0
100
AcDbArc
 50
18.54463398619724
 51
30.54129328210768
  0
ARC
  5
1AF7C
330
18
100
AcDbEntity
  8
01
100
AcDbCircle
 10
2724.906515974304
 20
-263.688240364589
 30
0.0
 40
2.0
100
AcDbArc
 50
198.5446339861842
 51
263.8696335184882
  0
ARC
  5
1AF7D
330
18
100
AcDbEntity
  8
01
100
AcDbCircle
 10
2694.502172656053
 20
-269.1125268787358
 30
0.0
 40
30.0
100
AcDbArc
 50
331.1903449256525
 51
343.3580462201618
  0
ARC
  5
1AF7E
330
18
100
AcDbEntity
  8
01
100
AcDbCircle
 10
2725.161792736924
 20
-278.2770070329328
 30
0.0
 40
2.0
100
AcDbArc
 50
98.12202427429557
 51
163.3580462201602
  0
ARC
  5
1AF7F
330
18
100
AcDbEntity
  8
01
100
AcDbCircle
 10
2719.186415735543
 20
-259.4941661520592
 30
0.0
 40
1.5
100
AcDbArc
 50
35.60618281075233
 51
93.79449696918508
  0
ARC
  5
1AF80
330
18
100
AcDbEntity
  8
01
100
AcDbCircle
 10
2719.590893601571
 20
-282.6669643632962
 30
0.0
 40
1.5
100
AcDbArc
 50
268.199610843046
 51
323.0057359804521
  0
ARC
  5
1AF81
330
18
100
AcDbEntity
  8
01
100
AcDbCircle
 10
2726.223850122294
 20
-266.8469831789711
 30
0.0
 40
1.0
100
AcDbArc
 50
2.618481971685821
 51
83.87255441472743
  0
LINE
  5
1AF82
330
18
100
AcDbEntity
  8
01
100
AcDbLine
 10
2727.222806007317
 20
-266.801297954013
 30
0.0
 11
2727.363218145099
 21
-275.1646871163606
 31
0.0
  0
ARC
  5
1AF83
330
18
100
AcDbEntity
  8
01
100
AcDbCircle
 10
2726.367286936058
 20
-275.0745703761935
 30
0.0
 40
1.0
100
AcDbArc
 50
278.1249206984575
 51
354.8296768994863
  0
LINE
  5
1AF84
330
18
100
AcDbEntity
  8
01
100
AcDbLine
 10
2726.330691858436
 20
-265.8527071391212
 30
0.0
 11
2724.682681695553
 21
-265.6757021970028
 31
0.0
  0
LINE
  5
1AF85
330
18
100
AcDbEntity
  8
01
100
AcDbLine
 10
2726.508618756111
 20
-276.0645326566067
 30
0.0
 11
2724.879229171418
 21
-276.2970681875526
 31
0.0
  0
ARC
  5
1AF86
330
18
100
AcDbEntity
  8
01
100
AcDbCircle
 10
2609.803321298961
 20
-312.2881646500385
 30
0.0
 40
1.000230209892093
100
AcDbArc
 50
270.0131376904001
 51
90.60573089590414
  0
ARC
  5
1AF87
330
18
100
AcDbEntity
  8
01
100
AcDbCircle
 10
2585.814055571972
 20
-312.2884309589211
 30
0.0
 40
1.0
100
AcDbArc
 50
89.44127135270014
 51
270.4869879134847
  0
LINE
  5
1AF88
330
18
100
AcDbEntity
  8
01
100
AcDbLine
 10
2723.582919767401
 20
-277.0493425241569
 30
0.0
 11
2723.582919767401
 21
-265.1876045902094
 31
0.0
  0
LINE
  5
1AF89
330
18
100
AcDbEntity
  8
01
100
AcDbLine
 10
2633.448401240885
 20
-281.503323544582
 30
0.0
 11
2633.142799847668
 21
-263.6310140761001
 31
0.0
  0
LINE
  5
1AF8A
330
18
100
AcDbEntity
  8
01
100
AcDbLine
 10
2625.975589017778
 20
-282.1660388097092
 30
0.0
 11
2625.645977593596
 21
-263.258961968599
 31
0.0
  0
LINE
  5
1AF8B
330
18
100
AcDbEntity
  8
01
100
AcDbLine
 10
2623.694552844224
 20
-265.2339787344903
 30
0.0
 11
2623.9252769954
 21
-280.230115118144
 31
0.0
  0
LINE
  5
1AF8C
330
18
100
AcDbEntity
  8
01
100
AcDbLine
 10
2627.976063687204
 20
-282.1760722618131
 30
0.0
 11
2627.646835173873
 21
-263.1792462293391
 31
0.0
  0
LINE
  5
1AF8D
330
18
100
AcDbEntity
  8
01
100
AcDbLine
 10
2629.03037848399
 20
-284.2838777417086
 30
0.0
 11
2628.620839824835
 21
-261.0384195064884
 31
0.0
  0
LINE
  5
1AF8E
330
18
100
AcDbEntity
  8
01
100
AcDbLine
 10
2720.367628730296
 20
-280.1694585560684
 30
0.0
 11
2633.401603849643
 21
-278.7664987880147
 31
0.0
  0
LINE
  5
1AF8F
330
18
100
AcDbEntity
  8
01
100
AcDbLine
 10
2720.311406274152
 20
-262.074770133467
 30
0.0
 11
2633.19412743711
 21
-266.4085501989842
 31
0.0
  0
LINE
  5
1AF90
330
18
100
AcDbEntity
  8
01
100
AcDbLine
 10
2633.295949159439
 20
-272.5875566691642
 30
0.0
 11
2720.214400013172
 21
-271.1282911417042
 31
0.0
  0
ARC
  5
1AF91
330
18
100
AcDbEntity
  8
01
100
AcDbCircle
 10
2703.30041742353
 20
-266.7554535148523
 30
0.0
 40
17.64320091692204
100
AcDbArc
 50
345.3193623641093
 51
15.38458484993897
  0
ARC
  5
1AF92
330
18
100
AcDbEntity
  8
01
100
AcDbCircle
 10
2703.302130338034
 20
-275.6981235423294
 30
0.0
 40
17.64154392850468
100
AcDbArc
 50
345.3179524860328
 51
14.68204751396719
  0
ARC
  5
1AF93
330
18
100
AcDbEntity
  8
01
100
AcDbCircle
 10
2716.942756912106
 20
-282.2402591788826
 30
0.0
 40
4.002244644006566
100
AcDbArc
 50
338.3612029129079
 51
31.15866619830524
  0
TEXT
  5
1AF94
330
18
100
AcDbEntity
  8
1TEXT
100
AcDbText
 10
2252.008819540416
 20
-369.0383782124612
 30
0.0
 40
6.0
  1
表面処理
 72
     1
 11
2265.908819540416
 21
-369.0383782124612
 31
0.0
100
AcDbText
  0
TEXT
  5
1AF95
330
18
100
AcDbEntity
  8
1TEXT
100
AcDbText
 10
2248.608819540416
 20
-379.291311201748
 30
0.0
 40
6.0
  1
本金メッキ
 72
     1
 11
2265.908819540416
 21
-379.291311201748
 31
0.0
100
AcDbText
  0
LINE
  5
1AF96
330
18
100
AcDbEntity
  8
1DIM
100
AcDbLine
 10
2239.808819540416
 20
-371.2883782124612
 30
0.0
 11
2344.808819540416
 21
-371.2883782124612
 31
0.0
  0
LINE
  5
1AF97
330
18
100
AcDbEntity
  8
1DIM
100
AcDbLine
 10
2239.808819540416
 20
-381.7883782124612
 30
0.0
 11
2344.808819540416
 21
-381.7883782124612
 31
0.0
  0
LINE
  5
1AF98
330
18
100
AcDbEntity
  8
1DIM
100
AcDbLine
 10
2239.808819540416
 20
-381.7883782124612
 30
0.0
 11
2344.808819540416
 21
-381.7883782124612
 31
0.0
  0
LINE
  5
1AF99
330
18
100
AcDbEntity
  8
1DIM
100
AcDbLine
 10
2292.308819540416
 20
-360.7883782124612
 30
0.0
 11
2292.308819540416
 21
-381.7883782124612
 31
0.0
  0
TEXT
  5
1AF9A
330
18
100
AcDbEntity
  8
1TEXT
100
AcDbText
 10
2298.779652873749
 20
-379.8599136879351
 30
0.0
 40
6.0
  1
1-5KB-G-LJ
 41
0.6999999999999998
 72
     1
 11
2318.408819540416
 21
-379.8599136879351
 31
0.0
100
AcDbText
  0
TEXT
  5
1AF9B
330
18
100
AcDbEntity
  8
1TEXT
100
AcDbText
 10
2308.108819540416
 20
-369.0383782124612
 30
0.0
 40
6.0
  1
コード
 72
     1
 11
2318.408819540416
 21
-369.0383782124612
 31
0.0
100
AcDbText
  0
LINE
  5
1AF9C
330
18
100
AcDbEntity
  8
1DIM
100
AcDbLine
 10
2344.808819540416
 20
-381.7883782124612
 30
0.0
 11
2344.808819540416
 21
-360.7883782124612
 31
0.0
  0
LINE
  5
1AF9D
330
18
100
AcDbEntity
  8
1DIM
100
AcDbLine
 10
2239.808819540416
 20
-381.7883782124612
 30
0.0
 11
2344.808819540416
 21
-381.7883782124612
 31
0.0
  0
LINE
  5
1AF9E
330
18
100
AcDbEntity
  8
1DIM
100
AcDbLine
 10
2292.308819540416
 20
-381.7883782124612
 30
0.0
 11
2292.308819540416
 21
-392.2883782124612
 31
0.0
  0
LINE
  5
1AF9F
330
18
100
AcDbEntity
  8
1DIM
100
AcDbLine
 10
2239.808819540416
 20
-392.2883782124612
 30
0.0
 11
2344.808819540416
 21
-392.2883782124612
 31
0.0
  0
TEXT
  5
1AFA0
330
18
100
AcDbEntity
  8
1TEXT
100
AcDbText
 10
2241.108819540416
 20
-389.7547486298175
 30
0.0
 40
6.0
  1
サテンニッケル
 72
     1
 11
2265.908819540416
 21
-389.7547486298175
 31
0.0
100
AcDbText
  0
LINE
  5
1AFA1
330
18
100
AcDbEntity
  8
1DIM
100
AcDbLine
 10
2239.808819540416
 20
-392.2883782124612
 30
0.0
 11
2239.808819540416
 21
-381.7883782124612
 31
0.0
  0
LINE
  5
1AFA2
330
18
100
AcDbEntity
  8
1DIM
100
AcDbLine
 10
2344.808819540416
 20
-392.2883782124612
 30
0.0
 11
2344.808819540416
 21
-381.7883782124612
 31
0.0
  0
TEXT
  5
1AFA3
330
18
100
AcDbEntity
  8
1TEXT
100
AcDbText
 10
2298.794236207083
 20
-390.3599136879351
 30
0.0
 40
6.0
  1
1-5KB-N-LJ
 41
0.6999999999999998
 72
     1
 11
2318.408819540416
 21
-390.3599136879351
 31
0.0
100
AcDbText
  0
LINE
  5
1AFA4
330
18
100
AcDbEntity
  8
1DIM
100
AcDbLine
 10
2292.308819540416
 20
-392.2883782124612
 30
0.0
 11
2292.308819540416
 21
-402.7883782124612
 31
0.0
  0
LINE
  5
1AFA5
330
18
100
AcDbEntity
  8
1DIM
100
AcDbLine
 10
2239.808819540416
 20
-402.7883782124612
 30
0.0
 11
2344.808819540416
 21
-402.7883782124612
 31
0.0
  0
TEXT
  5
1AFA6
330
18
100
AcDbEntity
  8
1TEXT
100
AcDbText
 10
2241.608819540416
 20
-400.2547486298175
 30
0.0
 40
6.0
  1
ダークアンバー
 72
     1
 11
2265.908819540416
 21
-400.2547486298175
 31
0.0
100
AcDbText
  0
LINE
  5
1AFA7
330
18
100
AcDbEntity
  8
1DIM
100
AcDbLine
 10
2239.808819540416
 20
-402.7883782124612
 30
0.0
 11
2239.808819540416
 21
-392.2883782124612
 31
0.0
  0
LINE
  5
1AFA8
330
18
100
AcDbEntity
  8
1DIM
100
AcDbLine
 10
2344.808819540416
 20
-402.7883782124612
 30
0.0
 11
2344.808819540416
 21
-392.2883782124612
 31
0.0
  0
TEXT
  5
1AFA9
330
18
100
AcDbEntity
  8
1TEXT
100
AcDbText
 10
2296.694236207083
 20
-400.8599136879351
 30
0.0
 40
6.0
  1
1-5KB-4Q-LJ
 41
0.6999999999999998
 72
     1
 11
2318.408819540416
 21
-400.8599136879351
 31
0.0
100
AcDbText
  0
TEXT
  5
1B0FD
330
18
100
AcDbEntity
  8
01
  6
CONTINUOUS
100
AcDbText
 10
2540.661848293689
 20
-399.7050448801565
 30
0.0
 40
4.55
  1
材質：真鍮
100
AcDbText
1001
ACADANNOTATIVE
1000
AnnotativeData
1002
{
1070
     1
1070
     0
1002
}
  0
TEXT
  5
1B0FE
330
18
100
AcDbEntity
  8
01
  6
CONTINUOUS
100
AcDbText
 10
2519.125181627022
 20
-407.2883782134899
 30
0.0
 40
4.55
  1
仕上げ：各種メッキ
100
AcDbText
1001
ACADANNOTATIVE
1000
AnnotativeData
1002
{
1070
     1
1070
     0
1002
}
  0
LINE
  5
1B0FF
330
18
100
AcDbEntity
  8
01
100
AcDbLine
 10
2535.808687200671
 20
-584.2883789105925
 30
0.0
 11
2535.808687200671
 21
-481.5668861277732
 31
0.0
1001
ACAD
1000
DSTYLE
1002
{
1070
    40
1040
1.3
1070
    45
1040
0.5
1002
}
  0
LINE
  5
1B100
330
18
100
AcDbEntity
  8
01
100
AcDbLine
 10
2546.808687200671
 20
-526.4170608613036
 30
0.0
 11
2546.808687200671
 21
-481.5668861277732
 31
0.0
1001
ACAD
1000
DSTYLE
1002
{
1070
    40
1040
1.3
1070
    45
1040
0.5
1002
}
  0
LINE
  5
1B101
330
18
100
AcDbEntity
  8
01
100
AcDbLine
 10
2538.408687200671
 20
-482.8668861277732
 30
0.0
 11
2544.208687200671
 21
-482.8668861277732
 31
0.0
1001
ACAD
1000
DSTYLE
1002
{
1070
    40
1040
1.3
1070
    45
1040
0.5
1002
}
  0
LINE
  5
1B105
330
18
100
AcDbEntity
  8
01
100
AcDbLine
 10
2615.808687200671
 20
-554.2883782124612
 30
0.0
 11
2644.108687200671
 21
-554.2883782124612
 31
0.0
1001
ACAD
1000
DSTYLE
1002
{
1070
    40
1040
1.3
1070
    45
1040
0.5
1002
}
  0
LINE
  5
1B106
330
18
100
AcDbEntity
  8
01
100
AcDbLine
 10
2615.808687200671
 20
-628.2883782124617
 30
0.0
 11
2644.108687200671
 21
-628.2883782124617
 31
0.0
1001
ACAD
1000
DSTYLE
1002
{
1070
    40
1040
1.3
1070
    45
1040
0.5
1002
}
  0
LINE
  5
1B107
330
18
100
AcDbEntity
  8
01
100
AcDbLine
 10
2642.808687200671
 20
-556.8883782124612
 30
0.0
 11
2642.808687200671
 21
-625.6883782124617
 31
0.0
1001
ACAD
1000
DSTYLE
1002
{
1070
    40
1040
1.3
1070
    45
1040
0.5
1002
}
  0
LINE
  5
1B10B
330
18
100
AcDbEntity
  8
01
100
AcDbLine
 10
2615.808687200671
 20
-554.2883782124612
 30
0.0
 11
2615.808687200671
 21
-471.487018659725
 31
0.0
1001
ACAD
1000
DSTYLE
1002
{
1070
    40
1040
1.3
1070
    45
1040
0.5
1002
}
  0
LINE
  5
1B10C
330
18
100
AcDbEntity
  8
01
100
AcDbLine
 10
2546.808687200671
 20
-526.4170608613036
 30
0.0
 11
2546.808687200671
 21
-471.487018659725
 31
0.0
1001
ACAD
1000
DSTYLE
1002
{
1070
    40
1040
1.3
1070
    45
1040
0.5
1002
}
  0
LINE
  5
1B10D
330
18
100
AcDbEntity
  8
01
100
AcDbLine
 10
2613.208687200671
 20
-472.787018659725
 30
0.0
 11
2549.408687200671
 21
-472.787018659725
 31
0.0
1001
ACAD
1000
DSTYLE
1002
{
1070
    40
1040
1.3
1070
    45
1040
0.5
1002
}
  0
LINE
  5
1B111
330
18
100
AcDbEntity
  8
01
100
AcDbLine
 10
2546.808687200671
 20
-526.4170608613036
 30
0.0
 11
2546.808687200671
 21
-481.5668861277732
 31
0.0
1001
ACAD
1000
DSTYLE
1002
{
1070
    40
1040
1.3
1070
    45
1040
0.5
1002
}
  0
LINE
  5
1B112
330
18
100
AcDbEntity
  8
01
100
AcDbLine
 10
2597.808687200671
 20
-562.2883782124612
 30
0.0
 11
2597.808687200671
 21
-481.5668861277732
 31
0.0
1001
ACAD
1000
DSTYLE
1002
{
1070
    40
1040
1.3
1070
    45
1040
0.5
1002
}
  0
LINE
  5
1B113
330
18
100
AcDbEntity
  8
01
100
AcDbLine
 10
2549.408687200671
 20
-482.8668861277732
 30
0.0
 11
2595.208687200671
 21
-482.8668861277732
 31
0.0
1001
ACAD
1000
DSTYLE
1002
{
1070
    40
1040
1.3
1070
    45
1040
0.5
1002
}
  0
LINE
  5
1B117
330
18
100
AcDbEntity
  8
01
100
AcDbLine
 10
2415.308803540416
 20
-532.2883782124617
 30
0.0
 11
2415.308803540416
 21
-481.5668861277734
 31
0.0
1001
ACAD
1000
DSTYLE
1002
{
1070
    40
1040
1.3
1070
    45
1040
0.5
1002
}
  0
LINE
  5
1B118
330
18
100
AcDbEntity
  8
01
100
AcDbLine
 10
2440.308803540416
 20
-532.2883782124617
 30
0.0
 11
2440.308803540416
 21
-481.5668861277734
 31
0.0
1001
ACAD
1000
DSTYLE
1002
{
1070
    40
1040
1.3
1070
    45
1040
0.5
1002
}
  0
LINE
  5
1B119
330
18
100
AcDbEntity
  8
01
100
AcDbLine
 10
2417.908803540416
 20
-482.8668861277735
 30
0.0
 11
2437.708803540416
 21
-482.8668861277735
 31
0.0
1001
ACAD
1000
DSTYLE
1002
{
1070
    40
1040
1.3
1070
    45
1040
0.5
1002
}
  0
LINE
  5
1B11D
330
18
100
AcDbEntity
  8
01
100
AcDbLine
 10
2433.610743143652
 20
-534.2879330680454
 30
0.0
 11
2513.89687431186
 21
-534.2879330680454
 31
0.0
1001
ACAD
1000
DSTYLE
1002
{
1070
    40
1040
1.3
1070
    45
1040
0.5
1002
}
  0
LINE
  5
1B11E
330
18
100
AcDbEntity
  8
01
100
AcDbLine
 10
2433.610743143652
 20
-648.2879330680454
 30
0.0
 11
2513.89687431186
 21
-648.2879330680454
 31
0.0
1001
ACAD
1000
DSTYLE
1002
{
1070
    40
1040
1.3
1070
    45
1040
0.5
1002
}
  0
LINE
  5
1B11F
330
18
100
AcDbEntity
  8
01
100
AcDbLine
 10
2512.59687431186
 20
-536.8879330680454
 30
0.0
 11
2512.59687431186
 21
-645.6879330680454
 31
0.0
1001
ACAD
1000
DSTYLE
1002
{
1070
    40
1040
1.3
1070
    45
1040
0.5
1002
}
  0
LINE
  5
1B123
330
18
100
AcDbEntity
  8
01
100
AcDbLine
 10
2434.208803540415
 20
-526.3883782124618
 30
0.0
 11
2523.261208478084
 21
-526.3883782124618
 31
0.0
1001
ACAD
1000
DSTYLE
1002
{
1070
    40
1040
1.3
1070
    45
1040
0.5
1002
}
  0
LINE
  5
1B124
330
18
100
AcDbEntity
  8
01
100
AcDbLine
 10
2434.135717735745
 20
-656.1879330680453
 30
0.0
 11
2523.261208478084
 21
-656.1879330680453
 31
0.0
1001
ACAD
1000
DSTYLE
1002
{
1070
    40
1040
1.3
1070
    45
1040
0.5
1002
}
  0
LINE
  5
1B125
330
18
100
AcDbEntity
  8
01
100
AcDbLine
 10
2521.961208478084
 20
-528.9883782124618
 30
0.0
 11
2521.961208478084
 21
-653.5879330680452
 31
0.0
1001
ACAD
1000
DSTYLE
1002
{
1070
    40
1040
1.3
1070
    45
1040
0.5
1002
}
  0
LINE
  5
1B129
330
18
100
AcDbEntity
  8
01
100
AcDbLine
 10
2597.808687200648
 20
-583.7883782124587
 30
0.0
 11
2561.508687200671
 21
-583.7883782124587
 31
0.0
1001
ACAD
1000
DSTYLE
1002
{
1070
     3
1000
φ<>
1070
    40
1040
1.3
1070
    45
1040
0.5
1002
}
  0
LINE
  5
1B12A
330
18
100
AcDbEntity
  8
01
100
AcDbLine
 10
2597.808687200648
 20
-640.7883782124374
 30
0.0
 11
2561.508687200671
 21
-640.7883782124374
 31
0.0
1001
ACAD
1000
DSTYLE
1002
{
1070
     3
1000
φ<>
1070
    40
1040
1.3
1070
    45
1040
0.5
1002
}
  0
LINE
  5
1B12B
330
18
100
AcDbEntity
  8
01
100
AcDbLine
 10
2562.808687200671
 20
-586.3883782124587
 30
0.0
 11
2562.808687200671
 21
-638.1883782124373
 31
0.0
1001
ACAD
1000
DSTYLE
1002
{
1070
     3
1000
φ<>
1070
    40
1040
1.3
1070
    45
1040
0.5
1002
}
  0
LINE
  5
1B12F
330
18
100
AcDbEntity
  8
01
  6
BYBLOCK
100
AcDbLine
 10
2538.408687200671
 20
-483.5635540217732
 30
0.0
 11
2535.808687200671
 21
-482.8668861277732
 31
0.0
  0
LINE
  5
1B130
330
18
100
AcDbEntity
  8
01
  6
BYBLOCK
100
AcDbLine
 10
2535.808687200671
 20
-482.8668861277732
 30
0.0
 11
2538.408687200671
 21
-482.1702182337733
 31
0.0
  0
LINE
  5
1B131
330
18
100
AcDbEntity
  8
01
  6
BYBLOCK
100
AcDbLine
 10
2535.808687200671
 20
-482.8668861277732
 30
0.0
 11
2538.408687200671
 21
-482.8668861277732
 31
0.0
  0
LINE
  5
1B132
330
18
100
AcDbEntity
  8
01
  6
BYBLOCK
100
AcDbLine
 10
2544.208687200671
 20
-482.1702182337733
 30
0.0
 11
2546.808687200671
 21
-482.8668861277732
 31
0.0
  0
LINE
  5
1B133
330
18
100
AcDbEntity
  8
01
  6
BYBLOCK
100
AcDbLine
 10
2546.808687200671
 20
-482.8668861277732
 30
0.0
 11
2544.208687200671
 21
-483.5635540217732
 31
0.0
  0
LINE
  5
1B134
330
18
100
AcDbEntity
  8
01
  6
BYBLOCK
100
AcDbLine
 10
2546.808687200671
 20
-482.8668861277732
 30
0.0
 11
2544.208687200671
 21
-482.8668861277732
 31
0.0
  0
TEXT
  5
1B135
330
18
100
AcDbEntity
  8
01
  6
CONTINUOUS
100
AcDbText
 10
2539.033687200671
 20
-481.9568861277733
 30
0.0
 40
4.55
  1
11
100
AcDbText
1001
ACAD
1000
DSTYLE
1002
{
1070
    40
1040
1.3
1070
    45
1040
0.5
1002
}
  0
LINE
  5
1B136
330
18
100
AcDbEntity
  8
01
  6
BYBLOCK
100
AcDbLine
 10
2642.112019306671
 20
-556.8883782124612
 30
0.0
 11
2642.808687200671
 21
-554.2883782124612
 31
0.0
  0
LINE
  5
1B137
330
18
100
AcDbEntity
  8
01
  6
BYBLOCK
100
AcDbLine
 10
2642.808687200671
 20
-554.2883782124612
 30
0.0
 11
2643.505355094671
 21
-556.8883782124612
 31
0.0
  0
LINE
  5
1B138
330
18
100
AcDbEntity
  8
01
  6
BYBLOCK
100
AcDbLine
 10
2642.808687200671
 20
-554.2883782124612
 30
0.0
 11
2642.808687200671
 21
-556.8883782124612
 31
0.0
  0
LINE
  5
1B139
330
18
100
AcDbEntity
  8
01
  6
BYBLOCK
100
AcDbLine
 10
2643.505355094671
 20
-625.6883782124617
 30
0.0
 11
2642.808687200671
 21
-628.2883782124617
 31
0.0
  0
LINE
  5
1B13A
330
18
100
AcDbEntity
  8
01
  6
BYBLOCK
100
AcDbLine
 10
2642.808687200671
 20
-628.2883782124617
 30
0.0
 11
2642.112019306671
 21
-625.6883782124617
 31
0.0
  0
LINE
  5
1B13B
330
18
100
AcDbEntity
  8
01
  6
BYBLOCK
100
AcDbLine
 10
2642.808687200671
 20
-628.2883782124617
 30
0.0
 11
2642.808687200671
 21
-625.6883782124617
 31
0.0
  0
TEXT
  5
1B13C
330
18
100
AcDbEntity
  8
01
  6
CONTINUOUS
100
AcDbText
 10
2641.898687200671
 20
-573.3170341264426
 30
0.0
 40
4.55
  1
74
 50
90.0
100
AcDbText
1001
ACAD
1000
DSTYLE
1002
{
1070
    40
1040
1.3
1070
    45
1040
0.5
1002
}
  0
LINE
  5
1B13D
330
18
100
AcDbEntity
  8
01
  6
BYBLOCK
100
AcDbLine
 10
2613.208687200671
 20
-472.0903507657251
 30
0.0
 11
2615.808687200671
 21
-472.787018659725
 31
0.0
  0
LINE
  5
1B13E
330
18
100
AcDbEntity
  8
01
  6
BYBLOCK
100
AcDbLine
 10
2615.808687200671
 20
-472.787018659725
 30
0.0
 11
2613.208687200671
 21
-473.483686553725
 31
0.0
  0
LINE
  5
1B13F
330
18
100
AcDbEntity
  8
01
  6
BYBLOCK
100
AcDbLine
 10
2615.808687200671
 20
-472.787018659725
 30
0.0
 11
2613.208687200671
 21
-472.787018659725
 31
0.0
  0
LINE
  5
1B140
330
18
100
AcDbEntity
  8
01
  6
BYBLOCK
100
AcDbLine
 10
2549.408687200671
 20
-473.483686553725
 30
0.0
 11
2546.808687200671
 21
-472.787018659725
 31
0.0
  0
LINE
  5
1B141
330
18
100
AcDbEntity
  8
01
  6
BYBLOCK
100
AcDbLine
 10
2546.808687200671
 20
-472.787018659725
 30
0.0
 11
2549.408687200671
 21
-472.0903507657251
 31
0.0
  0
LINE
  5
1B142
330
18
100
AcDbEntity
  8
01
  6
BYBLOCK
100
AcDbLine
 10
2546.808687200671
 20
-472.787018659725
 30
0.0
 11
2549.408687200671
 21
-472.787018659725
 31
0.0
  0
TEXT
  5
1B143
330
18
100
AcDbEntity
  8
01
  6
CONTINUOUS
100
AcDbText
 10
2577.500168682152
 20
-471.8770186597251
 30
0.0
 40
4.55
  1
69
100
AcDbText
1001
ACAD
1000
DSTYLE
1002
{
1070
    40
1040
1.3
1070
    45
1040
0.5
1002
}
  0
LINE
  5
1B144
330
18
100
AcDbEntity
  8
01
  6
BYBLOCK
100
AcDbLine
 10
2549.408687200671
 20
-483.5635540217732
 30
0.0
 11
2546.808687200671
 21
-482.8668861277732
 31
0.0
  0
LINE
  5
1B145
330
18
100
AcDbEntity
  8
01
  6
BYBLOCK
100
AcDbLine
 10
2546.808687200671
 20
-482.8668861277732
 30
0.0
 11
2549.408687200671
 21
-482.1702182337733
 31
0.0
  0
LINE
  5
1B146
330
18
100
AcDbEntity
  8
01
  6
BYBLOCK
100
AcDbLine
 10
2546.808687200671
 20
-482.8668861277732
 30
0.0
 11
2549.408687200671
 21
-482.8668861277732
 31
0.0
  0
LINE
  5
1B147
330
18
100
AcDbEntity
  8
01
  6
BYBLOCK
100
AcDbLine
 10
2595.208687200671
 20
-482.1702182337733
 30
0.0
 11
2597.808687200671
 21
-482.8668861277732
 31
0.0
  0
LINE
  5
1B148
330
18
100
AcDbEntity
  8
01
  6
BYBLOCK
100
AcDbLine
 10
2597.808687200671
 20
-482.8668861277732
 30
0.0
 11
2595.208687200671
 21
-483.5635540217732
 31
0.0
  0
LINE
  5
1B149
330
18
100
AcDbEntity
  8
01
  6
BYBLOCK
100
AcDbLine
 10
2597.808687200671
 20
-482.8668861277732
 30
0.0
 11
2595.208687200671
 21
-482.8668861277732
 31
0.0
  0
TEXT
  5
1B14A
330
18
100
AcDbEntity
  8
01
  6
CONTINUOUS
100
AcDbText
 10
2569.259555256227
 20
-481.9568861277733
 30
0.0
 40
4.55
  1
51
100
AcDbText
1001
ACAD
1000
DSTYLE
1002
{
1070
    40
1040
1.3
1070
    45
1040
0.5
1002
}
  0
LINE
  5
1B14B
330
18
100
AcDbEntity
  8
01
  6
BYBLOCK
100
AcDbLine
 10
2417.908803540416
 20
-483.5635540217734
 30
0.0
 11
2415.308803540416
 21
-482.8668861277735
 31
0.0
  0
LINE
  5
1B14C
330
18
100
AcDbEntity
  8
01
  6
BYBLOCK
100
AcDbLine
 10
2415.308803540416
 20
-482.8668861277735
 30
0.0
 11
2417.908803540416
 21
-482.1702182337735
 31
0.0
  0
LINE
  5
1B14D
330
18
100
AcDbEntity
  8
01
  6
BYBLOCK
100
AcDbLine
 10
2415.308803540416
 20
-482.8668861277735
 30
0.0
 11
2417.908803540416
 21
-482.8668861277735
 31
0.0
  0
LINE
  5
1B14E
330
18
100
AcDbEntity
  8
01
  6
BYBLOCK
100
AcDbLine
 10
2437.708803540416
 20
-482.1702182337735
 30
0.0
 11
2440.308803540416
 21
-482.8668861277735
 31
0.0
  0
LINE
  5
1B14F
330
18
100
AcDbEntity
  8
01
  6
BYBLOCK
100
AcDbLine
 10
2440.308803540416
 20
-482.8668861277735
 30
0.0
 11
2437.708803540416
 21
-483.5635540217734
 31
0.0
  0
LINE
  5
1B150
330
18
100
AcDbEntity
  8
01
  6
BYBLOCK
100
AcDbLine
 10
2440.308803540416
 20
-482.8668861277735
 30
0.0
 11
2437.708803540416
 21
-482.8668861277735
 31
0.0
  0
TEXT
  5
1B151
330
18
100
AcDbEntity
  8
01
  6
CONTINUOUS
100
AcDbText
 10
2424.017136873749
 20
-481.9568861277735
 30
0.0
 40
4.55
  1
25
100
AcDbText
1001
ACAD
1000
DSTYLE
1002
{
1070
    40
1040
1.3
1070
    45
1040
0.5
1002
}
  0
LINE
  5
1B152
330
18
100
AcDbEntity
  8
01
  6
BYBLOCK
100
AcDbLine
 10
2511.90020641786
 20
-536.8879330680454
 30
0.0
 11
2512.59687431186
 21
-534.2879330680454
 31
0.0
  0
LINE
  5
1B153
330
18
100
AcDbEntity
  8
01
  6
BYBLOCK
100
AcDbLine
 10
2512.59687431186
 20
-534.2879330680454
 30
0.0
 11
2513.293542205859
 21
-536.8879330680454
 31
0.0
  0
LINE
  5
1B154
330
18
100
AcDbEntity
  8
01
  6
BYBLOCK
100
AcDbLine
 10
2512.59687431186
 20
-534.2879330680454
 30
0.0
 11
2512.59687431186
 21
-536.8879330680454
 31
0.0
  0
LINE
  5
1B155
330
18
100
AcDbEntity
  8
01
  6
BYBLOCK
100
AcDbLine
 10
2513.293542205859
 20
-645.6879330680454
 30
0.0
 11
2512.59687431186
 21
-648.2879330680454
 31
0.0
  0
LINE
  5
1B156
330
18
100
AcDbEntity
  8
01
  6
BYBLOCK
100
AcDbLine
 10
2512.59687431186
 20
-648.2879330680454
 30
0.0
 11
2511.90020641786
 21
-645.6879330680454
 31
0.0
  0
LINE
  5
1B157
330
18
100
AcDbEntity
  8
01
  6
BYBLOCK
100
AcDbLine
 10
2512.59687431186
 20
-648.2879330680454
 30
0.0
 11
2512.59687431186
 21
-645.6879330680454
 31
0.0
  0
TEXT
  5
1B158
330
18
100
AcDbEntity
  8
01
  6
CONTINUOUS
100
AcDbText
 10
2511.68687431186
 20
-566.7049107201237
 30
0.0
 40
4.55
  1
114
 50
90.0
100
AcDbText
1001
ACAD
1000
DSTYLE
1002
{
1070
    40
1040
1.3
1070
    45
1040
0.5
1002
}
  0
LINE
  5
1B159
330
18
100
AcDbEntity
  8
01
  6
BYBLOCK
100
AcDbLine
 10
2521.264540584084
 20
-528.9883782124618
 30
0.0
 11
2521.961208478084
 21
-526.3883782124618
 31
0.0
  0
LINE
  5
1B15A
330
18
100
AcDbEntity
  8
01
  6
BYBLOCK
100
AcDbLine
 10
2521.961208478084
 20
-526.3883782124618
 30
0.0
 11
2522.657876372084
 21
-528.9883782124618
 31
0.0
  0
LINE
  5
1B15B
330
18
100
AcDbEntity
  8
01
  6
BYBLOCK
100
AcDbLine
 10
2521.961208478084
 20
-526.3883782124618
 30
0.0
 11
2521.961208478084
 21
-528.9883782124618
 31
0.0
  0
LINE
  5
1B15C
330
18
100
AcDbEntity
  8
01
  6
BYBLOCK
100
AcDbLine
 10
2522.657876372084
 20
-653.5879330680452
 30
0.0
 11
2521.961208478084
 21
-656.1879330680453
 31
0.0
  0
LINE
  5
1B15D
330
18
100
AcDbEntity
  8
01
  6
BYBLOCK
100
AcDbLine
 10
2521.961208478084
 20
-656.1879330680453
 30
0.0
 11
2521.264540584084
 21
-653.5879330680452
 31
0.0
  0
LINE
  5
1B15E
330
18
100
AcDbEntity
  8
01
  6
BYBLOCK
100
AcDbLine
 10
2521.961208478084
 20
-656.1879330680453
 30
0.0
 11
2521.961208478084
 21
-653.5879330680452
 31
0.0
  0
TEXT
  5
1B15F
330
18
100
AcDbEntity
  8
01
  6
CONTINUOUS
100
AcDbText
 10
2521.051208478084
 20
-567.4894747229314
 30
0.0
 40
4.55
  1
130
 50
90.0
100
AcDbText
1001
ACAD
1000
DSTYLE
1002
{
1070
    40
1040
1.3
1070
    45
1040
0.5
1002
}
  0
LINE
  5
1B160
330
18
100
AcDbEntity
  8
01
  6
BYBLOCK
100
AcDbLine
 10
2562.112019306671
 20
-586.3883782124587
 30
0.0
 11
2562.808687200671
 21
-583.7883782124587
 31
0.0
  0
LINE
  5
1B161
330
18
100
AcDbEntity
  8
01
  6
BYBLOCK
100
AcDbLine
 10
2562.808687200671
 20
-583.7883782124587
 30
0.0
 11
2563.505355094671
 21
-586.3883782124587
 31
0.0
  0
LINE
  5
1B162
330
18
100
AcDbEntity
  8
01
  6
BYBLOCK
100
AcDbLine
 10
2562.808687200671
 20
-583.7883782124587
 30
0.0
 11
2562.808687200671
 21
-586.3883782124587
 31
0.0
  0
LINE
  5
1B163
330
18
100
AcDbEntity
  8
01
  6
BYBLOCK
100
AcDbLine
 10
2563.505355094671
 20
-638.1883782124373
 30
0.0
 11
2562.808687200671
 21
-640.7883782124374
 31
0.0
  0
LINE
  5
1B164
330
18
100
AcDbEntity
  8
01
  6
BYBLOCK
100
AcDbLine
 10
2562.808687200671
 20
-640.7883782124374
 30
0.0
 11
2562.112019306671
 21
-638.1883782124373
 31
0.0
  0
LINE
  5
1B165
330
18
100
AcDbEntity
  8
01
  6
BYBLOCK
100
AcDbLine
 10
2562.808687200671
 20
-640.7883782124374
 30
0.0
 11
2562.808687200671
 21
-638.1883782124373
 31
0.0
  0
TEXT
  5
1B166
330
18
100
AcDbEntity
  8
01
  6
CONTINUOUS
100
AcDbText
 10
2561.898687200671
 20
-620.7722561190603
 30
0.0
 40
4.55
  1
φ57
 50
90.0
100
AcDbText
1001
ACAD
1000
DSTYLE
1002
{
1070
     3
1000
φ<>
1070
    40
1040
1.3
1070
    45
1040
0.5
1002
}
  0
SOLID
  5
1B167
330
18
100
AcDbEntity
  8
1DIM
100
AcDbTrace
 10
2595.178536555417
 20
-388.3391352674051
 30
0.0
 11
2597.549288440732
 21
-387.1870444393647
 31
0.0
 12
2595.680336385339
 22
-389.0457525908563
 32
0.0
 13
2595.680336385339
 23
-389.0457525908563
 33
0.0
1001
ACAD
1000
DSTYLE
1002
{
1070
    40
1040
1.3
1070
    45
1040
0.5
1002
}
  0
LINE
  5
1B168
330
18
100
AcDbEntity
  8
1DIM
100
AcDbLine
 10
2595.429436470378
 20
-388.6924439291307
 30
0.0
 11
2567.961848293689
 21
-408.1983782134899
 31
0.0
1001
ACAD
1000
DSTYLE
1002
{
1070
    40
1040
1.3
1070
    45
1040
0.5
1002
}
  0
LINE
  5
1B169
330
18
100
AcDbEntity
  8
1DIM
100
AcDbLine
 10
2614.209571382731
 20
-332.7883782134899
 30
0.0
 11
2634.769962142444
 21
-332.7883782134899
 31
0.0
1001
ACAD
1000
DSTYLE
1002
{
1070
    45
1040
0.5
1070
    40
1040
1.3
1002
}
  0
LINE
  5
1B16A
330
18
100
AcDbEntity
  8
1DIM
100
AcDbLine
 10
2615.809571382731
 20
-351.5883782134898
 30
0.0
 11
2634.769962142444
 21
-351.5883782134898
 31
0.0
1001
ACAD
1000
DSTYLE
1002
{
1070
    45
1040
0.5
1070
    40
1040
1.3
1002
}
  0
LINE
  5
1B16B
330
18
100
AcDbEntity
  8
1DIM
100
AcDbLine
 10
2633.469962142444
 20
-335.3883782134899
 30
0.0
 11
2633.469962142444
 21
-348.9883782134898
 31
0.0
1001
ACAD
1000
DSTYLE
1002
{
1070
    45
1040
0.5
1070
    40
1040
1.3
1002
}
  0
LINE
  5
1B16F
330
18
100
AcDbEntity
  8
1DIM
100
AcDbLine
 10
2597.808803540414
 20
-383.7883782134899
 30
0.0
 11
2597.808803540414
 21
-448.5883782134901
 31
0.0
1001
ACAD
1000
DSTYLE
1002
{
1070
    40
1040
1.3
1070
    45
1040
0.5
1070
   271
1070
     0
1002
}
  0
LINE
  5
1B170
330
18
100
AcDbEntity
  8
1DIM
100
AcDbLine
 10
2727.363218145099
 20
-409.4120693106155
 30
0.0
 11
2727.363218145099
 21
-448.5883782134901
 31
0.0
1001
ACAD
1000
DSTYLE
1002
{
1070
    40
1040
1.3
1070
    45
1040
0.5
1070
   271
1070
     0
1002
}
  0
LINE
  5
1B171
330
18
100
AcDbEntity
  8
1DIM
100
AcDbLine
 10
2600.408803540414
 20
-447.2883782134901
 30
0.0
 11
2724.763218145099
 21
-447.2883782134901
 31
0.0
1001
ACAD
1000
DSTYLE
1002
{
1070
    40
1040
1.3
1070
    45
1040
0.5
1070
   271
1070
     0
1002
}
  0
LINE
  5
1B175
330
18
100
AcDbEntity
  8
1DIM
100
AcDbLine
 10
2584.814055571972
 20
-372.2883254680586
 30
0.0
 11
2584.814055571972
 21
-458.5883782134899
 31
0.0
1001
ACAD
1000
DSTYLE
1002
{
1070
    40
1040
1.3
1070
    45
1040
0.5
1070
   271
1070
     0
1002
}
  0
LINE
  5
1B176
330
18
100
AcDbEntity
  8
1DIM
100
AcDbLine
 10
2727.363218145099
 20
-409.4120693106155
 30
0.0
 11
2727.363218145099
 21
-458.5883782134899
 31
0.0
1001
ACAD
1000
DSTYLE
1002
{
1070
    40
1040
1.3
1070
    45
1040
0.5
1070
   271
1070
     0
1002
}
  0
LINE
  5
1B177
330
18
100
AcDbEntity
  8
1DIM
100
AcDbLine
 10
2587.414055571972
 20
-457.2883782134899
 30
0.0
 11
2724.763218145099
 21
-457.2883782134899
 31
0.0
1001
ACAD
1000
DSTYLE
1002
{
1070
    40
1040
1.3
1070
    45
1040
0.5
1070
   271
1070
     0
1002
}
  0
LINE
  5
1B17B
330
18
100
AcDbEntity
  8
1DIM
100
AcDbLine
 10
2719.590893601571
 20
-400.4097920636835
 30
0.0
 11
2754.108803540414
 21
-400.4097920636835
 31
0.0
1001
ACAD
1000
DSTYLE
1002
{
1070
    40
1040
1.3
1070
    45
1040
0.5
1002
}
  0
LINE
  5
1B17C
330
18
100
AcDbEntity
  8
1DIM
100
AcDbLine
 10
2700.563951537762
 20
-362.2883782134899
 30
0.0
 11
2754.108803540414
 21
-362.2883782134899
 31
0.0
1001
ACAD
1000
DSTYLE
1002
{
1070
    40
1040
1.3
1070
    45
1040
0.5
1002
}
  0
LINE
  5
1B17D
330
18
100
AcDbEntity
  8
1DIM
100
AcDbLine
 10
2752.808803540414
 20
-397.8097920636835
 30
0.0
 11
2752.808803540414
 21
-364.8883782134899
 31
0.0
1001
ACAD
1000
DSTYLE
1002
{
1070
    40
1040
1.3
1070
    45
1040
0.5
1002
}
  0
LINE
  5
1B181
330
18
100
AcDbEntity
  8
1DIM
100
AcDbLine
 10
2719.186415735543
 20
-426.5825902749206
 30
0.0
 11
2764.108803540414
 21
-426.5825902749206
 31
0.0
1001
ACAD
1000
DSTYLE
1002
{
1070
    40
1040
1.3
1070
    45
1040
0.0
1070
   172
1070
     1
1070
   271
1070
     0
1070
   289
1070
     0
1002
}
  0
LINE
  5
1B182
330
18
100
AcDbEntity
  8
1DIM
100
AcDbLine
 10
2700.563951537762
 20
-362.2883782134899
 30
0.0
 11
2764.108803540414
 21
-362.2883782134899
 31
0.0
1001
ACAD
1000
DSTYLE
1002
{
1070
    40
1040
1.3
1070
    45
1040
0.0
1070
   172
1070
     1
1070
   271
1070
     0
1070
   289
1070
     0
1002
}
  0
LINE
  5
1B183
330
18
100
AcDbEntity
  8
1DIM
100
AcDbLine
 10
2762.808803540414
 20
-423.9825902749205
 30
0.0
 11
2762.808803540414
 21
-364.8883782134899
 31
0.0
1001
ACAD
1000
DSTYLE
1002
{
1070
    40
1040
1.3
1070
    45
1040
0.0
1070
   172
1070
     1
1070
   271
1070
     0
1070
   289
1070
     0
1002
}
  0
LINE
  5
1B187
330
18
100
AcDbEntity
  8
1DIM
100
AcDbLine
 10
2719.590581898536
 20
-625.2014967938964
 30
0.0
 11
2754.108687200671
 21
-625.2014967938964
 31
0.0
1001
ACAD
1000
DSTYLE
1002
{
1070
    40
1040
1.3
1070
    45
1040
0.5
1002
}
  0
LINE
  5
1B188
330
18
100
AcDbEntity
  8
1DIM
100
AcDbLine
 10
2719.590581898537
 20
-599.3752596310259
 30
0.0
 11
2754.108687200671
 21
-599.3752596310259
 31
0.0
1001
ACAD
1000
DSTYLE
1002
{
1070
    40
1040
1.3
1070
    45
1040
0.5
1002
}
  0
LINE
  5
1B189
330
18
100
AcDbEntity
  8
1DIM
100
AcDbLine
 10
2752.808687200671
 20
-622.6014967938963
 30
0.0
 11
2752.808687200671
 21
-601.9752596310259
 31
0.0
1001
ACAD
1000
DSTYLE
1002
{
1070
    40
1040
1.3
1070
    45
1040
0.5
1002
}
  0
LINE
  5
1B18D
330
18
100
AcDbEntity
  8
0
  6
BYBLOCK
100
AcDbLine
 10
2632.773294248444
 20
-335.3883782134899
 30
0.0
 11
2633.469962142444
 21
-332.7883782134899
 31
0.0
  0
LINE
  5
1B18E
330
18
100
AcDbEntity
  8
0
  6
BYBLOCK
100
AcDbLine
 10
2633.469962142444
 20
-332.7883782134899
 30
0.0
 11
2634.166630036444
 21
-335.3883782134899
 31
0.0
  0
LINE
  5
1B18F
330
18
100
AcDbEntity
  8
0
  6
BYBLOCK
100
AcDbLine
 10
2633.469962142444
 20
-332.7883782134899
 30
0.0
 11
2633.469962142444
 21
-335.3883782134899
 31
0.0
  0
LINE
  5
1B190
330
18
100
AcDbEntity
  8
0
  6
BYBLOCK
100
AcDbLine
 10
2634.166630036444
 20
-348.9883782134898
 30
0.0
 11
2633.469962142444
 21
-351.5883782134898
 31
0.0
  0
LINE
  5
1B191
330
18
100
AcDbEntity
  8
0
  6
BYBLOCK
100
AcDbLine
 10
2633.469962142444
 20
-351.5883782134898
 30
0.0
 11
2632.773294248444
 21
-348.9883782134898
 31
0.0
  0
LINE
  5
1B192
330
18
100
AcDbEntity
  8
0
  6
BYBLOCK
100
AcDbLine
 10
2633.469962142444
 20
-351.5883782134898
 30
0.0
 11
2633.469962142444
 21
-348.9883782134898
 31
0.0
  0
TEXT
  5
1B193
330
18
100
AcDbEntity
  8
1DIM
  6
CONTINUOUS
100
AcDbText
 10
2632.559962142444
 20
-345.2227647875643
 30
0.0
 40
4.55
  1
19
 50
90.0
100
AcDbText
1001
ACAD
1000
DSTYLE
1002
{
1070
    45
1040
0.5
1070
    40
1040
1.3
1002
}
  0
LINE
  5
1B194
330
18
100
AcDbEntity
  8
0
  6
BYBLOCK
100
AcDbLine
 10
2600.408803540414
 20
-447.9850461074901
 30
0.0
 11
2597.808803540414
 21
-447.2883782134901
 31
0.0
  0
LINE
  5
1B195
330
18
100
AcDbEntity
  8
0
  6
BYBLOCK
100
AcDbLine
 10
2597.808803540414
 20
-447.2883782134901
 30
0.0
 11
2600.408803540414
 21
-446.5917103194901
 31
0.0
  0
LINE
  5
1B196
330
18
100
AcDbEntity
  8
0
  6
BYBLOCK
100
AcDbLine
 10
2597.808803540414
 20
-447.2883782134901
 30
0.0
 11
2600.408803540414
 21
-447.2883782134901
 31
0.0
  0
LINE
  5
1B197
330
18
100
AcDbEntity
  8
0
  6
BYBLOCK
100
AcDbLine
 10
2724.763218145099
 20
-446.5917103194901
 30
0.0
 11
2727.363218145099
 21
-447.2883782134901
 31
0.0
  0
LINE
  5
1B198
330
18
100
AcDbEntity
  8
0
  6
BYBLOCK
100
AcDbLine
 10
2727.363218145099
 20
-447.2883782134901
 30
0.0
 11
2724.763218145099
 21
-447.9850461074901
 31
0.0
  0
LINE
  5
1B199
330
18
100
AcDbEntity
  8
0
  6
BYBLOCK
100
AcDbLine
 10
2727.363218145099
 20
-447.2883782134901
 30
0.0
 11
2724.763218145099
 21
-447.2883782134901
 31
0.0
  0
TEXT
  5
1B19A
330
18
100
AcDbEntity
  8
1DIM
  6
CONTINUOUS
100
AcDbText
 10
2657.562052509423
 20
-446.3783782134901
 30
0.0
 40
4.55
  1
130
100
AcDbText
1001
ACAD
1000
DSTYLE
1002
{
1070
    40
1040
1.3
1070
    45
1040
0.5
1070
   271
1070
     0
1002
}
  0
LINE
  5
1B19B
330
18
100
AcDbEntity
  8
0
  6
BYBLOCK
100
AcDbLine
 10
2587.414055571972
 20
-457.9850461074898
 30
0.0
 11
2584.814055571972
 21
-457.2883782134899
 31
0.0
  0
LINE
  5
1B19C
330
18
100
AcDbEntity
  8
0
  6
BYBLOCK
100
AcDbLine
 10
2584.814055571972
 20
-457.2883782134899
 30
0.0
 11
2587.414055571972
 21
-456.5917103194899
 31
0.0
  0
LINE
  5
1B19D
330
18
100
AcDbEntity
  8
0
  6
BYBLOCK
100
AcDbLine
 10
2584.814055571972
 20
-457.2883782134899
 30
0.0
 11
2587.414055571972
 21
-457.2883782134899
 31
0.0
  0
LINE
  5
1B19E
330
18
100
AcDbEntity
  8
0
  6
BYBLOCK
100
AcDbLine
 10
2724.763218145099
 20
-456.5917103194899
 30
0.0
 11
2727.363218145099
 21
-457.2883782134899
 31
0.0
  0
LINE
  5
1B19F
330
18
100
AcDbEntity
  8
0
  6
BYBLOCK
100
AcDbLine
 10
2727.363218145099
 20
-457.2883782134899
 30
0.0
 11
2724.763218145099
 21
-457.9850461074898
 31
0.0
  0
LINE
  5
1B1A0
330
18
100
AcDbEntity
  8
0
  6
BYBLOCK
100
AcDbLine
 10
2727.363218145099
 20
-457.2883782134899
 30
0.0
 11
2724.763218145099
 21
-457.2883782134899
 31
0.0
  0
TEXT
  5
1B1A1
330
18
100
AcDbEntity
  8
1DIM
  6
CONTINUOUS
100
AcDbText
 10
2650.780303525202
 20
-456.3783782134899
 30
0.0
 40
4.55
  1
143
100
AcDbText
1001
ACAD
1000
DSTYLE
1002
{
1070
    40
1040
1.3
1070
    45
1040
0.5
1070
   271
1070
     0
1002
}
  0
LINE
  5
1B1A2
330
18
100
AcDbEntity
  8
0
  6
BYBLOCK
100
AcDbLine
 10
2753.505471434414
 20
-397.8097920636835
 30
0.0
 11
2752.808803540414
 21
-400.4097920636835
 31
0.0
  0
LINE
  5
1B1A3
330
18
100
AcDbEntity
  8
0
  6
BYBLOCK
100
AcDbLine
 10
2752.808803540414
 20
-400.4097920636835
 30
0.0
 11
2752.112135646414
 21
-397.8097920636835
 31
0.0
  0
LINE
  5
1B1A4
330
18
100
AcDbEntity
  8
0
  6
BYBLOCK
100
AcDbLine
 10
2752.808803540414
 20
-400.4097920636835
 30
0.0
 11
2752.808803540414
 21
-397.8097920636835
 31
0.0
  0
LINE
  5
1B1A5
330
18
100
AcDbEntity
  8
0
  6
BYBLOCK
100
AcDbLine
 10
2752.112135646414
 20
-364.8883782134899
 30
0.0
 11
2752.808803540414
 21
-362.2883782134899
 31
0.0
  0
LINE
  5
1B1A6
330
18
100
AcDbEntity
  8
0
  6
BYBLOCK
100
AcDbLine
 10
2752.808803540414
 20
-362.2883782134899
 30
0.0
 11
2753.505471434414
 21
-364.8883782134899
 31
0.0
  0
LINE
  5
1B1A7
330
18
100
AcDbEntity
  8
0
  6
BYBLOCK
100
AcDbLine
 10
2752.808803540414
 20
-362.2883782134899
 30
0.0
 11
2752.808803540414
 21
-364.8883782134899
 31
0.0
  0
TEXT
  5
1B1A8
330
18
100
AcDbEntity
  8
1DIM
  6
CONTINUOUS
100
AcDbText
 10
2751.898803540414
 20
-385.1407518052533
 30
0.0
 40
4.55
  1
38
 50
90.0
100
AcDbText
1001
ACAD
1000
DSTYLE
1002
{
1070
    40
1040
1.3
1070
    45
1040
0.5
1002
}
  0
LINE
  5
1B1A9
330
18
100
AcDbEntity
  8
0
  6
BYBLOCK
100
AcDbLine
 10
2763.505471434414
 20
-423.9825902749205
 30
0.0
 11
2762.808803540414
 21
-426.5825902749206
 31
0.0
  0
LINE
  5
1B1AA
330
18
100
AcDbEntity
  8
0
  6
BYBLOCK
100
AcDbLine
 10
2762.808803540414
 20
-426.5825902749206
 30
0.0
 11
2762.112135646414
 21
-423.9825902749205
 31
0.0
  0
LINE
  5
1B1AB
330
18
100
AcDbEntity
  8
0
  6
BYBLOCK
100
AcDbLine
 10
2762.808803540414
 20
-426.5825902749206
 30
0.0
 11
2762.808803540414
 21
-423.9825902749205
 31
0.0
  0
LINE
  5
1B1AC
330
18
100
AcDbEntity
  8
0
  6
BYBLOCK
100
AcDbLine
 10
2762.112135646414
 20
-364.8883782134899
 30
0.0
 11
2762.808803540414
 21
-362.2883782134899
 31
0.0
  0
LINE
  5
1B1AD
330
18
100
AcDbEntity
  8
0
  6
BYBLOCK
100
AcDbLine
 10
2762.808803540414
 20
-362.2883782134899
 30
0.0
 11
2763.505471434414
 21
-364.8883782134899
 31
0.0
  0
LINE
  5
1B1AE
330
18
100
AcDbEntity
  8
0
  6
BYBLOCK
100
AcDbLine
 10
2762.808803540414
 20
-362.2883782134899
 30
0.0
 11
2762.808803540414
 21
-364.8883782134899
 31
0.0
  0
TEXT
  5
1B1AF
330
18
100
AcDbEntity
  8
1DIM
  6
CONTINUOUS
100
AcDbText
 10
2761.898803540414
 20
-398.2429495219831
 30
0.0
 40
4.55
  1
64
 50
90.0
100
AcDbText
1001
ACAD
1000
DSTYLE
1002
{
1070
    40
1040
1.3
1070
    45
1040
0.0
1070
   172
1070
     1
1070
   271
1070
     0
1070
   289
1070
     0
1002
}
  0
LINE
  5
1B1B0
330
18
100
AcDbEntity
  8
0
  6
BYBLOCK
100
AcDbLine
 10
2753.505355094671
 20
-622.6014967938963
 30
0.0
 11
2752.808687200671
 21
-625.2014967938964
 31
0.0
  0
LINE
  5
1B1B1
330
18
100
AcDbEntity
  8
0
  6
BYBLOCK
100
AcDbLine
 10
2752.808687200671
 20
-625.2014967938964
 30
0.0
 11
2752.112019306671
 21
-622.6014967938963
 31
0.0
  0
LINE
  5
1B1B2
330
18
100
AcDbEntity
  8
0
  6
BYBLOCK
100
AcDbLine
 10
2752.808687200671
 20
-625.2014967938964
 30
0.0
 11
2752.808687200671
 21
-622.6014967938963
 31
0.0
  0
LINE
  5
1B1B3
330
18
100
AcDbEntity
  8
0
  6
BYBLOCK
100
AcDbLine
 10
2752.112019306671
 20
-601.9752596310259
 30
0.0
 11
2752.808687200671
 21
-599.3752596310259
 31
0.0
  0
LINE
  5
1B1B4
330
18
100
AcDbEntity
  8
0
  6
BYBLOCK
100
AcDbLine
 10
2752.808687200671
 20
-599.3752596310259
 30
0.0
 11
2753.505355094671
 21
-601.9752596310259
 31
0.0
  0
LINE
  5
1B1B5
330
18
100
AcDbEntity
  8
0
  6
BYBLOCK
100
AcDbLine
 10
2752.808687200671
 20
-599.3752596310259
 30
0.0
 11
2752.808687200671
 21
-601.9752596310259
 31
0.0
  0
TEXT
  5
1B1B6
330
18
100
AcDbEntity
  8
1DIM
  6
CONTINUOUS
100
AcDbText
 10
2751.898687200671
 20
-616.0800448791274
 30
0.0
 40
4.55
  1
26
 50
90.0
100
AcDbText
1001
ACAD
1000
DSTYLE
1002
{
1070
    40
1040
1.3
1070
    45
1040
0.5
1002
}
  0
VIEWPORT
  5
57
330
15
100
AcDbEntity
 67
     1
  8
0
100
AcDbViewport
 68
     1
 10
0.0
 20
0.0
 30
0.0
 40
663.4332925336597
 41
297.0
 68
     1
 69
     1
1001
ACAD
1000
MVIEW
1002
{
1070
    16
1010
0.0
1020
0.0
1030
0.0
1010
0.0
1020
0.0
1030
1.0
1040
0.0
1040
297.0
1040
-4.171999999925333
1040
12.83903210976956
1040
50.0
1040
0.0
1040
0.0
1070
    16
1070
   100
1070
     0
1070
     1
1070
     0
1070
     0
1070
     0
1070
     0
1040
0.0
1040
0.0
1040
0.0
1040
10.0
1040
10.0
1040
10.0
1040
10.0
1070
     0
1002
{
1002
}
1002
}
  0
ENDSEC
  0
SECTION
  2
OBJECTS
  0
DICTIONARY
  5
C
330
0
100
AcDbDictionary
  3
ACAD_COLOR
350
18D
  3
ACAD_GROUP
350
D
  3
ACAD_LAYOUT
350
18E
  3
ACAD_MATERIAL
350
18C
  3
ACAD_MLEADERSTYLE
350
D9E7
  3
ACAD_MLINESTYLE
350
1B
  3
ACAD_PLOTSETTINGS
350
18F
  3
ACAD_SCALELIST
350
D9C5
  3
ACAD_VISUALSTYLE
350
D9B4
  3
ACDBHEADERROUNDTRIPXREC
350
1B1B7
  3
ACDBVARIABLEDICTIONARY
350
37
  3
CONTENTDICTIONARY
350
D8
  3
DRAWINGVARIABLESDICT
350
20
  3
DWGPROPS
350
1B1BA
1001
ACAD
1000
TREAT_AS_HARD
1070
     0
  0
DICTIONARY
  5
E6A6
330
2
100
AcDbDictionary
  3
ACAD_LAYERSTATES
360
E6A7
1001
ACAD
1000
TREAT_AS_HARD
1070
     1
  0
DICTIONARY
  5
DA05
330
E
100
AcDbDictionary
  3
ADSK_XREC_LAYER_RECONCILED
360
DA06
1001
ACAD
1000
TREAT_AS_HARD
1070
     1
  0
DICTIONARY
  5
DA07
330
29
100
AcDbDictionary
  3
ADSK_XREC_LAYER_RECONCILED
360
DA08
1001
ACAD
1000
TREAT_AS_HARD
1070
     1
  0
DICTIONARY
  5
DA09
330
31
100
AcDbDictionary
  3
ADSK_XREC_LAYER_RECONCILED
360
DA0A
1001
ACAD
1000
TREAT_AS_HARD
1070
     1
  0
DICTIONARY
  5
DA0F
330
243
100
AcDbDictionary
  3
ADSK_XREC_LAYER_RECONCILED
360
DA10
1001
ACAD
1000
TREAT_AS_HARD
1070
     1
  0
DICTIONARY
  5
DA15
330
24E
100
AcDbDictionary
  3
ADSK_XREC_LAYER_RECONCILED
360
DA16
1001
ACAD
1000
TREAT_AS_HARD
1070
     1
  0
DICTIONARY
  5
88F
330
18
100
AcDbDictionary
  3
ACAD_SORTENTS
360
890
1001
ACAD
1000
TREAT_AS_HARD
1070
     1
  0
DICTIONARY
  5
18D
102
{ACAD_REACTORS
330
C
102
}
330
C
100
AcDbDictionary
1001
ACAD
1000
TREAT_AS_HARD
1070
     0
  0
DICTIONARY
  5
D
102
{ACAD_REACTORS
330
C
102
}
330
C
100
AcDbDictionary
1001
ACAD
1000
TREAT_AS_HARD
1070
     0
  0
DICTIONARY
  5
18E
102
{ACAD_REACTORS
330
C
102
}
330
C
100
AcDbDictionary
1001
ACAD
1000
TREAT_AS_HARD
1070
     0
  0
DICTIONARY
  5
18C
102
{ACAD_REACTORS
330
C
102
}
330
C
100
AcDbDictionary
  3
BYBLOCK
350
D9A4
  3
BYLAYER
350
D99C
  3
GLOBAL
350
D9AC
1001
ACAD
1000
TREAT_AS_HARD
1070
     0
  0
DICTIONARY
  5
D9E7
102
{ACAD_REACTORS
330
C
102
}
330
C
100
AcDbDictionary
  3
STANDARD
350
D9E8
1001
ACAD
1000
TREAT_AS_HARD
1070
     0
  0
DICTIONARY
  5
1B
102
{ACAD_REACTORS
330
C
102
}
330
C
100
AcDbDictionary
  3
STANDARD
350
1C
1001
ACAD
1000
TREAT_AS_HARD
1070
     0
  0
DICTIONARY
  5
18F
102
{ACAD_REACTORS
330
C
102
}
330
C
100
AcDbDictionary
1001
ACAD
1000
TREAT_AS_HARD
1070
     0
  0
DICTIONARY
  5
D9C5
102
{ACAD_REACTORS
330
C
102
}
330
C
100
AcDbDictionary
  3
A0
350
D9C6
  3
A1
350
D9C7
  3
A2
350
D9C8
  3
A3
350
D9C9
  3
A4
350
D9CA
  3
A5
350
D9CB
  3
A6
350
D9CC
  3
A7
350
D9CD
  3
A8
350
D9CE
  3
A9
350
D9CF
  3
B0
350
D9D0
  3
B1
350
D9D1
  3
B2
350
D9D2
  3
B3
350
D9D3
  3
B4
350
D9D4
  3
B5
350
D9D5
  3
B6
350
D9D6
  3
B7
350
D9D7
  3
B8
350
D9D8
  3
B9
350
D9D9
  3
C0
350
D9DA
  3
C1
350
D9DB
  3
C2
350
D9DC
  3
C3
350
D9DD
  3
C4
350
D9DE
  3
C5
350
D9DF
  3
C6
350
D9E0
  3
C7
350
D9E1
  3
C8
350
D9E2
  3
C9
350
D9E3
  3
D0
350
D9E4
  3
D1
350
D9E5
  3
D2
350
D9E6
1001
ACAD
1000
TREAT_AS_HARD
1070
     0
  0
DICTIONARY
  5
D9B4
102
{ACAD_REACTORS
330
C
102
}
330
C
100
AcDbDictionary
  3
2DWIREFRAME
350
D9BA
  3
3D_HIDDEN
350
D9BC
  3
3DWIREFRAME
350
D9BB
  3
BASIC
350
D9B9
  3
BRIGHTEN
350
D9C0
  3
COLORCHANGE
350
D9C4
  3
CONCEPTUAL
350
D9BD
  3
DIM
350
D9BF
  3
EDGECOLOROFF
350
19C2F
  3
FACEPATTERN
350
D9C3
  3
FLAT
350
D9B5
  3
FLATWITHEDGES
350
D9B6
  3
GOURAUD
350
D9B7
  3
GOURAUDWITHEDGES
350
D9B8
  3
HIDDEN
350
19C7E
  3
JITTEROFF
350
19C2D
  3
LINEPATTERN
350
D9C2
  3
MODELING
350
19C84
  3
OVERHANGOFF
350
19C2E
  3
REALISTIC
350
D9BE
  3
SHADED
350
19C83
  3
SHADED_WITH_EDGES
350
19C82
  3
SHADES_OF_GRAY
350
19C7F
  3
SKETCHY
350
19C80
  3
THICKEN
350
D9C1
  3
WIREFRAME
350
19C7D
  3
X-RAY
350
19C81
1001
ACAD
1000
TREAT_AS_HARD
1070
     0
  0
DICTIONARY
  5
1B1B7
102
{ACAD_REACTORS
330
C
102
}
330
C
100
AcDbDictionary
  3
COLORDICT
350
1B1B8
  3
MATERIALDICT
350
1B1B9
1001
ACAD
1000
TREAT_AS_HARD
1070
     0
  0
DICTIONARY
  5
37
102
{ACAD_REACTORS
330
C
102
}
330
C
100
AcDbDictionary
  3
CANNOSCALE
350
1A68D
  3
CMLEADERSTYLE
350
DA6A
  3
CTABLESTYLE
350
29E
  3
DIMADEC
350
38
  3
DIMASSOC
350
1CE
  3
HIDETEXT
350
704E
  3
INDEXCTL
350
DA6D
  3
INTERSECTIONCOLOR
350
7052
  3
INTERSECTIONDISPLAY
350
7051
  3
MSLTSCALE
350
1A6DD
  3
OBSCOLOR
350
704F
  3
OBSLTYPE
350
7050
  3
PROJECTNAME
350
1CF
  3
SORTENTS
350
DA6C
  3
XCLIPFRAME
350
19C7C
1001
ACAD
1000
TREAT_AS_HARD
1070
     0
  0
DICTIONARY
  5
D8
102
{ACAD_REACTORS
330
C
102
}
330
C
100
AcDbDictionary
1001
ACAD
1000
TREAT_AS_HARD
1070
     0
  0
DICTIONARY
  5
20
102
{ACAD_REACTORS
330
C
102
}
330
C
100
AcDbDictionary
1001
DRAWINGVARIABLESXDATA
1000
POLARANG
1000
0.261799387799149410000000
1000
POLARMODE
1000
1
1000
POLARSTYLE
1000
1
1001
ACAD
1000
TREAT_AS_HARD
1070
     0
  0
XRECORD
  5
1B1BA
102
{ACAD_REACTORS
330
C
102
}
330
C
100
AcDbXrecord
  1
DWGPROPS COOKIE
  2

  3

  4

  6

  7

  8
3684
  9

300
=
301
=
302
=
303
=
304
=
305
=
306
=
307
=
308
=
309
=
 40
0.0
 41
2451318.246352917
 42
2458150.254851829
  1

 90
        0
  0
DICTIONARY
  5
E6A7
102
{ACAD_REACTORS
330
E6A6
102
}
330
E6A6
100
AcDbDictionary
1001
ACAD
1000
TREAT_AS_HARD
1070
     0
  0
ACAD_PROXY_OBJECT
  5
DA06
102
{ACAD_REACTORS
330
DA05
102
}
330
DA05
100
AcDbZombieObject
 90
      499
 91
      514
 93
       34
310
40C8804040
  0
ACAD_PROXY_OBJECT
  5
DA08
102
{ACAD_REACTORS
330
DA07
102
}
330
DA07
100
AcDbZombieObject
 90
      499
 91
      514
 93
       34
310
40C8804040
  0
ACAD_PROXY_OBJECT
  5
DA0A
102
{ACAD_REACTORS
330
DA09
102
}
330
DA09
100
AcDbZombieObject
 90
      499
 91
      514
 93
       34
310
40C8804040
  0
ACAD_PROXY_OBJECT
  5
DA10
102
{ACAD_REACTORS
330
DA0F
102
}
330
DA0F
100
AcDbZombieObject
 90
      499
 91
      514
 93
       34
310
40C8804040
  0
ACAD_PROXY_OBJECT
  5
DA16
102
{ACAD_REACTORS
330
DA15
102
}
330
DA15
100
AcDbZombieObject
 90
      499
 91
      514
 93
       34
310
40C8804040
  0
SORTENTSTABLE
  5
890
102
{ACAD_REACTORS
330
88F
102
}
330
88F
100
AcDbSortentsTable
330
18
331
0
  5
5BFF
331
0
  5
1AD06
331
1AD05
  5
1AD1F
331
1AD06
  5
1AD20
331
1AD07
  5
1AD21
331
1AD0B
  5
1AD43
331
1AD0C
  5
1AD44
331
1AD0D
  5
1AD45
331
1AD0E
  5
1AD46
331
1AD0F
  5
1AD47
331
1AD10
  5
1AD48
331
1AD11
  5
1AD49
331
1AD12
  5
1AD4A
331
1AD13
  5
1AD4B
331
1AD14
  5
1AD4C
331
1AD15
  5
1AD4D
331
1AD16
  5
1AD4E
331
1AD17
  5
1AD4F
331
1AD18
  5
1AD50
331
1AD19
  5
1AD51
331
1AD1A
  5
1AD52
331
1AD1B
  5
1AD53
331
1AD1C
  5
1AD54
331
1AD1D
  5
1AD55
331
1AD1E
  5
1AD56
331
1AD1F
  5
1AD57
331
1AD20
  5
1AD58
331
1AD21
  5
1AD59
331
1AD22
  5
1AD5A
331
1AD23
  5
1AD5B
331
1AD24
  5
1AD5C
331
1AD25
  5
1AD5D
331
1AD26
  5
1AD5E
331
1AD27
  5
1AD5F
331
1AD28
  5
1AD60
331
1AD29
  5
1AD61
331
1AD2A
  5
1AD62
331
1AD2B
  5
1AD63
331
1AD2C
  5
1AD64
331
1AD2D
  5
1AD65
331
1AD2E
  5
1AD66
331
1AD2F
  5
1AD67
331
1AD30
  5
1AD68
331
1AD31
  5
1AD69
331
1AD32
  5
1AD6A
331
1AD33
  5
1AD6B
331
1AD34
  5
1AD6C
331
1AD35
  5
1AD6D
331
1AD36
  5
1AD6E
331
1AD37
  5
1AD6F
331
1AD38
  5
1AD70
331
1AD39
  5
1AD71
331
1AD3A
  5
1AD72
331
1AD3B
  5
1AD74
331
1AD3C
  5
1AD75
331
1AD3D
  5
1AD76
331
1AD3E
  5
1AD77
331
1AD3F
  5
1AD78
331
1AD40
  5
1AD79
331
1AD41
  5
1AD7A
331
1AD42
  5
1AD7B
331
1AD43
  5
1AD7C
331
1AD44
  5
1AD7D
331
1AD45
  5
1AD7E
331
1AD46
  5
1AD7F
331
1AD47
  5
1AD80
331
1AD48
  5
1AD82
331
1AD49
  5
1AD83
331
0
  5
1AD81
331
1AD4B
  5
1AD94
331
1AD4C
  5
1AD95
331
1AD4D
  5
1AD96
331
1AD4E
  5
1AD97
331
1AD4F
  5
1AD98
331
1AD50
  5
1AD99
331
1AD51
  5
1AD9A
331
1AD52
  5
1AD9B
331
1AD53
  5
1AD9C
331
1AD54
  5
1AD9D
331
1AD55
  5
1AD9E
331
1AD56
  5
1AD9F
331
1AD57
  5
1ADA0
331
1AD58
  5
1ADA1
331
1AD59
  5
1ADA2
331
1AD5A
  5
1ADA3
331
1AD5B
  5
1ADA4
331
1AD5C
  5
1ADA5
331
1AD5D
  5
1ADA6
331
1AD5E
  5
1ADA7
331
1AD5F
  5
1ADA8
331
1AD60
  5
1ADA9
331
1AD61
  5
1ADAA
331
1AD62
  5
1ADAB
331
1AD63
  5
1ADAC
331
1AD64
  5
1ADAD
331
1AD65
  5
1ADAE
331
1AD66
  5
1ADAF
331
1AD67
  5
1ADB2
331
1AD68
  5
1ADB3
331
1AD69
  5
1ADB4
331
1AD6A
  5
1ADB5
331
1AD6B
  5
1ADB6
331
1AD6C
  5
1ADB7
331
1AD6D
  5
1ADB8
331
1AD6E
  5
1ADB9
331
1AD6F
  5
1ADBA
331
1AD70
  5
1ADBB
331
1AD71
  5
1ADBC
331
1AD72
  5
1ADBD
331
1AD74
  5
1ADC9
331
1AD75
  5
1ADCA
331
1AD76
  5
1ADCB
331
1AD77
  5
1ADCC
331
1AD78
  5
1ADCD
331
1AD79
  5
1ADCE
331
1AD7A
  5
1ADCF
331
1AD7B
  5
1ADD0
331
1AD7C
  5
1ADD1
331
1AD7D
  5
1ADD2
331
1AD7E
  5
1ADD3
331
1AD7F
  5
1ADD4
331
1AD80
  5
1ADD5
331
1AD81
  5
1ADD9
331
1AD82
  5
1ADDA
331
1AD83
  5
1ADDB
331
1AD84
  5
1ADDF
331
1AD85
  5
1ADE0
331
1AD86
  5
1ADE1
331
1AD87
  5
1ADE2
331
1AD88
  5
1ADE3
331
1AD89
  5
1ADE4
331
1AD8A
  5
1ADE5
331
1AD8B
  5
1ADE6
331
1AD8C
  5
1ADE7
331
1AD8D
  5
1ADE8
331
1AD8E
  5
1ADE9
331
1AD8F
  5
1ADEA
331
1AD90
  5
1ADEB
331
1AD91
  5
1ADEC
331
1AD92
  5
1ADED
331
1AD93
  5
1ADEE
331
1AD94
  5
1ADF2
331
1AD95
  5
1ADF3
331
1AD96
  5
1ADF4
331
1AD97
  5
1ADF5
331
1AD98
  5
1ADF6
331
1AD99
  5
1ADF7
331
1AD9A
  5
1ADF8
331
1AD9B
  5
1ADF9
331
1AD9C
  5
1ADFA
331
1AD9D
  5
1ADFB
331
1AD9E
  5
1ADFC
331
1AD9F
  5
1ADFD
331
1ADA0
  5
1ADFE
331
1ADA1
  5
1ADFF
331
1ADA2
  5
1AE00
331
1ADA3
  5
1AE01
331
1ADA4
  5
1AE02
331
1ADA5
  5
1AE03
331
1ADA6
  5
1AE04
331
1ADA7
  5
1AE05
331
1ADA8
  5
1AE06
331
1ADA9
  5
1AE07
331
1ADAA
  5
1AE08
331
1ADAB
  5
1AE09
331
1ADAC
  5
1AE0A
331
1ADAD
  5
1AE0B
331
1ADAE
  5
1AE0C
331
1ADAF
  5
1AE0D
331
1ADB2
  5
1AE22
331
1ADB3
  5
1AE23
331
1ADB4
  5
1AE24
331
1ADB5
  5
1AE25
331
1ADB6
  5
1AE26
331
1ADB7
  5
1AE27
331
1ADB8
  5
1AE28
331
1ADB9
  5
1AE29
331
1ADBA
  5
1AE2A
331
1ADBB
  5
1AE2B
331
1ADBC
  5
1AE2C
331
1ADBD
  5
1AE32
331
1ADBE
  5
1AE33
331
1ADC0
  5
1AE41
331
1ADC1
  5
1AE42
331
1ADC2
  5
1AE46
331
0
  5
1AE2D
331
0
  5
1AE2E
331
0
  5
1AE2F
331
0
  5
1AE30
331
0
  5
1AE31
331
1ADC8
  5
1AE82
331
1ADC9
  5
1AE83
331
1ADCA
  5
1AE84
331
1ADCB
  5
1AE85
331
1ADCC
  5
1AE86
331
1ADCD
  5
1AE87
331
1ADCE
  5
1AE88
331
1ADCF
  5
1AE89
331
1ADD0
  5
1AE8A
331
1ADD1
  5
1AE8B
331
1ADD2
  5
1AE8C
331
1ADD3
  5
1AE8D
331
1ADD4
  5
1AE8E
331
1ADD5
  5
1AE8F
331
1ADD6
  5
1AE90
331
1ADD7
  5
1AE91
331
1ADD8
  5
1AE92
331
1ADD9
  5
1AE93
331
1ADDA
  5
1AE94
331
1ADDB
  5
1AE95
331
1ADDC
  5
1AE96
331
1ADDD
  5
1AE97
331
1ADDE
  5
1AE98
331
1ADDF
  5
1AE99
331
1ADE0
  5
1AE9A
331
1ADE1
  5
1AE9B
331
1ADE2
  5
1AE9C
331
1ADE3
  5
1AE9D
331
1ADE4
  5
1AE9E
331
1ADE5
  5
1AE9F
331
1ADE6
  5
1AEA0
331
1ADE7
  5
1AEA1
331
1ADE8
  5
1AEA2
331
1ADE9
  5
1AEA3
331
1ADEA
  5
1AEA4
331
1ADEB
  5
1AEA5
331
1ADEC
  5
1AEA6
331
1ADED
  5
1AEA7
331
1ADEE
  5
1AEA8
331
1ADEF
  5
1AEA9
331
1ADF0
  5
1AEAA
331
1ADF1
  5
1AEAB
331
1ADF2
  5
1AEAC
331
1ADF3
  5
1AEAD
331
1ADF4
  5
1AEAE
331
1ADF5
  5
1AEAF
331
1ADF6
  5
1AEB0
331
1ADF7
  5
1AEB1
331
1ADF8
  5
1AEB2
331
1ADF9
  5
1AEB3
331
1ADFA
  5
1AEB4
331
1ADFB
  5
1AEB5
331
1ADFC
  5
1AEB6
331
1ADFD
  5
1AEB7
331
1ADFE
  5
1AEB8
331
1ADFF
  5
1AEB9
331
1AE00
  5
1AEBA
331
1AE01
  5
1AEBB
331
1AE02
  5
1AEBC
331
1AE03
  5
1AEBD
331
1AE04
  5
1AEBE
331
1AE05
  5
1AEBF
331
1AE06
  5
1AEC0
331
1AE07
  5
1AEC1
331
1AE08
  5
1AEC2
331
1AE09
  5
1AEC3
331
1AE0A
  5
1AEC4
331
1AE0B
  5
1AEC5
331
1AE0C
  5
1AEC6
331
1AE0D
  5
1AEC7
331
1AE0E
  5
1AEC8
331
1AE0F
  5
1AEC9
331
1AE10
  5
1AECA
331
1AE11
  5
1AECB
331
1AE12
  5
1AECC
331
1AE13
  5
1AECD
331
1AE14
  5
1AECE
331
1AE15
  5
1AECF
331
1AE16
  5
1AED0
331
1AE17
  5
1AED1
331
1AE18
  5
1AED2
331
1AE19
  5
1AED3
331
1AE1A
  5
1AED4
331
1AE1B
  5
1AED5
331
1AE1C
  5
1AED6
331
1AE1D
  5
1AED7
331
1AE1E
  5
1AED8
331
1AE1F
  5
1AED9
331
1AE20
  5
1AEDA
331
1AE21
  5
1AEDB
331
1AE22
  5
1AEDC
331
1AE23
  5
1AEDD
331
1AE24
  5
1AEDE
331
1AE25
  5
1AEDF
331
1AE26
  5
1AEE0
331
1AE27
  5
1AEE1
331
1AE28
  5
1AEE2
331
1AE29
  5
1AEE3
331
1AE2A
  5
1AEE4
331
1AE2B
  5
1AEE5
331
1AE2C
  5
1AEE6
331
1AE2D
  5
1AEE7
331
1AE2E
  5
1AEE8
331
1AE2F
  5
1AEE9
331
1AE30
  5
1AEEA
331
1AE31
  5
1AEEB
331
1AE32
  5
1AEEC
331
1AE33
  5
1AEED
331
1AE34
  5
1AEEE
331
1AE35
  5
1AEEF
331
1AE36
  5
1AEF0
331
1AE37
  5
1AEF1
331
1AE38
  5
1AEF2
331
1AE39
  5
1AEF3
331
1AE3A
  5
1AEF4
331
1AE3B
  5
1AEF5
331
1AE3C
  5
1AEF6
331
1AE3D
  5
1AEF7
331
1AE3E
  5
1AEF8
331
1AE3F
  5
1AEF9
331
1AE40
  5
1AEFA
331
1AE41
  5
1AEFB
331
1AE42
  5
1AEFC
331
1AE43
  5
1AEFD
331
1AE44
  5
1AEFE
331
1AE45
  5
1AEFF
331
1AE46
  5
1AF00
331
1AE47
  5
1AF01
331
1AE48
  5
1AF02
331
1AE49
  5
1AF03
331
1AE4A
  5
1AF04
331
1AE4B
  5
1AF05
331
1AE4C
  5
1AF06
331
1AE4D
  5
1AF07
331
1AE4E
  5
1AF08
331
1AE4F
  5
1AF09
331
1AE50
  5
1AF0A
331
1AE51
  5
1AF0B
331
1AE52
  5
1AF0C
331
1AE53
  5
1AF0D
331
1AE54
  5
1AF0E
331
1AE55
  5
1AF0F
331
1AE56
  5
1AF10
331
1AE57
  5
1AF11
331
1AE58
  5
1AF12
331
1AE59
  5
1AF13
331
1AE5A
  5
1AF14
331
1AE5B
  5
1AF15
331
1AE5C
  5
1AF16
331
1AE5D
  5
1AF17
331
1AE5E
  5
1AF18
331
1AE5F
  5
1AF19
331
1AE60
  5
1AF1A
331
1AE61
  5
1AF1B
331
1AE62
  5
1AF1C
331
1AE63
  5
1AF1D
331
1AE64
  5
1AF1E
331
1AE65
  5
1AF1F
331
1AE66
  5
1AF20
331
1AE67
  5
1AF21
331
1AE68
  5
1AF22
331
1AE69
  5
1AF23
331
1AE6A
  5
1AF24
331
1AE6B
  5
1AF25
331
1AE6C
  5
1AF26
331
1AE6D
  5
1AF27
331
1AE6E
  5
1AF28
331
1AE6F
  5
1AF29
331
1AE70
  5
1AF2A
331
1AE71
  5
1AF2B
331
1AE72
  5
1AF2C
331
1AE73
  5
1AF2D
331
1AE74
  5
1AF2E
331
1AE75
  5
1AF2F
331
1AE76
  5
1AF30
331
1AE77
  5
1AF31
331
1AE78
  5
1AF32
331
1AE79
  5
1AF33
331
1AE7A
  5
1AF34
331
1AE7B
  5
1AF35
331
1AE7C
  5
1AF36
331
1AE7D
  5
1AF37
331
1AE7E
  5
1AF38
331
1AE7F
  5
1AF39
331
1AE80
  5
1AF3A
331
1AE81
  5
1AF3B
331
1AE82
  5
1AF3C
331
1AE83
  5
1AF3D
331
1AE84
  5
1AF3E
331
1AE85
  5
1AF3F
331
1AE86
  5
1AF40
331
1AE87
  5
1AF41
331
1AE88
  5
1AF42
331
1AE89
  5
1AF43
331
1AE8A
  5
1AF44
331
1AE8B
  5
1AF45
331
1AE8C
  5
1AF46
331
1AE8D
  5
1AF47
331
1AE8E
  5
1AF48
331
1AE8F
  5
1AF49
331
1AE90
  5
1AF4A
331
1AE91
  5
1AF4B
331
1AE92
  5
1AF4C
331
1AE93
  5
1AF4D
331
1AE94
  5
1AF4E
331
1AE95
  5
1AF4F
331
1AE96
  5
1AF50
331
1AE97
  5
1AF51
331
1AE98
  5
1AF52
331
1AE99
  5
1AF53
331
1AE9A
  5
1AF54
331
1AE9B
  5
1AF55
331
1AE9C
  5
1AF56
331
1AE9D
  5
1AF57
331
1AE9E
  5
1AF58
331
1AE9F
  5
1AF59
331
1AEA0
  5
1AF5A
331
1AEA1
  5
1AF5B
331
1AEA2
  5
1AF5C
331
1AEA3
  5
1AF5D
331
1AEA4
  5
1AF5E
331
1AEA5
  5
1AF5F
331
1AEA6
  5
1AF60
331
1AEA7
  5
1AF61
331
1AEA8
  5
1AF62
331
1AEA9
  5
1AF63
331
1AEAA
  5
1AF64
331
1AEAB
  5
1AF65
331
1AEAC
  5
1AF66
331
1AEAD
  5
1AF67
331
1AEAE
  5
1AF68
331
1AEAF
  5
1AF69
331
1AEB0
  5
1AF6A
331
1AEB1
  5
1AF6B
331
1AEB2
  5
1AF6C
331
1AEB3
  5
1AF6D
331
1AEB4
  5
1AF6E
331
1AEB5
  5
1AF6F
331
1AEB6
  5
1AF70
331
1AEB7
  5
1AF71
331
1AEB8
  5
1AF72
331
1AEB9
  5
1AF73
331
1AEBA
  5
1AF74
331
1AEBB
  5
1AF75
331
1AEBC
  5
1AF76
331
1AEBD
  5
1AF77
331
1AEBE
  5
1AF78
331
1AEBF
  5
1AF79
331
1AEC0
  5
1AF7A
331
1AEC1
  5
1AF7B
331
1AEC2
  5
1AF7C
331
1AEC3
  5
1AF7D
331
1AEC4
  5
1AF7E
331
1AEC5
  5
1AF7F
331
1AEC6
  5
1AF80
331
1AEC7
  5
1AF81
331
1AEC8
  5
1AF82
331
1AEC9
  5
1AF83
331
1AECA
  5
1AF84
331
1AECB
  5
1AF85
331
1AECC
  5
1AF86
331
1AECD
  5
1AF87
331
1AECE
  5
1AF88
331
1AECF
  5
1AF89
331
1AED0
  5
1AF8A
331
1AED1
  5
1AF8B
331
1AED2
  5
1AF8C
331
1AED3
  5
1AF8D
331
1AED4
  5
1AF8E
331
1AED5
  5
1AF8F
331
1AED6
  5
1AF90
331
1AED7
  5
1AF91
331
1AED8
  5
1AF92
331
1AED9
  5
1AF93
331
1AEDA
  5
1AF94
331
1AEDB
  5
1AF95
331
1AEDC
  5
1AF96
331
1AEDD
  5
1AF97
331
1AEDE
  5
1AF98
331
1AEDF
  5
1AF99
331
1AEE0
  5
1AF9A
331
1AEE1
  5
1AF9B
331
1AEE2
  5
1AF9C
331
1AEE3
  5
1AF9D
331
1AEE4
  5
1AF9E
331
1AEE5
  5
1AF9F
331
1AEE6
  5
1AFA0
331
1AEE7
  5
1AFA1
331
1AEE8
  5
1AFA2
331
1AEE9
  5
1AFA3
331
1AEEA
  5
1AFA4
331
1AEEB
  5
1AFA5
331
1AEEC
  5
1AFA6
331
1AEED
  5
1AFA7
331
1AEEE
  5
1AFA8
331
1AEEF
  5
1AFA9
331
1AEF0
  5
1B0FD
331
1AEF1
  5
1B0FE
331
1AEF2
  5
1B0FF
331
1AEF3
  5
1B100
331
1AEF4
  5
1B101
331
1AEF5
  5
1B102
331
1AEF6
  5
1B103
331
1AEF7
  5
1B104
331
1AEF8
  5
1B105
331
1AEF9
  5
1B106
331
1AEFA
  5
1B107
331
1AEFB
  5
1B108
331
1AEFC
  5
1B109
331
1AEFD
  5
1B10A
331
1AEFE
  5
1B10B
331
1AEFF
  5
1B10C
331
1AF00
  5
1B10D
331
1AF01
  5
1B10E
331
1AF02
  5
1B10F
331
1AF03
  5
1B110
331
1AF04
  5
1B111
331
1AF05
  5
1B112
331
1AF06
  5
1B113
331
1AF07
  5
1B114
331
1AF08
  5
1B115
331
1AF09
  5
1B116
331
1AF0A
  5
1B117
331
1AF0B
  5
1B118
331
1AF0C
  5
1B119
331
1AF0D
  5
1B11A
331
1AF0E
  5
1B11B
331
1AF0F
  5
1B11C
331
1AF10
  5
1B11D
331
1AF11
  5
1B11E
331
1AF12
  5
1B11F
331
1AF13
  5
1B120
331
1AF14
  5
1B121
331
1AF15
  5
1B122
331
1AF16
  5
1B123
331
1AF17
  5
1B124
331
1AF18
  5
1B125
331
1AF19
  5
1B126
331
1AF1A
  5
1B127
331
1AF1B
  5
1B128
331
1AF1C
  5
1B129
331
1AF1D
  5
1B12A
331
1AF1E
  5
1B12B
331
1AF1F
  5
1B12C
331
1AF20
  5
1B12D
331
1AF21
  5
1B12E
331
1AF22
  5
1B12F
331
1AF23
  5
1B130
331
1AF24
  5
1B131
331
1AF25
  5
1B132
331
1AF26
  5
1B133
331
1AF27
  5
1B134
331
1AF28
  5
1B135
331
1AF29
  5
1B136
331
1AF2A
  5
1B137
331
1AF2B
  5
1B138
331
1AF2C
  5
1B139
331
1AF2D
  5
1B13A
331
1AF2E
  5
1B13B
331
1AF2F
  5
1B13C
331
1AF30
  5
1B13D
331
1AF31
  5
1B13E
331
1AF32
  5
1B13F
331
1AF33
  5
1B140
331
1AF34
  5
1B141
331
1AF35
  5
1B142
331
1AF36
  5
1B143
331
1AF37
  5
1B144
331
1AF38
  5
1B145
331
1AF39
  5
1B146
331
1AF3A
  5
1B147
331
1AF3B
  5
1B148
331
1AF3C
  5
1B149
331
1AF3D
  5
1B14A
331
1AF3E
  5
1B14B
331
1AF3F
  5
1B14C
331
1AF40
  5
1B14D
331
1AF41
  5
1B14E
331
1AF42
  5
1B14F
331
1AF43
  5
1B150
331
1AF44
  5
1B151
331
1AF45
  5
1B152
331
1AF46
  5
1B153
331
1AF47
  5
1B154
331
1AF48
  5
1B155
331
1AF49
  5
1B156
331
1AF4A
  5
1B157
331
1AF4B
  5
1B158
331
1AF4C
  5
1B159
331
1AF4D
  5
1B15A
331
1AF4E
  5
1B15B
331
1AF4F
  5
1B15C
331
1AF50
  5
1B15D
331
1AF51
  5
1B15E
331
1AF52
  5
1B15F
331
1AF53
  5
1B160
331
1AF54
  5
1B161
331
1AF55
  5
1B162
331
1AF56
  5
1B163
331
1AF57
  5
1B164
331
1AF58
  5
1B165
331
1AF59
  5
1B166
331
1AF5A
  5
1B167
331
1AF5B
  5
1B168
331
1AF5C
  5
1B169
331
1AF5D
  5
1B16A
331
1AF5E
  5
1B16B
331
1AF5F
  5
1B16C
331
1AF60
  5
1B16D
331
1AF61
  5
1B16E
331
1AF62
  5
1B16F
331
1AF63
  5
1B170
331
1AF64
  5
1B171
331
1AF65
  5
1B172
331
1AF66
  5
1B173
331
1AF67
  5
1B174
331
1AF68
  5
1B175
331
1AF69
  5
1B176
331
1AF6A
  5
1B177
331
1AF6B
  5
1B178
331
1AF6C
  5
1B179
331
1AF6D
  5
1B17A
331
1AF6E
  5
1B17B
331
1AF6F
  5
1B17C
331
1AF70
  5
1B17D
331
1AF71
  5
1B17E
331
1AF72
  5
1B17F
331
1AF73
  5
1B180
331
1AF74
  5
1B181
331
1AF75
  5
1B182
331
1AF76
  5
1B183
331
1AF77
  5
1B184
331
1AF78
  5
1B185
331
1AF79
  5
1B186
331
1AF7A
  5
1B187
331
1AF7B
  5
1B188
331
1AF7C
  5
1B189
331
1AF7D
  5
1B18A
331
1AF7E
  5
1B18B
331
1AF7F
  5
1B18C
331
1AF80
  5
1B18D
331
1AF81
  5
1B18E
331
1AF82
  5
1B18F
331
1AF83
  5
1B190
331
1AF84
  5
1B191
331
1AF85
  5
1B192
331
1AF86
  5
1B193
331
1AF87
  5
1B194
331
1AF88
  5
1B195
331
1AF89
  5
1B196
331
1AF8A
  5
1B197
331
1AF8B
  5
1B198
331
1AF8C
  5
1B199
331
1AF8D
  5
1B19A
331
1AF8E
  5
1B19B
331
1AF8F
  5
1B19C
331
1AF90
  5
1B19D
331
1AF91
  5
1B19E
331
1AF92
  5
1B19F
331
1AF93
  5
1B1A0
331
1AF94
  5
1B1A1
331
1AF95
  5
1B1A2
331
1AF96
  5
1B1A3
331
1AF97
  5
1B1A4
331
1AF98
  5
1B1A5
331
1AF99
  5
1B1A6
331
1AF9A
  5
1B1A7
331
1AF9B
  5
1B1A8
331
1AF9C
  5
1B1A9
331
1AF9D
  5
1B1AA
331
1AF9E
  5
1B1AB
331
1AF9F
  5
1B1AC
331
1AFA0
  5
1B1AD
331
1AFA1
  5
1B1AE
331
1AFA2
  5
1B1AF
331
1AFA3
  5
1B1B0
331
1AFA4
  5
1B1B1
331
1AFA5
  5
1B1B2
331
1AFA6
  5
1B1B3
331
1AFA7
  5
1B1B4
331
1AFA8
  5
1B1B5
331
1AFA9
  5
1B1B6
331
1B0FD
  5
1AD03
331
1B0FE
  5
1AD05
331
1B0FF
  5
1AD0C
331
1B100
  5
1AD10
331
1B101
  5
1AD11
331
0
  5
1AD0D
331
0
  5
1AD0E
331
0
  5
1AD0F
331
1B105
  5
1AD25
331
1B106
  5
1AD26
331
1B107
  5
1AD27
331
0
  5
1AD16
331
0
  5
1AD17
331
0
  5
1AD18
331
1B10B
  5
1AD2F
331
1B10C
  5
1AD30
331
1B10D
  5
1AD31
331
0
  5
1AD1C
331
0
  5
1AD1D
331
0
  5
1AD1E
331
1B111
  5
1AD39
331
1B112
  5
1AD3A
331
1B113
  5
1AD3B
331
0
  5
1AD22
331
0
  5
1AD23
331
0
  5
1AD24
331
1B117
  5
1ADBE
331
1B118
  5
1ADC0
331
1B119
  5
1ADC1
331
0
  5
1AD91
331
0
  5
1AD92
331
0
  5
1AD93
331
1B11D
  5
1AE0E
331
1B11E
  5
1AE0F
331
1B11F
  5
1AE10
331
0
  5
1ADD6
331
0
  5
1ADD7
331
0
  5
1ADD8
331
1B123
  5
1AE18
331
1B124
  5
1AE19
331
1B125
  5
1AE1A
331
0
  5
1ADDC
331
0
  5
1ADDD
331
0
  5
1ADDE
331
1B129
  5
1AE34
331
1B12A
  5
1AE35
331
1B12B
  5
1AE36
331
0
  5
1ADEF
331
0
  5
1ADF0
331
0
  5
1ADF1
331
1B12F
  5
1AD12
331
1B130
  5
1AD13
331
1B131
  5
1AD14
331
1B132
  5
1AD15
331
1B133
  5
1AD19
331
1B134
  5
1AD1A
331
1B135
  5
1AD1B
331
1B136
  5
1AD28
331
1B137
  5
1AD29
331
1B138
  5
1AD2A
331
1B139
  5
1AD2B
331
1B13A
  5
1AD2C
331
1B13B
  5
1AD2D
331
1B13C
  5
1AD2E
331
1B13D
  5
1AD32
331
1B13E
  5
1AD33
331
1B13F
  5
1AD34
331
1B140
  5
1AD35
331
1B141
  5
1AD36
331
1B142
  5
1AD37
331
1B143
  5
1AD38
331
1B144
  5
1AD3C
331
1B145
  5
1AD3D
331
1B146
  5
1AD3E
331
1B147
  5
1AD3F
331
1B148
  5
1AD40
331
1B149
  5
1AD41
331
1B14A
  5
1AD42
331
1B14B
  5
1ADC2
331
1B14C
  5
1ADC3
331
1B14D
  5
1ADC4
331
1B14E
  5
1ADC5
331
1B14F
  5
1ADC6
331
1B150
  5
1ADC7
331
1B151
  5
1ADC8
331
1B152
  5
1AE11
331
1B153
  5
1AE12
331
1B154
  5
1AE13
331
1B155
  5
1AE14
331
1B156
  5
1AE15
331
1B157
  5
1AE16
331
1B158
  5
1AE17
331
1B159
  5
1AE1B
331
1B15A
  5
1AE1C
331
1B15B
  5
1AE1D
331
1B15C
  5
1AE1E
331
1B15D
  5
1AE1F
331
1B15E
  5
1AE20
331
1B15F
  5
1AE21
331
1B160
  5
1AE37
331
1B161
  5
1AE38
331
1B162
  5
1AE39
331
1B163
  5
1AE3A
331
1B164
  5
1AE3B
331
1B165
  5
1AE3C
331
1B166
  5
1AE40
331
1B167
  5
1AD07
331
1B168
  5
1AD0B
331
1B169
  5
1AD84
331
1B16A
  5
1AD85
331
1B16B
  5
1AD86
331
0
  5
1AD87
331
0
  5
1AD88
331
0
  5
1AD89
331
1B16F
  5
1AE47
331
1B170
  5
1AE48
331
1B171
  5
1AE4C
331
0
  5
1AE3D
331
0
  5
1AE3E
331
0
  5
1AE3F
331
1B175
  5
1AE5A
331
1B176
  5
1AE5B
331
1B177
  5
1AE5C
331
0
  5
1AE43
331
0
  5
1AE44
331
0
  5
1AE45
331
1B17B
  5
1AE64
331
1B17C
  5
1AE65
331
1B17D
  5
1AE66
331
0
  5
1AE49
331
0
  5
1AE4A
331
0
  5
1AE4B
331
1B181
  5
1AE6E
331
1B182
  5
1AE6F
331
1B183
  5
1AE70
331
0
  5
1AE4F
331
0
  5
1AE50
331
0
  5
1AE51
331
1B187
  5
1AE78
331
1B188
  5
1AE79
331
1B189
  5
1AE7A
331
0
  5
1AE55
331
0
  5
1AE56
331
0
  5
1AE57
331
1B18D
  5
1AD8A
331
1B18E
  5
1AD8B
331
1B18F
  5
1AD8C
331
1B190
  5
1AD8D
331
1B191
  5
1AD8E
331
1B192
  5
1AD8F
331
1B193
  5
1AD90
331
1B194
  5
1AE4D
331
1B195
  5
1AE4E
331
1B196
  5
1AE52
331
1B197
  5
1AE53
331
1B198
  5
1AE54
331
1B199
  5
1AE58
331
1B19A
  5
1AE59
331
1B19B
  5
1AE5D
331
1B19C
  5
1AE5E
331
1B19D
  5
1AE5F
331
1B19E
  5
1AE60
331
1B19F
  5
1AE61
331
1B1A0
  5
1AE62
331
1B1A1
  5
1AE63
331
1B1A2
  5
1AE67
331
1B1A3
  5
1AE68
331
1B1A4
  5
1AE69
331
1B1A5
  5
1AE6A
331
1B1A6
  5
1AE6B
331
1B1A7
  5
1AE6C
331
1B1A8
  5
1AE6D
331
1B1A9
  5
1AE71
331
1B1AA
  5
1AE72
331
1B1AB
  5
1AE73
331
1B1AC
  5
1AE74
331
1B1AD
  5
1AE75
331
1B1AE
  5
1AE76
331
1B1AF
  5
1AE77
331
1B1B0
  5
1AE7B
331
1B1B1
  5
1AE7C
331
1B1B2
  5
1AE7D
331
1B1B3
  5
1AE7E
331
1B1B4
  5
1AE7F
331
1B1B5
  5
1AE80
331
1B1B6
  5
1AE81
  0
MATERIAL
  5
D9A4
102
{ACAD_REACTORS
330
18C
102
}
102
{ACAD_XDICTIONARY
360
1B355
102
}
330
18C
100
AcDbMaterial
  1
BYBLOCK
 72
     0
 73
     2
 43
0.0208333333333333
 43
0.0
 43
0.0
 43
0.0
 43
0.0
 43
0.0208333333333333
 43
0.0
 43
0.0
 43
0.0
 43
0.0
 43
1.0
 43
0.0
 43
0.0
 43
0.0
 43
0.0
 43
1.0
 77
     0
 78
     2
 47
0.0208333333333333
 47
0.0
 47
0.0
 47
0.0
 47
0.0
 47
0.0208333333333333
 47
0.0
 47
0.0
 47
0.0
 47
0.0
 47
1.0
 47
0.0
 47
0.0
 47
0.0
 47
0.0
 47
1.0
171
     0
172
     2
 49
0.0208333333333333
 49
0.0
 49
0.0
 49
0.0
 49
0.0
 49
0.0208333333333333
 49
0.0
 49
0.0
 49
0.0
 49
0.0
 49
1.0
 49
0.0
 49
0.0
 49
0.0
 49
0.0
 49
1.0
175
     0
176
     2
142
0.0208333333333333
142
0.0
142
0.0
142
0.0
142
0.0
142
0.0208333333333333
142
0.0
142
0.0
142
0.0
142
0.0
142
1.0
142
0.0
142
0.0
142
0.0
142
0.0
142
1.0
179
     0
270
     2
144
0.0208333333333333
144
0.0
144
0.0
144
0.0
144
0.0
144
0.0208333333333333
144
0.0
144
0.0
144
0.0
144
0.0
144
1.0
144
0.0
144
0.0
144
0.0
144
0.0
144
1.0
274
     2
147
0.0208333333333333
147
0.0
147
0.0
147
0.0
147
0.0
147
0.0208333333333333
147
0.0
147
0.0
147
0.0
147
0.0
147
1.0
147
0.0
147
0.0
147
0.0
147
0.0
147
1.0
  0
MATERIAL
  5
D99C
102
{ACAD_REACTORS
330
18C
102
}
102
{ACAD_XDICTIONARY
360
1B357
102
}
330
18C
100
AcDbMaterial
  1
BYLAYER
 72
     0
 73
     2
 43
0.0208333333333333
 43
0.0
 43
0.0
 43
0.0
 43
0.0
 43
0.0208333333333333
 43
0.0
 43
0.0
 43
0.0
 43
0.0
 43
1.0
 43
0.0
 43
0.0
 43
0.0
 43
0.0
 43
1.0
 77
     0
 78
     2
 47
0.0208333333333333
 47
0.0
 47
0.0
 47
0.0
 47
0.0
 47
0.0208333333333333
 47
0.0
 47
0.0
 47
0.0
 47
0.0
 47
1.0
 47
0.0
 47
0.0
 47
0.0
 47
0.0
 47
1.0
171
     0
172
     2
 49
0.0208333333333333
 49
0.0
 49
0.0
 49
0.0
 49
0.0
 49
0.0208333333333333
 49
0.0
 49
0.0
 49
0.0
 49
0.0
 49
1.0
 49
0.0
 49
0.0
 49
0.0
 49
0.0
 49
1.0
175
     0
176
     2
142
0.0208333333333333
142
0.0
142
0.0
142
0.0
142
0.0
142
0.0208333333333333
142
0.0
142
0.0
142
0.0
142
0.0
142
1.0
142
0.0
142
0.0
142
0.0
142
0.0
142
1.0
179
     0
270
     2
144
0.0208333333333333
144
0.0
144
0.0
144
0.0
144
0.0
144
0.0208333333333333
144
0.0
144
0.0
144
0.0
144
0.0
144
1.0
144
0.0
144
0.0
144
0.0
144
0.0
144
1.0
274
     2
147
0.0208333333333333
147
0.0
147
0.0
147
0.0
147
0.0
147
0.0208333333333333
147
0.0
147
0.0
147
0.0
147
0.0
147
1.0
147
0.0
147
0.0
147
0.0
147
0.0
147
1.0
  0
MATERIAL
  5
D9AC
102
{ACAD_REACTORS
330
18C
102
}
102
{ACAD_XDICTIONARY
360
1B359
102
}
330
18C
100
AcDbMaterial
  1
GLOBAL
 72
     0
 73
     2
 43
0.0208333333333333
 43
0.0
 43
0.0
 43
0.0
 43
0.0
 43
0.0208333333333333
 43
0.0
 43
0.0
 43
0.0
 43
0.0
 43
1.0
 43
0.0
 43
0.0
 43
0.0
 43
0.0
 43
1.0
 77
     0
 78
     2
 47
0.0208333333333333
 47
0.0
 47
0.0
 47
0.0
 47
0.0
 47
0.0208333333333333
 47
0.0
 47
0.0
 47
0.0
 47
0.0
 47
1.0
 47
0.0
 47
0.0
 47
0.0
 47
0.0
 47
1.0
171
     0
172
     2
 49
0.0208333333333333
 49
0.0
 49
0.0
 49
0.0
 49
0.0
 49
0.0208333333333333
 49
0.0
 49
0.0
 49
0.0
 49
0.0
 49
1.0
 49
0.0
 49
0.0
 49
0.0
 49
0.0
 49
1.0
175
     0
176
     2
142
0.0208333333333333
142
0.0
142
0.0
142
0.0
142
0.0
142
0.0208333333333333
142
0.0
142
0.0
142
0.0
142
0.0
142
1.0
142
0.0
142
0.0
142
0.0
142
0.0
142
1.0
179
     0
270
     2
144
0.0208333333333333
144
0.0
144
0.0
144
0.0
144
0.0
144
0.0208333333333333
144
0.0
144
0.0
144
0.0
144
0.0
144
1.0
144
0.0
144
0.0
144
0.0
144
0.0
144
1.0
274
     2
147
0.0208333333333333
147
0.0
147
0.0
147
0.0
147
0.0
147
0.0208333333333333
147
0.0
147
0.0
147
0.0
147
0.0
147
1.0
147
0.0
147
0.0
147
0.0
147
0.0
147
1.0
  0
ACAD_PROXY_OBJECT
  5
D9E8
102
{ACAD_REACTORS
330
D9E7
102
}
330
D9E7
100
AcDbZombieObject
 90
      499
 91
      511
 93
      610
310
40901902A4063FBFFFFFE000000000000002040AD7A3703D0AD73F4214DD185B99185C990000000000000104090141901A00000000000004100000000000000041025764000000000000300FC0
340
12
340
0
340
F
340
0
 94
        0
1001
ACAD_MLEADERVER
1070
     2
  0
MLINESTYLE
  5
1C
102
{ACAD_REACTORS
330
1B
102
}
330
1B
100
AcDbMlineStyle
  2
STANDARD
 70
     0
  3

 62
   256
 51
90.0
 52
90.0
 71
     2
 49
0.5
 62
   256
  6
BYLAYER
 49
-0.5
 62
   256
  6
BYLAYER
  0
ACAD_PROXY_OBJECT
  5
D9C6
102
{ACAD_REACTORS
330
D9C5
102
}
330
D9C5
100
AcDbZombieObject
 90
      499
 91
      510
 93
       41
310
903313A31580
  0
ACAD_PROXY_OBJECT
  5
D9C7
102
{ACAD_REACTORS
330
D9C5
102
}
330
D9C5
100
AcDbZombieObject
 90
      499
 91
      510
 93
      105
310
903313A324000000000000004000
  0
ACAD_PROXY_OBJECT
  5
D9C8
102
{ACAD_REACTORS
330
D9C5
102
}
330
D9C5
100
AcDbZombieObject
 90
      499
 91
      510
 93
      105
310
903313A344000000000000104000
  0
ACAD_PROXY_OBJECT
  5
D9C9
102
{ACAD_REACTORS
330
D9C5
102
}
330
D9C5
100
AcDbZombieObject
 90
      499
 91
      510
 93
      105
310
903313A354000000000000144000
  0
ACAD_PROXY_OBJECT
  5
D9CA
102
{ACAD_REACTORS
330
D9C5
102
}
330
D9C5
100
AcDbZombieObject
 90
      499
 91
      510
 93
      105
310
903313A384000000000000204000
  0
ACAD_PROXY_OBJECT
  5
D9CB
102
{ACAD_REACTORS
330
D9C5
102
}
330
D9C5
100
AcDbZombieObject
 90
      499
 91
      510
 93
      113
310
904313A31304000000000000244000
  0
ACAD_PROXY_OBJECT
  5
D9CC
102
{ACAD_REACTORS
330
D9C5
102
}
330
D9C5
100
AcDbZombieObject
 90
      499
 91
      510
 93
      113
310
904313A31364000000000000304000
  0
ACAD_PROXY_OBJECT
  5
D9CD
102
{ACAD_REACTORS
330
D9C5
102
}
330
D9C5
100
AcDbZombieObject
 90
      499
 91
      510
 93
      113
310
904313A32304000000000000344000
  0
ACAD_PROXY_OBJECT
  5
D9CE
102
{ACAD_REACTORS
330
D9C5
102
}
330
D9C5
100
AcDbZombieObject
 90
      499
 91
      510
 93
      113
310
904313A333040000000000003E4000
  0
ACAD_PROXY_OBJECT
  5
D9CF
102
{ACAD_REACTORS
330
D9C5
102
}
330
D9C5
100
AcDbZombieObject
 90
      499
 91
      510
 93
      113
310
904313A34304000000000000444000
  0
ACAD_PROXY_OBJECT
  5
D9D0
102
{ACAD_REACTORS
330
D9C5
102
}
330
D9C5
100
AcDbZombieObject
 90
      499
 91
      510
 93
      113
310
904313A35304000000000000494000
  0
ACAD_PROXY_OBJECT
  5
D9D1
102
{ACAD_REACTORS
330
D9C5
102
}
330
D9C5
100
AcDbZombieObject
 90
      499
 91
      510
 93
      121
310
905313A3130304000000000000594000
  0
ACAD_PROXY_OBJECT
  5
D9D2
102
{ACAD_REACTORS
330
D9C5
102
}
330
D9C5
100
AcDbZombieObject
 90
      499
 91
      510
 93
      105
310
903323A310000000000000010100
  0
ACAD_PROXY_OBJECT
  5
D9D3
102
{ACAD_REACTORS
330
D9C5
102
}
330
D9C5
100
AcDbZombieObject
 90
      499
 91
      510
 93
      105
310
903343A310000000000000410100
  0
ACAD_PROXY_OBJECT
  5
D9D4
102
{ACAD_REACTORS
330
D9C5
102
}
330
D9C5
100
AcDbZombieObject
 90
      499
 91
      510
 93
      105
310
903383A310000000000000810100
  0
ACAD_PROXY_OBJECT
  5
D9D5
102
{ACAD_REACTORS
330
D9C5
102
}
330
D9C5
100
AcDbZombieObject
 90
      499
 91
      510
 93
      113
310
90431303A310000000000000910100
  0
ACAD_PROXY_OBJECT
  5
D9D6
102
{ACAD_REACTORS
330
D9C5
102
}
330
D9C5
100
AcDbZombieObject
 90
      499
 91
      510
 93
      121
310
9053130303A310000000000001650100
  0
ACAD_PROXY_OBJECT
  5
D9D7
102
{ACAD_REACTORS
330
D9C5
102
}
330
D9C5
100
AcDbZombieObject
 90
      499
 91
      510
 93
      257
310
90E312F31323822203D2031272D3022000000000000200FC000000000000284000
  0
ACAD_PROXY_OBJECT
  5
D9D8
102
{ACAD_REACTORS
330
D9C5
102
}
330
D9C5
100
AcDbZombieObject
 90
      499
 91
      510
 93
      249
310
90D312F363422203D2031272D3022000000000000240FC000000000000284000
  0
ACAD_PROXY_OBJECT
  5
D9D9
102
{ACAD_REACTORS
330
D9C5
102
}
330
D9C5
100
AcDbZombieObject
 90
      499
 91
      510
 93
      249
310
90D312F333222203D2031272D3022000000000000280FC000000000000284000
  0
ACAD_PROXY_OBJECT
  5
D9DA
102
{ACAD_REACTORS
330
D9C5
102
}
330
D9C5
100
AcDbZombieObject
 90
      499
 91
      510
 93
      249
310
90D312F313622203D2031272D30220000000000002C0FC000000000000284000
  0
ACAD_PROXY_OBJECT
  5
D9DB
102
{ACAD_REACTORS
330
D9C5
102
}
330
D9C5
100
AcDbZombieObject
 90
      499
 91
      510
 93
      249
310
90D332F333222203D2031272D30220000000000002E0FC000000000000284000
  0
ACAD_PROXY_OBJECT
  5
D9DC
102
{ACAD_REACTORS
330
D9C5
102
}
330
D9C5
100
AcDbZombieObject
 90
      499
 91
      510
 93
      241
310
90C312F3822203D2031272D3022000000000000300FC000000000000284000
  0
ACAD_PROXY_OBJECT
  5
D9DD
102
{ACAD_REACTORS
330
D9C5
102
}
330
D9C5
100
AcDbZombieObject
 90
      499
 91
      510
 93
      249
310
90D332F313622203D2031272D3022000000000000320FC000000000000284000
  0
ACAD_PROXY_OBJECT
  5
D9DE
102
{ACAD_REACTORS
330
D9C5
102
}
330
D9C5
100
AcDbZombieObject
 90
      499
 91
      510
 93
      241
310
90C312F3422203D2031272D3022000000000000340FC000000000000284000
  0
ACAD_PROXY_OBJECT
  5
D9DF
102
{ACAD_REACTORS
330
D9C5
102
}
330
D9C5
100
AcDbZombieObject
 90
      499
 91
      510
 93
      241
310
90C332F3822203D2031272D3022000000000000360FC000000000000284000
  0
ACAD_PROXY_OBJECT
  5
D9E0
102
{ACAD_REACTORS
330
D9C5
102
}
330
D9C5
100
AcDbZombieObject
 90
      499
 91
      510
 93
      241
310
90C312F3222203D2031272D3022000000000000380FC000000000000284000
  0
ACAD_PROXY_OBJECT
  5
D9E1
102
{ACAD_REACTORS
330
D9C5
102
}
330
D9C5
100
AcDbZombieObject
 90
      499
 91
      510
 93
      241
310
90C332F3422203D2031272D30220000000000003A0FC000000000000284000
  0
ACAD_PROXY_OBJECT
  5
D9E2
102
{ACAD_REACTORS
330
D9C5
102
}
330
D9C5
100
AcDbZombieObject
 90
      499
 91
      510
 93
      161
310
90A3122203D2031272D30224000000000000284000
  0
ACAD_PROXY_OBJECT
  5
D9E3
102
{ACAD_REACTORS
330
D9C5
102
}
330
D9C5
100
AcDbZombieObject
 90
      499
 91
      510
 93
      257
310
90E312D312F3222203D2031272D30220000000000003E0FC000000000000284000
  0
ACAD_PROXY_OBJECT
  5
D9E4
102
{ACAD_REACTORS
330
D9C5
102
}
330
D9C5
100
AcDbZombieObject
 90
      499
 91
      510
 93
      225
310
90A3322203D2031272D302200000000000002100000000000000284000
  0
ACAD_PROXY_OBJECT
  5
D9E5
102
{ACAD_REACTORS
330
D9C5
102
}
330
D9C5
100
AcDbZombieObject
 90
      499
 91
      510
 93
      225
310
90A3622203D2031272D302200000000000006100000000000000284000
  0
ACAD_PROXY_OBJECT
  5
D9E6
102
{ACAD_REACTORS
330
D9C5
102
}
330
D9C5
100
AcDbZombieObject
 90
      499
 91
      510
 93
      249
310
90D31272D3022203D2031272D30220000000000000A100000000000000284000
  0
ACAD_PROXY_OBJECT
  5
D9BA
102
{ACAD_REACTORS
330
D9B4
102
}
330
D9B4
100
AcDbZombieObject
 90
      499
 91
      509
 93
      436
310
42CC9915DA5C99599C985B595049028333333333333E3BF0000000000000FB0107901411070040501600405405064090741402480A0340
1001
ACAD
1000
AcDbSavedByObjectVersion
1070
     0
  0
ACAD_PROXY_OBJECT
  5
D9BC
102
{ACAD_REACTORS
330
D9B4
102
}
330
D9B4
100
AcDbZombieObject
 90
      499
 91
      509
 93
      500
310
424CD108121A5919195B90640502408333333333333E3BF0000000000000FB01079024090700405020000000000001110200405405064090740C02480A0340
1001
ACAD
1000
AcDbSavedByObjectVersion
1070
     0
  0
ACAD_PROXY_OBJECT
  5
D9BB
102
{ACAD_REACTORS
330
D9B4
102
}
330
D9B4
100
AcDbZombieObject
 90
      499
 91
      509
 93
      436
310
42CCD915DA5C99599C985B595059028333333333333E3BF0000000000000FB0107901411070040501600405405064090741402480A0340
1001
ACAD
1000
AcDbSavedByObjectVersion
1070
     0
  0
ACAD_PROXY_OBJECT
  5
D9B9
102
{ACAD_REACTORS
330
D9B4
102
}
330
D9B4
100
AcDbZombieObject
 90
      499
 91
      509
 93
      388
310
4150985CDA58D07406404333333333333E3BF0000000000000FB0107A41107004050150841D405064090741402480A0350
1001
ACAD
1000
AcDbSavedByObjectVersion
1070
     0
  0
ACAD_PROXY_OBJECT
  5
D9C0
102
{ACAD_REACTORS
330
D9B4
102
}
330
D9B4
100
AcDbZombieObject
 90
      499
 91
      509
 93
      428
310
42109C9A59DA1D195B90C409028333333333333E3BF0000000000000FB010790141107004050150841D405064090741402480A029950
1001
ACAD
1000
AcDbSavedByObjectVersion
1070
     0
  0
ACAD_PROXY_OBJECT
  5
D9C4
102
{ACAD_REACTORS
330
D9B4
102
}
330
D9B4
100
AcDbZombieObject
 90
      499
 91
      509
 93
      452
310
42D0DBDB1BDC90DA185B99D95104090240C333333333333E3BF0000000000000FB0108901411070040501508421405064090741402480A0350
1001
ACAD
1000
AcDbSavedByObjectVersion
1070
     0
  0
ACAD_PROXY_OBJECT
  5
D9BD
102
{ACAD_REACTORS
330
D9B4
102
}
330
D9B4
100
AcDbZombieObject
 90
      499
 91
      509
 93
      500
310
4290DBDB98D95C1D1D585B10940D028333333333333E3BF0000000000000FB0107902409070040501000000000000111010841D405064090740C02480A0340
1001
ACAD
1000
AcDbSavedByObjectVersion
1070
     0
  0
ACAD_PROXY_OBJECT
  5
D9BF
102
{ACAD_REACTORS
330
D9B4
102
}
330
D9B4
100
AcDbZombieObject
 90
      499
 91
      509
 93
      412
310
40D11A5B50B409028333333333333E3BF0000000000000FB010790141107004050150841D405064090741402480A02677FFFFFD0
1001
ACAD
1000
AcDbSavedByObjectVersion
1070
     0
  0
ACAD_PROXY_OBJECT
  5
19C2F
102
{ACAD_REACTORS
330
D9B4
102
}
330
D9B4
100
AcDbZombieObject
 90
      499
 91
      509
 93
      452
310
43115919D950DBDB1BDC93D999916409028333333333333E3BF0000000000000FB010790141107004050150841D405064090741402480A0350
1001
ACAD
1000
AcDbSavedByObjectVersion
1070
     0
  0
ACAD_PROXY_OBJECT
  5
D9C3
102
{ACAD_REACTORS
330
D9B4
102
}
330
D9B4
100
AcDbZombieObject
 90
      499
 91
      509
 93
      444
310
42D19858D95C185D1D195C9B90F409028333333333333E3BF0000000000000FB010790141107004050150841D405064090741402480A0350
1001
ACAD
1000
AcDbSavedByObjectVersion
1070
     0
  0
ACAD_PROXY_OBJECT
  5
D9B5
102
{ACAD_REACTORS
330
D9B4
102
}
330
D9B4
100
AcDbZombieObject
 90
      499
 91
      509
 93
      388
310
41119B185D240901404333333333333E3BF0000000000000F9010740A41107004050150841D405064090741402480A1B50
1001
ACAD
1000
AcDbSavedByObjectVersion
1070
     0
  0
ACAD_PROXY_OBJECT
  5
D9B6
102
{ACAD_REACTORS
330
D9B4
102
}
330
D9B4
100
AcDbZombieObject
 90
      499
 91
      509
 93
      476
310
43519B185D15DA5D1A115919D95CD0140901404333333333333E3BF0000000000000F9010740901411070040501600405405064090741402480A1B50
1001
ACAD
1000
AcDbSavedByObjectVersion
1070
     0
  0
ACAD_PROXY_OBJECT
  5
D9B7
102
{ACAD_REACTORS
330
D9B4
102
}
330
D9B4
100
AcDbZombieObject
 90
      499
 91
      509
 93
      412
310
41D1DBDD5C985D5910240902404333333333333E3BF0000000000000F9010740A411070040501641D405064090741402480A1B50
1001
ACAD
1000
AcDbSavedByObjectVersion
1070
     0
  0
ACAD_PROXY_OBJECT
  5
D9B8
102
{ACAD_REACTORS
330
D9B4
102
}
330
D9B4
100
AcDbZombieObject
 90
      499
 91
      509
 93
      500
310
4411DBDD5C985D5915DA5D1A115919D95CD0340902404333333333333E3BF0000000000000F9010740901411070040501600405405064090741402480A1B50
1001
ACAD
1000
AcDbSavedByObjectVersion
1070
     0
  0
ACAD_PROXY_OBJECT
  5
19C7E
102
{ACAD_REACTORS
330
D9B4
102
}
330
D9B4
100
AcDbZombieObject
 90
      499
 91
      509
 93
      476
310
41921A5919195B90640502408333333333333E33F0000000000000F901079024090700405020000000000001110200405405064090740C02480A0340
1001
ACAD
1000
AcDbSavedByObjectVersion
1070
     0
  0
ACAD_PROXY_OBJECT
  5
19C2D
102
{ACAD_REACTORS
330
D9B4
102
}
330
D9B4
100
AcDbZombieObject
 90
      499
 91
      509
 93
      428
310
42529A5D1D195C93D999914409028333333333333E3BF0000000000000FB010790141107004050150A41D405064090741402480A0350
1001
ACAD
1000
AcDbSavedByObjectVersion
1070
     0
  0
ACAD_PROXY_OBJECT
  5
D9C2
102
{ACAD_REACTORS
330
D9B4
102
}
330
D9B4
100
AcDbZombieObject
 90
      499
 91
      509
 93
      444
310
42D31A5B995C185D1D195C9B90E409028333333333333E3BF0000000000000FB010790141107004050750841D405064090741402483A0350
1001
ACAD
1000
AcDbSavedByObjectVersion
1070
     0
  0
ACAD_PROXY_OBJECT
  5
19C84
102
{ACAD_REACTORS
330
D9B4
102
}
330
D9B4
100
AcDbZombieObject
 90
      499
 91
      509
 93
      484
310
42135BD9195B1A5B99D0A409038333333333333E33F0000000000000F901074090290700405010000000000201990108421405064090741402480A1B40
1001
ACAD
1000
AcDbSavedByObjectVersion
1070
     0
  0
ACAD_PROXY_OBJECT
  5
19C2E
102
{ACAD_REACTORS
330
D9B4
102
}
330
D9B4
100
AcDbZombieObject
 90
      499
 91
      509
 93
      444
310
42D3DD995C9A185B99D3D999915409028333333333333E3BF0000000000000FB010790141107004050150941D405064090741402480A0350
1001
ACAD
1000
AcDbSavedByObjectVersion
1070
     0
  0
ACAD_PROXY_OBJECT
  5
D9BE
102
{ACAD_REACTORS
330
D9B4
102
}
330
D9B4
100
AcDbZombieObject
 90
      499
 91
      509
 93
      420
310
425499585B1A5CDD1A58D08409028333333333333E3BF0000000000000FB01079019070040501508421405064090741402480A1B40
1001
ACAD
1000
AcDbSavedByObjectVersion
1070
     0
  0
ACAD_PROXY_OBJECT
  5
19C83
102
{ACAD_REACTORS
330
D9B4
102
}
330
D9B4
100
AcDbZombieObject
 90
      499
 91
      509
 93
      420
310
4194DA1859195911B40902404333333333333E33F0000000000000F9010740A41107004050150800405405064090840C02480A0B40
1001
ACAD
1000
AcDbSavedByObjectVersion
1070
     0
  0
ACAD_PROXY_OBJECT
  5
19C82
102
{ACAD_REACTORS
330
D9B4
102
}
330
D9B4
100
AcDbZombieObject
 90
      499
 91
      509
 93
      516
310
4454DA18591959081DDA5D1A08195919D95CD1A40902404333333333333E33F0000000000000F901074090142907004050250800405405064090740C02480A0B40
1001
ACAD
1000
AcDbSavedByObjectVersion
1070
     0
  0
ACAD_PROXY_OBJECT
  5
19C7F
102
{ACAD_REACTORS
330
D9B4
102
}
330
D9B4
100
AcDbZombieObject
 90
      499
 91
      509
 93
      532
310
4394DA1859195CC81BD98811DC985E5174090240C333333333333E33F0000000000000F901079024090741D01000000000000111010841D405064090740C02480A0340
1001
ACAD
1000
AcDbSavedByObjectVersion
1070
     0
  0
ACAD_PROXY_OBJECT
  5
19C80
102
{ACAD_REACTORS
330
D9B4
102
}
330
D9B4
100
AcDbZombieObject
 90
      499
 91
      509
 93
      476
310
41D4DAD95D18DA1E51840502408333333333333E33F0000000000000F901079024090741D01000000000000111010B41D405064090741802480A0340
1001
ACAD
1000
AcDbSavedByObjectVersion
1070
     0
  0
ACAD_PROXY_OBJECT
  5
D9C1
102
{ACAD_REACTORS
330
D9B4
102
}
330
D9B4
100
AcDbZombieObject
 90
      499
 91
      509
 93
      412
310
41D51A1A58DAD95B90D409028333333333333E3BF0000000000000FB010790141107004050150C41D405064090741402480A0350
1001
ACAD
1000
AcDbSavedByObjectVersion
1070
     0
  0
ACAD_PROXY_OBJECT
  5
19C7D
102
{ACAD_REACTORS
330
D9B4
102
}
330
D9B4
100
AcDbZombieObject
 90
      499
 91
      509
 93
      420
310
4255DA5C99599C985B595059028333333333333E33F0000000000000F90107901411070040501600405405064090740C02480A0340
1001
ACAD
1000
AcDbSavedByObjectVersion
1070
     0
  0
ACAD_PROXY_OBJECT
  5
19C81
102
{ACAD_REACTORS
330
D9B4
102
}
330
D9B4
100
AcDbZombieObject
 90
      499
 91
      509
 93
      404
310
41560B54985E51940902404000000000000E03F0000000000000F9010740501907004050150841D405064090740C02480A1B40
1001
ACAD
1000
AcDbSavedByObjectVersion
1070
     0
  0
XRECORD
  5
1B1B8
102
{ACAD_REACTORS
330
1B1B7
102
}
330
1B1B7
100
AcDbXrecord
340
18D
  0
XRECORD
  5
1B1B9
102
{ACAD_REACTORS
330
1B1B7
102
}
330
1B1B7
100
AcDbXrecord
340
18C
  0
DICTIONARYVAR
  5
1A68D
102
{ACAD_REACTORS
330
37
102
}
330
37
100
DictionaryVariables
280
     0
  1
1:1
  0
DICTIONARYVAR
  5
DA6A
102
{ACAD_REACTORS
330
37
102
}
330
37
100
DictionaryVariables
280
     0
  1
Standard
  0
DICTIONARYVAR
  5
29E
102
{ACAD_REACTORS
330
37
102
}
330
37
100
DictionaryVariables
280
     0
  1
Standard
  0
DICTIONARYVAR
  5
38
102
{ACAD_REACTORS
330
37
102
}
330
37
100
DictionaryVariables
280
     0
  1
-1
  0
DICTIONARYVAR
  5
1CE
102
{ACAD_REACTORS
330
37
102
}
330
37
100
DictionaryVariables
280
     0
  1
2
  0
DICTIONARYVAR
  5
704E
102
{ACAD_REACTORS
330
37
102
}
330
37
100
DictionaryVariables
280
     0
  1
1
  0
DICTIONARYVAR
  5
DA6D
102
{ACAD_REACTORS
330
37
102
}
330
37
100
DictionaryVariables
280
     0
  1
0
  0
DICTIONARYVAR
  5
7052
102
{ACAD_REACTORS
330
37
102
}
330
37
100
DictionaryVariables
280
     0
  1
8
  0
DICTIONARYVAR
  5
7051
102
{ACAD_REACTORS
330
37
102
}
330
37
100
DictionaryVariables
280
     0
  1
1
  0
DICTIONARYVAR
  5
1A6DD
102
{ACAD_REACTORS
330
37
102
}
330
37
100
DictionaryVariables
280
     0
  1
0
  0
DICTIONARYVAR
  5
704F
102
{ACAD_REACTORS
330
37
102
}
330
37
100
DictionaryVariables
280
     0
  1
8
  0
DICTIONARYVAR
  5
7050
102
{ACAD_REACTORS
330
37
102
}
330
37
100
DictionaryVariables
280
     0
  1
2
  0
DICTIONARYVAR
  5
1CF
102
{ACAD_REACTORS
330
37
102
}
330
37
100
DictionaryVariables
280
     0
  1

  0
DICTIONARYVAR
  5
DA6C
102
{ACAD_REACTORS
330
37
102
}
330
37
100
DictionaryVariables
280
     0
  1
127
  0
DICTIONARYVAR
  5
19C7C
102
{ACAD_REACTORS
330
37
102
}
330
37
100
DictionaryVariables
280
     0
  1
2
  0
DICTIONARY
  5
1B355
330
D9A4
100
AcDbDictionary
  3
ACAD_XREC_ROUNDTRIP
360
1B356
1001
ACAD
1000
TREAT_AS_HARD
1070
     1
  0
DICTIONARY
  5
1B357
330
D99C
100
AcDbDictionary
  3
ACAD_XREC_ROUNDTRIP
360
1B358
1001
ACAD
1000
TREAT_AS_HARD
1070
     1
  0
DICTIONARY
  5
1B359
330
D9AC
100
AcDbDictionary
  3
ACAD_XREC_ROUNDTRIP
360
1B35A
1001
ACAD
1000
TREAT_AS_HARD
1070
     1
  0
XRECORD
  5
1B356
102
{ACAD_REACTORS
330
1B355
102
}
330
1B355
100
AcDbXrecord
102
MATERIAL
148
0.0
149
0.0
149
0.0
 93
        0
 94
      127
282
     0
 72
     0
 77
     0
171
     0
175
     0
179
     0
273
     0
  0
XRECORD
  5
1B358
102
{ACAD_REACTORS
330
1B357
102
}
330
1B357
100
AcDbXrecord
102
MATERIAL
148
0.0
149
0.0
149
0.0
 93
        0
 94
      127
282
     0
 72
     0
 77
     0
171
     0
175
     0
179
     0
273
     0
  0
XRECORD
  5
1B35A
102
{ACAD_REACTORS
330
1B359
102
}
330
1B359
100
AcDbXrecord
102
MATERIAL
148
0.0
149
0.0
149
0.0
 93
        0
 94
      127
282
     0
 72
     0
 77
     0
171
     0
175
     0
179
     0
273
     0
  0
ENDSEC
  0
EOF
