  0
SECTION
  2
HEADER
  9
$ACADVER
  1
AC1012
  9
$DWGCODEPAGE
  3
ansi_932
  9
$INSBASE
 10
0.0
 20
0.0
 30
0.0
  9
$EXTMIN
 10
2045.077063899515
 20
-661.0527139725203
 30
0.0
  9
$EXTMAX
 10
2673.962258243902
 20
-235.9365418099135
 30
0.0
  9
$LIMMIN
 10
0.0
 20
0.0
  9
$LIMMAX
 10
420.0
 20
297.0
  9
$ORTHOMODE
 70
     0
  9
$REGENMODE
 70
     1
  9
$FILLMODE
 70
     1
  9
$QTEXTMODE
 70
     0
  9
$MIRRTEXT
 70
     0
  9
$DRAGMODE
 70
     2
  9
$LTSCALE
 40
0.5
  9
$OSMODE
 70
 14463
  9
$ATTMODE
 70
     1
  9
$TEXTSIZE
 40
4.0
  9
$TRACEWID
 40
1.0
  9
$TEXTSTYLE
  7
STANDARD
  9
$CLAYER
  8
1TEXT
  9
$CELTYPE
  6
BYLAYER
  9
$CECOLOR
 62
   256
  9
$CELTSCALE
 40
1.0
  9
$DELOBJ
 70
     1
  9
$DISPSILH
 70
     0
  9
$DIMSCALE
 40
1.0
  9
$DIMASZ
 40
2.0
  9
$DIMEXO
 40
0.0
  9
$DIMDLI
 40
7.0
  9
$DIMRND
 40
0.0
  9
$DIMDLE
 40
0.0
  9
$DIMEXE
 40
1.0
  9
$DIMTP
 40
0.0
  9
$DIMTM
 40
0.0
  9
$DIMTXT
 40
3.5
  9
$DIMCEN
 40
0.0
  9
$DIMTSZ
 40
0.0
  9
$DIMTOL
 70
     0
  9
$DIMLIM
 70
     0
  9
$DIMTIH
 70
     0
  9
$DIMTOH
 70
     0
  9
$DIMSE1
 70
     0
  9
$DIMSE2
 70
     0
  9
$DIMTAD
 70
     1
  9
$DIMZIN
 70
     8
  9
$DIMBLK
  1

  9
$DIMASO
 70
     1
  9
$DIMSHO
 70
     1
  9
$DIMPOST
  1
 
  9
$DIMAPOST
  1

  9
$DIMALT
 70
     0
  9
$DIMALTD
 70
     2
  9
$DIMALTF
 40
25.4
  9
$DIMLFAC
 40
1.0
  9
$DIMTOFL
 70
     1
  9
$DIMTVP
 40
0.0
  9
$DIMTIX
 70
     0
  9
$DIMSOXD
 70
     0
  9
$DIMSAH
 70
     1
  9
$DIMBLK1
  1
OPEN30
  9
$DIMBLK2
  1
OPEN30
  9
$DIMSTYLE
  2
NEWX10
  9
$DIMCLRD
 70
   256
  9
$DIMCLRE
 70
   256
  9
$DIMCLRT
 70
   201
  9
$DIMTFAC
 40
0.7
  9
$DIMGAP
 40
0.7
  9
$DIMJUST
 70
     0
  9
$DIMSD1
 70
     0
  9
$DIMSD2
 70
     0
  9
$DIMTOLJ
 70
     1
  9
$DIMTZIN
 70
     8
  9
$DIMALTZ
 70
     0
  9
$DIMALTTZ
 70
     0
  9
$DIMFIT
 70
     2
  9
$DIMUPT
 70
     0
  9
$DIMUNIT
 70
     2
  9
$DIMDEC
 70
     2
  9
$DIMTDEC
 70
     4
  9
$DIMALTU
 70
     2
  9
$DIMALTTD
 70
     2
  9
$DIMTXSTY
  7
STANDARD
  9
$DIMAUNIT
 70
     0
  9
$LUNITS
 70
     2
  9
$LUPREC
 70
     4
  9
$SKETCHINC
 40
1.0
  9
$FILLETRAD
 40
0.0
  9
$AUNITS
 70
     0
  9
$AUPREC
 70
     2
  9
$MENU
  1
acad
  9
$ELEVATION
 40
0.0
  9
$PELEVATION
 40
0.0
  9
$THICKNESS
 40
0.0
  9
$LIMCHECK
 70
     0
  9
$CHAMFERA
 40
10.0
  9
$CHAMFERB
 40
10.0
  9
$CHAMFERC
 40
20.0
  9
$CHAMFERD
 40
0.0
  9
$SKPOLY
 70
     0
  9
$TDCREATE
 40
2451318.621352917
  9
$TDUPDATE
 40
2458150.633742222
  9
$TDINDWG
 40
1.6406557755
  9
$TDUSRTIMER
 40
1.6406557755
  9
$USRTIMER
 70
     1
  9
$ANGBASE
 50
0.0
  9
$ANGDIR
 70
     0
  9
$PDMODE
 70
     0
  9
$PDSIZE
 40
0.0
  9
$PLINEWID
 40
0.0
  9
$COORDS
 70
     2
  9
$SPLFRAME
 70
     0
  9
$SPLINETYPE
 70
     6
  9
$SPLINESEGS
 70
     8
  9
$ATTDIA
 70
     0
  9
$ATTREQ
 70
     1
  9
$HANDLING
 70
     1
  9
$HANDSEED
  5
1B3EA
  9
$SURFTAB1
 70
     6
  9
$SURFTAB2
 70
     6
  9
$SURFTYPE
 70
     6
  9
$SURFU
 70
     6
  9
$SURFV
 70
     6
  9
$UCSNAME
  2

  9
$UCSORG
 10
0.0
 20
0.0
 30
0.0
  9
$UCSXDIR
 10
1.0
 20
0.0
 30
0.0
  9
$UCSYDIR
 10
0.0
 20
1.0
 30
0.0
  9
$PUCSNAME
  2

  9
$PUCSORG
 10
0.0
 20
0.0
 30
0.0
  9
$PUCSXDIR
 10
1.0
 20
0.0
 30
0.0
  9
$PUCSYDIR
 10
0.0
 20
1.0
 30
0.0
  9
$USERI1
 70
     0
  9
$USERI2
 70
     0
  9
$USERI3
 70
     0
  9
$USERI4
 70
     0
  9
$USERI5
 70
     0
  9
$USERR1
 40
0.0
  9
$USERR2
 40
0.0
  9
$USERR3
 40
0.0
  9
$USERR4
 40
0.0
  9
$USERR5
 40
0.0
  9
$WORLDVIEW
 70
     1
  9
$SHADEDGE
 70
     3
  9
$SHADEDIF
 70
    70
  9
$TILEMODE
 70
     1
  9
$MAXACTVP
 70
    48
  9
$PINSBASE
 10
0.0
 20
0.0
 30
0.0
  9
$PLIMCHECK
 70
     0
  9
$PEXTMIN
 10
1.000000000000000E+20
 20
1.000000000000000E+20
 30
1.000000000000000E+20
  9
$PEXTMAX
 10
-1.000000000000000E+20
 20
-1.000000000000000E+20
 30
-1.000000000000000E+20
  9
$PLIMMIN
 10
0.0
 20
0.0
  9
$PLIMMAX
 10
420.0
 20
297.0
  9
$UNITMODE
 70
     0
  9
$VISRETAIN
 70
     1
  9
$PLINEGEN
 70
     0
  9
$PSLTSCALE
 70
     1
  9
$TREEDEPTH
 70
  3020
  9
$PICKSTYLE
 70
     1
  9
$CMLSTYLE
  2
STANDARD
  9
$CMLJUST
 70
     0
  9
$CMLSCALE
 40
20.0
  9
$SAVEIMAGES
 70
     1
  0
ENDSEC
  0
SECTION
  2
CLASSES
  0
CLASS
  1
DICTIONARYVAR
  2
AcDbDictionaryVar
  3
ObjectDBX Classes
 90
        0
280
     0
281
     0
  0
CLASS
  1
IDBUFFER
  2
AcDbIdBuffer
  3
ObjectDBX Classes
 90
    32768
280
     0
281
     0
  0
CLASS
  1
LWPOLYLINE
  2
AcDbPolyline
  3
ObjectDBX Classes
 90
    32768
280
     0
281
     1
  0
CLASS
  1
ACDBDICTIONARYWDFLT
  2
AcDbDictionaryWithDefault
  3
ObjectDBX Classes
 90
    32768
280
     0
281
     0
  0
CLASS
  1
ACDBPLACEHOLDER
  2
AcDbPlaceHolder
  3
ObjectDBX Classes
 90
        0
280
     0
281
     0
  0
CLASS
  1
LAYOUT
  2
AcDbLayout
  3
ObjectDBX Classes
 90
        0
280
     0
281
     0
  0
CLASS
  1
TABLESTYLE
  2
AcDbTableStyle
  3
ObjectDBX Classes
 90
     4095
280
     0
281
     0
  0
CLASS
  1
SORTENTSTABLE
  2
AcDbSortentsTable
  3
ObjectDBX Classes
 90
    32768
280
     0
281
     0
  0
CLASS
  1
MATERIAL
  2
AcDbMaterial
  3
ObjectDBX Classes
 90
     1153
280
     0
281
     0
  0
CLASS
  1
VISUALSTYLE
  2
AcDbVisualStyle
  3
ObjectDBX Classes
 90
     4095
280
     0
281
     0
  0
CLASS
  1
SCALE
  2
AcDbScale
  3
ObjectDBX Classes
 90
     1153
280
     0
281
     0
  0
CLASS
  1
MLEADERSTYLE
  2
AcDbMLeaderStyle
  3
ACDB_MLEADERSTYLE_CLASS
 90
     4095
280
     0
281
     0
  0
CLASS
  1
CELLSTYLEMAP
  2
AcDbCellStyleMap
  3
ObjectDBX Classes
 90
     1152
280
     0
281
     0
  0
CLASS
  1
SUN
  2
AcDbSun
  3
SCENEOE
 90
     1153
280
     0
281
     0
  0
CLASS
  1
XRECORD
  2
AcDbXrecord
  3
ObjectDBX Classes
 90
    32768
280
     0
281
     0
  0
CLASS
  1
HATCH
  2
AcDbHatch
  3
ObjectDBX Classes
 90
    32768
280
     0
281
     1
  0
ENDSEC
  0
SECTION
  2
TABLES
  0
TABLE
  2
VPORT
  5
8
330
0
100
AcDbSymbolTable
 70
     1
  0
VPORT
  5
D991
330
8
100
AcDbSymbolTableRecord
100
AcDbViewportTableRecord
  2
*ACTIVE
 70
     0
 10
0.0
 20
0.0
 11
1.0
 21
1.0
 12
2359.519661071708
 22
-448.4946278912169
 13
0.0
 23
0.0
 14
10.0
 24
10.0
 15
10.0
 25
10.0
 16
0.0
 26
0.0
 36
1.0
 17
0.0
 27
0.0
 37
0.0
 40
456.4405216903779
 41
2.233782129742962
 42
50.0
 43
0.0
 44
0.0
 50
0.0
 51
0.0
 71
    16
 72
   100
 73
     1
 74
     1
 75
     0
 76
     0
 77
     0
 78
     0
  0
ENDTAB
  0
TABLE
  2
LTYPE
  5
5
330
0
100
AcDbSymbolTable
 70
     2
  0
LTYPE
  5
12
330
5
100
AcDbSymbolTableRecord
100
AcDbLinetypeTableRecord
  2
BYBLOCK
 70
     0
  3

 72
    65
 73
     0
 40
0.0
  0
LTYPE
  5
13
330
5
100
AcDbSymbolTableRecord
100
AcDbLinetypeTableRecord
  2
BYLAYER
 70
     0
  3

 72
    65
 73
     0
 40
0.0
  0
LTYPE
  5
14
330
5
100
AcDbSymbolTableRecord
100
AcDbLinetypeTableRecord
  2
CONTINUOUS
 70
     0
  3
Solid line
 72
    65
 73
     0
 40
0.0
  0
LTYPE
  5
13839
330
5
100
AcDbSymbolTableRecord
100
AcDbLinetypeTableRecord
  2
CENTER2
 70
     0
  3
Center (.5x) ___ _ ___ _ ___ _ ___ _ ___ _ ___
 72
    65
 73
     4
 40
28.575
 49
19.05
 74
     0
 49
-3.175
 74
     0
 49
3.175
 74
     0
 49
-3.175
 74
     0
  0
ENDTAB
  0
TABLE
  2
LAYER
  5
2
102
{ACAD_XDICTIONARY
360
E6A6
102
}
330
0
100
AcDbSymbolTable
 70
     5
  0
LAYER
  5
E
102
{ACAD_XDICTIONARY
360
DA05
102
}
330
2
100
AcDbSymbolTableRecord
100
AcDbLayerTableRecord
  2
0
 70
     0
 62
     7
  6
CONTINUOUS
  0
LAYER
  5
29
102
{ACAD_XDICTIONARY
360
DA07
102
}
330
2
100
AcDbSymbolTableRecord
100
AcDbLayerTableRecord
  2
1CENTER
 70
     0
 62
     7
  6
CENTER2
  0
LAYER
  5
31
102
{ACAD_XDICTIONARY
360
DA09
102
}
330
2
100
AcDbSymbolTableRecord
100
AcDbLayerTableRecord
  2
1TEXT
 70
     0
 62
     7
  6
CONTINUOUS
  0
LAYER
  5
243
102
{ACAD_XDICTIONARY
360
DA0F
102
}
330
2
100
AcDbSymbolTableRecord
100
AcDbLayerTableRecord
  2
01
 70
     0
 62
     1
  6
CONTINUOUS
  0
LAYER
  5
24E
102
{ACAD_XDICTIONARY
360
DA15
102
}
330
2
100
AcDbSymbolTableRecord
100
AcDbLayerTableRecord
  2
1DIM
 70
     0
 62
     7
  6
CONTINUOUS
  0
ENDTAB
  0
TABLE
  2
STYLE
  5
3
330
0
100
AcDbSymbolTable
 70
     1
  0
STYLE
  5
F
330
3
100
AcDbSymbolTableRecord
100
AcDbTextStyleTableRecord
  2
STANDARD
 70
     0
 40
0.0
 41
1.0
 50
0.0
 71
     0
 42
4.0
  3
txt.shx
  4
extfont.shx
  0
ENDTAB
  0
TABLE
  2
VIEW
  5
6
330
0
100
AcDbSymbolTable
 70
     0
  0
ENDTAB
  0
TABLE
  2
UCS
  5
7
330
0
100
AcDbSymbolTable
 70
     0
  0
ENDTAB
  0
TABLE
  2
APPID
  5
9
330
0
100
AcDbSymbolTable
 70
    15
  0
APPID
  5
10
330
9
100
AcDbSymbolTableRecord
100
AcDbRegAppTableRecord
  2
ACAD
 70
     0
  0
APPID
  5
21
330
9
100
AcDbSymbolTableRecord
100
AcDbRegAppTableRecord
  2
DRAWINGVARIABLESXDATA
 70
     0
  0
APPID
  5
64
330
9
100
AcDbSymbolTableRecord
100
AcDbRegAppTableRecord
  2
CONTENTTABDATA
 70
     0
  0
APPID
  5
65
330
9
100
AcDbSymbolTableRecord
100
AcDbRegAppTableRecord
  2
CONTENTCURRENTTAB
 70
     0
  0
APPID
  5
66
330
9
100
AcDbSymbolTableRecord
100
AcDbRegAppTableRecord
  2
CONTENTBLOCKDESCRIPTION
 70
     0
  0
APPID
  5
67
330
9
100
AcDbSymbolTableRecord
100
AcDbRegAppTableRecord
  2
CONTENTBLOCKICON
 70
     0
  0
APPID
  5
68
330
9
100
AcDbSymbolTableRecord
100
AcDbRegAppTableRecord
  2
CONTENTLONGBLOCKNAME
 70
     0
  0
APPID
  5
2AE
330
9
100
AcDbSymbolTableRecord
100
AcDbRegAppTableRecord
  2
ACAD_PSEXT
 70
     0
  0
APPID
  5
D9E9
330
9
100
AcDbSymbolTableRecord
100
AcDbRegAppTableRecord
  2
ACAD_MLEADERVER
 70
     0
  0
APPID
  5
19CF0
330
9
100
AcDbSymbolTableRecord
100
AcDbRegAppTableRecord
  2
ACADANNOTATIVE
 70
     0
  0
APPID
  5
19CF1
330
9
100
AcDbSymbolTableRecord
100
AcDbRegAppTableRecord
  2
ACDBBLOCKREPETAG
 70
     0
  0
APPID
  5
19CF2
330
9
100
AcDbSymbolTableRecord
100
AcDbRegAppTableRecord
  2
ACLAYERTOOLS
 70
     0
  0
APPID
  5
19CF3
330
9
100
AcDbSymbolTableRecord
100
AcDbRegAppTableRecord
  2
ACAD_NAV_VCDISPLAY
 70
     0
  0
APPID
  5
1A86C
330
9
100
AcDbSymbolTableRecord
100
AcDbRegAppTableRecord
  2
ACAD_OBJECT_CHANGE_GUID
 70
     0
  0
APPID
  5
1A95E
330
9
100
AcDbSymbolTableRecord
100
AcDbRegAppTableRecord
  2
ACAECLAYERSTANDARD
 70
     0
  0
ENDTAB
  0
TABLE
  2
DIMSTYLE
  5
A
330
0
100
AcDbSymbolTable
 70
     1
  0
DIMSTYLE
105
48
330
A
100
AcDbSymbolTableRecord
100
AcDbDimStyleTableRecord
  2
NEWX10
 70
     0
  3
 
  4

  5

  6
OPEN30
  7
OPEN30
 40
1.0
 41
2.0
 42
0.0
 43
7.0
 44
1.0
 45
0.0
 46
0.0
 47
0.0
 48
0.0
140
3.5
141
0.0
142
0.0
143
25.4
144
1.0
145
0.0
146
0.7
147
0.7
 71
     0
 72
     0
 73
     0
 74
     0
 75
     0
 76
     0
 77
     1
 78
     8
170
     0
171
     2
172
     1
173
     1
174
     0
175
     0
176
   256
177
   256
178
   201
179
     2
270
     2
271
     2
272
     4
273
     2
274
     2
340
F
275
     0
280
     0
281
     0
282
     0
283
     1
284
     8
285
     0
286
     0
287
     2
288
     0
  0
ENDTAB
  0
TABLE
  2
BLOCK_RECORD
  5
1
330
0
100
AcDbSymbolTable
 70
     8
  0
BLOCK_RECORD
  5
18
102
{ACAD_XDICTIONARY
360
88F
102
}
330
1
100
AcDbSymbolTableRecord
100
AcDbBlockTableRecord
  2
*MODEL_SPACE
  0
BLOCK_RECORD
  5
15
330
1
100
AcDbSymbolTableRecord
100
AcDbBlockTableRecord
  2
*PAPER_SPACE
  0
BLOCK_RECORD
  5
42
330
1
100
AcDbSymbolTableRecord
100
AcDbBlockTableRecord
  2
_OPEN30
  0
BLOCK_RECORD
  5
19D42
330
1
100
AcDbSymbolTableRecord
100
AcDbBlockTableRecord
  2
A3WAKUKAWAJUN2017_HYOUDAI_
  0
BLOCK_RECORD
  5
1B24A
330
1
100
AcDbSymbolTableRecord
100
AcDbBlockTableRecord
  2
*X148
  0
BLOCK_RECORD
  5
1B298
330
1
100
AcDbSymbolTableRecord
100
AcDbBlockTableRecord
  2
*X149
  0
BLOCK_RECORD
  5
1B2EA
330
1
100
AcDbSymbolTableRecord
100
AcDbBlockTableRecord
  2
*X150
  0
BLOCK_RECORD
  5
1B33B
330
1
100
AcDbSymbolTableRecord
100
AcDbBlockTableRecord
  2
*X151
  0
BLOCK_RECORD
  5
1B378
330
1
100
AcDbSymbolTableRecord
100
AcDbBlockTableRecord
  2
*X152
  0
BLOCK_RECORD
  5
1B3B8
330
1
100
AcDbSymbolTableRecord
100
AcDbBlockTableRecord
  2
*X153
  0
ENDTAB
  0
ENDSEC
  0
SECTION
  2
BLOCKS
  0
BLOCK
  5
19
330
18
100
AcDbEntity
  8
0
100
AcDbBlockBegin
  2
*MODEL_SPACE
 70
     0
 10
0.0
 20
0.0
 30
0.0
  3
*MODEL_SPACE
  1

  0
ENDBLK
  5
1A
330
18
100
AcDbEntity
  8
0
100
AcDbBlockEnd
  0
BLOCK
  5
16
330
15
100
AcDbEntity
 67
     1
  8
0
100
AcDbBlockBegin
  2
*PAPER_SPACE
 70
     0
 10
0.0
 20
0.0
 30
0.0
  3
*PAPER_SPACE
  1

  0
ENDBLK
  5
17
330
15
100
AcDbEntity
 67
     1
  8
0
100
AcDbBlockEnd
  0
BLOCK
  5
43
330
42
100
AcDbEntity
  8
0
100
AcDbBlockBegin
  2
_OPEN30
 70
     0
 10
0.0
 20
0.0
 30
0.0
  3
_OPEN30
  1

  0
LINE
  5
44
330
42
100
AcDbEntity
  8
0
  6
BYBLOCK
 62
     0
100
AcDbLine
 10
-1.0
 20
0.26794919
 30
0.0
 11
0.0
 21
0.0
 31
0.0
  0
LINE
  5
45
330
42
100
AcDbEntity
  8
0
  6
BYBLOCK
 62
     0
100
AcDbLine
 10
0.0
 20
0.0
 30
0.0
 11
-1.0
 21
-0.26794919
 31
0.0
  0
LINE
  5
46
330
42
100
AcDbEntity
  8
0
  6
BYBLOCK
 62
     0
100
AcDbLine
 10
0.0
 20
0.0
 30
0.0
 11
-1.0
 21
0.0
 31
0.0
  0
ENDBLK
  5
47
330
42
100
AcDbEntity
  8
0
100
AcDbBlockEnd
  0
BLOCK
  5
1A550
330
19D42
100
AcDbEntity
  8
0
100
AcDbBlockBegin
  2
A3WAKUKAWAJUN2017_HYOUDAI_
 70
     0
 10
0.0
 20
0.0
 30
0.0
  3
A3WAKUKAWAJUN2017_HYOUDAI_
  1

  0
LINE
  5
19D44
330
19D42
100
AcDbEntity
  8
0
100
AcDbLine
 10
13.26299999998673
 20
-0.0001000000000317
 30
0.0
 11
9.236999999990758
 21
8.999899999990987
 31
0.0
1001
ACAD
1000
ASC_BOUNDS
1002
{
1070
    19
1005
19D85
1002
}
  0
LINE
  5
19D45
330
19D42
100
AcDbEntity
  8
0
100
AcDbLine
 10
5.657999999994331
 20
0.9999999999989768
 30
0.0
 11
9.236999999990758
 21
8.999999999991019
 31
0.0
1001
ACAD
1000
ASC_BOUNDS
1002
{
1070
    19
1005
19D85
1002
}
  0
LINE
  5
19D46
330
19D42
100
AcDbEntity
  8
0
100
AcDbLine
 10
18.59199999998134
 20
-0.2368999999997641
 30
0.0
 11
16.46099999998353
 21
5.432899999994561
 31
0.0
1001
ACAD
1000
ASC_BOUNDS
1002
{
1070
    19
1005
19D86
1002
}
  0
LINE
  5
19D47
330
19D42
100
AcDbEntity
  8
0
100
AcDbLine
 10
18.59199999998134
 20
-0.2368999999997641
 30
0.0
 11
22.38199999997767
 21
8.763099999991255
 31
0.0
1001
ACAD
1000
ASC_BOUNDS
1002
{
1070
    19
1005
19D86
1002
}
  0
LINE
  5
19D48
330
19D42
100
AcDbEntity
  8
0
100
AcDbLine
 10
14.32899999998563
 20
-0.2368999999997641
 30
0.0
 11
16.46099999998353
 21
5.432899999994561
 31
0.0
1001
ACAD
1000
ASC_BOUNDS
1002
{
1070
    19
1005
19D86
1002
}
  0
LINE
  5
19D49
330
19D42
100
AcDbEntity
  8
0
100
AcDbLine
 10
14.32899999998563
 20
-0.2368999999997641
 30
0.0
 11
10.53899999998941
 21
8.763099999991255
 31
0.0
1001
ACAD
1000
ASC_BOUNDS
1002
{
1070
    19
1005
19D86
1002
}
  0
LINE
  5
19D4A
330
19D42
100
AcDbEntity
  8
0
100
AcDbLine
 10
19.53899999998043
 20
-0.0001000000000317
 30
0.0
 11
23.56599999997638
 21
8.999899999990987
 31
0.0
1001
ACAD
1000
ASC_BOUNDS
1002
{
1070
    19
1005
19D87
1002
}
  0
LINE
  5
19D4B
330
19D42
100
AcDbEntity
  8
0
100
AcDbLine
 10
26.97358892824991
 20
1.383099999991202
 30
0.0
 11
23.56599999997638
 21
8.999899999990987
 31
0.0
1001
ACAD
1000
ASC_BOUNDS
1002
{
1070
    19
1005
19D87
1002
}
  0
LINE
  5
19D4C
330
19D42
100
AcDbEntity
  8
0
100
AcDbLine
 10
5.657999999994331
 20
0.9999999999989768
 30
0.0
 11
3.181999999996833
 21
4.668599999995308
 31
0.0
1001
ACAD
1000
ASC_BOUNDS
1002
{
1070
    19
1005
19D85
1002
}
  0
LINE
  5
19D4D
330
19D42
100
AcDbEntity
  8
0
100
AcDbLine
 10
4.617999999995391
 20
-0.0001000000000317
 30
0.0
 11
1.420999999998571
 21
4.736799999995242
 31
0.0
1001
ACAD
1000
ASC_BOUNDS
1002
{
1070
    19
1005
19D85
1002
}
  0
LINE
  5
19D4E
330
19D42
100
AcDbEntity
  8
0
100
AcDbLine
 10
1.420999999998571
 20
8.763099999991255
 30
0.0
 11
1.420999999998571
 21
0.0
 31
0.0
1001
ACAD
1000
ASC_BOUNDS
1002
{
1070
    19
1005
19D8A
1002
}
  0
LINE
  5
19D4F
330
19D42
100
AcDbEntity
  8
0
100
AcDbLine
 10
0.0
 20
8.763099999991255
 30
0.0
 11
0.0
 21
0.0
 31
0.0
1001
ACAD
1000
ASC_BOUNDS
1002
{
1070
    19
1005
19D8A
1002
}
  0
LINE
  5
19D50
330
19D42
100
AcDbEntity
  8
0
100
AcDbLine
 10
6.766999999993232
 20
-0.0001000000000317
 30
0.0
 11
7.826999999992154
 21
2.368399999997621
 31
0.0
1001
ACAD
1000
ASC_BOUNDS
1002
{
1070
    19
1005
19D85
1002
}
  0
LINE
  5
19D51
330
19D42
100
AcDbEntity
  8
0
100
AcDbLine
 10
0.0
 20
0.0
 30
0.0
 11
1.420999999998571
 21
0.0
 31
0.0
1001
ACAD
1000
ASC_BOUNDS
1002
{
1070
    19
1005
19D8A
1002
}
  0
LINE
  5
19D52
330
19D42
100
AcDbEntity
  8
0
100
AcDbLine
 10
4.617999999995391
 20
0.0
 30
0.0
 11
6.766999999993232
 21
0.0
 31
0.0
1001
ACAD
1000
ASC_BOUNDS
1002
{
1070
    19
1005
19D85
1002
}
  0
LINE
  5
19D53
330
19D42
100
AcDbEntity
  8
0
100
AcDbLine
 10
11.70599999998831
 20
-0.0001000000000317
 30
0.0
 11
10.64699999998936
 21
2.368399999997621
 31
0.0
1001
ACAD
1000
ASC_BOUNDS
1002
{
1070
    19
1005
19D85
1002
}
  0
LINE
  5
19D54
330
19D42
100
AcDbEntity
  8
0
100
AcDbLine
 10
7.826999999992154
 20
2.368399999997621
 30
0.0
 11
10.64699999998936
 21
2.368399999997621
 31
0.0
1001
ACAD
1000
ASC_BOUNDS
1002
{
1070
    19
1005
19D85
1002
}
  0
LINE
  5
19D55
330
19D42
100
AcDbEntity
  8
0
100
AcDbLine
 10
11.70599999998831
 20
0.0
 30
0.0
 11
13.26299999998673
 21
0.0
 31
0.0
1001
ACAD
1000
ASC_BOUNDS
1002
{
1070
    19
1005
19D85
1002
}
  0
LINE
  5
19D56
330
19D42
100
AcDbEntity
  8
0
100
AcDbLine
 10
22.15599999997789
 20
2.368399999997621
 30
0.0
 11
24.97599999997499
 21
2.368399999997621
 31
0.0
1001
ACAD
1000
ASC_BOUNDS
1002
{
1070
    19
1005
19D87
1002
}
  0
LINE
  5
19D57
330
19D42
100
AcDbEntity
  8
0
100
AcDbLine
 10
19.53899999998043
 20
0.0
 30
0.0
 11
21.09599999997886
 21
0.0
 31
0.0
1001
ACAD
1000
ASC_BOUNDS
1002
{
1070
    19
1005
19D87
1002
}
  0
LINE
  5
19D58
330
19D42
100
AcDbEntity
  8
0
100
AcDbLine
 10
21.09599999997886
 20
-0.0001000000000317
 30
0.0
 11
22.15599999997789
 21
2.368399999997621
 31
0.0
1001
ACAD
1000
ASC_BOUNDS
1002
{
1070
    19
1005
19D87
1002
}
  0
LINE
  5
19D59
330
19D42
100
AcDbEntity
  8
0
100
AcDbLine
 10
26.02015566812236
 20
0.0330999999912365
 30
0.0
 11
24.97599999997499
 21
2.368399999997621
 31
0.0
1001
ACAD
1000
ASC_BOUNDS
1002
{
1070
    19
1005
19D87
1002
}
  0
LINE
  5
19D5A
330
19D42
100
AcDbEntity
  8
0
100
AcDbLine
 10
14.32399999998563
 20
3.315799999996671
 30
0.0
 11
16.46099999998353
 21
8.999899999990987
 31
0.0
1001
ACAD
1000
ASC_BOUNDS
1002
{
1070
    19
1005
19D86
1002
}
  0
LINE
  5
19D5B
330
19D42
100
AcDbEntity
  8
0
100
AcDbLine
 10
6.432999999993513
 20
8.763099999991255
 30
0.0
 11
3.181999999996833
 21
4.668599999995308
 31
0.0
1001
ACAD
1000
ASC_BOUNDS
1002
{
1070
    19
1005
19D85
1002
}
  0
LINE
  5
19D5C
330
19D42
100
AcDbEntity
  8
0
100
AcDbLine
 10
4.617999999995391
 20
8.763099999991255
 30
0.0
 11
1.420999999998571
 21
4.736799999995242
 31
0.0
1001
ACAD
1000
ASC_BOUNDS
1002
{
1070
    19
1005
19D85
1002
}
  0
LINE
  5
19D5D
330
19D42
100
AcDbEntity
  8
0
100
AcDbLine
 10
0.0
 20
8.763099999991255
 30
0.0
 11
1.420999999998571
 21
8.763099999991255
 31
0.0
1001
ACAD
1000
ASC_BOUNDS
1002
{
1070
    19
1005
19D8A
1002
}
  0
LINE
  5
19D5E
330
19D42
100
AcDbEntity
  8
0
100
AcDbLine
 10
4.617999999995391
 20
8.763099999991255
 30
0.0
 11
6.432999999993513
 21
8.763099999991255
 31
0.0
1001
ACAD
1000
ASC_BOUNDS
1002
{
1070
    19
1005
19D85
1002
}
  0
LINE
  5
19D5F
330
19D42
100
AcDbEntity
  8
0
100
AcDbLine
 10
14.32399999998563
 20
3.315799999996671
 30
0.0
 11
12.02999999998792
 21
8.763099999991255
 31
0.0
1001
ACAD
1000
ASC_BOUNDS
1002
{
1070
    19
1005
19D86
1002
}
  0
LINE
  5
19D60
330
19D42
100
AcDbEntity
  8
0
100
AcDbLine
 10
10.06399999998996
 20
3.670999999996297
 30
0.0
 11
9.236999999990758
 21
5.5200999999945
 31
0.0
1001
ACAD
1000
ASC_BOUNDS
1002
{
1070
    19
1005
19D85
1002
}
  0
LINE
  5
19D61
330
19D42
100
AcDbEntity
  8
0
100
AcDbLine
 10
8.409999999991555
 20
3.670999999996297
 30
0.0
 11
9.236999999990758
 21
5.5200999999945
 31
0.0
1001
ACAD
1000
ASC_BOUNDS
1002
{
1070
    19
1005
19D85
1002
}
  0
LINE
  5
19D62
330
19D42
100
AcDbEntity
  8
0
100
AcDbLine
 10
8.409999999991555
 20
3.670999999996297
 30
0.0
 11
10.06399999998996
 21
3.670999999996297
 31
0.0
1001
ACAD
1000
ASC_BOUNDS
1002
{
1070
    19
1005
19D85
1002
}
  0
LINE
  5
19D63
330
19D42
100
AcDbEntity
  8
0
100
AcDbLine
 10
10.53899999998941
 20
8.763099999991255
 30
0.0
 11
12.02999999998792
 21
8.763099999991255
 31
0.0
1001
ACAD
1000
ASC_BOUNDS
1002
{
1070
    19
1005
19D86
1002
}
  0
LINE
  5
19D64
330
19D42
100
AcDbEntity
  8
0
100
AcDbLine
 10
22.7389999999773
 20
3.670999999996297
 30
0.0
 11
23.56599999997638
 21
5.5200999999945
 31
0.0
1001
ACAD
1000
ASC_BOUNDS
1002
{
1070
    19
1005
19D87
1002
}
  0
LINE
  5
19D65
330
19D42
100
AcDbEntity
  8
0
100
AcDbLine
 10
22.7389999999773
 20
3.670999999996297
 30
0.0
 11
24.39299999997559
 21
3.670999999996297
 31
0.0
1001
ACAD
1000
ASC_BOUNDS
1002
{
1070
    19
1005
19D87
1002
}
  0
LINE
  5
19D66
330
19D42
100
AcDbEntity
  8
0
100
AcDbLine
 10
18.59799999998143
 20
3.315799999996671
 30
0.0
 11
20.89099999997916
 21
8.763099999991255
 31
0.0
1001
ACAD
1000
ASC_BOUNDS
1002
{
1070
    19
1005
19D86
1002
}
  0
LINE
  5
19D67
330
19D42
100
AcDbEntity
  8
0
100
AcDbLine
 10
18.59799999998143
 20
3.315799999996671
 30
0.0
 11
16.46099999998353
 21
8.999899999990987
 31
0.0
1001
ACAD
1000
ASC_BOUNDS
1002
{
1070
    19
1005
19D86
1002
}
  0
LINE
  5
19D68
330
19D42
100
AcDbEntity
  8
0
100
AcDbLine
 10
20.89099999997916
 20
8.763099999991255
 30
0.0
 11
22.38199999997767
 21
8.763099999991255
 31
0.0
1001
ACAD
1000
ASC_BOUNDS
1002
{
1070
    19
1005
19D86
1002
}
  0
LINE
  5
19D69
330
19D42
100
AcDbEntity
  8
0
100
AcDbLine
 10
24.39299999997559
 20
3.670999999996297
 30
0.0
 11
23.56599999997638
 21
5.5200999999945
 31
0.0
1001
ACAD
1000
ASC_BOUNDS
1002
{
1070
    19
1005
19D87
1002
}
  0
LINE
  5
19D6A
330
19D42
100
AcDbEntity
  8
0
100
AcDbLine
 10
44.99999999995498
 20
-0.2368999999997641
 30
0.0
 11
40.02599999995994
 21
5.341799999994635
 31
0.0
1001
ACAD
1000
ASC_BOUNDS
1002
{
1070
    19
1005
19D89
1002
}
  0
LINE
  5
19D6B
330
19D42
100
AcDbEntity
  8
0
100
AcDbLine
 10
40.02599999995994
 20
5.341799999994635
 30
0.0
 11
40.02599999995994
 21
0.0
 31
0.0
1001
ACAD
1000
ASC_BOUNDS
1002
{
1070
    19
1005
19D89
1002
}
  0
LINE
  5
19D6C
330
19D42
100
AcDbEntity
  8
0
100
AcDbLine
 10
38.60499999996136
 20
8.999999999991019
 30
0.0
 11
38.60499999996136
 21
0.0
 31
0.0
1001
ACAD
1000
ASC_BOUNDS
1002
{
1070
    19
1005
19D89
1002
}
  0
LINE
  5
19D6D
330
19D42
100
AcDbEntity
  8
0
100
AcDbLine
 10
44.99999999995498
 20
8.763099999991255
 30
0.0
 11
44.99999999995498
 21
-0.2368999999997641
 31
0.0
1001
ACAD
1000
ASC_BOUNDS
1002
{
1070
    19
1005
19D89
1002
}
  0
LINE
  5
19D6E
330
19D42
100
AcDbEntity
  8
0
100
AcDbLine
 10
38.60499999996136
 20
0.0
 30
0.0
 11
40.02599999995994
 21
0.0
 31
0.0
1001
ACAD
1000
ASC_BOUNDS
1002
{
1070
    19
1005
19D89
1002
}
  0
LINE
  5
19D6F
330
19D42
100
AcDbEntity
  8
0
100
AcDbLine
 10
43.57899999995641
 20
3.421199999996588
 30
0.0
 11
38.60499999996136
 21
8.999899999990987
 31
0.0
1001
ACAD
1000
ASC_BOUNDS
1002
{
1070
    19
1005
19D89
1002
}
  0
LINE
  5
19D70
330
19D42
100
AcDbEntity
  8
0
100
AcDbLine
 10
43.57899999995641
 20
8.763099999991255
 30
0.0
 11
43.57899999995641
 21
3.421199999996588
 31
0.0
1001
ACAD
1000
ASC_BOUNDS
1002
{
1070
    19
1005
19D89
1002
}
  0
LINE
  5
19D71
330
19D42
100
AcDbEntity
  8
0
100
AcDbLine
 10
43.57899999995641
 20
8.763099999991255
 30
0.0
 11
44.99999999995498
 21
8.763099999991255
 31
0.0
1001
ACAD
1000
ASC_BOUNDS
1002
{
1070
    19
1005
19D89
1002
}
  0
LINE
  5
19D72
330
19D42
100
AcDbEntity
  8
0
100
AcDbLine
 10
37.67199999996831
 20
8.763099999991255
 30
0.0
 11
36.23199999996837
 21
8.763099999991255
 31
0.0
  0
LINE
  5
19D73
330
19D42
100
AcDbEntity
  8
0
100
AcDbLine
 10
31.64199999996833
 20
8.763099999991255
 30
0.0
 11
31.64199999996833
 21
2.481619422925121
 31
0.0
  0
LINE
  5
19D74
330
19D42
100
AcDbEntity
  8
0
100
AcDbLine
 10
37.67199999996831
 20
8.763099999991255
 30
0.0
 11
37.67199999996831
 21
2.481619422925121
 31
0.0
  0
LINE
  5
19D75
330
19D42
100
AcDbEntity
  8
0
100
AcDbLine
 10
36.23199999996837
 20
8.763099999991255
 30
0.0
 11
36.23199999996837
 21
2.481619422925064
 31
0.0
  0
LINE
  5
19D76
330
19D42
100
AcDbEntity
  8
0
100
AcDbLine
 10
33.08199999996839
 20
8.763099999991255
 30
0.0
 11
33.08199999996839
 21
2.481619422925121
 31
0.0
  0
ARC
  5
19D77
330
19D42
100
AcDbEntity
  8
0
100
AcDbCircle
 10
34.65699999996832
 20
3.183099999991214
 30
0.0
 40
3.420000000000007
100
AcDbArc
 50
240.0000000000255
 51
299.9999999999766
  0
ARC
  5
19D78
330
19D42
100
AcDbEntity
  8
0
100
AcDbCircle
 10
34.65699999996832
 20
3.183099999991214
 30
0.0
 40
1.97999999999999
100
AcDbArc
 50
240.000000000026
 51
299.9999999999703
  0
LINE
  5
19D79
330
19D42
100
AcDbEntity
  8
0
100
AcDbLine
 10
33.08199999996828
 20
8.763099999991255
 30
0.0
 11
31.64199999996833
 21
8.763099999991255
 31
0.0
  0
ARC
  5
19D7A
330
19D42
100
AcDbEntity
  8
0
100
AcDbCircle
 10
35.06199999996829
 20
2.481619422925064
 30
0.0
 40
1.17
100
AcDbArc
 50
299.9999999999699
 51
0.0
  0
ARC
  5
19D7B
330
19D42
100
AcDbEntity
  8
0
100
AcDbCircle
 10
34.25199999996835
 20
2.481619422925121
 30
0.0
 40
1.17
100
AcDbArc
 50
180.0
 51
240.0000000000238
  0
ARC
  5
19D7C
330
19D42
100
AcDbEntity
  8
0
100
AcDbCircle
 10
35.06199999996841
 20
2.481619422925121
 30
0.0
 40
2.61
100
AcDbArc
 50
299.9999999999756
 51
0.0
  0
ARC
  5
19D7D
330
19D42
100
AcDbEntity
  8
0
100
AcDbCircle
 10
34.25199999996835
 20
2.481619422925121
 30
0.0
 40
2.61
100
AcDbArc
 50
180.0
 51
240.0000000000244
  0
LINE
  5
19D7E
330
19D42
100
AcDbEntity
  8
0
100
AcDbLine
 10
29.30199999996933
 20
8.763099999991255
 30
0.0
 11
30.74199999996927
 21
8.763099999991255
 31
0.0
1001
ACAD
1000
ASC_BOUNDS
1002
{
1070
    19
1005
19D87
1002
}
  0
LINE
  5
19D7F
330
19D42
100
AcDbEntity
  8
0
100
AcDbLine
 10
30.74199999996927
 20
8.763099999991255
 30
0.0
 11
30.74199999996927
 21
2.373099999991211
 31
0.0
1001
ACAD
1000
ASC_BOUNDS
1002
{
1070
    19
1005
19D87
1002
}
  0
LINE
  5
19D80
330
19D42
100
AcDbEntity
  8
0
100
AcDbLine
 10
26.02015566812236
 20
0.0330999999912365
 30
0.0
 11
28.40199999996923
 21
0.0330999999912365
 31
0.0
1001
ACAD
1000
ASC_BOUNDS
1002
{
1070
    19
1005
19D87
1002
}
  0
LINE
  5
19D81
330
19D42
100
AcDbEntity
  8
0
100
AcDbLine
 10
29.30199999996933
 20
8.763099999991255
 30
0.0
 11
29.30199999996933
 21
2.283099999991236
 31
0.0
1001
ACAD
1000
ASC_BOUNDS
1002
{
1070
    19
1005
19D87
1002
}
  0
LINE
  5
19D82
330
19D42
100
AcDbEntity
  8
0
100
AcDbLine
 10
26.97358892824991
 20
1.383099999991202
 30
0.0
 11
28.40199999996923
 21
1.383099999991202
 31
0.0
1001
ACAD
1000
ASC_BOUNDS
1002
{
1070
    19
1005
19D87
1002
}
  0
ARC
  5
19D83
330
19D42
100
AcDbEntity
  8
0
100
AcDbCircle
 10
28.40199999996923
 20
2.283099999991236
 30
0.0
 40
0.9
100
AcDbArc
 50
270.0
 51
0.0
1001
ACAD
1000
ASC_BOUNDS
1002
{
1070
    19
1005
19D87
1002
}
  0
ARC
  5
19D84
330
19D42
100
AcDbEntity
  8
0
100
AcDbCircle
 10
28.40199999996923
 20
2.373099999991211
 30
0.0
 40
2.34
100
AcDbArc
 50
270.0
 51
0.0
1001
ACAD
1000
ASC_BOUNDS
1002
{
1070
    19
1005
19D87
1002
}
  0
INSERT
  5
19D85
330
19D42
100
AcDbEntity
  8
0
100
AcDbBlockReference
  2
*X148
 10
0.0
 20
0.0
 30
0.0
1001
ACAD
1000
HATCH
1002
{
1070
    19
1000
ANSI37
1040
0.15
1040
0.0
1000
ASC_BOUNDS
1070
     2
1070
     2
1070
    12
1005
19D44
1005
19D45
1005
19D4C
1005
19D5B
1005
19D5E
1005
19D5C
1005
19D4D
1005
19D52
1005
19D50
1005
19D54
1005
19D53
1005
19D55
1070
     2
1070
     3
1005
19D60
1005
19D62
1005
19D61
1000
ASC_SEEDPOINT
1011
3.614004224891801
1021
2.996669441146025
1031
0.0
1000
R14_HATCH_DATA
1000
19D85
1011
1.0
1021
0.0
1031
0.0
1011
0.0
1021
1.0
1031
0.0
1011
0.0
1021
0.0
1031
1.0
1040
0.0
1010
0.0
1020
0.0
1030
1.0
1000
ANSI37
1070
     0
1070
     1
1071
        2
1071
        7
1070
     0
1070
     1
1071
       17
1040
13.26299999998673
1040
-0.0001000000000317
1040
9.236999999990758
1040
8.999899999990987
1040
9.236999999990758
1040
8.999999999991019
1040
5.657999999994331
1040
0.9999999999989768
1040
3.181999999996833
1040
4.668599999995308
1040
6.432999999993513
1040
8.763099999991255
1040
4.617999999995391
1040
8.763099999991255
1040
1.420999999998571
1040
4.736799999995242
1040
4.617999999995391
1040
-0.0001000000000317
1040
4.617999999995391
1040
0.0
1040
6.766999999993232
1040
0.0
1040
6.766999999993232
1040
-0.0001000000000317
1040
7.826999999992154
1040
2.368399999997621
1040
10.64699999998936
1040
2.368399999997621
1040
11.70599999998831
1040
-0.0001000000000317
1040
11.70599999998831
1040
0.0
1040
13.26299999998673
1040
0.0
1071
       12
1005
19D44
1005
19D45
1005
19D4C
1005
19D5B
1005
19D5E
1005
19D5C
1005
19D4D
1005
19D52
1005
19D50
1005
19D54
1005
19D53
1005
19D55
1071
       22
1070
     0
1070
     1
1071
        3
1040
9.236999999990758
1040
5.5200999999945
1040
10.06399999998996
1040
3.670999999996297
1040
8.409999999991555
1040
3.670999999996297
1071
        3
1005
19D60
1005
19D62
1005
19D61
1070
     0
1070
     1
1040
0.0
1040
0.15
1070
     0
1070
     2
1040
0.7853981633974483
1040
49.29960901727088
1040
-10.17736998311392
1040
-0.3367596045400932
1040
0.3367596045400932
1070
     0
1040
2.356194490192345
1040
49.29960901727088
1040
-10.17736998311392
1040
-0.3367596045400932
1040
-0.3367596045400932
1070
     0
1040
0.0110235143455945
1071
        2
1040
3.614004224891801
1040
2.996669441146025
1040
0.0
1040
3.614004224891801
1040
2.996669441146025
1040
0.0
1002
}
  0
INSERT
  5
19D86
330
19D42
100
AcDbEntity
  8
0
100
AcDbBlockReference
  2
*X149
 10
0.0
 20
0.0
 30
0.0
1001
ACAD
1000
HATCH
1002
{
1070
    19
1000
ANSI37
1040
0.15
1040
0.0
1000
ASC_BOUNDS
1070
     1
1070
     2
1070
    10
1005
19D46
1005
19D47
1005
19D68
1005
19D66
1005
19D67
1005
19D5A
1005
19D5F
1005
19D63
1005
19D49
1005
19D48
1000
ASC_SEEDPOINT
1011
14.73245321214324
1021
2.798246178283421
1031
0.0
1000
R14_HATCH_DATA
1000
19D86
1011
1.0
1021
0.0
1031
0.0
1011
0.0
1021
1.0
1031
0.0
1011
0.0
1021
0.0
1031
1.0
1040
0.0
1010
0.0
1020
0.0
1030
1.0
1000
ANSI37
1070
     0
1070
     1
1071
        1
1071
        7
1070
     0
1070
     1
1071
       10
1040
16.46099999998353
1040
5.432899999994561
1040
18.59199999998134
1040
-0.2368999999997641
1040
22.38199999997767
1040
8.763099999991255
1040
20.89099999997916
1040
8.763099999991255
1040
18.59799999998143
1040
3.315799999996671
1040
16.46099999998353
1040
8.999899999990987
1040
14.32399999998563
1040
3.315799999996671
1040
12.02999999998792
1040
8.763099999991255
1040
10.53899999998941
1040
8.763099999991255
1040
14.32899999998563
1040
-0.2368999999997641
1071
       10
1005
19D46
1005
19D47
1005
19D68
1005
19D66
1005
19D67
1005
19D5A
1005
19D5F
1005
19D63
1005
19D49
1005
19D48
1070
     0
1070
     1
1040
0.0
1040
0.15
1070
     0
1070
     2
1040
0.7853981633974483
1040
49.29960901727088
1040
-10.17736998311392
1040
-0.3367596045400932
1040
0.3367596045400932
1070
     0
1040
2.356194490192345
1040
49.29960901727088
1040
-10.17736998311392
1040
-0.3367596045400932
1040
-0.3367596045400932
1070
     0
1040
0.0110235143455945
1071
        1
1040
14.73245321214324
1040
2.798246178283421
1040
0.0
1002
}
  0
INSERT
  5
19D87
330
19D42
100
AcDbEntity
  8
0
100
AcDbBlockReference
  2
*X150
 10
0.0
 20
0.0
 30
0.0
1001
ACAD
1000
HATCH
1002
{
1070
    19
1000
ANSI37
1040
0.15
1040
0.0
1000
ASC_BOUNDS
1070
     2
1070
     2
1070
    13
1005
19D4A
1005
19D57
1005
19D58
1005
19D56
1005
19D59
1005
19D80
1005
19D84
1005
19D7F
1005
19D7E
1005
19D81
1005
19D83
1005
19D82
1005
19D4B
1070
     2
1070
     3
1005
19D64
1005
19D69
1005
19D65
1000
ASC_SEEDPOINT
1011
21.97929957367762
1021
3.294304244259308
1031
0.0
1000
R14_HATCH_DATA
1000
19D87
1011
1.0
1021
0.0
1031
0.0
1011
0.0
1021
1.0
1031
0.0
1011
0.0
1021
0.0
1031
1.0
1040
0.0
1010
0.0
1020
0.0
1030
1.0
1000
ANSI37
1070
     0
1070
     1
1071
        2
1071
        7
1070
     1
1070
     1
1071
       15
1040
23.56599999997638
1040
8.999899999990987
1040
0.0
1040
19.53899999998043
1040
-0.0001000000000317
1040
0.0
1040
19.53899999998043
1040
0.0
1040
0.0
1040
21.09599999997886
1040
0.0
1040
0.0
1040
21.09599999997886
1040
-0.0001000000000317
1040
0.0
1040
22.15599999997789
1040
2.368399999997621
1040
0.0
1040
24.97599999997499
1040
2.368399999997621
1040
0.0
1040
26.02015566812236
1040
0.0330999999912365
1040
0.0
1040
28.40199999996923
1040
0.0330999999912365
1040
0.414213562373095
1040
30.74199999996923
1040
2.373099999991211
1040
0.0
1040
30.74199999996927
1040
8.763099999991255
1040
0.0
1040
29.30199999996933
1040
8.763099999991255
1040
0.0
1040
29.30199999996933
1040
2.283099999991236
1040
-0.414213562373095
1040
28.40199999996923
1040
1.383099999991237
1040
0.0
1040
26.97358892824991
1040
1.383099999991202
1040
0.0
1071
       13
1005
19D4A
1005
19D57
1005
19D58
1005
19D56
1005
19D59
1005
19D80
1005
19D84
1005
19D7F
1005
19D7E
1005
19D81
1005
19D83
1005
19D82
1005
19D4B
1071
       22
1070
     0
1070
     1
1071
        3
1040
22.7389999999773
1040
3.670999999996297
1040
23.56599999997638
1040
5.5200999999945
1040
24.39299999997559
1040
3.670999999996297
1071
        3
1005
19D64
1005
19D69
1005
19D65
1070
     0
1070
     1
1040
0.0
1040
0.15
1070
     0
1070
     2
1040
0.7853981633974483
1040
49.29960901727088
1040
-10.17736998311392
1040
-0.3367596045400932
1040
0.3367596045400932
1070
     0
1040
2.356194490192345
1040
49.29960901727088
1040
-10.17736998311392
1040
-0.3367596045400932
1040
-0.3367596045400932
1070
     0
1040
0.0110235143455945
1071
        2
1040
21.97929957367762
1040
3.294304244259308
1040
0.0
1040
21.97929957367762
1040
3.294304244259308
1040
0.0
1002
}
  0
INSERT
  5
19D88
330
19D42
100
AcDbEntity
  8
0
100
AcDbBlockReference
  2
*X151
 10
0.0
 20
0.0
 30
0.0
1001
ACAD
1000
HATCH
1002
{
1070
    19
1000
ANSI37
1040
0.15
1040
0.0
1000
R14_HATCH_DATA
1000
19D88
1011
1.0
1021
0.0
1031
0.0
1011
0.0
1021
1.0
1031
0.0
1011
0.0
1021
0.0
1031
1.0
1040
0.0
1010
0.0
1020
0.0
1030
1.0
1000
ANSI37
1070
     0
1070
     1
1071
        1
1071
        7
1070
     1
1070
     1
1071
       12
1040
31.64199999996833
1040
2.481619422925121
1040
0.2679491924310942
1040
32.94699999997067
1040
0.2212931190493919
1040
0.2679491924301353
1040
36.36699999995983
1040
0.2212931190459813
1040
0.2679491924321411
1040
37.67199999996831
1040
2.481619422928361
1040
0.0
1040
37.67199999996831
1040
8.763099999991255
1040
0.0
1040
36.23199999996837
1040
8.763099999991255
1040
0.0
1040
36.23199999996837
1040
2.481619422925064
1040
-0.2679491924310291
1040
35.64699999996708
1040
1.468369700498386
1040
-0.267949192430519
1040
33.66699999997093
1040
1.468369700497703
1040
-0.267949192431809
1040
33.08199999996839
1040
2.481619422926997
1040
0.0
1040
33.08199999996839
1040
8.763099999991255
1040
0.0
1040
31.64199999996833
1040
8.763099999991255
1040
0.0
1071
        0
1070
     0
1070
     1
1040
0.0
1040
0.15
1070
     0
1070
     2
1040
0.7853981633974483
1040
49.29960901727088
1040
-10.17736998311392
1040
-0.3367596045400932
1040
0.3367596045400932
1070
     0
1040
2.356194490192345
1040
49.29960901727088
1040
-10.17736998311392
1040
-0.3367596045400932
1040
-0.3367596045400932
1070
     0
1040
0.0110235143455945
1071
        1
1040
32.30357378967278
1040
3.988785755459219
1040
0.0
1002
}
  0
INSERT
  5
19D89
330
19D42
100
AcDbEntity
  8
0
100
AcDbBlockReference
  2
*X152
 10
0.0
 20
0.0
 30
0.0
1001
ACAD
1000
HATCH
1002
{
1070
    19
1000
ANSI37
1040
0.15
1040
0.0
1000
ASC_BOUNDS
1070
     1
1070
     2
1070
     8
1005
19D6A
1005
19D6D
1005
19D71
1005
19D70
1005
19D6F
1005
19D6C
1005
19D6E
1005
19D6B
1000
ASC_SEEDPOINT
1011
39.74896370716704
1021
4.484843821435049
1031
0.0
1000
R14_HATCH_DATA
1000
19D89
1011
1.0
1021
0.0
1031
0.0
1011
0.0
1021
1.0
1031
0.0
1011
0.0
1021
0.0
1031
1.0
1040
0.0
1010
0.0
1020
0.0
1030
1.0
1000
ANSI37
1070
     0
1070
     1
1071
        1
1071
        7
1070
     0
1070
     1
1071
        9
1040
40.02599999995994
1040
5.341799999994635
1040
44.99999999995498
1040
-0.2368999999997641
1040
44.99999999995498
1040
8.763099999991255
1040
43.57899999995641
1040
8.763099999991255
1040
43.57899999995641
1040
3.421199999996588
1040
38.60499999996136
1040
8.999899999990987
1040
38.60499999996136
1040
8.999999999991019
1040
38.60499999996136
1040
0.0
1040
40.02599999995994
1040
0.0
1071
        8
1005
19D6A
1005
19D6D
1005
19D71
1005
19D70
1005
19D6F
1005
19D6C
1005
19D6E
1005
19D6B
1070
     0
1070
     1
1040
0.0
1040
0.15
1070
     0
1070
     2
1040
0.7853981633974483
1040
49.29960901727088
1040
-10.17736998311392
1040
-0.3367596045400932
1040
0.3367596045400932
1070
     0
1040
2.356194490192345
1040
49.29960901727088
1040
-10.17736998311392
1040
-0.3367596045400932
1040
-0.3367596045400932
1070
     0
1040
0.0110235143455945
1071
        1
1040
39.74896370716704
1040
4.484843821435049
1040
0.0
1002
}
  0
INSERT
  5
19D8A
330
19D42
100
AcDbEntity
  8
0
100
AcDbBlockReference
  2
*X153
 10
0.0
 20
0.0
 30
0.0
1001
ACAD
1000
HATCH
1002
{
1070
    19
1000
ANSI37
1040
0.15
1040
0.0
1000
ASC_BOUNDS
1070
     1
1070
     2
1070
     4
1005
19D4E
1005
19D5D
1005
19D4F
1005
19D51
1000
ASC_SEEDPOINT
1011
1.079051535452663
1021
4.148538732891836
1031
0.0
1000
R14_HATCH_DATA
1000
19D8A
1011
1.0
1021
0.0
1031
0.0
1011
0.0
1021
1.0
1031
0.0
1011
0.0
1021
0.0
1031
1.0
1040
0.0
1010
0.0
1020
0.0
1030
1.0
1000
ANSI37
1070
     0
1070
     1
1071
        1
1071
        7
1070
     0
1070
     1
1071
        4
1040
1.420999999998571
1040
0.0
1040
1.420999999998571
1040
8.763099999991255
1040
0.0
1040
8.763099999991255
1040
0.0
1040
0.0
1071
        4
1005
19D4E
1005
19D5D
1005
19D4F
1005
19D51
1070
     0
1070
     1
1040
0.0
1040
0.15
1070
     0
1070
     2
1040
0.7853981633974483
1040
49.29960901727088
1040
-10.17736998311392
1040
-0.3367596045400932
1040
0.3367596045400932
1070
     0
1040
2.356194490192345
1040
49.29960901727088
1040
-10.17736998311392
1040
-0.3367596045400932
1040
-0.3367596045400932
1070
     0
1040
0.0053004257112761
1071
        1
1040
1.079051535452663
1040
4.148538732891836
1040
0.0
1002
}
  0
ENDBLK
  5
1A551
330
19D42
100
AcDbEntity
  8
0
100
AcDbBlockEnd
  0
BLOCK
  5
1B3D8
330
1B24A
100
AcDbEntity
  8
0
100
AcDbBlockBegin
  2
*X148
 70
     1
 10
0.0
 20
0.0
 30
0.0
  3
*X148
  1

  0
LINE
  5
1B24B
330
1B24A
100
AcDbEntity
  8
0
  6
CONTINUOUS
100
AcDbLine
 10
3.418023043697893
 20
7.251849696850613
 30
0.0
 11
4.929273346838536
 21
8.763099999991255
 31
0.0
  0
LINE
  5
1B24C
330
1B24A
100
AcDbEntity
  8
0
  6
CONTINUOUS
100
AcDbLine
 10
1.483656411257782
 20
4.643963855330318
 30
0.0
 11
5.60279255591872
 21
8.763099999991255
 31
0.0
  0
LINE
  5
1B24D
330
1B24A
100
AcDbEntity
  8
0
  6
CONTINUOUS
100
AcDbLine
 10
1.755053947328235
 20
4.241842182320584
 30
0.0
 11
6.276311764998907
 21
8.763099999991255
 31
0.0
  0
LINE
  5
1B24E
330
1B24A
100
AcDbEntity
  8
0
  6
CONTINUOUS
100
AcDbLine
 10
2.026451483398688
 20
3.839720509310849
 30
0.0
 11
4.441040904851878
 21
6.254309930764039
 31
0.0
  0
LINE
  5
1B24F
330
1B24A
100
AcDbEntity
  8
0
  6
CONTINUOUS
100
AcDbLine
 10
2.297849019469139
 20
3.437598836301114
 30
0.0
 11
3.321765168359338
 21
4.461514985191313
 31
0.0
  0
LINE
  5
1B250
330
1B24A
100
AcDbEntity
  8
0
  6
CONTINUOUS
100
AcDbLine
 10
2.569246555539591
 20
3.03547716329138
 30
0.0
 11
3.593163397972743
 21
4.059394005724531
 31
0.0
  0
LINE
  5
1B251
330
1B24A
100
AcDbEntity
  8
0
  6
CONTINUOUS
100
AcDbLine
 10
2.840644091610043
 20
2.633355490281646
 30
0.0
 11
3.864561627586149
 21
3.657273026257751
 31
0.0
  0
LINE
  5
1B252
330
1B24A
100
AcDbEntity
  8
0
  6
CONTINUOUS
100
AcDbLine
 10
3.112041627680496
 20
2.231233817271911
 30
0.0
 11
4.135959857199554
 21
3.25515204679097
 31
0.0
  0
LINE
  5
1B253
330
1B24A
100
AcDbEntity
  8
0
  6
CONTINUOUS
100
AcDbLine
 10
3.383439163750948
 20
1.829112144262177
 30
0.0
 11
4.40735808681296
 21
2.853031067324189
 31
0.0
  0
LINE
  5
1B254
330
1B24A
100
AcDbEntity
  8
0
  6
CONTINUOUS
100
AcDbLine
 10
3.654836699821399
 20
1.426990471252442
 30
0.0
 11
4.678756316426365
 21
2.450910087857407
 31
0.0
  0
LINE
  5
1B255
330
1B24A
100
AcDbEntity
  8
0
  6
CONTINUOUS
100
AcDbLine
 10
3.926234235891853
 20
1.024868798242709
 30
0.0
 11
4.95015454603977
 21
2.048789108390626
 31
0.0
  0
LINE
  5
1B256
330
1B24A
100
AcDbEntity
  8
0
  6
CONTINUOUS
100
AcDbLine
 10
4.197631771962304
 20
0.6227471252329737
 30
0.0
 11
5.221552775653176
 21
1.646668128923846
 31
0.0
  0
LINE
  5
1B257
330
1B24A
100
AcDbEntity
  8
0
  6
CONTINUOUS
100
AcDbLine
 10
8.715877546767851
 20
7.835069736359266
 30
0.0
 11
9.435953450375058
 21
8.555145639966472
 31
0.0
  0
LINE
  5
1B258
330
1B24A
100
AcDbEntity
  8
0
  6
CONTINUOUS
100
AcDbLine
 10
8.170620868422267
 20
6.616293848933497
 30
0.0
 11
9.644120833743461
 21
8.08979381425469
 31
0.0
  0
LINE
  5
1B259
330
1B24A
100
AcDbEntity
  8
0
  6
CONTINUOUS
100
AcDbLine
 10
7.625364190076684
 20
5.397517961507727
 30
0.0
 11
9.852288217111864
 21
7.624441988542907
 31
0.0
  0
LINE
  5
1B25A
330
1B24A
100
AcDbEntity
  8
0
  6
CONTINUOUS
100
AcDbLine
 10
7.080107511731101
 20
4.178742074081957
 30
0.0
 11
10.06045560048027
 21
7.159090162831124
 31
0.0
  0
LINE
  5
1B25B
330
1B24A
100
AcDbEntity
  8
0
  6
CONTINUOUS
100
AcDbLine
 10
6.534850833385518
 20
2.959966186656187
 30
0.0
 11
10.26862298384867
 21
6.693738337119342
 31
0.0
  0
LINE
  5
1B25C
330
1B24A
100
AcDbEntity
  8
0
  6
CONTINUOUS
100
AcDbLine
 10
4.469029308032756
 20
0.2206254522232385
 30
0.0
 11
5.492951005266582
 21
1.244547149457064
 31
0.0
  0
LINE
  5
1B25D
330
1B24A
100
AcDbEntity
  8
0
  6
CONTINUOUS
100
AcDbLine
 10
5.989594155039935
 20
1.741190299230417
 30
0.0
 11
8.806950407233131
 21
4.558546551423613
 31
0.0
  0
LINE
  5
1B25E
330
1B24A
100
AcDbEntity
  8
0
  6
CONTINUOUS
100
AcDbLine
 10
9.401251593263643
 20
5.152847737454126
 30
0.0
 11
10.47679036721708
 21
6.228386511407559
 31
0.0
  0
LINE
  5
1B25F
330
1B24A
100
AcDbEntity
  8
0
  6
CONTINUOUS
100
AcDbLine
 10
4.921837203428691
 20
-0.0000858614610131
 30
0.0
 11
8.592923064886001
 21
3.670999999996297
 31
0.0
  0
LINE
  5
1B260
330
1B24A
100
AcDbEntity
  8
0
  6
CONTINUOUS
100
AcDbLine
 10
9.609390446785305
 20
4.6874673818956
 30
0.0
 11
10.68495775058548
 21
5.763034685695775
 31
0.0
  0
LINE
  5
1B261
330
1B24A
100
AcDbEntity
  8
0
  6
CONTINUOUS
100
AcDbLine
 10
5.595387755019432
 20
-0.0000545189504582
 30
0.0
 11
7.716137258923768
 21
2.120694984953879
 31
0.0
  0
LINE
  5
1B262
330
1B24A
100
AcDbEntity
  8
0
  6
CONTINUOUS
100
AcDbLine
 10
6.268938306610172
 20
-0.000023176439905
 30
0.0
 11
7.170485805526503
 21
0.9015243224764267
 31
0.0
  0
LINE
  5
1B263
330
1B24A
100
AcDbEntity
  8
0
  6
CONTINUOUS
100
AcDbLine
 10
7.963842273967511
 20
2.368399999997621
 30
0.0
 11
9.266442273966188
 21
3.670999999996297
 31
0.0
  0
LINE
  5
1B264
330
1B24A
100
AcDbEntity
  8
0
  6
CONTINUOUS
100
AcDbLine
 10
8.637361483047696
 20
2.368399999997621
 30
0.0
 11
9.939961483046375
 21
3.670999999996297
 31
0.0
  0
LINE
  5
1B265
330
1B24A
100
AcDbEntity
  8
0
  6
CONTINUOUS
100
AcDbLine
 10
9.817529300306965
 20
4.222087026337075
 30
0.0
 11
10.89312513395388
 21
5.297682859983993
 31
0.0
  0
LINE
  5
1B266
330
1B24A
100
AcDbEntity
  8
0
  6
CONTINUOUS
100
AcDbLine
 10
10.02566815382863
 20
3.756706670778549
 30
0.0
 11
11.10129251732229
 21
4.832331034272211
 31
0.0
  0
LINE
  5
1B267
330
1B24A
100
AcDbEntity
  8
0
  6
CONTINUOUS
100
AcDbLine
 10
9.310880692127883
 20
2.368399999997621
 30
0.0
 11
11.30945990069069
 21
4.366979208560428
 31
0.0
  0
LINE
  5
1B268
330
1B24A
100
AcDbEntity
  8
0
  6
CONTINUOUS
100
AcDbLine
 10
9.98439990120807
 20
2.36839999999762
 30
0.0
 11
11.5176272840591
 21
3.901627382848645
 31
0.0
  0
LINE
  5
1B269
330
1B24A
100
AcDbEntity
  8
0
  6
CONTINUOUS
100
AcDbLine
 10
10.65037369446246
 20
2.36085458417182
 30
0.0
 11
11.7257946674275
 21
3.436275557136862
 31
0.0
  0
LINE
  5
1B26A
330
1B24A
100
AcDbEntity
  8
0
  6
CONTINUOUS
100
AcDbLine
 10
10.85847197087848
 20
1.895433651507656
 30
0.0
 11
11.9339620507959
 21
2.97092373142508
 31
0.0
  0
LINE
  5
1B26B
330
1B24A
100
AcDbEntity
  8
0
  6
CONTINUOUS
100
AcDbLine
 10
11.0665702472945
 20
1.430012718843491
 30
0.0
 11
12.14212943416431
 21
2.505571905713296
 31
0.0
  0
LINE
  5
1B26C
330
1B24A
100
AcDbEntity
  8
0
  6
CONTINUOUS
100
AcDbLine
 10
11.27466852371052
 20
0.9645917861793256
 30
0.0
 11
12.35029681753271
 21
2.040220080001513
 31
0.0
  0
LINE
  5
1B26D
330
1B24A
100
AcDbEntity
  8
0
  6
CONTINUOUS
100
AcDbLine
 10
11.48276680012654
 20
0.4991708535151611
 30
0.0
 11
12.55846420090111
 21
1.57486825428973
 31
0.0
  0
LINE
  5
1B26E
330
1B24A
100
AcDbEntity
  8
0
  6
CONTINUOUS
100
AcDbLine
 10
11.69086507654257
 20
0.0337499208509957
 30
0.0
 11
12.76663158426952
 21
1.109516428577947
 31
0.0
  0
LINE
  5
1B26F
330
1B24A
100
AcDbEntity
  8
0
  6
CONTINUOUS
100
AcDbLine
 10
12.33057447873954
 20
-0.0000598860322123
 30
0.0
 11
12.97479896763792
 21
0.6441646028661663
 31
0.0
  0
LINE
  5
1B270
330
1B24A
100
AcDbEntity
  8
0
  6
CONTINUOUS
100
AcDbLine
 10
13.00413694809395
 20
-0.0000166257579952
 30
0.0
 11
13.18296635100632
 21
0.1788127771543824
 31
0.0
  0
LINE
  5
1B271
330
1B24A
100
AcDbEntity
  8
0
  6
CONTINUOUS
100
AcDbLine
 10
4.772852165289667
 20
-0.000092794222212
 30
0.0
 11
4.296495091028902
 21
0.4762642800385528
 31
0.0
  0
LINE
  5
1B272
330
1B24A
100
AcDbEntity
  8
0
  6
CONTINUOUS
100
AcDbLine
 10
5.446340034776103
 20
-0.0000614546284616
 30
0.0
 11
2.898195908335625
 21
2.548082671812017
 31
0.0
  0
LINE
  5
1B273
330
1B24A
100
AcDbEntity
  8
0
  6
CONTINUOUS
100
AcDbLine
 10
6.119827904262539
 20
-0.0000301150347113
 30
0.0
 11
1.499896725642348
 21
4.61990106358548
 31
0.0
  0
LINE
  5
1B274
330
1B24A
100
AcDbEntity
  8
0
  6
CONTINUOUS
100
AcDbLine
 10
6.775136745476159
 20
0.0181802528318542
 30
0.0
 11
5.699826040202669
 21
1.093490958105344
 31
0.0
  0
LINE
  5
1B275
330
1B24A
100
AcDbEntity
  8
0
  6
CONTINUOUS
100
AcDbLine
 10
6.983376846288489
 20
0.4834593610997118
 30
0.0
 11
5.908008617934405
 21
1.558827589453796
 31
0.0
  0
LINE
  5
1B276
330
1B24A
100
AcDbEntity
  8
0
  6
CONTINUOUS
100
AcDbLine
 10
5.377063484962296
 20
1.416253513345719
 30
0.0
 11
1.702276957014131
 21
5.091040041293883
 31
0.0
  0
LINE
  5
1B277
330
1B24A
100
AcDbEntity
  8
0
  6
CONTINUOUS
100
AcDbLine
 10
3.978745891735324
 20
3.488090315652877
 30
0.0
 11
2.000373521109399
 21
5.466462686278803
 31
0.0
  0
LINE
  5
1B278
330
1B24A
100
AcDbEntity
  8
0
  6
CONTINUOUS
100
AcDbLine
 10
7.191616947100819
 20
0.948738469367568
 30
0.0
 11
6.11619119566614
 21
2.024164220802247
 31
0.0
  0
LINE
  5
1B279
330
1B24A
100
AcDbEntity
  8
0
  6
CONTINUOUS
100
AcDbLine
 10
7.399857047913149
 20
1.414017577635424
 30
0.0
 11
6.324373773397875
 21
2.489500852150698
 31
0.0
  0
LINE
  5
1B27A
330
1B24A
100
AcDbEntity
  8
0
  6
CONTINUOUS
100
AcDbLine
 10
7.608097148725479
 20
1.879296685903281
 30
0.0
 11
6.53255635112961
 21
2.95483748349915
 31
0.0
  0
LINE
  5
1B27B
330
1B24A
100
AcDbEntity
  8
0
  6
CONTINUOUS
100
AcDbLine
 10
7.816337249537808
 20
2.344575794171138
 30
0.0
 11
6.740738928861345
 21
3.420174114847601
 31
0.0
  0
LINE
  5
1B27C
330
1B24A
100
AcDbEntity
  8
0
  6
CONTINUOUS
100
AcDbLine
 10
3.310241080789734
 20
4.830114335678653
 30
0.0
 11
2.298470085204666
 21
5.84188533126372
 31
0.0
  0
LINE
  5
1B27D
330
1B24A
100
AcDbEntity
  8
0
  6
CONTINUOUS
100
AcDbLine
 10
3.60832983563551
 20
5.205544789913063
 30
0.0
 11
2.596566649299935
 21
6.217307976248638
 31
0.0
  0
LINE
  5
1B27E
330
1B24A
100
AcDbEntity
  8
0
  6
CONTINUOUS
100
AcDbLine
 10
3.906418590481286
 20
5.580975244147473
 30
0.0
 11
2.894663213395203
 21
6.592730621233557
 31
0.0
  0
LINE
  5
1B27F
330
1B24A
100
AcDbEntity
  8
0
  6
CONTINUOUS
100
AcDbLine
 10
4.204507345327062
 20
5.956405698381884
 30
0.0
 11
3.192759777490472
 21
6.968153266218474
 31
0.0
  0
LINE
  5
1B280
330
1B24A
100
AcDbEntity
  8
0
  6
CONTINUOUS
100
AcDbLine
 10
8.466032252791512
 20
2.368399999997621
 30
0.0
 11
6.948921506593081
 21
3.885510746196053
 31
0.0
  0
LINE
  5
1B281
330
1B24A
100
AcDbEntity
  8
0
  6
CONTINUOUS
100
AcDbLine
 10
9.139551461871699
 20
2.36839999999762
 30
0.0
 11
7.157104084324816
 21
4.350847377544504
 31
0.0
  0
LINE
  5
1B282
330
1B24A
100
AcDbEntity
  8
0
  6
CONTINUOUS
100
AcDbLine
 10
4.502596100172839
 20
6.331836152616295
 30
0.0
 11
3.49085634158574
 21
7.343575911203393
 31
0.0
  0
LINE
  5
1B283
330
1B24A
100
AcDbEntity
  8
0
  6
CONTINUOUS
100
AcDbLine
 10
4.800684855018615
 20
6.707266606850705
 30
0.0
 11
3.788952905681008
 21
7.718998556188312
 31
0.0
  0
LINE
  5
1B284
330
1B24A
100
AcDbEntity
  8
0
  6
CONTINUOUS
100
AcDbLine
 10
12.18154012887317
 20
-0.0000694579236642
 30
0.0
 11
11.32140332908496
 21
0.8600673418645499
 31
0.0
  0
LINE
  5
1B285
330
1B24A
100
AcDbEntity
  8
0
  6
CONTINUOUS
100
AcDbLine
 10
12.85501608323566
 20
-0.0000262032059659
 30
0.0
 11
10.77672456435345
 21
2.078265315676246
 31
0.0
  0
LINE
  5
1B286
330
1B24A
100
AcDbEntity
  8
0
  6
CONTINUOUS
100
AcDbLine
 10
9.813070670951886
 20
2.36839999999762
 30
0.0
 11
8.51047067095321
 21
3.670999999996297
 31
0.0
  0
LINE
  5
1B287
330
1B24A
100
AcDbEntity
  8
0
  6
CONTINUOUS
100
AcDbLine
 10
10.48658988003207
 20
2.36839999999762
 30
0.0
 11
9.183989880033396
 21
3.670999999996297
 31
0.0
  0
LINE
  5
1B288
330
1B24A
100
AcDbEntity
  8
0
  6
CONTINUOUS
100
AcDbLine
 10
8.441048632286794
 20
3.740422038662712
 30
0.0
 11
7.365286662056551
 21
4.816184008892956
 31
0.0
  0
LINE
  5
1B289
330
1B24A
100
AcDbEntity
  8
0
  6
CONTINUOUS
100
AcDbLine
 10
8.649187485808454
 20
4.205802394221237
 30
0.0
 11
7.573469239788285
 21
5.281520640241407
 31
0.0
  0
LINE
  5
1B28A
330
1B24A
100
AcDbEntity
  8
0
  6
CONTINUOUS
100
AcDbLine
 10
5.098773609864391
 20
7.082697061085115
 30
0.0
 11
4.087049469776277
 21
8.09442120117323
 31
0.0
  0
LINE
  5
1B28B
330
1B24A
100
AcDbEntity
  8
0
  6
CONTINUOUS
100
AcDbLine
 10
5.396862364710167
 20
7.458127515319526
 30
0.0
 11
4.385146033871544
 21
8.469843846158149
 31
0.0
  0
LINE
  5
1B28C
330
1B24A
100
AcDbEntity
  8
0
  6
CONTINUOUS
100
AcDbLine
 10
13.04801363231285
 20
0.4804954567970334
 30
0.0
 11
9.85750908911358
 21
3.670999999996297
 31
0.0
  0
LINE
  5
1B28D
330
1B24A
100
AcDbEntity
  8
0
  6
CONTINUOUS
100
AcDbLine
 10
8.857326339330116
 20
4.671182749779763
 30
0.0
 11
7.781651817520021
 21
5.746857271589858
 31
0.0
  0
LINE
  5
1B28E
330
1B24A
100
AcDbEntity
  8
0
  6
CONTINUOUS
100
AcDbLine
 10
5.694951119555943
 20
7.833557969553937
 30
0.0
 11
4.765409089118624
 21
8.763099999991255
 31
0.0
  0
LINE
  5
1B28F
330
1B24A
100
AcDbEntity
  8
0
  6
CONTINUOUS
100
AcDbLine
 10
12.50286117236978
 20
1.699167125820288
 30
0.0
 11
9.68611877250287
 21
4.515909525687196
 31
0.0
  0
LINE
  5
1B290
330
1B24A
100
AcDbEntity
  8
0
  6
CONTINUOUS
100
AcDbLine
 10
9.065465192851777
 20
5.136563105338288
 30
0.0
 11
7.989834395251757
 21
6.21219390293831
 31
0.0
  0
LINE
  5
1B291
330
1B24A
100
AcDbEntity
  8
0
  6
CONTINUOUS
100
AcDbLine
 10
5.993039874401719
 20
8.208988423788346
 30
0.0
 11
5.43892829819881
 21
8.763099999991255
 31
0.0
  0
LINE
  5
1B292
330
1B24A
100
AcDbEntity
  8
0
  6
CONTINUOUS
100
AcDbLine
 10
11.95770871242671
 20
2.917838794843543
 30
0.0
 11
8.19801697298349
 21
6.677530534286761
 31
0.0
  0
LINE
  5
1B293
330
1B24A
100
AcDbEntity
  8
0
  6
CONTINUOUS
100
AcDbLine
 10
6.291128629247495
 20
8.584418878022756
 30
0.0
 11
6.112447507278997
 21
8.763099999991255
 31
0.0
  0
LINE
  5
1B294
330
1B24A
100
AcDbEntity
  8
0
  6
CONTINUOUS
100
AcDbLine
 10
11.41255625248364
 20
4.136510463866797
 30
0.0
 11
8.406199550715227
 21
7.142867165635211
 31
0.0
  0
LINE
  5
1B295
330
1B24A
100
AcDbEntity
  8
0
  6
CONTINUOUS
100
AcDbLine
 10
10.86740379254057
 20
5.355182132890051
 30
0.0
 11
8.614382128446962
 21
7.608203796983664
 31
0.0
  0
LINE
  5
1B296
330
1B24A
100
AcDbEntity
  8
0
  6
CONTINUOUS
100
AcDbLine
 10
10.3222513325975
 20
6.573853801913305
 30
0.0
 11
8.822564706178696
 21
8.073540428332114
 31
0.0
  0
LINE
  5
1B297
330
1B24A
100
AcDbEntity
  8
0
  6
CONTINUOUS
100
AcDbLine
 10
9.777098872654436
 20
7.792525470936562
 30
0.0
 11
9.030747283910433
 21
8.538877059680566
 31
0.0
  0
ENDBLK
  5
1B3D9
330
1B24A
100
AcDbEntity
  8
0
100
AcDbBlockEnd
  0
BLOCK
  5
1B3DA
330
1B298
100
AcDbEntity
  8
0
100
AcDbBlockBegin
  2
*X149
 70
     1
 10
0.0
 20
0.0
 30
0.0
  3
*X149
  1

  0
LINE
  5
1B299
330
1B298
100
AcDbEntity
  8
0
  6
CONTINUOUS
100
AcDbLine
 10
10.67292308101235
 20
8.445076852443387
 30
0.0
 11
10.99094622856022
 21
8.763099999991255
 31
0.0
  0
LINE
  5
1B29A
330
1B298
100
AcDbEntity
  8
0
  6
CONTINUOUS
100
AcDbLine
 10
10.87250383178748
 20
7.971138394138331
 30
0.0
 11
11.6644654376404
 21
8.763099999991255
 31
0.0
  0
LINE
  5
1B29B
330
1B298
100
AcDbEntity
  8
0
  6
CONTINUOUS
100
AcDbLine
 10
11.07208458256261
 20
7.497199935833273
 30
0.0
 11
12.12126590876355
 21
8.546381262034211
 31
0.0
  0
LINE
  5
1B29C
330
1B298
100
AcDbEntity
  8
0
  6
CONTINUOUS
100
AcDbLine
 10
11.27166533333774
 20
7.023261477528216
 30
0.0
 11
12.32085164573666
 21
8.072447789927136
 31
0.0
  0
LINE
  5
1B29D
330
1B298
100
AcDbEntity
  8
0
  6
CONTINUOUS
100
AcDbLine
 10
11.47124608411287
 20
6.549323019223158
 30
0.0
 11
12.52043738270977
 21
7.59851431782006
 31
0.0
  0
LINE
  5
1B29E
330
1B298
100
AcDbEntity
  8
0
  6
CONTINUOUS
100
AcDbLine
 10
11.670826834888
 20
6.075384560918101
 30
0.0
 11
12.72002311968288
 21
7.124580845712984
 31
0.0
  0
LINE
  5
1B29F
330
1B298
100
AcDbEntity
  8
0
  6
CONTINUOUS
100
AcDbLine
 10
11.87040758566313
 20
5.601446102613043
 30
0.0
 11
12.91960885665599
 21
6.650647373605907
 31
0.0
  0
LINE
  5
1B2A0
330
1B298
100
AcDbEntity
  8
0
  6
CONTINUOUS
100
AcDbLine
 10
12.06998833643825
 20
5.127507644307986
 30
0.0
 11
13.1191945936291
 21
6.176713901498832
 31
0.0
  0
LINE
  5
1B2A1
330
1B298
100
AcDbEntity
  8
0
  6
CONTINUOUS
100
AcDbLine
 10
12.26956908721338
 20
4.65356918600293
 30
0.0
 11
13.31878033060221
 21
5.702780429391757
 31
0.0
  0
LINE
  5
1B2A2
330
1B298
100
AcDbEntity
  8
0
  6
CONTINUOUS
100
AcDbLine
 10
12.46914983798851
 20
4.179630727697873
 30
0.0
 11
13.51836606757532
 21
5.228846957284683
 31
0.0
  0
LINE
  5
1B2A3
330
1B298
100
AcDbEntity
  8
0
  6
CONTINUOUS
100
AcDbLine
 10
12.66873058876364
 20
3.705692269392816
 30
0.0
 11
13.71795180454843
 21
4.754913485177607
 31
0.0
  0
LINE
  5
1B2A4
330
1B298
100
AcDbEntity
  8
0
  6
CONTINUOUS
100
AcDbLine
 10
12.86831133953877
 20
3.231753811087759
 30
0.0
 11
13.91753754152154
 21
4.280980013070531
 31
0.0
  0
LINE
  5
1B2A5
330
1B298
100
AcDbEntity
  8
0
  6
CONTINUOUS
100
AcDbLine
 10
13.0678920903139
 20
2.757815352782702
 30
0.0
 11
14.11712327849465
 21
3.807046540963456
 31
0.0
  0
LINE
  5
1B2A6
330
1B298
100
AcDbEntity
  8
0
  6
CONTINUOUS
100
AcDbLine
 10
13.26747284108903
 20
2.283876894477644
 30
0.0
 11
14.31670901546777
 21
3.333113068856379
 31
0.0
  0
LINE
  5
1B2A7
330
1B298
100
AcDbEntity
  8
0
  6
CONTINUOUS
100
AcDbLine
 10
16.36767838827179
 20
8.751678487061342
 30
0.0
 11
16.50332410898388
 21
8.887324207773432
 31
0.0
  0
LINE
  5
1B2A8
330
1B298
100
AcDbEntity
  8
0
  6
CONTINUOUS
100
AcDbLine
 10
15.96190732182191
 20
7.67238821153127
 30
0.0
 11
16.68735328004734
 21
8.397834169756699
 31
0.0
  0
LINE
  5
1B2A9
330
1B298
100
AcDbEntity
  8
0
  6
CONTINUOUS
100
AcDbLine
 10
15.55613625537202
 20
6.593097936001196
 30
0.0
 11
16.87138245111079
 21
7.908344131739965
 31
0.0
  0
LINE
  5
1B2AA
330
1B298
100
AcDbEntity
  8
0
  6
CONTINUOUS
100
AcDbLine
 10
15.15036518892213
 20
5.513807660471122
 30
0.0
 11
17.05541162217424
 21
7.418854093723231
 31
0.0
  0
LINE
  5
1B2AB
330
1B298
100
AcDbEntity
  8
0
  6
CONTINUOUS
100
AcDbLine
 10
14.74459412247225
 20
4.434517384941048
 30
0.0
 11
17.2394407932377
 21
6.929364055706499
 31
0.0
  0
LINE
  5
1B2AC
330
1B298
100
AcDbEntity
  8
0
  6
CONTINUOUS
100
AcDbLine
 10
14.33882305602236
 20
3.355227109410975
 30
0.0
 11
17.42346996430115
 21
6.439874017689766
 31
0.0
  0
LINE
  5
1B2AD
330
1B298
100
AcDbEntity
  8
0
  6
CONTINUOUS
100
AcDbLine
 10
13.46705359186416
 20
1.809938436172586
 30
0.0
 11
16.0819338255367
 21
4.424818669845129
 31
0.0
  0
LINE
  5
1B2AE
330
1B298
100
AcDbEntity
  8
0
  6
CONTINUOUS
100
AcDbLine
 10
16.63283254238972
 20
4.975717386698149
 30
0.0
 11
17.60749913536461
 21
5.950383979673033
 31
0.0
  0
LINE
  5
1B2AF
330
1B298
100
AcDbEntity
  8
0
  6
CONTINUOUS
100
AcDbLine
 10
13.66663434263929
 20
1.335999977867529
 30
0.0
 11
15.67604797733754
 21
3.345413612565779
 31
0.0
  0
LINE
  5
1B2B0
330
1B298
100
AcDbEntity
  8
0
  6
CONTINUOUS
100
AcDbLine
 10
13.86621509341442
 20
0.8620615195624723
 30
0.0
 11
15.27016212913838
 21
2.26600855528643
 31
0.0
  0
LINE
  5
1B2B1
330
1B298
100
AcDbEntity
  8
0
  6
CONTINUOUS
100
AcDbLine
 10
16.81682257348267
 20
4.486188208710908
 30
0.0
 11
17.79152830642806
 21
5.460893941656299
 31
0.0
  0
LINE
  5
1B2B2
330
1B298
100
AcDbEntity
  8
0
  6
CONTINUOUS
100
AcDbLine
 10
17.00081260457561
 20
3.996659030723667
 30
0.0
 11
17.97555747749151
 21
4.971403903639565
 31
0.0
  0
LINE
  5
1B2B3
330
1B298
100
AcDbEntity
  8
0
  6
CONTINUOUS
100
AcDbLine
 10
20.74362343514722
 20
8.412989070375462
 30
0.0
 11
21.09373436476302
 21
8.763099999991256
 31
0.0
  0
LINE
  5
1B2B4
330
1B298
100
AcDbEntity
  8
0
  6
CONTINUOUS
100
AcDbLine
 10
20.25401257174777
 20
7.249858997895826
 30
0.0
 11
21.7672535738432
 21
8.763099999991255
 31
0.0
  0
LINE
  5
1B2B5
330
1B298
100
AcDbEntity
  8
0
  6
CONTINUOUS
100
AcDbLine
 10
14.06579584418955
 20
0.3881230612574149
 30
0.0
 11
14.86427628093921
 21
1.186603498007082
 31
0.0
  0
LINE
  5
1B2B6
330
1B298
100
AcDbEntity
  8
0
  6
CONTINUOUS
100
AcDbLine
 10
14.26537659496467
 20
-0.0858153970476412
 30
0.0
 11
14.45839043274005
 21
0.1071984407277329
 31
0.0
  0
LINE
  5
1B2B7
330
1B298
100
AcDbEntity
  8
0
  6
CONTINUOUS
100
AcDbLine
 10
17.18480263566856
 20
3.507129852736426
 30
0.0
 11
18.15958664855496
 21
4.481913865622833
 31
0.0
  0
LINE
  5
1B2B8
330
1B298
100
AcDbEntity
  8
0
  6
CONTINUOUS
100
AcDbLine
 10
17.3687926667615
 20
3.017600674749186
 30
0.0
 11
18.34361581961842
 21
3.9924238276061
 31
0.0
  0
LINE
  5
1B2B9
330
1B298
100
AcDbEntity
  8
0
  6
CONTINUOUS
100
AcDbLine
 10
19.76440170834832
 20
6.086728925416191
 30
0.0
 11
22.33924590259489
 21
8.661573119662755
 31
0.0
  0
LINE
  5
1B2BA
330
1B298
100
AcDbEntity
  8
0
  6
CONTINUOUS
100
AcDbLine
 10
19.27479084494887
 20
4.923598852936555
 30
0.0
 11
21.84929622842713
 21
7.498104236414807
 31
0.0
  0
LINE
  5
1B2BB
330
1B298
100
AcDbEntity
  8
0
  6
CONTINUOUS
100
AcDbLine
 10
17.55278269785445
 20
2.528071496761945
 30
0.0
 11
18.52764499068187
 21
3.502933789589366
 31
0.0
  0
LINE
  5
1B2BC
330
1B298
100
AcDbEntity
  8
0
  6
CONTINUOUS
100
AcDbLine
 10
18.78517998154942
 20
3.760468780456919
 30
0.0
 11
21.35934655425936
 21
6.33463535316686
 31
0.0
  0
LINE
  5
1B2BD
330
1B298
100
AcDbEntity
  8
0
  6
CONTINUOUS
100
AcDbLine
 10
17.73677272894739
 20
2.038542318774704
 30
0.0
 11
20.8693968800916
 21
5.171166469918914
 31
0.0
  0
LINE
  5
1B2BE
330
1B298
100
AcDbEntity
  8
0
  6
CONTINUOUS
100
AcDbLine
 10
17.92076276004034
 20
1.549013140787464
 30
0.0
 11
20.37944720592384
 21
4.007697586670968
 31
0.0
  0
LINE
  5
1B2BF
330
1B298
100
AcDbEntity
  8
0
  6
CONTINUOUS
100
AcDbLine
 10
18.10475279113329
 20
1.059483962800223
 30
0.0
 11
19.88949753175608
 21
2.84422870342302
 31
0.0
  0
LINE
  5
1B2C0
330
1B298
100
AcDbEntity
  8
0
  6
CONTINUOUS
100
AcDbLine
 10
18.28874282222623
 20
0.5699547848129822
 30
0.0
 11
19.39954785758832
 21
1.680759820175074
 31
0.0
  0
LINE
  5
1B2C1
330
1B298
100
AcDbEntity
  8
0
  6
CONTINUOUS
100
AcDbLine
 10
18.47273285331918
 20
0.0804256068257416
 30
0.0
 11
18.90959818342056
 21
0.517290936927127
 31
0.0
  0
LINE
  5
1B2C2
330
1B298
100
AcDbEntity
  8
0
  6
CONTINUOUS
100
AcDbLine
 10
14.3590401358224
 20
-0.1570118376323384
 30
0.0
 11
14.24903296539946
 21
-0.0470046672093929
 31
0.0
  0
LINE
  5
1B2C3
330
1B298
100
AcDbEntity
  8
0
  6
CONTINUOUS
100
AcDbLine
 10
14.54309291258661
 20
0.332454594683643
 30
0.0
 11
13.75908329123172
 21
1.116464216038529
 31
0.0
  0
LINE
  5
1B2C4
330
1B298
100
AcDbEntity
  8
0
  6
CONTINUOUS
100
AcDbLine
 10
14.72714568935081
 20
0.8219210269996244
 30
0.0
 11
13.26913361706399
 21
2.27993309928645
 31
0.0
  0
LINE
  5
1B2C5
330
1B298
100
AcDbEntity
  8
0
  6
CONTINUOUS
100
AcDbLine
 10
14.91119846611502
 20
1.311387459315606
 30
0.0
 11
12.77918394289625
 21
3.443401982534371
 31
0.0
  0
LINE
  5
1B2C6
330
1B298
100
AcDbEntity
  8
0
  6
CONTINUOUS
100
AcDbLine
 10
15.09525124287922
 20
1.800853891631587
 30
0.0
 11
12.28923426872852
 21
4.606870865782293
 31
0.0
  0
LINE
  5
1B2C7
330
1B298
100
AcDbEntity
  8
0
  6
CONTINUOUS
100
AcDbLine
 10
15.27930401964343
 20
2.290320323947569
 30
0.0
 11
11.79928459456078
 21
5.770339749030213
 31
0.0
  0
LINE
  5
1B2C8
330
1B298
100
AcDbEntity
  8
0
  6
CONTINUOUS
100
AcDbLine
 10
15.46335679640763
 20
2.77978675626355
 30
0.0
 11
14.48885470994921
 21
3.754288842721972
 31
0.0
  0
LINE
  5
1B2C9
330
1B298
100
AcDbEntity
  8
0
  6
CONTINUOUS
100
AcDbLine
 10
13.88507249233704
 20
4.358071060334137
 30
0.0
 11
11.30933492039305
 21
6.933808632278135
 31
0.0
  0
LINE
  5
1B2CA
330
1B298
100
AcDbEntity
  8
0
  6
CONTINUOUS
100
AcDbLine
 10
18.75840522805855
 20
0.1582575336928151
 30
0.0
 11
18.25383727664818
 21
0.6628254851031863
 31
0.0
  0
LINE
  5
1B2CB
330
1B298
100
AcDbEntity
  8
0
  6
CONTINUOUS
100
AcDbLine
 10
15.64740957317184
 20
3.269253188579531
 30
0.0
 11
14.67288388101266
 21
4.243778880738705
 31
0.0
  0
LINE
  5
1B2CC
330
1B298
100
AcDbEntity
  8
0
  6
CONTINUOUS
100
AcDbLine
 10
13.39509276772158
 20
5.521569994029786
 30
0.0
 11
10.81938524622531
 21
8.097277515526056
 31
0.0
  0
LINE
  5
1B2CD
330
1B298
100
AcDbEntity
  8
0
  6
CONTINUOUS
100
AcDbLine
 10
18.95798597883369
 20
0.6321959919978686
 30
0.0
 11
17.84825644852853
 21
1.741925522303024
 31
0.0
  0
LINE
  5
1B2CE
330
1B298
100
AcDbEntity
  8
0
  6
CONTINUOUS
100
AcDbLine
 10
19.15756672960882
 20
1.106134450302922
 30
0.0
 11
17.44267562040888
 21
2.821025559502861
 31
0.0
  0
LINE
  5
1B2CF
330
1B298
100
AcDbEntity
  8
0
  6
CONTINUOUS
100
AcDbLine
 10
15.83146234993604
 20
3.758719620895513
 30
0.0
 11
14.85691305207612
 21
4.733268918755439
 31
0.0
  0
LINE
  5
1B2D0
330
1B298
100
AcDbEntity
  8
0
  6
CONTINUOUS
100
AcDbLine
 10
16.01551512670025
 20
4.248186053211494
 30
0.0
 11
15.04094222313957
 21
5.222758956772172
 31
0.0
  0
LINE
  5
1B2D1
330
1B298
100
AcDbEntity
  8
0
  6
CONTINUOUS
100
AcDbLine
 10
12.90511304310612
 20
6.685068927725435
 30
0.0
 11
10.8270819708403
 21
8.763099999991255
 31
0.0
  0
LINE
  5
1B2D2
330
1B298
100
AcDbEntity
  8
0
  6
CONTINUOUS
100
AcDbLine
 10
12.41513331849066
 20
7.848567861421083
 30
0.0
 11
11.50060117992049
 21
8.763099999991255
 31
0.0
  0
LINE
  5
1B2D3
330
1B298
100
AcDbEntity
  8
0
  6
CONTINUOUS
100
AcDbLine
 10
19.35714748038395
 20
1.580072908607975
 30
0.0
 11
17.03709479228923
 21
3.900125596702697
 31
0.0
  0
LINE
  5
1B2D4
330
1B298
100
AcDbEntity
  8
0
  6
CONTINUOUS
100
AcDbLine
 10
19.55672823115909
 20
2.054011366913028
 30
0.0
 11
16.63151396416958
 21
4.979225633902534
 31
0.0
  0
LINE
  5
1B2D5
330
1B298
100
AcDbEntity
  8
0
  6
CONTINUOUS
100
AcDbLine
 10
16.19956790346445
 20
4.737652485527476
 30
0.0
 11
15.22497139420302
 21
5.712248994788904
 31
0.0
  0
LINE
  5
1B2D6
330
1B298
100
AcDbEntity
  8
0
  6
CONTINUOUS
100
AcDbLine
 10
16.38362068022866
 20
5.227118917843457
 30
0.0
 11
15.40900056526648
 21
6.201739032805637
 31
0.0
  0
LINE
  5
1B2D7
330
1B298
100
AcDbEntity
  8
0
  6
CONTINUOUS
100
AcDbLine
 10
19.75630898193422
 20
2.527949825218081
 30
0.0
 11
18.70774536448286
 21
3.576513442669441
 31
0.0
  0
LINE
  5
1B2D8
330
1B298
100
AcDbEntity
  8
0
  6
CONTINUOUS
100
AcDbLine
 10
19.95588973270936
 20
3.001888283523134
 30
0.0
 11
18.90726987211446
 21
4.050508144118028
 31
0.0
  0
LINE
  5
1B2D9
330
1B298
100
AcDbEntity
  8
0
  6
CONTINUOUS
100
AcDbLine
 10
20.15547048348449
 20
3.475826741828186
 30
0.0
 11
19.10679437974606
 21
4.524502845566614
 31
0.0
  0
LINE
  5
1B2DA
330
1B298
100
AcDbEntity
  8
0
  6
CONTINUOUS
100
AcDbLine
 10
20.35505123425962
 20
3.94976520013324
 30
0.0
 11
19.30631888737766
 21
4.998497547015201
 31
0.0
  0
LINE
  5
1B2DB
330
1B298
100
AcDbEntity
  8
0
  6
CONTINUOUS
100
AcDbLine
 10
20.55463198503475
 20
4.423703658438292
 30
0.0
 11
19.50584339500926
 21
5.472492248463787
 31
0.0
  0
LINE
  5
1B2DC
330
1B298
100
AcDbEntity
  8
0
  6
CONTINUOUS
100
AcDbLine
 10
18.37481191085755
 20
3.909446896294752
 30
0.0
 11
15.59302973632993
 21
6.691229070822371
 31
0.0
  0
LINE
  5
1B2DD
330
1B298
100
AcDbEntity
  8
0
  6
CONTINUOUS
100
AcDbLine
 10
17.96904084440766
 20
4.988737171824825
 30
0.0
 11
15.77705890739338
 21
7.180719108839104
 31
0.0
  0
LINE
  5
1B2DE
330
1B298
100
AcDbEntity
  8
0
  6
CONTINUOUS
100
AcDbLine
 10
17.56326977795777
 20
6.068027447354899
 30
0.0
 11
15.96108807845684
 21
7.670209146855838
 31
0.0
  0
LINE
  5
1B2DF
330
1B298
100
AcDbEntity
  8
0
  6
CONTINUOUS
100
AcDbLine
 10
17.15749871150789
 20
7.147317722884972
 30
0.0
 11
16.14511724952029
 21
8.15969918487257
 31
0.0
  0
LINE
  5
1B2E0
330
1B298
100
AcDbEntity
  8
0
  6
CONTINUOUS
100
AcDbLine
 10
16.751727645058
 20
8.226607998415046
 30
0.0
 11
16.32914642058374
 21
8.649189222889303
 31
0.0
  0
LINE
  5
1B2E1
330
1B298
100
AcDbEntity
  8
0
  6
CONTINUOUS
100
AcDbLine
 10
20.75421273580989
 20
4.897642116743345
 30
0.0
 11
19.70536790264086
 21
5.946486949912374
 31
0.0
  0
LINE
  5
1B2E2
330
1B298
100
AcDbEntity
  8
0
  6
CONTINUOUS
100
AcDbLine
 10
20.95379348658502
 20
5.371580575048398
 30
0.0
 11
19.90489241027246
 21
6.42048165136096
 31
0.0
  0
LINE
  5
1B2E3
330
1B298
100
AcDbEntity
  8
0
  6
CONTINUOUS
100
AcDbLine
 10
21.15337423736015
 20
5.845519033353452
 30
0.0
 11
20.10441691790406
 21
6.894476352809547
 31
0.0
  0
LINE
  5
1B2E4
330
1B298
100
AcDbEntity
  8
0
  6
CONTINUOUS
100
AcDbLine
 10
21.35295498813529
 20
6.319457491658505
 30
0.0
 11
20.30394142553566
 21
7.368471054258134
 31
0.0
  0
LINE
  5
1B2E5
330
1B298
100
AcDbEntity
  8
0
  6
CONTINUOUS
100
AcDbLine
 10
21.55253573891042
 20
6.793395949963558
 30
0.0
 11
20.50346593316726
 21
7.842465755706721
 31
0.0
  0
LINE
  5
1B2E6
330
1B298
100
AcDbEntity
  8
0
  6
CONTINUOUS
100
AcDbLine
 10
21.75211648968556
 20
7.267334408268612
 30
0.0
 11
20.70299044079886
 21
8.316460457155308
 31
0.0
  0
LINE
  5
1B2E7
330
1B298
100
AcDbEntity
  8
0
  6
CONTINUOUS
100
AcDbLine
 10
21.95169724046069
 20
7.741272866573663
 30
0.0
 11
20.9298701070431
 21
8.763099999991256
 31
0.0
  0
LINE
  5
1B2E8
330
1B298
100
AcDbEntity
  8
0
  6
CONTINUOUS
100
AcDbLine
 10
22.15127799123582
 20
8.215211324878716
 30
0.0
 11
21.60338931612328
 21
8.763099999991256
 31
0.0
  0
LINE
  5
1B2E9
330
1B298
100
AcDbEntity
  8
0
  6
CONTINUOUS
100
AcDbLine
 10
22.35085874201096
 20
8.689149783183769
 30
0.0
 11
22.27690852520347
 21
8.763099999991255
 31
0.0
  0
ENDBLK
  5
1B3DB
330
1B298
100
AcDbEntity
  8
0
100
AcDbBlockEnd
  0
BLOCK
  5
1B3DC
330
1B2EA
100
AcDbEntity
  8
0
100
AcDbBlockBegin
  2
*X150
 70
     1
 10
0.0
 20
0.0
 30
0.0
  3
*X150
  1

  0
LINE
  5
1B2EB
330
1B2EA
100
AcDbEntity
  8
0
  6
CONTINUOUS
100
AcDbLine
 10
23.19462913593892
 20
8.169917934846424
 30
0.0
 11
23.70775465517246
 21
8.683043454079957
 31
0.0
  0
LINE
  5
1B2EC
330
1B2EA
100
AcDbEntity
  8
0
  6
CONTINUOUS
100
AcDbLine
 10
22.64923161835078
 20
6.951001208178088
 30
0.0
 11
23.9159364069932
 21
8.217705996820516
 31
0.0
  0
LINE
  5
1B2ED
330
1B2EA
100
AcDbEntity
  8
0
  6
CONTINUOUS
100
AcDbLine
 10
22.10383410076263
 20
5.732084481509751
 30
0.0
 11
24.12411815881395
 21
7.752368539561078
 31
0.0
  0
LINE
  5
1B2EE
330
1B2EA
100
AcDbEntity
  8
0
  6
CONTINUOUS
100
AcDbLine
 10
21.55843658317447
 20
4.513167754841414
 30
0.0
 11
24.3322999106347
 21
7.287031082301639
 31
0.0
  0
LINE
  5
1B2EF
330
1B2EA
100
AcDbEntity
  8
0
  6
CONTINUOUS
100
AcDbLine
 10
21.01303906558632
 20
3.294251028173077
 30
0.0
 11
24.54048166245544
 21
6.821693625042199
 31
0.0
  0
LINE
  5
1B2F0
330
1B2EA
100
AcDbEntity
  8
0
  6
CONTINUOUS
100
AcDbLine
 10
20.46764154799817
 20
2.075334301504738
 30
0.0
 11
23.28571549467848
 21
4.89340824818505
 31
0.0
  0
LINE
  5
1B2F1
330
1B2EA
100
AcDbEntity
  8
0
  6
CONTINUOUS
100
AcDbLine
 10
19.92224403041002
 20
0.8564175748364002
 30
0.0
 11
22.74075865492779
 21
3.674932199354171
 31
0.0
  0
LINE
  5
1B2F2
330
1B2EA
100
AcDbEntity
  8
0
  6
CONTINUOUS
100
AcDbLine
 10
23.67305085490148
 20
5.280743608408048
 30
0.0
 11
24.74866341427619
 21
6.356356167782759
 31
0.0
  0
LINE
  5
1B2F3
330
1B2EA
100
AcDbEntity
  8
0
  6
CONTINUOUS
100
AcDbLine
 10
23.88118970842314
 20
4.815363252849522
 30
0.0
 11
24.95684516609694
 21
5.89101871052332
 31
0.0
  0
LINE
  5
1B2F4
330
1B2EA
100
AcDbEntity
  8
0
  6
CONTINUOUS
100
AcDbLine
 10
19.73925852647308
 20
-0.0000871381807288
 30
0.0
 11
23.4103456646501
 21
3.670999999996297
 31
0.0
  0
LINE
  5
1B2F5
330
1B2EA
100
AcDbEntity
  8
0
  6
CONTINUOUS
100
AcDbLine
 10
24.0893285619448
 20
4.349982897290997
 30
0.0
 11
25.16502691791769
 21
5.42568125326388
 31
0.0
  0
LINE
  5
1B2F6
330
1B2EA
100
AcDbEntity
  8
0
  6
CONTINUOUS
100
AcDbLine
 10
20.41282099582748
 20
-0.0000438779065108
 30
0.0
 11
21.64944178675636
 21
1.236576913022366
 31
0.0
  0
LINE
  5
1B2F7
330
1B2EA
100
AcDbEntity
  8
0
  6
CONTINUOUS
100
AcDbLine
 10
22.78126487373161
 20
2.36839999999762
 30
0.0
 11
24.08386487373029
 21
3.670999999996297
 31
0.0
  0
LINE
  5
1B2F8
330
1B2EA
100
AcDbEntity
  8
0
  6
CONTINUOUS
100
AcDbLine
 10
24.29746741546646
 20
3.884602541732471
 30
0.0
 11
25.37320866973843
 21
4.960343796004441
 31
0.0
  0
LINE
  5
1B2F9
330
1B2EA
100
AcDbEntity
  8
0
  6
CONTINUOUS
100
AcDbLine
 10
21.08638346518189
 20
-0.0000006176322938
 30
0.0
 11
21.10379033335899
 21
0.0174062505448083
 31
0.0
  0
LINE
  5
1B2FA
330
1B2EA
100
AcDbEntity
  8
0
  6
CONTINUOUS
100
AcDbLine
 10
23.4547840828118
 20
2.36839999999762
 30
0.0
 11
25.58139042155918
 21
4.495006338745002
 31
0.0
  0
LINE
  5
1B2FB
330
1B2EA
100
AcDbEntity
  8
0
  6
CONTINUOUS
100
AcDbLine
 10
29.30199999996933
 20
8.215615917155148
 30
0.0
 11
29.84948408280543
 21
8.763099999991255
 31
0.0
  0
LINE
  5
1B2FC
330
1B2EA
100
AcDbEntity
  8
0
  6
CONTINUOUS
100
AcDbLine
 10
24.12830329189199
 20
2.36839999999762
 30
0.0
 11
25.78957217337993
 21
4.029668881485562
 31
0.0
  0
LINE
  5
1B2FD
330
1B2EA
100
AcDbEntity
  8
0
  6
CONTINUOUS
100
AcDbLine
 10
29.30199999996933
 20
7.54209670807496
 30
0.0
 11
30.52300329188562
 21
8.763099999991255
 31
0.0
  0
LINE
  5
1B2FE
330
1B2EA
100
AcDbEntity
  8
0
  6
CONTINUOUS
100
AcDbLine
 10
24.80182250097217
 20
2.36839999999762
 30
0.0
 11
25.99775392520067
 21
3.564331424226122
 31
0.0
  0
LINE
  5
1B2FF
330
1B2EA
100
AcDbEntity
  8
0
  6
CONTINUOUS
100
AcDbLine
 10
29.30199999996933
 20
6.868577498994774
 30
0.0
 11
30.74199999996926
 21
8.308577498994712
 31
0.0
  0
LINE
  5
1B300
330
1B2EA
100
AcDbEntity
  8
0
  6
CONTINUOUS
100
AcDbLine
 10
25.13028238392013
 20
2.023340673865392
 30
0.0
 11
26.20593567702142
 21
3.098993966966683
 31
0.0
  0
LINE
  5
1B301
330
1B2EA
100
AcDbEntity
  8
0
  6
CONTINUOUS
100
AcDbLine
 10
25.33838066033617
 20
1.557919741201244
 30
0.0
 11
26.41411742884217
 21
2.633656509707244
 31
0.0
  0
LINE
  5
1B302
330
1B2EA
100
AcDbEntity
  8
0
  6
CONTINUOUS
100
AcDbLine
 10
25.54647893675221
 20
1.092498808537098
 30
0.0
 11
26.62229918066291
 21
2.168319052447804
 31
0.0
  0
LINE
  5
1B303
330
1B2EA
100
AcDbEntity
  8
0
  6
CONTINUOUS
100
AcDbLine
 10
25.75457721316825
 20
0.62707787587295
 30
0.0
 11
26.83048093248366
 21
1.702981595188365
 31
0.0
  0
LINE
  5
1B304
330
1B2EA
100
AcDbEntity
  8
0
  6
CONTINUOUS
100
AcDbLine
 10
29.30199999996933
 20
6.195058289914587
 30
0.0
 11
30.74199999996926
 21
7.635058289914522
 31
0.0
  0
LINE
  5
1B305
330
1B2EA
100
AcDbEntity
  8
0
  6
CONTINUOUS
100
AcDbLine
 10
29.30199999996933
 20
5.521539080834401
 30
0.0
 11
30.74199999996926
 21
6.961539080834331
 31
0.0
  0
LINE
  5
1B306
330
1B2EA
100
AcDbEntity
  8
0
  6
CONTINUOUS
100
AcDbLine
 10
29.30199999996933
 20
4.848019871754214
 30
0.0
 11
30.74199999996925
 21
6.288019871754143
 31
0.0
  0
LINE
  5
1B307
330
1B2EA
100
AcDbEntity
  8
0
  6
CONTINUOUS
100
AcDbLine
 10
29.30199999996933
 20
4.174500662674028
 30
0.0
 11
30.74199999996925
 21
5.614500662673953
 31
0.0
  0
LINE
  5
1B308
330
1B2EA
100
AcDbEntity
  8
0
  6
CONTINUOUS
100
AcDbLine
 10
25.96267548958429
 20
0.1616569432088024
 30
0.0
 11
27.18411854636669
 21
1.383099999991207
 31
0.0
  0
LINE
  5
1B309
330
1B2EA
100
AcDbEntity
  8
0
  6
CONTINUOUS
100
AcDbLine
 10
29.30199999996933
 20
3.500981453593841
 30
0.0
 11
30.74199999996925
 21
4.940981453593762
 31
0.0
  0
LINE
  5
1B30A
330
1B2EA
100
AcDbEntity
  8
0
  6
CONTINUOUS
100
AcDbLine
 10
26.50763775544691
 20
0.0330999999912356
 30
0.0
 11
27.85763775544689
 21
1.383099999991223
 31
0.0
  0
LINE
  5
1B30B
330
1B2EA
100
AcDbEntity
  8
0
  6
CONTINUOUS
100
AcDbLine
 10
29.30199999996933
 20
2.827462244513656
 30
0.0
 11
30.74199999996925
 21
4.267462244513574
 31
0.0
  0
LINE
  5
1B30C
330
1B2EA
100
AcDbEntity
  8
0
  6
CONTINUOUS
100
AcDbLine
 10
27.18115696452709
 20
0.0330999999912356
 30
0.0
 11
28.55073879889363
 21
1.402681834357775
 31
0.0
  0
LINE
  5
1B30D
330
1B2EA
100
AcDbEntity
  8
0
  6
CONTINUOUS
100
AcDbLine
 10
29.28241816560272
 20
2.134361201066866
 30
0.0
 11
30.74199999996924
 21
3.593943035433383
 31
0.0
  0
LINE
  5
1B30E
330
1B2EA
100
AcDbEntity
  8
0
  6
CONTINUOUS
100
AcDbLine
 10
27.85467617360728
 20
0.0330999999912356
 30
0.0
 11
30.74199999996924
 21
2.920423826353195
 31
0.0
  0
LINE
  5
1B30F
330
1B2EA
100
AcDbEntity
  8
0
  6
CONTINUOUS
100
AcDbLine
 10
28.53897559587887
 20
0.0438802131826428
 30
0.0
 11
30.73121978677781
 21
2.236124404081585
 31
0.0
  0
LINE
  5
1B310
330
1B2EA
100
AcDbEntity
  8
0
  6
CONTINUOUS
100
AcDbLine
 10
29.45140055588722
 20
0.2827859641107988
 30
0.0
 11
30.49231403584965
 21
1.323699444073236
 31
0.0
  0
LINE
  5
1B311
330
1B2EA
100
AcDbEntity
  8
0
  6
CONTINUOUS
100
AcDbLine
 10
19.59027867740337
 20
-0.0000967065718083
 30
0.0
 11
19.55485265190471
 21
0.035329318926844
 31
0.0
  0
LINE
  5
1B312
330
1B2EA
100
AcDbEntity
  8
0
  6
CONTINUOUS
100
AcDbLine
 10
20.26375463176586
 20
-0.0000534518541091
 30
0.0
 11
19.76305575737534
 21
0.5006454225364014
 31
0.0
  0
LINE
  5
1B313
330
1B2EA
100
AcDbEntity
  8
0
  6
CONTINUOUS
100
AcDbLine
 10
20.93723058612834
 20
-0.0000101971364099
 30
0.0
 11
19.97125886284597
 21
0.965961526145958
 31
0.0
  0
LINE
  5
1B314
330
1B2EA
100
AcDbEntity
  8
0
  6
CONTINUOUS
100
AcDbLine
 10
21.25514828313686
 20
0.355591314935257
 30
0.0
 11
20.1794619683166
 21
1.431277629755512
 31
0.0
  0
LINE
  5
1B315
330
1B2EA
100
AcDbEntity
  8
0
  6
CONTINUOUS
100
AcDbLine
 10
21.46338838394921
 20
0.8208704232030986
 30
0.0
 11
20.38766507378723
 21
1.896593733365069
 31
0.0
  0
LINE
  5
1B316
330
1B2EA
100
AcDbEntity
  8
0
  6
CONTINUOUS
100
AcDbLine
 10
21.67162848476155
 20
1.28614953147094
 30
0.0
 11
20.59586817925786
 21
2.361909836974626
 31
0.0
  0
LINE
  5
1B317
330
1B2EA
100
AcDbEntity
  8
0
  6
CONTINUOUS
100
AcDbLine
 10
21.8798685855739
 20
1.751428639738782
 30
0.0
 11
20.80407128472849
 21
2.827225940584183
 31
0.0
  0
LINE
  5
1B318
330
1B2EA
100
AcDbEntity
  8
0
  6
CONTINUOUS
100
AcDbLine
 10
22.08810868638624
 20
2.216707748006623
 30
0.0
 11
21.01227439019912
 21
3.292542044193739
 31
0.0
  0
LINE
  5
1B319
330
1B2EA
100
AcDbEntity
  8
0
  6
CONTINUOUS
100
AcDbLine
 10
22.60993564347543
 20
2.36839999999762
 30
0.0
 11
21.22047749566975
 21
3.757858147803296
 31
0.0
  0
LINE
  5
1B31A
330
1B2EA
100
AcDbEntity
  8
0
  6
CONTINUOUS
100
AcDbLine
 10
23.28345485255561
 20
2.36839999999762
 30
0.0
 11
21.42868060114038
 21
4.223174251412853
 31
0.0
  0
LINE
  5
1B31B
330
1B2EA
100
AcDbEntity
  8
0
  6
CONTINUOUS
100
AcDbLine
 10
26.29227406164219
 20
0.0330999999912356
 30
0.0
 11
25.80009199592872
 21
0.5252820657046957
 31
0.0
  0
LINE
  5
1B31C
330
1B2EA
100
AcDbEntity
  8
0
  6
CONTINUOUS
100
AcDbLine
 10
23.9569740616358
 20
2.36839999999762
 30
0.0
 11
21.63688370661101
 21
4.688490355022409
 31
0.0
  0
LINE
  5
1B31D
330
1B2EA
100
AcDbEntity
  8
0
  6
CONTINUOUS
100
AcDbLine
 10
26.96579327072237
 20
0.0330999999912356
 30
0.0
 11
25.2554132311971
 21
1.743480039516508
 31
0.0
  0
LINE
  5
1B31E
330
1B2EA
100
AcDbEntity
  8
0
  6
CONTINUOUS
100
AcDbLine
 10
24.63049327071599
 20
2.36839999999762
 30
0.0
 11
23.32789327071731
 21
3.670999999996297
 31
0.0
  0
LINE
  5
1B31F
330
1B2EA
100
AcDbEntity
  8
0
  6
CONTINUOUS
100
AcDbLine
 10
22.92098674744635
 20
4.077906523267254
 30
0.0
 11
21.84508681208164
 21
5.153806458631966
 31
0.0
  0
LINE
  5
1B320
330
1B2EA
100
AcDbEntity
  8
0
  6
CONTINUOUS
100
AcDbLine
 10
27.63931247980256
 20
0.0330999999912356
 30
0.0
 11
24.0014124797975
 21
3.670999999996297
 31
0.0
  0
LINE
  5
1B321
330
1B2EA
100
AcDbEntity
  8
0
  6
CONTINUOUS
100
AcDbLine
 10
23.129125600968
 20
4.5432868788258
 30
0.0
 11
22.05328991755227
 21
5.619122562241522
 31
0.0
  0
LINE
  5
1B322
330
1B2EA
100
AcDbEntity
  8
0
  6
CONTINUOUS
100
AcDbLine
 10
28.31283168888275
 20
0.0330999999912356
 30
0.0
 11
24.16488385994816
 21
4.181047828925828
 31
0.0
  0
LINE
  5
1B323
330
1B2EA
100
AcDbEntity
  8
0
  6
CONTINUOUS
100
AcDbLine
 10
23.33726445448964
 20
5.008667234384345
 30
0.0
 11
22.2614930230229
 21
6.084438665851079
 31
0.0
  0
LINE
  5
1B324
330
1B2EA
100
AcDbEntity
  8
0
  6
CONTINUOUS
100
AcDbLine
 10
28.92085740005492
 20
0.0985934978992438
 30
0.0
 11
27.63635089796295
 21
1.383099999991217
 31
0.0
  0
LINE
  5
1B325
330
1B2EA
100
AcDbEntity
  8
0
  6
CONTINUOUS
100
AcDbLine
 10
26.43704649509776
 20
2.582404402856405
 30
0.0
 11
23.61992702019732
 21
5.399523877756844
 31
0.0
  0
LINE
  5
1B326
330
1B2EA
100
AcDbEntity
  8
0
  6
CONTINUOUS
100
AcDbLine
 10
23.54540330801128
 20
5.47404758994289
 30
0.0
 11
22.46969612849353
 21
6.549754769460635
 31
0.0
  0
LINE
  5
1B327
330
1B2EA
100
AcDbEntity
  8
0
  6
CONTINUOUS
100
AcDbLine
 10
29.42225615078443
 20
0.2707139562499279
 30
0.0
 11
28.30987010704312
 21
1.383099999991234
 31
0.0
  0
LINE
  5
1B328
330
1B2EA
100
AcDbEntity
  8
0
  6
CONTINUOUS
100
AcDbLine
 10
25.89179548232307
 20
3.801174624711282
 30
0.0
 11
22.67789923396416
 21
7.015070873070191
 31
0.0
  0
LINE
  5
1B329
330
1B2EA
100
AcDbEntity
  8
0
  6
CONTINUOUS
100
AcDbLine
 10
29.83624534690007
 20
0.5302439692144705
 30
0.0
 11
28.85811781497101
 21
1.508371501143527
 31
0.0
  0
LINE
  5
1B32A
330
1B2EA
100
AcDbEntity
  8
0
  6
CONTINUOUS
100
AcDbLine
 10
25.34654446954838
 20
5.01994484656616
 30
0.0
 11
22.88610233943479
 21
7.480386976679748
 31
0.0
  0
LINE
  5
1B32B
330
1B2EA
100
AcDbEntity
  8
0
  6
CONTINUOUS
100
AcDbLine
 10
30.17865975401872
 20
0.8613487711760022
 30
0.0
 11
29.18888744090175
 21
1.851121084292977
 31
0.0
  0
LINE
  5
1B32C
330
1B2EA
100
AcDbEntity
  8
0
  6
CONTINUOUS
100
AcDbLine
 10
24.80129345677369
 20
6.238715068421037
 30
0.0
 11
23.09430544490542
 21
7.945703080289305
 31
0.0
  0
LINE
  5
1B32D
330
1B2EA
100
AcDbEntity
  8
0
  6
CONTINUOUS
100
AcDbLine
 10
30.45496647202376
 20
1.258561262251155
 30
0.0
 11
29.30199999996933
 21
2.411527734305588
 31
0.0
  0
LINE
  5
1B32E
330
1B2EA
100
AcDbEntity
  8
0
  6
CONTINUOUS
100
AcDbLine
 10
24.256042443999
 20
7.457485290275915
 30
0.0
 11
23.30250855037605
 21
8.411019183898862
 31
0.0
  0
LINE
  5
1B32F
330
1B2EA
100
AcDbEntity
  8
0
  6
CONTINUOUS
100
AcDbLine
 10
30.64868582078271
 20
1.738361122572387
 30
0.0
 11
29.30199999996933
 21
3.085046943385775
 31
0.0
  0
LINE
  5
1B330
330
1B2EA
100
AcDbEntity
  8
0
  6
CONTINUOUS
100
AcDbLine
 10
23.71079143122431
 20
8.676255512130794
 30
0.0
 11
23.51071165584668
 21
8.876335287508416
 31
0.0
  0
LINE
  5
1B331
330
1B2EA
100
AcDbEntity
  8
0
  6
CONTINUOUS
100
AcDbLine
 10
30.73802122914428
 20
2.322544923291007
 30
0.0
 11
29.30199999996933
 21
3.758566152465961
 31
0.0
  0
LINE
  5
1B332
330
1B2EA
100
AcDbEntity
  8
0
  6
CONTINUOUS
100
AcDbLine
 10
30.74199999996924
 20
2.992085361546236
 30
0.0
 11
29.30199999996933
 21
4.432085361546148
 31
0.0
  0
LINE
  5
1B333
330
1B2EA
100
AcDbEntity
  8
0
  6
CONTINUOUS
100
AcDbLine
 10
30.74199999996924
 20
3.665604570626419
 30
0.0
 11
29.30199999996933
 21
5.105604570626333
 31
0.0
  0
LINE
  5
1B334
330
1B2EA
100
AcDbEntity
  8
0
  6
CONTINUOUS
100
AcDbLine
 10
30.74199999996925
 20
4.339123779706602
 30
0.0
 11
29.30199999996933
 21
5.77912377970652
 31
0.0
  0
LINE
  5
1B335
330
1B2EA
100
AcDbEntity
  8
0
  6
CONTINUOUS
100
AcDbLine
 10
30.74199999996925
 20
5.012642988786785
 30
0.0
 11
29.30199999996933
 21
6.452642988786707
 31
0.0
  0
LINE
  5
1B336
330
1B2EA
100
AcDbEntity
  8
0
  6
CONTINUOUS
100
AcDbLine
 10
30.74199999996925
 20
5.68616219786697
 30
0.0
 11
29.30199999996933
 21
7.126162197866894
 31
0.0
  0
LINE
  5
1B337
330
1B2EA
100
AcDbEntity
  8
0
  6
CONTINUOUS
100
AcDbLine
 10
30.74199999996925
 20
6.359681406947153
 30
0.0
 11
29.30199999996933
 21
7.799681406947081
 31
0.0
  0
LINE
  5
1B338
330
1B2EA
100
AcDbEntity
  8
0
  6
CONTINUOUS
100
AcDbLine
 10
30.74199999996926
 20
7.033200616027337
 30
0.0
 11
29.30199999996933
 21
8.473200616027269
 31
0.0
  0
LINE
  5
1B339
330
1B2EA
100
AcDbEntity
  8
0
  6
CONTINUOUS
100
AcDbLine
 10
30.74199999996926
 20
7.706719825107518
 30
0.0
 11
29.68561982508552
 21
8.763099999991255
 31
0.0
  0
LINE
  5
1B33A
330
1B2EA
100
AcDbEntity
  8
0
  6
CONTINUOUS
100
AcDbLine
 10
30.74199999996926
 20
8.380239034187703
 30
0.0
 11
30.35913903416571
 21
8.763099999991255
 31
0.0
  0
ENDBLK
  5
1B3DD
330
1B2EA
100
AcDbEntity
  8
0
100
AcDbBlockEnd
  0
BLOCK
  5
1B3DE
330
1B33B
100
AcDbEntity
  8
0
100
AcDbBlockBegin
  2
*X151
 70
     1
 10
0.0
 20
0.0
 30
0.0
  3
*X151
  1

  0
LINE
  5
1B33C
330
1B33B
100
AcDbEntity
  8
0
  6
CONTINUOUS
100
AcDbLine
 10
31.64199999996833
 20
8.535058289913598
 30
0.0
 11
31.87004171004599
 21
8.763099999991255
 31
0.0
  0
LINE
  5
1B33D
330
1B33B
100
AcDbEntity
  8
0
  6
CONTINUOUS
100
AcDbLine
 10
31.64199999996833
 20
7.861539080833412
 30
0.0
 11
32.54356091912618
 21
8.763099999991255
 31
0.0
  0
LINE
  5
1B33E
330
1B33B
100
AcDbEntity
  8
0
  6
CONTINUOUS
100
AcDbLine
 10
31.64199999996833
 20
7.188019871753226
 30
0.0
 11
33.08199999996839
 21
8.628019871753281
 31
0.0
  0
LINE
  5
1B33F
330
1B33B
100
AcDbEntity
  8
0
  6
CONTINUOUS
100
AcDbLine
 10
31.64199999996833
 20
6.51450066267304
 30
0.0
 11
33.08199999996839
 21
7.954500662673095
 31
0.0
  0
LINE
  5
1B340
330
1B33B
100
AcDbEntity
  8
0
  6
CONTINUOUS
100
AcDbLine
 10
31.64199999996833
 20
5.840981453592853
 30
0.0
 11
33.08199999996839
 21
7.280981453592908
 31
0.0
  0
LINE
  5
1B341
330
1B33B
100
AcDbEntity
  8
0
  6
CONTINUOUS
100
AcDbLine
 10
31.64199999996833
 20
5.167462244512667
 30
0.0
 11
33.08199999996839
 21
6.607462244512721
 31
0.0
  0
LINE
  5
1B342
330
1B33B
100
AcDbEntity
  8
0
  6
CONTINUOUS
100
AcDbLine
 10
31.64199999996833
 20
4.493943035432481
 30
0.0
 11
33.08199999996839
 21
5.933943035432535
 31
0.0
  0
LINE
  5
1B343
330
1B33B
100
AcDbEntity
  8
0
  6
CONTINUOUS
100
AcDbLine
 10
31.64199999996833
 20
3.820423826352293
 30
0.0
 11
33.08199999996839
 21
5.260423826352348
 31
0.0
  0
LINE
  5
1B344
330
1B33B
100
AcDbEntity
  8
0
  6
CONTINUOUS
100
AcDbLine
 10
31.64199999996833
 20
3.146904617272106
 30
0.0
 11
33.08199999996839
 21
4.586904617272161
 31
0.0
  0
LINE
  5
1B345
330
1B33B
100
AcDbEntity
  8
0
  6
CONTINUOUS
100
AcDbLine
 10
36.23199999996837
 20
8.410423826352325
 30
0.0
 11
36.5846761736073
 21
8.763099999991255
 31
0.0
  0
LINE
  5
1B346
330
1B33B
100
AcDbEntity
  8
0
  6
CONTINUOUS
100
AcDbLine
 10
36.23199999996837
 20
7.73690461727214
 30
0.0
 11
37.25819538268748
 21
8.763099999991255
 31
0.0
  0
LINE
  5
1B347
330
1B33B
100
AcDbEntity
  8
0
  6
CONTINUOUS
100
AcDbLine
 10
31.64257403601376
 20
2.473959444237348
 30
0.0
 11
33.08199999996839
 21
3.913385408191974
 31
0.0
  0
LINE
  5
1B348
330
1B33B
100
AcDbEntity
  8
0
  6
CONTINUOUS
100
AcDbLine
 10
36.23199999996837
 20
7.063385408191953
 30
0.0
 11
37.67199999996831
 21
8.503385408191894
 31
0.0
  0
LINE
  5
1B349
330
1B33B
100
AcDbEntity
  8
0
  6
CONTINUOUS
100
AcDbLine
 10
31.72013636841932
 20
1.87800256756272
 30
0.0
 11
33.08199999996839
 21
3.239866199111788
 31
0.0
  0
LINE
  5
1B34A
330
1B33B
100
AcDbEntity
  8
0
  6
CONTINUOUS
100
AcDbLine
 10
36.23199999996837
 20
6.389866199111767
 30
0.0
 11
37.67199999996831
 21
7.829866199111708
 31
0.0
  0
LINE
  5
1B34B
330
1B33B
100
AcDbEntity
  8
0
  6
CONTINUOUS
100
AcDbLine
 10
31.89042734314753
 20
1.374774333210744
 30
0.0
 11
33.08199999996839
 21
2.566346990031601
 31
0.0
  0
LINE
  5
1B34C
330
1B33B
100
AcDbEntity
  8
0
  6
CONTINUOUS
100
AcDbLine
 10
36.23199999996837
 20
5.71634699003158
 30
0.0
 11
37.67199999996831
 21
7.156346990031521
 31
0.0
  0
LINE
  5
1B34D
330
1B33B
100
AcDbEntity
  8
0
  6
CONTINUOUS
100
AcDbLine
 10
32.14210568064475
 20
0.952933461627778
 30
0.0
 11
33.18745552475986
 21
1.998283305742888
 31
0.0
  0
LINE
  5
1B34E
330
1B33B
100
AcDbEntity
  8
0
  6
CONTINUOUS
100
AcDbLine
 10
36.23199999996837
 20
5.042827780951393
 30
0.0
 11
37.67199999996831
 21
6.482827780951334
 31
0.0
  0
LINE
  5
1B34F
330
1B33B
100
AcDbEntity
  8
0
  6
CONTINUOUS
100
AcDbLine
 10
32.45820639400955
 20
0.5955149659123915
 30
0.0
 11
33.47242681921943
 21
1.60973539112227
 31
0.0
  0
LINE
  5
1B350
330
1B33B
100
AcDbEntity
  8
0
  6
CONTINUOUS
100
AcDbLine
 10
36.23199999996837
 20
4.369308571871207
 30
0.0
 11
37.67199999996831
 21
5.809308571871147
 31
0.0
  0
LINE
  5
1B351
330
1B33B
100
AcDbEntity
  8
0
  6
CONTINUOUS
100
AcDbLine
 10
32.83432456621412
 20
0.2981139290367771
 30
0.0
 11
33.89722476612215
 21
1.361014128944803
 31
0.0
  0
LINE
  5
1B352
330
1B33B
100
AcDbEntity
  8
0
  6
CONTINUOUS
100
AcDbLine
 10
36.23199999996837
 20
3.69578936279102
 30
0.0
 11
37.67199999996831
 21
5.135789362790962
 31
0.0
  0
LINE
  5
1B353
330
1B33B
100
AcDbEntity
  8
0
  6
CONTINUOUS
100
AcDbLine
 10
33.2711633111245
 20
0.0614334648669672
 30
0.0
 11
34.43247338014423
 21
1.222743533886696
 31
0.0
  0
LINE
  5
1B354
330
1B33B
100
AcDbEntity
  8
0
  6
CONTINUOUS
100
AcDbLine
 10
36.23199999996837
 20
3.022270153710834
 30
0.0
 11
37.67199999996831
 21
4.462270153710775
 31
0.0
  0
LINE
  5
1B355
330
1B33B
100
AcDbEntity
  8
0
  6
CONTINUOUS
100
AcDbLine
 10
33.76515245874577
 20
-0.1180965965919523
 30
0.0
 11
35.1587445516215
 21
1.27549549628378
 31
0.0
  0
LINE
  5
1B356
330
1B33B
100
AcDbEntity
  8
0
  6
CONTINUOUS
100
AcDbLine
 10
36.21639478609585
 20
2.333145730758136
 30
0.0
 11
37.67199999996831
 21
3.788750944630588
 31
0.0
  0
LINE
  5
1B357
330
1B33B
100
AcDbEntity
  8
0
  6
CONTINUOUS
100
AcDbLine
 10
34.34060583368432
 20
-0.2161624307335863
 30
0.0
 11
37.67199999996831
 21
3.115231735550401
 31
0.0
  0
LINE
  5
1B358
330
1B33B
100
AcDbEntity
  8
0
  6
CONTINUOUS
100
AcDbLine
 10
35.01698193613905
 20
-0.2133055373590427
 30
0.0
 11
37.66876712070525
 21
2.438479647207154
 31
0.0
  0
LINE
  5
1B359
330
1B33B
100
AcDbEntity
  8
0
  6
CONTINUOUS
100
AcDbLine
 10
35.90743367693304
 20
0.0036269943547609
 30
0.0
 11
37.51723902192366
 21
1.613432339345381
 31
0.0
  0
LINE
  5
1B35A
330
1B33B
100
AcDbEntity
  8
0
  6
CONTINUOUS
100
AcDbLine
 10
32.55309425579761
 20
0.5074718966376706
 30
0.0
 11
32.27784730925847
 21
0.7827188431768102
 31
0.0
  0
LINE
  5
1B35B
330
1B33B
100
AcDbEntity
  8
0
  6
CONTINUOUS
100
AcDbLine
 10
33.87496468909684
 20
-0.1408793275813673
 30
0.0
 11
31.67993083278052
 21
2.054154528734943
 31
0.0
  0
LINE
  5
1B35C
330
1B33B
100
AcDbEntity
  8
0
  6
CONTINUOUS
100
AcDbLine
 10
34.64362813207632
 20
-0.2360235614806649
 30
0.0
 11
31.64199999996833
 21
2.765604570627322
 31
0.0
  0
LINE
  5
1B35D
330
1B33B
100
AcDbEntity
  8
0
  6
CONTINUOUS
100
AcDbLine
 10
35.25801106796118
 20
-0.1768872882853429
 30
0.0
 11
31.64199999996833
 21
3.439123779707508
 31
0.0
  0
LINE
  5
1B35E
330
1B33B
100
AcDbEntity
  8
0
  6
CONTINUOUS
100
AcDbLine
 10
35.79065650332146
 20
-0.0360135145654361
 30
0.0
 11
34.54143210838231
 21
1.213210880373721
 31
0.0
  0
LINE
  5
1B35F
330
1B33B
100
AcDbEntity
  8
0
  6
CONTINUOUS
100
AcDbLine
 10
33.08199999996839
 20
2.67264298878764
 30
0.0
 11
31.64199999996833
 21
4.112642988787695
 31
0.0
  0
LINE
  5
1B360
330
1B33B
100
AcDbEntity
  8
0
  6
CONTINUOUS
100
AcDbLine
 10
36.25975597779143
 20
0.1684062200447833
 30
0.0
 11
35.15395110240023
 21
1.274211095435983
 31
0.0
  0
LINE
  5
1B361
330
1B33B
100
AcDbEntity
  8
0
  6
CONTINUOUS
100
AcDbLine
 10
33.08199999996839
 20
3.346162197867826
 30
0.0
 11
31.64199999996833
 21
4.786162197867881
 31
0.0
  0
LINE
  5
1B362
330
1B33B
100
AcDbEntity
  8
0
  6
CONTINUOUS
100
AcDbLine
 10
36.67226329638774
 20
0.4294181105286579
 30
0.0
 11
35.63766478748767
 21
1.464016619428737
 31
0.0
  0
LINE
  5
1B363
330
1B33B
100
AcDbEntity
  8
0
  6
CONTINUOUS
100
AcDbLine
 10
33.08199999996839
 20
4.019681406948012
 30
0.0
 11
31.64199999996833
 21
5.459681406948068
 31
0.0
  0
LINE
  5
1B364
330
1B33B
100
AcDbEntity
  8
0
  6
CONTINUOUS
100
AcDbLine
 10
37.01677749710036
 20
0.7584231188962329
 30
0.0
 11
35.99563422741351
 21
1.779566388583076
 31
0.0
  0
LINE
  5
1B365
330
1B33B
100
AcDbEntity
  8
0
  6
CONTINUOUS
100
AcDbLine
 10
33.08199999996839
 20
4.693200616028199
 30
0.0
 11
31.64199999996833
 21
6.133200616028255
 31
0.0
  0
LINE
  5
1B366
330
1B33B
100
AcDbEntity
  8
0
  6
CONTINUOUS
100
AcDbLine
 10
37.29859977568887
 20
1.1501200493879
 30
0.0
 11
36.20680593341555
 21
2.241913891661226
 31
0.0
  0
LINE
  5
1B367
330
1B33B
100
AcDbEntity
  8
0
  6
CONTINUOUS
100
AcDbLine
 10
33.08199999996839
 20
5.366719825108386
 30
0.0
 11
31.64199999996833
 21
6.80671982510844
 31
0.0
  0
LINE
  5
1B368
330
1B33B
100
AcDbEntity
  8
0
  6
CONTINUOUS
100
AcDbLine
 10
37.5148623517228
 20
1.607376682434161
 30
0.0
 11
36.23199999996837
 21
2.890239034188594
 31
0.0
  0
LINE
  5
1B369
330
1B33B
100
AcDbEntity
  8
0
  6
CONTINUOUS
100
AcDbLine
 10
33.08199999996839
 20
6.040239034188573
 30
0.0
 11
31.64199999996833
 21
7.480239034188627
 31
0.0
  0
LINE
  5
1B36A
330
1B33B
100
AcDbEntity
  8
0
  6
CONTINUOUS
100
AcDbLine
 10
37.64705163358367
 20
2.148706609653477
 30
0.0
 11
36.23199999996837
 21
3.56375824326878
 31
0.0
  0
LINE
  5
1B36B
330
1B33B
100
AcDbEntity
  8
0
  6
CONTINUOUS
100
AcDbLine
 10
33.08199999996839
 20
6.713758243268758
 30
0.0
 11
31.64199999996833
 21
8.153758243268815
 31
0.0
  0
LINE
  5
1B36C
330
1B33B
100
AcDbEntity
  8
0
  6
CONTINUOUS
100
AcDbLine
 10
37.67199999996831
 20
2.797277452349026
 30
0.0
 11
36.23199999996837
 21
4.237277452348967
 31
0.0
  0
LINE
  5
1B36D
330
1B33B
100
AcDbEntity
  8
0
  6
CONTINUOUS
100
AcDbLine
 10
37.67199999996831
 20
3.470796661429213
 30
0.0
 11
36.23199999996837
 21
4.910796661429154
 31
0.0
  0
LINE
  5
1B36E
330
1B33B
100
AcDbEntity
  8
0
  6
CONTINUOUS
100
AcDbLine
 10
37.67199999996831
 20
4.144315870509399
 30
0.0
 11
36.23199999996837
 21
5.58431587050934
 31
0.0
  0
LINE
  5
1B36F
330
1B33B
100
AcDbEntity
  8
0
  6
CONTINUOUS
100
AcDbLine
 10
33.08199999996839
 20
7.387277452348945
 30
0.0
 11
31.70617745232608
 21
8.763099999991255
 31
0.0
  0
LINE
  5
1B370
330
1B33B
100
AcDbEntity
  8
0
  6
CONTINUOUS
100
AcDbLine
 10
33.08199999996839
 20
8.060796661429132
 30
0.0
 11
32.37969666140626
 21
8.763099999991255
 31
0.0
  0
LINE
  5
1B371
330
1B33B
100
AcDbEntity
  8
0
  6
CONTINUOUS
100
AcDbLine
 10
33.08199999996839
 20
8.734315870509318
 30
0.0
 11
33.05321587048645
 21
8.763099999991255
 31
0.0
  0
LINE
  5
1B372
330
1B33B
100
AcDbEntity
  8
0
  6
CONTINUOUS
100
AcDbLine
 10
37.67199999996831
 20
4.817835079589585
 30
0.0
 11
36.23199999996837
 21
6.257835079589526
 31
0.0
  0
LINE
  5
1B373
330
1B33B
100
AcDbEntity
  8
0
  6
CONTINUOUS
100
AcDbLine
 10
37.67199999996831
 20
5.491354288669771
 30
0.0
 11
36.23199999996837
 21
6.931354288669713
 31
0.0
  0
LINE
  5
1B374
330
1B33B
100
AcDbEntity
  8
0
  6
CONTINUOUS
100
AcDbLine
 10
37.67199999996831
 20
6.164873497749958
 30
0.0
 11
36.23199999996837
 21
7.6048734977499
 31
0.0
  0
LINE
  5
1B375
330
1B33B
100
AcDbEntity
  8
0
  6
CONTINUOUS
100
AcDbLine
 10
37.67199999996831
 20
6.838392706830144
 30
0.0
 11
36.23199999996837
 21
8.278392706830086
 31
0.0
  0
LINE
  5
1B376
330
1B33B
100
AcDbEntity
  8
0
  6
CONTINUOUS
100
AcDbLine
 10
37.67199999996831
 20
7.511911915910332
 30
0.0
 11
36.42081191588738
 21
8.763099999991255
 31
0.0
  0
LINE
  5
1B377
330
1B33B
100
AcDbEntity
  8
0
  6
CONTINUOUS
100
AcDbLine
 10
37.67199999996831
 20
8.185431124990519
 30
0.0
 11
37.09433112496757
 21
8.763099999991255
 31
0.0
  0
ENDBLK
  5
1B3DF
330
1B33B
100
AcDbEntity
  8
0
100
AcDbBlockEnd
  0
BLOCK
  5
1B3E0
330
1B378
100
AcDbEntity
  8
0
100
AcDbBlockBegin
  2
*X152
 70
     1
 10
0.0
 20
0.0
 30
0.0
  3
*X152
  1

  0
LINE
  5
1B379
330
1B378
100
AcDbEntity
  8
0
  6
CONTINUOUS
100
AcDbLine
 10
38.60499999996136
 20
8.762866199104765
 30
0.0
 11
38.71672554182345
 21
8.874591740966855
 31
0.0
  0
LINE
  5
1B37A
330
1B378
100
AcDbEntity
  8
0
  6
CONTINUOUS
100
AcDbLine
 10
38.60499999996136
 20
8.089346990024577
 30
0.0
 11
39.03418785440363
 21
8.518534844466847
 31
0.0
  0
LINE
  5
1B37B
330
1B378
100
AcDbEntity
  8
0
  6
CONTINUOUS
100
AcDbLine
 10
38.60499999996136
 20
7.41582778094439
 30
0.0
 11
39.35165016698382
 21
8.16247794796684
 31
0.0
  0
LINE
  5
1B37C
330
1B378
100
AcDbEntity
  8
0
  6
CONTINUOUS
100
AcDbLine
 10
38.60499999996136
 20
6.742308571864204
 30
0.0
 11
39.66911247956399
 21
7.806421051466834
 31
0.0
  0
LINE
  5
1B37D
330
1B378
100
AcDbEntity
  8
0
  6
CONTINUOUS
100
AcDbLine
 10
38.60499999996136
 20
6.068789362784018
 30
0.0
 11
39.98657479214418
 21
7.450364154966827
 31
0.0
  0
LINE
  5
1B37E
330
1B378
100
AcDbEntity
  8
0
  6
CONTINUOUS
100
AcDbLine
 10
38.60499999996136
 20
5.395270153703832
 30
0.0
 11
40.30403710472435
 21
7.09430725846682
 31
0.0
  0
LINE
  5
1B37F
330
1B378
100
AcDbEntity
  8
0
  6
CONTINUOUS
100
AcDbLine
 10
38.60499999996136
 20
4.721750944623645
 30
0.0
 11
40.62149941730453
 21
6.738250361966813
 31
0.0
  0
LINE
  5
1B380
330
1B378
100
AcDbEntity
  8
0
  6
CONTINUOUS
100
AcDbLine
 10
38.60499999996136
 20
4.048231735543458
 30
0.0
 11
40.93896172988471
 21
6.382193465466806
 31
0.0
  0
LINE
  5
1B381
330
1B378
100
AcDbEntity
  8
0
  6
CONTINUOUS
100
AcDbLine
 10
38.60499999996136
 20
3.374712526463272
 30
0.0
 11
40.02599999995994
 21
4.795712526461843
 31
0.0
  0
LINE
  5
1B382
330
1B378
100
AcDbEntity
  8
0
  6
CONTINUOUS
100
AcDbLine
 10
38.60499999996136
 20
2.701193317383085
 30
0.0
 11
40.02599999995994
 21
4.122193317381657
 31
0.0
  0
LINE
  5
1B383
330
1B378
100
AcDbEntity
  8
0
  6
CONTINUOUS
100
AcDbLine
 10
40.28339754687704
 20
5.053110073378947
 30
0.0
 11
41.25642404246489
 21
6.026136568966799
 31
0.0
  0
LINE
  5
1B384
330
1B378
100
AcDbEntity
  8
0
  6
CONTINUOUS
100
AcDbLine
 10
40.60085985945722
 20
4.697053176878939
 30
0.0
 11
41.57388635504507
 21
5.670079672466793
 31
0.0
  0
LINE
  5
1B385
330
1B378
100
AcDbEntity
  8
0
  6
CONTINUOUS
100
AcDbLine
 10
43.57899999995641
 20
8.348712526458318
 30
0.0
 11
43.99338747348935
 21
8.763099999991255
 31
0.0
  0
LINE
  5
1B386
330
1B378
100
AcDbEntity
  8
0
  6
CONTINUOUS
100
AcDbLine
 10
43.57899999995641
 20
7.675193317378131
 30
0.0
 11
44.66690668256953
 21
8.763099999991255
 31
0.0
  0
LINE
  5
1B387
330
1B378
100
AcDbEntity
  8
0
  6
CONTINUOUS
100
AcDbLine
 10
38.60499999996136
 20
2.027674108302898
 30
0.0
 11
40.02599999995994
 21
3.44867410830147
 31
0.0
  0
LINE
  5
1B388
330
1B378
100
AcDbEntity
  8
0
  6
CONTINUOUS
100
AcDbLine
 10
38.60499999996136
 20
1.354154899222712
 30
0.0
 11
40.02599999995994
 21
2.775154899221284
 31
0.0
  0
LINE
  5
1B389
330
1B378
100
AcDbEntity
  8
0
  6
CONTINUOUS
100
AcDbLine
 10
38.60499999996136
 20
0.6806356901425255
 30
0.0
 11
40.02599999995994
 21
2.101635690141098
 31
0.0
  0
LINE
  5
1B38A
330
1B378
100
AcDbEntity
  8
0
  6
CONTINUOUS
100
AcDbLine
 10
38.60499999996136
 20
0.0071164810623383
 30
0.0
 11
40.02599999995994
 21
1.428116481060911
 31
0.0
  0
LINE
  5
1B38B
330
1B378
100
AcDbEntity
  8
0
  6
CONTINUOUS
100
AcDbLine
 10
40.9183221720374
 20
4.340996280378933
 30
0.0
 11
41.89134866762525
 21
5.314022775966786
 31
0.0
  0
LINE
  5
1B38C
330
1B378
100
AcDbEntity
  8
0
  6
CONTINUOUS
100
AcDbLine
 10
41.23578448461758
 20
3.984939383878926
 30
0.0
 11
42.20881098020543
 21
4.957965879466778
 31
0.0
  0
LINE
  5
1B38D
330
1B378
100
AcDbEntity
  8
0
  6
CONTINUOUS
100
AcDbLine
 10
41.55324679719776
 20
3.628882487378919
 30
0.0
 11
42.52627329278561
 21
4.601908982966772
 31
0.0
  0
LINE
  5
1B38E
330
1B378
100
AcDbEntity
  8
0
  6
CONTINUOUS
100
AcDbLine
 10
41.87070910977793
 20
3.272825590878912
 30
0.0
 11
42.84373560536579
 21
4.245852086466765
 31
0.0
  0
LINE
  5
1B38F
330
1B378
100
AcDbEntity
  8
0
  6
CONTINUOUS
100
AcDbLine
 10
43.57899999995641
 20
7.001674108297943
 30
0.0
 11
44.99999999995498
 21
8.422674108296516
 31
0.0
  0
LINE
  5
1B390
330
1B378
100
AcDbEntity
  8
0
  6
CONTINUOUS
100
AcDbLine
 10
43.57899999995641
 20
6.328154899217758
 30
0.0
 11
44.99999999995498
 21
7.749154899216329
 31
0.0
  0
LINE
  5
1B391
330
1B378
100
AcDbEntity
  8
0
  6
CONTINUOUS
100
AcDbLine
 10
43.57899999995641
 20
5.654635690137571
 30
0.0
 11
44.99999999995498
 21
7.075635690136142
 31
0.0
  0
LINE
  5
1B392
330
1B378
100
AcDbEntity
  8
0
  6
CONTINUOUS
100
AcDbLine
 10
43.57899999995641
 20
4.981116481057384
 30
0.0
 11
44.99999999995498
 21
6.402116481055955
 31
0.0
  0
LINE
  5
1B393
330
1B378
100
AcDbEntity
  8
0
  6
CONTINUOUS
100
AcDbLine
 10
39.27140272797921
 20
-0.0000000000000009
 30
0.0
 11
40.02599999995994
 21
0.7545972719807246
 31
0.0
  0
LINE
  5
1B394
330
1B378
100
AcDbEntity
  8
0
  6
CONTINUOUS
100
AcDbLine
 10
39.9449219370594
 20
-0.0000000000000009
 30
0.0
 11
40.02599999995994
 21
0.0810780629005379
 31
0.0
  0
LINE
  5
1B395
330
1B378
100
AcDbEntity
  8
0
  6
CONTINUOUS
100
AcDbLine
 10
42.18817142235812
 20
2.916768694378905
 30
0.0
 11
43.16119791794597
 21
3.889795189966758
 31
0.0
  0
LINE
  5
1B396
330
1B378
100
AcDbEntity
  8
0
  6
CONTINUOUS
100
AcDbLine
 10
42.50563373493829
 20
2.560711797878898
 30
0.0
 11
43.47866023052615
 21
3.533738293466751
 31
0.0
  0
LINE
  5
1B397
330
1B378
100
AcDbEntity
  8
0
  6
CONTINUOUS
100
AcDbLine
 10
43.57899999995641
 20
4.307597271977198
 30
0.0
 11
44.99999999995498
 21
5.728597271975769
 31
0.0
  0
LINE
  5
1B398
330
1B378
100
AcDbEntity
  8
0
  6
CONTINUOUS
100
AcDbLine
 10
43.57899999995641
 20
3.634078062897011
 30
0.0
 11
44.99999999995498
 21
5.055078062895582
 31
0.0
  0
LINE
  5
1B399
330
1B378
100
AcDbEntity
  8
0
  6
CONTINUOUS
100
AcDbLine
 10
42.82309604751848
 20
2.204654901378891
 30
0.0
 11
44.99999999995498
 21
4.381558853815395
 31
0.0
  0
LINE
  5
1B39A
330
1B378
100
AcDbEntity
  8
0
  6
CONTINUOUS
100
AcDbLine
 10
43.14055836009865
 20
1.848598004878885
 30
0.0
 11
44.99999999995498
 21
3.70803964473521
 31
0.0
  0
LINE
  5
1B39B
330
1B378
100
AcDbEntity
  8
0
  6
CONTINUOUS
100
AcDbLine
 10
43.45802067267883
 20
1.492541108378878
 30
0.0
 11
44.99999999995498
 21
3.034520435655023
 31
0.0
  0
LINE
  5
1B39C
330
1B378
100
AcDbEntity
  8
0
  6
CONTINUOUS
100
AcDbLine
 10
43.77548298525902
 20
1.136484211878871
 30
0.0
 11
44.99999999995498
 21
2.361001226574837
 31
0.0
  0
LINE
  5
1B39D
330
1B378
100
AcDbEntity
  8
0
  6
CONTINUOUS
100
AcDbLine
 10
44.09294529783919
 20
0.7804273153788639
 30
0.0
 11
44.99999999995498
 21
1.687482017494649
 31
0.0
  0
LINE
  5
1B39E
330
1B378
100
AcDbEntity
  8
0
  6
CONTINUOUS
100
AcDbLine
 10
44.41040761041938
 20
0.4243704188788566
 30
0.0
 11
44.99999999995498
 21
1.013962808414463
 31
0.0
  0
LINE
  5
1B39F
330
1B378
100
AcDbEntity
  8
0
  6
CONTINUOUS
100
AcDbLine
 10
44.72786992299955
 20
0.0683135223788494
 30
0.0
 11
44.99999999995498
 21
0.340443599334276
 31
0.0
  0
LINE
  5
1B3A0
330
1B378
100
AcDbEntity
  8
0
  6
CONTINUOUS
100
AcDbLine
 10
39.12223903415696
 20
-0.0000000000000009
 30
0.0
 11
38.60499999996136
 21
0.5172390341955961
 31
0.0
  0
LINE
  5
1B3A1
330
1B378
100
AcDbEntity
  8
0
  6
CONTINUOUS
100
AcDbLine
 10
39.79575824323715
 20
-0.0000000000000009
 30
0.0
 11
38.60499999996136
 21
1.190758243275783
 31
0.0
  0
LINE
  5
1B3A2
330
1B378
100
AcDbEntity
  8
0
  6
CONTINUOUS
100
AcDbLine
 10
40.02599999995994
 20
0.443277452357397
 30
0.0
 11
38.60499999996136
 21
1.864277452355969
 31
0.0
  0
LINE
  5
1B3A3
330
1B378
100
AcDbEntity
  8
0
  6
CONTINUOUS
100
AcDbLine
 10
40.02599999995994
 20
1.116796661437583
 30
0.0
 11
38.60499999996136
 21
2.537796661436155
 31
0.0
  0
LINE
  5
1B3A4
330
1B378
100
AcDbEntity
  8
0
  6
CONTINUOUS
100
AcDbLine
 10
40.02599999995994
 20
1.79031587051777
 30
0.0
 11
38.60499999996136
 21
3.211315870516341
 31
0.0
  0
LINE
  5
1B3A5
330
1B378
100
AcDbEntity
  8
0
  6
CONTINUOUS
100
AcDbLine
 10
40.02599999995994
 20
2.463835079597956
 30
0.0
 11
38.60499999996136
 21
3.884835079596527
 31
0.0
  0
LINE
  5
1B3A6
330
1B378
100
AcDbEntity
  8
0
  6
CONTINUOUS
100
AcDbLine
 10
40.02599999995994
 20
3.137354288678143
 30
0.0
 11
38.60499999996136
 21
4.558354288676714
 31
0.0
  0
LINE
  5
1B3A7
330
1B378
100
AcDbEntity
  8
0
  6
CONTINUOUS
100
AcDbLine
 10
40.02599999995994
 20
3.810873497758329
 30
0.0
 11
38.60499999996136
 21
5.2318734977569
 31
0.0
  0
LINE
  5
1B3A8
330
1B378
100
AcDbEntity
  8
0
  6
CONTINUOUS
100
AcDbLine
 10
40.02599999995994
 20
4.484392706838515
 30
0.0
 11
38.60499999996136
 21
5.905392706837086
 31
0.0
  0
LINE
  5
1B3A9
330
1B378
100
AcDbEntity
  8
0
  6
CONTINUOUS
100
AcDbLine
 10
44.99999999995498
 20
0.183911915923658
 30
0.0
 11
41.53858364506288
 21
3.64532827081576
 31
0.0
  0
LINE
  5
1B3AA
330
1B378
100
AcDbEntity
  8
0
  6
CONTINUOUS
100
AcDbLine
 10
40.02599999995994
 20
5.157911915918703
 30
0.0
 11
38.60499999996136
 21
6.578911915917274
 31
0.0
  0
LINE
  5
1B3AB
330
1B378
100
AcDbEntity
  8
0
  6
CONTINUOUS
100
AcDbLine
 10
44.99999999995498
 20
0.8574311250038447
 30
0.0
 11
38.60499999996136
 21
7.25243112499746
 31
0.0
  0
LINE
  5
1B3AC
330
1B378
100
AcDbEntity
  8
0
  6
CONTINUOUS
100
AcDbLine
 10
44.99999999995498
 20
1.530950334084031
 30
0.0
 11
38.60499999996136
 21
7.925950334077647
 31
0.0
  0
LINE
  5
1B3AD
330
1B378
100
AcDbEntity
  8
0
  6
CONTINUOUS
100
AcDbLine
 10
44.99999999995498
 20
2.204469543164218
 30
0.0
 11
43.57899999995641
 21
3.625469543162789
 31
0.0
  0
LINE
  5
1B3AE
330
1B378
100
AcDbEntity
  8
0
  6
CONTINUOUS
100
AcDbLine
 10
41.89876730984767
 20
5.305702233271528
 30
0.0
 11
38.60499999996136
 21
8.599469543157834
 31
0.0
  0
LINE
  5
1B3AF
330
1B378
100
AcDbEntity
  8
0
  6
CONTINUOUS
100
AcDbLine
 10
44.99999999995498
 20
2.877988752244405
 30
0.0
 11
43.57899999995641
 21
4.298988752242975
 31
0.0
  0
LINE
  5
1B3B0
330
1B378
100
AcDbEntity
  8
0
  6
CONTINUOUS
100
AcDbLine
 10
44.99999999995498
 20
3.551507961324591
 30
0.0
 11
43.57899999995641
 21
4.972507961323163
 31
0.0
  0
LINE
  5
1B3B1
330
1B378
100
AcDbEntity
  8
0
  6
CONTINUOUS
100
AcDbLine
 10
44.99999999995498
 20
4.225027170404777
 30
0.0
 11
43.57899999995641
 21
5.646027170403348
 31
0.0
  0
LINE
  5
1B3B2
330
1B378
100
AcDbEntity
  8
0
  6
CONTINUOUS
100
AcDbLine
 10
44.99999999995498
 20
4.898546379484964
 30
0.0
 11
43.57899999995641
 21
6.319546379483535
 31
0.0
  0
LINE
  5
1B3B3
330
1B378
100
AcDbEntity
  8
0
  6
CONTINUOUS
100
AcDbLine
 10
44.99999999995498
 20
5.572065588565151
 30
0.0
 11
43.57899999995641
 21
6.993065588563722
 31
0.0
  0
LINE
  5
1B3B4
330
1B378
100
AcDbEntity
  8
0
  6
CONTINUOUS
100
AcDbLine
 10
44.99999999995498
 20
6.245584797645336
 30
0.0
 11
43.57899999995641
 21
7.666584797643908
 31
0.0
  0
LINE
  5
1B3B5
330
1B378
100
AcDbEntity
  8
0
  6
CONTINUOUS
100
AcDbLine
 10
44.99999999995498
 20
6.919104006725522
 30
0.0
 11
43.57899999995641
 21
8.340104006724093
 31
0.0
  0
LINE
  5
1B3B6
330
1B378
100
AcDbEntity
  8
0
  6
CONTINUOUS
100
AcDbLine
 10
44.99999999995498
 20
7.592623215805709
 30
0.0
 11
43.82952321576943
 21
8.763099999991255
 31
0.0
  0
LINE
  5
1B3B7
330
1B378
100
AcDbEntity
  8
0
  6
CONTINUOUS
100
AcDbLine
 10
44.99999999995498
 20
8.266142424885896
 30
0.0
 11
44.50304242484962
 21
8.763099999991255
 31
0.0
  0
ENDBLK
  5
1B3E1
330
1B378
100
AcDbEntity
  8
0
100
AcDbBlockEnd
  0
BLOCK
  5
1B3E2
330
1B3B8
100
AcDbEntity
  8
0
100
AcDbBlockBegin
  2
*X153
 70
     1
 10
0.0
 20
0.0
 30
0.0
  3
*X153
  1

  0
LINE
  5
1B3B9
330
1B3B8
100
AcDbEntity
  8
0
  6
CONTINUOUS
100
AcDbLine
 10
0.0
 20
8.548461116714023
 30
0.0
 11
0.2146388832772324
 21
8.763099999991255
 31
0.0
  0
LINE
  5
1B3BA
330
1B3B8
100
AcDbEntity
  8
0
  6
CONTINUOUS
100
AcDbLine
 10
-0.0000000000000002
 20
7.874941907633837
 30
0.0
 11
0.8881580923574184
 21
8.763099999991255
 31
0.0
  0
LINE
  5
1B3BB
330
1B3B8
100
AcDbEntity
  8
0
  6
CONTINUOUS
100
AcDbLine
 10
0.0
 20
7.20142269855365
 30
0.0
 11
1.420999999998572
 21
8.622422698552223
 31
0.0
  0
LINE
  5
1B3BC
330
1B3B8
100
AcDbEntity
  8
0
  6
CONTINUOUS
100
AcDbLine
 10
-0.0000000000000001
 20
6.527903489473465
 30
0.0
 11
1.420999999998571
 21
7.948903489472036
 31
0.0
  0
LINE
  5
1B3BD
330
1B3B8
100
AcDbEntity
  8
0
  6
CONTINUOUS
100
AcDbLine
 10
-0.0000000000000002
 20
5.854384280393278
 30
0.0
 11
1.420999999998571
 21
7.275384280391849
 31
0.0
  0
LINE
  5
1B3BE
330
1B3B8
100
AcDbEntity
  8
0
  6
CONTINUOUS
100
AcDbLine
 10
-0.0000000000000002
 20
5.180865071313091
 30
0.0
 11
1.420999999998571
 21
6.601865071311663
 31
0.0
  0
LINE
  5
1B3BF
330
1B3B8
100
AcDbEntity
  8
0
  6
CONTINUOUS
100
AcDbLine
 10
0.0
 20
4.507345862232905
 30
0.0
 11
1.420999999998571
 21
5.928345862231477
 31
0.0
  0
LINE
  5
1B3C0
330
1B3B8
100
AcDbEntity
  8
0
  6
CONTINUOUS
100
AcDbLine
 10
-0.0000000000000003
 20
3.833826653152718
 30
0.0
 11
1.420999999998571
 21
5.25482665315129
 31
0.0
  0
LINE
  5
1B3C1
330
1B3B8
100
AcDbEntity
  8
0
  6
CONTINUOUS
100
AcDbLine
 10
-0.0000000000000002
 20
3.160307444072532
 30
0.0
 11
1.420999999998571
 21
4.581307444071103
 31
0.0
  0
LINE
  5
1B3C2
330
1B3B8
100
AcDbEntity
  8
0
  6
CONTINUOUS
100
AcDbLine
 10
-0.0000000000000001
 20
2.486788234992345
 30
0.0
 11
1.420999999998571
 21
3.907788234990917
 31
0.0
  0
LINE
  5
1B3C3
330
1B3B8
100
AcDbEntity
  8
0
  6
CONTINUOUS
100
AcDbLine
 10
-0.0000000000000006
 20
1.813269025912159
 30
0.0
 11
1.420999999998571
 21
3.234269025910731
 31
0.0
  0
LINE
  5
1B3C4
330
1B3B8
100
AcDbEntity
  8
0
  6
CONTINUOUS
100
AcDbLine
 10
0.0
 20
1.139749816831973
 30
0.0
 11
1.420999999998571
 21
2.560749816830544
 31
0.0
  0
LINE
  5
1B3C5
330
1B3B8
100
AcDbEntity
  8
0
  6
CONTINUOUS
100
AcDbLine
 10
0.0000000000000002
 20
0.466230607751787
 30
0.0
 11
1.420999999998571
 21
1.887230607750358
 31
0.0
  0
LINE
  5
1B3C6
330
1B3B8
100
AcDbEntity
  8
0
  6
CONTINUOUS
100
AcDbLine
 10
0.2072886013284003
 20
-0.0000000000000009
 30
0.0
 11
1.420999999998571
 21
1.213711398670171
 31
0.0
  0
LINE
  5
1B3C7
330
1B3B8
100
AcDbEntity
  8
0
  6
CONTINUOUS
100
AcDbLine
 10
0.8808078104085864
 20
-0.0000000000000009
 30
0.0
 11
1.420999999998571
 21
0.5401921895899839
 31
0.0
  0
LINE
  5
1B3C8
330
1B3B8
100
AcDbEntity
  8
0
  6
CONTINUOUS
100
AcDbLine
 10
0.0581249075061505
 20
-0.0000000000000009
 30
0.0
 11
-0.0000000000000002
 21
0.0581249075061496
 31
0.0
  0
LINE
  5
1B3C9
330
1B3B8
100
AcDbEntity
  8
0
  6
CONTINUOUS
100
AcDbLine
 10
0.7316441165863372
 20
-0.0000000000000009
 30
0.0
 11
-0.0000000000000002
 21
0.7316441165863363
 31
0.0
  0
LINE
  5
1B3CA
330
1B3B8
100
AcDbEntity
  8
0
  6
CONTINUOUS
100
AcDbLine
 10
1.405163325666523
 20
-0.0000000000000009
 30
0.0
 11
-0.0000000000000002
 21
1.405163325666523
 31
0.0
  0
LINE
  5
1B3CB
330
1B3B8
100
AcDbEntity
  8
0
  6
CONTINUOUS
100
AcDbLine
 10
1.420999999998572
 20
0.6576825347481381
 30
0.0
 11
-0.0000000000000001
 21
2.07868253474671
 31
0.0
  0
LINE
  5
1B3CC
330
1B3B8
100
AcDbEntity
  8
0
  6
CONTINUOUS
100
AcDbLine
 10
1.420999999998571
 20
1.331201743828324
 30
0.0
 11
-0.0000000000000001
 21
2.752201743826896
 31
0.0
  0
LINE
  5
1B3CD
330
1B3B8
100
AcDbEntity
  8
0
  6
CONTINUOUS
100
AcDbLine
 10
1.420999999998571
 20
2.004720952908511
 30
0.0
 11
-0.0000000000000002
 21
3.425720952907082
 31
0.0
  0
LINE
  5
1B3CE
330
1B3B8
100
AcDbEntity
  8
0
  6
CONTINUOUS
100
AcDbLine
 10
1.420999999998571
 20
2.678240161988697
 30
0.0
 11
-0.0000000000000001
 21
4.099240161987269
 31
0.0
  0
LINE
  5
1B3CF
330
1B3B8
100
AcDbEntity
  8
0
  6
CONTINUOUS
100
AcDbLine
 10
1.420999999998572
 20
3.351759371068884
 30
0.0
 11
0.0
 21
4.772759371067455
 31
0.0
  0
LINE
  5
1B3D0
330
1B3B8
100
AcDbEntity
  8
0
  6
CONTINUOUS
100
AcDbLine
 10
1.420999999998571
 20
4.02527858014907
 30
0.0
 11
-0.0000000000000003
 21
5.446278580147642
 31
0.0
  0
LINE
  5
1B3D1
330
1B3B8
100
AcDbEntity
  8
0
  6
CONTINUOUS
100
AcDbLine
 10
1.420999999998571
 20
4.698797789229257
 30
0.0
 11
0.0
 21
6.119797789227828
 31
0.0
  0
LINE
  5
1B3D2
330
1B3B8
100
AcDbEntity
  8
0
  6
CONTINUOUS
100
AcDbLine
 10
1.420999999998571
 20
5.372316998309444
 30
0.0
 11
-0.0000000000000001
 21
6.793316998308015
 31
0.0
  0
LINE
  5
1B3D3
330
1B3B8
100
AcDbEntity
  8
0
  6
CONTINUOUS
100
AcDbLine
 10
1.420999999998572
 20
6.045836207389629
 30
0.0
 11
-0.0000000000000004
 21
7.466836207388202
 31
0.0
  0
LINE
  5
1B3D4
330
1B3B8
100
AcDbEntity
  8
0
  6
CONTINUOUS
100
AcDbLine
 10
1.420999999998571
 20
6.719355416469816
 30
0.0
 11
0.0
 21
8.140355416468388
 31
0.0
  0
LINE
  5
1B3D5
330
1B3B8
100
AcDbEntity
  8
0
  6
CONTINUOUS
100
AcDbLine
 10
1.420999999998571
 20
7.392874625550003
 30
0.0
 11
0.0507746255573185
 21
8.763099999991255
 31
0.0
  0
LINE
  5
1B3D6
330
1B3B8
100
AcDbEntity
  8
0
  6
CONTINUOUS
100
AcDbLine
 10
1.420999999998571
 20
8.06639383463019
 30
0.0
 11
0.7242938346375052
 21
8.763099999991255
 31
0.0
  0
LINE
  5
1B3D7
330
1B3B8
100
AcDbEntity
  8
0
  6
CONTINUOUS
100
AcDbLine
 10
1.420999999998571
 20
8.739913043710375
 30
0.0
 11
1.397813043717691
 21
8.763099999991255
 31
0.0
  0
ENDBLK
  5
1B3E3
330
1B3B8
100
AcDbEntity
  8
0
100
AcDbBlockEnd
  0
ENDSEC
  0
SECTION
  2
ENTITIES
  0
LINE
  5
1AD07
330
18
100
AcDbEntity
  8
01
100
AcDbLine
 10
2451.662141904159
 20
-513.0527139725199
 30
0.0
 11
2465.662141904159
 21
-513.0527139725199
 31
0.0
  0
LINE
  5
1AD08
330
18
100
AcDbEntity
  8
01
100
AcDbLine
 10
2456.663026086219
 20
-301.0527139735485
 30
0.0
 11
2610.417406241252
 21
-301.0527139735485
 31
0.0
  0
LINE
  5
1AD09
330
18
100
AcDbEntity
  8
01
  6
BYBLOCK
100
AcDbLine
 10
2456.663026086219
 20
-301.0527139735485
 30
0.0
 11
2456.663026086219
 21
-341.0527139735485
 31
0.0
  0
LINE
  5
1AD0D
330
18
100
AcDbEntity
  8
01
100
AcDbLine
 10
2507.662141904158
 20
-306.0527139745772
 30
0.0
 11
2507.662141904158
 21
-275.1346337853282
 31
0.0
  0
LINE
  5
1AD0E
330
18
100
AcDbEntity
  8
01
  6
BYBLOCK
100
AcDbLine
 10
2458.162141904159
 20
-505.1527139725198
 30
0.0
 11
2458.162141904159
 21
-634.95271397252
 31
0.0
  0
LINE
  5
1AD0F
330
18
100
AcDbEntity
  8
01
  6
BYBLOCK
100
AcDbLine
 10
2458.162141904159
 20
-634.0527139725199
 30
0.0
 11
2460.662141904159
 21
-634.0527139725199
 31
0.0
  0
LINE
  5
1AD10
330
18
100
AcDbEntity
  8
01
  6
BYBLOCK
100
AcDbLine
 10
2460.662141904159
 20
-634.0527139725199
 30
0.0
 11
2460.662141904159
 21
-617.5497702473675
 31
0.0
  0
LINE
  5
1AD11
330
18
100
AcDbEntity
  8
01
  6
BYBLOCK
100
AcDbLine
 10
2456.662141904159
 20
-505.1527139725198
 30
0.0
 11
2456.662141904159
 21
-634.95271397252
 31
0.0
  0
LINE
  5
1AD12
330
18
100
AcDbEntity
  8
01
  6
BYBLOCK
100
AcDbLine
 10
2456.662141904159
 20
-634.95271397252
 30
0.0
 11
2458.162141904159
 21
-634.95271397252
 31
0.0
  0
LINE
  5
1AD13
330
18
100
AcDbEntity
  8
01
  6
BYBLOCK
100
AcDbLine
 10
2458.162141904159
 20
-506.0527139725199
 30
0.0
 11
2460.662141904159
 21
-506.0527139725199
 31
0.0
  0
LINE
  5
1AD14
330
18
100
AcDbEntity
  8
01
  6
BYBLOCK
100
AcDbLine
 10
2456.662141904159
 20
-505.1527139725198
 30
0.0
 11
2458.162141904159
 21
-505.1527139725198
 31
0.0
  0
LINE
  5
1AD15
330
18
100
AcDbEntity
  8
01
  6
BYBLOCK
100
AcDbLine
 10
2458.162141904159
 20
-530.0527139725199
 30
0.0
 11
2459.362141904158
 21
-530.0527139725199
 31
0.0
  0
LINE
  5
1AD16
330
18
100
AcDbEntity
  8
01
  6
BYBLOCK
100
AcDbLine
 10
2459.362141904158
 20
-524.3527139725196
 30
0.0
 11
2459.362141904158
 21
-615.7527139725197
 31
0.0
  0
LINE
  5
1AD17
330
18
100
AcDbEntity
  8
01
  6
BYBLOCK
100
AcDbLine
 10
2459.46214190416
 20
-634.0527139725199
 30
0.0
 11
2459.46214190416
 21
-617.45271397252
 31
0.0
  0
LINE
  5
1AD18
330
18
100
AcDbEntity
  8
01
  6
BYBLOCK
100
AcDbLine
 10
2459.46214190416
 20
-617.45271397252
 30
0.0
 11
2458.513613766735
 21
-616.5041858350959
 31
0.0
  0
LINE
  5
1AD19
330
18
100
AcDbEntity
  8
01
  6
BYBLOCK
100
AcDbLine
 10
2460.310670041584
 20
-616.7012421099438
 30
0.0
 11
2459.362141904158
 21
-615.7527139725197
 31
0.0
  0
ARC
  5
1AD1A
330
18
100
AcDbEntity
  8
01
  6
BYBLOCK
100
AcDbCircle
 10
2459.46214190416
 20
-617.5497702473675
 30
0.0
 40
1.2
100
AcDbArc
 50
0.0
 51
45.00000000003838
  0
ARC
  5
1AD1B
330
18
100
AcDbEntity
  8
01
  6
BYBLOCK
100
AcDbCircle
 10
2459.362141904158
 20
-615.6556576976722
 30
0.0
 40
1.2
100
AcDbArc
 50
180.0
 51
225.0000000000384
  0
LINE
  5
1AD1C
330
18
100
AcDbEntity
  8
01
  6
BYBLOCK
100
AcDbLine
 10
2460.662141904159
 20
-506.0527139725199
 30
0.0
 11
2460.662141904159
 21
-522.5556576976722
 31
0.0
  0
LINE
  5
1AD1D
330
18
100
AcDbEntity
  8
01
  6
BYBLOCK
100
AcDbLine
 10
2459.46214190416
 20
-506.0527139725199
 30
0.0
 11
2459.46214190416
 21
-522.6527139725198
 31
0.0
  0
LINE
  5
1AD1E
330
18
100
AcDbEntity
  8
01
  6
BYBLOCK
100
AcDbLine
 10
2459.46214190416
 20
-522.6527139725198
 30
0.0
 11
2458.513613766735
 21
-523.6012421099439
 31
0.0
  0
LINE
  5
1AD1F
330
18
100
AcDbEntity
  8
01
  6
BYBLOCK
100
AcDbLine
 10
2460.310670041584
 20
-523.404185835096
 30
0.0
 11
2459.362141904158
 21
-524.3527139725201
 31
0.0
  0
ARC
  5
1AD20
330
18
100
AcDbEntity
  8
01
  6
BYBLOCK
100
AcDbCircle
 10
2459.46214190416
 20
-522.5556576976722
 30
0.0
 40
1.2
100
AcDbArc
 50
314.9999999999616
 51
0.0
  0
ARC
  5
1AD21
330
18
100
AcDbEntity
  8
01
  6
BYBLOCK
100
AcDbCircle
 10
2459.362141904158
 20
-524.4497702473676
 30
0.0
 40
1.2
100
AcDbArc
 50
134.9999999999616
 51
180.0
  0
CIRCLE
  5
1AD22
330
18
100
AcDbEntity
  8
01
  6
BYBLOCK
100
AcDbCircle
 10
2507.662141904159
 20
-541.0527139725199
 30
0.0
 40
4.75
  0
ARC
  5
1AD23
330
18
100
AcDbEntity
  8
01
  6
BYBLOCK
100
AcDbCircle
 10
2459.76302608622
 20
-317.4914634305486
 30
0.0
 40
1.6
100
AcDbArc
 50
115.9444797719643
 51
180.0
  0
ARC
  5
1AD24
330
18
100
AcDbEntity
  8
01
  6
BYBLOCK
100
AcDbCircle
 10
2459.76302608622
 20
-324.6139645165484
 30
0.0
 40
1.6
100
AcDbArc
 50
180.0
 51
244.0555202280358
  0
ARC
  5
1AD25
330
18
100
AcDbEntity
  8
01
  6
BYBLOCK
100
AcDbCircle
 10
2459.063026086219
 20
-325.8914634305487
 30
0.0
 40
1.6
100
AcDbArc
 50
0.0
 51
64.05552022803575
  0
ARC
  5
1AD26
330
18
100
AcDbEntity
  8
01
  6
BYBLOCK
100
AcDbCircle
 10
2459.063026086219
 20
-316.2139645165488
 30
0.0
 40
1.6
100
AcDbArc
 50
295.9444797719642
 51
0.0
  0
LINE
  5
1AD27
330
18
100
AcDbEntity
  8
01
  6
BYBLOCK
100
AcDbLine
 10
2460.663026086219
 20
-316.2139645165488
 30
0.0
 11
2460.663026086219
 21
-308.8527139735487
 31
0.0
  0
LINE
  5
1AD28
330
18
100
AcDbEntity
  8
01
  6
BYBLOCK
100
AcDbLine
 10
2459.76302608622
 20
-324.4527139735486
 30
0.0
 11
2459.76302608622
 21
-317.6527139735484
 31
0.0
  0
LINE
  5
1AD29
330
18
100
AcDbEntity
  8
01
  6
BYBLOCK
100
AcDbLine
 10
2460.663026086219
 20
-333.0527139735485
 30
0.0
 11
2460.663026086219
 21
-325.8914634305487
 31
0.0
  0
LINE
  5
1AD2A
330
18
100
AcDbEntity
  8
01
  6
BYBLOCK
100
AcDbLine
 10
2459.063026086219
 20
-316.0527139735485
 30
0.0
 11
2459.063026086219
 21
-308.8527139735487
 31
0.0
  0
LINE
  5
1AD2B
330
18
100
AcDbEntity
  8
01
  6
BYBLOCK
100
AcDbLine
 10
2459.063026086219
 20
-326.0527139735485
 30
0.0
 11
2459.063026086219
 21
-333.1527139735484
 31
0.0
  0
ARC
  5
1AD2C
330
18
100
AcDbEntity
  8
01
  6
BYBLOCK
100
AcDbCircle
 10
2524.063026086219
 20
-313.1527139735484
 30
0.0
 40
1.6
100
AcDbArc
 50
0.0
 51
90.0
  0
LINE
  5
1AD2D
330
18
100
AcDbEntity
  8
01
  6
BYBLOCK
100
AcDbLine
 10
2458.163026086219
 20
-308.6527139735484
 30
0.0
 11
2458.163026086219
 21
-333.4527139735486
 31
0.0
  0
LINE
  5
1AD2E
330
18
100
AcDbEntity
  8
01
  6
BYBLOCK
100
AcDbLine
 10
2524.063026086219
 20
-311.5527139735485
 30
0.0
 11
2460.663026086219
 21
-311.5527139735485
 31
0.0
  0
LINE
  5
1AD2F
330
18
100
AcDbEntity
  8
01
  6
BYBLOCK
100
AcDbLine
 10
2524.063026086219
 20
-328.7527139735488
 30
0.0
 11
2524.063026086219
 21
-311.5527139735485
 31
0.0
  0
LINE
  5
1AD30
330
18
100
AcDbEntity
  8
01
  6
BYBLOCK
100
AcDbLine
 10
2525.663026086219
 20
-330.3527139735487
 30
0.0
 11
2525.663026086219
 21
-313.1527139735484
 31
0.0
  0
LINE
  5
1AD31
330
18
100
AcDbEntity
  8
01
  6
BYBLOCK
100
AcDbLine
 10
2458.163026086219
 20
-308.8527139735487
 30
0.0
 11
2460.663026086219
 21
-308.8527139735487
 31
0.0
  0
LINE
  5
1AD32
330
18
100
AcDbEntity
  8
01
  6
BYBLOCK
100
AcDbLine
 10
2460.663026086219
 20
-333.0527139735485
 30
0.0
 11
2459.063026086219
 21
-333.0527139735485
 31
0.0
  0
LINE
  5
1AD33
330
18
100
AcDbEntity
  8
01
  6
BYBLOCK
100
AcDbLine
 10
2459.063026086219
 20
-333.1527139735484
 30
0.0
 11
2458.163026086219
 21
-333.1527139735484
 31
0.0
  0
ARC
  5
1AD34
330
18
100
AcDbEntity
  8
01
  6
BYBLOCK
100
AcDbCircle
 10
2455.363621013618
 20
-326.7527139735479
 30
0.0
 40
0.3000000000000051
100
AcDbArc
 50
232.8678058731304
 51
270.0
  0
LINE
  5
1AD35
330
18
100
AcDbEntity
  8
01
  6
BYBLOCK
100
AcDbLine
 10
2456.163026086219
 20
-327.0527139735481
 30
0.0
 11
2455.363621013618
 21
-327.0527139735481
 31
0.0
  0
LINE
  5
1AD36
330
18
100
AcDbEntity
  8
01
  6
BYBLOCK
100
AcDbLine
 10
2445.76302608622
 20
-317.3797251073437
 30
0.0
 11
2445.76302608622
 21
-317.550347162893
 31
0.0
  0
ARC
  5
1AD37
330
18
100
AcDbEntity
  8
01
  6
BYBLOCK
100
AcDbCircle
 10
2446.063026086219
 20
-317.550347162893
 30
0.0
 40
0.3
100
AcDbArc
 50
180.0
 51
217.7405295628107
  0
ARC
  5
1AD38
330
18
100
AcDbEntity
  8
01
  6
BYBLOCK
100
AcDbCircle
 10
2485.365326685503
 20
-287.1296442189522
 30
0.0
 40
50.00000000000002
100
AcDbArc
 50
217.7405295629814
 51
232.8678058729741
  0
LINE
  5
1AD39
330
18
100
AcDbEntity
  8
01
  6
BYBLOCK
100
AcDbLine
 10
2445.563026086219
 20
-316.2527139735483
 30
0.0
 11
2445.563026086219
 21
-315.5527139735485
 31
0.0
  0
ARC
  5
1AD3A
330
18
100
AcDbEntity
  8
01
  6
BYBLOCK
100
AcDbCircle
 10
2446.063026086219
 20
-315.5527139735485
 30
0.0
 40
0.5000000000000142
100
AcDbArc
 50
90.0
 51
180.0
  0
LINE
  5
1AD3B
330
18
100
AcDbEntity
  8
01
  6
BYBLOCK
100
AcDbLine
 10
2456.163026086219
 20
-315.0527139735485
 30
0.0
 11
2446.063026086219
 21
-315.0527139735485
 31
0.0
  0
LINE
  5
1AD3C
330
18
100
AcDbEntity
  8
01
  6
BYBLOCK
100
AcDbLine
 10
2445.563026086219
 20
-316.6313936299888
 30
0.0
 11
2445.563026086219
 21
-316.2527139735483
 31
0.0
  0
SPLINE
  5
1AD3D
330
18
100
AcDbEntity
  8
01
  6
BYBLOCK
100
AcDbSpline
210
0.0
220
0.0
230
1.0
 70
     8
 71
     3
 72
     8
 73
     4
 74
     0
 42
0.0000000001
 43
0.0000000001
 40
0.0
 40
0.0
 40
0.0
 40
0.0
 40
1.0
 40
1.0
 40
1.0
 40
1.0
 10
2445.588758627483
 20
-316.9080440594379
 30
0.0
 10
2445.571290741372
 20
-316.8149578635574
 30
0.0
 10
2445.563026086219
 20
-316.7216918526659
 30
0.0
 10
2445.563026086219
 20
-316.6313936299883
 30
0.0
  0
ARC
  5
1AD3E
330
18
100
AcDbEntity
  8
01
  6
BYBLOCK
100
AcDbCircle
 10
2447.063026086219
 20
-316.6313936299888
 30
0.0
 40
1.499999999999998
100
AcDbArc
 50
190.6281129875985
 51
225.0000000000384
  0
LINE
  5
1AD3F
330
18
100
AcDbEntity
  8
01
  6
BYBLOCK
100
AcDbLine
 10
2456.663026086219
 20
-314.2027139735486
 30
0.0
 11
2456.163026086219
 21
-314.2027139735486
 31
0.0
  0
LINE
  5
1AD40
330
18
100
AcDbEntity
  8
01
  6
BYBLOCK
100
AcDbLine
 10
2456.163026086219
 20
-327.9027139735484
 30
0.0
 11
2456.663026086219
 21
-327.9027139735484
 31
0.0
  0
LINE
  5
1AD41
330
18
100
AcDbEntity
  8
01
  6
BYBLOCK
100
AcDbLine
 10
2456.163026086219
 20
-327.9027139735484
 30
0.0
 11
2456.163026086219
 21
-314.2027139735486
 31
0.0
  0
LINE
  5
1AD42
330
18
100
AcDbEntity
  8
01
  6
BYBLOCK
100
AcDbLine
 10
2456.663026086219
 20
-308.6527139735484
 30
0.0
 11
2458.163026086219
 21
-308.6527139735484
 31
0.0
  0
LINE
  5
1AD43
330
18
100
AcDbEntity
  8
01
  6
BYBLOCK
100
AcDbLine
 10
2456.663026086219
 20
-333.4527139735486
 30
0.0
 11
2458.163026086219
 21
-333.4527139735486
 31
0.0
  0
LINE
  5
1AD44
330
18
100
AcDbEntity
  8
01
  6
BYBLOCK
100
AcDbLine
 10
2456.663026086219
 20
-333.4527139735486
 30
0.0
 11
2456.663026086219
 21
-308.6527139735484
 31
0.0
  0
LINE
  5
1AD45
330
18
100
AcDbEntity
  8
01
  6
BYBLOCK
100
AcDbLine
 10
2525.663026086219
 20
-328.7527139735488
 30
0.0
 11
2460.663026086219
 21
-328.7527139735488
 31
0.0
  0
LINE
  5
1AD46
330
18
100
AcDbEntity
  8
01
  6
BYBLOCK
100
AcDbLine
 10
2525.663026086219
 20
-330.3527139735487
 30
0.0
 11
2475.26302608622
 21
-330.3527139735487
 31
0.0
  0
LINE
  5
1AD47
330
18
100
AcDbEntity
  8
01
  6
BYBLOCK
100
AcDbLine
 10
2478.100284386422
 20
-330.3527139735487
 30
0.0
 11
2460.663026086219
 21
-330.3527139735487
 31
0.0
  0
LINE
  5
1AD48
330
18
100
AcDbEntity
  8
01
  6
BYBLOCK
100
AcDbLine
 10
2455.216579476813
 20
-326.9062673641419
 30
0.0
 11
2446.002365914438
 21
-317.6920538017688
 31
0.0
  0
ARC
  5
1AD49
330
18
100
AcDbEntity
  8
01
  6
BYBLOCK
100
AcDbCircle
 10
2455.570132867407
 20
-326.5527139735485
 30
0.0
 40
0.5
100
AcDbArc
 50
224.9999999999033
 51
270.0
  0
LINE
  5
1AD4A
330
18
100
AcDbEntity
  8
01
  6
BYBLOCK
100
AcDbLine
 10
2456.163026086219
 20
-327.0527139735485
 30
0.0
 11
2455.570132867407
 21
-327.0527139735485
 31
0.0
  0
LINE
  5
1AD4C
330
18
100
AcDbEntity
  8
01
  6
BYBLOCK
100
AcDbLine
 10
2504.055897320107
 20
-541.0527139725199
 30
0.0
 11
2507.662141904159
 21
-537.4464693884687
 31
0.0
  0
LINE
  5
1AD4D
330
18
100
AcDbEntity
  8
01
  6
BYBLOCK
100
AcDbLine
 10
2511.268386488212
 20
-541.0527139725199
 30
0.0
 11
2507.662141904159
 21
-537.4464693884687
 31
0.0
  0
LINE
  5
1AD4E
330
18
100
AcDbEntity
  8
01
  6
BYBLOCK
100
AcDbLine
 10
2504.055897320107
 20
-541.0527139725199
 30
0.0
 11
2507.662141904159
 21
-544.6589585565711
 31
0.0
  0
LINE
  5
1AD4F
330
18
100
AcDbEntity
  8
01
  6
BYBLOCK
100
AcDbLine
 10
2511.268386488212
 20
-541.0527139725199
 30
0.0
 11
2507.662141904159
 21
-544.6589585565711
 31
0.0
  0
LINE
  5
1AD50
330
18
100
AcDbEntity
  8
01
  6
BYBLOCK
100
AcDbLine
 10
2445.662141904159
 20
-560.0210437055038
 30
0.0
 11
2445.662141904159
 21
-578.0843842395096
 31
0.0
  0
LINE
  5
1AD51
330
18
100
AcDbEntity
  8
01
  6
BYBLOCK
100
AcDbLine
 10
2449.955035122973
 20
-559.0527139725067
 30
0.0
 11
2456.662141904159
 21
-559.0527139725067
 31
0.0
  0
LINE
  5
1AD52
330
18
100
AcDbEntity
  8
01
  6
BYBLOCK
100
AcDbLine
 10
2449.955035122973
 20
-579.0527139725067
 30
0.0
 11
2456.662141904159
 21
-579.0527139725067
 31
0.0
  0
LINE
  5
1AD53
330
18
100
AcDbEntity
  8
01
  6
BYBLOCK
100
AcDbLine
 10
2455.455035122973
 20
-563.8027139725067
 30
0.0
 11
2455.455035122973
 21
-574.3027139725067
 31
0.0
  0
ARC
  5
1AD54
330
18
100
AcDbEntity
  8
01
  6
BYBLOCK
100
AcDbCircle
 10
2449.955035122973
 20
-569.0527139725067
 30
0.0
 40
10.00000000000009
100
AcDbArc
 50
53.13010235415429
 51
115.4224671781178
  0
ARC
  5
1AD55
330
18
100
AcDbEntity
  8
01
  6
BYBLOCK
100
AcDbCircle
 10
2449.955035122973
 20
-569.0527139725067
 30
0.0
 40
10.00000000000009
100
AcDbArc
 50
244.5775328218822
 51
306.8698976458457
  0
LINE
  5
1AD56
330
18
100
AcDbEntity
  8
01
  6
BYBLOCK
100
AcDbLine
 10
2455.955035122973
 20
-561.0527139725067
 30
0.0
 11
2455.955035122973
 21
-577.0527139725067
 31
0.0
  0
LINE
  5
1AD57
330
18
100
AcDbEntity
  8
01
  6
BYBLOCK
100
AcDbLine
 10
2445.662141904159
 20
-563.8027139725067
 30
0.0
 11
2455.455035122973
 21
-563.8027139725067
 31
0.0
  0
LINE
  5
1AD58
330
18
100
AcDbEntity
  8
01
  6
BYBLOCK
100
AcDbLine
 10
2445.662141904159
 20
-574.3027139725067
 30
0.0
 11
2455.455035122973
 21
-574.3027139725067
 31
0.0
  0
LINE
  5
1AD59
330
18
100
AcDbEntity
  8
01
  6
BYBLOCK
100
AcDbLine
 10
2331.262258243904
 20
-505.1527139725207
 30
0.0
 11
2344.062258243904
 21
-505.1527139725207
 31
0.0
  0
LINE
  5
1AD5A
330
18
100
AcDbEntity
  8
01
  6
BYBLOCK
100
AcDbLine
 10
2331.262258243904
 20
-634.9527139725204
 30
0.0
 11
2344.062258243904
 21
-634.9527139725204
 31
0.0
  0
LINE
  5
1AD5B
330
18
100
AcDbEntity
  8
01
  6
BYBLOCK
100
AcDbLine
 10
2325.262258243904
 20
-511.1527139725207
 30
0.0
 11
2325.262258243904
 21
-628.9527139725204
 31
0.0
  0
LINE
  5
1AD5C
330
18
100
AcDbEntity
  8
01
  6
BYBLOCK
100
AcDbLine
 10
2350.062258243904
 20
-511.1527139725207
 30
0.0
 11
2350.062258243904
 21
-628.9527139725204
 31
0.0
  0
ARC
  5
1AD5D
330
18
100
AcDbEntity
  8
01
  6
BYBLOCK
100
AcDbCircle
 10
2331.262258243904
 20
-628.9527139725204
 30
0.0
 40
6.0
100
AcDbArc
 50
180.0
 51
270.0
  0
ARC
  5
1AD5E
330
18
100
AcDbEntity
  8
01
  6
BYBLOCK
100
AcDbCircle
 10
2344.062258243904
 20
-628.9527139725204
 30
0.0
 40
6.0
100
AcDbArc
 50
270.0
 51
0.0
  0
ARC
  5
1AD5F
330
18
100
AcDbEntity
  8
01
  6
BYBLOCK
100
AcDbCircle
 10
2331.262258243904
 20
-511.1527139725207
 30
0.0
 40
6.0
100
AcDbArc
 50
90.0
 51
180.0
  0
ARC
  5
1AD60
330
18
100
AcDbEntity
  8
01
  6
BYBLOCK
100
AcDbCircle
 10
2344.062258243904
 20
-511.1527139725207
 30
0.0
 40
6.0
100
AcDbArc
 50
0.0
 51
90.0
  0
CIRCLE
  5
1AD61
330
18
100
AcDbEntity
  8
01
  6
BYBLOCK
100
AcDbCircle
 10
2337.662258243904
 20
-627.0527139725203
 30
0.0
 40
2.75
  0
CIRCLE
  5
1AD62
330
18
100
AcDbEntity
  8
01
  6
BYBLOCK
100
AcDbCircle
 10
2337.662258243904
 20
-627.0527139725203
 30
0.0
 40
4.25
  0
CIRCLE
  5
1AD63
330
18
100
AcDbEntity
  8
01
  6
BYBLOCK
100
AcDbCircle
 10
2337.662258243904
 20
-513.0527139725208
 30
0.0
 40
2.75
  0
CIRCLE
  5
1AD64
330
18
100
AcDbEntity
  8
01
  6
BYBLOCK
100
AcDbCircle
 10
2337.662258243904
 20
-513.0527139725208
 30
0.0
 40
4.25
  0
LINE
  5
1AD65
330
18
100
AcDbEntity
  8
1CENTER
100
AcDbLine
 10
2343.53728365181
 20
-627.0527139725208
 30
0.0
 11
2331.787232835998
 21
-627.0527139725208
 31
0.0
  0
LINE
  5
1AD66
330
18
100
AcDbEntity
  8
1CENTER
100
AcDbLine
 10
2337.662258243904
 20
-621.1776885646144
 30
0.0
 11
2337.662258243904
 21
-632.9277393804267
 31
0.0
  0
LINE
  5
1AD67
330
18
100
AcDbEntity
  8
1CENTER
100
AcDbLine
 10
2343.53728365181
 20
-513.0527139725208
 30
0.0
 11
2331.787232835998
 21
-513.0527139725208
 31
0.0
  0
LINE
  5
1AD68
330
18
100
AcDbEntity
  8
1CENTER
100
AcDbLine
 10
2337.662258243904
 20
-507.1776885646144
 30
0.0
 11
2337.662258243904
 21
-518.9277393804267
 31
0.0
  0
ARC
  5
1AD69
330
18
100
AcDbEntity
  8
01
  6
BYBLOCK
100
AcDbCircle
 10
2337.662258243904
 20
-569.0527139725203
 30
0.0
 40
10.15
100
AcDbArc
 50
231.9925780701386
 51
308.0074219298635
  0
LINE
  5
1AD6A
330
18
100
AcDbEntity
  8
01
  6
BYBLOCK
100
AcDbLine
 10
2331.412258243904
 20
-561.0552143632675
 30
0.0
 11
2331.412258243904
 21
-577.0502135817732
 31
0.0
  0
LINE
  5
1AD6B
330
18
100
AcDbEntity
  8
01
  6
BYBLOCK
100
AcDbLine
 10
2343.912258243904
 20
-561.0552143632675
 30
0.0
 11
2343.912258243904
 21
-577.0502135817732
 31
0.0
  0
ARC
  5
1AD6C
330
18
100
AcDbEntity
  8
01
  6
BYBLOCK
100
AcDbCircle
 10
2337.662258243904
 20
-569.0527139725203
 30
0.0
 40
10.15
100
AcDbArc
 50
51.9925780701365
 51
128.0074219298615
  0
LINE
  5
1AD6D
330
18
100
AcDbEntity
  8
01
  6
BYBLOCK
100
AcDbLine
 10
2333.162258243904
 20
-563.8027139725203
 30
0.0
 11
2333.162258243904
 21
-574.3027139725203
 31
0.0
  0
LINE
  5
1AD6E
330
18
100
AcDbEntity
  8
01
  6
BYBLOCK
100
AcDbLine
 10
2343.162258243904
 20
-563.8027139725203
 30
0.0
 11
2343.162258243904
 21
-574.3027139725203
 31
0.0
  0
LINE
  5
1AD6F
330
18
100
AcDbEntity
  8
01
  6
BYBLOCK
100
AcDbLine
 10
2333.662258243904
 20
-559.7241288708022
 30
0.0
 11
2333.662258243904
 21
-563.8027139725208
 31
0.0
  0
LINE
  5
1AD70
330
18
100
AcDbEntity
  8
01
  6
BYBLOCK
100
AcDbLine
 10
2332.162258243904
 20
-563.8027139725208
 30
0.0
 11
2332.162258243904
 21
-574.3027139725203
 31
0.0
  0
LINE
  5
1AD71
330
18
100
AcDbEntity
  8
01
  6
BYBLOCK
100
AcDbLine
 10
2333.662258243904
 20
-574.3027139725203
 30
0.0
 11
2333.662258243904
 21
-578.3812990742389
 31
0.0
  0
LINE
  5
1AD72
330
18
100
AcDbEntity
  8
01
  6
BYBLOCK
100
AcDbLine
 10
2332.162258243904
 20
-563.8027139725203
 30
0.0
 11
2343.162258243904
 21
-563.8027139725203
 31
0.0
  0
LINE
  5
1AD73
330
18
100
AcDbEntity
  8
01
  6
BYBLOCK
100
AcDbLine
 10
2332.162258243904
 20
-574.3027139725203
 30
0.0
 11
2343.162258243904
 21
-574.3027139725203
 31
0.0
  0
LINE
  5
1AD75
330
18
100
AcDbEntity
  8
01
100
AcDbLine
 10
2317.662374583647
 20
-471.0527139725203
 30
0.0
 11
2317.662374583647
 21
-661.0527139725203
 31
0.0
  0
LINE
  5
1AD76
330
18
100
AcDbEntity
  8
01
100
AcDbLine
 10
2319.790659966079
 20
-591.0527139725203
 30
0.0
 11
2297.162374583647
 21
-591.0527139725203
 31
0.0
  0
POINT
  5
1AD77
330
18
100
AcDbEntity
  8
01
100
AcDbPoint
 10
2303.162258243904
 20
-591.0527139725203
 30
0.0
 50
180.0
  0
LINE
  5
1AD78
330
18
100
AcDbEntity
  8
01
100
AcDbLine
 10
2451.662141904447
 20
-627.0527139722311
 30
0.0
 11
2465.662141904447
 21
-627.0527139722311
 31
0.0
  0
LINE
  5
1AD79
330
18
100
AcDbEntity
  8
01
100
AcDbLine
 10
2518.9740301717
 20
-541.0527139725199
 30
0.0
 11
2496.350253636617
 21
-541.0527139725199
 31
0.0
  0
LINE
  5
1AD7A
330
18
100
AcDbEntity
  8
01
100
AcDbLine
 10
2507.662141904159
 20
-529.7408257049782
 30
0.0
 11
2507.662141904159
 21
-552.3646022400616
 31
0.0
  0
LINE
  5
1AD7B
330
18
100
AcDbEntity
  8
01
  6
BYBLOCK
100
AcDbLine
 10
2229.66237458365
 20
-560.0210437055038
 30
0.0
 11
2229.66237458365
 21
-578.0843842395096
 31
0.0
  0
LINE
  5
1AD7C
330
18
100
AcDbEntity
  8
01
  6
BYBLOCK
100
AcDbLine
 10
2225.369481364837
 20
-559.0527139725067
 30
0.0
 11
2218.66237458365
 21
-559.0527139725067
 31
0.0
  0
LINE
  5
1AD7D
330
18
100
AcDbEntity
  8
01
  6
BYBLOCK
100
AcDbLine
 10
2225.369481364837
 20
-579.0527139725067
 30
0.0
 11
2218.66237458365
 21
-579.0527139725067
 31
0.0
  0
ARC
  5
1AD7E
330
18
100
AcDbEntity
  8
01
  6
BYBLOCK
100
AcDbCircle
 10
2225.369481364837
 20
-569.0527139725067
 30
0.0
 40
10.00000000000009
100
AcDbArc
 50
64.57753282188216
 51
90.0
  0
LINE
  5
1AD7F
330
18
100
AcDbEntity
  8
01
  6
CONTINUOUS
100
AcDbLine
 10
2229.16237458365
 20
-577.3675081653377
 30
0.0
 11
2218.66237458365
 21
-577.3675081653377
 31
0.0
  0
ARC
  5
1AD80
330
18
100
AcDbEntity
  8
01
  6
CONTINUOUS
100
AcDbCircle
 10
2229.200954830564
 20
-576.9053689345309
 30
0.0
 40
0.4637468103423796
100
AcDbArc
 50
265.2279066161926
 51
354.2577450626297
  0
LINE
  5
1AD81
330
18
100
AcDbEntity
  8
01
  6
CONTINUOUS
100
AcDbLine
 10
2229.66237458365
 20
-561.5693991989586
 30
0.0
 11
2229.66237458365
 21
-576.5360287460547
 31
0.0
  0
ARC
  5
1AD82
330
18
100
AcDbEntity
  8
01
  6
CONTINUOUS
100
AcDbCircle
 10
2229.200954830564
 20
-561.2000590104825
 30
0.0
 40
0.4637468103423387
100
AcDbArc
 50
5.742254937370304
 51
94.77209338380747
  0
ARC
  5
1AD83
330
18
100
AcDbEntity
  8
01
  6
BYBLOCK
100
AcDbCircle
 10
2225.369481364837
 20
-569.0527139725067
 30
0.0
 40
10.00000000000009
100
AcDbArc
 50
270.0
 51
295.4224671781178
  0
LINE
  5
1AD84
330
18
100
AcDbEntity
  8
01
  6
CONTINUOUS
100
AcDbLine
 10
2218.66237458365
 20
-560.7379197796757
 30
0.0
 11
2229.16237458365
 21
-560.7379197796757
 31
0.0
  0
LINE
  5
1AD85
330
18
100
AcDbEntity
  8
01
100
AcDbLine
 10
2525.662141904159
 20
-568.9563341785546
 30
0.0
 11
2525.662141904159
 21
-605.8527139725201
 31
0.0
  0
ARC
  5
1AD86
330
18
100
AcDbEntity
  8
01
100
AcDbCircle
 10
2524.662141904159
 20
-606.0527139725199
 30
0.0
 40
1.0
100
AcDbArc
 50
270.0
 51
0.0
  0
LINE
  5
1AD87
330
18
100
AcDbEntity
  8
01
100
AcDbLine
 10
2484.077189074017
 20
-607.0527139725199
 30
0.0
 11
2524.662141904159
 21
-607.0527139725199
 31
0.0
  0
LINE
  5
1AD88
330
18
100
AcDbEntity
  8
01
100
AcDbLine
 10
2197.66237458365
 20
-591.0527139725199
 30
0.0
 11
2137.66237458365
 21
-591.0527139725199
 31
0.0
  0
LINE
  5
1AD89
330
18
100
AcDbEntity
  8
01
100
AcDbLine
 10
2167.66237458365
 20
-561.0527139725199
 30
0.0
 11
2167.66237458365
 21
-621.0527139725199
 31
0.0
  0
ARC
  5
1AD8A
330
18
100
AcDbEntity
  8
01
  6
BYBLOCK
100
AcDbCircle
 10
2524.662141904159
 20
-534.0527139725199
 30
0.0
 40
1.0
100
AcDbArc
 50
0.0
 51
90.0
  0
LINE
  5
1AD8B
330
18
100
AcDbEntity
  8
01
  6
BYBLOCK
100
AcDbLine
 10
2485.3016175604
 20
-533.0527139725199
 30
0.0
 11
2524.662141904159
 21
-533.0527139725199
 31
0.0
  0
LINE
  5
1AD8C
330
18
100
AcDbEntity
  8
01
  6
BYBLOCK
100
AcDbLine
 10
2525.662141904159
 20
-534.0527139725199
 30
0.0
 11
2525.662141904159
 21
-549.0540429522879
 31
0.0
  0
LINE
  5
1AD8D
330
18
100
AcDbEntity
  8
01
100
AcDbLine
 10
2223.66237458365
 20
-513.0527139725199
 30
0.0
 11
2209.66237458365
 21
-513.0527139725199
 31
0.0
  0
LINE
  5
1AD8E
330
18
100
AcDbEntity
  8
01
  6
BYBLOCK
100
AcDbLine
 10
2217.16237458365
 20
-505.1527139725198
 30
0.0
 11
2217.16237458365
 21
-634.95271397252
 31
0.0
  0
LINE
  5
1AD8F
330
18
100
AcDbEntity
  8
01
  6
BYBLOCK
100
AcDbLine
 10
2217.16237458365
 20
-634.0527139725199
 30
0.0
 11
2214.66237458365
 21
-634.0527139725199
 31
0.0
  0
LINE
  5
1AD90
330
18
100
AcDbEntity
  8
01
  6
BYBLOCK
100
AcDbLine
 10
2214.66237458365
 20
-634.0527139725199
 30
0.0
 11
2214.66237458365
 21
-617.5497702473675
 31
0.0
  0
LINE
  5
1AD91
330
18
100
AcDbEntity
  8
01
  6
BYBLOCK
100
AcDbLine
 10
2218.66237458365
 20
-505.1527139725198
 30
0.0
 11
2218.66237458365
 21
-634.95271397252
 31
0.0
  0
LINE
  5
1AD92
330
18
100
AcDbEntity
  8
01
  6
BYBLOCK
100
AcDbLine
 10
2218.66237458365
 20
-634.95271397252
 30
0.0
 11
2217.16237458365
 21
-634.95271397252
 31
0.0
  0
LINE
  5
1AD93
330
18
100
AcDbEntity
  8
01
  6
BYBLOCK
100
AcDbLine
 10
2217.16237458365
 20
-506.0527139725199
 30
0.0
 11
2214.66237458365
 21
-506.0527139725199
 31
0.0
  0
LINE
  5
1AD94
330
18
100
AcDbEntity
  8
01
  6
BYBLOCK
100
AcDbLine
 10
2218.66237458365
 20
-505.1527139725198
 30
0.0
 11
2217.16237458365
 21
-505.1527139725198
 31
0.0
  0
LINE
  5
1AD95
330
18
100
AcDbEntity
  8
01
  6
BYBLOCK
100
AcDbLine
 10
2217.16237458365
 20
-530.0527139725199
 30
0.0
 11
2215.96237458365
 21
-530.0527139725199
 31
0.0
  0
LINE
  5
1AD96
330
18
100
AcDbEntity
  8
01
  6
BYBLOCK
100
AcDbLine
 10
2215.96237458365
 20
-524.3527139725196
 30
0.0
 11
2215.96237458365
 21
-615.7527139725197
 31
0.0
  0
LINE
  5
1AD97
330
18
100
AcDbEntity
  8
01
  6
BYBLOCK
100
AcDbLine
 10
2215.862374583651
 20
-634.0527139725199
 30
0.0
 11
2215.862374583651
 21
-617.45271397252
 31
0.0
  0
LINE
  5
1AD98
330
18
100
AcDbEntity
  8
01
  6
BYBLOCK
100
AcDbLine
 10
2215.862374583651
 20
-617.45271397252
 30
0.0
 11
2216.810902721075
 21
-616.5041858350959
 31
0.0
  0
LINE
  5
1AD99
330
18
100
AcDbEntity
  8
01
  6
BYBLOCK
100
AcDbLine
 10
2215.013846446228
 20
-616.7012421099438
 30
0.0
 11
2215.96237458365
 21
-615.7527139725197
 31
0.0
  0
ARC
  5
1AD9A
330
18
100
AcDbEntity
  8
01
  6
BYBLOCK
100
AcDbCircle
 10
2215.862374583651
 20
-617.5497702473675
 30
0.0
 40
1.2
100
AcDbArc
 50
134.9999999999616
 51
180.0
  0
ARC
  5
1AD9B
330
18
100
AcDbEntity
  8
01
  6
BYBLOCK
100
AcDbCircle
 10
2215.96237458365
 20
-615.6556576976722
 30
0.0
 40
1.2
100
AcDbArc
 50
314.9999999999769
 51
0.0
  0
LINE
  5
1AD9C
330
18
100
AcDbEntity
  8
01
  6
BYBLOCK
100
AcDbLine
 10
2214.66237458365
 20
-506.0527139725199
 30
0.0
 11
2214.66237458365
 21
-522.5556576976722
 31
0.0
  0
LINE
  5
1AD9D
330
18
100
AcDbEntity
  8
01
  6
BYBLOCK
100
AcDbLine
 10
2215.862374583651
 20
-506.0527139725199
 30
0.0
 11
2215.862374583651
 21
-522.6527139725198
 31
0.0
  0
LINE
  5
1AD9E
330
18
100
AcDbEntity
  8
01
  6
BYBLOCK
100
AcDbLine
 10
2215.862374583651
 20
-522.6527139725198
 30
0.0
 11
2216.810902721075
 21
-523.6012421099439
 31
0.0
  0
LINE
  5
1AD9F
330
18
100
AcDbEntity
  8
01
  6
BYBLOCK
100
AcDbLine
 10
2215.013846446228
 20
-523.404185835096
 30
0.0
 11
2215.96237458365
 21
-524.3527139725201
 31
0.0
  0
ARC
  5
1ADA0
330
18
100
AcDbEntity
  8
01
  6
BYBLOCK
100
AcDbCircle
 10
2215.862374583651
 20
-522.5556576976722
 30
0.0
 40
1.2
100
AcDbArc
 50
180.0
 51
225.0000000000384
  0
ARC
  5
1ADA1
330
18
100
AcDbEntity
  8
01
  6
BYBLOCK
100
AcDbCircle
 10
2215.96237458365
 20
-524.4497702473676
 30
0.0
 40
1.2
100
AcDbArc
 50
0.0
 51
45.00000000002303
  0
LINE
  5
1ADA2
330
18
100
AcDbEntity
  8
01
  6
BYBLOCK
100
AcDbLine
 10
2225.369481364837
 20
-559.0527139725067
 30
0.0
 11
2218.66237458365
 21
-559.0527139725067
 31
0.0
  0
LINE
  5
1ADA3
330
18
100
AcDbEntity
  8
01
  6
BYBLOCK
100
AcDbLine
 10
2225.369481364837
 20
-579.0527139725067
 30
0.0
 11
2218.66237458365
 21
-579.0527139725067
 31
0.0
  0
LINE
  5
1ADA4
330
18
100
AcDbEntity
  8
01
100
AcDbLine
 10
2223.662374583363
 20
-627.0527139722311
 30
0.0
 11
2209.662374583363
 21
-627.0527139722311
 31
0.0
  0
TEXT
  5
1ADA7
330
18
100
AcDbEntity
  8
1TEXT
100
AcDbText
 10
2149.662274243904
 20
-309.5527139725199
 30
0.0
 40
20.0
  1
1-K6B-X-LJ
100
AcDbText
  0
TEXT
  5
1ADA8
330
18
100
AcDbEntity
  8
1TEXT
100
AcDbText
 10
2161.862274243904
 20
-347.8027139725199
 30
0.0
 40
6.0
  1
表面処理
 72
     1
 11
2175.762274243904
 21
-347.8027139725199
 31
0.0
100
AcDbText
  0
TEXT
  5
1ADA9
330
18
100
AcDbEntity
  8
1TEXT
100
AcDbText
 10
2158.462274243904
 20
-358.0556469618067
 30
0.0
 40
6.0
  1
本金メッキ
 72
     1
 11
2175.762274243904
 21
-358.0556469618067
 31
0.0
100
AcDbText
  0
LINE
  5
1ADAA
330
18
100
AcDbEntity
  8
1DIM
100
AcDbLine
 10
2149.662274243904
 20
-339.5527139725199
 30
0.0
 11
2254.662274243904
 21
-339.5527139725199
 31
0.0
  0
LINE
  5
1ADAB
330
18
100
AcDbEntity
  8
1DIM
100
AcDbLine
 10
2149.662274243904
 20
-350.0527139725199
 30
0.0
 11
2254.662274243904
 21
-350.0527139725199
 31
0.0
  0
LINE
  5
1ADAC
330
18
100
AcDbEntity
  8
1DIM
100
AcDbLine
 10
2149.662274243904
 20
-360.5527139725199
 30
0.0
 11
2254.662274243904
 21
-360.5527139725199
 31
0.0
  0
LINE
  5
1ADAD
330
18
100
AcDbEntity
  8
1DIM
100
AcDbLine
 10
2149.662274243904
 20
-360.5527139725199
 30
0.0
 11
2254.662274243904
 21
-360.5527139725199
 31
0.0
  0
LINE
  5
1ADAE
330
18
100
AcDbEntity
  8
1DIM
100
AcDbLine
 10
2202.162274243904
 20
-339.5527139725199
 30
0.0
 11
2202.162274243904
 21
-360.5527139725199
 31
0.0
  0
TEXT
  5
1ADAF
330
18
100
AcDbEntity
  8
1TEXT
100
AcDbText
 10
2208.633107577238
 20
-358.6242494479937
 30
0.0
 40
6.0
  1
1-K6B-G-LJ
 41
0.6999999999999998
 72
     1
 11
2228.262274243904
 21
-358.6242494479937
 31
0.0
100
AcDbText
  0
TEXT
  5
1ADB0
330
18
100
AcDbEntity
  8
1TEXT
100
AcDbText
 10
2217.962274243904
 20
-347.8027139725199
 30
0.0
 40
6.0
  1
コード
 72
     1
 11
2228.262274243904
 21
-347.8027139725199
 31
0.0
100
AcDbText
  0
LINE
  5
1ADB1
330
18
100
AcDbEntity
  8
1DIM
100
AcDbLine
 10
2254.662274243904
 20
-360.5527139725199
 30
0.0
 11
2254.662274243904
 21
-339.5527139725199
 31
0.0
  0
LINE
  5
1ADB2
330
18
100
AcDbEntity
  8
1DIM
100
AcDbLine
 10
2149.662274243904
 20
-360.5527139725199
 30
0.0
 11
2254.662274243904
 21
-360.5527139725199
 31
0.0
  0
LINE
  5
1ADB3
330
18
100
AcDbEntity
  8
1DIM
100
AcDbLine
 10
2202.162274243904
 20
-360.5527139725199
 30
0.0
 11
2202.162274243904
 21
-371.0527139725199
 31
0.0
  0
LINE
  5
1ADB4
330
18
100
AcDbEntity
  8
1DIM
100
AcDbLine
 10
2149.662274243904
 20
-371.0527139725199
 30
0.0
 11
2254.662274243904
 21
-371.0527139725199
 31
0.0
  0
TEXT
  5
1ADB5
330
18
100
AcDbEntity
  8
1TEXT
100
AcDbText
 10
2150.962274243904
 20
-368.5190843898762
 30
0.0
 40
6.0
  1
サテンニッケル
 72
     1
 11
2175.762274243904
 21
-368.5190843898762
 31
0.0
100
AcDbText
  0
LINE
  5
1ADB6
330
18
100
AcDbEntity
  8
1DIM
100
AcDbLine
 10
2149.662274243904
 20
-371.0527139725199
 30
0.0
 11
2149.662274243904
 21
-360.5527139725199
 31
0.0
  0
LINE
  5
1ADB7
330
18
100
AcDbEntity
  8
1DIM
100
AcDbLine
 10
2254.662274243904
 20
-371.0527139725199
 30
0.0
 11
2254.662274243904
 21
-360.5527139725199
 31
0.0
  0
TEXT
  5
1ADB8
330
18
100
AcDbEntity
  8
1TEXT
100
AcDbText
 10
2208.647690910571
 20
-369.1242494479937
 30
0.0
 40
6.0
  1
1-K6B-N-LJ
 41
0.6999999999999998
 72
     1
 11
2228.262274243904
 21
-369.1242494479937
 31
0.0
100
AcDbText
  0
LINE
  5
1ADB9
330
18
100
AcDbEntity
  8
1DIM
100
AcDbLine
 10
2149.662274243904
 20
-360.5527139725199
 30
0.0
 11
2149.662274243904
 21
-339.5527139725199
 31
0.0
  0
LINE
  5
1ADBA
330
18
100
AcDbEntity
  8
1DIM
100
AcDbLine
 10
2202.162274243904
 20
-371.0527139725199
 30
0.0
 11
2202.162274243904
 21
-381.5527139725199
 31
0.0
  0
LINE
  5
1ADBB
330
18
100
AcDbEntity
  8
1DIM
100
AcDbLine
 10
2149.662274243904
 20
-381.5527139725199
 30
0.0
 11
2254.662274243904
 21
-381.5527139725199
 31
0.0
  0
TEXT
  5
1ADBC
330
18
100
AcDbEntity
  8
1TEXT
100
AcDbText
 10
2151.462274243904
 20
-379.0190843898762
 30
0.0
 40
6.0
  1
ダークアンバー
 72
     1
 11
2175.762274243904
 21
-379.0190843898762
 31
0.0
100
AcDbText
  0
LINE
  5
1ADBD
330
18
100
AcDbEntity
  8
1DIM
100
AcDbLine
 10
2149.662274243904
 20
-381.5527139725199
 30
0.0
 11
2149.662274243904
 21
-371.0527139725199
 31
0.0
  0
LINE
  5
1ADBE
330
18
100
AcDbEntity
  8
1DIM
100
AcDbLine
 10
2254.662274243904
 20
-381.5527139725199
 30
0.0
 11
2254.662274243904
 21
-371.0527139725199
 31
0.0
  0
TEXT
  5
1ADBF
330
18
100
AcDbEntity
  8
1TEXT
100
AcDbText
 10
2206.547690910571
 20
-379.6242494479937
 30
0.0
 40
6.0
  1
1-K6B-4Q-LJ
 41
0.6999999999999998
 72
     1
 11
2228.262274243904
 21
-379.6242494479937
 31
0.0
100
AcDbText
  0
LINE
  5
1ADC0
330
18
100
AcDbEntity
  8
01
100
AcDbLine
 10
2507.662258243902
 20
-336.0527139735485
 30
0.0
 11
2507.662258243902
 21
-362.5527139735485
 31
0.0
  0
LINE
  5
1ADC1
330
18
100
AcDbEntity
  8
01
100
AcDbLine
 10
2482.662258243902
 20
-301.0527139735485
 30
0.0
 11
2532.662258243902
 21
-301.0527139735485
 31
0.0
  0
LINE
  5
1ADC2
330
18
100
AcDbEntity
  8
01
100
AcDbLine
 10
2479.1622582439
 20
-301.0527139735485
 30
0.0
 11
2479.1622582439
 21
-297.5202203815178
 31
0.0
  0
ARC
  5
1ADC3
330
18
100
AcDbEntity
  8
01
100
AcDbCircle
 10
2479.6622582439
 20
-297.5202203815178
 30
0.0
 40
0.5
100
AcDbArc
 50
123.7052957882349
 51
180.0
  0
LINE
  5
1ADC4
330
18
100
AcDbEntity
  8
01
100
AcDbLine
 10
2482.881361307708
 20
-293.1193673183924
 30
0.0
 11
2482.676680451247
 21
-294.062953102214
 31
0.0
  0
LINE
  5
1ADC5
330
18
100
AcDbEntity
  8
01
100
AcDbLine
 10
2536.162258243904
 20
-301.0527139735485
 30
0.0
 11
2536.162258243904
 21
-297.5105103228397
 31
0.0
  0
LINE
  5
1ADC6
330
18
100
AcDbEntity
  8
01
100
AcDbLine
 10
2517.162258243897
 20
-292.2527139735465
 30
0.0
 11
2498.162258243908
 21
-292.252713973552
 31
0.0
  0
LINE
  5
1ADC7
330
18
100
AcDbEntity
  8
01
100
AcDbLine
 10
2481.62080311688
 20
-295.612740032855
 30
0.0
 11
2479.384797583042
 21
-297.1042689640707
 31
0.0
  0
ARC
  5
1ADC8
330
18
100
AcDbEntity
  8
01
100
AcDbCircle
 10
2480.233499812587
 20
-293.5329829456213
 30
0.0
 40
2.5
100
AcDbArc
 50
303.7052957883288
 51
347.7611167116993
  0
ARC
  5
1ADC9
330
18
100
AcDbEntity
  8
01
100
AcDbCircle
 10
2535.662258243904
 20
-297.5105103228397
 30
0.0
 40
0.5
100
AcDbArc
 50
0.0
 51
56.42001654814729
  0
ARC
  5
1ADCA
330
18
100
AcDbEntity
  8
01
100
AcDbCircle
 10
2497.13289479029
 20
-492.2500649832053
 30
0.0
 40
200.0
100
AcDbArc
 50
89.70510779068368
 51
93.95580329935652
  0
ARC
  5
1ADCB
330
18
100
AcDbEntity
  8
01
100
AcDbCircle
 10
2483.369997435439
 20
-293.2253613497113
 30
0.0
 40
0.5
100
AcDbArc
 50
93.95580329935652
 51
167.7611167116519
  0
ARC
  5
1ADCC
330
18
100
AcDbEntity
  8
01
100
AcDbCircle
 10
2518.191621697518
 20
-492.2500649832053
 30
0.0
 40
200.0
100
AcDbArc
 50
86.0441967006435
 51
90.29489220936843
  0
LINE
  5
1ADCD
330
18
100
AcDbEntity
  8
01
100
AcDbLine
 10
2479.239836272768
 20
-297.2527139735492
 30
0.0
 11
2536.090675146338
 21
-297.2527139735492
 31
0.0
  0
LINE
  5
1ADCE
330
18
100
AcDbEntity
  8
01
100
AcDbLine
 10
2482.21951778218
 20
-295.0514468485343
 30
0.0
 11
2533.088404538897
 21
-295.0514468485343
 31
0.0
  0
LINE
  5
1ADCF
330
18
100
AcDbEntity
  8
01
100
AcDbLine
 10
2483.206888705426
 20
-292.7527139735492
 30
0.0
 11
2532.117627782382
 21
-292.7527139735492
 31
0.0
  0
ARC
  5
1ADD0
330
18
100
AcDbEntity
  8
01
100
AcDbCircle
 10
2531.954527235447
 20
-293.2253613497113
 30
0.0
 40
0.5
100
AcDbArc
 50
12.2388832882925
 51
86.04419670064347
  0
LINE
  5
1ADD1
330
18
100
AcDbEntity
  8
01
100
AcDbLine
 10
2533.703721554009
 20
-295.612740032855
 30
0.0
 11
2535.939727087846
 21
-297.1042689640707
 31
0.0
  0
ARC
  5
1ADD2
330
18
100
AcDbEntity
  8
01
100
AcDbCircle
 10
2535.091024858301
 20
-293.5329829456213
 30
0.0
 40
2.5
100
AcDbArc
 50
192.2388832883029
 51
236.2947042116798
  0
LINE
  5
1ADD3
330
18
100
AcDbEntity
  8
01
100
AcDbLine
 10
2532.44316336318
 20
-293.1193673183924
 30
0.0
 11
2532.647844219641
 21
-294.062953102214
 31
0.0
  0
LINE
  5
1ADD4
330
18
100
AcDbEntity
  8
01
100
AcDbLine
 10
2479.1622582439
 20
-301.0527139735485
 30
0.0
 11
2536.162258243904
 21
-301.0527139735485
 31
0.0
  0
LINE
  5
1ADD5
330
18
100
AcDbEntity
  8
01
100
AcDbLine
 10
2317.662374583647
 20
-562.552713972519
 30
0.0
 11
2314.129880991616
 21
-562.552713972519
 31
0.0
  0
ARC
  5
1ADD6
330
18
100
AcDbEntity
  8
01
100
AcDbCircle
 10
2314.129880991616
 20
-563.052713972519
 30
0.0
 40
0.5
100
AcDbArc
 50
90.0
 51
146.2947042116567
  0
LINE
  5
1ADD7
330
18
100
AcDbEntity
  8
01
100
AcDbLine
 10
2309.729027928491
 20
-566.2718170363263
 30
0.0
 11
2310.672613712312
 21
-566.0671361798644
 31
0.0
  0
LINE
  5
1ADD8
330
18
100
AcDbEntity
  8
01
100
AcDbLine
 10
2317.662374583647
 20
-619.5527139725217
 30
0.0
 11
2314.120170932937
 21
-619.5527139725212
 31
0.0
  0
LINE
  5
1ADD9
330
18
100
AcDbEntity
  8
01
100
AcDbLine
 10
2308.862374583644
 20
-600.5527139725149
 30
0.0
 11
2308.862374583651
 21
-581.5527139725253
 31
0.0
  0
LINE
  5
1ADDA
330
18
100
AcDbEntity
  8
01
100
AcDbLine
 10
2312.222400642952
 20
-565.011258845498
 30
0.0
 11
2313.713929574168
 21
-562.7752533116603
 31
0.0
  0
ARC
  5
1ADDB
330
18
100
AcDbEntity
  8
01
100
AcDbCircle
 10
2310.14264355572
 20
-563.6239555412052
 30
0.0
 40
2.5
100
AcDbArc
 50
282.2388832883162
 51
326.2947042117029
  0
ARC
  5
1ADDC
330
18
100
AcDbEntity
  8
01
100
AcDbCircle
 10
2314.120170932937
 20
-619.0527139725212
 30
0.0
 40
0.5
100
AcDbArc
 50
213.5799834519899
 51
270.0
  0
ARC
  5
1ADDD
330
18
100
AcDbEntity
  8
01
100
AcDbCircle
 10
2508.859725593303
 20
-580.5233505189075
 30
0.0
 40
200.0
100
AcDbArc
 50
176.0441967006682
 51
180.2948922093163
  0
ARC
  5
1ADDE
330
18
100
AcDbEntity
  8
01
100
AcDbCircle
 10
2309.83502195981
 20
-566.760453164058
 30
0.0
 40
0.5
100
AcDbArc
 50
102.2388832883581
 51
176.0441967006941
  0
ARC
  5
1ADDF
330
18
100
AcDbEntity
  8
01
100
AcDbCircle
 10
2508.859725593303
 20
-601.5820774261368
 30
0.0
 40
200.0
100
AcDbArc
 50
179.7051077906578
 51
183.9558032993319
  0
LINE
  5
1ADE0
330
18
100
AcDbEntity
  8
01
100
AcDbLine
 10
2313.862374583648
 20
-562.6302920013862
 30
0.0
 11
2313.862374583648
 21
-619.4811308749571
 31
0.0
  0
LINE
  5
1ADE1
330
18
100
AcDbEntity
  8
01
100
AcDbLine
 10
2311.661107458632
 20
-565.609973510799
 30
0.0
 11
2311.661107458632
 21
-616.4788602675152
 31
0.0
  0
LINE
  5
1ADE2
330
18
100
AcDbEntity
  8
01
100
AcDbLine
 10
2309.362374583648
 20
-566.5973444340447
 30
0.0
 11
2309.362374583648
 21
-615.5080835110001
 31
0.0
  0
ARC
  5
1ADE3
330
18
100
AcDbEntity
  8
01
100
AcDbCircle
 10
2309.83502195981
 20
-615.3449829640662
 30
0.0
 40
0.5
100
AcDbArc
 50
183.9558032993579
 51
257.7611167116419
  0
LINE
  5
1ADE4
330
18
100
AcDbEntity
  8
01
100
AcDbLine
 10
2312.222400642952
 20
-617.0941772826267
 30
0.0
 11
2313.713929574168
 21
-619.3301828164639
 31
0.0
  0
ARC
  5
1ADE5
330
18
100
AcDbEntity
  8
01
100
AcDbCircle
 10
2310.14264355572
 20
-618.4814805869195
 30
0.0
 40
2.5
100
AcDbArc
 50
33.70529578829706
 51
77.76111671168377
  0
LINE
  5
1ADE6
330
18
100
AcDbEntity
  8
01
100
AcDbLine
 10
2309.729027928491
 20
-615.8336190917979
 30
0.0
 11
2310.672613712312
 21
-616.0382999482598
 31
0.0
  0
LINE
  5
1ADE7
330
18
100
AcDbEntity
  8
01
100
AcDbLine
 10
2317.662374583647
 20
-562.552713972519
 30
0.0
 11
2317.662374583647
 21
-619.5527139725217
 31
0.0
  0
LINE
  5
1ADE8
330
18
100
AcDbEntity
  8
01
  6
BYBLOCK
100
AcDbLine
 10
2459.362141904158
 20
-607.0527139725203
 30
0.0
 11
2484.077189074017
 21
-607.0527139725199
 31
0.0
  0
LINE
  5
1ADE9
330
18
100
AcDbEntity
  8
01
  6
BYBLOCK
100
AcDbLine
 10
2525.662141904159
 20
-549.0540429522879
 30
0.0
 11
2525.662141904159
 21
-568.9563341785546
 31
0.0
  0
LINE
  5
1ADEA
330
18
100
AcDbEntity
  8
01
  6
BYBLOCK
100
AcDbLine
 10
2459.362141904158
 20
-533.0527139725199
 30
0.0
 11
2485.3016175604
 21
-533.0527139725199
 31
0.0
  0
CIRCLE
  5
1ADEB
330
18
100
AcDbEntity
  8
01
  6
BYBLOCK
100
AcDbCircle
 10
2167.662374583649
 20
-541.0527139725199
 30
0.0
 40
4.75
  0
LINE
  5
1ADEC
330
18
100
AcDbEntity
  8
01
  6
BYBLOCK
100
AcDbLine
 10
2171.268619167701
 20
-541.0527139725199
 30
0.0
 11
2167.662374583649
 21
-537.4464693884687
 31
0.0
  0
LINE
  5
1ADED
330
18
100
AcDbEntity
  8
01
  6
BYBLOCK
100
AcDbLine
 10
2164.056129999596
 20
-541.0527139725199
 30
0.0
 11
2167.662374583649
 21
-537.4464693884687
 31
0.0
  0
LINE
  5
1ADEE
330
18
100
AcDbEntity
  8
01
  6
BYBLOCK
100
AcDbLine
 10
2171.268619167701
 20
-541.0527139725199
 30
0.0
 11
2167.662374583649
 21
-544.6589585565711
 31
0.0
  0
LINE
  5
1ADEF
330
18
100
AcDbEntity
  8
01
  6
BYBLOCK
100
AcDbLine
 10
2164.056129999596
 20
-541.0527139725199
 30
0.0
 11
2167.662374583649
 21
-544.6589585565711
 31
0.0
  0
ARC
  5
1ADF0
330
18
100
AcDbEntity
  8
01
  6
BYBLOCK
100
AcDbCircle
 10
2150.662374583649
 20
-534.0527139725199
 30
0.0
 40
1.0
100
AcDbArc
 50
90.0
 51
180.0
  0
LINE
  5
1ADF1
330
18
100
AcDbEntity
  8
01
  6
BYBLOCK
100
AcDbLine
 10
2190.022898927408
 20
-533.0527139725199
 30
0.0
 11
2150.662374583649
 21
-533.0527139725199
 31
0.0
  0
LINE
  5
1ADF2
330
18
100
AcDbEntity
  8
01
  6
BYBLOCK
100
AcDbLine
 10
2149.662374583649
 20
-534.0527139725199
 30
0.0
 11
2149.662374583649
 21
-549.0540429522879
 31
0.0
  0
LINE
  5
1ADF3
330
18
100
AcDbEntity
  8
01
  6
BYBLOCK
100
AcDbLine
 10
2215.96237458365
 20
-607.0527139725203
 30
0.0
 11
2191.247327413791
 21
-607.0527139725199
 31
0.0
  0
LINE
  5
1ADF4
330
18
100
AcDbEntity
  8
01
  6
BYBLOCK
100
AcDbLine
 10
2149.662374583649
 20
-549.0540429522879
 30
0.0
 11
2149.662374583649
 21
-568.9563341785546
 31
0.0
  0
LINE
  5
1ADF5
330
18
100
AcDbEntity
  8
01
  6
BYBLOCK
100
AcDbLine
 10
2215.96237458365
 20
-533.0527139725199
 30
0.0
 11
2190.022898927408
 21
-533.0527139725199
 31
0.0
  0
LINE
  5
1ADF7
330
18
100
AcDbEntity
  8
01
100
AcDbLine
 10
2355.533856521729
 20
-591.0527139725199
 30
0.0
 11
2378.162141904159
 21
-591.0527139725199
 31
0.0
  0
LINE
  5
1ADF8
330
18
100
AcDbEntity
  8
01
100
AcDbLine
 10
2482.662258243902
 20
-341.0527139735485
 30
0.0
 11
2532.662258243902
 21
-341.0527139735485
 31
0.0
  0
LINE
  5
1ADF9
330
18
100
AcDbEntity
  8
01
  6
BYBLOCK
100
AcDbLine
 10
2456.663026086219
 20
-341.0527139735485
 30
0.0
 11
2610.41740624125
 21
-341.0527139735485
 31
0.0
  0
LINE
  5
1ADFA
330
18
100
AcDbEntity
  8
01
100
AcDbLine
 10
2507.662258243902
 20
-336.0527139735485
 30
0.0
 11
2507.662258243902
 21
-362.5527139735485
 31
0.0
  0
LINE
  5
1AE00
330
18
100
AcDbEntity
  8
1CENTER
100
AcDbLine
 10
2372.162141904159
 20
-606.0527139725199
 30
0.0
 11
2372.162141904159
 21
-598.0527139725199
 31
0.0
  0
LINE
  5
1AE01
330
18
100
AcDbEntity
  8
01
100
AcDbLine
 10
2477.662141904159
 20
-591.0527139725199
 30
0.0
 11
2537.662141904159
 21
-591.0527139725199
 31
0.0
  0
LINE
  5
1AE02
330
18
100
AcDbEntity
  8
01
100
AcDbLine
 10
2507.662141904159
 20
-561.0527139725199
 30
0.0
 11
2507.662141904159
 21
-621.0527139725199
 31
0.0
  0
LINE
  5
1AE03
330
18
100
AcDbEntity
  8
01
100
AcDbLine
 10
2479.1622582439
 20
-341.0527139735485
 30
0.0
 11
2479.1622582439
 21
-344.5852075655797
 31
0.0
  0
ARC
  5
1AE04
330
18
100
AcDbEntity
  8
01
100
AcDbCircle
 10
2479.6622582439
 20
-344.5852075655797
 30
0.0
 40
0.5
100
AcDbArc
 50
180.0
 51
236.2947042117687
  0
LINE
  5
1AE05
330
18
100
AcDbEntity
  8
01
100
AcDbLine
 10
2482.881361307708
 20
-348.9860606287046
 30
0.0
 11
2482.676680451245
 21
-348.042474844883
 31
0.0
  0
LINE
  5
1AE06
330
18
100
AcDbEntity
  8
01
100
AcDbLine
 10
2536.162258243904
 20
-341.0527139735485
 30
0.0
 11
2536.162258243902
 21
-344.5949176242578
 31
0.0
  0
LINE
  5
1AE07
330
18
100
AcDbEntity
  8
01
100
AcDbLine
 10
2517.162258243897
 20
-349.8527139735505
 30
0.0
 11
2498.162258243908
 21
-349.8527139735451
 31
0.0
  0
LINE
  5
1AE08
330
18
100
AcDbEntity
  8
01
100
AcDbLine
 10
2481.62080311688
 20
-346.4926879142425
 30
0.0
 11
2479.384797583042
 21
-345.0011589830264
 31
0.0
  0
ARC
  5
1AE09
330
18
100
AcDbEntity
  8
01
100
AcDbCircle
 10
2480.233499812587
 20
-348.5724450014762
 30
0.0
 40
2.5
100
AcDbArc
 50
12.23888328831313
 51
56.29470421171089
  0
ARC
  5
1AE0A
330
18
100
AcDbEntity
  8
01
100
AcDbCircle
 10
2535.662258243902
 20
-344.5949176242578
 30
0.0
 40
0.5
100
AcDbArc
 50
303.5799834520478
 51
0.0
  0
ARC
  5
1AE0B
330
18
100
AcDbEntity
  8
01
100
AcDbCircle
 10
2497.132894790288
 20
-149.8553629638919
 30
0.0
 40
200.0
100
AcDbArc
 50
266.0441967006435
 51
270.2948922093163
  0
ARC
  5
1AE0C
330
18
100
AcDbEntity
  8
01
100
AcDbCircle
 10
2483.369997435439
 20
-348.8800665973857
 30
0.0
 40
0.5
100
AcDbArc
 50
192.2388832883736
 51
266.0441967006435
  0
ARC
  5
1AE0D
330
18
100
AcDbEntity
  8
01
100
AcDbCircle
 10
2518.19162169752
 20
-149.8553629638919
 30
0.0
 40
200.0
100
AcDbArc
 50
269.7051077906311
 51
273.9558032993565
  0
LINE
  5
1AE0E
330
18
100
AcDbEntity
  8
01
100
AcDbLine
 10
2479.239836272768
 20
-344.8527139735482
 30
0.0
 11
2536.090675146338
 21
-344.8527139735482
 31
0.0
  0
LINE
  5
1AE0F
330
18
100
AcDbEntity
  8
01
100
AcDbLine
 10
2482.21951778218
 20
-347.0539810985632
 30
0.0
 11
2533.088404538897
 21
-347.0539810985632
 31
0.0
  0
LINE
  5
1AE10
330
18
100
AcDbEntity
  8
01
100
AcDbLine
 10
2483.206888705426
 20
-349.3527139735482
 30
0.0
 11
2532.117627782382
 21
-349.3527139735482
 31
0.0
  0
ARC
  5
1AE11
330
18
100
AcDbEntity
  8
01
100
AcDbCircle
 10
2531.954527235449
 20
-348.8800665973857
 30
0.0
 40
0.5
100
AcDbArc
 50
273.9558032993565
 51
347.7611167116375
  0
LINE
  5
1AE12
330
18
100
AcDbEntity
  8
01
100
AcDbLine
 10
2533.703721554009
 20
-346.4926879142425
 30
0.0
 11
2535.939727087846
 21
-345.0011589830264
 31
0.0
  0
ARC
  5
1AE13
330
18
100
AcDbEntity
  8
01
100
AcDbCircle
 10
2535.091024858301
 20
-348.5724450014762
 30
0.0
 40
2.5
100
AcDbArc
 50
123.7052957882804
 51
167.7611167116847
  0
LINE
  5
1AE14
330
18
100
AcDbEntity
  8
01
100
AcDbLine
 10
2532.44316336318
 20
-348.9860606287046
 30
0.0
 11
2532.647844219641
 21
-348.042474844883
 31
0.0
  0
LINE
  5
1AE15
330
18
100
AcDbEntity
  8
01
100
AcDbLine
 10
2479.1622582439
 20
-341.0527139735485
 30
0.0
 11
2536.162258243904
 21
-341.0527139735485
 31
0.0
  0
ARC
  5
1AE16
330
18
100
AcDbEntity
  8
01
100
AcDbCircle
 10
2507.662141904138
 20
-591.0527139725067
 30
0.0
 40
28.49999999998931
100
AcDbArc
 50
16.63503848829194
 51
352.7390661655424
  0
ARC
  5
1AE17
330
18
100
AcDbEntity
  8
01
100
AcDbCircle
 10
2507.662141904159
 20
-591.0527139725199
 30
0.0
 40
24.70000000000277
100
AcDbArc
 50
18.55880605564704
 51
348.4056852360345
  0
ARC
  5
1AE18
330
18
100
AcDbEntity
  8
01
100
AcDbCircle
 10
2507.662141904159
 20
-591.0527139725199
 30
0.0
 40
25.20000000001778
100
AcDbArc
 50
18.15071937410989
 51
349.080572928274
  0
SPLINE
  5
1AE19
330
18
100
AcDbEntity
  8
01
100
AcDbSpline
210
0.0
220
0.0
230
1.0
 70
    12
 71
     2
 72
     6
 73
     3
 74
     0
 42
0.0000000001
 43
0.0000000001
 40
0.0
 40
0.0
 40
0.0
 40
0.0013395827079208
 40
0.0013395827079208
 40
0.0013395827079208
 10
2495.646936350992
 20
-380.5459587976351
 30
0.0
 41
1.0
 10
2495.646266616622
 20
-380.5459486885887
 30
0.0
 41
0.9999567668452998
 10
2495.645596810075
 20
-380.5459510359705
 30
0.0
 41
1.0
  0
SPLINE
  5
1AE1A
330
18
100
AcDbEntity
  8
01
100
AcDbSpline
210
0.0
220
0.0
230
1.0
 70
    12
 71
     3
 72
    10
 73
     6
 74
     0
 42
0.0000000001
 43
0.0000000001
 40
-1.813485387651938
 40
-1.813485387651938
 40
-1.813485387651938
 40
-1.813485387651938
 40
-0.9067426938259688
 40
-0.9067426938259688
 40
-0.5464298820974417
 40
-0.5464298820974417
 40
-0.5464298820974417
 40
-0.5464298820974417
 10
2495.645596810075
 20
-380.5459510359705
 30
0.0
 41
1.0
 10
2495.607366237687
 20
-380.5526913776538
 30
0.0
 41
1.0
 10
2495.582773641573
 20
-380.5560735397079
 30
0.0
 41
1.0
 10
2495.56759104466
 20
-380.556087134244
 30
0.0
 41
1.0
 10
2495.565441142398
 20
-380.5555585623464
 30
0.0
 41
1.0
 10
2495.565457801583
 20
-380.5544982563805
 30
0.0
 41
1.0
  0
SPLINE
  5
1AE1B
330
18
100
AcDbEntity
  8
01
100
AcDbSpline
210
0.0
220
0.0
230
1.0
 70
    12
 71
     2
 72
     6
 73
     3
 74
     0
 42
0.0000000001
 43
0.0000000001
 40
0.0
 40
0.0
 40
0.0
 40
0.8393070270468792
 40
0.8393070270468792
 40
0.8393070270468792
 10
2512.205504278488
 20
-380.0526607603837
 30
0.0
 41
1.0
 10
2511.785850764835
 20
-380.0526441778683
 30
0.0
 41
0.999999998364316
 10
2511.366197252029
 20
-380.0526756002527
 30
0.0
 41
1.0
  0
SPLINE
  5
1AE1C
330
18
100
AcDbEntity
  8
01
100
AcDbSpline
210
0.0
220
0.0
230
1.0
 70
    28
 71
     2
 72
     6
 73
     3
 74
     0
 42
0.0000000001
 43
0.0000000001
 40
0.0
 40
0.0
 40
0.0
 40
0.0103935807839264
 40
0.0103935807839264
 40
0.0103935807839264
 10
2515.483405711578
 20
-378.5547513956593
 30
0.0
 41
1.0
 10
2515.478208921185
 20
-378.5547513956602
 30
0.0
 41
1.0
 10
2515.473012130792
 20
-378.5547513956611
 30
0.0
 41
1.0
  0
SPLINE
  5
1AE1D
330
18
100
AcDbEntity
  8
01
100
AcDbSpline
210
0.0
220
0.0
230
1.0
 70
    24
 71
     2
 72
     6
 73
     3
 74
     0
 42
0.0000000001
 43
0.0000000001
 40
0.0
 40
0.0
 40
0.0
 40
0.0065067653709345
 40
0.0065067653709345
 40
0.0065067653709345
 10
2496.053781295909
 20
-399.341228672129
 30
0.0
 10
2496.056438699417
 20
-399.343105559309
 30
0.0
 10
2496.059096102927
 20
-399.34498244649
 30
0.0
  0
SPLINE
  5
1AE1E
330
18
100
AcDbEntity
  8
01
100
AcDbSpline
210
0.0
220
0.0
230
1.0
 70
    12
 71
     2
 72
     6
 73
     3
 74
     0
 42
0.0000000001
 43
0.0000000001
 40
0.0
 40
0.0
 40
0.0
 40
1.397383692346342
 40
1.397383692346342
 40
1.397383692346342
 10
2500.538324183109
 20
-380.0523760944856
 30
0.0
 41
1.0
 10
2501.237015996875
 20
-380.0525937235351
 30
0.0
 41
0.9999999968067866
 10
2501.935707836502
 20
-380.0526996805032
 30
0.0
 41
1.0
  0
ARC
  5
1AE1F
330
18
100
AcDbEntity
  8
01
100
AcDbCircle
 10
2615.459891590465
 20
-380.7373596033511
 30
0.0
 40
99.99998213032752
100
AcDbArc
 50
163.3308644494413
 51
178.7493580827824
  0
ARC
  5
1AE20
330
18
100
AcDbEntity
  8
01
100
AcDbCircle
 10
2399.849323004212
 20
-380.7386932142398
 30
0.0
 40
100.0152929694723
100
AcDbArc
 50
1.251207414916996
 51
16.66742605628772
  0
ARC
  5
1AE21
330
18
100
AcDbEntity
  8
01
100
AcDbCircle
 10
2517.982631835816
 20
-378.5492109770051
 30
0.0
 40
2.498892888404389
100
AcDbArc
 50
180.1270334960553
 51
237.6266239016039
  0
ARC
  5
1AE22
330
18
100
AcDbEntity
  8
01
100
AcDbCircle
 10
2498.341263767446
 20
-378.5876328563153
 30
0.0
 40
1.499865471824866
100
AcDbArc
 50
282.5177558499725
 51
1.255713268887913
  0
LINE
  5
1AE23
330
18
100
AcDbEntity
  8
01
100
AcDbLine
 10
2495.662252541418
 20
-350.0527139735485
 30
0.0
 11
2519.662546279725
 21
-350.0527139735485
 31
0.0
  0
LINE
  5
1AE24
330
18
100
AcDbEntity
  8
01
100
AcDbLine
 10
2495.678048916551
 20
-352.0526308578427
 30
0.0
 11
2519.698814432712
 21
-352.0525819988678
 31
0.0
  0
ARC
  5
1AE25
330
18
100
AcDbEntity
  8
01
100
AcDbCircle
 10
2519.656776002451
 20
-351.052927539084
 30
0.0
 40
1.000230209892093
100
AcDbArc
 50
269.3942691040958
 51
89.98686230959994
  0
ARC
  5
1AE26
330
18
100
AcDbEntity
  8
01
100
AcDbCircle
 10
2495.667510275463
 20
-351.0526612302014
 30
0.0
 40
1.0
100
AcDbArc
 50
89.51301208646323
 51
270.5587286473519
  0
LINE
  5
1AE27
330
18
100
AcDbEntity
  8
01
100
AcDbLine
 10
2512.205504278442
 20
-380.0526607603837
 30
0.0
 11
2496.142482531227
 21
-380.0526607603837
 31
0.0
  0
LINE
  5
1AE28
330
18
100
AcDbEntity
  8
01
100
AcDbLine
 10
2495.565469719812
 20
-380.554371281696
 30
0.0
 11
2495.329142629676
 21
-380.491047628744
 31
0.0
  0
ARC
  5
1AE29
330
18
100
AcDbEntity
  8
01
100
AcDbCircle
 10
2496.159472389029
 20
-380.6550039769676
 30
0.0
 40
0.6024648237837208
100
AcDbArc
 50
91.61598848657182
 51
170.4450890594237
  0
LINE
  5
1AE2A
330
18
100
AcDbEntity
  8
01
100
AcDbLine
 10
2495.565457801583
 20
-380.5543712816965
 30
0.0
 11
2493.720639041046
 21
-391.7572487451138
 31
0.0
  0
LINE
  5
1AE2B
330
18
100
AcDbEntity
  8
01
100
AcDbLine
 10
2493.753089832638
 20
-392.3421262786873
 30
0.0
 11
2495.509789275183
 21
-398.571511473236
 31
0.0
  0
LINE
  5
1AE2C
330
18
100
AcDbEntity
  8
01
100
AcDbLine
 10
2493.692605270638
 20
-392.0467599110606
 30
0.0
 11
2630.331516140009
 21
-392.0467599110606
 31
0.0
  0
ARC
  5
1AE2D
330
18
100
AcDbEntity
  8
01
100
AcDbCircle
 10
2494.687232452849
 20
-391.9969581922518
 30
0.0
 40
0.9958732061823392
100
AcDbArc
 50
166.0719774183201
 51
200.2794002486662
  0
ARC
  5
1AE2E
330
18
100
AcDbEntity
  8
01
100
AcDbCircle
 10
2496.944712055844
 20
-398.1344800530213
 30
0.0
 40
1.499999949571897
100
AcDbArc
 50
196.9390527900465
 51
233.5619089753464
  0
ARC
  5
1AE2F
330
18
100
AcDbEntity
  8
01
100
AcDbCircle
 10
2541.732448856249
 20
-286.324149850468
 30
0.0
 40
98.27151549253304
100
AcDbArc
 50
261.2304273430784
 51
271.0737425158548
  0
ARC
  5
1AE30
330
18
100
AcDbEntity
  8
01
100
AcDbCircle
 10
2610.80441275684
 20
-433.2976832342969
 30
0.0
 40
52.44772918761024
100
AcDbArc
 50
81.29577016520045
 51
94.3281631751819
  0
ARC
  5
1AE31
330
18
100
AcDbEntity
  8
01
100
AcDbCircle
 10
2533.485593075126
 20
-73.78582540587661
 30
0.0
 40
310.9562764169622
100
AcDbArc
 50
271.8591797321026
 51
273.8049460953969
  0
ARC
  5
1AE32
330
18
100
AcDbEntity
  8
01
100
AcDbCircle
 10
-16395.94755860656
 20
326897.4727525479
 30
0.0
 40
327829.6883896326
100
AcDbArc
 50
273.3138075480736
 51
273.3230380330241
  0
ARC
  5
1AE33
330
18
100
AcDbEntity
  8
01
100
AcDbCircle
 10
2451.604821756254
 20
-864.5328379217825
 30
0.0
 40
486.9194335513303
100
AcDbArc
 50
81.12220518342282
 51
83.3085059008482
  0
ARC
  5
1AE34
330
18
100
AcDbEntity
  8
01
100
AcDbCircle
 10
2498.343315171814
 20
-503.6540097765613
 30
0.0
 40
123.1303513140988
100
AcDbArc
 50
85.34209157602974
 51
91.29276243720886
  0
ARC
  5
1AE35
330
18
100
AcDbEntity
  8
01
100
AcDbCircle
 10
2546.118846536884
 20
-151.9284521360479
 30
0.0
 40
230.6312410399213
100
AcDbArc
 50
261.5442383457327
 51
267.3987478687323
  0
ARC
  5
1AE36
330
18
100
AcDbEntity
  8
01
100
AcDbCircle
 10
2539.699820270632
 20
-173.4287175709586
 30
0.0
 40
208.9325487046367
100
AcDbArc
 50
268.889807572278
 51
273.9577886226641
  0
ARC
  5
1AE37
330
18
100
AcDbEntity
  8
01
100
AcDbCircle
 10
21249.22874055091
 20
-225351.4080007273
 30
0.0
 40
225744.9960571131
100
AcDbArc
 50
94.73548170678482
 51
94.75039974923742
  0
ARC
  5
1AE38
330
18
100
AcDbEntity
  8
01
100
AcDbCircle
 10
2614.003101720692
 20
-381.7054584823417
 30
0.0
 40
4.727838001509311
100
AcDbArc
 50
70.4703080969969
 51
89.81899388427891
  0
ARC
  5
1AE39
330
18
100
AcDbEntity
  8
01
100
AcDbCircle
 10
2613.894768642293
 20
-405.0126623402747
 30
0.0
 40
28.03528927048084
100
AcDbArc
 50
89.74807404223523
 51
92.44989210311755
  0
LINE
  5
1AE3A
330
18
100
AcDbEntity
  8
01
100
AcDbLine
 10
2626.022554997505
 20
-382.2772831934116
 30
0.0
 11
2618.741526651092
 21
-381.4540093678878
 31
0.0
  0
LINE
  5
1AE3B
330
18
100
AcDbEntity
  8
01
100
AcDbLine
 10
2502.711148770531
 20
-404.052785783318
 30
0.0
 11
2496.059096102927
 21
-399.34498244649
 31
0.0
  0
LINE
  5
1AE3C
330
18
100
AcDbEntity
  8
01
100
AcDbLine
 10
2508.34227791863
 20
-399.3308552708944
 30
0.0
 11
2496.053781295906
 21
-399.3412286721267
 31
0.0
  0
ARC
  5
1AE3D
330
18
100
AcDbEntity
  8
01
100
AcDbCircle
 10
2511.559901060172
 20
69.11505850063315
 30
0.0
 40
468.4569641150861
100
AcDbArc
 50
269.6064576048595
 51
271.8581727194107
  0
ARC
  5
1AE3E
330
18
100
AcDbEntity
  8
01
100
AcDbCircle
 10
2534.581748495916
 20
-563.2598789012571
 30
0.0
 40
164.3510231640577
100
AcDbArc
 50
86.32809763129363
 51
92.73136927505918
  0
ARC
  5
1AE3F
330
18
100
AcDbEntity
  8
01
100
AcDbCircle
 10
3464.879537305326
 20
14927.25678653126
 30
0.0
 40
15354.07685890451
100
AcDbArc
 50
266.5656913775657
 51
266.7690675911474
  0
ARC
  5
1AE40
330
18
100
AcDbEntity
  8
01
100
AcDbCircle
 10
2611.070011183951
 20
-254.814080642317
 30
0.0
 40
148.0519665957841
100
AcDbArc
 50
265.5239433060221
 51
270.6837716932069
  0
ARC
  5
1AE41
330
18
100
AcDbEntity
  8
01
100
AcDbCircle
 10
2610.027944215611
 20
-346.6917845975653
 30
0.0
 40
56.23391568607433
100
AcDbArc
 50
272.863118756748
 51
280.0617023664424
  0
ARC
  5
1AE42
330
18
100
AcDbEntity
  8
01
100
AcDbCircle
 10
2798.515852781219
 20
-1286.857543878051
 30
0.0
 40
902.654870786004
100
AcDbArc
 50
101.0164170783736
 51
101.4159940810514
  0
LINE
  5
1AE43
330
18
100
AcDbEntity
  8
01
100
AcDbLine
 10
2615.583595797879
 20
-377.2496206665663
 30
0.0
 11
2626.029862525594
 21
-382.2808361256974
 31
0.0
  0
LINE
  5
1AE44
330
18
100
AcDbEntity
  8
01
100
AcDbLine
 10
2626.674414428207
 20
-382.9610655364453
 30
0.0
 11
2630.341739494831
 21
-391.7930403517684
 31
0.0
  0
ARC
  5
1AE45
330
18
100
AcDbEntity
  8
01
100
AcDbCircle
 10
2625.462298515568
 20
-383.4640462730762
 30
0.0
 40
1.312331744296452
100
AcDbArc
 50
22.53653996581936
 51
64.72794831687136
  0
LINE
  5
1AE46
330
18
100
AcDbEntity
  8
01
100
AcDbLine
 10
2630.331516140009
 20
-392.3082941409315
 30
0.0
 11
2626.693221497583
 21
-400.1630944370016
 31
0.0
  0
LINE
  5
1AE47
330
18
100
AcDbEntity
  8
01
100
AcDbLine
 10
2630.396346983788
 20
-392.0467599110606
 30
0.0
 11
2493.692605270638
 21
-392.0467599110606
 31
0.0
  0
ARC
  5
1AE48
330
18
100
AcDbEntity
  8
01
100
AcDbCircle
 10
2629.810015029677
 20
-392.040218513131
 30
0.0
 40
0.5863684424474561
100
AcDbArc
 50
332.794745374237
 51
24.9318963414572
  0
ARC
  5
1AE49
330
18
100
AcDbEntity
  8
01
100
AcDbCircle
 10
2625.564821686382
 20
-399.7137825925105
 30
0.0
 40
1.214613938904644
100
AcDbArc
 50
292.1390083874277
 51
338.3303838825458
  0
LINE
  5
1AE4A
330
18
100
AcDbEntity
  8
01
100
AcDbLine
 10
2615.608157101663
 20
-405.8549835116559
 30
0.0
 11
2626.022554997505
 21
-400.8388458069434
 31
0.0
  0
ARC
  5
1AE4B
330
18
100
AcDbEntity
  8
01
100
AcDbCircle
 10
2613.518191391958
 20
-399.054432222459
 30
0.0
 40
7.114453914724517
100
AcDbArc
 50
262.6585319245937
 51
287.0833963465835
  0
ARC
  5
1AE4C
330
18
100
AcDbEntity
  8
01
100
AcDbCircle
 10
5016.585483559805
 20
28763.71239846368
 30
0.0
 40
29268.71493818182
100
AcDbArc
 50
265.1866179129454
 51
265.2887224711559
  0
ARC
  5
1AE4D
330
18
100
AcDbEntity
  8
01
100
AcDbCircle
 10
2545.57257542895
 20
-549.5854752063382
 30
0.0
 40
148.5703096773504
100
AcDbArc
 50
84.18294507012314
 51
88.23257626988895
  0
ARC
  5
1AE4E
330
18
100
AcDbEntity
  8
01
100
AcDbCircle
 10
2543.858668176251
 20
-584.9979014043423
 30
0.0
 40
184.0182813075427
100
AcDbArc
 50
88.03924305662021
 51
95.16540129933799
  0
ARC
  5
1AE4F
330
18
100
AcDbEntity
  8
01
100
AcDbCircle
 10
2505.934838386694
 20
-323.1250292072081
 30
0.0
 40
80.99193761840408
100
AcDbArc
 50
267.7188764819307
 51
277.4067486010146
  0
ARC
  5
1AE50
330
18
100
AcDbEntity
  8
01
100
AcDbCircle
 10
892.4414965566004
 20
9972.71439669529
 30
0.0
 40
10502.46478831743
100
AcDbArc
 50
278.8949961710713
 51
278.955275557538
  0
ARC
  5
1AE51
330
18
100
AcDbEntity
  8
01
100
AcDbCircle
 10
2508.42397379321
 20
-372.5665483283013
 30
0.0
 40
32.00030498000669
100
AcDbArc
 50
259.7161965363696
 51
271.712665485129
  0
ARC
  5
1AE52
330
18
100
AcDbEntity
  8
01
100
AcDbCircle
 10
2505.404811092035
 20
-345.8477201474124
 30
0.0
 40
58.83929888010844
100
AcDbArc
 50
273.8742243743449
 51
280.7459846808483
  0
ARC
  5
1AE53
330
18
100
AcDbEntity
  8
01
100
AcDbCircle
 10
2568.456592062777
 20
-666.6180556284047
 30
0.0
 40
268.070684731483
100
AcDbArc
 50
98.83337141128229
 51
101.2026915456252
  0
SPLINE
  5
1AE54
330
18
100
AcDbEntity
  8
01
100
AcDbSpline
210
0.0
220
0.0
230
1.0
 70
    12
 71
     2
 72
     6
 73
     3
 74
     0
 42
0.0000000001
 43
0.0000000001
 40
0.0
 40
0.0
 40
0.0
 40
6.482204741765053
 40
6.482204741765053
 40
6.482204741765053
 10
2408.950361102124
 20
-577.1261464170237
 30
0.0
 41
1.0
 10
2412.066040031267
 20
-578.0190570449194
 30
0.0
 41
0.9999999999728528
 10
2415.181732118818
 20
-578.9119217571769
 30
0.0
 41
1.0
  0
SPLINE
  5
1AE55
330
18
100
AcDbEntity
  8
01
100
AcDbSpline
210
0.0
220
0.0
230
1.0
 70
    12
 71
     2
 72
     6
 73
     3
 74
     0
 42
0.0000000001
 43
0.0000000001
 40
0.0
 40
0.0
 40
0.0
 40
1.256427847601297
 40
1.256427847601297
 40
1.256427847601297
 10
2420.662204459984
 20
-592.9795057321461
 30
0.0
 41
1.0
 10
2420.663266939814
 20
-592.3512919324302
 30
0.0
 41
0.9999981509877678
 10
2420.661913275911
 20
-591.7230786926701
 30
0.0
 41
1.0
  0
LINE
  5
1AE56
330
18
100
AcDbEntity
  8
01
100
AcDbLine
 10
2408.665851384002
 20
-604.9730818608531
 30
0.0
 11
2408.665851384002
 21
-569.332524093309
 31
0.0
  0
ARC
  5
1AE57
330
18
100
AcDbEntity
  8
01
100
AcDbCircle
 10
2397.348337296081
 20
-698.8718076774038
 30
0.0
 40
100.0214706608298
100
AcDbArc
 50
91.25126115875057
 51
102.7573082311637
  0
ARC
  5
1AE58
330
18
100
AcDbEntity
  8
01
100
AcDbCircle
 10
2397.34972500532
 20
-483.2423916989018
 30
0.0
 40
100.0129711933267
100
AcDbArc
 50
253.3312414934068
 51
268.7478669098192
  0
ARC
  5
1AE59
330
18
100
AcDbEntity
  8
01
100
AcDbCircle
 10
2374.829592993175
 20
-612.3710538487447
 30
0.0
 40
11.06003468591635
100
AcDbArc
 50
87.76242126747486
 51
121.4307542452116
  0
LINE
  5
1AE5A
330
18
100
AcDbEntity
  8
01
100
AcDbLine
 10
2366.662141904159
 20
-579.0527082700336
 30
0.0
 11
2366.662141904159
 21
-603.0530020083414
 31
0.0
  0
LINE
  5
1AE5B
330
18
100
AcDbEntity
  8
01
100
AcDbLine
 10
2368.662058788454
 20
-579.0685046451671
 30
0.0
 11
2368.662009929479
 21
-603.0892701613283
 31
0.0
  0
ARC
  5
1AE5C
330
18
100
AcDbEntity
  8
01
100
AcDbCircle
 10
2367.662355469693
 20
-603.0472317310667
 30
0.0
 40
1.000230209892093
100
AcDbArc
 50
180.0131376904
 51
0.6057308959038707
  0
ARC
  5
1AE5D
330
18
100
AcDbEntity
  8
01
100
AcDbCircle
 10
2367.662089160812
 20
-579.0579660040784
 30
0.0
 40
1.0
100
AcDbArc
 50
359.4412713527002
 51
180.4869879134847
  0
LINE
  5
1AE5E
330
18
100
AcDbEntity
  8
01
100
AcDbLine
 10
2368.662009929479
 20
-603.0892701613283
 30
0.0
 11
2369.062142020693
 21
-602.9338468183959
 31
0.0
  0
ARC
  5
1AE5F
330
18
100
AcDbEntity
  8
01
100
AcDbCircle
 10
2525.059328490363
 20
-530.4333560593813
 30
0.0
 40
114.0973060853399
100
AcDbArc
 50
202.3280051586012
 51
205.5098830169168
  0
ARC
  5
1AE60
330
18
100
AcDbEntity
  8
01
100
AcDbCircle
 10
2408.651388786701
 20
-569.997572723424
 30
0.0
 40
0.6652058682388038
100
AcDbArc
 50
65.5146926606405
 51
112.7359020911724
  0
ARC
  5
1AE61
330
18
100
AcDbEntity
  8
01
100
AcDbCircle
 10
2418.48216959919
 20
-574.2087209642158
 30
0.0
 40
1.119770678805215
100
AcDbArc
 50
22.51822428848822
 51
71.52664590711233
  0
ARC
  5
1AE62
330
18
100
AcDbEntity
  8
01
100
AcDbCircle
 10
2519.369074872876
 20
-292.8364957962284
 30
0.0
 40
297.7926867303047
100
AcDbArc
 50
248.2307981078776
 51
250.2698356529299
  0
ARC
  5
1AE63
330
18
100
AcDbEntity
  8
01
100
AcDbCircle
 10
2397.844597295029
 20
-574.2153113938656
 30
0.0
 40
1.117568886033102
100
AcDbArc
 50
107.8103602753457
 51
156.4373678502624
  0
ARC
  5
1AE64
330
18
100
AcDbEntity
  8
01
100
AcDbCircle
 10
2288.069986886684
 20
-239.1410926004736
 30
0.0
 40
351.4802334783013
100
AcDbArc
 50
288.1405056936201
 51
290.0192552320019
  0
ARC
  5
1AE65
330
18
100
AcDbEntity
  8
01
100
AcDbCircle
 10
2394.90027927292
 20
-581.3553371527204
 30
0.0
 40
1.894620559952811
100
AcDbArc
 50
278.0082914513335
 51
338.3482156793492
  0
ARC
  5
1AE66
330
18
100
AcDbEntity
  8
01
100
AcDbCircle
 10
2395.069521209721
 20
-600.5357960647151
 30
0.0
 40
1.664302641012247
100
AcDbArc
 50
16.99170842634613
 51
86.7395119244486
  0
ARC
  5
1AE67
330
18
100
AcDbEntity
  8
01
100
AcDbCircle
 10
2291.015334368008
 20
-530.2720335190814
 30
0.0
 40
114.3967617239392
100
AcDbArc
 50
334.4521317421098
 51
337.6523690548585
  0
ARC
  5
1AE68
330
18
100
AcDbEntity
  8
01
100
AcDbCircle
 10
2412.251983447212
 20
-586.3251408874747
 30
0.0
 40
10.14146238656113
100
AcDbArc
 50
331.1125947001269
 51
350.0115493174595
  0
ARC
  5
1AE69
330
18
100
AcDbEntity
  8
01
100
AcDbCircle
 10
2378.395781141296
 20
-580.8249165251808
 30
0.0
 40
44.44084366360534
100
AcDbArc
 50
350.5988055237699
 51
356.5313040584934
  0
ARC
  5
1AE6A
330
18
100
AcDbEntity
  8
01
100
AcDbCircle
 10
2411.441786984989
 20
-583.3754958260378
 30
0.0
 40
11.31426684038564
100
AcDbArc
 50
359.2999639027491
 51
9.897301223138959
  0
ARC
  5
1AE6B
330
18
100
AcDbEntity
  8
01
100
AcDbCircle
 10
2415.270910166994
 20
-582.4100572279002
 30
0.0
 40
7.382002167728297
100
AcDbArc
 50
7.623265835799747
 51
22.61608400750041
  0
ARC
  5
1AE6C
330
18
100
AcDbEntity
  8
01
100
AcDbCircle
 10
2430.095704216247
 20
-588.6733946065277
 30
0.0
 40
13.01473394257641
100
AcDbArc
 50
142.5423887989147
 51
154.4537153139231
  0
ARC
  5
1AE6D
330
18
100
AcDbEntity
  8
01
100
AcDbCircle
 10
2423.6600814153
 20
-583.7145707159488
 30
0.0
 40
4.890335769639966
100
AcDbArc
 50
115.3301024859096
 51
142.8042595318086
  0
ARC
  5
1AE6E
330
18
100
AcDbEntity
  8
01
100
AcDbCircle
 10
2421.31641115197
 20
-579.9401057063859
 30
0.0
 40
0.8523387062045001
100
AcDbArc
 50
26.51155431589097
 51
45.16212824943054
  0
ARC
  5
1AE6F
330
18
100
AcDbEntity
  8
01
100
AcDbCircle
 10
2421.722026003613
 20
-579.5288888351205
 30
0.0
 40
0.274752412209964
100
AcDbArc
 50
44.67689452810408
 51
87.38524339830805
  0
ARC
  5
1AE70
330
18
100
AcDbEntity
  8
01
100
AcDbCircle
 10
2421.747096175265
 20
-579.6743319704582
 30
0.0
 40
0.4200965702907623
100
AcDbArc
 50
91.70998854463373
 51
115.2591582735578
  0
LINE
  5
1AE71
330
18
100
AcDbEntity
  8
01
100
AcDbLine
 10
2415.620156842707
 20
-579.2924607563235
 30
0.0
 11
2415.620156842707
 21
-602.7772341786566
 31
0.0
  0
LINE
  5
1AE72
330
18
100
AcDbEntity
  8
01
100
AcDbLine
 10
2396.662191553559
 20
-602.1795290002354
 30
0.0
 11
2396.662191553559
 21
-579.935022640684
 31
0.0
  0
ARC
  5
1AE73
330
18
100
AcDbEntity
  8
01
100
AcDbCircle
 10
2397.662191553559
 20
-579.935022640684
 30
0.0
 40
1.0
100
AcDbArc
 50
99.68490543998232
 51
180.0
  0
LINE
  5
1AE74
330
18
100
AcDbEntity
  8
01
100
AcDbLine
 10
2408.366406396074
 20
-577.0937617398812
 30
0.0
 11
2397.493961863192
 21
-578.9492748173142
 31
0.0
  0
LINE
  5
1AE75
330
18
100
AcDbEntity
  8
01
100
AcDbLine
 10
2408.366371060744
 20
-604.9891080841315
 30
0.0
 11
2397.496754844266
 21
-603.1657494092805
 31
0.0
  0
ARC
  5
1AE76
330
18
100
AcDbEntity
  8
01
100
AcDbCircle
 10
2397.662191553559
 20
-602.1795290002354
 30
0.0
 40
1.0
100
AcDbArc
 50
180.0
 51
260.4773952686298
  0
ARC
  5
1AE77
330
18
100
AcDbEntity
  8
01
100
AcDbCircle
 10
2403.973342719623
 20
-583.1911291798496
 30
0.0
 40
10.38435824665062
100
AcDbArc
 50
159.8113238327159
 51
179.9629982510871
  0
ARC
  5
1AE78
330
18
100
AcDbEntity
  8
01
100
AcDbCircle
 10
2367.073559574133
 20
-589.1123930307357
 30
0.0
 40
33.53428282041581
100
AcDbArc
 50
18.08860116136671
 51
27.17029892952933
  0
ARC
  5
1AE79
330
18
100
AcDbEntity
  8
01
100
AcDbCircle
 10
2396.845496314337
 20
-573.8358211946887
 30
0.0
 40
0.0718565721831292
100
AcDbArc
 50
30.45011999114136
 51
110.6059150152649
  0
ARC
  5
1AE7A
330
18
100
AcDbEntity
  8
01
100
AcDbCircle
 10
2419.48912109164
 20
-573.7968352787747
 30
0.0
 40
0.0322633681526885
100
AcDbArc
 50
31.71576510872237
 51
126.5994687392805
  0
ARC
  5
1AE7B
330
18
100
AcDbEntity
  8
01
100
AcDbCircle
 10
2419.78771800716
 20
-574.1483739014956
 30
0.0
 40
0.4934359170330506
100
AcDbArc
 50
130.0998731039553
 51
153.2278881549762
  0
ARC
  5
1AE7C
330
18
100
AcDbEntity
  8
01
100
AcDbCircle
 10
2460.02490701355
 20
-593.5131370352609
 30
0.0
 40
45.14786233942119
100
AcDbArc
 50
154.2883845083992
 51
163.4636310301209
  0
ARC
  5
1AE7D
330
18
100
AcDbEntity
  8
01
100
AcDbCircle
 10
2408.576918744949
 20
-578.5789164627876
 30
0.0
 40
1.5
100
AcDbArc
 50
75.58392814965403
 51
98.06761167012466
  0
ARC
  5
1AE7E
330
18
100
AcDbEntity
  8
01
100
AcDbCircle
 10
2408.578651038132
 20
-603.5042049858793
 30
0.0
 40
1.5
100
AcDbArc
 50
261.8641892256168
 51
284.3625560050958
  0
LINE
  5
1AE7F
330
18
100
AcDbEntity
  8
01
100
AcDbLine
 10
2415.194285527313
 20
-603.1842902849256
 30
0.0
 11
2408.950736305139
 21
-604.9573232033953
 31
0.0
  0
ARC
  5
1AE80
330
18
100
AcDbEntity
  8
01
100
AcDbCircle
 10
524.0392377156252
 20
832.0645529224636
 30
0.0
 40
2374.412548442643
100
AcDbArc
 50
322.8258697098938
 51
323.0133231746946
  0
ARC
  5
1AE81
330
18
100
AcDbEntity
  8
01
100
AcDbCircle
 10
-1372.605876955057
 20
-3124.120948316109
 30
0.0
 40
4563.80964354034
100
AcDbArc
 50
33.78156373550537
 51
33.88809993826703
  0
ARC
  5
1AE82
330
18
100
AcDbEntity
  8
01
100
AcDbCircle
 10
2414.983345601439
 20
-579.9813706370459
 30
0.0
 40
1.087693944513467
100
AcDbArc
 50
28.3274136613541
 51
79.4908902417698
  0
ARC
  5
1AE83
330
18
100
AcDbEntity
  8
01
100
AcDbCircle
 10
2414.826743819097
 20
-601.8049951330048
 30
0.0
 40
1.427424962438384
100
AcDbArc
 50
284.9209326227315
 51
323.7479636732089
  0
ARC
  5
1AE84
330
18
100
AcDbEntity
  8
01
100
AcDbCircle
 10
2392.628139749567
 20
-583.8068583848998
 30
0.0
 40
4.990953061929885
100
AcDbArc
 50
36.07247519688467
 51
64.64144626273438
  0
ARC
  5
1AE85
330
18
100
AcDbEntity
  8
01
100
AcDbCircle
 10
2394.597996107227
 20
-579.6291512327024
 30
0.0
 40
0.3722475939957445
100
AcDbArc
 50
63.22779637972859
 51
94.9602508772581
  0
ARC
  5
1AE86
330
18
100
AcDbEntity
  8
01
100
AcDbCircle
 10
2394.629111079325
 20
-579.5748374734502
 30
0.0
 40
0.3228071405838271
100
AcDbArc
 50
101.3087605796507
 51
141.3054009618004
  0
ARC
  5
1AE87
330
18
100
AcDbEntity
  8
01
100
AcDbCircle
 10
2395.192229867816
 20
-580.0631343311778
 30
0.0
 40
1.067979056617281
100
AcDbArc
 50
139.7458509361135
 51
152.6237217145908
  0
LINE
  5
1AE88
330
18
100
AcDbEntity
  8
01
100
AcDbLine
 10
2420.665788592519
 20
-586.5140966100115
 30
0.0
 11
2420.661643202523
 21
-596.451600716331
 31
0.0
  0
LINE
  5
1AE89
330
18
100
AcDbEntity
  8
01
100
AcDbLine
 10
2421.17816707819
 20
-591.6958083717908
 30
0.0
 11
2420.661643202523
 21
-596.451600716331
 31
0.0
  0
LINE
  5
1AE8A
330
18
100
AcDbEntity
  8
01
100
AcDbLine
 10
2421.17816707819
 20
-591.6958083717908
 30
0.0
 11
2420.665788592519
 21
-586.5140966101625
 31
0.0
  0
ARC
  5
1AE8B
330
18
100
AcDbEntity
  8
01
100
AcDbCircle
 10
2507.487878669393
 20
-590.4357696571536
 30
0.0
 40
13.94598431367899
100
AcDbArc
 50
89.89923029413602
 51
180.1720232896278
  0
ARC
  5
1AE8C
330
18
100
AcDbEntity
  8
01
100
AcDbCircle
 10
2507.520900744653
 20
-590.4346816556971
 30
0.0
 40
13.97900954166145
100
AcDbArc
 50
180.1760762987424
 51
269.9651839739568
  0
ARC
  5
1AE8D
330
18
100
AcDbEntity
  8
01
100
AcDbCircle
 10
2507.272596423719
 20
-588.9648758640691
 30
0.0
 40
15.45067390946209
100
AcDbArc
 50
270.8893235274268
 51
291.9202197093392
  0
ARC
  5
1AE8E
330
18
100
AcDbEntity
  8
01
100
AcDbCircle
 10
2702.888848582209
 20
-1065.961066137175
 30
0.0
 40
500.0989761460431
100
AcDbArc
 50
109.9841175822228
 51
112.3102341920338
  0
ARC
  5
1AE8F
330
18
100
AcDbEntity
  8
01
100
AcDbCircle
 10
2507.403071461577
 20
-591.4111010854843
 30
0.0
 40
14.92169473979298
100
AcDbArc
 50
67.80219220160816
 51
89.58017616240859
  0
ARC
  5
1AE90
330
18
100
AcDbEntity
  8
01
100
AcDbCircle
 10
3434.865986563543
 20
1859.000983142549
 30
0.0
 40
2605.141777732708
100
AcDbArc
 50
249.2771140472021
 51
249.5052673870365
  0
ARC
  5
1AE91
330
18
100
AcDbEntity
  8
01
100
AcDbCircle
 10
2531.806532488995
 20
-561.2674004651934
 30
0.0
 40
21.93596351396337
100
AcDbArc
 50
245.6165021975625
 51
270.4405540635543
  0
ARC
  5
1AE92
330
18
100
AcDbEntity
  8
01
100
AcDbCircle
 10
2530.598582653921
 20
-555.186619150836
 30
0.0
 40
28.0498971282177
100
AcDbArc
 50
272.8130586980897
 51
287.2469631473119
  0
ARC
  5
1AE93
330
18
100
AcDbEntity
  8
01
100
AcDbCircle
 10
2688.665078420568
 20
-1164.004118275849
 30
0.0
 40
600.9847151582663
100
AcDbArc
 50
98.52455634537276
 51
104.428657814618
  0
ARC
  5
1AE94
330
18
100
AcDbEntity
  8
01
100
AcDbCircle
 10
2597.068116457242
 20
-784.6402597793602
 30
0.0
 40
199.579338122567
100
AcDbArc
 50
89.27910850316997
 51
109.0352972595845
  0
ARC
  5
1AE95
330
18
100
AcDbEntity
  8
01
100
AcDbCircle
 10
2608.046867125636
 20
-610.200059715852
 30
0.0
 40
41.41610569670181
100
AcDbArc
 50
84.44468913609292
 51
101.7975882802508
  0
ARC
  5
1AE96
330
18
100
AcDbEntity
  8
01
100
AcDbCircle
 10
2609.613115282812
 20
-595.2605037376946
 30
0.0
 40
26.39533485569225
100
AcDbArc
 50
58.42872213394883
 51
84.68920353743063
  0
ARC
  5
1AE97
330
18
100
AcDbEntity
  8
01
100
AcDbCircle
 10
2616.616556851125
 20
-584.8823370572508
 30
0.0
 40
13.89676766828562
100
AcDbArc
 50
19.75345417946116
 51
60.62794214763564
  0
ARC
  5
1AE98
330
18
100
AcDbEntity
  8
01
100
AcDbCircle
 10
2614.379818492752
 20
-581.1729160361391
 30
0.0
 40
16.35433971603726
100
AcDbArc
 50
303.610327443287
 51
338.9480138523441
  0
ARC
  5
1AE99
330
18
100
AcDbEntity
  8
01
100
AcDbCircle
 10
2619.775836963746
 20
-583.5402174498248
 30
0.0
 40
10.47161562455105
100
AcDbArc
 50
340.4307760219097
 51
18.68430613385573
  0
ARC
  5
1AE9A
330
18
100
AcDbEntity
  8
01
100
AcDbCircle
 10
2608.479996797824
 20
-572.853134128516
 30
0.0
 40
26.55081825004758
100
AcDbArc
 50
289.8309284782268
 51
304.2753246221352
  0
ARC
  5
1AE9B
330
18
100
AcDbEntity
  8
01
100
AcDbCircle
 10
2619.604287236672
 20
-594.2489677930652
 30
0.0
 40
5.205398371516098
100
AcDbArc
 50
199.2727755691045
 51
214.064213271058
  0
ARC
  5
1AE9C
330
18
100
AcDbEntity
  8
01
100
AcDbCircle
 10
2616.819231448398
 20
-596.0298240266837
 30
0.0
 40
1.902618980417264
100
AcDbArc
 50
216.6154369037093
 51
251.6708814128613
  0
ARC
  5
1AE9D
330
18
100
AcDbEntity
  8
01
100
AcDbCircle
 10
2616.844589496638
 20
-595.9799977649426
 30
0.0
 40
1.957909845661393
100
AcDbArc
 50
251.4249944374273
 51
289.1618472131675
  0
ARC
  5
1AE9E
330
18
100
AcDbEntity
  8
01
100
AcDbCircle
 10
2584.761938478826
 20
-607.4375221827271
 30
0.0
 40
32.05146116233109
100
AcDbArc
 50
20.96977501725818
 51
27.40712568168247
  0
ARC
  5
1AE9F
330
18
100
AcDbEntity
  8
01
100
AcDbCircle
 10
2600.28027582049
 20
-599.9826491041048
 30
0.0
 40
14.8526626543399
100
AcDbArc
 50
29.43327386826108
 51
60.56203797209762
  0
ARC
  5
1AEA0
330
18
100
AcDbEntity
  8
01
100
AcDbCircle
 10
2600.01716107463
 20
-600.2196867001243
 30
0.0
 40
15.18882950979673
100
AcDbArc
 50
60.13711431862297
 51
75.69094988760435
  0
ARC
  5
1AEA1
330
18
100
AcDbEntity
  8
01
100
AcDbCircle
 10
2599.413332465382
 20
-607.5803536969901
 30
0.0
 40
22.50424590357229
100
AcDbArc
 50
78.834564738486
 51
89.57784151059016
  0
ARC
  5
1AEA2
330
18
100
AcDbEntity
  8
01
100
AcDbCircle
 10
2618.770674383876
 20
-583.5096403936244
 30
0.0
 40
7.102865038882732
100
AcDbArc
 50
307.7239333968249
 51
52.27606660317518
  0
ARC
  5
1AEA3
330
18
100
AcDbEntity
  8
01
100
AcDbCircle
 10
2611.184939483716
 20
-591.839685913771
 30
0.0
 40
18.35529211194335
100
AcDbArc
 50
49.45537393790961
 51
78.23627281701954
  0
ARC
  5
1AEA4
330
18
100
AcDbEntity
  8
01
100
AcDbCircle
 10
2666.568667457858
 20
-1140.500356022663
 30
0.0
 40
570.5476810445965
100
AcDbArc
 50
96.152465784988
 51
99.10603896286756
  0
ARC
  5
1AEA5
330
18
100
AcDbEntity
  8
01
100
AcDbCircle
 10
2664.858114124951
 20
-1132.846536047741
 30
0.0
 40
562.7198080770245
100
AcDbArc
 50
99.05740131472426
 51
101.5942650645004
  0
ARC
  5
1AEA6
330
18
100
AcDbEntity
  8
01
100
AcDbCircle
 10
2608.202881050301
 20
-603.2479574822495
 30
0.0
 40
30.13776828239433
100
AcDbArc
 50
77.10778689345987
 51
95.29724486062823
  0
ARC
  5
1AEA7
330
18
100
AcDbEntity
  8
01
100
AcDbCircle
 10
2630.744028499184
 20
-977.7884985911008
 30
0.0
 40
403.9757185136047
100
AcDbArc
 50
101.274514448716
 51
103.5511067041572
  0
ARC
  5
1AEA8
330
18
100
AcDbEntity
  8
01
100
AcDbCircle
 10
2531.571672664167
 20
-562.7415910961362
 30
0.0
 40
22.76962770925223
100
AcDbArc
 50
247.0743462404432
 51
281.4389398769558
  0
ARC
  5
1AEA9
330
18
100
AcDbEntity
  8
01
100
AcDbCircle
 10
2507.515569553833
 20
-590.3617887479576
 30
0.0
 40
11.57456072410946
100
AcDbArc
 50
67.59596448949608
 51
290.9305196693194
  0
ARC
  5
1AEAA
330
18
100
AcDbEntity
  8
01
100
AcDbCircle
 10
3069.932839088017
 20
887.9068648482759
 30
0.0
 40
1570.071834906941
100
AcDbArc
 50
249.181950188318
 51
249.6020397372611
  0
ARC
  5
1AEAB
330
18
100
AcDbEntity
  8
01
100
AcDbCircle
 10
2464.257128562912
 20
-467.3199129126359
 30
0.0
 40
141.99529507985
100
AcDbArc
 50
289.4975525201212
 51
297.2288950892178
  0
ARC
  5
1AEAC
330
18
100
AcDbEntity
  8
01
100
AcDbCircle
 10
2609.433816251382
 20
-891.9911539712147
 30
0.0
 40
313.5012052155228
100
AcDbArc
 50
91.80767445438033
 51
95.86945797025092
  0
ARC
  5
1AEAD
330
18
100
AcDbEntity
  8
01
100
AcDbCircle
 10
2600.616817569397
 20
-606.5952183564212
 30
0.0
 40
27.96981557512763
100
AcDbArc
 50
76.9832000019731
 51
92.19709547993176
  0
ARC
  5
1AEAE
330
18
100
AcDbEntity
  8
01
100
AcDbCircle
 10
2603.111870841923
 20
-596.1000322352346
 30
0.0
 40
17.18246618931606
100
AcDbArc
 50
54.7140998353806
 51
77.20674536273383
  0
ARC
  5
1AEAF
330
18
100
AcDbEntity
  8
01
100
AcDbCircle
 10
2608.131009316449
 20
-587.8436251179977
 30
0.0
 40
7.573492198737812
100
AcDbArc
 50
13.56825483615137
 51
49.6208751548923
  0
ARC
  5
1AEB0
330
18
100
AcDbEntity
  8
01
100
AcDbCircle
 10
2590.102127811068
 20
-590.7772438853857
 30
0.0
 40
25.82423159006799
100
AcDbArc
 50
1.113661099595801
 51
10.50969065114077
  0
ARC
  5
1AEB1
330
18
100
AcDbEntity
  8
01
100
AcDbCircle
 10
2619.083841833401
 20
-590.6868295294493
 30
0.0
 40
3.166391007131514
100
AcDbArc
 50
181.1298119186467
 51
208.7311665515008
  0
ARC
  5
1AEB2
330
18
100
AcDbEntity
  8
01
100
AcDbCircle
 10
2617.724798385309
 20
-591.3488174673874
 30
0.0
 40
1.658047719275196
100
AcDbArc
 50
211.2478645201344
 51
240.3568382529787
  0
ARC
  5
1AEB3
330
18
100
AcDbEntity
  8
01
100
AcDbCircle
 10
2617.457456470192
 20
-591.6318026691173
 30
0.0
 40
1.283202743813971
100
AcDbArc
 50
244.4856507748168
 51
280.1839737204605
  0
ARC
  5
1AEB4
330
18
100
AcDbEntity
  8
01
100
AcDbCircle
 10
2616.346262767595
 20
-587.3601409036763
 30
0.0
 40
5.694099895032224
100
AcDbArc
 50
283.5912354905133
 51
304.3572806917132
  0
LINE
  5
1AEB5
330
18
100
AcDbEntity
  8
01
100
AcDbLine
 10
2615.921481369932
 20
-590.2753285340967
 30
0.0
 11
2615.918066410542
 21
-590.7492633508326
 31
0.0
  0
ARC
  5
1AEB6
330
18
100
AcDbEntity
  8
01
100
AcDbCircle
 10
2594.954273437944
 20
-558.5986849914865
 30
0.0
 40
41.53484231037286
100
AcDbArc
 50
306.3278876166851
 51
312.6907791690007
  0
ARC
  5
1AEB7
330
18
100
AcDbEntity
  8
01
100
AcDbCircle
 10
2588.535760396856
 20
-724.431750365425
 30
0.0
 40
144.729274758388
100
AcDbArc
 50
94.42295200258695
 51
106.462479963322
  0
ARC
  5
1AEB8
330
18
100
AcDbEntity
  8
01
100
AcDbCircle
 10
2579.944036874008
 20
-685.3359073672244
 30
0.0
 40
104.8398262811099
100
AcDbArc
 50
108.0146202329377
 51
118.9313601843163
  0
ARC
  5
1AEB9
330
18
100
AcDbEntity
  8
01
100
AcDbCircle
 10
2593.644610289198
 20
-809.9318504230249
 30
0.0
 40
228.9894694775989
100
AcDbArc
 50
101.6200714349419
 51
104.0857859799335
  0
ARC
  5
1AEBA
330
18
100
AcDbEntity
  8
01
100
AcDbCircle
 10
2525.301079459287
 20
-553.8460777954505
 30
0.0
 40
36.0171446197743
100
AcDbArc
 50
254.4593554362794
 51
276.2570626004219
  0
ARC
  5
1AEBB
330
18
100
AcDbEntity
  8
01
100
AcDbCircle
 10
2524.493350426649
 20
-555.4636308116222
 30
0.0
 40
34.24405615753381
100
AcDbArc
 50
243.7577034283437
 51
255.036306022533
  0
ARC
  5
1AEBC
330
18
100
AcDbEntity
  8
01
100
AcDbCircle
 10
2541.486852177016
 20
-652.1844353776345
 30
0.0
 40
65.17874511740274
100
AcDbArc
 50
113.3520720219819
 51
119.5399849070136
  0
ARC
  5
1AEBD
330
18
100
AcDbEntity
  8
01
100
AcDbCircle
 10
2529.174231928005
 20
-626.3403223402782
 30
0.0
 40
36.58649370408944
100
AcDbArc
 50
93.78921153600727
 51
111.691907751709
  0
ARC
  5
1AEBE
330
18
100
AcDbEntity
  8
01
100
AcDbCircle
 10
2507.545147131562
 20
-590.8676096887615
 30
0.0
 40
5.025337376345225
100
AcDbArc
 50
68.93093258985351
 51
130.7070117401072
  0
ARC
  5
1AEBF
330
18
100
AcDbEntity
  8
01
100
AcDbCircle
 10
2507.545732757056
 20
-590.6111071002468
 30
0.0
 40
5.191315342240318
100
AcDbArc
 50
230.8426719224722
 51
290.3580965644875
  0
ARC
  5
1AEC0
330
18
100
AcDbEntity
  8
01
100
AcDbCircle
 10
2507.627290980031
 20
-590.8473303782274
 30
0.0
 40
5.064100820383231
100
AcDbArc
 50
131.5612076041106
 51
228.438792404742
  0
LINE
  5
1AEC1
330
18
100
AcDbEntity
  8
01
100
AcDbLine
 10
2507.662258243902
 20
-306.0527139735485
 30
0.0
 11
2507.662258243902
 21
-279.5527139735485
 31
0.0
  0
LINE
  5
1AEC2
330
18
100
AcDbEntity
  8
01
100
AcDbLine
 10
2507.662258243902
 20
-306.0527139735485
 30
0.0
 11
2507.662258243902
 21
-279.5527139735485
 31
0.0
  0
SPLINE
  5
1AEC3
330
18
100
AcDbEntity
  8
01
100
AcDbSpline
210
0.0
220
0.0
230
1.0
 70
    12
 71
     2
 72
     6
 73
     3
 74
     0
 42
0.0000000001
 43
0.0000000001
 40
0.0
 40
0.0
 40
0.0
 40
0.0013395827079208
 40
0.0013395827079208
 40
0.0013395827079208
 10
2495.646936350992
 20
-261.559469149462
 30
0.0
 41
1.0
 10
2495.646266616622
 20
-261.5594792585083
 30
0.0
 41
0.9999567668452998
 10
2495.645596810075
 20
-261.5594769111266
 30
0.0
 41
1.0
  0
SPLINE
  5
1AEC4
330
18
100
AcDbEntity
  8
01
100
AcDbSpline
210
0.0
220
0.0
230
1.0
 70
    12
 71
     3
 72
    10
 73
     6
 74
     0
 42
0.0000000001
 43
0.0000000001
 40
-1.813485387651938
 40
-1.813485387651938
 40
-1.813485387651938
 40
-1.813485387651938
 40
-0.9067426938259688
 40
-0.9067426938259688
 40
-0.5464298820974417
 40
-0.5464298820974417
 40
-0.5464298820974417
 40
-0.5464298820974417
 10
2495.645596810075
 20
-261.5594769111266
 30
0.0
 41
1.0
 10
2495.607366237687
 20
-261.5527365694433
 30
0.0
 41
1.0
 10
2495.582773641573
 20
-261.5493544073892
 30
0.0
 41
1.0
 10
2495.56759104466
 20
-261.5493408128531
 30
0.0
 41
1.0
 10
2495.565441142398
 20
-261.5498693847507
 30
0.0
 41
1.0
 10
2495.565457801583
 20
-261.5509296907165
 30
0.0
 41
1.0
  0
SPLINE
  5
1AEC5
330
18
100
AcDbEntity
  8
01
100
AcDbSpline
210
0.0
220
0.0
230
1.0
 70
    12
 71
     2
 72
     6
 73
     3
 74
     0
 42
0.0000000001
 43
0.0000000001
 40
0.0
 40
0.0
 40
0.0
 40
0.8393070270468792
 40
0.8393070270468792
 40
0.8393070270468792
 10
2512.205504278488
 20
-262.0527671867134
 30
0.0
 41
1.0
 10
2511.785850764835
 20
-262.0527837692288
 30
0.0
 41
0.999999998364316
 10
2511.366197252029
 20
-262.0527523468444
 30
0.0
 41
1.0
  0
SPLINE
  5
1AEC6
330
18
100
AcDbEntity
  8
01
100
AcDbSpline
210
0.0
220
0.0
230
1.0
 70
    28
 71
     2
 72
     6
 73
     3
 74
     0
 42
0.0000000001
 43
0.0000000001
 40
0.0
 40
0.0
 40
0.0
 40
0.0103935807839264
 40
0.0103935807839264
 40
0.0103935807839264
 10
2515.483405711578
 20
-263.5506765514377
 30
0.0
 41
1.0
 10
2515.478208921185
 20
-263.5506765514368
 30
0.0
 41
1.0
 10
2515.473012130792
 20
-263.5506765514359
 30
0.0
 41
1.0
  0
SPLINE
  5
1AEC7
330
18
100
AcDbEntity
  8
01
100
AcDbSpline
210
0.0
220
0.0
230
1.0
 70
    24
 71
     2
 72
     6
 73
     3
 74
     0
 42
0.0000000001
 43
0.0000000001
 40
0.0
 40
0.0
 40
0.0
 40
0.0065067653709345
 40
0.0065067653709345
 40
0.0065067653709345
 10
2496.053781295909
 20
-242.7641992749681
 30
0.0
 10
2496.056438699417
 20
-242.762322387788
 30
0.0
 10
2496.059096102927
 20
-242.760445500607
 30
0.0
  0
SPLINE
  5
1AEC8
330
18
100
AcDbEntity
  8
01
100
AcDbSpline
210
0.0
220
0.0
230
1.0
 70
    12
 71
     2
 72
     6
 73
     3
 74
     0
 42
0.0000000001
 43
0.0000000001
 40
0.0
 40
0.0
 40
0.0
 40
1.397383692346342
 40
1.397383692346342
 40
1.397383692346342
 10
2500.538324183109
 20
-262.0530518526115
 30
0.0
 41
1.0
 10
2501.237015996875
 20
-262.0528342235619
 30
0.0
 41
0.9999999968067866
 10
2501.935707836502
 20
-262.0527282665938
 30
0.0
 41
1.0
  0
ARC
  5
1AEC9
330
18
100
AcDbEntity
  8
01
100
AcDbCircle
 10
2615.459891590465
 20
-261.3680683437459
 30
0.0
 40
99.99998213032752
100
AcDbArc
 50
181.2506419172176
 51
196.6691355505587
  0
ARC
  5
1AECA
330
18
100
AcDbEntity
  8
01
100
AcDbCircle
 10
2399.849323004212
 20
-261.3667347328573
 30
0.0
 40
100.0152929694723
100
AcDbArc
 50
343.3325739437121
 51
358.748792585083
  0
ARC
  5
1AECB
330
18
100
AcDbEntity
  8
01
100
AcDbCircle
 10
2517.982631835816
 20
-263.5562169700919
 30
0.0
 40
2.498892888404389
100
AcDbArc
 50
122.3733760983961
 51
179.8729665039447
  0
ARC
  5
1AECC
330
18
100
AcDbEntity
  8
01
100
AcDbCircle
 10
2498.341263767446
 20
-263.5177950907818
 30
0.0
 40
1.499865471824866
100
AcDbArc
 50
358.7442867311121
 51
77.48224415002753
  0
LINE
  5
1AECD
330
18
100
AcDbEntity
  8
01
100
AcDbLine
 10
2495.662252541418
 20
-292.0527139735485
 30
0.0
 11
2519.662546279725
 21
-292.0527139735485
 31
0.0
  0
LINE
  5
1AECE
330
18
100
AcDbEntity
  8
01
100
AcDbLine
 10
2495.678048916551
 20
-290.0527970892543
 30
0.0
 11
2519.698814432712
 21
-290.0528459482292
 31
0.0
  0
ARC
  5
1AECF
330
18
100
AcDbEntity
  8
01
100
AcDbCircle
 10
2519.656776002451
 20
-291.0525004080131
 30
0.0
 40
1.000230209892093
100
AcDbArc
 50
270.0131376904001
 51
90.60573089590414
  0
ARC
  5
1AED0
330
18
100
AcDbEntity
  8
01
100
AcDbCircle
 10
2495.667510275463
 20
-291.0527667168957
 30
0.0
 40
1.0
100
AcDbArc
 50
89.44127135264803
 51
270.4869879135368
  0
LINE
  5
1AED1
330
18
100
AcDbEntity
  8
01
100
AcDbLine
 10
2512.205504278442
 20
-262.0527671867134
 30
0.0
 11
2496.142482531227
 21
-262.0527671867134
 31
0.0
  0
LINE
  5
1AED2
330
18
100
AcDbEntity
  8
01
100
AcDbLine
 10
2495.565469719812
 20
-261.551056665401
 30
0.0
 11
2495.329142629676
 21
-261.614380318353
 31
0.0
  0
ARC
  5
1AED3
330
18
100
AcDbEntity
  8
01
100
AcDbCircle
 10
2496.159472389029
 20
-261.4504239701295
 30
0.0
 40
0.6024648237837208
100
AcDbArc
 50
189.554910940555
 51
268.3840115134282
  0
LINE
  5
1AED4
330
18
100
AcDbEntity
  8
01
100
AcDbLine
 10
2495.565457801583
 20
-261.5510566654006
 30
0.0
 11
2493.720639041046
 21
-250.3481792019833
 31
0.0
  0
LINE
  5
1AED5
330
18
100
AcDbEntity
  8
01
100
AcDbLine
 10
2493.753089832638
 20
-249.7633016684098
 30
0.0
 11
2495.509789275183
 21
-243.533916473861
 31
0.0
  0
LINE
  5
1AED6
330
18
100
AcDbEntity
  8
01
100
AcDbLine
 10
2493.692605270638
 20
-250.0586680360365
 30
0.0
 11
2630.331516140009
 21
-250.0586680360365
 31
0.0
  0
ARC
  5
1AED7
330
18
100
AcDbEntity
  8
01
100
AcDbCircle
 10
2494.687232452849
 20
-250.1084697548453
 30
0.0
 40
0.9958732061823392
100
AcDbArc
 50
159.720599751343
 51
193.9280225816672
  0
ARC
  5
1AED8
330
18
100
AcDbEntity
  8
01
100
AcDbCircle
 10
2496.944712055844
 20
-243.9709478940757
 30
0.0
 40
1.499999949571897
100
AcDbArc
 50
126.4380910246536
 51
163.0609472099535
  0
ARC
  5
1AED9
330
18
100
AcDbEntity
  8
01
100
AcDbCircle
 10
2541.732448856249
 20
-355.7812780966291
 30
0.0
 40
98.27151549253304
100
AcDbArc
 50
88.9262574841452
 51
98.76957265692161
  0
ARC
  5
1AEDA
330
18
100
AcDbEntity
  8
01
100
AcDbCircle
 10
2610.80441275684
 20
-208.8077447128002
 30
0.0
 40
52.44772918761024
100
AcDbArc
 50
265.6718368248181
 51
278.7042298347995
  0
ARC
  5
1AEDB
330
18
100
AcDbEntity
  8
01
100
AcDbCircle
 10
2533.485593075126
 20
-568.3196025412204
 30
0.0
 40
310.9562764169622
100
AcDbArc
 50
86.1950539046032
 51
88.14082026789747
  0
ARC
  5
1AEDC
330
18
100
AcDbEntity
  8
01
100
AcDbCircle
 10
-16395.94755860656
 20
-327539.578180495
 30
0.0
 40
327829.6883896326
100
AcDbArc
 50
86.67696196697594
 51
86.68619245192646
  0
ARC
  5
1AEDD
330
18
100
AcDbEntity
  8
01
100
AcDbCircle
 10
2451.604821756254
 20
222.4274099746855
 30
0.0
 40
486.9194335513303
100
AcDbArc
 50
276.6914940991517
 51
278.8777948165771
  0
ARC
  5
1AEDE
330
18
100
AcDbEntity
  8
01
100
AcDbCircle
 10
2498.343315171814
 20
-138.4514181705357
 30
0.0
 40
123.1303513140988
100
AcDbArc
 50
268.7072375627911
 51
274.6579084239702
  0
ARC
  5
1AEDF
330
18
100
AcDbEntity
  8
01
100
AcDbCircle
 10
2546.118846536884
 20
-490.1769758110491
 30
0.0
 40
230.6312410399213
100
AcDbArc
 50
92.60125213126771
 51
98.45576165426739
  0
ARC
  5
1AEE0
330
18
100
AcDbEntity
  8
01
100
AcDbCircle
 10
2539.699820270632
 20
-468.6767103761384
 30
0.0
 40
208.9325487046367
100
AcDbArc
 50
86.04221137733592
 51
91.110192427722
  0
ARC
  5
1AEE1
330
18
100
AcDbEntity
  8
01
100
AcDbCircle
 10
21249.22874055091
 20
224709.3025727802
 30
0.0
 40
225744.9960571131
100
AcDbArc
 50
265.2496002507626
 51
265.2645182932152
  0
ARC
  5
1AEE2
330
18
100
AcDbEntity
  8
01
100
AcDbCircle
 10
2614.003101720692
 20
-260.3999694647554
 30
0.0
 40
4.727838001509311
100
AcDbArc
 50
270.1810061157211
 51
289.5296919030031
  0
ARC
  5
1AEE3
330
18
100
AcDbEntity
  8
01
100
AcDbCircle
 10
2613.894768642293
 20
-237.0927656068224
 30
0.0
 40
28.03528927048084
100
AcDbArc
 50
267.5501078968825
 51
270.2519259577647
  0
LINE
  5
1AEE4
330
18
100
AcDbEntity
  8
01
100
AcDbLine
 10
2626.022554997505
 20
-259.8281447536855
 30
0.0
 11
2618.741526651092
 21
-260.6514185792092
 31
0.0
  0
LINE
  5
1AEE5
330
18
100
AcDbEntity
  8
01
100
AcDbLine
 10
2502.711148770531
 20
-238.0526421637791
 30
0.0
 11
2496.059096102927
 21
-242.760445500607
 31
0.0
  0
LINE
  5
1AEE6
330
18
100
AcDbEntity
  8
01
100
AcDbLine
 10
2508.34227791863
 20
-242.7745726762026
 30
0.0
 11
2496.053781295906
 21
-242.7641992749703
 31
0.0
  0
ARC
  5
1AEE7
330
18
100
AcDbEntity
  8
01
100
AcDbCircle
 10
2511.559901060172
 20
-711.2204864477302
 30
0.0
 40
468.4569641150861
100
AcDbArc
 50
88.14182728058925
 51
90.39354239514047
  0
ARC
  5
1AEE8
330
18
100
AcDbEntity
  8
01
100
AcDbCircle
 10
2534.581748495916
 20
-78.8455490458399
 30
0.0
 40
164.3510231640577
100
AcDbArc
 50
267.2686307249408
 51
273.6719023687064
  0
ARC
  5
1AEE9
330
18
100
AcDbEntity
  8
01
100
AcDbCircle
 10
3464.879537305326
 20
-15569.36221447835
 30
0.0
 40
15354.07685890451
100
AcDbArc
 50
93.23093240885261
 51
93.43430862243434
  0
ARC
  5
1AEEA
330
18
100
AcDbEntity
  8
01
100
AcDbCircle
 10
2611.070011183951
 20
-387.2913473047801
 30
0.0
 40
148.0519665957841
100
AcDbArc
 50
89.31622830679304
 51
94.47605669397788
  0
ARC
  5
1AEEB
330
18
100
AcDbEntity
  8
01
100
AcDbCircle
 10
2610.027944215611
 20
-295.4136433495318
 30
0.0
 40
56.23391568607433
100
AcDbArc
 50
79.93829763355761
 51
87.13688124325198
  0
ARC
  5
1AEEC
330
18
100
AcDbEntity
  8
01
100
AcDbCircle
 10
2798.515852781219
 20
644.7521159309537
 30
0.0
 40
902.654870786004
100
AcDbArc
 50
258.5840059189486
 51
258.9835829216264
  0
LINE
  5
1AEED
330
18
100
AcDbEntity
  8
01
100
AcDbLine
 10
2615.583595797879
 20
-264.8558072805307
 30
0.0
 11
2626.029862525594
 21
-259.8245918213996
 31
0.0
  0
LINE
  5
1AEEE
330
18
100
AcDbEntity
  8
01
100
AcDbLine
 10
2626.674414428207
 20
-259.1443624106518
 30
0.0
 11
2630.341739494831
 21
-250.3123875953287
 31
0.0
  0
ARC
  5
1AEEF
330
18
100
AcDbEntity
  8
01
100
AcDbCircle
 10
2625.462298515568
 20
-258.6413816740209
 30
0.0
 40
1.312331744296452
100
AcDbArc
 50
295.2720516831286
 51
337.4634600341807
  0
LINE
  5
1AEF0
330
18
100
AcDbEntity
  8
01
100
AcDbLine
 10
2630.331516140009
 20
-249.7971338061656
 30
0.0
 11
2626.693221497583
 21
-241.9423335100954
 31
0.0
  0
LINE
  5
1AEF1
330
18
100
AcDbEntity
  8
01
100
AcDbLine
 10
2630.396346983788
 20
-250.0586680360365
 30
0.0
 11
2493.692605270638
 21
-250.0586680360365
 31
0.0
  0
ARC
  5
1AEF2
330
18
100
AcDbEntity
  8
01
100
AcDbCircle
 10
2629.810015029677
 20
-250.0652094339661
 30
0.0
 40
0.5863684424474561
100
AcDbArc
 50
335.0681036585428
 51
27.20525462576306
  0
ARC
  5
1AEF3
330
18
100
AcDbEntity
  8
01
100
AcDbCircle
 10
2625.564821686382
 20
-242.3916453545866
 30
0.0
 40
1.214613938904644
100
AcDbArc
 50
21.66961611745423
 51
67.86099161257232
  0
LINE
  5
1AEF4
330
18
100
AcDbEntity
  8
01
100
AcDbLine
 10
2615.608157101663
 20
-236.2504444354412
 30
0.0
 11
2626.022554997505
 21
-241.2665821401537
 31
0.0
  0
ARC
  5
1AEF5
330
18
100
AcDbEntity
  8
01
100
AcDbCircle
 10
2613.518191391958
 20
-243.050995724638
 30
0.0
 40
7.114453914724517
100
AcDbArc
 50
72.91660365341649
 51
97.34146807540627
  0
ARC
  5
1AEF6
330
18
100
AcDbEntity
  8
01
100
AcDbCircle
 10
5016.585483559805
 20
-29405.81782641078
 30
0.0
 40
29268.71493818182
100
AcDbArc
 50
94.71127752884411
 51
94.81338208705463
  0
ARC
  5
1AEF7
330
18
100
AcDbEntity
  8
01
100
AcDbCircle
 10
2545.57257542895
 20
-92.51995274075887
 30
0.0
 40
148.5703096773504
100
AcDbArc
 50
271.767423730111
 51
275.817054929877
  0
ARC
  5
1AEF8
330
18
100
AcDbEntity
  8
01
100
AcDbCircle
 10
2543.858668176251
 20
-57.10752654275473
 30
0.0
 40
184.0182813075427
100
AcDbArc
 50
264.834598700662
 51
271.9607569433798
  0
ARC
  5
1AEF9
330
18
100
AcDbEntity
  8
01
100
AcDbCircle
 10
2505.934838386694
 20
-318.980398739889
 30
0.0
 40
80.99193761840408
100
AcDbArc
 50
82.59325139898536
 51
92.2811235180693
  0
ARC
  5
1AEFA
330
18
100
AcDbEntity
  8
01
100
AcDbCircle
 10
892.4414965566004
 20
-10614.81982464239
 30
0.0
 40
10502.46478831743
100
AcDbArc
 50
81.04472444246208
 51
81.10500382892869
  0
ARC
  5
1AEFB
330
18
100
AcDbEntity
  8
01
100
AcDbCircle
 10
2508.42397379321
 20
-269.5388796187957
 30
0.0
 40
32.00030498000669
100
AcDbArc
 50
88.28733451487098
 51
100.2838034636304
  0
ARC
  5
1AEFC
330
18
100
AcDbEntity
  8
01
100
AcDbCircle
 10
2505.404811092035
 20
-296.2577077996847
 30
0.0
 40
58.83929888010844
100
AcDbArc
 50
79.25401531915168
 51
86.12577562565508
  0
ARC
  5
1AEFD
330
18
100
AcDbEntity
  8
01
100
AcDbCircle
 10
2568.456592062777
 20
24.51262768130766
 30
0.0
 40
268.070684731483
100
AcDbArc
 50
258.7973084543748
 51
261.1666285887177
  0
LINE
  5
1AEFE
330
18
100
AcDbEntity
  8
01
100
AcDbLine
 10
2355.533856521729
 20
-591.0527139725199
 30
0.0
 11
2378.162141904159
 21
-591.0527139725199
 31
0.0
  0
LINE
  5
1AEFF
330
18
100
AcDbEntity
  8
01
100
AcDbLine
 10
2357.662141904159
 20
-471.0527139725199
 30
0.0
 11
2357.662141904159
 21
-661.0527139725199
 31
0.0
  0
LINE
  5
1AF00
330
18
100
AcDbEntity
  8
1CENTER
100
AcDbLine
 10
2372.162141904159
 20
-606.0527139725199
 30
0.0
 11
2372.162141904159
 21
-598.0527139725199
 31
0.0
  0
LINE
  5
1AF01
330
18
100
AcDbEntity
  8
01
100
AcDbLine
 10
2477.662141904159
 20
-591.0527139725199
 30
0.0
 11
2537.662141904159
 21
-591.0527139725199
 31
0.0
  0
LINE
  5
1AF02
330
18
100
AcDbEntity
  8
01
100
AcDbLine
 10
2507.662141904159
 20
-561.0527139725199
 30
0.0
 11
2507.662141904159
 21
-621.0527139725199
 31
0.0
  0
LINE
  5
1AF04
330
18
100
AcDbEntity
  8
01
100
AcDbLine
 10
2477.662141904159
 20
-591.0527139725199
 30
0.0
 11
2537.662141904159
 21
-591.0527139725199
 31
0.0
  0
LINE
  5
1AF05
330
18
100
AcDbEntity
  8
01
100
AcDbLine
 10
2507.662141904159
 20
-561.0527139725199
 30
0.0
 11
2507.662141904159
 21
-621.0527139725199
 31
0.0
  0
ARC
  5
1AF06
330
18
100
AcDbEntity
  8
01
100
AcDbCircle
 10
2507.662141904168
 20
-591.052713972524
 30
0.0
 40
28.5
100
AcDbArc
 50
270.0
 51
352.7390661656917
  0
LINE
  5
1AF07
330
18
100
AcDbEntity
  8
01
100
AcDbLine
 10
2357.662141904159
 20
-562.5527139725185
 30
0.0
 11
2361.19463549619
 21
-562.5527139725185
 31
0.0
  0
ARC
  5
1AF08
330
18
100
AcDbEntity
  8
01
100
AcDbCircle
 10
2361.19463549619
 20
-563.0527139725185
 30
0.0
 40
0.5
100
AcDbArc
 50
33.70529578832524
 51
90.0
  0
LINE
  5
1AF09
330
18
100
AcDbEntity
  8
01
100
AcDbLine
 10
2365.595488559316
 20
-566.2718170363258
 30
0.0
 11
2364.651902775494
 21
-566.067136179864
 31
0.0
  0
LINE
  5
1AF0A
330
18
100
AcDbEntity
  8
01
100
AcDbLine
 10
2357.662141904159
 20
-619.5527139725212
 30
0.0
 11
2361.204345554869
 21
-619.5527139725208
 31
0.0
  0
LINE
  5
1AF0B
330
18
100
AcDbEntity
  8
01
100
AcDbLine
 10
2366.46214190416
 20
-600.5527139725144
 30
0.0
 11
2366.462141904157
 21
-581.5527139725249
 31
0.0
  0
LINE
  5
1AF0C
330
18
100
AcDbEntity
  8
01
100
AcDbLine
 10
2363.102115844854
 20
-565.0112588454975
 30
0.0
 11
2361.610586913638
 21
-562.7752533116599
 31
0.0
  0
ARC
  5
1AF0D
330
18
100
AcDbEntity
  8
01
100
AcDbCircle
 10
2365.181872932087
 20
-563.6239555412047
 30
0.0
 40
2.5
100
AcDbArc
 50
213.705295788305
 51
257.7611167116838
  0
ARC
  5
1AF0E
330
18
100
AcDbEntity
  8
01
100
AcDbCircle
 10
2361.204345554869
 20
-619.0527139725208
 30
0.0
 40
0.5
100
AcDbArc
 50
270.0
 51
326.4200165480389
  0
ARC
  5
1AF0F
330
18
100
AcDbEntity
  8
01
100
AcDbCircle
 10
2166.464790894503
 20
-580.523350518907
 30
0.0
 40
200.0
100
AcDbArc
 50
359.7051077906837
 51
3.955803299331962
  0
ARC
  5
1AF10
330
18
100
AcDbEntity
  8
01
100
AcDbCircle
 10
2365.489494527997
 20
-566.7604531640576
 30
0.0
 40
0.5
100
AcDbArc
 50
3.955803299302297
 51
77.76111671164193
  0
ARC
  5
1AF11
330
18
100
AcDbEntity
  8
01
100
AcDbCircle
 10
2166.464790894503
 20
-601.5820774261364
 30
0.0
 40
200.0
100
AcDbArc
 50
356.0441967006681
 51
0.2948922093423685
  0
LINE
  5
1AF12
330
18
100
AcDbEntity
  8
01
100
AcDbLine
 10
2361.46214190416
 20
-562.6302920013858
 30
0.0
 11
2361.46214190416
 21
-619.4811308749566
 31
0.0
  0
LINE
  5
1AF13
330
18
100
AcDbEntity
  8
01
100
AcDbLine
 10
2363.663409029175
 20
-565.6099735107986
 30
0.0
 11
2363.663409029175
 21
-616.4788602675147
 31
0.0
  0
LINE
  5
1AF14
330
18
100
AcDbEntity
  8
01
100
AcDbLine
 10
2365.962141904159
 20
-566.5973444340442
 30
0.0
 11
2365.962141904159
 21
-615.5080835109997
 31
0.0
  0
ARC
  5
1AF15
330
18
100
AcDbEntity
  8
01
100
AcDbCircle
 10
2365.489494527997
 20
-615.3449829640657
 30
0.0
 40
0.5
100
AcDbArc
 50
282.2388832883581
 51
356.0441967006457
  0
LINE
  5
1AF16
330
18
100
AcDbEntity
  8
01
100
AcDbLine
 10
2363.102115844854
 20
-617.0941772826262
 30
0.0
 11
2361.610586913638
 21
-619.3301828164634
 31
0.0
  0
ARC
  5
1AF17
330
18
100
AcDbEntity
  8
01
100
AcDbCircle
 10
2365.181872932087
 20
-618.481480586919
 30
0.0
 40
2.5
100
AcDbArc
 50
102.2388832883162
 51
146.294704211695
  0
LINE
  5
1AF18
330
18
100
AcDbEntity
  8
01
100
AcDbLine
 10
2365.595488559316
 20
-615.8336190917975
 30
0.0
 11
2364.651902775494
 21
-616.0382999482594
 31
0.0
  0
LINE
  5
1AF19
330
18
100
AcDbEntity
  8
01
100
AcDbLine
 10
2357.662141904159
 20
-562.5527139725185
 30
0.0
 11
2357.662141904159
 21
-619.5527139725212
 31
0.0
  0
ARC
  5
1AF1A
330
18
100
AcDbEntity
  8
01
100
AcDbCircle
 10
2515.660912000393
 20
-503.2985274281122
 30
0.0
 40
87.40922869124708
100
AcDbArc
 50
278.9282248524768
 51
284.7493000757078
  0
ARC
  5
1AF1B
330
18
100
AcDbEntity
  8
01
100
AcDbCircle
 10
2525.301079459287
 20
-553.8460777954505
 30
0.0
 40
36.0171446197743
100
AcDbArc
 50
254.4593554362764
 51
276.257062600419
  0
ARC
  5
1AF1C
330
18
100
AcDbEntity
  8
01
100
AcDbCircle
 10
2529.174231928005
 20
-626.3403223402782
 30
0.0
 40
36.58649370408944
100
AcDbArc
 50
93.78921153600727
 51
111.691907751709
  0
LINE
  5
1AF1D
330
18
100
AcDbEntity
  8
01
100
AcDbLine
 10
2319.790659966079
 20
-591.0527139725199
 30
0.0
 11
2297.162374583649
 21
-591.0527139725199
 31
0.0
  0
LINE
  5
1AF1E
330
18
100
AcDbEntity
  8
1CENTER
100
AcDbLine
 10
2303.162374583649
 20
-606.0527139725199
 30
0.0
 11
2303.162374583649
 21
-598.0527139725199
 31
0.0
  0
SPLINE
  5
1AF1F
330
18
100
AcDbEntity
  8
01
100
AcDbSpline
210
0.0
220
0.0
230
1.0
 70
    12
 71
     2
 72
     6
 73
     3
 74
     0
 42
0.0000000001
 43
0.0000000001
 40
0.0
 40
0.0
 40
0.0
 40
6.482204741765053
 40
6.482204741765053
 40
6.482204741765053
 10
2266.374155385684
 20
-577.1261464170237
 30
0.0
 41
1.0
 10
2263.258476456541
 20
-578.0190570449194
 30
0.0
 41
0.9999999999728528
 10
2260.14278436899
 20
-578.9119217571769
 30
0.0
 41
1.0
  0
SPLINE
  5
1AF20
330
18
100
AcDbEntity
  8
01
100
AcDbSpline
210
0.0
220
0.0
230
1.0
 70
    12
 71
     2
 72
     6
 73
     3
 74
     0
 42
0.0000000001
 43
0.0000000001
 40
0.0
 40
0.0
 40
0.0
 40
1.256427847601297
 40
1.256427847601297
 40
1.256427847601297
 10
2254.662312027825
 20
-592.9795057321461
 30
0.0
 41
1.0
 10
2254.661249547994
 20
-592.3512919324302
 30
0.0
 41
0.9999981509877678
 10
2254.662603211897
 20
-591.7230786926701
 30
0.0
 41
1.0
  0
LINE
  5
1AF21
330
18
100
AcDbEntity
  8
01
100
AcDbLine
 10
2266.658665103806
 20
-604.9730818608531
 30
0.0
 11
2266.658665103806
 21
-569.332524093309
 31
0.0
  0
ARC
  5
1AF22
330
18
100
AcDbEntity
  8
01
100
AcDbCircle
 10
2277.976179191727
 20
-698.8718076774038
 30
0.0
 40
100.0214706608298
100
AcDbArc
 50
77.2426917688363
 51
88.74873884124945
  0
ARC
  5
1AF23
330
18
100
AcDbEntity
  8
01
100
AcDbCircle
 10
2277.974791482488
 20
-483.2423916989018
 30
0.0
 40
100.0129711933267
100
AcDbArc
 50
271.2521330901811
 51
286.6687585065932
  0
ARC
  5
1AF24
330
18
100
AcDbEntity
  8
01
100
AcDbCircle
 10
2300.494923494633
 20
-612.3710538487447
 30
0.0
 40
11.06003468591635
100
AcDbArc
 50
58.56924575478839
 51
92.23757873252515
  0
LINE
  5
1AF25
330
18
100
AcDbEntity
  8
01
100
AcDbLine
 10
2308.662374583649
 20
-579.0527082700336
 30
0.0
 11
2308.662374583649
 21
-603.0530020083414
 31
0.0
  0
LINE
  5
1AF26
330
18
100
AcDbEntity
  8
01
100
AcDbLine
 10
2306.662457699354
 20
-579.0685046451671
 30
0.0
 11
2306.662506558329
 21
-603.0892701613283
 31
0.0
  0
ARC
  5
1AF27
330
18
100
AcDbEntity
  8
01
100
AcDbCircle
 10
2307.662161018115
 20
-603.0472317310667
 30
0.0
 40
1.000230209892093
100
AcDbArc
 50
179.3942691040956
 51
359.9868623095999
  0
ARC
  5
1AF28
330
18
100
AcDbEntity
  8
01
100
AcDbCircle
 10
2307.662427326996
 20
-579.0579660040784
 30
0.0
 40
1.0
100
AcDbArc
 50
359.5130120865156
 51
180.5587286473
  0
LINE
  5
1AF29
330
18
100
AcDbEntity
  8
01
100
AcDbLine
 10
2306.662506558329
 20
-603.0892701613283
 30
0.0
 11
2306.262374467115
 21
-602.9338468183959
 31
0.0
  0
ARC
  5
1AF2A
330
18
100
AcDbEntity
  8
01
100
AcDbCircle
 10
2150.265187997445
 20
-530.4333560593813
 30
0.0
 40
114.0973060853399
100
AcDbArc
 50
334.4901169830832
 51
337.6719948413989
  0
ARC
  5
1AF2B
330
18
100
AcDbEntity
  8
01
100
AcDbCircle
 10
2266.673127701107
 20
-569.997572723424
 30
0.0
 40
0.6652058682388038
100
AcDbArc
 50
67.26409790879144
 51
114.4853073393595
  0
ARC
  5
1AF2C
330
18
100
AcDbEntity
  8
01
100
AcDbCircle
 10
2256.842346888619
 20
-574.2087209642158
 30
0.0
 40
1.119770678805215
100
AcDbArc
 50
108.4733540928877
 51
157.4817757114886
  0
ARC
  5
1AF2D
330
18
100
AcDbEntity
  8
01
100
AcDbCircle
 10
2155.955441614932
 20
-292.8364957962284
 30
0.0
 40
297.7926867303047
100
AcDbArc
 50
289.7301643470701
 51
291.7692018921225
  0
ARC
  5
1AF2E
330
18
100
AcDbEntity
  8
01
100
AcDbCircle
 10
2277.479919192779
 20
-574.2153113938656
 30
0.0
 40
1.117568886033102
100
AcDbArc
 50
23.56263214972829
 51
72.18963972463209
  0
ARC
  5
1AF2F
330
18
100
AcDbEntity
  8
01
100
AcDbCircle
 10
2387.254529601124
 20
-239.1410926004736
 30
0.0
 40
351.4802334783013
100
AcDbArc
 50
249.9807447679981
 51
251.8594943063799
  0
ARC
  5
1AF30
330
18
100
AcDbEntity
  8
01
100
AcDbCircle
 10
2280.424237214888
 20
-581.3553371527204
 30
0.0
 40
1.894620559952811
100
AcDbArc
 50
201.6517843206495
 51
261.9917085486665
  0
ARC
  5
1AF31
330
18
100
AcDbEntity
  8
01
100
AcDbCircle
 10
2280.254995278087
 20
-600.5357960647151
 30
0.0
 40
1.664302641012247
100
AcDbArc
 50
93.2604880755514
 51
163.0082915736493
  0
ARC
  5
1AF32
330
18
100
AcDbEntity
  8
01
100
AcDbCircle
 10
2384.3091821198
 20
-530.2720335190814
 30
0.0
 40
114.3967617239392
100
AcDbArc
 50
202.3476309451417
 51
205.5478682578903
  0
ARC
  5
1AF33
330
18
100
AcDbEntity
  8
01
100
AcDbCircle
 10
2263.072533040596
 20
-586.3251408874747
 30
0.0
 40
10.14146238656113
100
AcDbArc
 50
189.9884506825409
 51
208.8874052998733
  0
ARC
  5
1AF34
330
18
100
AcDbEntity
  8
01
100
AcDbCircle
 10
2296.928735346512
 20
-580.8249165251808
 30
0.0
 40
44.44084366360534
100
AcDbArc
 50
183.4686959415066
 51
189.4011944762302
  0
ARC
  5
1AF35
330
18
100
AcDbEntity
  8
01
100
AcDbCircle
 10
2263.88272950282
 20
-583.3754958260378
 30
0.0
 40
11.31426684038564
100
AcDbArc
 50
170.1026987768606
 51
180.7000360972509
  0
ARC
  5
1AF36
330
18
100
AcDbEntity
  8
01
100
AcDbCircle
 10
2260.053606320814
 20
-582.4100572279002
 30
0.0
 40
7.382002167728297
100
AcDbArc
 50
157.3839159924996
 51
172.3767341641998
  0
ARC
  5
1AF37
330
18
100
AcDbEntity
  8
01
100
AcDbCircle
 10
2245.228812271561
 20
-588.6733946065277
 30
0.0
 40
13.01473394257641
100
AcDbArc
 50
25.54628468607515
 51
37.45761120108411
  0
ARC
  5
1AF38
330
18
100
AcDbEntity
  8
01
100
AcDbCircle
 10
2251.664435072508
 20
-583.7145707159488
 30
0.0
 40
4.890335769639966
100
AcDbArc
 50
37.19574046818813
 51
64.66989751409045
  0
ARC
  5
1AF39
330
18
100
AcDbEntity
  8
01
100
AcDbCircle
 10
2254.008105335838
 20
-579.9401057063859
 30
0.0
 40
0.8523387062045001
100
AcDbArc
 50
134.8378717505478
 51
153.4884456841091
  0
ARC
  5
1AF3A
330
18
100
AcDbEntity
  8
01
100
AcDbCircle
 10
2253.602490484195
 20
-579.5288888351205
 30
0.0
 40
0.274752412209964
100
AcDbArc
 50
92.61475660169198
 51
135.3231054718293
  0
ARC
  5
1AF3B
330
18
100
AcDbEntity
  8
01
100
AcDbCircle
 10
2253.577420312543
 20
-579.6743319704582
 30
0.0
 40
0.4200965702907623
100
AcDbArc
 50
64.74084172644223
 51
88.29001145536627
  0
LINE
  5
1AF3C
330
18
100
AcDbEntity
  8
01
100
AcDbLine
 10
2259.704359645101
 20
-579.2924607563235
 30
0.0
 11
2259.704359645101
 21
-602.7772341786566
 31
0.0
  0
LINE
  5
1AF3D
330
18
100
AcDbEntity
  8
01
100
AcDbLine
 10
2278.662324934249
 20
-602.1795290002354
 30
0.0
 11
2278.662324934249
 21
-579.935022640684
 31
0.0
  0
ARC
  5
1AF3E
330
18
100
AcDbEntity
  8
01
100
AcDbCircle
 10
2277.662324934249
 20
-579.935022640684
 30
0.0
 40
1.0
100
AcDbArc
 50
0.0
 51
80.3150945600177
  0
LINE
  5
1AF3F
330
18
100
AcDbEntity
  8
01
100
AcDbLine
 10
2266.958110091734
 20
-577.0937617398812
 30
0.0
 11
2277.830554624617
 21
-578.9492748173142
 31
0.0
  0
LINE
  5
1AF40
330
18
100
AcDbEntity
  8
01
100
AcDbLine
 10
2266.958145427064
 20
-604.9891080841315
 30
0.0
 11
2277.827761643542
 21
-603.1657494092805
 31
0.0
  0
ARC
  5
1AF41
330
18
100
AcDbEntity
  8
01
100
AcDbCircle
 10
2277.662324934249
 20
-602.1795290002354
 30
0.0
 40
1.0
100
AcDbArc
 50
279.5226047313702
 51
0.0
  0
ARC
  5
1AF42
330
18
100
AcDbEntity
  8
01
100
AcDbCircle
 10
2271.351173768185
 20
-583.1911291798496
 30
0.0
 40
10.38435824665062
100
AcDbArc
 50
0.0370017489128963
 51
20.1886761672832
  0
ARC
  5
1AF43
330
18
100
AcDbEntity
  8
01
100
AcDbCircle
 10
2308.250956913676
 20
-589.1123930307357
 30
0.0
 40
33.53428282041581
100
AcDbArc
 50
152.8297010704703
 51
161.9113988386334
  0
ARC
  5
1AF44
330
18
100
AcDbEntity
  8
01
100
AcDbCircle
 10
2278.479020173471
 20
-573.8358211946887
 30
0.0
 40
0.0718565721831292
100
AcDbArc
 50
69.39408498439576
 51
149.5498800086749
  0
ARC
  5
1AF45
330
18
100
AcDbEntity
  8
01
100
AcDbCircle
 10
2255.835395396168
 20
-573.7968352787747
 30
0.0
 40
0.0322633681526885
100
AcDbArc
 50
53.40053126071958
 51
148.2842348911966
  0
ARC
  5
1AF46
330
18
100
AcDbEntity
  8
01
100
AcDbCircle
 10
2255.536798480648
 20
-574.1483739014956
 30
0.0
 40
0.4934359170330506
100
AcDbArc
 50
26.77211184500003
 51
49.90012689600435
  0
ARC
  5
1AF47
330
18
100
AcDbEntity
  8
01
100
AcDbCircle
 10
2215.299609474258
 20
-593.5131370352609
 30
0.0
 40
45.14786233942119
100
AcDbArc
 50
16.53636896987889
 51
25.71161549160055
  0
ARC
  5
1AF48
330
18
100
AcDbEntity
  8
01
100
AcDbCircle
 10
2266.747597742859
 20
-578.5789164627876
 30
0.0
 40
1.5
100
AcDbArc
 50
81.93238832987535
 51
104.416071850346
  0
ARC
  5
1AF49
330
18
100
AcDbEntity
  8
01
100
AcDbCircle
 10
2266.745865449676
 20
-603.5042049858793
 30
0.0
 40
1.5
100
AcDbArc
 50
255.6374439949042
 51
278.1358107743832
  0
LINE
  5
1AF4A
330
18
100
AcDbEntity
  8
01
100
AcDbLine
 10
2260.130230960495
 20
-603.1842902849256
 30
0.0
 11
2266.373780182669
 21
-604.9573232033953
 31
0.0
  0
ARC
  5
1AF4B
330
18
100
AcDbEntity
  8
01
100
AcDbCircle
 10
4151.285278772183
 20
832.0645529224636
 30
0.0
 40
2374.412548442643
100
AcDbArc
 50
216.9866768253054
 51
217.1741302901062
  0
ARC
  5
1AF4C
330
18
100
AcDbEntity
  8
01
100
AcDbCircle
 10
6047.930393442865
 20
-3124.120948316109
 30
0.0
 40
4563.80964354034
100
AcDbArc
 50
146.111900061733
 51
146.2184362644946
  0
ARC
  5
1AF4D
330
18
100
AcDbEntity
  8
01
100
AcDbCircle
 10
2260.341170886369
 20
-579.9813706370459
 30
0.0
 40
1.087693944513467
100
AcDbArc
 50
100.5091097582302
 51
151.6725863386345
  0
ARC
  5
1AF4E
330
18
100
AcDbEntity
  8
01
100
AcDbCircle
 10
2260.497772668711
 20
-601.8049951330048
 30
0.0
 40
1.427424962438384
100
AcDbArc
 50
216.2520363268019
 51
255.0790673772685
  0
ARC
  5
1AF4F
330
18
100
AcDbEntity
  8
01
100
AcDbCircle
 10
2282.696376738241
 20
-583.8068583848998
 30
0.0
 40
4.990953061929885
100
AcDbArc
 50
115.3585537372609
 51
143.9275248031122
  0
ARC
  5
1AF50
330
18
100
AcDbEntity
  8
01
100
AcDbCircle
 10
2280.726520380581
 20
-579.6291512327024
 30
0.0
 40
0.3722475939957445
100
AcDbArc
 50
85.0397491227419
 51
116.7722036202714
  0
ARC
  5
1AF51
330
18
100
AcDbEntity
  8
01
100
AcDbCircle
 10
2280.695405408483
 20
-579.5748374734502
 30
0.0
 40
0.3228071405838271
100
AcDbArc
 50
38.69459903819959
 51
78.69123942034926
  0
ARC
  5
1AF52
330
18
100
AcDbEntity
  8
01
100
AcDbCircle
 10
2280.132286619993
 20
-580.0631343311778
 30
0.0
 40
1.067979056617281
100
AcDbArc
 50
27.37627828539797
 51
40.25414906387075
  0
LINE
  5
1AF53
330
18
100
AcDbEntity
  8
01
100
AcDbLine
 10
2254.658727895289
 20
-586.5140966100115
 30
0.0
 11
2254.662873285285
 21
-596.451600716331
 31
0.0
  0
LINE
  5
1AF54
330
18
100
AcDbEntity
  8
01
100
AcDbLine
 10
2254.146349409618
 20
-591.6958083717908
 30
0.0
 11
2254.662873285285
 21
-596.451600716331
 31
0.0
  0
LINE
  5
1AF55
330
18
100
AcDbEntity
  8
01
100
AcDbLine
 10
2254.146349409618
 20
-591.6958083717908
 30
0.0
 11
2254.658727895289
 21
-586.5140966101625
 31
0.0
  0
LINE
  5
1AF56
330
18
100
AcDbEntity
  8
01
100
AcDbLine
 10
2319.790659966079
 20
-591.0527139725199
 30
0.0
 11
2297.162374583649
 21
-591.0527139725199
 31
0.0
  0
LINE
  5
1AF57
330
18
100
AcDbEntity
  8
1CENTER
100
AcDbLine
 10
2303.162374583649
 20
-606.0527139725199
 30
0.0
 11
2303.162374583649
 21
-598.0527139725199
 31
0.0
  0
LINE
  5
1AF58
330
18
100
AcDbEntity
  8
01
  6
BYBLOCK
100
AcDbLine
 10
2215.962374583653
 20
-607.0527139725203
 30
0.0
 11
2191.247327413795
 21
-607.0527139725199
 31
0.0
  0
LINE
  5
1AF59
330
18
100
AcDbEntity
  8
01
  6
BYBLOCK
100
AcDbLine
 10
2149.662374583652
 20
-549.0540429522879
 30
0.0
 11
2149.662374583652
 21
-568.9563341785546
 31
0.0
  0
LINE
  5
1AF5A
330
18
100
AcDbEntity
  8
01
100
AcDbLine
 10
2197.662374583652
 20
-591.0527139725199
 30
0.0
 11
2137.662374583652
 21
-591.0527139725199
 31
0.0
  0
LINE
  5
1AF5B
330
18
100
AcDbEntity
  8
01
100
AcDbLine
 10
2167.662374583652
 20
-561.0527139725199
 30
0.0
 11
2167.662374583652
 21
-621.0527139725199
 31
0.0
  0
ARC
  5
1AF5C
330
18
100
AcDbEntity
  8
01
100
AcDbCircle
 10
2167.662374583674
 20
-591.0527139725067
 30
0.0
 40
28.4999999999893
100
AcDbArc
 50
187.2609338344577
 51
163.3649615117078
  0
ARC
  5
1AF5D
330
18
100
AcDbEntity
  8
01
100
AcDbCircle
 10
2167.662374583652
 20
-591.0527139725199
 30
0.0
 40
24.70000000000276
100
AcDbArc
 50
191.5943147639657
 51
161.4411939443526
  0
ARC
  5
1AF5E
330
18
100
AcDbEntity
  8
01
100
AcDbCircle
 10
2167.662374583652
 20
-591.0527139725199
 30
0.0
 40
25.20000000001777
100
AcDbArc
 50
190.9194270717258
 51
161.8492806258898
  0
ARC
  5
1AF5F
330
18
100
AcDbEntity
  8
01
100
AcDbCircle
 10
2167.836637818419
 20
-590.4357696571536
 30
0.0
 40
13.94598431367899
100
AcDbArc
 50
359.8279767103722
 51
90.10076970586398
  0
ARC
  5
1AF60
330
18
100
AcDbEntity
  8
01
100
AcDbCircle
 10
2167.803615743159
 20
-590.4346816556971
 30
0.0
 40
13.97900954166145
100
AcDbArc
 50
270.0348160260432
 51
359.8239237012576
  0
ARC
  5
1AF61
330
18
100
AcDbEntity
  8
01
100
AcDbCircle
 10
2168.051920064093
 20
-588.9648758640691
 30
0.0
 40
15.45067390946208
100
AcDbArc
 50
248.0797802906608
 51
269.1106764725732
  0
ARC
  5
1AF62
330
18
100
AcDbEntity
  8
01
100
AcDbCircle
 10
1972.435667905603
 20
-1065.961066137175
 30
0.0
 40
500.0989761460429
100
AcDbArc
 50
67.68976580796622
 51
70.01588241777719
  0
ARC
  5
1AF63
330
18
100
AcDbEntity
  8
01
100
AcDbCircle
 10
2167.921445026234
 20
-591.4111010854843
 30
0.0
 40
14.92169473979297
100
AcDbArc
 50
90.41982383759141
 51
112.1978077983918
  0
ARC
  5
1AF64
330
18
100
AcDbEntity
  8
01
100
AcDbCircle
 10
1240.458529924269
 20
1859.000983142549
 30
0.0
 40
2605.141777732706
100
AcDbArc
 50
290.4947326129634
 51
290.7228859527978
  0
ARC
  5
1AF65
330
18
100
AcDbEntity
  8
01
100
AcDbCircle
 10
2143.517983998817
 20
-561.2674004651934
 30
0.0
 40
21.93596351396335
100
AcDbArc
 50
269.5594459364457
 51
294.3834978024375
  0
ARC
  5
1AF66
330
18
100
AcDbEntity
  8
01
100
AcDbCircle
 10
2144.725933833891
 20
-555.186619150836
 30
0.0
 40
28.04989712821768
100
AcDbArc
 50
252.7530368526882
 51
267.1869413019103
  0
ARC
  5
1AF67
330
18
100
AcDbEntity
  8
01
100
AcDbCircle
 10
1986.659438067244
 20
-1164.004118275849
 30
0.0
 40
600.9847151582661
100
AcDbArc
 50
75.57134218538188
 51
81.47544365462723
  0
ARC
  5
1AF68
330
18
100
AcDbEntity
  8
01
100
AcDbCircle
 10
2078.256400030569
 20
-784.6402597793602
 30
0.0
 40
199.5793381225669
100
AcDbArc
 50
70.9647027404154
 51
90.72089149683006
  0
ARC
  5
1AF69
330
18
100
AcDbEntity
  8
01
100
AcDbCircle
 10
2067.277649362176
 20
-610.200059715852
 30
0.0
 40
41.41610569670179
100
AcDbArc
 50
78.20241171974857
 51
95.55531086390646
  0
ARC
  5
1AF6A
330
18
100
AcDbEntity
  8
01
100
AcDbCircle
 10
2065.711401205
 20
-595.2605037376946
 30
0.0
 40
26.39533485569224
100
AcDbArc
 50
95.31079646256839
 51
121.5712778660503
  0
ARC
  5
1AF6B
330
18
100
AcDbEntity
  8
01
100
AcDbCircle
 10
2058.707959636687
 20
-584.8823370572508
 30
0.0
 40
13.89676766828562
100
AcDbArc
 50
119.3720578523627
 51
160.2465458205385
  0
ARC
  5
1AF6C
330
18
100
AcDbEntity
  8
01
100
AcDbCircle
 10
2060.94469799506
 20
-581.1729160361391
 30
0.0
 40
16.35433971603725
100
AcDbArc
 50
201.0519861476561
 51
236.389672556713
  0
ARC
  5
1AF6D
330
18
100
AcDbEntity
  8
01
100
AcDbCircle
 10
2055.548679524066
 20
-583.5402174498248
 30
0.0
 40
10.47161562455104
100
AcDbArc
 50
161.3156938661435
 51
199.5692239780911
  0
ARC
  5
1AF6E
330
18
100
AcDbEntity
  8
01
100
AcDbCircle
 10
2066.844519689987
 20
-572.853134128516
 30
0.0
 40
26.55081825004757
100
AcDbArc
 50
235.7246753778647
 51
250.1690715217741
  0
ARC
  5
1AF6F
330
18
100
AcDbEntity
  8
01
100
AcDbCircle
 10
2055.72022925114
 20
-594.2489677930652
 30
0.0
 40
5.205398371516095
100
AcDbArc
 50
325.9357867289447
 51
340.7272244308971
  0
ARC
  5
1AF70
330
18
100
AcDbEntity
  8
01
100
AcDbCircle
 10
2058.505285039414
 20
-596.0298240266837
 30
0.0
 40
1.902618980417263
100
AcDbArc
 50
288.3291185871387
 51
323.3845630962989
  0
ARC
  5
1AF71
330
18
100
AcDbEntity
  8
01
100
AcDbCircle
 10
2058.479926991174
 20
-595.9799977649426
 30
0.0
 40
1.957909845661392
100
AcDbArc
 50
250.8381527868451
 51
288.5750055625853
  0
ARC
  5
1AF72
330
18
100
AcDbEntity
  8
01
100
AcDbCircle
 10
2090.562578008986
 20
-607.4375221827271
 30
0.0
 40
32.05146116233108
100
AcDbArc
 50
152.5928743183171
 51
159.0302249827415
  0
ARC
  5
1AF73
330
18
100
AcDbEntity
  8
01
100
AcDbCircle
 10
2075.044240667322
 20
-599.9826491041048
 30
0.0
 40
14.85266265433989
100
AcDbArc
 50
119.4379620279024
 51
150.5667261317388
  0
ARC
  5
1AF74
330
18
100
AcDbEntity
  8
01
100
AcDbCircle
 10
2075.307355413182
 20
-600.2196867001243
 30
0.0
 40
15.18882950979673
100
AcDbArc
 50
104.309050112394
 51
119.8628856813755
  0
ARC
  5
1AF75
330
18
100
AcDbEntity
  8
01
100
AcDbCircle
 10
2075.91118402243
 20
-607.5803536969901
 30
0.0
 40
22.50424590357228
100
AcDbArc
 50
90.42215848940984
 51
101.165435261514
  0
ARC
  5
1AF76
330
18
100
AcDbEntity
  8
01
100
AcDbCircle
 10
2056.553842103935
 20
-583.5096403936244
 30
0.0
 40
7.102865038882729
100
AcDbArc
 50
127.7239333968219
 51
232.2760666031781
  0
ARC
  5
1AF77
330
18
100
AcDbEntity
  8
01
100
AcDbCircle
 10
2064.139577004095
 20
-591.839685913771
 30
0.0
 40
18.35529211194334
100
AcDbArc
 50
101.7637271829805
 51
130.5446260620893
  0
ARC
  5
1AF78
330
18
100
AcDbEntity
  8
01
100
AcDbCircle
 10
2008.755849029954
 20
-1140.500356022663
 30
0.0
 40
570.5476810445963
100
AcDbArc
 50
80.89396103713247
 51
83.84753421501199
  0
ARC
  5
1AF79
330
18
100
AcDbEntity
  8
01
100
AcDbCircle
 10
2010.46640236286
 20
-1132.846536047741
 30
0.0
 40
562.7198080770243
100
AcDbArc
 50
78.40573493549961
 51
80.94259868527577
  0
ARC
  5
1AF7A
330
18
100
AcDbEntity
  8
01
100
AcDbCircle
 10
2067.121635437511
 20
-603.2479574822495
 30
0.0
 40
30.13776828239431
100
AcDbArc
 50
84.7027551393718
 51
102.8922131065393
  0
ARC
  5
1AF7B
330
18
100
AcDbEntity
  8
01
100
AcDbCircle
 10
2044.580487988628
 20
-977.7884985911008
 30
0.0
 40
403.9757185136045
100
AcDbArc
 50
76.44889329584278
 51
78.72548555128394
  0
ARC
  5
1AF7C
330
18
100
AcDbEntity
  8
01
100
AcDbCircle
 10
2143.752843823645
 20
-562.7415910961362
 30
0.0
 40
22.76962770925222
100
AcDbArc
 50
258.5610601230442
 51
292.9256537595579
  0
ARC
  5
1AF7D
330
18
100
AcDbEntity
  8
01
100
AcDbCircle
 10
2167.808946933978
 20
-590.3617887479576
 30
0.0
 40
11.57456072410945
100
AcDbArc
 50
249.0694803306806
 51
112.4040355105019
  0
ARC
  5
1AF7E
330
18
100
AcDbEntity
  8
01
100
AcDbCircle
 10
1605.391677399795
 20
887.9068648482759
 30
0.0
 40
1570.071834906941
100
AcDbArc
 50
290.3979602627389
 51
290.8180498116819
  0
ARC
  5
1AF7F
330
18
100
AcDbEntity
  8
01
100
AcDbCircle
 10
2211.0673879249
 20
-467.3199129126359
 30
0.0
 40
141.99529507985
100
AcDbArc
 50
242.7711049107823
 51
250.5024474798788
  0
ARC
  5
1AF80
330
18
100
AcDbEntity
  8
01
100
AcDbCircle
 10
2065.890700236429
 20
-891.9911539712147
 30
0.0
 40
313.5012052155226
100
AcDbArc
 50
84.130542029749
 51
88.19232554561968
  0
ARC
  5
1AF81
330
18
100
AcDbEntity
  8
01
100
AcDbCircle
 10
2074.707698918414
 20
-606.5952183564212
 30
0.0
 40
27.96981557512762
100
AcDbArc
 50
87.80290452006822
 51
103.0167999980269
  0
ARC
  5
1AF82
330
18
100
AcDbEntity
  8
01
100
AcDbCircle
 10
2072.212645645889
 20
-596.1000322352346
 30
0.0
 40
17.18246618931606
100
AcDbArc
 50
102.7932546372647
 51
125.2859001646182
  0
ARC
  5
1AF83
330
18
100
AcDbEntity
  8
01
100
AcDbCircle
 10
2067.193507171362
 20
-587.8436251179977
 30
0.0
 40
7.573492198737808
100
AcDbArc
 50
130.3791248451077
 51
166.4317451638478
  0
ARC
  5
1AF84
330
18
100
AcDbEntity
  8
01
100
AcDbCircle
 10
2085.222388676743
 20
-590.7772438853857
 30
0.0
 40
25.82423159006798
100
AcDbArc
 50
169.4903093488585
 51
178.8863389004042
  0
ARC
  5
1AF85
330
18
100
AcDbEntity
  8
01
100
AcDbCircle
 10
2056.24067465441
 20
-590.6868295294493
 30
0.0
 40
3.166391007131512
100
AcDbArc
 50
331.2688334485032
 51
358.8701880813534
  0
ARC
  5
1AF86
330
18
100
AcDbEntity
  8
01
100
AcDbCircle
 10
2057.599718102502
 20
-591.3488174673874
 30
0.0
 40
1.658047719275195
100
AcDbArc
 50
299.6431617470349
 51
328.7521354798737
  0
ARC
  5
1AF87
330
18
100
AcDbEntity
  8
01
100
AcDbCircle
 10
2057.86706001762
 20
-591.6318026691173
 30
0.0
 40
1.283202743813971
100
AcDbArc
 50
259.8160262795394
 51
295.5143492252016
  0
ARC
  5
1AF88
330
18
100
AcDbEntity
  8
01
100
AcDbCircle
 10
2058.978253720216
 20
-587.3601409036763
 30
0.0
 40
5.694099895032221
100
AcDbArc
 50
235.6427193082868
 51
256.4087645094864
  0
LINE
  5
1AF89
330
18
100
AcDbEntity
  8
01
100
AcDbLine
 10
2059.40303511788
 20
-590.2753285340967
 30
0.0
 11
2059.40645007727
 21
-590.7492633508326
 31
0.0
  0
ARC
  5
1AF8A
330
18
100
AcDbEntity
  8
01
100
AcDbCircle
 10
2080.370243049868
 20
-558.5986849914865
 30
0.0
 40
41.53484231037284
100
AcDbArc
 50
227.3092208309992
 51
233.6721123833154
  0
ARC
  5
1AF8B
330
18
100
AcDbEntity
  8
01
100
AcDbCircle
 10
2086.788756090956
 20
-724.431750365425
 30
0.0
 40
144.7292747583879
100
AcDbArc
 50
73.537520036678
 51
85.57704799741306
  0
ARC
  5
1AF8C
330
18
100
AcDbEntity
  8
01
100
AcDbCircle
 10
2095.380479613804
 20
-685.3359073672244
 30
0.0
 40
104.8398262811098
100
AcDbArc
 50
61.06863981568367
 51
71.98537976706234
  0
ARC
  5
1AF8D
330
18
100
AcDbEntity
  8
01
100
AcDbCircle
 10
2081.679906198614
 20
-809.9318504230249
 30
0.0
 40
228.9894694775988
100
AcDbArc
 50
75.91421402006651
 51
78.37992856505805
  0
ARC
  5
1AF8E
330
18
100
AcDbEntity
  8
01
100
AcDbCircle
 10
2150.023437028524
 20
-553.8460777954505
 30
0.0
 40
36.01714461977429
100
AcDbArc
 50
263.7429373995781
 51
285.5406445637212
  0
ARC
  5
1AF8F
330
18
100
AcDbEntity
  8
01
100
AcDbCircle
 10
2150.831166061163
 20
-555.4636308116222
 30
0.0
 40
34.24405615753379
100
AcDbArc
 50
284.963693977467
 51
296.242296571657
  0
ARC
  5
1AF90
330
18
100
AcDbEntity
  8
01
100
AcDbCircle
 10
2133.837664310796
 20
-652.1844353776345
 30
0.0
 40
65.17874511740271
100
AcDbArc
 50
60.46001509298635
 51
66.64792797801809
  0
ARC
  5
1AF91
330
18
100
AcDbEntity
  8
01
100
AcDbCircle
 10
2146.150284559807
 20
-626.3403223402782
 30
0.0
 40
36.58649370408943
100
AcDbArc
 50
68.30809224829103
 51
86.21078846399274
  0
ARC
  5
1AF92
330
18
100
AcDbEntity
  8
01
100
AcDbCircle
 10
2167.77936935625
 20
-590.8676096887615
 30
0.0
 40
5.025337376345222
100
AcDbArc
 50
49.29298825988884
 51
111.0690674101416
  0
ARC
  5
1AF93
330
18
100
AcDbEntity
  8
01
100
AcDbCircle
 10
2167.778783730756
 20
-590.6111071002468
 30
0.0
 40
5.191315342240316
100
AcDbArc
 50
249.6419034355172
 51
309.1573280775316
  0
ARC
  5
1AF94
330
18
100
AcDbEntity
  8
01
100
AcDbCircle
 10
2167.697225507781
 20
-590.8473303782274
 30
0.0
 40
5.064100820383228
100
AcDbArc
 50
311.5612075952618
 51
48.4387923958855
  0
LINE
  5
1AF95
330
18
100
AcDbEntity
  8
01
100
AcDbLine
 10
2197.662374583652
 20
-591.0527139725199
 30
0.0
 11
2137.662374583652
 21
-591.0527139725199
 31
0.0
  0
LINE
  5
1AF96
330
18
100
AcDbEntity
  8
01
100
AcDbLine
 10
2167.662374583652
 20
-561.0527139725199
 30
0.0
 11
2167.662374583652
 21
-621.0527139725199
 31
0.0
  0
LINE
  5
1AF97
330
18
100
AcDbEntity
  8
01
100
AcDbLine
 10
2197.662374583652
 20
-591.0527139725199
 30
0.0
 11
2137.662374583652
 21
-591.0527139725199
 31
0.0
  0
LINE
  5
1AF98
330
18
100
AcDbEntity
  8
01
100
AcDbLine
 10
2167.662374583652
 20
-561.0527139725199
 30
0.0
 11
2167.662374583652
 21
-621.0527139725199
 31
0.0
  0
ARC
  5
1AF99
330
18
100
AcDbEntity
  8
01
100
AcDbCircle
 10
2167.662374583643
 20
-591.052713972524
 30
0.0
 40
28.49999999999999
100
AcDbArc
 50
187.2609338343084
 51
270.0
  0
ARC
  5
1AF9A
330
18
100
AcDbEntity
  8
01
100
AcDbCircle
 10
2159.663604487419
 20
-503.2985274281122
 30
0.0
 40
87.40922869124704
100
AcDbArc
 50
255.2506999242922
 51
261.0717751475232
  0
ARC
  5
1AF9B
330
18
100
AcDbEntity
  8
01
100
AcDbCircle
 10
2150.023437028524
 20
-553.8460777954505
 30
0.0
 40
36.01714461977429
100
AcDbArc
 50
263.7429373995809
 51
285.5406445637236
  0
ARC
  5
1AF9C
330
18
100
AcDbEntity
  8
01
100
AcDbCircle
 10
2146.150284559807
 20
-626.3403223402782
 30
0.0
 40
36.58649370408943
100
AcDbArc
 50
68.30809224829103
 51
86.21078846399274
  0
TEXT
  5
1B17F
330
18
100
AcDbEntity
  8
01
  6
CONTINUOUS
100
AcDbText
 10
2450.515302997178
 20
-378.4693806402152
 30
0.0
 40
4.55
  1
材質：真鍮
100
AcDbText
1001
ACADANNOTATIVE
1000
AnnotativeData
1002
{
1070
     1
1070
     0
1002
}
  0
TEXT
  5
1B180
330
18
100
AcDbEntity
  8
01
  6
CONTINUOUS
100
AcDbText
 10
2428.978636330511
 20
-386.0527139735485
 30
0.0
 40
4.55
  1
仕上げ：各種メッキ
100
AcDbText
1001
ACADANNOTATIVE
1000
AnnotativeData
1002
{
1070
     1
1070
     0
1002
}
  0
LINE
  5
1B181
330
18
100
AcDbEntity
  8
01
100
AcDbLine
 10
2445.662141904159
 20
-563.0527146706512
 30
0.0
 11
2445.662141904159
 21
-460.3312218878319
 31
0.0
1001
ACAD
1000
DSTYLE
1002
{
1070
    40
1040
1.3
1070
    45
1040
0.5
1002
}
  0
LINE
  5
1B182
330
18
100
AcDbEntity
  8
01
100
AcDbLine
 10
2456.662141904159
 20
-505.1813966213625
 30
0.0
 11
2456.662141904159
 21
-460.3312218878319
 31
0.0
1001
ACAD
1000
DSTYLE
1002
{
1070
    40
1040
1.3
1070
    45
1040
0.5
1002
}
  0
LINE
  5
1B183
330
18
100
AcDbEntity
  8
01
100
AcDbLine
 10
2448.262141904159
 20
-461.6312218878319
 30
0.0
 11
2454.062141904159
 21
-461.6312218878319
 31
0.0
1001
ACAD
1000
DSTYLE
1002
{
1070
    40
1040
1.3
1070
    45
1040
0.5
1002
}
  0
LINE
  5
1B187
330
18
100
AcDbEntity
  8
01
100
AcDbLine
 10
2525.662141904159
 20
-533.0527139725199
 30
0.0
 11
2553.96214190416
 21
-533.0527139725199
 31
0.0
1001
ACAD
1000
DSTYLE
1002
{
1070
    40
1040
1.3
1070
    45
1040
0.5
1002
}
  0
LINE
  5
1B188
330
18
100
AcDbEntity
  8
01
100
AcDbLine
 10
2525.662141904159
 20
-607.0527139725203
 30
0.0
 11
2553.96214190416
 21
-607.0527139725203
 31
0.0
1001
ACAD
1000
DSTYLE
1002
{
1070
    40
1040
1.3
1070
    45
1040
0.5
1002
}
  0
LINE
  5
1B189
330
18
100
AcDbEntity
  8
01
100
AcDbLine
 10
2552.662141904159
 20
-535.6527139725199
 30
0.0
 11
2552.662141904159
 21
-604.4527139725203
 31
0.0
1001
ACAD
1000
DSTYLE
1002
{
1070
    40
1040
1.3
1070
    45
1040
0.5
1002
}
  0
LINE
  5
1B18D
330
18
100
AcDbEntity
  8
01
100
AcDbLine
 10
2525.662141904159
 20
-533.0527139725199
 30
0.0
 11
2525.662141904159
 21
-450.2513544197837
 31
0.0
1001
ACAD
1000
DSTYLE
1002
{
1070
    40
1040
1.3
1070
    45
1040
0.5
1002
}
  0
LINE
  5
1B18E
330
18
100
AcDbEntity
  8
01
100
AcDbLine
 10
2456.662141904159
 20
-505.1813966213625
 30
0.0
 11
2456.662141904159
 21
-450.2513544197837
 31
0.0
1001
ACAD
1000
DSTYLE
1002
{
1070
    40
1040
1.3
1070
    45
1040
0.5
1002
}
  0
LINE
  5
1B18F
330
18
100
AcDbEntity
  8
01
100
AcDbLine
 10
2523.062141904159
 20
-451.5513544197837
 30
0.0
 11
2459.262141904159
 21
-451.5513544197837
 31
0.0
1001
ACAD
1000
DSTYLE
1002
{
1070
    40
1040
1.3
1070
    45
1040
0.5
1002
}
  0
LINE
  5
1B193
330
18
100
AcDbEntity
  8
01
100
AcDbLine
 10
2456.662141904159
 20
-505.1813966213625
 30
0.0
 11
2456.662141904159
 21
-460.3312218878319
 31
0.0
1001
ACAD
1000
DSTYLE
1002
{
1070
    40
1040
1.3
1070
    45
1040
0.5
1002
}
  0
LINE
  5
1B194
330
18
100
AcDbEntity
  8
01
100
AcDbLine
 10
2507.662141904159
 20
-541.0527139725199
 30
0.0
 11
2507.662141904159
 21
-460.3312218878319
 31
0.0
1001
ACAD
1000
DSTYLE
1002
{
1070
    40
1040
1.3
1070
    45
1040
0.5
1002
}
  0
LINE
  5
1B195
330
18
100
AcDbEntity
  8
01
100
AcDbLine
 10
2459.262141904159
 20
-461.6312218878319
 30
0.0
 11
2505.062141904159
 21
-461.6312218878319
 31
0.0
1001
ACAD
1000
DSTYLE
1002
{
1070
    40
1040
1.3
1070
    45
1040
0.5
1002
}
  0
LINE
  5
1B199
330
18
100
AcDbEntity
  8
01
100
AcDbLine
 10
2325.162258243904
 20
-511.0527139725203
 30
0.0
 11
2325.162258243904
 21
-460.3312218878323
 31
0.0
1001
ACAD
1000
DSTYLE
1002
{
1070
    40
1040
1.3
1070
    45
1040
0.5
1002
}
  0
LINE
  5
1B19A
330
18
100
AcDbEntity
  8
01
100
AcDbLine
 10
2350.162258243904
 20
-511.0527139725203
 30
0.0
 11
2350.162258243904
 21
-460.3312218878323
 31
0.0
1001
ACAD
1000
DSTYLE
1002
{
1070
    40
1040
1.3
1070
    45
1040
0.5
1002
}
  0
LINE
  5
1B19B
330
18
100
AcDbEntity
  8
01
100
AcDbLine
 10
2327.762258243904
 20
-461.6312218878323
 30
0.0
 11
2347.562258243904
 21
-461.6312218878323
 31
0.0
1001
ACAD
1000
DSTYLE
1002
{
1070
    40
1040
1.3
1070
    45
1040
0.5
1002
}
  0
LINE
  5
1B19F
330
18
100
AcDbEntity
  8
01
100
AcDbLine
 10
2343.46419784714
 20
-513.0522688281043
 30
0.0
 11
2423.750329015347
 21
-513.0522688281043
 31
0.0
1001
ACAD
1000
DSTYLE
1002
{
1070
    40
1040
1.3
1070
    45
1040
0.5
1002
}
  0
LINE
  5
1B1A0
330
18
100
AcDbEntity
  8
01
100
AcDbLine
 10
2343.46419784714
 20
-627.0522688281043
 30
0.0
 11
2423.750329015347
 21
-627.0522688281043
 31
0.0
1001
ACAD
1000
DSTYLE
1002
{
1070
    40
1040
1.3
1070
    45
1040
0.5
1002
}
  0
LINE
  5
1B1A1
330
18
100
AcDbEntity
  8
01
100
AcDbLine
 10
2422.450329015347
 20
-515.6522688281043
 30
0.0
 11
2422.450329015347
 21
-624.4522688281043
 31
0.0
1001
ACAD
1000
DSTYLE
1002
{
1070
    40
1040
1.3
1070
    45
1040
0.5
1002
}
  0
LINE
  5
1B1A5
330
18
100
AcDbEntity
  8
01
100
AcDbLine
 10
2344.062258243904
 20
-505.1527139725207
 30
0.0
 11
2433.114663181572
 21
-505.1527139725207
 31
0.0
1001
ACAD
1000
DSTYLE
1002
{
1070
    40
1040
1.3
1070
    45
1040
0.5
1002
}
  0
LINE
  5
1B1A6
330
18
100
AcDbEntity
  8
01
100
AcDbLine
 10
2343.989172439234
 20
-634.9522688281039
 30
0.0
 11
2433.114663181572
 21
-634.9522688281039
 31
0.0
1001
ACAD
1000
DSTYLE
1002
{
1070
    40
1040
1.3
1070
    45
1040
0.5
1002
}
  0
LINE
  5
1B1A7
330
18
100
AcDbEntity
  8
01
100
AcDbLine
 10
2431.814663181572
 20
-507.7527139725207
 30
0.0
 11
2431.814663181572
 21
-632.3522688281039
 31
0.0
1001
ACAD
1000
DSTYLE
1002
{
1070
    40
1040
1.3
1070
    45
1040
0.5
1002
}
  0
LINE
  5
1B1AB
330
18
100
AcDbEntity
  8
01
100
AcDbLine
 10
2507.662141904138
 20
-562.5527139725174
 30
0.0
 11
2471.362141904159
 21
-562.5527139725174
 31
0.0
1001
ACAD
1000
DSTYLE
1002
{
1070
     3
1000
φ<>
1070
    40
1040
1.3
1070
    45
1040
0.5
1002
}
  0
LINE
  5
1B1AC
330
18
100
AcDbEntity
  8
01
100
AcDbLine
 10
2507.662141904138
 20
-619.552713972496
 30
0.0
 11
2471.362141904159
 21
-619.552713972496
 31
0.0
1001
ACAD
1000
DSTYLE
1002
{
1070
     3
1000
φ<>
1070
    40
1040
1.3
1070
    45
1040
0.5
1002
}
  0
LINE
  5
1B1AD
330
18
100
AcDbEntity
  8
01
100
AcDbLine
 10
2472.662141904159
 20
-565.1527139725174
 30
0.0
 11
2472.662141904159
 21
-616.952713972496
 31
0.0
1001
ACAD
1000
DSTYLE
1002
{
1070
     3
1000
φ<>
1070
    40
1040
1.3
1070
    45
1040
0.5
1002
}
  0
LINE
  5
1B1B1
330
18
100
AcDbEntity
  8
01
100
AcDbLine
 10
2507.676944862803
 20
-562.5527178168676
 30
0.0
 11
2471.362141904159
 21
-562.5527178168676
 31
0.0
1001
ACAD
1000
DSTYLE
1002
{
1070
     3
1000
φ<>
1070
    40
1040
1.3
1070
    45
1040
0.5
1002
}
  0
LINE
  5
1B1B2
330
18
100
AcDbEntity
  8
01
100
AcDbLine
 10
2507.662141904168
 20
-619.552713972524
 30
0.0
 11
2471.362141904159
 21
-619.552713972524
 31
0.0
1001
ACAD
1000
DSTYLE
1002
{
1070
     3
1000
φ<>
1070
    40
1040
1.3
1070
    45
1040
0.5
1002
}
  0
LINE
  5
1B1B3
330
18
100
AcDbEntity
  8
01
100
AcDbLine
 10
2472.662141904159
 20
-565.1527178168676
 30
0.0
 11
2472.662141904159
 21
-616.952713972524
 31
0.0
1001
ACAD
1000
DSTYLE
1002
{
1070
     3
1000
φ<>
1070
    40
1040
1.3
1070
    45
1040
0.5
1002
}
  0
LINE
  5
1B1B7
330
18
100
AcDbEntity
  8
01
  6
BYBLOCK
100
AcDbLine
 10
2448.262141904159
 20
-462.3278897818319
 30
0.0
 11
2445.662141904159
 21
-461.6312218878319
 31
0.0
  0
LINE
  5
1B1B8
330
18
100
AcDbEntity
  8
01
  6
BYBLOCK
100
AcDbLine
 10
2445.662141904159
 20
-461.6312218878319
 30
0.0
 11
2448.262141904159
 21
-460.9345539938319
 31
0.0
  0
LINE
  5
1B1B9
330
18
100
AcDbEntity
  8
01
  6
BYBLOCK
100
AcDbLine
 10
2445.662141904159
 20
-461.6312218878319
 30
0.0
 11
2448.262141904159
 21
-461.6312218878319
 31
0.0
  0
LINE
  5
1B1BA
330
18
100
AcDbEntity
  8
01
  6
BYBLOCK
100
AcDbLine
 10
2454.062141904159
 20
-460.9345539938319
 30
0.0
 11
2456.662141904159
 21
-461.6312218878319
 31
0.0
  0
LINE
  5
1B1BB
330
18
100
AcDbEntity
  8
01
  6
BYBLOCK
100
AcDbLine
 10
2456.662141904159
 20
-461.6312218878319
 30
0.0
 11
2454.062141904159
 21
-462.3278897818319
 31
0.0
  0
LINE
  5
1B1BC
330
18
100
AcDbEntity
  8
01
  6
BYBLOCK
100
AcDbLine
 10
2456.662141904159
 20
-461.6312218878319
 30
0.0
 11
2454.062141904159
 21
-461.6312218878319
 31
0.0
  0
TEXT
  5
1B1BD
330
18
100
AcDbEntity
  8
01
  6
CONTINUOUS
100
AcDbText
 10
2448.887141904159
 20
-460.7212218878319
 30
0.0
 40
4.55
  1
11
100
AcDbText
1001
ACAD
1000
DSTYLE
1002
{
1070
    40
1040
1.3
1070
    45
1040
0.5
1002
}
  0
LINE
  5
1B1BE
330
18
100
AcDbEntity
  8
01
  6
BYBLOCK
100
AcDbLine
 10
2551.96547401016
 20
-535.6527139725199
 30
0.0
 11
2552.662141904159
 21
-533.0527139725199
 31
0.0
  0
LINE
  5
1B1BF
330
18
100
AcDbEntity
  8
01
  6
BYBLOCK
100
AcDbLine
 10
2552.662141904159
 20
-533.0527139725199
 30
0.0
 11
2553.358809798159
 21
-535.6527139725199
 31
0.0
  0
LINE
  5
1B1C0
330
18
100
AcDbEntity
  8
01
  6
BYBLOCK
100
AcDbLine
 10
2552.662141904159
 20
-533.0527139725199
 30
0.0
 11
2552.662141904159
 21
-535.6527139725199
 31
0.0
  0
LINE
  5
1B1C1
330
18
100
AcDbEntity
  8
01
  6
BYBLOCK
100
AcDbLine
 10
2553.358809798159
 20
-604.4527139725203
 30
0.0
 11
2552.662141904159
 21
-607.0527139725203
 31
0.0
  0
LINE
  5
1B1C2
330
18
100
AcDbEntity
  8
01
  6
BYBLOCK
100
AcDbLine
 10
2552.662141904159
 20
-607.0527139725203
 30
0.0
 11
2551.96547401016
 21
-604.4527139725203
 31
0.0
  0
LINE
  5
1B1C3
330
18
100
AcDbEntity
  8
01
  6
BYBLOCK
100
AcDbLine
 10
2552.662141904159
 20
-607.0527139725203
 30
0.0
 11
2552.662141904159
 21
-604.4527139725203
 31
0.0
  0
TEXT
  5
1B1C4
330
18
100
AcDbEntity
  8
01
  6
CONTINUOUS
100
AcDbText
 10
2551.75214190416
 20
-552.0813698865013
 30
0.0
 40
4.55
  1
74
 50
90.0
100
AcDbText
1001
ACAD
1000
DSTYLE
1002
{
1070
    40
1040
1.3
1070
    45
1040
0.5
1002
}
  0
LINE
  5
1B1C5
330
18
100
AcDbEntity
  8
01
  6
BYBLOCK
100
AcDbLine
 10
2523.062141904159
 20
-450.8546865257837
 30
0.0
 11
2525.662141904159
 21
-451.5513544197837
 31
0.0
  0
LINE
  5
1B1C6
330
18
100
AcDbEntity
  8
01
  6
BYBLOCK
100
AcDbLine
 10
2525.662141904159
 20
-451.5513544197837
 30
0.0
 11
2523.062141904159
 21
-452.2480223137837
 31
0.0
  0
LINE
  5
1B1C7
330
18
100
AcDbEntity
  8
01
  6
BYBLOCK
100
AcDbLine
 10
2525.662141904159
 20
-451.5513544197837
 30
0.0
 11
2523.062141904159
 21
-451.5513544197837
 31
0.0
  0
LINE
  5
1B1C8
330
18
100
AcDbEntity
  8
01
  6
BYBLOCK
100
AcDbLine
 10
2459.262141904159
 20
-452.2480223137837
 30
0.0
 11
2456.662141904159
 21
-451.5513544197837
 31
0.0
  0
LINE
  5
1B1C9
330
18
100
AcDbEntity
  8
01
  6
BYBLOCK
100
AcDbLine
 10
2456.662141904159
 20
-451.5513544197837
 30
0.0
 11
2459.262141904159
 21
-450.8546865257837
 31
0.0
  0
LINE
  5
1B1CA
330
18
100
AcDbEntity
  8
01
  6
BYBLOCK
100
AcDbLine
 10
2456.662141904159
 20
-451.5513544197837
 30
0.0
 11
2459.262141904159
 21
-451.5513544197837
 31
0.0
  0
TEXT
  5
1B1CB
330
18
100
AcDbEntity
  8
01
  6
CONTINUOUS
100
AcDbText
 10
2487.353623385641
 20
-450.6413544197837
 30
0.0
 40
4.55
  1
69
100
AcDbText
1001
ACAD
1000
DSTYLE
1002
{
1070
    40
1040
1.3
1070
    45
1040
0.5
1002
}
  0
LINE
  5
1B1CC
330
18
100
AcDbEntity
  8
01
  6
BYBLOCK
100
AcDbLine
 10
2459.262141904159
 20
-462.3278897818319
 30
0.0
 11
2456.662141904159
 21
-461.6312218878319
 31
0.0
  0
LINE
  5
1B1CD
330
18
100
AcDbEntity
  8
01
  6
BYBLOCK
100
AcDbLine
 10
2456.662141904159
 20
-461.6312218878319
 30
0.0
 11
2459.262141904159
 21
-460.9345539938319
 31
0.0
  0
LINE
  5
1B1CE
330
18
100
AcDbEntity
  8
01
  6
BYBLOCK
100
AcDbLine
 10
2456.662141904159
 20
-461.6312218878319
 30
0.0
 11
2459.262141904159
 21
-461.6312218878319
 31
0.0
  0
LINE
  5
1B1CF
330
18
100
AcDbEntity
  8
01
  6
BYBLOCK
100
AcDbLine
 10
2505.062141904159
 20
-460.9345539938319
 30
0.0
 11
2507.662141904159
 21
-461.6312218878319
 31
0.0
  0
LINE
  5
1B1D0
330
18
100
AcDbEntity
  8
01
  6
BYBLOCK
100
AcDbLine
 10
2507.662141904159
 20
-461.6312218878319
 30
0.0
 11
2505.062141904159
 21
-462.3278897818319
 31
0.0
  0
LINE
  5
1B1D1
330
18
100
AcDbEntity
  8
01
  6
BYBLOCK
100
AcDbLine
 10
2507.662141904159
 20
-461.6312218878319
 30
0.0
 11
2505.062141904159
 21
-461.6312218878319
 31
0.0
  0
TEXT
  5
1B1D2
330
18
100
AcDbEntity
  8
01
  6
CONTINUOUS
100
AcDbText
 10
2479.113009959715
 20
-460.7212218878319
 30
0.0
 40
4.55
  1
51
100
AcDbText
1001
ACAD
1000
DSTYLE
1002
{
1070
    40
1040
1.3
1070
    45
1040
0.5
1002
}
  0
LINE
  5
1B1D3
330
18
100
AcDbEntity
  8
01
  6
BYBLOCK
100
AcDbLine
 10
2327.762258243904
 20
-462.3278897818323
 30
0.0
 11
2325.162258243904
 21
-461.6312218878323
 31
0.0
  0
LINE
  5
1B1D4
330
18
100
AcDbEntity
  8
01
  6
BYBLOCK
100
AcDbLine
 10
2325.162258243904
 20
-461.6312218878323
 30
0.0
 11
2327.762258243904
 21
-460.9345539938324
 31
0.0
  0
LINE
  5
1B1D5
330
18
100
AcDbEntity
  8
01
  6
BYBLOCK
100
AcDbLine
 10
2325.162258243904
 20
-461.6312218878323
 30
0.0
 11
2327.762258243904
 21
-461.6312218878323
 31
0.0
  0
LINE
  5
1B1D6
330
18
100
AcDbEntity
  8
01
  6
BYBLOCK
100
AcDbLine
 10
2347.562258243904
 20
-460.9345539938324
 30
0.0
 11
2350.162258243904
 21
-461.6312218878323
 31
0.0
  0
LINE
  5
1B1D7
330
18
100
AcDbEntity
  8
01
  6
BYBLOCK
100
AcDbLine
 10
2350.162258243904
 20
-461.6312218878323
 30
0.0
 11
2347.562258243904
 21
-462.3278897818323
 31
0.0
  0
LINE
  5
1B1D8
330
18
100
AcDbEntity
  8
01
  6
BYBLOCK
100
AcDbLine
 10
2350.162258243904
 20
-461.6312218878323
 30
0.0
 11
2347.562258243904
 21
-461.6312218878323
 31
0.0
  0
TEXT
  5
1B1D9
330
18
100
AcDbEntity
  8
01
  6
CONTINUOUS
100
AcDbText
 10
2333.870591577238
 20
-460.7212218878324
 30
0.0
 40
4.55
  1
25
100
AcDbText
1001
ACAD
1000
DSTYLE
1002
{
1070
    40
1040
1.3
1070
    45
1040
0.5
1002
}
  0
LINE
  5
1B1DA
330
18
100
AcDbEntity
  8
01
  6
BYBLOCK
100
AcDbLine
 10
2421.753661121347
 20
-515.6522688281043
 30
0.0
 11
2422.450329015347
 21
-513.0522688281043
 31
0.0
  0
LINE
  5
1B1DB
330
18
100
AcDbEntity
  8
01
  6
BYBLOCK
100
AcDbLine
 10
2422.450329015347
 20
-513.0522688281043
 30
0.0
 11
2423.146996909347
 21
-515.6522688281043
 31
0.0
  0
LINE
  5
1B1DC
330
18
100
AcDbEntity
  8
01
  6
BYBLOCK
100
AcDbLine
 10
2422.450329015347
 20
-513.0522688281043
 30
0.0
 11
2422.450329015347
 21
-515.6522688281043
 31
0.0
  0
LINE
  5
1B1DD
330
18
100
AcDbEntity
  8
01
  6
BYBLOCK
100
AcDbLine
 10
2423.146996909347
 20
-624.4522688281043
 30
0.0
 11
2422.450329015347
 21
-627.0522688281043
 31
0.0
  0
LINE
  5
1B1DE
330
18
100
AcDbEntity
  8
01
  6
BYBLOCK
100
AcDbLine
 10
2422.450329015347
 20
-627.0522688281043
 30
0.0
 11
2421.753661121347
 21
-624.4522688281043
 31
0.0
  0
LINE
  5
1B1DF
330
18
100
AcDbEntity
  8
01
  6
BYBLOCK
100
AcDbLine
 10
2422.450329015347
 20
-627.0522688281043
 30
0.0
 11
2422.450329015347
 21
-624.4522688281043
 31
0.0
  0
TEXT
  5
1B1E0
330
18
100
AcDbEntity
  8
01
  6
CONTINUOUS
100
AcDbText
 10
2421.540329015347
 20
-545.4692464801828
 30
0.0
 40
4.55
  1
114
 50
90.0
100
AcDbText
1001
ACAD
1000
DSTYLE
1002
{
1070
    40
1040
1.3
1070
    45
1040
0.5
1002
}
  0
LINE
  5
1B1E1
330
18
100
AcDbEntity
  8
01
  6
BYBLOCK
100
AcDbLine
 10
2431.117995287572
 20
-507.7527139725207
 30
0.0
 11
2431.814663181572
 21
-505.1527139725207
 31
0.0
  0
LINE
  5
1B1E2
330
18
100
AcDbEntity
  8
01
  6
BYBLOCK
100
AcDbLine
 10
2431.814663181572
 20
-505.1527139725207
 30
0.0
 11
2432.511331075571
 21
-507.7527139725207
 31
0.0
  0
LINE
  5
1B1E3
330
18
100
AcDbEntity
  8
01
  6
BYBLOCK
100
AcDbLine
 10
2431.814663181572
 20
-505.1527139725207
 30
0.0
 11
2431.814663181572
 21
-507.7527139725207
 31
0.0
  0
LINE
  5
1B1E4
330
18
100
AcDbEntity
  8
01
  6
BYBLOCK
100
AcDbLine
 10
2432.511331075571
 20
-632.3522688281039
 30
0.0
 11
2431.814663181572
 21
-634.9522688281039
 31
0.0
  0
LINE
  5
1B1E5
330
18
100
AcDbEntity
  8
01
  6
BYBLOCK
100
AcDbLine
 10
2431.814663181572
 20
-634.9522688281039
 30
0.0
 11
2431.117995287572
 21
-632.3522688281039
 31
0.0
  0
LINE
  5
1B1E6
330
18
100
AcDbEntity
  8
01
  6
BYBLOCK
100
AcDbLine
 10
2431.814663181572
 20
-634.9522688281039
 30
0.0
 11
2431.814663181572
 21
-632.3522688281039
 31
0.0
  0
TEXT
  5
1B1E7
330
18
100
AcDbEntity
  8
01
  6
CONTINUOUS
100
AcDbText
 10
2430.904663181572
 20
-546.2538104829905
 30
0.0
 40
4.55
  1
130
 50
90.0
100
AcDbText
1001
ACAD
1000
DSTYLE
1002
{
1070
    40
1040
1.3
1070
    45
1040
0.5
1002
}
  0
LINE
  5
1B1E8
330
18
100
AcDbEntity
  8
01
  6
BYBLOCK
100
AcDbLine
 10
2471.96547401016
 20
-565.1527139725174
 30
0.0
 11
2472.662141904159
 21
-562.5527139725174
 31
0.0
  0
LINE
  5
1B1E9
330
18
100
AcDbEntity
  8
01
  6
BYBLOCK
100
AcDbLine
 10
2472.662141904159
 20
-562.5527139725174
 30
0.0
 11
2473.358809798159
 21
-565.1527139725174
 31
0.0
  0
LINE
  5
1B1EA
330
18
100
AcDbEntity
  8
01
  6
BYBLOCK
100
AcDbLine
 10
2472.662141904159
 20
-562.5527139725174
 30
0.0
 11
2472.662141904159
 21
-565.1527139725174
 31
0.0
  0
LINE
  5
1B1EB
330
18
100
AcDbEntity
  8
01
  6
BYBLOCK
100
AcDbLine
 10
2473.358809798159
 20
-616.952713972496
 30
0.0
 11
2472.662141904159
 21
-619.552713972496
 31
0.0
  0
LINE
  5
1B1EC
330
18
100
AcDbEntity
  8
01
  6
BYBLOCK
100
AcDbLine
 10
2472.662141904159
 20
-619.552713972496
 30
0.0
 11
2471.96547401016
 21
-616.952713972496
 31
0.0
  0
LINE
  5
1B1ED
330
18
100
AcDbEntity
  8
01
  6
BYBLOCK
100
AcDbLine
 10
2472.662141904159
 20
-619.552713972496
 30
0.0
 11
2472.662141904159
 21
-616.952713972496
 31
0.0
  0
TEXT
  5
1B1EE
330
18
100
AcDbEntity
  8
01
  6
CONTINUOUS
100
AcDbText
 10
2471.75214190416
 20
-599.536591879119
 30
0.0
 40
4.55
  1
φ57
 50
90.0
100
AcDbText
1001
ACAD
1000
DSTYLE
1002
{
1070
     3
1000
φ<>
1070
    40
1040
1.3
1070
    45
1040
0.5
1002
}
  0
LINE
  5
1B1EF
330
18
100
AcDbEntity
  8
01
  6
BYBLOCK
100
AcDbLine
 10
2471.96547401016
 20
-565.1527178168676
 30
0.0
 11
2472.662141904159
 21
-562.5527178168676
 31
0.0
  0
LINE
  5
1B1F0
330
18
100
AcDbEntity
  8
01
  6
BYBLOCK
100
AcDbLine
 10
2472.662141904159
 20
-562.5527178168676
 30
0.0
 11
2473.358809798159
 21
-565.1527178168676
 31
0.0
  0
LINE
  5
1B1F1
330
18
100
AcDbEntity
  8
01
  6
BYBLOCK
100
AcDbLine
 10
2472.662141904159
 20
-562.5527178168676
 30
0.0
 11
2472.662141904159
 21
-565.1527178168676
 31
0.0
  0
LINE
  5
1B1F2
330
18
100
AcDbEntity
  8
01
  6
BYBLOCK
100
AcDbLine
 10
2473.358809798159
 20
-616.952713972524
 30
0.0
 11
2472.662141904159
 21
-619.552713972524
 31
0.0
  0
LINE
  5
1B1F3
330
18
100
AcDbEntity
  8
01
  6
BYBLOCK
100
AcDbLine
 10
2472.662141904159
 20
-619.552713972524
 30
0.0
 11
2471.96547401016
 21
-616.952713972524
 31
0.0
  0
LINE
  5
1B1F4
330
18
100
AcDbEntity
  8
01
  6
BYBLOCK
100
AcDbLine
 10
2472.662141904159
 20
-619.552713972524
 30
0.0
 11
2472.662141904159
 21
-616.952713972524
 31
0.0
  0
TEXT
  5
1B1F5
330
18
100
AcDbEntity
  8
01
  6
CONTINUOUS
100
AcDbText
 10
2471.75214190416
 20
-599.536591879119
 30
0.0
 40
4.55
  1
φ57
 50
90.0
100
AcDbText
1001
ACAD
1000
DSTYLE
1002
{
1070
     3
1000
φ<>
1070
    40
1040
1.3
1070
    45
1040
0.5
1002
}
  0
SOLID
  5
1B1F6
330
18
100
AcDbEntity
  8
1DIM
100
AcDbTrace
 10
2505.031991258905
 20
-367.1034710274637
 30
0.0
 11
2507.40274314422
 21
-365.9513801994234
 31
0.0
 12
2505.533791088827
 22
-367.810088350915
 32
0.0
 13
2505.533791088827
 23
-367.810088350915
 33
0.0
1001
ACAD
1000
DSTYLE
1002
{
1070
    40
1040
1.3
1070
    45
1040
0.5
1002
}
  0
LINE
  5
1B1F7
330
18
100
AcDbEntity
  8
1DIM
100
AcDbLine
 10
2505.282891173866
 20
-367.4567796891893
 30
0.0
 11
2477.815302997177
 21
-386.9627139735485
 31
0.0
1001
ACAD
1000
DSTYLE
1002
{
1070
    40
1040
1.3
1070
    45
1040
0.5
1002
}
  0
LINE
  5
1B1F8
330
18
100
AcDbEntity
  8
1DIM
100
AcDbLine
 10
2524.063026086219
 20
-311.5527139735485
 30
0.0
 11
2544.623416845932
 21
-311.5527139735485
 31
0.0
1001
ACAD
1000
DSTYLE
1002
{
1070
    45
1040
0.5
1070
    40
1040
1.3
1002
}
  0
LINE
  5
1B1F9
330
18
100
AcDbEntity
  8
1DIM
100
AcDbLine
 10
2525.663026086219
 20
-330.3527139735487
 30
0.0
 11
2544.623416845932
 21
-330.3527139735487
 31
0.0
1001
ACAD
1000
DSTYLE
1002
{
1070
    45
1040
0.5
1070
    40
1040
1.3
1002
}
  0
LINE
  5
1B1FA
330
18
100
AcDbEntity
  8
1DIM
100
AcDbLine
 10
2543.323416845932
 20
-314.1527139735485
 30
0.0
 11
2543.323416845932
 21
-327.7527139735487
 31
0.0
1001
ACAD
1000
DSTYLE
1002
{
1070
    45
1040
0.5
1070
    40
1040
1.3
1002
}
  0
LINE
  5
1B1FE
330
18
100
AcDbEntity
  8
1DIM
100
AcDbLine
 10
2507.662258243902
 20
-362.5527139735485
 30
0.0
 11
2507.662258243902
 21
-427.3527139735485
 31
0.0
1001
ACAD
1000
DSTYLE
1002
{
1070
    40
1040
1.3
1070
    45
1040
0.5
1070
   271
1070
     0
1002
}
  0
LINE
  5
1B1FF
330
18
100
AcDbEntity
  8
1DIM
100
AcDbLine
 10
2630.331516140009
 20
-392.3082941409315
 30
0.0
 11
2630.331516140009
 21
-427.3527139735485
 31
0.0
1001
ACAD
1000
DSTYLE
1002
{
1070
    40
1040
1.3
1070
    45
1040
0.5
1070
   271
1070
     0
1002
}
  0
LINE
  5
1B200
330
18
100
AcDbEntity
  8
1DIM
100
AcDbLine
 10
2510.262258243902
 20
-426.0527139735485
 30
0.0
 11
2627.731516140009
 21
-426.0527139735485
 31
0.0
1001
ACAD
1000
DSTYLE
1002
{
1070
    40
1040
1.3
1070
    45
1040
0.5
1070
   271
1070
     0
1002
}
  0
LINE
  5
1B204
330
18
100
AcDbEntity
  8
1DIM
100
AcDbLine
 10
2493.692605270638
 20
-392.0467599110606
 30
0.0
 11
2493.692605270638
 21
-437.3527139735485
 31
0.0
1001
ACAD
1000
DSTYLE
1002
{
1070
    40
1040
1.3
1070
    45
1040
0.5
1070
   271
1070
     0
1002
}
  0
LINE
  5
1B205
330
18
100
AcDbEntity
  8
1DIM
100
AcDbLine
 10
2630.331516140009
 20
-392.3082941409315
 30
0.0
 11
2630.331516140009
 21
-437.3527139735485
 31
0.0
1001
ACAD
1000
DSTYLE
1002
{
1070
    40
1040
1.3
1070
    45
1040
0.5
1070
   271
1070
     0
1002
}
  0
LINE
  5
1B206
330
18
100
AcDbEntity
  8
1DIM
100
AcDbLine
 10
2496.292605270638
 20
-436.0527139735485
 30
0.0
 11
2627.731516140009
 21
-436.0527139735485
 31
0.0
1001
ACAD
1000
DSTYLE
1002
{
1070
    40
1040
1.3
1070
    45
1040
0.5
1070
   271
1070
     0
1002
}
  0
LINE
  5
1B20A
330
18
100
AcDbEntity
  8
1DIM
100
AcDbLine
 10
2614.018037657971
 20
-376.9776440733052
 30
0.0
 11
2663.962258243902
 21
-376.9776440733052
 31
0.0
1001
ACAD
1000
DSTYLE
1002
{
1070
    40
1040
1.3
1070
    45
1040
0.5
1002
}
  0
LINE
  5
1B20B
330
18
100
AcDbEntity
  8
1DIM
100
AcDbLine
 10
2610.41740624125
 20
-341.0527139735485
 30
0.0
 11
2663.962258243902
 21
-341.0527139735485
 31
0.0
1001
ACAD
1000
DSTYLE
1002
{
1070
    40
1040
1.3
1070
    45
1040
0.5
1002
}
  0
LINE
  5
1B20C
330
18
100
AcDbEntity
  8
1DIM
100
AcDbLine
 10
2662.662258243902
 20
-374.3776440733052
 30
0.0
 11
2662.662258243902
 21
-343.6527139735485
 31
0.0
1001
ACAD
1000
DSTYLE
1002
{
1070
    40
1040
1.3
1070
    45
1040
0.5
1002
}
  0
LINE
  5
1B210
330
18
100
AcDbEntity
  8
1DIM
100
AcDbLine
 10
2613.518191391958
 20
-406.1688861371834
 30
0.0
 11
2673.962258243902
 21
-406.1688861371834
 31
0.0
1001
ACAD
1000
DSTYLE
1002
{
1070
    40
1040
1.3
1070
    45
1040
0.5
1002
}
  0
LINE
  5
1B211
330
18
100
AcDbEntity
  8
1DIM
100
AcDbLine
 10
2610.41740624125
 20
-341.0527139735485
 30
0.0
 11
2673.962258243902
 21
-341.0527139735485
 31
0.0
1001
ACAD
1000
DSTYLE
1002
{
1070
    40
1040
1.3
1070
    45
1040
0.5
1002
}
  0
LINE
  5
1B212
330
18
100
AcDbEntity
  8
1DIM
100
AcDbLine
 10
2672.662258243902
 20
-403.5688861371834
 30
0.0
 11
2672.662258243902
 21
-343.6527139735485
 31
0.0
1001
ACAD
1000
DSTYLE
1002
{
1070
    40
1040
1.3
1070
    45
1040
0.5
1002
}
  0
LINE
  5
1B216
330
18
100
AcDbEntity
  8
1DIM
100
AcDbLine
 10
2616.87224763707
 20
-597.9377122464249
 30
0.0
 11
2663.96214190416
 21
-597.9377122464249
 31
0.0
1001
ACAD
1000
DSTYLE
1002
{
1070
    40
1040
1.3
1070
    45
1040
0.5
1002
}
  0
LINE
  5
1B217
330
18
100
AcDbEntity
  8
1DIM
100
AcDbLine
 10
2608.046867125636
 20
-568.7839540191502
 30
0.0
 11
2663.96214190416
 21
-568.7839540191502
 31
0.0
1001
ACAD
1000
DSTYLE
1002
{
1070
    40
1040
1.3
1070
    45
1040
0.5
1002
}
  0
LINE
  5
1B218
330
18
100
AcDbEntity
  8
1DIM
100
AcDbLine
 10
2662.662141904159
 20
-595.3377122464249
 30
0.0
 11
2662.662141904159
 21
-571.3839540191502
 31
0.0
1001
ACAD
1000
DSTYLE
1002
{
1070
    40
1040
1.3
1070
    45
1040
0.5
1002
}
  0
LINE
  5
1B21C
330
18
100
AcDbEntity
  8
0
  6
BYBLOCK
100
AcDbLine
 10
2542.626748951932
 20
-314.1527139735485
 30
0.0
 11
2543.323416845932
 21
-311.5527139735485
 31
0.0
  0
LINE
  5
1B21D
330
18
100
AcDbEntity
  8
0
  6
BYBLOCK
100
AcDbLine
 10
2543.323416845932
 20
-311.5527139735485
 30
0.0
 11
2544.020084739932
 21
-314.1527139735485
 31
0.0
  0
LINE
  5
1B21E
330
18
100
AcDbEntity
  8
0
  6
BYBLOCK
100
AcDbLine
 10
2543.323416845932
 20
-311.5527139735485
 30
0.0
 11
2543.323416845932
 21
-314.1527139735485
 31
0.0
  0
LINE
  5
1B21F
330
18
100
AcDbEntity
  8
0
  6
BYBLOCK
100
AcDbLine
 10
2544.020084739932
 20
-327.7527139735487
 30
0.0
 11
2543.323416845932
 21
-330.3527139735487
 31
0.0
  0
LINE
  5
1B220
330
18
100
AcDbEntity
  8
0
  6
BYBLOCK
100
AcDbLine
 10
2543.323416845932
 20
-330.3527139735487
 30
0.0
 11
2542.626748951932
 21
-327.7527139735487
 31
0.0
  0
LINE
  5
1B221
330
18
100
AcDbEntity
  8
0
  6
BYBLOCK
100
AcDbLine
 10
2543.323416845932
 20
-330.3527139735487
 30
0.0
 11
2543.323416845932
 21
-327.7527139735487
 31
0.0
  0
TEXT
  5
1B222
330
18
100
AcDbEntity
  8
1DIM
  6
CONTINUOUS
100
AcDbText
 10
2542.413416845932
 20
-323.987100547623
 30
0.0
 40
4.55
  1
19
 50
90.0
100
AcDbText
1001
ACAD
1000
DSTYLE
1002
{
1070
    45
1040
0.5
1070
    40
1040
1.3
1002
}
  0
LINE
  5
1B223
330
18
100
AcDbEntity
  8
0
  6
BYBLOCK
100
AcDbLine
 10
2510.262258243902
 20
-426.7493818675485
 30
0.0
 11
2507.662258243902
 21
-426.0527139735485
 31
0.0
  0
LINE
  5
1B224
330
18
100
AcDbEntity
  8
0
  6
BYBLOCK
100
AcDbLine
 10
2507.662258243902
 20
-426.0527139735485
 30
0.0
 11
2510.262258243902
 21
-425.3560460795485
 31
0.0
  0
LINE
  5
1B225
330
18
100
AcDbEntity
  8
0
  6
BYBLOCK
100
AcDbLine
 10
2507.662258243902
 20
-426.0527139735485
 30
0.0
 11
2510.262258243902
 21
-426.0527139735485
 31
0.0
  0
LINE
  5
1B226
330
18
100
AcDbEntity
  8
0
  6
BYBLOCK
100
AcDbLine
 10
2627.731516140009
 20
-425.3560460795485
 30
0.0
 11
2630.331516140009
 21
-426.0527139735485
 31
0.0
  0
LINE
  5
1B227
330
18
100
AcDbEntity
  8
0
  6
BYBLOCK
100
AcDbLine
 10
2630.331516140009
 20
-426.0527139735485
 30
0.0
 11
2627.731516140009
 21
-426.7493818675485
 31
0.0
  0
LINE
  5
1B228
330
18
100
AcDbEntity
  8
0
  6
BYBLOCK
100
AcDbLine
 10
2630.331516140009
 20
-426.0527139735485
 30
0.0
 11
2627.731516140009
 21
-426.0527139735485
 31
0.0
  0
TEXT
  5
1B229
330
18
100
AcDbEntity
  8
1DIM
  6
CONTINUOUS
100
AcDbText
 10
2563.688553858622
 20
-425.1427139735486
 30
0.0
 40
4.55
  1
123
100
AcDbText
1001
ACAD
1000
DSTYLE
1002
{
1070
    40
1040
1.3
1070
    45
1040
0.5
1070
   271
1070
     0
1002
}
  0
LINE
  5
1B22A
330
18
100
AcDbEntity
  8
0
  6
BYBLOCK
100
AcDbLine
 10
2496.292605270638
 20
-436.7493818675485
 30
0.0
 11
2493.692605270638
 21
-436.0527139735485
 31
0.0
  0
LINE
  5
1B22B
330
18
100
AcDbEntity
  8
0
  6
BYBLOCK
100
AcDbLine
 10
2493.692605270638
 20
-436.0527139735485
 30
0.0
 11
2496.292605270638
 21
-435.3560460795485
 31
0.0
  0
LINE
  5
1B22C
330
18
100
AcDbEntity
  8
0
  6
BYBLOCK
100
AcDbLine
 10
2493.692605270638
 20
-436.0527139735485
 30
0.0
 11
2496.292605270638
 21
-436.0527139735485
 31
0.0
  0
LINE
  5
1B22D
330
18
100
AcDbEntity
  8
0
  6
BYBLOCK
100
AcDbLine
 10
2627.731516140009
 20
-435.3560460795485
 30
0.0
 11
2630.331516140009
 21
-436.0527139735485
 31
0.0
  0
LINE
  5
1B22E
330
18
100
AcDbEntity
  8
0
  6
BYBLOCK
100
AcDbLine
 10
2630.331516140009
 20
-436.0527139735485
 30
0.0
 11
2627.731516140009
 21
-436.7493818675485
 31
0.0
  0
LINE
  5
1B22F
330
18
100
AcDbEntity
  8
0
  6
BYBLOCK
100
AcDbLine
 10
2630.331516140009
 20
-436.0527139735485
 30
0.0
 11
2627.731516140009
 21
-436.0527139735485
 31
0.0
  0
TEXT
  5
1B230
330
18
100
AcDbEntity
  8
1DIM
  6
CONTINUOUS
100
AcDbText
 10
2556.70372737199
 20
-435.1427139735486
 30
0.0
 40
4.55
  1
137
100
AcDbText
1001
ACAD
1000
DSTYLE
1002
{
1070
    40
1040
1.3
1070
    45
1040
0.5
1070
   271
1070
     0
1002
}
  0
LINE
  5
1B231
330
18
100
AcDbEntity
  8
0
  6
BYBLOCK
100
AcDbLine
 10
2663.358926137902
 20
-374.3776440733052
 30
0.0
 11
2662.662258243902
 21
-376.9776440733052
 31
0.0
  0
LINE
  5
1B232
330
18
100
AcDbEntity
  8
0
  6
BYBLOCK
100
AcDbLine
 10
2662.662258243902
 20
-376.9776440733052
 30
0.0
 11
2661.965590349902
 21
-374.3776440733052
 31
0.0
  0
LINE
  5
1B233
330
18
100
AcDbEntity
  8
0
  6
BYBLOCK
100
AcDbLine
 10
2662.662258243902
 20
-376.9776440733052
 30
0.0
 11
2662.662258243902
 21
-374.3776440733052
 31
0.0
  0
LINE
  5
1B234
330
18
100
AcDbEntity
  8
0
  6
BYBLOCK
100
AcDbLine
 10
2661.965590349902
 20
-343.6527139735485
 30
0.0
 11
2662.662258243902
 21
-341.0527139735485
 31
0.0
  0
LINE
  5
1B235
330
18
100
AcDbEntity
  8
0
  6
BYBLOCK
100
AcDbLine
 10
2662.662258243902
 20
-341.0527139735485
 30
0.0
 11
2663.358926137902
 21
-343.6527139735485
 31
0.0
  0
LINE
  5
1B236
330
18
100
AcDbEntity
  8
0
  6
BYBLOCK
100
AcDbLine
 10
2662.662258243902
 20
-341.0527139735485
 30
0.0
 11
2662.662258243902
 21
-343.6527139735485
 31
0.0
  0
TEXT
  5
1B237
330
18
100
AcDbEntity
  8
1DIM
  6
CONTINUOUS
100
AcDbText
 10
2661.752258243902
 20
-362.8068456900933
 30
0.0
 40
4.55
  1
36
 50
90.0
100
AcDbText
1001
ACAD
1000
DSTYLE
1002
{
1070
    40
1040
1.3
1070
    45
1040
0.5
1002
}
  0
LINE
  5
1B238
330
18
100
AcDbEntity
  8
0
  6
BYBLOCK
100
AcDbLine
 10
2673.358926137902
 20
-403.5688861371834
 30
0.0
 11
2672.662258243902
 21
-406.1688861371834
 31
0.0
  0
LINE
  5
1B239
330
18
100
AcDbEntity
  8
0
  6
BYBLOCK
100
AcDbLine
 10
2672.662258243902
 20
-406.1688861371834
 30
0.0
 11
2671.965590349902
 21
-403.5688861371834
 31
0.0
  0
LINE
  5
1B23A
330
18
100
AcDbEntity
  8
0
  6
BYBLOCK
100
AcDbLine
 10
2672.662258243902
 20
-406.1688861371834
 30
0.0
 11
2672.662258243902
 21
-403.5688861371834
 31
0.0
  0
LINE
  5
1B23B
330
18
100
AcDbEntity
  8
0
  6
BYBLOCK
100
AcDbLine
 10
2671.965590349902
 20
-343.6527139735485
 30
0.0
 11
2672.662258243902
 21
-341.0527139735485
 31
0.0
  0
LINE
  5
1B23C
330
18
100
AcDbEntity
  8
0
  6
BYBLOCK
100
AcDbLine
 10
2672.662258243902
 20
-341.0527139735485
 30
0.0
 11
2673.358926137902
 21
-343.6527139735485
 31
0.0
  0
LINE
  5
1B23D
330
18
100
AcDbEntity
  8
0
  6
BYBLOCK
100
AcDbLine
 10
2672.662258243902
 20
-341.0527139735485
 30
0.0
 11
2672.662258243902
 21
-343.6527139735485
 31
0.0
  0
TEXT
  5
1B23E
330
18
100
AcDbEntity
  8
1DIM
  6
CONTINUOUS
100
AcDbText
 10
2671.752258243902
 20
-377.4182653331436
 30
0.0
 40
4.55
  1
65
 50
90.0
100
AcDbText
1001
ACAD
1000
DSTYLE
1002
{
1070
    40
1040
1.3
1070
    45
1040
0.5
1002
}
  0
LINE
  5
1B23F
330
18
100
AcDbEntity
  8
0
  6
BYBLOCK
100
AcDbLine
 10
2663.358809798159
 20
-595.3377122464249
 30
0.0
 11
2662.662141904159
 21
-597.9377122464249
 31
0.0
  0
LINE
  5
1B240
330
18
100
AcDbEntity
  8
0
  6
BYBLOCK
100
AcDbLine
 10
2662.662141904159
 20
-597.9377122464249
 30
0.0
 11
2661.96547401016
 21
-595.3377122464249
 31
0.0
  0
LINE
  5
1B241
330
18
100
AcDbEntity
  8
0
  6
BYBLOCK
100
AcDbLine
 10
2662.662141904159
 20
-597.9377122464249
 30
0.0
 11
2662.662141904159
 21
-595.3377122464249
 31
0.0
  0
LINE
  5
1B242
330
18
100
AcDbEntity
  8
0
  6
BYBLOCK
100
AcDbLine
 10
2661.96547401016
 20
-571.3839540191502
 30
0.0
 11
2662.662141904159
 21
-568.7839540191502
 31
0.0
  0
LINE
  5
1B243
330
18
100
AcDbEntity
  8
0
  6
BYBLOCK
100
AcDbLine
 10
2662.662141904159
 20
-568.7839540191502
 30
0.0
 11
2663.358809798159
 21
-571.3839540191502
 31
0.0
  0
LINE
  5
1B244
330
18
100
AcDbEntity
  8
0
  6
BYBLOCK
100
AcDbLine
 10
2662.662141904159
 20
-568.7839540191502
 30
0.0
 11
2662.662141904159
 21
-571.3839540191502
 31
0.0
  0
TEXT
  5
1B245
330
18
100
AcDbEntity
  8
1DIM
  6
CONTINUOUS
100
AcDbText
 10
2661.75214190416
 20
-587.1535530401948
 30
0.0
 40
4.55
  1
29
 50
90.0
100
AcDbText
1001
ACAD
1000
DSTYLE
1002
{
1070
    40
1040
1.3
1070
    45
1040
0.5
1002
}
  0
VIEWPORT
  5
57
330
15
100
AcDbEntity
 67
     1
  8
0
100
AcDbViewport
 68
     1
 10
0.0
 20
0.0
 30
0.0
 40
663.4332925336597
 41
297.0
 68
     1
 69
     1
1001
ACAD
1000
MVIEW
1002
{
1070
    16
1010
0.0
1020
0.0
1030
0.0
1010
0.0
1020
0.0
1030
1.0
1040
0.0
1040
297.0
1040
-4.171999999925362
1040
12.83903210976956
1040
50.0
1040
0.0
1040
0.0
1070
    16
1070
   100
1070
     0
1070
     1
1070
     0
1070
     0
1070
     0
1070
     0
1040
0.0
1040
0.0
1040
0.0
1040
10.0
1040
10.0
1040
10.0
1040
10.0
1070
     0
1002
{
1002
}
1002
}
  0
ENDSEC
  0
SECTION
  2
OBJECTS
  0
DICTIONARY
  5
C
330
0
100
AcDbDictionary
  3
ACAD_COLOR
350
18D
  3
ACAD_GROUP
350
D
  3
ACAD_LAYOUT
350
18E
  3
ACAD_MATERIAL
350
18C
  3
ACAD_MLEADERSTYLE
350
D9E7
  3
ACAD_MLINESTYLE
350
1B
  3
ACAD_PLOTSETTINGS
350
18F
  3
ACAD_SCALELIST
350
D9C5
  3
ACAD_VISUALSTYLE
350
D9B4
  3
ACDBHEADERROUNDTRIPXREC
350
1B246
  3
ACDBVARIABLEDICTIONARY
350
37
  3
CONTENTDICTIONARY
350
D8
  3
DRAWINGVARIABLESDICT
350
20
  3
DWGPROPS
350
1B249
1001
ACAD
1000
TREAT_AS_HARD
1070
     0
  0
DICTIONARY
  5
E6A6
330
2
100
AcDbDictionary
  3
ACAD_LAYERSTATES
360
E6A7
1001
ACAD
1000
TREAT_AS_HARD
1070
     1
  0
DICTIONARY
  5
DA05
330
E
100
AcDbDictionary
  3
ADSK_XREC_LAYER_RECONCILED
360
DA06
1001
ACAD
1000
TREAT_AS_HARD
1070
     1
  0
DICTIONARY
  5
DA07
330
29
100
AcDbDictionary
  3
ADSK_XREC_LAYER_RECONCILED
360
DA08
1001
ACAD
1000
TREAT_AS_HARD
1070
     1
  0
DICTIONARY
  5
DA09
330
31
100
AcDbDictionary
  3
ADSK_XREC_LAYER_RECONCILED
360
DA0A
1001
ACAD
1000
TREAT_AS_HARD
1070
     1
  0
DICTIONARY
  5
DA0F
330
243
100
AcDbDictionary
  3
ADSK_XREC_LAYER_RECONCILED
360
DA10
1001
ACAD
1000
TREAT_AS_HARD
1070
     1
  0
DICTIONARY
  5
DA15
330
24E
100
AcDbDictionary
  3
ADSK_XREC_LAYER_RECONCILED
360
DA16
1001
ACAD
1000
TREAT_AS_HARD
1070
     1
  0
DICTIONARY
  5
88F
330
18
100
AcDbDictionary
  3
ACAD_SORTENTS
360
890
1001
ACAD
1000
TREAT_AS_HARD
1070
     1
  0
DICTIONARY
  5
18D
102
{ACAD_REACTORS
330
C
102
}
330
C
100
AcDbDictionary
1001
ACAD
1000
TREAT_AS_HARD
1070
     0
  0
DICTIONARY
  5
D
102
{ACAD_REACTORS
330
C
102
}
330
C
100
AcDbDictionary
1001
ACAD
1000
TREAT_AS_HARD
1070
     0
  0
DICTIONARY
  5
18E
102
{ACAD_REACTORS
330
C
102
}
330
C
100
AcDbDictionary
1001
ACAD
1000
TREAT_AS_HARD
1070
     0
  0
DICTIONARY
  5
18C
102
{ACAD_REACTORS
330
C
102
}
330
C
100
AcDbDictionary
  3
BYBLOCK
350
D9A4
  3
BYLAYER
350
D99C
  3
GLOBAL
350
D9AC
1001
ACAD
1000
TREAT_AS_HARD
1070
     0
  0
DICTIONARY
  5
D9E7
102
{ACAD_REACTORS
330
C
102
}
330
C
100
AcDbDictionary
  3
STANDARD
350
D9E8
1001
ACAD
1000
TREAT_AS_HARD
1070
     0
  0
DICTIONARY
  5
1B
102
{ACAD_REACTORS
330
C
102
}
330
C
100
AcDbDictionary
  3
STANDARD
350
1C
1001
ACAD
1000
TREAT_AS_HARD
1070
     0
  0
DICTIONARY
  5
18F
102
{ACAD_REACTORS
330
C
102
}
330
C
100
AcDbDictionary
1001
ACAD
1000
TREAT_AS_HARD
1070
     0
  0
DICTIONARY
  5
D9C5
102
{ACAD_REACTORS
330
C
102
}
330
C
100
AcDbDictionary
  3
A0
350
D9C6
  3
A1
350
D9C7
  3
A2
350
D9C8
  3
A3
350
D9C9
  3
A4
350
D9CA
  3
A5
350
D9CB
  3
A6
350
D9CC
  3
A7
350
D9CD
  3
A8
350
D9CE
  3
A9
350
D9CF
  3
B0
350
D9D0
  3
B1
350
D9D1
  3
B2
350
D9D2
  3
B3
350
D9D3
  3
B4
350
D9D4
  3
B5
350
D9D5
  3
B6
350
D9D6
  3
B7
350
D9D7
  3
B8
350
D9D8
  3
B9
350
D9D9
  3
C0
350
D9DA
  3
C1
350
D9DB
  3
C2
350
D9DC
  3
C3
350
D9DD
  3
C4
350
D9DE
  3
C5
350
D9DF
  3
C6
350
D9E0
  3
C7
350
D9E1
  3
C8
350
D9E2
  3
C9
350
D9E3
  3
D0
350
D9E4
  3
D1
350
D9E5
  3
D2
350
D9E6
1001
ACAD
1000
TREAT_AS_HARD
1070
     0
  0
DICTIONARY
  5
D9B4
102
{ACAD_REACTORS
330
C
102
}
330
C
100
AcDbDictionary
  3
2DWIREFRAME
350
D9BA
  3
3D_HIDDEN
350
D9BC
  3
3DWIREFRAME
350
D9BB
  3
BASIC
350
D9B9
  3
BRIGHTEN
350
D9C0
  3
COLORCHANGE
350
D9C4
  3
CONCEPTUAL
350
D9BD
  3
DIM
350
D9BF
  3
EDGECOLOROFF
350
19C2F
  3
FACEPATTERN
350
D9C3
  3
FLAT
350
D9B5
  3
FLATWITHEDGES
350
D9B6
  3
GOURAUD
350
D9B7
  3
GOURAUDWITHEDGES
350
D9B8
  3
HIDDEN
350
19C7E
  3
JITTEROFF
350
19C2D
  3
LINEPATTERN
350
D9C2
  3
MODELING
350
19C84
  3
OVERHANGOFF
350
19C2E
  3
REALISTIC
350
D9BE
  3
SHADED
350
19C83
  3
SHADED_WITH_EDGES
350
19C82
  3
SHADES_OF_GRAY
350
19C7F
  3
SKETCHY
350
19C80
  3
THICKEN
350
D9C1
  3
WIREFRAME
350
19C7D
  3
X-RAY
350
19C81
1001
ACAD
1000
TREAT_AS_HARD
1070
     0
  0
DICTIONARY
  5
1B246
102
{ACAD_REACTORS
330
C
102
}
330
C
100
AcDbDictionary
  3
COLORDICT
350
1B247
  3
MATERIALDICT
350
1B248
1001
ACAD
1000
TREAT_AS_HARD
1070
     0
  0
DICTIONARY
  5
37
102
{ACAD_REACTORS
330
C
102
}
330
C
100
AcDbDictionary
  3
CANNOSCALE
350
1A68D
  3
CMLEADERSTYLE
350
DA6A
  3
CTABLESTYLE
350
29E
  3
DIMADEC
350
38
  3
DIMASSOC
350
1CE
  3
HIDETEXT
350
704E
  3
INDEXCTL
350
DA6D
  3
INTERSECTIONCOLOR
350
7052
  3
INTERSECTIONDISPLAY
350
7051
  3
MSLTSCALE
350
1A6DD
  3
OBSCOLOR
350
704F
  3
OBSLTYPE
350
7050
  3
PROJECTNAME
350
1CF
  3
SORTENTS
350
DA6C
  3
XCLIPFRAME
350
19C7C
1001
ACAD
1000
TREAT_AS_HARD
1070
     0
  0
DICTIONARY
  5
D8
102
{ACAD_REACTORS
330
C
102
}
330
C
100
AcDbDictionary
1001
ACAD
1000
TREAT_AS_HARD
1070
     0
  0
DICTIONARY
  5
20
102
{ACAD_REACTORS
330
C
102
}
330
C
100
AcDbDictionary
1001
DRAWINGVARIABLESXDATA
1000
POLARANG
1000
0.261799387799149410000000
1000
POLARMODE
1000
1
1000
POLARSTYLE
1000
1
1001
ACAD
1000
TREAT_AS_HARD
1070
     0
  0
XRECORD
  5
1B249
102
{ACAD_REACTORS
330
C
102
}
330
C
100
AcDbXrecord
  1
DWGPROPS COOKIE
  2

  3

  4

  6

  7

  8
3684
  9

300
=
301
=
302
=
303
=
304
=
305
=
306
=
307
=
308
=
309
=
 40
0.0
 41
2451318.246352917
 42
2458150.258742222
  1

 90
        0
  0
DICTIONARY
  5
E6A7
102
{ACAD_REACTORS
330
E6A6
102
}
330
E6A6
100
AcDbDictionary
1001
ACAD
1000
TREAT_AS_HARD
1070
     0
  0
ACAD_PROXY_OBJECT
  5
DA06
102
{ACAD_REACTORS
330
DA05
102
}
330
DA05
100
AcDbZombieObject
 90
      499
 91
      514
 93
       34
310
40C8804040
  0
ACAD_PROXY_OBJECT
  5
DA08
102
{ACAD_REACTORS
330
DA07
102
}
330
DA07
100
AcDbZombieObject
 90
      499
 91
      514
 93
       34
310
40C8804040
  0
ACAD_PROXY_OBJECT
  5
DA0A
102
{ACAD_REACTORS
330
DA09
102
}
330
DA09
100
AcDbZombieObject
 90
      499
 91
      514
 93
       34
310
40C8804040
  0
ACAD_PROXY_OBJECT
  5
DA10
102
{ACAD_REACTORS
330
DA0F
102
}
330
DA0F
100
AcDbZombieObject
 90
      499
 91
      514
 93
       34
310
40C8804040
  0
ACAD_PROXY_OBJECT
  5
DA16
102
{ACAD_REACTORS
330
DA15
102
}
330
DA15
100
AcDbZombieObject
 90
      499
 91
      514
 93
       34
310
40C8804040
  0
SORTENTSTABLE
  5
890
102
{ACAD_REACTORS
330
88F
102
}
330
88F
100
AcDbSortentsTable
330
18
331
0
  5
5BFF
331
0
  5
1AD08
331
1AD07
  5
1AD21
331
1AD08
  5
1AD22
331
1AD09
  5
1AD23
331
1AD0D
  5
1AD45
331
1AD0E
  5
1AD46
331
1AD0F
  5
1AD47
331
1AD10
  5
1AD48
331
1AD11
  5
1AD49
331
1AD12
  5
1AD4A
331
1AD13
  5
1AD4B
331
1AD14
  5
1AD4C
331
1AD15
  5
1AD4D
331
1AD16
  5
1AD4E
331
1AD17
  5
1AD4F
331
1AD18
  5
1AD50
331
1AD19
  5
1AD51
331
1AD1A
  5
1AD52
331
1AD1B
  5
1AD53
331
1AD1C
  5
1AD54
331
1AD1D
  5
1AD55
331
1AD1E
  5
1AD56
331
1AD1F
  5
1AD57
331
1AD20
  5
1AD58
331
1AD21
  5
1AD59
331
1AD22
  5
1AD5A
331
1AD23
  5
1AD5B
331
1AD24
  5
1AD5C
331
1AD25
  5
1AD5D
331
1AD26
  5
1AD5E
331
1AD27
  5
1AD5F
331
1AD28
  5
1AD60
331
1AD29
  5
1AD61
331
1AD2A
  5
1AD62
331
1AD2B
  5
1AD63
331
1AD2C
  5
1AD64
331
1AD2D
  5
1AD65
331
1AD2E
  5
1AD66
331
1AD2F
  5
1AD67
331
1AD30
  5
1AD68
331
1AD31
  5
1AD69
331
1AD32
  5
1AD6A
331
1AD33
  5
1AD6B
331
1AD34
  5
1AD6C
331
1AD35
  5
1AD6D
331
1AD36
  5
1AD6E
331
1AD37
  5
1AD6F
331
1AD38
  5
1AD70
331
1AD39
  5
1AD71
331
1AD3A
  5
1AD72
331
1AD3B
  5
1AD73
331
1AD3C
  5
1AD75
331
1AD3D
  5
1AD76
331
1AD3E
  5
1AD77
331
1AD3F
  5
1AD78
331
1AD40
  5
1AD79
331
1AD41
  5
1AD7A
331
1AD42
  5
1AD7B
331
1AD43
  5
1AD7C
331
1AD44
  5
1AD7D
331
1AD45
  5
1AD7E
331
1AD46
  5
1AD7F
331
1AD47
  5
1AD80
331
1AD48
  5
1AD81
331
1AD49
  5
1AD83
331
1AD4A
  5
1AD84
331
0
  5
1AD82
331
1AD4C
  5
1AD95
331
1AD4D
  5
1AD96
331
1AD4E
  5
1AD97
331
1AD4F
  5
1AD98
331
1AD50
  5
1AD99
331
1AD51
  5
1AD9A
331
1AD52
  5
1AD9B
331
1AD53
  5
1AD9C
331
1AD54
  5
1AD9D
331
1AD55
  5
1AD9E
331
1AD56
  5
1AD9F
331
1AD57
  5
1ADA0
331
1AD58
  5
1ADA1
331
1AD59
  5
1ADA2
331
1AD5A
  5
1ADA3
331
1AD5B
  5
1ADA4
331
1AD5C
  5
1ADA7
331
1AD5D
  5
1ADA8
331
1AD5E
  5
1ADA9
331
1AD5F
  5
1ADAA
331
1AD60
  5
1ADAB
331
1AD61
  5
1ADAC
331
1AD62
  5
1ADAD
331
1AD63
  5
1ADAE
331
1AD64
  5
1ADAF
331
1AD65
  5
1ADB0
331
1AD66
  5
1ADB1
331
1AD67
  5
1ADB2
331
1AD68
  5
1ADB3
331
1AD69
  5
1ADB4
331
1AD6A
  5
1ADB5
331
1AD6B
  5
1ADB6
331
1AD6C
  5
1ADB7
331
1AD6D
  5
1ADB8
331
1AD6E
  5
1ADB9
331
1AD6F
  5
1ADBA
331
1AD70
  5
1ADBB
331
1AD71
  5
1ADBC
331
1AD72
  5
1ADBD
331
1AD73
  5
1ADBE
331
1AD75
  5
1ADC9
331
1AD76
  5
1ADCD
331
1AD77
  5
1ADCE
331
1AD78
  5
1ADCF
331
1AD79
  5
1ADD3
331
1AD7A
  5
1ADD4
331
1AD7B
  5
1ADD5
331
1AD7C
  5
1ADD6
331
1AD7D
  5
1ADD7
331
1AD7E
  5
1ADD8
331
1AD7F
  5
1ADD9
331
1AD80
  5
1ADDA
331
1AD81
  5
1ADDB
331
1AD82
  5
1ADDC
331
1AD83
  5
1ADDD
331
1AD84
  5
1ADDE
331
1AD85
  5
1ADDF
331
1AD86
  5
1ADE0
331
1AD87
  5
1ADE1
331
1AD88
  5
1ADE2
331
1AD89
  5
1ADE3
331
1AD8A
  5
1ADE4
331
1AD8B
  5
1ADE5
331
1AD8C
  5
1ADE6
331
1AD8D
  5
1ADE7
331
1AD8E
  5
1ADE8
331
1AD8F
  5
1ADE9
331
1AD90
  5
1ADEA
331
1AD91
  5
1ADEB
331
1AD92
  5
1ADEC
331
1AD93
  5
1ADED
331
1AD94
  5
1ADEE
331
1AD95
  5
1ADEF
331
1AD96
  5
1ADF0
331
1AD97
  5
1ADF1
331
1AD98
  5
1ADF2
331
1AD99
  5
1ADF3
331
1AD9A
  5
1ADF4
331
1AD9B
  5
1ADF5
331
1AD9C
  5
1ADF7
331
1AD9D
  5
1ADF8
331
1AD9E
  5
1ADF9
331
1AD9F
  5
1ADFA
331
1ADA0
  5
1ADFB
331
1ADA1
  5
1ADFC
331
1ADA2
  5
1ADFD
331
1ADA3
  5
1ADFE
331
1ADA4
  5
1ADFF
331
1ADA7
  5
1AE14
331
1ADA8
  5
1AE15
331
1ADA9
  5
1AE16
331
1ADAA
  5
1AE17
331
1ADAB
  5
1AE18
331
1ADAC
  5
1AE19
331
1ADAD
  5
1AE1A
331
1ADAE
  5
1AE1B
331
1ADAF
  5
1AE1C
331
1ADB0
  5
1AE1D
331
1ADB1
  5
1AE1E
331
1ADB2
  5
1AE1F
331
1ADB3
  5
1AE20
331
1ADB4
  5
1AE21
331
1ADB5
  5
1AE22
331
1ADB6
  5
1AE23
331
1ADB7
  5
1AE24
331
1ADB8
  5
1AE25
331
1ADB9
  5
1AE29
331
1ADBA
  5
1AE2A
331
1ADBB
  5
1AE2B
331
1ADBC
  5
1AE2C
331
1ADBD
  5
1AE2D
331
1ADBE
  5
1AE2E
331
1ADBF
  5
1AE2F
331
1ADC0
  5
1AE30
331
1ADC1
  5
1AE31
331
1ADC2
  5
1AE32
331
1ADC3
  5
1AE33
331
1ADC4
  5
1AE34
331
1ADC5
  5
1AE35
331
1ADC6
  5
1AE36
331
1ADC7
  5
1AE37
331
1ADC8
  5
1AE38
331
1ADC9
  5
1AE39
331
1ADCA
  5
1AE3A
331
1ADCB
  5
1AE3B
331
1ADCC
  5
1AE3C
331
1ADCD
  5
1AE3D
331
1ADCE
  5
1AE3E
331
1ADCF
  5
1AE3F
331
1ADD0
  5
1AE40
331
1ADD1
  5
1AE41
331
1ADD2
  5
1AE42
331
1ADD3
  5
1AE43
331
1ADD4
  5
1AE44
331
1ADD5
  5
1AE45
331
1ADD6
  5
1AE46
331
1ADD7
  5
1AE47
331
1ADD8
  5
1AE48
331
1ADD9
  5
1AE49
331
1ADDA
  5
1AE4A
331
1ADDB
  5
1AE4B
331
1ADDC
  5
1AE4C
331
1ADDD
  5
1AE4D
331
1ADDE
  5
1AE4E
331
1ADDF
  5
1AE4F
331
1ADE0
  5
1AE50
331
1ADE1
  5
1AE51
331
1ADE2
  5
1AE52
331
1ADE3
  5
1AE53
331
1ADE4
  5
1AE54
331
1ADE5
  5
1AE55
331
1ADE6
  5
1AE56
331
1ADE7
  5
1AE57
331
1ADE8
  5
1AE58
331
1ADE9
  5
1AE59
331
1ADEA
  5
1AE5A
331
1ADEB
  5
1AE5B
331
1ADEC
  5
1AE5C
331
1ADED
  5
1AE5D
331
1ADEE
  5
1AE5E
331
1ADEF
  5
1AE5F
331
1ADF0
  5
1AE60
331
1ADF1
  5
1AE61
331
1ADF2
  5
1AE62
331
1ADF3
  5
1AE63
331
1ADF4
  5
1AE64
331
1ADF5
  5
1AE6A
331
1ADF7
  5
1AE78
331
1ADF8
  5
1AE79
331
1ADF9
  5
1AE7A
331
1ADFA
  5
1AE7E
331
0
  5
1AE65
331
0
  5
1AE66
331
0
  5
1AE67
331
0
  5
1AE68
331
0
  5
1AE69
331
1AE00
  5
1AEBA
331
1AE01
  5
1AEBB
331
1AE02
  5
1AEBC
331
1AE03
  5
1AEBD
331
1AE04
  5
1AEBE
331
1AE05
  5
1AEBF
331
1AE06
  5
1AEC0
331
1AE07
  5
1AEC1
331
1AE08
  5
1AEC2
331
1AE09
  5
1AEC3
331
1AE0A
  5
1AEC4
331
1AE0B
  5
1AEC5
331
1AE0C
  5
1AEC6
331
1AE0D
  5
1AEC7
331
1AE0E
  5
1AEC8
331
1AE0F
  5
1AEC9
331
1AE10
  5
1AECA
331
1AE11
  5
1AECB
331
1AE12
  5
1AECC
331
1AE13
  5
1AECD
331
1AE14
  5
1AECE
331
1AE15
  5
1AECF
331
1AE16
  5
1AED0
331
1AE17
  5
1AED1
331
1AE18
  5
1AED2
331
1AE19
  5
1AED3
331
1AE1A
  5
1AED4
331
1AE1B
  5
1AED5
331
1AE1C
  5
1AED6
331
1AE1D
  5
1AED7
331
1AE1E
  5
1AED8
331
1AE1F
  5
1AED9
331
1AE20
  5
1AEDA
331
1AE21
  5
1AEDB
331
1AE22
  5
1AEDC
331
1AE23
  5
1AEDD
331
1AE24
  5
1AEDE
331
1AE25
  5
1AEDF
331
1AE26
  5
1AEE0
331
1AE27
  5
1AEE1
331
1AE28
  5
1AEE2
331
1AE29
  5
1AEE3
331
1AE2A
  5
1AEE4
331
1AE2B
  5
1AEE5
331
1AE2C
  5
1AEE6
331
1AE2D
  5
1AEE7
331
1AE2E
  5
1AEE8
331
1AE2F
  5
1AEE9
331
1AE30
  5
1AEEA
331
1AE31
  5
1AEEB
331
1AE32
  5
1AEEC
331
1AE33
  5
1AEED
331
1AE34
  5
1AEEE
331
1AE35
  5
1AEEF
331
1AE36
  5
1AEF0
331
1AE37
  5
1AEF1
331
1AE38
  5
1AEF2
331
1AE39
  5
1AEF3
331
1AE3A
  5
1AEF4
331
1AE3B
  5
1AEF5
331
1AE3C
  5
1AEF6
331
1AE3D
  5
1AEF7
331
1AE3E
  5
1AEF8
331
1AE3F
  5
1AEF9
331
1AE40
  5
1AEFA
331
1AE41
  5
1AEFB
331
1AE42
  5
1AEFC
331
1AE43
  5
1AEFD
331
1AE44
  5
1AEFE
331
1AE45
  5
1AEFF
331
1AE46
  5
1AF00
331
1AE47
  5
1AF01
331
1AE48
  5
1AF02
331
1AE49
  5
1AF04
331
1AE4A
  5
1AF05
331
1AE4B
  5
1AF06
331
1AE4C
  5
1AF07
331
1AE4D
  5
1AF08
331
1AE4E
  5
1AF09
331
1AE4F
  5
1AF0A
331
1AE50
  5
1AF0B
331
1AE51
  5
1AF0C
331
1AE52
  5
1AF0D
331
1AE53
  5
1AF0E
331
1AE54
  5
1AF0F
331
1AE55
  5
1AF10
331
1AE56
  5
1AF11
331
1AE57
  5
1AF12
331
1AE58
  5
1AF13
331
1AE59
  5
1AF14
331
1AE5A
  5
1AF15
331
1AE5B
  5
1AF16
331
1AE5C
  5
1AF17
331
1AE5D
  5
1AF18
331
1AE5E
  5
1AF19
331
1AE5F
  5
1AF1A
331
1AE60
  5
1AF1B
331
1AE61
  5
1AF1C
331
1AE62
  5
1AF1D
331
1AE63
  5
1AF1E
331
1AE64
  5
1AF1F
331
1AE65
  5
1AF20
331
1AE66
  5
1AF21
331
1AE67
  5
1AF22
331
1AE68
  5
1AF23
331
1AE69
  5
1AF24
331
1AE6A
  5
1AF25
331
1AE6B
  5
1AF26
331
1AE6C
  5
1AF27
331
1AE6D
  5
1AF28
331
1AE6E
  5
1AF29
331
1AE6F
  5
1AF2A
331
1AE70
  5
1AF2B
331
1AE71
  5
1AF2C
331
1AE72
  5
1AF2D
331
1AE73
  5
1AF2E
331
1AE74
  5
1AF2F
331
1AE75
  5
1AF30
331
1AE76
  5
1AF31
331
1AE77
  5
1AF32
331
1AE78
  5
1AF33
331
1AE79
  5
1AF34
331
1AE7A
  5
1AF35
331
1AE7B
  5
1AF36
331
1AE7C
  5
1AF37
331
1AE7D
  5
1AF38
331
1AE7E
  5
1AF3C
331
1AE7F
  5
1AF3D
331
1AE80
  5
1AF3E
331
1AE81
  5
1AF3F
331
1AE82
  5
1AF40
331
1AE83
  5
1AF41
331
1AE84
  5
1AF42
331
1AE85
  5
1AF43
331
1AE86
  5
1AF44
331
1AE87
  5
1AF45
331
1AE88
  5
1AF46
331
1AE89
  5
1AF47
331
1AE8A
  5
1AF48
331
1AE8B
  5
1AF49
331
1AE8C
  5
1AF4A
331
1AE8D
  5
1AF4B
331
1AE8E
  5
1AF4C
331
1AE8F
  5
1AF4D
331
1AE90
  5
1AF4E
331
1AE91
  5
1AF4F
331
1AE92
  5
1AF50
331
1AE93
  5
1AF51
331
1AE94
  5
1AF52
331
1AE95
  5
1AF53
331
1AE96
  5
1AF54
331
1AE97
  5
1AF55
331
1AE98
  5
1AF56
331
1AE99
  5
1AF57
331
1AE9A
  5
1AF58
331
1AE9B
  5
1AF59
331
1AE9C
  5
1AF5A
331
1AE9D
  5
1AF5B
331
1AE9E
  5
1AF5C
331
1AE9F
  5
1AF5D
331
1AEA0
  5
1AF5E
331
1AEA1
  5
1AF5F
331
1AEA2
  5
1AF60
331
1AEA3
  5
1AF61
331
1AEA4
  5
1AF62
331
1AEA5
  5
1AF63
331
1AEA6
  5
1AF64
331
1AEA7
  5
1AF65
331
1AEA8
  5
1AF66
331
1AEA9
  5
1AF67
331
1AEAA
  5
1AF68
331
1AEAB
  5
1AF69
331
1AEAC
  5
1AF6A
331
1AEAD
  5
1AF6B
331
1AEAE
  5
1AF6C
331
1AEAF
  5
1AF6D
331
1AEB0
  5
1AF6E
331
1AEB1
  5
1AF6F
331
1AEB2
  5
1AF70
331
1AEB3
  5
1AF71
331
1AEB4
  5
1AF72
331
1AEB5
  5
1AF73
331
1AEB6
  5
1AF74
331
1AEB7
  5
1AF75
331
1AEB8
  5
1AF76
331
1AEB9
  5
1AF77
331
1AEBA
  5
1AF78
331
1AEBB
  5
1AF79
331
1AEBC
  5
1AF7A
331
1AEBD
  5
1AF7B
331
1AEBE
  5
1AF7C
331
1AEBF
  5
1AF7D
331
1AEC0
  5
1AF7E
331
1AEC1
  5
1AF7F
331
1AEC2
  5
1AF80
331
1AEC3
  5
1AF81
331
1AEC4
  5
1AF82
331
1AEC5
  5
1AF83
331
1AEC6
  5
1AF84
331
1AEC7
  5
1AF85
331
1AEC8
  5
1AF86
331
1AEC9
  5
1AF87
331
1AECA
  5
1AF88
331
1AECB
  5
1AF89
331
1AECC
  5
1AF8A
331
1AECD
  5
1AF8B
331
1AECE
  5
1AF8C
331
1AECF
  5
1AF8D
331
1AED0
  5
1AF8E
331
1AED1
  5
1AF8F
331
1AED2
  5
1AF90
331
1AED3
  5
1AF91
331
1AED4
  5
1AF92
331
1AED5
  5
1AF93
331
1AED6
  5
1AF94
331
1AED7
  5
1AF95
331
1AED8
  5
1AF96
331
1AED9
  5
1AF97
331
1AEDA
  5
1AF98
331
1AEDB
  5
1AF99
331
1AEDC
  5
1AF9A
331
1AEDD
  5
1AF9B
331
1AEDE
  5
1AF9C
331
1AEDF
  5
1B17F
331
1AEE0
  5
1B180
331
1AEE1
  5
1B181
331
1AEE2
  5
1B182
331
1AEE3
  5
1B183
331
1AEE4
  5
1B184
331
1AEE5
  5
1B185
331
1AEE6
  5
1B186
331
1AEE7
  5
1B187
331
1AEE8
  5
1B188
331
1AEE9
  5
1B189
331
1AEEA
  5
1B18A
331
1AEEB
  5
1B18B
331
1AEEC
  5
1B18C
331
1AEED
  5
1B18D
331
1AEEE
  5
1B18E
331
1AEEF
  5
1B18F
331
1AEF0
  5
1B190
331
1AEF1
  5
1B191
331
1AEF2
  5
1B192
331
1AEF3
  5
1B193
331
1AEF4
  5
1B194
331
1AEF5
  5
1B195
331
1AEF6
  5
1B196
331
1AEF7
  5
1B197
331
1AEF8
  5
1B198
331
1AEF9
  5
1B199
331
1AEFA
  5
1B19A
331
1AEFB
  5
1B19B
331
1AEFC
  5
1B19C
331
1AEFD
  5
1B19D
331
1AEFE
  5
1B19E
331
1AEFF
  5
1B19F
331
1AF00
  5
1B1A0
331
1AF01
  5
1B1A1
331
1AF02
  5
1B1A2
331
1AF04
  5
1B1AD
331
1AF05
  5
1B1AE
331
1AF06
  5
1B1AF
331
1AF07
  5
1B1B0
331
1AF08
  5
1B1B1
331
1AF09
  5
1B1B2
331
1AF0A
  5
1B1B3
331
1AF0B
  5
1B1B4
331
1AF0C
  5
1B1B5
331
1AF0D
  5
1B1B6
331
1AF0E
  5
1B1B7
331
1AF0F
  5
1B1B8
331
1AF10
  5
1B1B9
331
1AF11
  5
1B1BA
331
1AF12
  5
1B1BB
331
1AF13
  5
1B1BC
331
1AF14
  5
1B1BD
331
1AF15
  5
1B1BE
331
1AF16
  5
1B1BF
331
1AF17
  5
1B1C0
331
1AF18
  5
1B1C1
331
1AF19
  5
1B1C2
331
1AF1A
  5
1B1C3
331
1AF1B
  5
1B1C4
331
1AF1C
  5
1B1C5
331
1AF1D
  5
1B1C6
331
1AF1E
  5
1B1C7
331
1AF1F
  5
1B1C8
331
1AF20
  5
1B1C9
331
1AF21
  5
1B1CA
331
1AF22
  5
1B1CB
331
1AF23
  5
1B1CC
331
1AF24
  5
1B1CD
331
1AF25
  5
1B1CE
331
1AF26
  5
1B1CF
331
1AF27
  5
1B1D0
331
1AF28
  5
1B1D1
331
1AF29
  5
1B1D2
331
1AF2A
  5
1B1D3
331
1AF2B
  5
1B1D4
331
1AF2C
  5
1B1D5
331
1AF2D
  5
1B1D6
331
1AF2E
  5
1B1D7
331
1AF2F
  5
1B1D8
331
1AF30
  5
1B1D9
331
1AF31
  5
1B1DA
331
1AF32
  5
1B1DB
331
1AF33
  5
1B1DC
331
1AF34
  5
1B1DD
331
1AF35
  5
1B1DE
331
1AF36
  5
1B1DF
331
1AF37
  5
1B1E0
331
1AF38
  5
1B1E1
331
1AF39
  5
1B1E2
331
1AF3A
  5
1B1E3
331
1AF3B
  5
1B1E4
331
1AF3C
  5
1B1E5
331
1AF3D
  5
1B1E6
331
1AF3E
  5
1B1E7
331
1AF3F
  5
1B1E8
331
1AF40
  5
1B1E9
331
1AF41
  5
1B1EA
331
1AF42
  5
1B1EB
331
1AF43
  5
1B1EC
331
1AF44
  5
1B1ED
331
1AF45
  5
1B1EE
331
1AF46
  5
1B1EF
331
1AF47
  5
1B1F0
331
1AF48
  5
1B1F1
331
1AF49
  5
1B1F2
331
1AF4A
  5
1B1F3
331
1AF4B
  5
1B1F4
331
1AF4C
  5
1B1F5
331
1AF4D
  5
1B1F6
331
1AF4E
  5
1B1F7
331
1AF4F
  5
1B1F8
331
1AF50
  5
1B1F9
331
1AF51
  5
1B1FA
331
1AF52
  5
1B1FB
331
1AF53
  5
1B1FC
331
1AF54
  5
1B1FD
331
1AF55
  5
1B1FE
331
1AF56
  5
1B1FF
331
1AF57
  5
1B200
331
1AF58
  5
1B201
331
1AF59
  5
1B202
331
1AF5A
  5
1B203
331
1AF5B
  5
1B204
331
1AF5C
  5
1B205
331
1AF5D
  5
1B206
331
1AF5E
  5
1B207
331
1AF5F
  5
1B208
331
1AF60
  5
1B209
331
1AF61
  5
1B20A
331
1AF62
  5
1B20B
331
1AF63
  5
1B20C
331
1AF64
  5
1B20D
331
1AF65
  5
1B20E
331
1AF66
  5
1B20F
331
1AF67
  5
1B210
331
1AF68
  5
1B211
331
1AF69
  5
1B212
331
1AF6A
  5
1B213
331
1AF6B
  5
1B214
331
1AF6C
  5
1B215
331
1AF6D
  5
1B216
331
1AF6E
  5
1B217
331
1AF6F
  5
1B218
331
1AF70
  5
1B219
331
1AF71
  5
1B21A
331
1AF72
  5
1B21B
331
1AF73
  5
1B21C
331
1AF74
  5
1B21D
331
1AF75
  5
1B21E
331
1AF76
  5
1B21F
331
1AF77
  5
1B220
331
1AF78
  5
1B221
331
1AF79
  5
1B222
331
1AF7A
  5
1B223
331
1AF7B
  5
1B224
331
1AF7C
  5
1B225
331
1AF7D
  5
1B226
331
1AF7E
  5
1B227
331
1AF7F
  5
1B228
331
1AF80
  5
1B229
331
1AF81
  5
1B22A
331
1AF82
  5
1B22B
331
1AF83
  5
1B22C
331
1AF84
  5
1B22D
331
1AF85
  5
1B22E
331
1AF86
  5
1B22F
331
1AF87
  5
1B230
331
1AF88
  5
1B231
331
1AF89
  5
1B232
331
1AF8A
  5
1B233
331
1AF8B
  5
1B234
331
1AF8C
  5
1B235
331
1AF8D
  5
1B236
331
1AF8E
  5
1B237
331
1AF8F
  5
1B238
331
1AF90
  5
1B239
331
1AF91
  5
1B23A
331
1AF92
  5
1B23B
331
1AF93
  5
1B23C
331
1AF94
  5
1B23D
331
1AF95
  5
1B23E
331
1AF96
  5
1B23F
331
1AF97
  5
1B240
331
1AF98
  5
1B241
331
1AF99
  5
1B242
331
1AF9A
  5
1B243
331
1AF9B
  5
1B244
331
1AF9C
  5
1B245
331
1B17F
  5
1AD05
331
1B180
  5
1AD07
331
1B181
  5
1AD0E
331
1B182
  5
1AD12
331
1B183
  5
1AD13
331
0
  5
1AD0F
331
0
  5
1AD10
331
0
  5
1AD11
331
1B187
  5
1AD27
331
1B188
  5
1AD28
331
1B189
  5
1AD29
331
0
  5
1AD18
331
0
  5
1AD19
331
0
  5
1AD1A
331
1B18D
  5
1AD31
331
1B18E
  5
1AD32
331
1B18F
  5
1AD33
331
0
  5
1AD1E
331
0
  5
1AD1F
331
0
  5
1AD20
331
1B193
  5
1AD3B
331
1B194
  5
1AD3C
331
1B195
  5
1AD3D
331
0
  5
1AD24
331
0
  5
1AD25
331
0
  5
1AD26
331
1B199
  5
1ADBF
331
1B19A
  5
1ADC0
331
1B19B
  5
1ADC1
331
0
  5
1AD92
331
0
  5
1AD93
331
0
  5
1AD94
331
1B19F
  5
1AE00
331
1B1A0
  5
1AE01
331
1B1A1
  5
1AE02
331
0
  5
1ADCA
331
0
  5
1ADCB
331
0
  5
1ADCC
331
1B1A5
  5
1AE0A
331
1B1A6
  5
1AE0B
331
1B1A7
  5
1AE0C
331
0
  5
1ADD0
331
0
  5
1ADD1
331
0
  5
1ADD2
331
1B1AB
  5
1AE6B
331
1B1AC
  5
1AE6C
331
1B1AD
  5
1AE6D
331
0
  5
1AE26
331
0
  5
1AE27
331
0
  5
1AE28
331
1B1B1
  5
1B1A3
331
1B1B2
  5
1B1A4
331
1B1B3
  5
1B1A5
331
0
  5
1AF39
331
0
  5
1AF3A
331
0
  5
1AF3B
331
1B1B7
  5
1AD14
331
1B1B8
  5
1AD15
331
1B1B9
  5
1AD16
331
1B1BA
  5
1AD17
331
1B1BB
  5
1AD1B
331
1B1BC
  5
1AD1C
331
1B1BD
  5
1AD1D
331
1B1BE
  5
1AD2A
331
1B1BF
  5
1AD2B
331
1B1C0
  5
1AD2C
331
1B1C1
  5
1AD2D
331
1B1C2
  5
1AD2E
331
1B1C3
  5
1AD2F
331
1B1C4
  5
1AD30
331
1B1C5
  5
1AD34
331
1B1C6
  5
1AD35
331
1B1C7
  5
1AD36
331
1B1C8
  5
1AD37
331
1B1C9
  5
1AD38
331
1B1CA
  5
1AD39
331
1B1CB
  5
1AD3A
331
1B1CC
  5
1AD3E
331
1B1CD
  5
1AD3F
331
1B1CE
  5
1AD40
331
1B1CF
  5
1AD41
331
1B1D0
  5
1AD42
331
1B1D1
  5
1AD43
331
1B1D2
  5
1AD44
331
1B1D3
  5
1ADC2
331
1B1D4
  5
1ADC3
331
1B1D5
  5
1ADC4
331
1B1D6
  5
1ADC5
331
1B1D7
  5
1ADC6
331
1B1D8
  5
1ADC7
331
1B1D9
  5
1ADC8
331
1B1DA
  5
1AE03
331
1B1DB
  5
1AE04
331
1B1DC
  5
1AE05
331
1B1DD
  5
1AE06
331
1B1DE
  5
1AE07
331
1B1DF
  5
1AE08
331
1B1E0
  5
1AE09
331
1B1E1
  5
1AE0D
331
1B1E2
  5
1AE0E
331
1B1E3
  5
1AE0F
331
1B1E4
  5
1AE10
331
1B1E5
  5
1AE11
331
1B1E6
  5
1AE12
331
1B1E7
  5
1AE13
331
1B1E8
  5
1AE6E
331
1B1E9
  5
1AE6F
331
1B1EA
  5
1AE70
331
1B1EB
  5
1AE71
331
1B1EC
  5
1AE72
331
1B1ED
  5
1AE73
331
1B1EE
  5
1AE74
331
1B1EF
  5
1B1A6
331
1B1F0
  5
1B1A7
331
1B1F1
  5
1B1A8
331
1B1F2
  5
1B1A9
331
1B1F3
  5
1B1AA
331
1B1F4
  5
1B1AB
331
1B1F5
  5
1B1AC
331
1B1F6
  5
1AD09
331
1B1F7
  5
1AD0D
331
1B1F8
  5
1AD85
331
1B1F9
  5
1AD86
331
1B1FA
  5
1AD87
331
0
  5
1AD88
331
0
  5
1AD89
331
0
  5
1AD8A
331
1B1FE
  5
1AE7F
331
1B1FF
  5
1AE80
331
1B200
  5
1AE84
331
0
  5
1AE75
331
0
  5
1AE76
331
0
  5
1AE77
331
1B204
  5
1AE92
331
1B205
  5
1AE93
331
1B206
  5
1AE94
331
0
  5
1AE7B
331
0
  5
1AE7C
331
0
  5
1AE7D
331
1B20A
  5
1AE9C
331
1B20B
  5
1AE9D
331
1B20C
  5
1AE9E
331
0
  5
1AE81
331
0
  5
1AE82
331
0
  5
1AE83
331
1B210
  5
1AEA6
331
1B211
  5
1AEA7
331
1B212
  5
1AEA8
331
0
  5
1AE87
331
0
  5
1AE88
331
0
  5
1AE89
331
1B216
  5
1AEB0
331
1B217
  5
1AEB1
331
1B218
  5
1AEB2
331
0
  5
1AE8D
331
0
  5
1AE8E
331
0
  5
1AE8F
331
1B21C
  5
1AD8B
331
1B21D
  5
1AD8C
331
1B21E
  5
1AD8D
331
1B21F
  5
1AD8E
331
1B220
  5
1AD8F
331
1B221
  5
1AD90
331
1B222
  5
1AD91
331
1B223
  5
1AE85
331
1B224
  5
1AE86
331
1B225
  5
1AE8A
331
1B226
  5
1AE8B
331
1B227
  5
1AE8C
331
1B228
  5
1AE90
331
1B229
  5
1AE91
331
1B22A
  5
1AE95
331
1B22B
  5
1AE96
331
1B22C
  5
1AE97
331
1B22D
  5
1AE98
331
1B22E
  5
1AE99
331
1B22F
  5
1AE9A
331
1B230
  5
1AE9B
331
1B231
  5
1AE9F
331
1B232
  5
1AEA0
331
1B233
  5
1AEA1
331
1B234
  5
1AEA2
331
1B235
  5
1AEA3
331
1B236
  5
1AEA4
331
1B237
  5
1AEA5
331
1B238
  5
1AEA9
331
1B239
  5
1AEAA
331
1B23A
  5
1AEAB
331
1B23B
  5
1AEAC
331
1B23C
  5
1AEAD
331
1B23D
  5
1AEAE
331
1B23E
  5
1AEAF
331
1B23F
  5
1AEB3
331
1B240
  5
1AEB4
331
1B241
  5
1AEB5
331
1B242
  5
1AEB6
331
1B243
  5
1AEB7
331
1B244
  5
1AEB8
331
1B245
  5
1AEB9
  0
MATERIAL
  5
D9A4
102
{ACAD_REACTORS
330
18C
102
}
102
{ACAD_XDICTIONARY
360
1B3E4
102
}
330
18C
100
AcDbMaterial
  1
BYBLOCK
 72
     0
 73
     2
 43
0.0208333333333333
 43
0.0
 43
0.0
 43
0.0
 43
0.0
 43
0.0208333333333333
 43
0.0
 43
0.0
 43
0.0
 43
0.0
 43
1.0
 43
0.0
 43
0.0
 43
0.0
 43
0.0
 43
1.0
 77
     0
 78
     2
 47
0.0208333333333333
 47
0.0
 47
0.0
 47
0.0
 47
0.0
 47
0.0208333333333333
 47
0.0
 47
0.0
 47
0.0
 47
0.0
 47
1.0
 47
0.0
 47
0.0
 47
0.0
 47
0.0
 47
1.0
171
     0
172
     2
 49
0.0208333333333333
 49
0.0
 49
0.0
 49
0.0
 49
0.0
 49
0.0208333333333333
 49
0.0
 49
0.0
 49
0.0
 49
0.0
 49
1.0
 49
0.0
 49
0.0
 49
0.0
 49
0.0
 49
1.0
175
     0
176
     2
142
0.0208333333333333
142
0.0
142
0.0
142
0.0
142
0.0
142
0.0208333333333333
142
0.0
142
0.0
142
0.0
142
0.0
142
1.0
142
0.0
142
0.0
142
0.0
142
0.0
142
1.0
179
     0
270
     2
144
0.0208333333333333
144
0.0
144
0.0
144
0.0
144
0.0
144
0.0208333333333333
144
0.0
144
0.0
144
0.0
144
0.0
144
1.0
144
0.0
144
0.0
144
0.0
144
0.0
144
1.0
274
     2
147
0.0208333333333333
147
0.0
147
0.0
147
0.0
147
0.0
147
0.0208333333333333
147
0.0
147
0.0
147
0.0
147
0.0
147
1.0
147
0.0
147
0.0
147
0.0
147
0.0
147
1.0
  0
MATERIAL
  5
D99C
102
{ACAD_REACTORS
330
18C
102
}
102
{ACAD_XDICTIONARY
360
1B3E6
102
}
330
18C
100
AcDbMaterial
  1
BYLAYER
 72
     0
 73
     2
 43
0.0208333333333333
 43
0.0
 43
0.0
 43
0.0
 43
0.0
 43
0.0208333333333333
 43
0.0
 43
0.0
 43
0.0
 43
0.0
 43
1.0
 43
0.0
 43
0.0
 43
0.0
 43
0.0
 43
1.0
 77
     0
 78
     2
 47
0.0208333333333333
 47
0.0
 47
0.0
 47
0.0
 47
0.0
 47
0.0208333333333333
 47
0.0
 47
0.0
 47
0.0
 47
0.0
 47
1.0
 47
0.0
 47
0.0
 47
0.0
 47
0.0
 47
1.0
171
     0
172
     2
 49
0.0208333333333333
 49
0.0
 49
0.0
 49
0.0
 49
0.0
 49
0.0208333333333333
 49
0.0
 49
0.0
 49
0.0
 49
0.0
 49
1.0
 49
0.0
 49
0.0
 49
0.0
 49
0.0
 49
1.0
175
     0
176
     2
142
0.0208333333333333
142
0.0
142
0.0
142
0.0
142
0.0
142
0.0208333333333333
142
0.0
142
0.0
142
0.0
142
0.0
142
1.0
142
0.0
142
0.0
142
0.0
142
0.0
142
1.0
179
     0
270
     2
144
0.0208333333333333
144
0.0
144
0.0
144
0.0
144
0.0
144
0.0208333333333333
144
0.0
144
0.0
144
0.0
144
0.0
144
1.0
144
0.0
144
0.0
144
0.0
144
0.0
144
1.0
274
     2
147
0.0208333333333333
147
0.0
147
0.0
147
0.0
147
0.0
147
0.0208333333333333
147
0.0
147
0.0
147
0.0
147
0.0
147
1.0
147
0.0
147
0.0
147
0.0
147
0.0
147
1.0
  0
MATERIAL
  5
D9AC
102
{ACAD_REACTORS
330
18C
102
}
102
{ACAD_XDICTIONARY
360
1B3E8
102
}
330
18C
100
AcDbMaterial
  1
GLOBAL
 72
     0
 73
     2
 43
0.0208333333333333
 43
0.0
 43
0.0
 43
0.0
 43
0.0
 43
0.0208333333333333
 43
0.0
 43
0.0
 43
0.0
 43
0.0
 43
1.0
 43
0.0
 43
0.0
 43
0.0
 43
0.0
 43
1.0
 77
     0
 78
     2
 47
0.0208333333333333
 47
0.0
 47
0.0
 47
0.0
 47
0.0
 47
0.0208333333333333
 47
0.0
 47
0.0
 47
0.0
 47
0.0
 47
1.0
 47
0.0
 47
0.0
 47
0.0
 47
0.0
 47
1.0
171
     0
172
     2
 49
0.0208333333333333
 49
0.0
 49
0.0
 49
0.0
 49
0.0
 49
0.0208333333333333
 49
0.0
 49
0.0
 49
0.0
 49
0.0
 49
1.0
 49
0.0
 49
0.0
 49
0.0
 49
0.0
 49
1.0
175
     0
176
     2
142
0.0208333333333333
142
0.0
142
0.0
142
0.0
142
0.0
142
0.0208333333333333
142
0.0
142
0.0
142
0.0
142
0.0
142
1.0
142
0.0
142
0.0
142
0.0
142
0.0
142
1.0
179
     0
270
     2
144
0.0208333333333333
144
0.0
144
0.0
144
0.0
144
0.0
144
0.0208333333333333
144
0.0
144
0.0
144
0.0
144
0.0
144
1.0
144
0.0
144
0.0
144
0.0
144
0.0
144
1.0
274
     2
147
0.0208333333333333
147
0.0
147
0.0
147
0.0
147
0.0
147
0.0208333333333333
147
0.0
147
0.0
147
0.0
147
0.0
147
1.0
147
0.0
147
0.0
147
0.0
147
0.0
147
1.0
  0
ACAD_PROXY_OBJECT
  5
D9E8
102
{ACAD_REACTORS
330
D9E7
102
}
330
D9E7
100
AcDbZombieObject
 90
      499
 91
      511
 93
      610
310
40901902A4063FBFFFFFE000000000000002040AD7A3703D0AD73F4214DD185B99185C990000000000000104090141901A00000000000004100000000000000041025764000000000000300FC0
340
12
340
0
340
F
340
0
 94
        0
1001
ACAD_MLEADERVER
1070
     2
  0
MLINESTYLE
  5
1C
102
{ACAD_REACTORS
330
1B
102
}
330
1B
100
AcDbMlineStyle
  2
STANDARD
 70
     0
  3

 62
   256
 51
90.0
 52
90.0
 71
     2
 49
0.5
 62
   256
  6
BYLAYER
 49
-0.5
 62
   256
  6
BYLAYER
  0
ACAD_PROXY_OBJECT
  5
D9C6
102
{ACAD_REACTORS
330
D9C5
102
}
330
D9C5
100
AcDbZombieObject
 90
      499
 91
      510
 93
       41
310
903313A31580
  0
ACAD_PROXY_OBJECT
  5
D9C7
102
{ACAD_REACTORS
330
D9C5
102
}
330
D9C5
100
AcDbZombieObject
 90
      499
 91
      510
 93
      105
310
903313A324000000000000004000
  0
ACAD_PROXY_OBJECT
  5
D9C8
102
{ACAD_REACTORS
330
D9C5
102
}
330
D9C5
100
AcDbZombieObject
 90
      499
 91
      510
 93
      105
310
903313A344000000000000104000
  0
ACAD_PROXY_OBJECT
  5
D9C9
102
{ACAD_REACTORS
330
D9C5
102
}
330
D9C5
100
AcDbZombieObject
 90
      499
 91
      510
 93
      105
310
903313A354000000000000144000
  0
ACAD_PROXY_OBJECT
  5
D9CA
102
{ACAD_REACTORS
330
D9C5
102
}
330
D9C5
100
AcDbZombieObject
 90
      499
 91
      510
 93
      105
310
903313A384000000000000204000
  0
ACAD_PROXY_OBJECT
  5
D9CB
102
{ACAD_REACTORS
330
D9C5
102
}
330
D9C5
100
AcDbZombieObject
 90
      499
 91
      510
 93
      113
310
904313A31304000000000000244000
  0
ACAD_PROXY_OBJECT
  5
D9CC
102
{ACAD_REACTORS
330
D9C5
102
}
330
D9C5
100
AcDbZombieObject
 90
      499
 91
      510
 93
      113
310
904313A31364000000000000304000
  0
ACAD_PROXY_OBJECT
  5
D9CD
102
{ACAD_REACTORS
330
D9C5
102
}
330
D9C5
100
AcDbZombieObject
 90
      499
 91
      510
 93
      113
310
904313A32304000000000000344000
  0
ACAD_PROXY_OBJECT
  5
D9CE
102
{ACAD_REACTORS
330
D9C5
102
}
330
D9C5
100
AcDbZombieObject
 90
      499
 91
      510
 93
      113
310
904313A333040000000000003E4000
  0
ACAD_PROXY_OBJECT
  5
D9CF
102
{ACAD_REACTORS
330
D9C5
102
}
330
D9C5
100
AcDbZombieObject
 90
      499
 91
      510
 93
      113
310
904313A34304000000000000444000
  0
ACAD_PROXY_OBJECT
  5
D9D0
102
{ACAD_REACTORS
330
D9C5
102
}
330
D9C5
100
AcDbZombieObject
 90
      499
 91
      510
 93
      113
310
904313A35304000000000000494000
  0
ACAD_PROXY_OBJECT
  5
D9D1
102
{ACAD_REACTORS
330
D9C5
102
}
330
D9C5
100
AcDbZombieObject
 90
      499
 91
      510
 93
      121
310
905313A3130304000000000000594000
  0
ACAD_PROXY_OBJECT
  5
D9D2
102
{ACAD_REACTORS
330
D9C5
102
}
330
D9C5
100
AcDbZombieObject
 90
      499
 91
      510
 93
      105
310
903323A310000000000000010100
  0
ACAD_PROXY_OBJECT
  5
D9D3
102
{ACAD_REACTORS
330
D9C5
102
}
330
D9C5
100
AcDbZombieObject
 90
      499
 91
      510
 93
      105
310
903343A310000000000000410100
  0
ACAD_PROXY_OBJECT
  5
D9D4
102
{ACAD_REACTORS
330
D9C5
102
}
330
D9C5
100
AcDbZombieObject
 90
      499
 91
      510
 93
      105
310
903383A310000000000000810100
  0
ACAD_PROXY_OBJECT
  5
D9D5
102
{ACAD_REACTORS
330
D9C5
102
}
330
D9C5
100
AcDbZombieObject
 90
      499
 91
      510
 93
      113
310
90431303A310000000000000910100
  0
ACAD_PROXY_OBJECT
  5
D9D6
102
{ACAD_REACTORS
330
D9C5
102
}
330
D9C5
100
AcDbZombieObject
 90
      499
 91
      510
 93
      121
310
9053130303A310000000000001650100
  0
ACAD_PROXY_OBJECT
  5
D9D7
102
{ACAD_REACTORS
330
D9C5
102
}
330
D9C5
100
AcDbZombieObject
 90
      499
 91
      510
 93
      257
310
90E312F31323822203D2031272D3022000000000000200FC000000000000284000
  0
ACAD_PROXY_OBJECT
  5
D9D8
102
{ACAD_REACTORS
330
D9C5
102
}
330
D9C5
100
AcDbZombieObject
 90
      499
 91
      510
 93
      249
310
90D312F363422203D2031272D3022000000000000240FC000000000000284000
  0
ACAD_PROXY_OBJECT
  5
D9D9
102
{ACAD_REACTORS
330
D9C5
102
}
330
D9C5
100
AcDbZombieObject
 90
      499
 91
      510
 93
      249
310
90D312F333222203D2031272D3022000000000000280FC000000000000284000
  0
ACAD_PROXY_OBJECT
  5
D9DA
102
{ACAD_REACTORS
330
D9C5
102
}
330
D9C5
100
AcDbZombieObject
 90
      499
 91
      510
 93
      249
310
90D312F313622203D2031272D30220000000000002C0FC000000000000284000
  0
ACAD_PROXY_OBJECT
  5
D9DB
102
{ACAD_REACTORS
330
D9C5
102
}
330
D9C5
100
AcDbZombieObject
 90
      499
 91
      510
 93
      249
310
90D332F333222203D2031272D30220000000000002E0FC000000000000284000
  0
ACAD_PROXY_OBJECT
  5
D9DC
102
{ACAD_REACTORS
330
D9C5
102
}
330
D9C5
100
AcDbZombieObject
 90
      499
 91
      510
 93
      241
310
90C312F3822203D2031272D3022000000000000300FC000000000000284000
  0
ACAD_PROXY_OBJECT
  5
D9DD
102
{ACAD_REACTORS
330
D9C5
102
}
330
D9C5
100
AcDbZombieObject
 90
      499
 91
      510
 93
      249
310
90D332F313622203D2031272D3022000000000000320FC000000000000284000
  0
ACAD_PROXY_OBJECT
  5
D9DE
102
{ACAD_REACTORS
330
D9C5
102
}
330
D9C5
100
AcDbZombieObject
 90
      499
 91
      510
 93
      241
310
90C312F3422203D2031272D3022000000000000340FC000000000000284000
  0
ACAD_PROXY_OBJECT
  5
D9DF
102
{ACAD_REACTORS
330
D9C5
102
}
330
D9C5
100
AcDbZombieObject
 90
      499
 91
      510
 93
      241
310
90C332F3822203D2031272D3022000000000000360FC000000000000284000
  0
ACAD_PROXY_OBJECT
  5
D9E0
102
{ACAD_REACTORS
330
D9C5
102
}
330
D9C5
100
AcDbZombieObject
 90
      499
 91
      510
 93
      241
310
90C312F3222203D2031272D3022000000000000380FC000000000000284000
  0
ACAD_PROXY_OBJECT
  5
D9E1
102
{ACAD_REACTORS
330
D9C5
102
}
330
D9C5
100
AcDbZombieObject
 90
      499
 91
      510
 93
      241
310
90C332F3422203D2031272D30220000000000003A0FC000000000000284000
  0
ACAD_PROXY_OBJECT
  5
D9E2
102
{ACAD_REACTORS
330
D9C5
102
}
330
D9C5
100
AcDbZombieObject
 90
      499
 91
      510
 93
      161
310
90A3122203D2031272D30224000000000000284000
  0
ACAD_PROXY_OBJECT
  5
D9E3
102
{ACAD_REACTORS
330
D9C5
102
}
330
D9C5
100
AcDbZombieObject
 90
      499
 91
      510
 93
      257
310
90E312D312F3222203D2031272D30220000000000003E0FC000000000000284000
  0
ACAD_PROXY_OBJECT
  5
D9E4
102
{ACAD_REACTORS
330
D9C5
102
}
330
D9C5
100
AcDbZombieObject
 90
      499
 91
      510
 93
      225
310
90A3322203D2031272D302200000000000002100000000000000284000
  0
ACAD_PROXY_OBJECT
  5
D9E5
102
{ACAD_REACTORS
330
D9C5
102
}
330
D9C5
100
AcDbZombieObject
 90
      499
 91
      510
 93
      225
310
90A3622203D2031272D302200000000000006100000000000000284000
  0
ACAD_PROXY_OBJECT
  5
D9E6
102
{ACAD_REACTORS
330
D9C5
102
}
330
D9C5
100
AcDbZombieObject
 90
      499
 91
      510
 93
      249
310
90D31272D3022203D2031272D30220000000000000A100000000000000284000
  0
ACAD_PROXY_OBJECT
  5
D9BA
102
{ACAD_REACTORS
330
D9B4
102
}
330
D9B4
100
AcDbZombieObject
 90
      499
 91
      509
 93
      436
310
42CC9915DA5C99599C985B595049028333333333333E3BF0000000000000FB0107901411070040501600405405064090741402480A0340
1001
ACAD
1000
AcDbSavedByObjectVersion
1070
     0
  0
ACAD_PROXY_OBJECT
  5
D9BC
102
{ACAD_REACTORS
330
D9B4
102
}
330
D9B4
100
AcDbZombieObject
 90
      499
 91
      509
 93
      500
310
424CD108121A5919195B90640502408333333333333E3BF0000000000000FB01079024090700405020000000000001110200405405064090740C02480A0340
1001
ACAD
1000
AcDbSavedByObjectVersion
1070
     0
  0
ACAD_PROXY_OBJECT
  5
D9BB
102
{ACAD_REACTORS
330
D9B4
102
}
330
D9B4
100
AcDbZombieObject
 90
      499
 91
      509
 93
      436
310
42CCD915DA5C99599C985B595059028333333333333E3BF0000000000000FB0107901411070040501600405405064090741402480A0340
1001
ACAD
1000
AcDbSavedByObjectVersion
1070
     0
  0
ACAD_PROXY_OBJECT
  5
D9B9
102
{ACAD_REACTORS
330
D9B4
102
}
330
D9B4
100
AcDbZombieObject
 90
      499
 91
      509
 93
      388
310
4150985CDA58D07406404333333333333E3BF0000000000000FB0107A41107004050150841D405064090741402480A0350
1001
ACAD
1000
AcDbSavedByObjectVersion
1070
     0
  0
ACAD_PROXY_OBJECT
  5
D9C0
102
{ACAD_REACTORS
330
D9B4
102
}
330
D9B4
100
AcDbZombieObject
 90
      499
 91
      509
 93
      428
310
42109C9A59DA1D195B90C409028333333333333E3BF0000000000000FB010790141107004050150841D405064090741402480A029950
1001
ACAD
1000
AcDbSavedByObjectVersion
1070
     0
  0
ACAD_PROXY_OBJECT
  5
D9C4
102
{ACAD_REACTORS
330
D9B4
102
}
330
D9B4
100
AcDbZombieObject
 90
      499
 91
      509
 93
      452
310
42D0DBDB1BDC90DA185B99D95104090240C333333333333E3BF0000000000000FB0108901411070040501508421405064090741402480A0350
1001
ACAD
1000
AcDbSavedByObjectVersion
1070
     0
  0
ACAD_PROXY_OBJECT
  5
D9BD
102
{ACAD_REACTORS
330
D9B4
102
}
330
D9B4
100
AcDbZombieObject
 90
      499
 91
      509
 93
      500
310
4290DBDB98D95C1D1D585B10940D028333333333333E3BF0000000000000FB0107902409070040501000000000000111010841D405064090740C02480A0340
1001
ACAD
1000
AcDbSavedByObjectVersion
1070
     0
  0
ACAD_PROXY_OBJECT
  5
D9BF
102
{ACAD_REACTORS
330
D9B4
102
}
330
D9B4
100
AcDbZombieObject
 90
      499
 91
      509
 93
      412
310
40D11A5B50B409028333333333333E3BF0000000000000FB010790141107004050150841D405064090741402480A02677FFFFFD0
1001
ACAD
1000
AcDbSavedByObjectVersion
1070
     0
  0
ACAD_PROXY_OBJECT
  5
19C2F
102
{ACAD_REACTORS
330
D9B4
102
}
330
D9B4
100
AcDbZombieObject
 90
      499
 91
      509
 93
      452
310
43115919D950DBDB1BDC93D999916409028333333333333E3BF0000000000000FB010790141107004050150841D405064090741402480A0350
1001
ACAD
1000
AcDbSavedByObjectVersion
1070
     0
  0
ACAD_PROXY_OBJECT
  5
D9C3
102
{ACAD_REACTORS
330
D9B4
102
}
330
D9B4
100
AcDbZombieObject
 90
      499
 91
      509
 93
      444
310
42D19858D95C185D1D195C9B90F409028333333333333E3BF0000000000000FB010790141107004050150841D405064090741402480A0350
1001
ACAD
1000
AcDbSavedByObjectVersion
1070
     0
  0
ACAD_PROXY_OBJECT
  5
D9B5
102
{ACAD_REACTORS
330
D9B4
102
}
330
D9B4
100
AcDbZombieObject
 90
      499
 91
      509
 93
      388
310
41119B185D240901404333333333333E3BF0000000000000F9010740A41107004050150841D405064090741402480A1B50
1001
ACAD
1000
AcDbSavedByObjectVersion
1070
     0
  0
ACAD_PROXY_OBJECT
  5
D9B6
102
{ACAD_REACTORS
330
D9B4
102
}
330
D9B4
100
AcDbZombieObject
 90
      499
 91
      509
 93
      476
310
43519B185D15DA5D1A115919D95CD0140901404333333333333E3BF0000000000000F9010740901411070040501600405405064090741402480A1B50
1001
ACAD
1000
AcDbSavedByObjectVersion
1070
     0
  0
ACAD_PROXY_OBJECT
  5
D9B7
102
{ACAD_REACTORS
330
D9B4
102
}
330
D9B4
100
AcDbZombieObject
 90
      499
 91
      509
 93
      412
310
41D1DBDD5C985D5910240902404333333333333E3BF0000000000000F9010740A411070040501641D405064090741402480A1B50
1001
ACAD
1000
AcDbSavedByObjectVersion
1070
     0
  0
ACAD_PROXY_OBJECT
  5
D9B8
102
{ACAD_REACTORS
330
D9B4
102
}
330
D9B4
100
AcDbZombieObject
 90
      499
 91
      509
 93
      500
310
4411DBDD5C985D5915DA5D1A115919D95CD0340902404333333333333E3BF0000000000000F9010740901411070040501600405405064090741402480A1B50
1001
ACAD
1000
AcDbSavedByObjectVersion
1070
     0
  0
ACAD_PROXY_OBJECT
  5
19C7E
102
{ACAD_REACTORS
330
D9B4
102
}
330
D9B4
100
AcDbZombieObject
 90
      499
 91
      509
 93
      476
310
41921A5919195B90640502408333333333333E33F0000000000000F901079024090700405020000000000001110200405405064090740C02480A0340
1001
ACAD
1000
AcDbSavedByObjectVersion
1070
     0
  0
ACAD_PROXY_OBJECT
  5
19C2D
102
{ACAD_REACTORS
330
D9B4
102
}
330
D9B4
100
AcDbZombieObject
 90
      499
 91
      509
 93
      428
310
42529A5D1D195C93D999914409028333333333333E3BF0000000000000FB010790141107004050150A41D405064090741402480A0350
1001
ACAD
1000
AcDbSavedByObjectVersion
1070
     0
  0
ACAD_PROXY_OBJECT
  5
D9C2
102
{ACAD_REACTORS
330
D9B4
102
}
330
D9B4
100
AcDbZombieObject
 90
      499
 91
      509
 93
      444
310
42D31A5B995C185D1D195C9B90E409028333333333333E3BF0000000000000FB010790141107004050750841D405064090741402483A0350
1001
ACAD
1000
AcDbSavedByObjectVersion
1070
     0
  0
ACAD_PROXY_OBJECT
  5
19C84
102
{ACAD_REACTORS
330
D9B4
102
}
330
D9B4
100
AcDbZombieObject
 90
      499
 91
      509
 93
      484
310
42135BD9195B1A5B99D0A409038333333333333E33F0000000000000F901074090290700405010000000000201990108421405064090741402480A1B40
1001
ACAD
1000
AcDbSavedByObjectVersion
1070
     0
  0
ACAD_PROXY_OBJECT
  5
19C2E
102
{ACAD_REACTORS
330
D9B4
102
}
330
D9B4
100
AcDbZombieObject
 90
      499
 91
      509
 93
      444
310
42D3DD995C9A185B99D3D999915409028333333333333E3BF0000000000000FB010790141107004050150941D405064090741402480A0350
1001
ACAD
1000
AcDbSavedByObjectVersion
1070
     0
  0
ACAD_PROXY_OBJECT
  5
D9BE
102
{ACAD_REACTORS
330
D9B4
102
}
330
D9B4
100
AcDbZombieObject
 90
      499
 91
      509
 93
      420
310
425499585B1A5CDD1A58D08409028333333333333E3BF0000000000000FB01079019070040501508421405064090741402480A1B40
1001
ACAD
1000
AcDbSavedByObjectVersion
1070
     0
  0
ACAD_PROXY_OBJECT
  5
19C83
102
{ACAD_REACTORS
330
D9B4
102
}
330
D9B4
100
AcDbZombieObject
 90
      499
 91
      509
 93
      420
310
4194DA1859195911B40902404333333333333E33F0000000000000F9010740A41107004050150800405405064090840C02480A0B40
1001
ACAD
1000
AcDbSavedByObjectVersion
1070
     0
  0
ACAD_PROXY_OBJECT
  5
19C82
102
{ACAD_REACTORS
330
D9B4
102
}
330
D9B4
100
AcDbZombieObject
 90
      499
 91
      509
 93
      516
310
4454DA18591959081DDA5D1A08195919D95CD1A40902404333333333333E33F0000000000000F901074090142907004050250800405405064090740C02480A0B40
1001
ACAD
1000
AcDbSavedByObjectVersion
1070
     0
  0
ACAD_PROXY_OBJECT
  5
19C7F
102
{ACAD_REACTORS
330
D9B4
102
}
330
D9B4
100
AcDbZombieObject
 90
      499
 91
      509
 93
      532
310
4394DA1859195CC81BD98811DC985E5174090240C333333333333E33F0000000000000F901079024090741D01000000000000111010841D405064090740C02480A0340
1001
ACAD
1000
AcDbSavedByObjectVersion
1070
     0
  0
ACAD_PROXY_OBJECT
  5
19C80
102
{ACAD_REACTORS
330
D9B4
102
}
330
D9B4
100
AcDbZombieObject
 90
      499
 91
      509
 93
      476
310
41D4DAD95D18DA1E51840502408333333333333E33F0000000000000F901079024090741D01000000000000111010B41D405064090741802480A0340
1001
ACAD
1000
AcDbSavedByObjectVersion
1070
     0
  0
ACAD_PROXY_OBJECT
  5
D9C1
102
{ACAD_REACTORS
330
D9B4
102
}
330
D9B4
100
AcDbZombieObject
 90
      499
 91
      509
 93
      412
310
41D51A1A58DAD95B90D409028333333333333E3BF0000000000000FB010790141107004050150C41D405064090741402480A0350
1001
ACAD
1000
AcDbSavedByObjectVersion
1070
     0
  0
ACAD_PROXY_OBJECT
  5
19C7D
102
{ACAD_REACTORS
330
D9B4
102
}
330
D9B4
100
AcDbZombieObject
 90
      499
 91
      509
 93
      420
310
4255DA5C99599C985B595059028333333333333E33F0000000000000F90107901411070040501600405405064090740C02480A0340
1001
ACAD
1000
AcDbSavedByObjectVersion
1070
     0
  0
ACAD_PROXY_OBJECT
  5
19C81
102
{ACAD_REACTORS
330
D9B4
102
}
330
D9B4
100
AcDbZombieObject
 90
      499
 91
      509
 93
      404
310
41560B54985E51940902404000000000000E03F0000000000000F9010740501907004050150841D405064090740C02480A1B40
1001
ACAD
1000
AcDbSavedByObjectVersion
1070
     0
  0
XRECORD
  5
1B247
102
{ACAD_REACTORS
330
1B246
102
}
330
1B246
100
AcDbXrecord
340
18D
  0
XRECORD
  5
1B248
102
{ACAD_REACTORS
330
1B246
102
}
330
1B246
100
AcDbXrecord
340
18C
  0
DICTIONARYVAR
  5
1A68D
102
{ACAD_REACTORS
330
37
102
}
330
37
100
DictionaryVariables
280
     0
  1
1:1
  0
DICTIONARYVAR
  5
DA6A
102
{ACAD_REACTORS
330
37
102
}
330
37
100
DictionaryVariables
280
     0
  1
Standard
  0
DICTIONARYVAR
  5
29E
102
{ACAD_REACTORS
330
37
102
}
330
37
100
DictionaryVariables
280
     0
  1
Standard
  0
DICTIONARYVAR
  5
38
102
{ACAD_REACTORS
330
37
102
}
330
37
100
DictionaryVariables
280
     0
  1
-1
  0
DICTIONARYVAR
  5
1CE
102
{ACAD_REACTORS
330
37
102
}
330
37
100
DictionaryVariables
280
     0
  1
2
  0
DICTIONARYVAR
  5
704E
102
{ACAD_REACTORS
330
37
102
}
330
37
100
DictionaryVariables
280
     0
  1
1
  0
DICTIONARYVAR
  5
DA6D
102
{ACAD_REACTORS
330
37
102
}
330
37
100
DictionaryVariables
280
     0
  1
0
  0
DICTIONARYVAR
  5
7052
102
{ACAD_REACTORS
330
37
102
}
330
37
100
DictionaryVariables
280
     0
  1
8
  0
DICTIONARYVAR
  5
7051
102
{ACAD_REACTORS
330
37
102
}
330
37
100
DictionaryVariables
280
     0
  1
1
  0
DICTIONARYVAR
  5
1A6DD
102
{ACAD_REACTORS
330
37
102
}
330
37
100
DictionaryVariables
280
     0
  1
0
  0
DICTIONARYVAR
  5
704F
102
{ACAD_REACTORS
330
37
102
}
330
37
100
DictionaryVariables
280
     0
  1
8
  0
DICTIONARYVAR
  5
7050
102
{ACAD_REACTORS
330
37
102
}
330
37
100
DictionaryVariables
280
     0
  1
2
  0
DICTIONARYVAR
  5
1CF
102
{ACAD_REACTORS
330
37
102
}
330
37
100
DictionaryVariables
280
     0
  1

  0
DICTIONARYVAR
  5
DA6C
102
{ACAD_REACTORS
330
37
102
}
330
37
100
DictionaryVariables
280
     0
  1
127
  0
DICTIONARYVAR
  5
19C7C
102
{ACAD_REACTORS
330
37
102
}
330
37
100
DictionaryVariables
280
     0
  1
2
  0
DICTIONARY
  5
1B3E4
330
D9A4
100
AcDbDictionary
  3
ACAD_XREC_ROUNDTRIP
360
1B3E5
1001
ACAD
1000
TREAT_AS_HARD
1070
     1
  0
DICTIONARY
  5
1B3E6
330
D99C
100
AcDbDictionary
  3
ACAD_XREC_ROUNDTRIP
360
1B3E7
1001
ACAD
1000
TREAT_AS_HARD
1070
     1
  0
DICTIONARY
  5
1B3E8
330
D9AC
100
AcDbDictionary
  3
ACAD_XREC_ROUNDTRIP
360
1B3E9
1001
ACAD
1000
TREAT_AS_HARD
1070
     1
  0
XRECORD
  5
1B3E5
102
{ACAD_REACTORS
330
1B3E4
102
}
330
1B3E4
100
AcDbXrecord
102
MATERIAL
148
0.0
149
0.0
149
0.0
 93
        0
 94
      127
282
     0
 72
     0
 77
     0
171
     0
175
     0
179
     0
273
     0
  0
XRECORD
  5
1B3E7
102
{ACAD_REACTORS
330
1B3E6
102
}
330
1B3E6
100
AcDbXrecord
102
MATERIAL
148
0.0
149
0.0
149
0.0
 93
        0
 94
      127
282
     0
 72
     0
 77
     0
171
     0
175
     0
179
     0
273
     0
  0
XRECORD
  5
1B3E9
102
{ACAD_REACTORS
330
1B3E8
102
}
330
1B3E8
100
AcDbXrecord
102
MATERIAL
148
0.0
149
0.0
149
0.0
 93
        0
 94
      127
282
     0
 72
     0
 77
     0
171
     0
175
     0
179
     0
273
     0
  0
ENDSEC
  0
EOF
