  0
SECTION
  2
HEADER
  9
$ACADVER
  1
AC1009
  9
$INSBASE
 10
0.0
 20
0.0
 30
0.0
  9
$EXTMIN
 10
4067.9421854454272
 20
803.33587453172629
 30
-0.000000000006261
  9
$EXTMAX
 10
4681.2422937851707
 20
1246.12930145365
 30
0.0000000000136305
  9
$LIMMIN
 10
0.0
 20
0.0
  9
$LIMMAX
 10
420.0
 20
297.0
  9
$ORTHOMODE
 70
     0
  9
$REGENMODE
 70
     1
  9
$FILLMODE
 70
     1
  9
$QTEXTMODE
 70
     0
  9
$MIRRTEXT
 70
     0
  9
$DRAGMODE
 70
     2
  9
$LTSCALE
 40
0.5
  9
$OSMODE
 70
  2175
  9
$ATTMODE
 70
     1
  9
$TEXTSIZE
 40
4.0
  9
$TRACEWID
 40
1.0
  9
$TEXTSTYLE
  7
STANDARD
  9
$CLAYER
  8
1TEXT
  9
$CELTYPE
  6
BYLAYER
  9
$CECOLOR
 62
   256
  9
$DIMSCALE
 40
1.0
  9
$DIMASZ
 40
2.0
  9
$DIMEXO
 40
0.0
  9
$DIMDLI
 40
7.0
  9
$DIMRND
 40
0.0
  9
$DIMDLE
 40
0.0
  9
$DIMEXE
 40
1.0
  9
$DIMTP
 40
0.0
  9
$DIMTM
 40
0.0
  9
$DIMTXT
 40
3.5
  9
$DIMCEN
 40
0.0
  9
$DIMTSZ
 40
0.0
  9
$DIMTOL
 70
     0
  9
$DIMLIM
 70
     0
  9
$DIMTIH
 70
     0
  9
$DIMTOH
 70
     0
  9
$DIMSE1
 70
     0
  9
$DIMSE2
 70
     0
  9
$DIMTAD
 70
     1
  9
$DIMZIN
 70
     8
  9
$DIMBLK
  1

  9
$DIMASO
 70
     1
  9
$DIMSHO
 70
     1
  9
$DIMPOST
  1
 
  9
$DIMAPOST
  1

  9
$DIMALT
 70
     0
  9
$DIMALTD
 70
     2
  9
$DIMALTF
 40
25.399999999999999
  9
$DIMLFAC
 40
1.0
  9
$DIMTOFL
 70
     1
  9
$DIMTVP
 40
0.0
  9
$DIMTIX
 70
     0
  9
$DIMSOXD
 70
     0
  9
$DIMSAH
 70
     1
  9
$DIMBLK1
  1
OPEN30
  9
$DIMBLK2
  1
OPEN30
  9
$DIMSTYLE
  2
NEWX10
  9
$DIMCLRD
 70
   256
  9
$DIMCLRE
 70
   256
  9
$DIMCLRT
 70
   201
  9
$DIMTFAC
 40
0.7
  9
$DIMGAP
 40
0.7
  9
$LUNITS
 70
     2
  9
$LUPREC
 70
     4
  9
$SKETCHINC
 40
1.0
  9
$FILLETRAD
 40
0.0
  9
$AUNITS
 70
     0
  9
$AUPREC
 70
     2
  9
$MENU
  1
acad
  9
$ELEVATION
 40
0.0
  9
$PELEVATION
 40
0.0
  9
$THICKNESS
 40
0.0
  9
$LIMCHECK
 70
     0
  9
$BLIPMODE
 70
     0
  9
$CHAMFERA
 40
10.0
  9
$CHAMFERB
 40
10.0
  9
$SKPOLY
 70
     0
  9
$TDCREATE
 40
2451318.621352917
  9
$TDUPDATE
 40
2456339.796503542
  9
$TDINDWG
 40
1.0928025116
  9
$TDUSRTIMER
 40
1.0928025116
  9
$USRTIMER
 70
     1
  9
$ANGBASE
 50
0.0
  9
$ANGDIR
 70
     0
  9
$PDMODE
 70
     0
  9
$PDSIZE
 40
0.0
  9
$PLINEWID
 40
0.0
  9
$COORDS
 70
     0
  9
$SPLFRAME
 70
     0
  9
$SPLINETYPE
 70
     6
  9
$SPLINESEGS
 70
     8
  9
$ATTDIA
 70
     0
  9
$ATTREQ
 70
     1
  9
$HANDLING
 70
     1
  9
$HANDSEED
  5
1C522
  9
$SURFTAB1
 70
     6
  9
$SURFTAB2
 70
     6
  9
$SURFTYPE
 70
     6
  9
$SURFU
 70
     6
  9
$SURFV
 70
     6
  9
$UCSNAME
  2

  9
$UCSORG
 10
0.0
 20
0.0
 30
0.0
  9
$UCSXDIR
 10
1.0
 20
0.0
 30
0.0
  9
$UCSYDIR
 10
0.0
 20
1.0
 30
0.0
  9
$PUCSNAME
  2

  9
$PUCSORG
 10
0.0
 20
0.0
 30
0.0
  9
$PUCSXDIR
 10
1.0
 20
0.0
 30
0.0
  9
$PUCSYDIR
 10
0.0
 20
1.0
 30
0.0
  9
$USERI1
 70
     0
  9
$USERI2
 70
     0
  9
$USERI3
 70
     0
  9
$USERI4
 70
     0
  9
$USERI5
 70
     0
  9
$USERR1
 40
0.0
  9
$USERR2
 40
0.0
  9
$USERR3
 40
0.0
  9
$USERR4
 40
0.0
  9
$USERR5
 40
0.0
  9
$WORLDVIEW
 70
     1
  9
$SHADEDGE
 70
     3
  9
$SHADEDIF
 70
    70
  9
$TILEMODE
 70
     1
  9
$MAXACTVP
 70
    48
  9
$PLIMCHECK
 70
     0
  9
$PEXTMIN
 10
1.0000000000000000E+020
 20
1.0000000000000000E+020
 30
1.0000000000000000E+020
  9
$PEXTMAX
 10
-1.0000000000000000E+020
 20
-1.0000000000000000E+020
 30
-1.0000000000000000E+020
  9
$PLIMMIN
 10
0.0
 20
0.0
  9
$PLIMMAX
 10
420.0
 20
297.0
  9
$UNITMODE
 70
     0
  9
$VISRETAIN
 70
     1
  9
$PLINEGEN
 70
     0
  9
$PSLTSCALE
 70
     1
  0
ENDSEC
  0
SECTION
  2
TABLES
  0
TABLE
  2
VPORT
 70
     1
  0
VPORT
  2
*ACTIVE
 70
     0
 10
0.0
 20
0.0
 11
1.0
 21
1.0
 12
4374.5922396152991
 22
1024.7325879976879
 13
0.0
 23
0.0
 14
10.0
 24
10.0
 15
10.0
 25
10.0
 16
0.0
 26
0.0
 36
1.0
 17
0.0
 27
0.0
 37
0.0
 40
469.78777694207571
 41
1.492734478203434
 42
50.0
 43
0.0
 44
0.0
 50
0.0
 51
0.0
 71
     0
 72
  1000
 73
     1
 74
     1
 75
     0
 76
     0
 77
     0
 78
     0
  0
ENDTAB
  0
TABLE
  2
LTYPE
 70
    14
  0
LTYPE
  2
CONTINUOUS
 70
     0
  3
Solid line
 72
    65
 73
     0
 40
0.0
  0
LTYPE
  2
XREF1|CENTER2
 70
    48
  3
Center (.5x) ___ _ ___ _ ___ _ ___ _ ___ _ ___
 72
    65
 73
     4
 40
28.574999999999999
 49
19.050000000000001
 49
-3.1749999999999989
 49
3.1749999999999989
 49
-3.1749999999999989
  0
LTYPE
  2
A3WAKUDAKE|CENTER2
 70
    48
  3
Center (.5x) ___ _ ___ _ ___ _ ___ _ ___ _ ___
 72
    65
 73
     4
 40
28.574999999999999
 49
19.050000000000001
 49
-3.1749999999999989
 49
3.1749999999999989
 49
-3.1749999999999989
  0
LTYPE
  2
CENTER2
 70
     0
  3
Center (.5x) ___ _ ___ _ ___ _ ___ _ ___ _ ___
 72
    65
 73
     4
 40
1.125
 49
0.75
 49
-0.125
 49
0.125
 49
-0.125
  0
ENDTAB
  0
TABLE
  2
LAYER
 70
    45
  0
LAYER
  2
0
 70
     0
 62
     7
  6
CONTINUOUS
  0
LAYER
  2
1TEXT
 70
     0
 62
     7
  6
CONTINUOUS
  0
LAYER
  2
01
 70
     0
 62
     1
  6
CONTINUOUS
  0
LAYER
  2
A3WAKUDAKE|THICK
 70
    48
 62
     7
  6
CONTINUOUS
  0
LAYER
  2
A3WAKUDAKE|POINT
 70
    48
 62
     7
  6
CONTINUOUS
  0
LAYER
  2
A3WAKUDAKE|1CENTER
 70
    48
 62
     7
  6
A3WAKUDAKE|CENTER2
  0
LAYER
  2
A3WAKUDAKE|0-6
 70
    48
 62
     7
  6
CONTINUOUS
  0
LAYER
  2
A3WAKUDAKE|1DIM
 70
    48
 62
     7
  6
CONTINUOUS
  0
LAYER
  2
XREF1|1CENTER
 70
    48
 62
     7
  6
XREF1|CENTER2
  0
ENDTAB
  0
TABLE
  2
STYLE
 70
    20
  0
STYLE
  2
STANDARD
 70
     0
 40
0.0
 41
1.0
 50
0.0
 71
     0
 42
4.0
  3
romans.shx
  4
extfont2.shx
  0
ENDTAB
  0
TABLE
  2
VIEW
 70
     5
  0
ENDTAB
  0
TABLE
  2
UCS
 70
     0
  0
ENDTAB
  0
TABLE
  2
APPID
 70
    11
  0
APPID
  2
ACAD
 70
     0
  0
APPID
  2
DRAWINGVARIABLESXDATA
 70
     0
  0
APPID
  2
CONTENTTABDATA
 70
     0
  0
APPID
  2
CONTENTCURRENTTAB
 70
     0
  0
APPID
  2
CONTENTBLOCKDESCRIPTION
 70
     0
  0
APPID
  2
CONTENTBLOCKICON
 70
     0
  0
APPID
  2
CONTENTLONGBLOCKNAME
 70
     0
  0
APPID
  2
ACAD_PSEXT
 70
     0
  0
APPID
  2
ACAD_MLEADERVER
 70
     0
  0
APPID
  2
ACAD_EXEMPT_FROM_CAD_STANDARDS
 70
     0
  0
APPID
  2
ACAECLAYERSTANDARD
 70
     0
  0
ENDTAB
  0
TABLE
  2
DIMSTYLE
 70
     7
  0
DIMSTYLE
  2
NEWX10
 70
     0
  3
 
  4

  5

  6
OPEN30
  7
OPEN30
 40
1.0
 41
2.0
 42
0.0
 43
7.0
 44
1.0
 45
0.0
 46
0.0
 47
0.0
 48
0.0
140
3.5
141
0.0
142
0.0
143
25.399999999999999
144
1.0
145
0.0
146
0.7
147
0.7
 71
     0
 72
     0
 73
     0
 74
     0
 75
     0
 76
     0
 77
     1
 78
     8
170
     0
171
     2
172
     1
173
     1
174
     0
175
     0
176
   256
177
   256
178
   201
  0
ENDTAB
  0
ENDSEC
  0
SECTION
  2
BLOCKS
  0
BLOCK
  8
0
  2
$MODEL_SPACE
 70
     0
 10
0.0
 20
0.0
 30
0.0
  3
$MODEL_SPACE
  1

  0
ENDBLK
  5
1A
  8
0
  0
BLOCK
 67
     1
  8
0
  2
$PAPER_SPACE
 70
     0
 10
0.0
 20
0.0
 30
0.0
  3
$PAPER_SPACE
  1

  0
ENDBLK
  5
17
 67
     1
  8
0
  0
BLOCK
  8
0
  2
_OPEN30
 70
     0
 10
0.0
 20
0.0
 30
0.0
  3
_OPEN30
  1

  0
LINE
  5
44
  8
0
  6
BYBLOCK
 62
     0
 10
-1.0
 20
0.26794919
 30
0.0
 11
0.0
 21
0.0
 31
0.0
  0
LINE
  5
45
  8
0
  6
BYBLOCK
 62
     0
 10
0.0
 20
0.0
 30
0.0
 11
-1.0
 21
-0.26794919
 31
0.0
  0
LINE
  5
46
  8
0
  6
BYBLOCK
 62
     0
 10
0.0
 20
0.0
 30
0.0
 11
-1.0
 21
0.0
 31
0.0
  0
ENDBLK
  5
47
  8
0
  0
BLOCK
  8
0
  2
XREF1
 70
    36
 10
0.0
 20
0.0
 30
0.0
  3
XREF1
  1
D:\ACLT\FORMAT\KAWAJUN(9)図面用.dwg
  0
ENDBLK
  5
5D
  8
0
  0
BLOCK
  8
0
  2
A3WAKUDAKE
 70
    36
 10
0.0
 20
0.0
 30
0.0
  3
A3WAKUDAKE
  1
D:\ACLT\FORMAT\A3WAKUdake.dwg
  0
ENDBLK
  5
6A0
  8
0
  0
BLOCK
  8
0
  2
*U21
 70
     1
 10
0.0
 20
0.0
 30
0.0
  3
*U21
  1

  0
TEXT
  5
1C105
  8
1TEXT
 62
   201
 10
4494.0321774454269
 20
947.09622216129105
 30
0.0
 40
4.5499999999999989
  1
\U+03C650
 50
90.0
  0
ENDBLK
  5
1C107
  8
0
  0
BLOCK
  8
0
  2
*U22
 70
     1
 10
0.0
 20
0.0
 30
0.0
  3
*U22
  1

  0
TEXT
  5
1C10F
  8
1TEXT
 62
   201
 10
7394.8158082160689
 20
3095.5307286302109
 30
0.0
 40
4.5499999999999989
  1
□53
 50
90.0
  0
ENDBLK
  5
1C111
  8
0
  0
ENDSEC
  0
SECTION
  2
ENTITIES
  0
TEXT
  5
15CE0
  8
01
 10
4174.9421974454272
 20
1150.6293014567721
 30
0.0
 40
20.0
  1
1-K9T-X-LM-2
  0
LINE
  5
15CE1
  8
01
 10
4478.9430616274876
 20
1187.1293014567791
 30
0.0
 11
4478.9430616274876
 21
1147.1293014567791
 31
0.0
  0
TEXT
  5
15CF9
  8
01
 10
4196.2591726900646
 20
1126.278342836255
 30
0.0
 40
6.0
  1
材質：真鍮
 72
     1
 11
4213.4591726900653
 21
1126.278342836255
 31
0.0
  0
LINE
  5
15CFA
  8
01
 10
4174.9421974454272
 20
1089.1293014567721
 30
0.0
 11
4284.9421974454272
 21
1089.1293014567721
 31
0.0
  0
TEXT
  5
15CFC
  8
01
 10
4187.4421974454272
 20
1112.3793014567721
 30
0.0
 40
6.0
  1
表面処理
 72
     1
 11
4201.0421974454266
 21
1112.3793014567721
 31
0.0
  0
TEXT
  5
15CFD
  8
01
 10
4187.4421974454272
 20
1102.126368467485
 30
0.0
 40
6.0
  1
クローム
 72
     1
 11
4201.0421974454266
 21
1102.126368467485
 31
0.0
  0
LINE
  5
15CFE
  8
01
 10
4174.9421974454272
 20
1120.6293014567721
 30
0.0
 11
4284.9421974454272
 21
1120.6293014567721
 31
0.0
  0
LINE
  5
15CFF
  8
01
 10
4174.9421974454272
 20
1110.1293014567721
 30
0.0
 11
4284.9421974454272
 21
1110.1293014567721
 31
0.0
  0
LINE
  5
15D00
  8
01
 10
4174.9421974454272
 20
1099.6293014567721
 30
0.0
 11
4284.9421974454272
 21
1099.6293014567721
 31
0.0
  0
LINE
  5
15D01
  8
01
 10
4174.9421974454272
 20
1099.6293014567721
 30
0.0
 11
4284.9421974454272
 21
1099.6293014567721
 31
0.0
  0
LINE
  5
15D02
  8
01
 10
4227.4421974454272
 20
1120.6293014567721
 30
0.0
 11
4227.4421974454281
 21
1068.1293014567721
 31
0.0
  0
TEXT
  5
15D03
  8
01
 10
4229.4421974454272
 20
1101.557765981298
 30
0.0
 40
6.0
  1
1-K9T-C-LM-2
 41
0.7
 72
     1
 11
4256.0421974454266
 21
1101.557765981298
 31
0.0
  0
TEXT
  5
15D04
  8
01
 10
4246.0421974454266
 20
1112.3793014567721
 30
0.0
 40
6.0
  1
コード
 72
     1
 11
4256.0421974454257
 21
1112.3793014567721
 31
0.0
  0
LINE
  5
15D05
  8
01
 10
4174.9421974454272
 20
1078.6293014567721
 30
0.0
 11
4284.9421974454272
 21
1078.6293014567721
 31
0.0
  0
TEXT
  5
15D06
  8
01
 10
4176.642197445427
 20
1081.1629310394151
 30
0.0
 40
6.0
  1
パールブラック
 72
     1
 11
4201.0421974454266
 21
1081.1629310394151
 31
0.0
  0
LINE
  5
15D07
  8
01
 10
4174.9421974454272
 20
1068.1293014567721
 30
0.0
 11
4174.9421974454272
 21
1120.6293014567721
 31
0.0
  0
LINE
  5
15D08
  8
01
 10
4284.9421974454281
 20
1068.1293014567721
 30
0.0
 11
4284.9421974454272
 21
1120.6293014567721
 31
0.0
  0
TEXT
  5
15D0A
  8
01
 10
4227.2421974454273
 20
1080.557765981298
 30
0.0
 40
6.0
  1
1-K9T-GQ-LM-2
 41
0.7
 72
     1
 11
4256.0421974454266
 21
1080.557765981298
 31
0.0
  0
LINE
  5
15D0B
  8
01
 10
4529.9422937851723
 20
1217.1293014567791
 30
0.0
 11
4529.9422937851723
 21
1182.12930145678
 31
0.0
  0
LINE
  5
15D0C
  8
01
 10
4311.4421814454281
 20
955.62930145677899
 30
0.0
 11
4346.4421814454281
 21
955.62930145677899
 31
0.0
  0
LINE
  5
15D0E
  8
01
 10
4478.9430616274876
 20
1147.1293014567791
 30
0.0
 11
4632.6974417825204
 21
1147.1293014567791
 31
0.0
  0
LINE
  5
15D0F
  8
01
 10
4478.9430616274876
 20
1187.1293014567791
 30
0.0
 11
4632.6974417825204
 21
1187.1293014567791
 31
0.0
  0
LINE
  5
15D11
  8
01
  6
BYBLOCK
 10
4482.1421774454266
 20
991.54078998135708
 30
0.0
 11
4482.1421774454266
 21
829.71781293219999
 31
0.0
  0
LINE
  5
15D12
  8
01
  6
BYBLOCK
 10
4482.6421774454266
 20
1007.629301456779
 30
0.0
 11
4482.6421774454266
 21
992.6293014567791
 31
0.0
  0
ARC
  5
15D13
  8
01
  6
BYBLOCK
 10
4481.4421774454268
 20
992.6293014567791
 30
0.0
 40
1.1999999999999991
 50
324.7356103172167
 51
0.0
  0
LINE
  5
15D14
  8
01
  6
BYBLOCK
 10
4480.9421774454268
 20
1007.629301456779
 30
0.0
 11
4480.9421774454268
 21
922.1293014567791
 31
0.0
  0
ARC
  5
15D15
  8
01
  6
BYBLOCK
 10
4482.1421774454266
 20
991.54078998135708
 30
0.0
 40
1.1999999999999991
 50
144.73561031728929
 51
180.0
  0
LINE
  5
15D16
  8
01
  6
BYBLOCK
 10
4481.4421774454268
 20
1007.629301456779
 30
0.0
 11
4481.4421774454268
 21
992.6293014567791
 31
0.0
  0
LINE
  5
15D17
  8
01
  6
BYBLOCK
 10
4482.2685281809554
 20
844.6293014567791
 30
0.0
 11
4555.4421774454268
 21
844.6293014567791
 31
0.0
  0
LINE
  5
15D18
  8
01
  6
BYBLOCK
 10
4482.2685281809554
 20
976.6293014567791
 30
0.0
 11
4503.4421774454286
 21
976.62930145677888
 31
0.0
  0
LINE
  5
15D19
  8
01
  6
BYBLOCK
 10
4468.5685281809547
 20
899.6293014567791
 30
0.0
 11
4479.0685281809538
 21
899.6293014567791
 31
0.0
  0
ARC
  5
15D1A
  8
01
  6
BYBLOCK
 10
4468.5685281809547
 20
900.6293014567791
 30
0.0
 40
1.0
 50
180.0
 51
270.0
  0
LINE
  5
15D1B
  8
01
  6
BYBLOCK
 10
4468.5685281809547
 20
921.62930145677899
 30
0.0
 11
4479.0685281809538
 21
921.62930145677899
 31
0.0
  0
ARC
  5
15D1C
  8
01
  6
BYBLOCK
 10
4468.5685281809547
 20
920.6293014567791
 30
0.0
 40
1.0
 50
90.0
 51
180.0
  0
LINE
  5
15D1D
  8
01
  6
BYBLOCK
 10
4480.9421774454258
 20
813.62930145677899
 30
0.0
 11
4482.6421774454266
 21
813.62930145677899
 31
0.0
  0
LINE
  5
15D1E
  8
01
  6
BYBLOCK
 10
4480.9421774454258
 20
1007.629301456779
 30
0.0
 11
4482.6421774454266
 21
1007.629301456779
 31
0.0
  0
LINE
  5
15D1F
  8
01
  6
BYBLOCK
 10
4481.1623815483154
 20
992.23361030438446
 30
0.0
 11
4481.4421774454268
 21
992.6293014567791
 31
0.0
  0
LINE
  5
15D20
  8
01
  6
BYBLOCK
 10
4482.1421774454266
 20
991.54078998135708
 30
0.0
 11
4482.4219733425407
 21
991.93648113375093
 31
0.0
  0
LINE
  5
15D21
  8
01
  6
BYBLOCK
 10
4482.6421774454266
 20
813.62930145677899
 30
0.0
 11
4482.6421774454266
 21
828.6293014567791
 31
0.0
  0
ARC
  5
15D22
  8
01
  6
BYBLOCK
 10
4481.4421774454268
 20
828.6293014567791
 30
0.0
 40
1.1999999999999991
 50
0.0
 51
35.26438968278331
  0
ARC
  5
15D23
  8
01
  6
BYBLOCK
 10
4482.1421774454266
 20
829.71781293219999
 30
0.0
 40
1.1999999999999991
 50
180.0
 51
234.31466528736499
  0
LINE
  5
15D24
  8
01
  6
BYBLOCK
 10
4481.4421774454268
 20
813.62930145677899
 30
0.0
 11
4481.4421774454268
 21
828.74313349771808
 31
0.0
  0
LINE
  5
15D25
  8
01
  6
BYBLOCK
 10
4482.1421774454266
 20
829.71781293219999
 30
0.0
 11
4482.4219733425407
 21
829.32212177980625
 31
0.0
  0
LINE
  5
15D26
  8
01
  6
BYBLOCK
 10
4467.5685281809538
 20
920.6293014567791
 30
0.0
 11
4467.5685281809538
 21
900.6293014567791
 31
0.0
  0
LINE
  5
15D27
  8
01
  6
BYBLOCK
 10
4478.9421774454277
 20
812.62930145677899
 30
0.0
 11
4478.9421774454277
 21
1008.629301456779
 31
0.0
  0
LINE
  5
15D28
  8
01
  6
BYBLOCK
 10
4480.9421774454268
 20
812.62930145677899
 30
0.0
 11
4480.9421774454268
 21
1008.629301456779
 31
0.0
  0
LINE
  5
15D29
  8
01
  6
BYBLOCK
 10
4555.4421774454268
 20
844.6293014567791
 30
0.0
 11
4555.4421774454268
 21
929.12930145677717
 31
0.0000000000033645
  0
LINE
  5
15D2A
  8
01
  6
BYBLOCK
 10
4480.9421774454268
 20
1008.629301456779
 30
0.0
 11
4478.9421774454277
 21
1008.629301456779
 31
0.0
  0
LINE
  5
15D2B
  8
01
  6
BYBLOCK
 10
4480.9421774454268
 20
812.62930145677899
 30
0.0
 11
4478.9421774454277
 21
812.62930145677899
 31
0.0
  0
LINE
  5
15D2C
  8
01
 10
4489.4681237588193
 20
997.62930145677899
 30
0.0
 11
4475.6156680740332
 21
997.62930145677899
 31
0.0
  0
LINE
  5
15D2D
  8
01
 10
4476.1712759929551
 20
823.62930145677899
 30
0.0
 11
4485.1712759929551
 21
823.62930145677899
 31
0.0
  0
LINE
  5
15D30
  8
01
  6
BYBLOCK
 10
4352.4421814454272
 20
999.6293014567791
 30
0.0
 11
4352.4421814454272
 21
821.62930145677808
 31
0.0
  0
LINE
  5
15D31
  8
01
  6
BYBLOCK
 10
4370.4421814454272
 20
999.6293014567791
 30
0.0
 11
4370.4421814454272
 21
821.62930145677808
 31
0.0
  0
ARC
  5
15D32
  8
01
  6
BYBLOCK
 10
4361.4421814454272
 20
999.6293014567791
 30
0.0
 40
8.9999999999997051
 50
0.0
 51
180.0
  0
ARC
  5
15D33
  8
01
  6
BYBLOCK
 10
4361.4421814454272
 20
821.62930145677808
 30
0.0
 40
8.9999999999997051
 50
180.0
 51
0.0
  0
LINE
  5
15D34
  8
01
  6
BYBLOCK
 10
4366.7921814454257
 20
899.52930145677874
 30
0.0
 11
4356.0921814454259
 21
899.52930145677874
 31
0.0
  0
LINE
  5
15D35
  8
01
  6
BYBLOCK
 10
4366.7921814454257
 20
921.72930145677844
 30
0.0
 11
4356.0921814454259
 21
921.72930145677844
 31
0.0
  0
LINE
  5
15D36
  8
01
  6
BYBLOCK
 10
4366.7921814454257
 20
921.72930145677844
 30
0.0
 11
4366.7921814454257
 21
899.52930145677874
 31
0.0
  0
LINE
  5
15D37
  8
01
  6
BYBLOCK
 10
4356.0921814454259
 20
921.72930145677844
 30
0.0
 11
4356.0921814454259
 21
899.52930145677874
 31
0.0
  0
CIRCLE
  5
15D38
  8
01
  6
BYBLOCK
 10
4361.4421814454272
 20
823.62930145677899
 30
0.0
 40
4.25
  0
CIRCLE
  5
15D39
  8
01
  6
BYBLOCK
 10
4361.4421814454272
 20
823.62930145677899
 30
0.0
 40
2.7499999999996021
  0
CIRCLE
  5
15D3A
  8
01
  6
BYBLOCK
 10
4361.4421814454272
 20
997.62930145677899
 30
0.0
 40
4.25
  0
CIRCLE
  5
15D3B
  8
01
  6
BYBLOCK
 10
4361.4421814454272
 20
997.62930145677899
 30
0.0
 40
2.7499999999996021
  0
LINE
  5
15D3C
  8
01
 10
4354.3161539834
 20
997.62930145677899
 30
0.0
 11
4368.7281212350044
 21
997.62930145677899
 31
0.0
  0
LINE
  5
15D3D
  8
01
 10
4354.6829437785664
 20
823.62930145677808
 30
0.0
 11
4368.847311700667
 21
823.62930145677808
 31
0.0
  0
LINE
  5
15D3E
  8
01
  6
BYBLOCK
 10
4240.742185445426
 20
991.54078998135708
 30
0.0
 11
4240.742185445426
 21
829.71781293219999
 31
0.0
  0
LINE
  5
15D3F
  8
01
  6
BYBLOCK
 10
4240.2421854454269
 20
1007.629301456779
 30
0.0
 11
4240.2421854454269
 21
992.6293014567791
 31
0.0
  0
ARC
  5
15D40
  8
01
  6
BYBLOCK
 10
4241.4421854454267
 20
992.6293014567791
 30
0.0
 40
1.1999999999999991
 50
180.0
 51
215.2643896827833
  0
LINE
  5
15D41
  8
01
  6
BYBLOCK
 10
4241.9421854454258
 20
1007.629301456779
 30
0.0
 11
4241.9421854454258
 21
922.1293014567791
 31
0.0
  0
ARC
  5
15D42
  8
01
  6
BYBLOCK
 10
4240.7421854454269
 20
991.54078998135708
 30
0.0
 40
1.1999999999999991
 50
0.0
 51
35.264389682710672
  0
LINE
  5
15D43
  8
01
  6
BYBLOCK
 10
4241.4421854454267
 20
1007.629301456779
 30
0.0
 11
4241.4421854454267
 21
992.6293014567791
 31
0.0
  0
LINE
  5
15D44
  8
01
  6
BYBLOCK
 10
4240.6158347098981
 20
844.6293014567791
 30
0.0
 11
4167.4421854454258
 21
844.6293014567791
 31
0.0
  0
LINE
  5
15D45
  8
01
  6
BYBLOCK
 10
4240.6158347098981
 20
976.6293014567791
 30
0.0
 11
4219.4421854454249
 21
976.62930145677888
 31
0.0
  0
LINE
  5
15D46
  8
01
  6
BYBLOCK
 10
4254.3158347098979
 20
899.6293014567791
 30
0.0
 11
4243.8158347098988
 21
899.6293014567791
 31
0.0
  0
ARC
  5
15D47
  8
01
  6
BYBLOCK
 10
4254.3158347098979
 20
900.6293014567791
 30
0.0
 40
1.0
 50
270.0
 51
0.0
  0
LINE
  5
15D48
  8
01
  6
BYBLOCK
 10
4254.3158347098979
 20
921.62930145677899
 30
0.0
 11
4243.8158347098988
 21
921.62930145677899
 31
0.0
  0
ARC
  5
15D49
  8
01
  6
BYBLOCK
 10
4254.3158347098979
 20
920.6293014567791
 30
0.0
 40
1.0
 50
0.0
 51
90.0
  0
LINE
  5
15D4A
  8
01
  6
BYBLOCK
 10
4241.9421854454258
 20
813.62930145677899
 30
0.0
 11
4240.2421854454269
 21
813.62930145677899
 31
0.0
  0
LINE
  5
15D4B
  8
01
  6
BYBLOCK
 10
4241.9421854454258
 20
1007.629301456779
 30
0.0
 11
4240.2421854454269
 21
1007.629301456779
 31
0.0
  0
LINE
  5
15D4C
  8
01
  6
BYBLOCK
 10
4241.721981342539
 20
992.23361030438446
 30
0.0
 11
4241.4421854454267
 21
992.6293014567791
 31
0.0
  0
LINE
  5
15D4D
  8
01
  6
BYBLOCK
 10
4240.742185445426
 20
991.54078998135708
 30
0.0
 11
4240.4623895483119
 21
991.93648113375093
 31
0.0
  0
LINE
  5
15D4E
  8
01
  6
BYBLOCK
 10
4240.2421854454269
 20
813.62930145677899
 30
0.0
 11
4240.2421854454269
 21
828.6293014567791
 31
0.0
  0
ARC
  5
15D4F
  8
01
  6
BYBLOCK
 10
4241.4421854454267
 20
828.6293014567791
 30
0.0
 40
1.1999999999999991
 50
144.7356103172167
 51
180.0
  0
ARC
  5
15D50
  8
01
  6
BYBLOCK
 10
4240.7421854454269
 20
829.71781293219999
 30
0.0
 40
1.1999999999999991
 50
305.68533471263493
 51
0.0
  0
LINE
  5
15D51
  8
01
  6
BYBLOCK
 10
4241.4421854454267
 20
813.62930145677899
 30
0.0
 11
4241.4421854454267
 21
828.74313349771808
 31
0.0
  0
LINE
  5
15D52
  8
01
  6
BYBLOCK
 10
4240.7421854454269
 20
829.71781293219999
 30
0.0
 11
4240.4623895483119
 21
829.32212177980625
 31
0.0
  0
LINE
  5
15D53
  8
01
  6
BYBLOCK
 10
4255.3158347098979
 20
920.6293014567791
 30
0.0
 11
4255.3158347098979
 21
900.6293014567791
 31
0.0
  0
LINE
  5
15D54
  8
01
  6
BYBLOCK
 10
4243.9421854454258
 20
812.62930145677899
 30
0.0
 11
4243.9421854454258
 21
1008.629301456779
 31
0.0
  0
LINE
  5
15D55
  8
01
  6
BYBLOCK
 10
4241.9421854454258
 20
812.62930145677899
 30
0.0
 11
4241.9421854454258
 21
1008.629301456779
 31
0.0
  0
LINE
  5
15D56
  8
01
  6
BYBLOCK
 10
4167.4421854454258
 20
844.6293014567791
 30
0.0
 11
4167.4421854454258
 21
929.12930145677717
 31
0.0
  0
LINE
  5
15D57
  8
01
  6
BYBLOCK
 10
4241.9421854454258
 20
1008.629301456779
 30
0.0
 11
4243.9421854454258
 21
1008.629301456779
 31
0.0
  0
LINE
  5
15D58
  8
01
  6
BYBLOCK
 10
4241.9421854454258
 20
812.62930145677899
 30
0.0
 11
4243.9421854454258
 21
812.62930145677899
 31
0.0
  0
LINE
  5
15D59
  8
01
 10
4233.4162391320342
 20
997.62930145677899
 30
0.0
 11
4247.2686948168202
 21
997.62930145677899
 31
0.0
  0
LINE
  5
15D5A
  8
01
 10
4246.7130868978993
 20
823.62930145677899
 30
0.0
 11
4237.7130868978993
 21
823.62930145677899
 31
0.0
  0
LINE
  5
15D5B
  8
01
  6
CENTER2
 10
4222.9421854454258
 20
955.62930145677899
 30
0.0
 11
4162.9421854454267
 21
955.62930145677899
 31
0.0
  0
LINE
  5
15D5C
  8
01
  6
CENTER2
 10
4192.9421854454267
 20
985.6293014567791
 30
0.0
 11
4192.9421854454267
 21
925.6293014567791
 31
0.0
  0
LINE
  5
15D61
  8
01
 10
4381.4421814454272
 20
1014.363311542552
 30
0.0
 11
4381.4421814454272
 21
803.33587453172629
 31
0.0
  0
LINE
  5
15D62
  8
01
 10
4341.4421814454272
 20
1014.363311542552
 30
0.0
 11
4341.4421814454272
 21
803.33587453172629
 31
0.0
  0
LINE
  5
15D66
  8
01
 10
4482.6430616274874
 20
1174.229301456779
 30
0.0
 11
4555.4430616274876
 21
1174.229301456779
 31
0.0
  0
LINE
  5
15D67
  8
01
 10
4480.9430616274867
 20
1175.2293014567799
 30
0.0
 11
4482.1430616274884
 21
1175.2293014567799
 31
0.0
  0
LINE
  5
15D68
  8
01
 10
4482.6430616274874
 20
1160.0293014567801
 30
0.0
 11
4555.4430616274876
 21
1160.0293014567801
 31
0.0
  0
LINE
  5
15D69
  8
01
 10
4480.9430616274867
 20
1159.0293014567801
 30
0.0
 11
4482.6430616274874
 21
1159.0293014567801
 31
0.0
  0
LINE
  5
15D6A
  8
01
 10
4482.1430616274884
 20
1164.0263577316259
 30
0.0
 11
4482.1430616274884
 21
1170.2322451819321
 31
0.0
  0
LINE
  5
15D6B
  8
01
 10
4480.9430616274867
 20
1159.0293014567801
 30
0.0
 11
4480.9430616274867
 21
1175.2293014567799
 31
0.0
  0
ARC
  5
15D6C
  8
01
 10
4482.1430616274874
 20
1172.2322451819321
 30
0.0
 40
1.1999999999999991
 50
135.0
 51
180.0
  0
ARC
  5
15D6D
  8
01
 10
4482.1430616274874
 20
1170.2322451819321
 30
0.0
 40
1.1999999999999991
 50
135.0
 51
180.0
  0
ARC
  5
15D6E
  8
01
 10
4482.1430616274874
 20
1162.0263577316271
 30
0.0
 40
1.1999999999999991
 50
180.0
 51
225.0
  0
LINE
  5
15D6F
  8
01
 10
4481.4430616274867
 20
1159.0293014567801
 30
0.0
 11
4481.4430616274867
 21
1163.0293014567801
 31
0.0
  0
LINE
  5
15D70
  8
01
 10
4482.6430616274874
 20
1159.0293014567801
 30
0.0
 11
4482.6430616274874
 21
1163.0293014567801
 31
0.0
  0
ARC
  5
15D71
  8
01
 10
4481.4430616274867
 20
1163.0293014567801
 30
0.0
 40
1.1999999999999991
 50
0.0
 51
44.999999999999943
  0
LINE
  5
15D72
  8
01
 10
4481.4430616274867
 20
1161.0293014567801
 30
0.0
 11
4481.2945334900633
 21
1161.1778295942031
 31
0.0
  0
LINE
  5
15D73
  8
01
 10
4481.4430616274867
 20
1175.2293014567799
 30
0.0
 11
4481.4430616274867
 21
1171.229301456779
 31
0.0
  0
LINE
  5
15D74
  8
01
 10
4482.6430616274874
 20
1175.2293014567799
 30
0.0
 11
4482.6430616274874
 21
1171.229301456779
 31
0.0
  0
ARC
  5
15D75
  8
01
 10
4481.4430616274867
 20
1171.229301456779
 30
0.0
 40
1.1999999999999991
 50
315.00000000000011
 51
0.0
  0
LINE
  5
15D76
  8
01
 10
4482.6430616274874
 20
1175.2293014567799
 30
0.0
 11
4481.4430616274867
 21
1175.2293014567799
 31
0.0
  0
LINE
  5
15D77
  8
01
 10
4481.4430616274867
 20
1173.2293014567799
 30
0.0
 11
4481.2945334900633
 21
1173.0807733193551
 31
0.0
  0
LINE
  5
15D78
  8
01
 10
4481.4430616274867
 20
1163.0293014567801
 30
0.0
 11
4481.2945334900633
 21
1163.1778295942031
 31
0.0
  0
ARC
  5
15D79
  8
01
 10
4482.1430616274874
 20
1164.0263577316271
 30
0.0
 40
1.1999999999999991
 50
180.0
 51
225.0
  0
LINE
  5
15D7A
  8
01
 10
4482.2915897649109
 20
1163.8778295942029
 30
0.0
 11
4482.1430616274874
 21
1164.0263577316271
 31
0.0
  0
LINE
  5
15D7B
  8
01
 10
4481.4430616274867
 20
1171.229301456779
 30
0.0
 11
4481.2945334900633
 21
1171.0807733193551
 31
0.0
  0
LINE
  5
15D7C
  8
01
 10
4482.2915897649109
 20
1170.3807733193551
 30
0.0
 11
4482.1430616274874
 21
1170.2322451819321
 31
0.0
  0
LINE
  5
15D7D
  8
01
 10
4555.4430616274876
 20
1160.0293014567801
 30
0.0
 11
4555.4430616274876
 21
1174.229301456779
 31
0.0
  0
LINE
  5
15D7E
  8
01
 10
4480.9430616274867
 20
1176.1293014567791
 30
0.0
 11
4480.9430616274867
 21
1158.1293014567791
 31
0.0
  0
LINE
  5
15D7F
  8
01
 10
4478.9430616274876
 20
1176.1293014567791
 30
0.0
 11
4478.9430616274876
 21
1158.1293014567791
 31
0.0
  0
LINE
  5
15D80
  8
01
 10
4480.9430616274867
 20
1176.1293014567791
 30
0.0
 11
4478.9430616274876
 21
1176.1293014567791
 31
0.0
  0
LINE
  5
15D81
  8
01
 10
4480.9430616274867
 20
1158.1293014567791
 30
0.0
 11
4478.9430616274876
 21
1158.1293014567791
 31
0.0
  0
LINE
  5
15D82
  8
01
 10
4478.9430616274876
 20
1161.7793014567801
 30
0.0
 11
4467.5694123630137
 21
1161.7793014567801
 31
0.0
  0
LINE
  5
15D83
  8
01
 10
4478.9430616274876
 20
1172.4793014567799
 30
0.0
 11
4478.0694123630146
 21
1172.4793014567799
 31
0.0
  0
LINE
  5
15D84
  8
01
 10
4467.5694123630137
 20
1161.7793014567801
 30
0.0
 11
4467.5694123630137
 21
1163.7793014567801
 31
0.0
  0
LINE
  5
15D85
  8
01
 10
4467.5694123630137
 20
1163.7793014567801
 30
0.0
 11
4478.0694123630146
 21
1172.4793014567799
 31
0.0
  0
TEXT
  5
1790F
  8
01
 10
4176.642197445427
 20
1091.6629310394151
 30
0.0
 40
6.0
  1
サテンニッケル
 72
     1
 11
4201.0421974454266
 21
1091.6629310394151
 31
0.0
  0
TEXT
  5
17910
  8
01
 10
4229.3421974454268
 20
1091.057765981298
 30
0.0
 40
6.0
  1
1-K9T-N-LM-2
 41
0.7
 72
     1
 11
4256.0421974454266
 21
1091.057765981298
 31
0.0
  0
LINE
  5
17912
  8
01
 10
4174.9421974454272
 20
1068.1293014567721
 30
0.0
 11
4284.9421974454272
 21
1068.1293014567721
 31
0.0
  0
TEXT
  5
17914
  8
01
 10
4227.8421974454268
 20
1070.057765981298
 30
0.0
 40
6.0
  1
1-K9T-JC-LM-2
 41
0.7
 72
     1
 11
4256.0421974454266
 21
1070.057765981298
 31
0.0
  0
POINT
  5
19A8A
  8
01
 10
4529.9098298703993
 20
1083.1293014567821
 30
0.0
 50
360.0
  0
LINE
  5
1B14A
  8
01
 10
4555.4421774454268
 20
976.6293014567791
 30
0.0
 11
4503.4421774454286
 21
976.6293014567791
 31
0.0
  0
LINE
  5
1B14B
  8
01
 10
4555.4421774454268
 20
976.6293014567791
 30
-0.0000000000038238
 11
4555.4421774454268
 21
929.12930145677717
 31
0.0000000000096605
  0
LINE
  5
1B433
  8
01
 10
4411.4421814454272
 20
955.62930145677899
 30
0.0
 11
4376.4421814454272
 21
955.62930145677899
 31
0.0
  0
LINE
  5
1B43B
  8
01
  6
CENTER2
 10
4559.9421774454268
 20
955.62930145677899
 30
0.0
 11
4499.9421774454277
 21
955.62930145677899
 31
0.0
  0
LINE
  5
1B43C
  8
01
  6
CENTER2
 10
4529.9421774454277
 20
985.6293014567791
 30
0.0
 11
4529.9421774454277
 21
925.6293014567791
 31
0.0
  0
LINE
  5
1B50C
  8
01
 10
4529.9422937851723
 20
1117.12930145678
 30
0.0
 11
4529.9422937851723
 21
1152.1293014567791
 31
0.0
  0
TEXT
  5
1B813
  8
01
 10
4175.8492601647404
 20
1070.031976714849
 30
0.0
 40
6.0
  1
サテンクローム+クローム
 41
0.6
 72
     1
 11
4201.3578315933119
 21
1070.031976714849
 31
0.0
  0
LINE
  5
1BA1E
  8
01
 10
4654.9422937851723
 20
1111.129301463066
 30
-0.0000000000000568
 11
4654.9422937851723
 21
1089.1293014599089
 31
-0.0000000000000568
  0
LINE
  5
1BA1F
  8
01
 10
4518.9422937851723
 20
1138.1293014567791
 30
0.0
 11
4518.9422937851723
 21
1089.1293014599109
 31
0.0
  0
ARC
  5
1BA20
  8
01
 10
4519.9422937851714
 20
1089.1293014599109
 30
-0.0000000000000568
 40
1.0
 50
180.0
 51
270.0
  0
LINE
  5
1BA21
  8
01
 10
4540.9422937851723
 20
1138.1293014567791
 30
0.0
 11
4540.9422937851732
 21
1114.1293014630651
 31
0.0000000000000044
  0
LINE
  5
1BA22
  8
01
 10
4518.9422937851723
 20
1138.1293014567791
 30
0.0
 11
4540.9422937851723
 21
1138.1293014567791
 31
0.0
  0
LINE
  5
1BA23
  8
01
 10
4519.9422937851714
 20
1088.12930145991
 30
-0.0000000000000568
 11
4653.9422937851723
 21
1088.1293014599089
 31
-0.0000000000000568
  0
ARC
  5
1BA24
  8
01
 10
4653.9422937851723
 20
1089.1293014599089
 30
-0.0000000000000568
 40
1.0
 50
270.0
 51
0.0
  0
LINE
  5
1BA25
  8
01
 10
4653.9422937851723
 20
1112.129301463066
 30
-0.0000000000000568
 11
4542.9422937851732
 21
1112.129301463066
 31
-0.0000000000000558
  0
ARC
  5
1BA26
  8
01
 10
4653.9422937851723
 20
1111.129301463066
 30
-0.000000000000042
 40
1.0
 50
0.0
 51
90.0
  0
ARC
  5
1BA27
  8
01
 10
4542.9422937851732
 20
1114.1293014630651
 30
0.0000000000136305
 40
2.0
 50
180.0
 51
270.0
  0
LINE
  5
1BA28
  8
01
 10
4538.9422937851723
 20
1138.1293014567791
 30
0.0
 11
4538.9422937851714
 21
1113.39181323048
 31
0.0000000000000275
  0
LINE
  5
1BA29
  8
01
 10
4654.9422937851723
 20
1091.6293014599089
 30
0.0
 11
4542.2215903531023
 21
1109.606310199986
 31
0.0000000000000303
  0
ARC
  5
1BA2A
  8
01
 10
4542.9422937851732
 20
1113.541920515177
 30
-0.000000000006261
 40
4.0
 50
180.0
 51
260.9386214172348
  0
LINE
  5
1BAEF
  8
01
 10
4538.9421774454258
 20
966.6293014567791
 30
0.0
 11
4519.9421774454258
 21
966.6293014567791
 31
0.0
  0
LINE
  5
1BAF0
  8
01
 10
4653.9421774454268
 20
951.62930145677888
 30
0.0
 11
4519.9421774454258
 21
951.62930145677888
 31
0.0
  0
ARC
  5
1BAF1
  8
01
 10
4519.9421774454258
 20
952.62930145677888
 30
0.0
 40
1.0
 50
180.0
 51
270.0
  0
LINE
  5
1BAF2
  8
01
 10
4653.9421774454268
 20
960.6293014567791
 30
0.0
 11
4519.9421774454258
 21
960.6293014567791
 31
0.0
  0
LINE
  5
1BAF3
  8
01
 10
4538.9421774454258
 20
944.62930145677888
 30
0.0
 11
4519.9421774454258
 21
944.62930145677888
 31
0.0
  0
ARC
  5
1BAF4
  8
01
 10
4538.9421774454258
 20
946.62930145677899
 30
0.0
 40
2.0
 50
270.0
 51
0.0
  0
LINE
  5
1BAF5
  8
01
 10
4518.9421774454268
 20
965.62930145677922
 30
0.0
 11
4518.9421774454268
 21
945.62930145677888
 31
0.0
  0
ARC
  5
1BAF6
  8
01
 10
4519.9421774454258
 20
959.6293014567791
 30
0.0
 40
1.0
 50
90.0
 51
180.0
  0
ARC
  5
1BAF7
  8
01
 10
4519.9421774454258
 20
965.62930145677922
 30
0.0
 40
1.0
 50
90.0
 51
180.0
  0
ARC
  5
1BAF8
  8
01
 10
4519.9421774454258
 20
945.62930145677888
 30
0.0
 40
1.0
 50
180.0
 51
270.0
  0
LINE
  5
1BAF9
  8
01
 10
4540.9421774454258
 20
964.21508789440566
 30
0.0
 11
4540.9421774454258
 21
963.46688766403577
 31
0.0
  0
LINE
  5
1BAFA
  8
01
 10
4538.9421774454258
 20
966.6293014567791
 30
0.0
 11
4540.6492842266134
 21
964.92219467559244
 31
0.0
  0
LINE
  5
1BAFB
  8
01
 10
4654.9421774454258
 20
949.5794185890154
 30
0.0
 11
4654.9421774454258
 21
960.07028351243571
 31
0.0
  0
ARC
  5
1BAFC
  8
01
 10
4653.9421774454268
 20
952.62930145677888
 30
0.0
 40
1.0
 50
270.0
 51
0.0
  0
ARC
  5
1BAFD
  8
01
 10
4653.9421774454268
 20
949.5794185890154
 30
0.0000000000112557
 40
1.0
 50
270.0
 51
0.0
  0
ARC
  5
1BAFE
  8
01
 10
4653.9421774454268
 20
959.6293014567791
 30
0.0
 40
1.0
 50
0.0
 51
90.0
  0
LINE
  5
1BAFF
  8
01
 10
4540.9421774454258
 20
948.07023914621482
 30
0.0
 11
4540.9421774454258
 21
946.62930145677899
 31
0.0
  0
LINE
  5
1BB00
  8
01
 10
4538.9421774454258
 20
948.07023914621482
 30
0.0
 11
4538.9421774454258
 21
944.62930145677888
 31
0.0
  0
POLYLINE
  5
1BB01
  8
01
 10
4540.9421774454258
 20
948.57941858901563
 30
0.0000000000082766
 66
     1
 70
     8
  0
VERTEX
  8
01
  5
1C112
 10
4540.94
 20
948.579
 30
8.27660e-012
  70
    32
  0
VERTEX
  8
01
  5
1C113
 10
4540.92
 20
948.579
 30
8.27660e-012
  70
    32
  0
VERTEX
  8
01
  5
1C114
 10
4540.89
 20
948.579
 30
8.27660e-012
  70
    32
  0
VERTEX
  8
01
  5
1C115
 10
4540.87
 20
948.579
 30
8.27660e-012
  70
    32
  0
VERTEX
  8
01
  5
1C116
 10
4540.84
 20
948.579
 30
8.27660e-012
  70
    32
  0
VERTEX
  8
01
  5
1C117
 10
4540.82
 20
948.578
 30
8.27660e-012
  70
    32
  0
VERTEX
  8
01
  5
1C118
 10
4540.80
 20
948.578
 30
8.27660e-012
  70
    32
  0
VERTEX
  8
01
  5
1C119
 10
4540.77
 20
948.578
 30
8.27660e-012
  70
    32
  0
VERTEX
  8
01
  5
1C11A
 10
4540.75
 20
948.577
 30
8.27660e-012
  70
    32
  0
VERTEX
  8
01
  5
1C11B
 10
4540.72
 20
948.576
 30
8.27660e-012
  70
    32
  0
VERTEX
  8
01
  5
1C11C
 10
4540.70
 20
948.576
 30
8.27660e-012
  70
    32
  0
VERTEX
  8
01
  5
1C11D
 10
4540.67
 20
948.575
 30
8.27660e-012
  70
    32
  0
VERTEX
  8
01
  5
1C11E
 10
4540.65
 20
948.574
 30
8.27660e-012
  70
    32
  0
VERTEX
  8
01
  5
1C11F
 10
4540.62
 20
948.573
 30
8.27660e-012
  70
    32
  0
VERTEX
  8
01
  5
1C120
 10
4540.60
 20
948.572
 30
8.27660e-012
  70
    32
  0
VERTEX
  8
01
  5
1C121
 10
4540.58
 20
948.571
 30
8.27660e-012
  70
    32
  0
VERTEX
  8
01
  5
1C122
 10
4540.55
 20
948.570
 30
8.27660e-012
  70
    32
  0
VERTEX
  8
01
  5
1C123
 10
4540.53
 20
948.569
 30
8.27660e-012
  70
    32
  0
VERTEX
  8
01
  5
1C124
 10
4540.50
 20
948.567
 30
8.27660e-012
  70
    32
  0
VERTEX
  8
01
  5
1C125
 10
4540.48
 20
948.566
 30
8.27660e-012
  70
    32
  0
VERTEX
  8
01
  5
1C126
 10
4540.46
 20
948.564
 30
8.27660e-012
  70
    32
  0
VERTEX
  8
01
  5
1C127
 10
4540.43
 20
948.563
 30
8.27660e-012
  70
    32
  0
VERTEX
  8
01
  5
1C128
 10
4540.41
 20
948.561
 30
8.27660e-012
  70
    32
  0
VERTEX
  8
01
  5
1C129
 10
4540.39
 20
948.560
 30
8.27660e-012
  70
    32
  0
VERTEX
  8
01
  5
1C12A
 10
4540.36
 20
948.558
 30
8.27660e-012
  70
    32
  0
VERTEX
  8
01
  5
1C12B
 10
4540.34
 20
948.556
 30
8.27660e-012
  70
    32
  0
VERTEX
  8
01
  5
1C12C
 10
4540.31
 20
948.554
 30
8.27660e-012
  70
    32
  0
VERTEX
  8
01
  5
1C12D
 10
4540.29
 20
948.552
 30
8.27660e-012
  70
    32
  0
VERTEX
  8
01
  5
1C12E
 10
4540.27
 20
948.550
 30
8.27660e-012
  70
    32
  0
VERTEX
  8
01
  5
1C12F
 10
4540.25
 20
948.548
 30
8.27660e-012
  70
    32
  0
VERTEX
  8
01
  5
1C130
 10
4540.22
 20
948.546
 30
8.27660e-012
  70
    32
  0
VERTEX
  8
01
  5
1C131
 10
4540.20
 20
948.544
 30
8.27660e-012
  70
    32
  0
VERTEX
  8
01
  5
1C132
 10
4540.18
 20
948.541
 30
8.27660e-012
  70
    32
  0
VERTEX
  8
01
  5
1C133
 10
4540.15
 20
948.539
 30
8.27660e-012
  70
    32
  0
VERTEX
  8
01
  5
1C134
 10
4540.13
 20
948.537
 30
8.27660e-012
  70
    32
  0
VERTEX
  8
01
  5
1C135
 10
4540.11
 20
948.534
 30
8.27660e-012
  70
    32
  0
VERTEX
  8
01
  5
1C136
 10
4540.09
 20
948.531
 30
8.27660e-012
  70
    32
  0
VERTEX
  8
01
  5
1C137
 10
4540.06
 20
948.529
 30
8.27660e-012
  70
    32
  0
VERTEX
  8
01
  5
1C138
 10
4540.04
 20
948.526
 30
8.27660e-012
  70
    32
  0
VERTEX
  8
01
  5
1C139
 10
4540.02
 20
948.523
 30
8.27660e-012
  70
    32
  0
VERTEX
  8
01
  5
1C13A
 10
4540.00
 20
948.520
 30
8.27660e-012
  70
    32
  0
VERTEX
  8
01
  5
1C13B
 10
4539.98
 20
948.517
 30
8.27660e-012
  70
    32
  0
VERTEX
  8
01
  5
1C13C
 10
4539.96
 20
948.514
 30
8.27660e-012
  70
    32
  0
VERTEX
  8
01
  5
1C13D
 10
4539.94
 20
948.511
 30
8.27660e-012
  70
    32
  0
VERTEX
  8
01
  5
1C13E
 10
4539.91
 20
948.508
 30
8.27660e-012
  70
    32
  0
VERTEX
  8
01
  5
1C13F
 10
4539.89
 20
948.505
 30
8.27660e-012
  70
    32
  0
VERTEX
  8
01
  5
1C140
 10
4539.87
 20
948.502
 30
8.27660e-012
  70
    32
  0
VERTEX
  8
01
  5
1C141
 10
4539.85
 20
948.499
 30
8.27660e-012
  70
    32
  0
VERTEX
  8
01
  5
1C142
 10
4539.83
 20
948.495
 30
8.27660e-012
  70
    32
  0
VERTEX
  8
01
  5
1C143
 10
4539.81
 20
948.492
 30
8.27660e-012
  70
    32
  0
VERTEX
  8
01
  5
1C144
 10
4539.79
 20
948.488
 30
8.27660e-012
  70
    32
  0
VERTEX
  8
01
  5
1C145
 10
4539.77
 20
948.485
 30
8.27660e-012
  70
    32
  0
VERTEX
  8
01
  5
1C146
 10
4539.75
 20
948.481
 30
8.27660e-012
  70
    32
  0
VERTEX
  8
01
  5
1C147
 10
4539.73
 20
948.477
 30
8.27660e-012
  70
    32
  0
VERTEX
  8
01
  5
1C148
 10
4539.71
 20
948.474
 30
8.27660e-012
  70
    32
  0
VERTEX
  8
01
  5
1C149
 10
4539.69
 20
948.470
 30
8.27660e-012
  70
    32
  0
VERTEX
  8
01
  5
1C14A
 10
4539.67
 20
948.466
 30
8.27660e-012
  70
    32
  0
VERTEX
  8
01
  5
1C14B
 10
4539.65
 20
948.462
 30
8.27660e-012
  70
    32
  0
VERTEX
  8
01
  5
1C14C
 10
4539.64
 20
948.458
 30
8.27660e-012
  70
    32
  0
VERTEX
  8
01
  5
1C14D
 10
4539.62
 20
948.454
 30
8.27660e-012
  70
    32
  0
VERTEX
  8
01
  5
1C14E
 10
4539.60
 20
948.450
 30
8.27660e-012
  70
    32
  0
VERTEX
  8
01
  5
1C14F
 10
4539.58
 20
948.446
 30
8.27660e-012
  70
    32
  0
VERTEX
  8
01
  5
1C150
 10
4539.56
 20
948.442
 30
8.27660e-012
  70
    32
  0
VERTEX
  8
01
  5
1C151
 10
4539.55
 20
948.437
 30
8.27660e-012
  70
    32
  0
VERTEX
  8
01
  5
1C152
 10
4539.53
 20
948.433
 30
8.27660e-012
  70
    32
  0
VERTEX
  8
01
  5
1C153
 10
4539.51
 20
948.429
 30
8.27660e-012
  70
    32
  0
VERTEX
  8
01
  5
1C154
 10
4539.49
 20
948.424
 30
8.27660e-012
  70
    32
  0
VERTEX
  8
01
  5
1C155
 10
4539.48
 20
948.420
 30
8.27660e-012
  70
    32
  0
VERTEX
  8
01
  5
1C156
 10
4539.46
 20
948.415
 30
8.27660e-012
  70
    32
  0
VERTEX
  8
01
  5
1C157
 10
4539.44
 20
948.411
 30
8.27660e-012
  70
    32
  0
VERTEX
  8
01
  5
1C158
 10
4539.43
 20
948.406
 30
8.27660e-012
  70
    32
  0
VERTEX
  8
01
  5
1C159
 10
4539.41
 20
948.401
 30
8.27660e-012
  70
    32
  0
VERTEX
  8
01
  5
1C15A
 10
4539.40
 20
948.397
 30
8.27660e-012
  70
    32
  0
VERTEX
  8
01
  5
1C15B
 10
4539.38
 20
948.392
 30
8.27660e-012
  70
    32
  0
VERTEX
  8
01
  5
1C15C
 10
4539.37
 20
948.387
 30
8.27660e-012
  70
    32
  0
VERTEX
  8
01
  5
1C15D
 10
4539.35
 20
948.382
 30
8.27660e-012
  70
    32
  0
VERTEX
  8
01
  5
1C15E
 10
4539.34
 20
948.377
 30
8.27660e-012
  70
    32
  0
VERTEX
  8
01
  5
1C15F
 10
4539.32
 20
948.372
 30
8.27660e-012
  70
    32
  0
VERTEX
  8
01
  5
1C160
 10
4539.31
 20
948.367
 30
8.27660e-012
  70
    32
  0
VERTEX
  8
01
  5
1C161
 10
4539.29
 20
948.362
 30
8.27660e-012
  70
    32
  0
VERTEX
  8
01
  5
1C162
 10
4539.28
 20
948.357
 30
8.27660e-012
  70
    32
  0
VERTEX
  8
01
  5
1C163
 10
4539.27
 20
948.352
 30
8.27660e-012
  70
    32
  0
VERTEX
  8
01
  5
1C164
 10
4539.25
 20
948.347
 30
8.27660e-012
  70
    32
  0
VERTEX
  8
01
  5
1C165
 10
4539.24
 20
948.342
 30
8.27660e-012
  70
    32
  0
VERTEX
  8
01
  5
1C166
 10
4539.23
 20
948.336
 30
8.27660e-012
  70
    32
  0
VERTEX
  8
01
  5
1C167
 10
4539.21
 20
948.331
 30
8.27660e-012
  70
    32
  0
VERTEX
  8
01
  5
1C168
 10
4539.20
 20
948.326
 30
8.27660e-012
  70
    32
  0
VERTEX
  8
01
  5
1C169
 10
4539.19
 20
948.321
 30
8.27660e-012
  70
    32
  0
VERTEX
  8
01
  5
1C16A
 10
4539.18
 20
948.315
 30
8.27660e-012
  70
    32
  0
VERTEX
  8
01
  5
1C16B
 10
4539.17
 20
948.310
 30
8.27660e-012
  70
    32
  0
VERTEX
  8
01
  5
1C16C
 10
4539.16
 20
948.304
 30
8.27660e-012
  70
    32
  0
VERTEX
  8
01
  5
1C16D
 10
4539.14
 20
948.299
 30
8.27660e-012
  70
    32
  0
VERTEX
  8
01
  5
1C16E
 10
4539.13
 20
948.293
 30
8.27660e-012
  70
    32
  0
VERTEX
  8
01
  5
1C16F
 10
4539.12
 20
948.288
 30
8.27660e-012
  70
    32
  0
VERTEX
  8
01
  5
1C170
 10
4539.11
 20
948.282
 30
8.27660e-012
  70
    32
  0
VERTEX
  8
01
  5
1C171
 10
4539.10
 20
948.276
 30
8.27660e-012
  70
    32
  0
VERTEX
  8
01
  5
1C172
 10
4539.09
 20
948.271
 30
8.27660e-012
  70
    32
  0
VERTEX
  8
01
  5
1C173
 10
4539.09
 20
948.265
 30
8.27660e-012
  70
    32
  0
VERTEX
  8
01
  5
1C174
 10
4539.08
 20
948.259
 30
8.27660e-012
  70
    32
  0
VERTEX
  8
01
  5
1C175
 10
4539.07
 20
948.254
 30
8.27660e-012
  70
    32
  0
VERTEX
  8
01
  5
1C176
 10
4539.06
 20
948.248
 30
8.27660e-012
  70
    32
  0
VERTEX
  8
01
  5
1C177
 10
4539.05
 20
948.242
 30
8.27660e-012
  70
    32
  0
VERTEX
  8
01
  5
1C178
 10
4539.04
 20
948.236
 30
8.27660e-012
  70
    32
  0
VERTEX
  8
01
  5
1C179
 10
4539.04
 20
948.230
 30
8.27660e-012
  70
    32
  0
VERTEX
  8
01
  5
1C17A
 10
4539.03
 20
948.225
 30
8.27660e-012
  70
    32
  0
VERTEX
  8
01
  5
1C17B
 10
4539.02
 20
948.219
 30
8.27660e-012
  70
    32
  0
VERTEX
  8
01
  5
1C17C
 10
4539.01
 20
948.213
 30
8.27660e-012
  70
    32
  0
VERTEX
  8
01
  5
1C17D
 10
4539.01
 20
948.207
 30
8.27660e-012
  70
    32
  0
VERTEX
  8
01
  5
1C17E
 10
4539.00
 20
948.201
 30
8.27660e-012
  70
    32
  0
VERTEX
  8
01
  5
1C17F
 10
4539.00
 20
948.195
 30
8.27660e-012
  70
    32
  0
VERTEX
  8
01
  5
1C180
 10
4538.99
 20
948.189
 30
8.27660e-012
  70
    32
  0
VERTEX
  8
01
  5
1C181
 10
4538.99
 20
948.183
 30
8.27660e-012
  70
    32
  0
VERTEX
  8
01
  5
1C182
 10
4538.98
 20
948.177
 30
8.27660e-012
  70
    32
  0
VERTEX
  8
01
  5
1C183
 10
4538.98
 20
948.171
 30
8.27660e-012
  70
    32
  0
VERTEX
  8
01
  5
1C184
 10
4538.97
 20
948.165
 30
8.27660e-012
  70
    32
  0
VERTEX
  8
01
  5
1C185
 10
4538.97
 20
948.159
 30
8.27660e-012
  70
    32
  0
VERTEX
  8
01
  5
1C186
 10
4538.96
 20
948.153
 30
8.27660e-012
  70
    32
  0
VERTEX
  8
01
  5
1C187
 10
4538.96
 20
948.147
 30
8.27660e-012
  70
    32
  0
VERTEX
  8
01
  5
1C188
 10
4538.96
 20
948.141
 30
8.27660e-012
  70
    32
  0
VERTEX
  8
01
  5
1C189
 10
4538.95
 20
948.135
 30
8.27660e-012
  70
    32
  0
VERTEX
  8
01
  5
1C18A
 10
4538.95
 20
948.128
 30
8.27660e-012
  70
    32
  0
VERTEX
  8
01
  5
1C18B
 10
4538.95
 20
948.122
 30
8.27660e-012
  70
    32
  0
VERTEX
  8
01
  5
1C18C
 10
4538.95
 20
948.116
 30
8.27660e-012
  70
    32
  0
VERTEX
  8
01
  5
1C18D
 10
4538.95
 20
948.110
 30
8.27660e-012
  70
    32
  0
VERTEX
  8
01
  5
1C18E
 10
4538.94
 20
948.104
 30
8.27660e-012
  70
    32
  0
VERTEX
  8
01
  5
1C18F
 10
4538.94
 20
948.098
 30
8.27660e-012
  70
    32
  0
VERTEX
  8
01
  5
1C190
 10
4538.94
 20
948.092
 30
8.27660e-012
  70
    32
  0
VERTEX
  8
01
  5
1C191
 10
4538.94
 20
948.086
 30
8.27660e-012
  70
    32
  0
VERTEX
  8
01
  5
1C192
 10
4538.94
 20
948.079
 30
8.27660e-012
  70
    32
  0
SEQEND
  8
01
  5
1C193
  0
POLYLINE
  5
1BB02
  8
01
 10
4542.9421774454268
 20
948.57941858901563
 30
0.0000000000041383
 66
     1
 70
     8
  0
VERTEX
  8
01
  5
1C194
 10
4542.94
 20
948.579
 30
4.13830e-012
  70
    32
  0
VERTEX
  8
01
  5
1C195
 10
4542.92
 20
948.579
 30
4.13830e-012
  70
    32
  0
VERTEX
  8
01
  5
1C196
 10
4542.89
 20
948.579
 30
4.13830e-012
  70
    32
  0
VERTEX
  8
01
  5
1C197
 10
4542.87
 20
948.579
 30
4.13830e-012
  70
    32
  0
VERTEX
  8
01
  5
1C198
 10
4542.84
 20
948.579
 30
4.13830e-012
  70
    32
  0
VERTEX
  8
01
  5
1C199
 10
4542.82
 20
948.578
 30
4.13830e-012
  70
    32
  0
VERTEX
  8
01
  5
1C19A
 10
4542.80
 20
948.578
 30
4.13830e-012
  70
    32
  0
VERTEX
  8
01
  5
1C19B
 10
4542.77
 20
948.578
 30
4.13830e-012
  70
    32
  0
VERTEX
  8
01
  5
1C19C
 10
4542.75
 20
948.577
 30
4.13830e-012
  70
    32
  0
VERTEX
  8
01
  5
1C19D
 10
4542.72
 20
948.576
 30
4.13830e-012
  70
    32
  0
VERTEX
  8
01
  5
1C19E
 10
4542.70
 20
948.576
 30
4.13830e-012
  70
    32
  0
VERTEX
  8
01
  5
1C19F
 10
4542.67
 20
948.575
 30
4.13830e-012
  70
    32
  0
VERTEX
  8
01
  5
1C1A0
 10
4542.65
 20
948.574
 30
4.13830e-012
  70
    32
  0
VERTEX
  8
01
  5
1C1A1
 10
4542.62
 20
948.573
 30
4.13830e-012
  70
    32
  0
VERTEX
  8
01
  5
1C1A2
 10
4542.60
 20
948.572
 30
4.13830e-012
  70
    32
  0
VERTEX
  8
01
  5
1C1A3
 10
4542.58
 20
948.571
 30
4.13830e-012
  70
    32
  0
VERTEX
  8
01
  5
1C1A4
 10
4542.55
 20
948.570
 30
4.13830e-012
  70
    32
  0
VERTEX
  8
01
  5
1C1A5
 10
4542.53
 20
948.569
 30
4.13830e-012
  70
    32
  0
VERTEX
  8
01
  5
1C1A6
 10
4542.50
 20
948.567
 30
4.13830e-012
  70
    32
  0
VERTEX
  8
01
  5
1C1A7
 10
4542.48
 20
948.566
 30
4.13830e-012
  70
    32
  0
VERTEX
  8
01
  5
1C1A8
 10
4542.46
 20
948.564
 30
4.13830e-012
  70
    32
  0
VERTEX
  8
01
  5
1C1A9
 10
4542.43
 20
948.563
 30
4.13830e-012
  70
    32
  0
VERTEX
  8
01
  5
1C1AA
 10
4542.41
 20
948.561
 30
4.13830e-012
  70
    32
  0
VERTEX
  8
01
  5
1C1AB
 10
4542.39
 20
948.560
 30
4.13830e-012
  70
    32
  0
VERTEX
  8
01
  5
1C1AC
 10
4542.36
 20
948.558
 30
4.13830e-012
  70
    32
  0
VERTEX
  8
01
  5
1C1AD
 10
4542.34
 20
948.556
 30
4.13830e-012
  70
    32
  0
VERTEX
  8
01
  5
1C1AE
 10
4542.31
 20
948.554
 30
4.13830e-012
  70
    32
  0
VERTEX
  8
01
  5
1C1AF
 10
4542.29
 20
948.552
 30
4.13830e-012
  70
    32
  0
VERTEX
  8
01
  5
1C1B0
 10
4542.27
 20
948.550
 30
4.13830e-012
  70
    32
  0
VERTEX
  8
01
  5
1C1B1
 10
4542.25
 20
948.548
 30
4.13830e-012
  70
    32
  0
VERTEX
  8
01
  5
1C1B2
 10
4542.22
 20
948.546
 30
4.13830e-012
  70
    32
  0
VERTEX
  8
01
  5
1C1B3
 10
4542.20
 20
948.544
 30
4.13830e-012
  70
    32
  0
VERTEX
  8
01
  5
1C1B4
 10
4542.18
 20
948.541
 30
4.13830e-012
  70
    32
  0
VERTEX
  8
01
  5
1C1B5
 10
4542.15
 20
948.539
 30
4.13830e-012
  70
    32
  0
VERTEX
  8
01
  5
1C1B6
 10
4542.13
 20
948.537
 30
4.13830e-012
  70
    32
  0
VERTEX
  8
01
  5
1C1B7
 10
4542.11
 20
948.534
 30
4.13830e-012
  70
    32
  0
VERTEX
  8
01
  5
1C1B8
 10
4542.09
 20
948.531
 30
4.13830e-012
  70
    32
  0
VERTEX
  8
01
  5
1C1B9
 10
4542.06
 20
948.529
 30
4.13830e-012
  70
    32
  0
VERTEX
  8
01
  5
1C1BA
 10
4542.04
 20
948.526
 30
4.13830e-012
  70
    32
  0
VERTEX
  8
01
  5
1C1BB
 10
4542.02
 20
948.523
 30
4.13830e-012
  70
    32
  0
VERTEX
  8
01
  5
1C1BC
 10
4542.00
 20
948.520
 30
4.13830e-012
  70
    32
  0
VERTEX
  8
01
  5
1C1BD
 10
4541.98
 20
948.517
 30
4.13830e-012
  70
    32
  0
VERTEX
  8
01
  5
1C1BE
 10
4541.96
 20
948.514
 30
4.13830e-012
  70
    32
  0
VERTEX
  8
01
  5
1C1BF
 10
4541.94
 20
948.511
 30
4.13830e-012
  70
    32
  0
VERTEX
  8
01
  5
1C1C0
 10
4541.91
 20
948.508
 30
4.13830e-012
  70
    32
  0
VERTEX
  8
01
  5
1C1C1
 10
4541.89
 20
948.505
 30
4.13830e-012
  70
    32
  0
VERTEX
  8
01
  5
1C1C2
 10
4541.87
 20
948.502
 30
4.13830e-012
  70
    32
  0
VERTEX
  8
01
  5
1C1C3
 10
4541.85
 20
948.499
 30
4.13830e-012
  70
    32
  0
VERTEX
  8
01
  5
1C1C4
 10
4541.83
 20
948.495
 30
4.13830e-012
  70
    32
  0
VERTEX
  8
01
  5
1C1C5
 10
4541.81
 20
948.492
 30
4.13830e-012
  70
    32
  0
VERTEX
  8
01
  5
1C1C6
 10
4541.79
 20
948.488
 30
4.13830e-012
  70
    32
  0
VERTEX
  8
01
  5
1C1C7
 10
4541.77
 20
948.485
 30
4.13830e-012
  70
    32
  0
VERTEX
  8
01
  5
1C1C8
 10
4541.75
 20
948.481
 30
4.13830e-012
  70
    32
  0
VERTEX
  8
01
  5
1C1C9
 10
4541.73
 20
948.477
 30
4.13830e-012
  70
    32
  0
VERTEX
  8
01
  5
1C1CA
 10
4541.71
 20
948.474
 30
4.13830e-012
  70
    32
  0
VERTEX
  8
01
  5
1C1CB
 10
4541.69
 20
948.470
 30
4.13830e-012
  70
    32
  0
VERTEX
  8
01
  5
1C1CC
 10
4541.67
 20
948.466
 30
4.13830e-012
  70
    32
  0
VERTEX
  8
01
  5
1C1CD
 10
4541.65
 20
948.462
 30
4.13830e-012
  70
    32
  0
VERTEX
  8
01
  5
1C1CE
 10
4541.64
 20
948.458
 30
4.13830e-012
  70
    32
  0
VERTEX
  8
01
  5
1C1CF
 10
4541.62
 20
948.454
 30
4.13830e-012
  70
    32
  0
VERTEX
  8
01
  5
1C1D0
 10
4541.60
 20
948.450
 30
4.13830e-012
  70
    32
  0
VERTEX
  8
01
  5
1C1D1
 10
4541.58
 20
948.446
 30
4.13830e-012
  70
    32
  0
VERTEX
  8
01
  5
1C1D2
 10
4541.56
 20
948.442
 30
4.13830e-012
  70
    32
  0
VERTEX
  8
01
  5
1C1D3
 10
4541.55
 20
948.437
 30
4.13830e-012
  70
    32
  0
VERTEX
  8
01
  5
1C1D4
 10
4541.53
 20
948.433
 30
4.13830e-012
  70
    32
  0
VERTEX
  8
01
  5
1C1D5
 10
4541.51
 20
948.429
 30
4.13830e-012
  70
    32
  0
VERTEX
  8
01
  5
1C1D6
 10
4541.49
 20
948.424
 30
4.13830e-012
  70
    32
  0
VERTEX
  8
01
  5
1C1D7
 10
4541.48
 20
948.420
 30
4.13830e-012
  70
    32
  0
VERTEX
  8
01
  5
1C1D8
 10
4541.46
 20
948.415
 30
4.13830e-012
  70
    32
  0
VERTEX
  8
01
  5
1C1D9
 10
4541.44
 20
948.411
 30
4.13830e-012
  70
    32
  0
VERTEX
  8
01
  5
1C1DA
 10
4541.43
 20
948.406
 30
4.13830e-012
  70
    32
  0
VERTEX
  8
01
  5
1C1DB
 10
4541.41
 20
948.401
 30
4.13830e-012
  70
    32
  0
VERTEX
  8
01
  5
1C1DC
 10
4541.40
 20
948.397
 30
4.13830e-012
  70
    32
  0
VERTEX
  8
01
  5
1C1DD
 10
4541.38
 20
948.392
 30
4.13830e-012
  70
    32
  0
VERTEX
  8
01
  5
1C1DE
 10
4541.37
 20
948.387
 30
4.13830e-012
  70
    32
  0
VERTEX
  8
01
  5
1C1DF
 10
4541.35
 20
948.382
 30
4.13830e-012
  70
    32
  0
VERTEX
  8
01
  5
1C1E0
 10
4541.34
 20
948.377
 30
4.13830e-012
  70
    32
  0
VERTEX
  8
01
  5
1C1E1
 10
4541.32
 20
948.372
 30
4.13830e-012
  70
    32
  0
VERTEX
  8
01
  5
1C1E2
 10
4541.31
 20
948.367
 30
4.13830e-012
  70
    32
  0
VERTEX
  8
01
  5
1C1E3
 10
4541.29
 20
948.362
 30
4.13830e-012
  70
    32
  0
VERTEX
  8
01
  5
1C1E4
 10
4541.28
 20
948.357
 30
4.13830e-012
  70
    32
  0
VERTEX
  8
01
  5
1C1E5
 10
4541.27
 20
948.352
 30
4.13830e-012
  70
    32
  0
VERTEX
  8
01
  5
1C1E6
 10
4541.25
 20
948.347
 30
4.13830e-012
  70
    32
  0
VERTEX
  8
01
  5
1C1E7
 10
4541.24
 20
948.342
 30
4.13830e-012
  70
    32
  0
VERTEX
  8
01
  5
1C1E8
 10
4541.23
 20
948.336
 30
4.13830e-012
  70
    32
  0
VERTEX
  8
01
  5
1C1E9
 10
4541.21
 20
948.331
 30
4.13830e-012
  70
    32
  0
VERTEX
  8
01
  5
1C1EA
 10
4541.20
 20
948.326
 30
4.13830e-012
  70
    32
  0
VERTEX
  8
01
  5
1C1EB
 10
4541.19
 20
948.321
 30
4.13830e-012
  70
    32
  0
VERTEX
  8
01
  5
1C1EC
 10
4541.18
 20
948.315
 30
4.13830e-012
  70
    32
  0
VERTEX
  8
01
  5
1C1ED
 10
4541.17
 20
948.310
 30
4.13830e-012
  70
    32
  0
VERTEX
  8
01
  5
1C1EE
 10
4541.16
 20
948.304
 30
4.13830e-012
  70
    32
  0
VERTEX
  8
01
  5
1C1EF
 10
4541.14
 20
948.299
 30
4.13830e-012
  70
    32
  0
VERTEX
  8
01
  5
1C1F0
 10
4541.13
 20
948.293
 30
4.13830e-012
  70
    32
  0
VERTEX
  8
01
  5
1C1F1
 10
4541.12
 20
948.288
 30
4.13830e-012
  70
    32
  0
VERTEX
  8
01
  5
1C1F2
 10
4541.11
 20
948.282
 30
4.13830e-012
  70
    32
  0
VERTEX
  8
01
  5
1C1F3
 10
4541.10
 20
948.276
 30
4.13830e-012
  70
    32
  0
VERTEX
  8
01
  5
1C1F4
 10
4541.09
 20
948.271
 30
4.13830e-012
  70
    32
  0
VERTEX
  8
01
  5
1C1F5
 10
4541.09
 20
948.265
 30
4.13830e-012
  70
    32
  0
VERTEX
  8
01
  5
1C1F6
 10
4541.08
 20
948.259
 30
4.13830e-012
  70
    32
  0
VERTEX
  8
01
  5
1C1F7
 10
4541.07
 20
948.254
 30
4.13830e-012
  70
    32
  0
VERTEX
  8
01
  5
1C1F8
 10
4541.06
 20
948.248
 30
4.13830e-012
  70
    32
  0
VERTEX
  8
01
  5
1C1F9
 10
4541.05
 20
948.242
 30
4.13830e-012
  70
    32
  0
VERTEX
  8
01
  5
1C1FA
 10
4541.04
 20
948.236
 30
4.13830e-012
  70
    32
  0
VERTEX
  8
01
  5
1C1FB
 10
4541.04
 20
948.230
 30
4.13830e-012
  70
    32
  0
VERTEX
  8
01
  5
1C1FC
 10
4541.03
 20
948.225
 30
4.13830e-012
  70
    32
  0
VERTEX
  8
01
  5
1C1FD
 10
4541.02
 20
948.219
 30
4.13830e-012
  70
    32
  0
VERTEX
  8
01
  5
1C1FE
 10
4541.01
 20
948.213
 30
4.13830e-012
  70
    32
  0
VERTEX
  8
01
  5
1C1FF
 10
4541.01
 20
948.207
 30
4.13830e-012
  70
    32
  0
VERTEX
  8
01
  5
1C200
 10
4541.00
 20
948.201
 30
4.13830e-012
  70
    32
  0
VERTEX
  8
01
  5
1C201
 10
4541.00
 20
948.195
 30
4.13830e-012
  70
    32
  0
VERTEX
  8
01
  5
1C202
 10
4540.99
 20
948.189
 30
4.13830e-012
  70
    32
  0
VERTEX
  8
01
  5
1C203
 10
4540.99
 20
948.183
 30
4.13830e-012
  70
    32
  0
VERTEX
  8
01
  5
1C204
 10
4540.98
 20
948.177
 30
4.13830e-012
  70
    32
  0
VERTEX
  8
01
  5
1C205
 10
4540.98
 20
948.171
 30
4.13830e-012
  70
    32
  0
VERTEX
  8
01
  5
1C206
 10
4540.97
 20
948.165
 30
4.13830e-012
  70
    32
  0
VERTEX
  8
01
  5
1C207
 10
4540.97
 20
948.159
 30
4.13830e-012
  70
    32
  0
VERTEX
  8
01
  5
1C208
 10
4540.96
 20
948.153
 30
4.13830e-012
  70
    32
  0
VERTEX
  8
01
  5
1C209
 10
4540.96
 20
948.147
 30
4.13830e-012
  70
    32
  0
VERTEX
  8
01
  5
1C20A
 10
4540.96
 20
948.141
 30
4.13830e-012
  70
    32
  0
VERTEX
  8
01
  5
1C20B
 10
4540.95
 20
948.135
 30
4.13830e-012
  70
    32
  0
VERTEX
  8
01
  5
1C20C
 10
4540.95
 20
948.128
 30
4.13830e-012
  70
    32
  0
VERTEX
  8
01
  5
1C20D
 10
4540.95
 20
948.122
 30
4.13830e-012
  70
    32
  0
VERTEX
  8
01
  5
1C20E
 10
4540.95
 20
948.116
 30
4.13830e-012
  70
    32
  0
VERTEX
  8
01
  5
1C20F
 10
4540.95
 20
948.110
 30
4.13830e-012
  70
    32
  0
VERTEX
  8
01
  5
1C210
 10
4540.94
 20
948.104
 30
4.13830e-012
  70
    32
  0
VERTEX
  8
01
  5
1C211
 10
4540.94
 20
948.098
 30
4.13830e-012
  70
    32
  0
VERTEX
  8
01
  5
1C212
 10
4540.94
 20
948.092
 30
4.13830e-012
  70
    32
  0
VERTEX
  8
01
  5
1C213
 10
4540.94
 20
948.086
 30
4.13830e-012
  70
    32
  0
VERTEX
  8
01
  5
1C214
 10
4540.94
 20
948.079
 30
4.13830e-012
  70
    32
  0
SEQEND
  8
01
  5
1C215
  0
LINE
  5
1BB03
  8
01
 10
4653.9421774454268
 20
951.62930145678274
 30
0.0
 11
4519.9421774454258
 21
951.62930145678274
 31
0.0
  0
LINE
  5
1BB04
  8
01
 10
4540.9421774454258
 20
948.57941858901552
 30
0.0000000000041383
 11
4653.9421774454268
 21
948.57941858901552
 31
0.0000000000041436
  0
LINE
  5
1BB05
  8
01
 10
4538.9421774454258
 20
966.6293014567791
 30
0.0
 11
4538.9421774454258
 21
963.96688766403565
 31
0.0
  0
LINE
  5
1BB06
  8
01
 10
4540.9421774454258
 20
963.46688766403577
 30
0.0
 11
4653.9633795748741
 21
961.07005872202342
 31
0.0
  0
ARC
  5
1BB07
  8
01
 10
4653.9421774454268
 20
960.07028351243571
 30
0.0
 40
1.0
 50
0.0
 51
88.785116433218676
  0
LINE
  5
1BB08
  8
01
 10
4540.9421774454258
 20
964.21508789440566
 30
0.0
 11
4540.9421774454258
 21
963.46688766403577
 31
0.0
  0
ARC
  5
1BB09
  8
01
 10
4539.9421774454268
 20
964.21508789440566
 30
0.0
 40
1.0
 50
0.0
 51
44.999999999990777
  0
POLYLINE
  5
1BB0A
  8
01
 10
4538.9421774454258
 20
963.96688766403565
 30
0.0
 66
     1
 70
     8
  0
VERTEX
  8
01
  5
1C216
 10
4538.94
 20
963.967
 30
0.000000
  70
    32
  0
VERTEX
  8
01
  5
1C217
 10
4538.94
 20
963.961
 30
0.000000
  70
    32
  0
VERTEX
  8
01
  5
1C218
 10
4538.94
 20
963.955
 30
0.000000
  70
    32
  0
VERTEX
  8
01
  5
1C219
 10
4538.94
 20
963.948
 30
0.000000
  70
    32
  0
VERTEX
  8
01
  5
1C21A
 10
4538.94
 20
963.942
 30
0.000000
  70
    32
  0
VERTEX
  8
01
  5
1C21B
 10
4538.95
 20
963.936
 30
0.000000
  70
    32
  0
VERTEX
  8
01
  5
1C21C
 10
4538.95
 20
963.930
 30
0.000000
  70
    32
  0
VERTEX
  8
01
  5
1C21D
 10
4538.95
 20
963.924
 30
0.000000
  70
    32
  0
VERTEX
  8
01
  5
1C21E
 10
4538.95
 20
963.918
 30
0.000000
  70
    32
  0
VERTEX
  8
01
  5
1C21F
 10
4538.95
 20
963.912
 30
0.000000
  70
    32
  0
VERTEX
  8
01
  5
1C220
 10
4538.96
 20
963.906
 30
0.000000
  70
    32
  0
VERTEX
  8
01
  5
1C221
 10
4538.96
 20
963.900
 30
0.000000
  70
    32
  0
VERTEX
  8
01
  5
1C222
 10
4538.96
 20
963.894
 30
0.000000
  70
    32
  0
VERTEX
  8
01
  5
1C223
 10
4538.97
 20
963.887
 30
0.000000
  70
    32
  0
VERTEX
  8
01
  5
1C224
 10
4538.97
 20
963.881
 30
0.000000
  70
    32
  0
VERTEX
  8
01
  5
1C225
 10
4538.98
 20
963.875
 30
0.000000
  70
    32
  0
VERTEX
  8
01
  5
1C226
 10
4538.98
 20
963.869
 30
0.000000
  70
    32
  0
VERTEX
  8
01
  5
1C227
 10
4538.99
 20
963.863
 30
0.000000
  70
    32
  0
VERTEX
  8
01
  5
1C228
 10
4538.99
 20
963.857
 30
0.000000
  70
    32
  0
VERTEX
  8
01
  5
1C229
 10
4539.00
 20
963.851
 30
0.000000
  70
    32
  0
VERTEX
  8
01
  5
1C22A
 10
4539.00
 20
963.845
 30
0.000000
  70
    32
  0
VERTEX
  8
01
  5
1C22B
 10
4539.01
 20
963.839
 30
0.000000
  70
    32
  0
VERTEX
  8
01
  5
1C22C
 10
4539.01
 20
963.834
 30
0.000000
  70
    32
  0
VERTEX
  8
01
  5
1C22D
 10
4539.02
 20
963.828
 30
0.000000
  70
    32
  0
VERTEX
  8
01
  5
1C22E
 10
4539.03
 20
963.822
 30
0.000000
  70
    32
  0
VERTEX
  8
01
  5
1C22F
 10
4539.04
 20
963.816
 30
0.000000
  70
    32
  0
VERTEX
  8
01
  5
1C230
 10
4539.04
 20
963.810
 30
0.000000
  70
    32
  0
VERTEX
  8
01
  5
1C231
 10
4539.05
 20
963.804
 30
0.000000
  70
    32
  0
VERTEX
  8
01
  5
1C232
 10
4539.06
 20
963.798
 30
0.000000
  70
    32
  0
VERTEX
  8
01
  5
1C233
 10
4539.07
 20
963.793
 30
0.000000
  70
    32
  0
VERTEX
  8
01
  5
1C234
 10
4539.08
 20
963.787
 30
0.000000
  70
    32
  0
VERTEX
  8
01
  5
1C235
 10
4539.09
 20
963.781
 30
0.000000
  70
    32
  0
VERTEX
  8
01
  5
1C236
 10
4539.09
 20
963.776
 30
0.000000
  70
    32
  0
VERTEX
  8
01
  5
1C237
 10
4539.10
 20
963.770
 30
0.000000
  70
    32
  0
VERTEX
  8
01
  5
1C238
 10
4539.11
 20
963.764
 30
0.000000
  70
    32
  0
VERTEX
  8
01
  5
1C239
 10
4539.12
 20
963.759
 30
0.000000
  70
    32
  0
VERTEX
  8
01
  5
1C23A
 10
4539.13
 20
963.753
 30
0.000000
  70
    32
  0
VERTEX
  8
01
  5
1C23B
 10
4539.14
 20
963.748
 30
0.000000
  70
    32
  0
VERTEX
  8
01
  5
1C23C
 10
4539.16
 20
963.742
 30
0.000000
  70
    32
  0
VERTEX
  8
01
  5
1C23D
 10
4539.17
 20
963.737
 30
0.000000
  70
    32
  0
VERTEX
  8
01
  5
1C23E
 10
4539.18
 20
963.731
 30
0.000000
  70
    32
  0
VERTEX
  8
01
  5
1C23F
 10
4539.19
 20
963.726
 30
0.000000
  70
    32
  0
VERTEX
  8
01
  5
1C240
 10
4539.20
 20
963.720
 30
0.000000
  70
    32
  0
VERTEX
  8
01
  5
1C241
 10
4539.21
 20
963.715
 30
0.000000
  70
    32
  0
VERTEX
  8
01
  5
1C242
 10
4539.23
 20
963.710
 30
0.000000
  70
    32
  0
VERTEX
  8
01
  5
1C243
 10
4539.24
 20
963.705
 30
0.000000
  70
    32
  0
VERTEX
  8
01
  5
1C244
 10
4539.25
 20
963.699
 30
0.000000
  70
    32
  0
VERTEX
  8
01
  5
1C245
 10
4539.27
 20
963.694
 30
0.000000
  70
    32
  0
VERTEX
  8
01
  5
1C246
 10
4539.28
 20
963.689
 30
0.000000
  70
    32
  0
VERTEX
  8
01
  5
1C247
 10
4539.29
 20
963.684
 30
0.000000
  70
    32
  0
VERTEX
  8
01
  5
1C248
 10
4539.31
 20
963.679
 30
0.000000
  70
    32
  0
VERTEX
  8
01
  5
1C249
 10
4539.32
 20
963.674
 30
0.000000
  70
    32
  0
VERTEX
  8
01
  5
1C24A
 10
4539.34
 20
963.669
 30
0.000000
  70
    32
  0
VERTEX
  8
01
  5
1C24B
 10
4539.35
 20
963.664
 30
0.000000
  70
    32
  0
VERTEX
  8
01
  5
1C24C
 10
4539.37
 20
963.659
 30
0.000000
  70
    32
  0
VERTEX
  8
01
  5
1C24D
 10
4539.38
 20
963.654
 30
0.000000
  70
    32
  0
VERTEX
  8
01
  5
1C24E
 10
4539.40
 20
963.650
 30
0.000000
  70
    32
  0
VERTEX
  8
01
  5
1C24F
 10
4539.41
 20
963.645
 30
0.000000
  70
    32
  0
VERTEX
  8
01
  5
1C250
 10
4539.43
 20
963.640
 30
0.000000
  70
    32
  0
VERTEX
  8
01
  5
1C251
 10
4539.44
 20
963.636
 30
0.000000
  70
    32
  0
VERTEX
  8
01
  5
1C252
 10
4539.46
 20
963.631
 30
0.000000
  70
    32
  0
VERTEX
  8
01
  5
1C253
 10
4539.48
 20
963.627
 30
0.000000
  70
    32
  0
VERTEX
  8
01
  5
1C254
 10
4539.49
 20
963.622
 30
0.000000
  70
    32
  0
VERTEX
  8
01
  5
1C255
 10
4539.51
 20
963.618
 30
0.000000
  70
    32
  0
VERTEX
  8
01
  5
1C256
 10
4539.53
 20
963.613
 30
0.000000
  70
    32
  0
VERTEX
  8
01
  5
1C257
 10
4539.55
 20
963.609
 30
0.000000
  70
    32
  0
VERTEX
  8
01
  5
1C258
 10
4539.56
 20
963.605
 30
0.000000
  70
    32
  0
VERTEX
  8
01
  5
1C259
 10
4539.58
 20
963.601
 30
0.000000
  70
    32
  0
VERTEX
  8
01
  5
1C25A
 10
4539.60
 20
963.596
 30
0.000000
  70
    32
  0
VERTEX
  8
01
  5
1C25B
 10
4539.62
 20
963.592
 30
0.000000
  70
    32
  0
VERTEX
  8
01
  5
1C25C
 10
4539.64
 20
963.588
 30
0.000000
  70
    32
  0
VERTEX
  8
01
  5
1C25D
 10
4539.65
 20
963.584
 30
0.000000
  70
    32
  0
VERTEX
  8
01
  5
1C25E
 10
4539.67
 20
963.580
 30
0.000000
  70
    32
  0
VERTEX
  8
01
  5
1C25F
 10
4539.69
 20
963.577
 30
0.000000
  70
    32
  0
VERTEX
  8
01
  5
1C260
 10
4539.71
 20
963.573
 30
0.000000
  70
    32
  0
VERTEX
  8
01
  5
1C261
 10
4539.73
 20
963.569
 30
0.000000
  70
    32
  0
VERTEX
  8
01
  5
1C262
 10
4539.75
 20
963.565
 30
0.000000
  70
    32
  0
VERTEX
  8
01
  5
1C263
 10
4539.77
 20
963.562
 30
0.000000
  70
    32
  0
VERTEX
  8
01
  5
1C264
 10
4539.79
 20
963.558
 30
0.000000
  70
    32
  0
VERTEX
  8
01
  5
1C265
 10
4539.81
 20
963.555
 30
0.000000
  70
    32
  0
VERTEX
  8
01
  5
1C266
 10
4539.83
 20
963.551
 30
0.000000
  70
    32
  0
VERTEX
  8
01
  5
1C267
 10
4539.85
 20
963.548
 30
0.000000
  70
    32
  0
VERTEX
  8
01
  5
1C268
 10
4539.87
 20
963.544
 30
0.000000
  70
    32
  0
VERTEX
  8
01
  5
1C269
 10
4539.89
 20
963.541
 30
0.000000
  70
    32
  0
VERTEX
  8
01
  5
1C26A
 10
4539.91
 20
963.538
 30
0.000000
  70
    32
  0
VERTEX
  8
01
  5
1C26B
 10
4539.94
 20
963.535
 30
0.000000
  70
    32
  0
VERTEX
  8
01
  5
1C26C
 10
4539.96
 20
963.532
 30
0.000000
  70
    32
  0
VERTEX
  8
01
  5
1C26D
 10
4539.98
 20
963.529
 30
0.000000
  70
    32
  0
VERTEX
  8
01
  5
1C26E
 10
4540.00
 20
963.526
 30
0.000000
  70
    32
  0
VERTEX
  8
01
  5
1C26F
 10
4540.02
 20
963.523
 30
0.000000
  70
    32
  0
VERTEX
  8
01
  5
1C270
 10
4540.04
 20
963.520
 30
0.000000
  70
    32
  0
VERTEX
  8
01
  5
1C271
 10
4540.06
 20
963.518
 30
0.000000
  70
    32
  0
VERTEX
  8
01
  5
1C272
 10
4540.09
 20
963.515
 30
0.000000
  70
    32
  0
VERTEX
  8
01
  5
1C273
 10
4540.11
 20
963.512
 30
0.000000
  70
    32
  0
VERTEX
  8
01
  5
1C274
 10
4540.13
 20
963.510
 30
0.000000
  70
    32
  0
VERTEX
  8
01
  5
1C275
 10
4540.15
 20
963.507
 30
0.000000
  70
    32
  0
VERTEX
  8
01
  5
1C276
 10
4540.18
 20
963.505
 30
0.000000
  70
    32
  0
VERTEX
  8
01
  5
1C277
 10
4540.20
 20
963.503
 30
0.000000
  70
    32
  0
VERTEX
  8
01
  5
1C278
 10
4540.22
 20
963.500
 30
0.000000
  70
    32
  0
VERTEX
  8
01
  5
1C279
 10
4540.25
 20
963.498
 30
0.000000
  70
    32
  0
VERTEX
  8
01
  5
1C27A
 10
4540.27
 20
963.496
 30
0.000000
  70
    32
  0
VERTEX
  8
01
  5
1C27B
 10
4540.29
 20
963.494
 30
0.000000
  70
    32
  0
VERTEX
  8
01
  5
1C27C
 10
4540.31
 20
963.492
 30
0.000000
  70
    32
  0
VERTEX
  8
01
  5
1C27D
 10
4540.34
 20
963.490
 30
0.000000
  70
    32
  0
VERTEX
  8
01
  5
1C27E
 10
4540.36
 20
963.488
 30
0.000000
  70
    32
  0
VERTEX
  8
01
  5
1C27F
 10
4540.39
 20
963.487
 30
0.000000
  70
    32
  0
VERTEX
  8
01
  5
1C280
 10
4540.41
 20
963.485
 30
0.000000
  70
    32
  0
VERTEX
  8
01
  5
1C281
 10
4540.43
 20
963.483
 30
0.000000
  70
    32
  0
VERTEX
  8
01
  5
1C282
 10
4540.46
 20
963.482
 30
0.000000
  70
    32
  0
VERTEX
  8
01
  5
1C283
 10
4540.48
 20
963.480
 30
0.000000
  70
    32
  0
VERTEX
  8
01
  5
1C284
 10
4540.50
 20
963.479
 30
0.000000
  70
    32
  0
VERTEX
  8
01
  5
1C285
 10
4540.53
 20
963.478
 30
0.000000
  70
    32
  0
VERTEX
  8
01
  5
1C286
 10
4540.55
 20
963.476
 30
0.000000
  70
    32
  0
VERTEX
  8
01
  5
1C287
 10
4540.58
 20
963.475
 30
0.000000
  70
    32
  0
VERTEX
  8
01
  5
1C288
 10
4540.60
 20
963.474
 30
0.000000
  70
    32
  0
VERTEX
  8
01
  5
1C289
 10
4540.62
 20
963.473
 30
0.000000
  70
    32
  0
VERTEX
  8
01
  5
1C28A
 10
4540.65
 20
963.472
 30
0.000000
  70
    32
  0
VERTEX
  8
01
  5
1C28B
 10
4540.67
 20
963.471
 30
0.000000
  70
    32
  0
VERTEX
  8
01
  5
1C28C
 10
4540.70
 20
963.471
 30
0.000000
  70
    32
  0
VERTEX
  8
01
  5
1C28D
 10
4540.72
 20
963.470
 30
0.000000
  70
    32
  0
VERTEX
  8
01
  5
1C28E
 10
4540.75
 20
963.469
 30
0.000000
  70
    32
  0
VERTEX
  8
01
  5
1C28F
 10
4540.77
 20
963.469
 30
0.000000
  70
    32
  0
VERTEX
  8
01
  5
1C290
 10
4540.80
 20
963.468
 30
0.000000
  70
    32
  0
VERTEX
  8
01
  5
1C291
 10
4540.82
 20
963.468
 30
0.000000
  70
    32
  0
VERTEX
  8
01
  5
1C292
 10
4540.84
 20
963.467
 30
0.000000
  70
    32
  0
VERTEX
  8
01
  5
1C293
 10
4540.87
 20
963.467
 30
0.000000
  70
    32
  0
VERTEX
  8
01
  5
1C294
 10
4540.89
 20
963.467
 30
0.000000
  70
    32
  0
VERTEX
  8
01
  5
1C295
 10
4540.92
 20
963.467
 30
0.000000
  70
    32
  0
VERTEX
  8
01
  5
1C296
 10
4540.94
 20
963.467
 30
0.000000
  70
    32
  0
SEQEND
  8
01
  5
1C297
  0
POLYLINE
  5
1BB0B
  8
01
 10
4526.6921774454258
 20
945.39930145681012
 30
0.0
 66
     1
 70
     8
  0
VERTEX
  8
01
  5
1C298
 10
4526.69
 20
945.399
 30
0.000000
  70
    32
  0
VERTEX
  8
01
  5
1C299
 10
4526.70
 20
945.377
 30
0.000000
  70
    32
  0
VERTEX
  8
01
  5
1C29A
 10
4526.71
 20
945.355
 30
0.000000
  70
    32
  0
VERTEX
  8
01
  5
1C29B
 10
4526.73
 20
945.333
 30
0.000000
  70
    32
  0
VERTEX
  8
01
  5
1C29C
 10
4526.75
 20
945.312
 30
0.000000
  70
    32
  0
VERTEX
  8
01
  5
1C29D
 10
4526.79
 20
945.290
 30
0.000000
  70
    32
  0
VERTEX
  8
01
  5
1C29E
 10
4526.83
 20
945.269
 30
0.000000
  70
    32
  0
VERTEX
  8
01
  5
1C29F
 10
4526.88
 20
945.248
 30
0.000000
  70
    32
  0
VERTEX
  8
01
  5
1C2A0
 10
4526.94
 20
945.227
 30
0.000000
  70
    32
  0
VERTEX
  8
01
  5
1C2A1
 10
4527.00
 20
945.207
 30
0.000000
  70
    32
  0
VERTEX
  8
01
  5
1C2A2
 10
4527.08
 20
945.187
 30
0.000000
  70
    32
  0
VERTEX
  8
01
  5
1C2A3
 10
4527.15
 20
945.168
 30
0.000000
  70
    32
  0
VERTEX
  8
01
  5
1C2A4
 10
4527.24
 20
945.149
 30
0.000000
  70
    32
  0
VERTEX
  8
01
  5
1C2A5
 10
4527.33
 20
945.131
 30
0.000000
  70
    32
  0
VERTEX
  8
01
  5
1C2A6
 10
4527.43
 20
945.114
 30
0.000000
  70
    32
  0
VERTEX
  8
01
  5
1C2A7
 10
4527.53
 20
945.097
 30
0.000000
  70
    32
  0
VERTEX
  8
01
  5
1C2A8
 10
4527.64
 20
945.081
 30
0.000000
  70
    32
  0
VERTEX
  8
01
  5
1C2A9
 10
4527.76
 20
945.066
 30
0.000000
  70
    32
  0
VERTEX
  8
01
  5
1C2AA
 10
4527.88
 20
945.051
 30
0.000000
  70
    32
  0
VERTEX
  8
01
  5
1C2AB
 10
4528.01
 20
945.038
 30
0.000000
  70
    32
  0
VERTEX
  8
01
  5
1C2AC
 10
4528.14
 20
945.025
 30
0.000000
  70
    32
  0
VERTEX
  8
01
  5
1C2AD
 10
4528.27
 20
945.013
 30
0.000000
  70
    32
  0
VERTEX
  8
01
  5
1C2AE
 10
4528.41
 20
945.002
 30
0.000000
  70
    32
  0
VERTEX
  8
01
  5
1C2AF
 10
4528.55
 20
944.993
 30
0.000000
  70
    32
  0
VERTEX
  8
01
  5
1C2B0
 10
4528.70
 20
944.984
 30
0.000000
  70
    32
  0
VERTEX
  8
01
  5
1C2B1
 10
4528.85
 20
944.976
 30
0.000000
  70
    32
  0
VERTEX
  8
01
  5
1C2B2
 10
4529.00
 20
944.969
 30
0.000000
  70
    32
  0
VERTEX
  8
01
  5
1C2B3
 10
4529.15
 20
944.963
 30
0.000000
  70
    32
  0
VERTEX
  8
01
  5
1C2B4
 10
4529.31
 20
944.958
 30
0.000000
  70
    32
  0
VERTEX
  8
01
  5
1C2B5
 10
4529.47
 20
944.954
 30
0.000000
  70
    32
  0
VERTEX
  8
01
  5
1C2B6
 10
4529.62
 20
944.951
 30
0.000000
  70
    32
  0
VERTEX
  8
01
  5
1C2B7
 10
4529.78
 20
944.950
 30
0.000000
  70
    32
  0
VERTEX
  8
01
  5
1C2B8
 10
4529.94
 20
944.949
 30
0.000000
  70
    32
  0
VERTEX
  8
01
  5
1C2B9
 10
4530.10
 20
944.950
 30
0.000000
  70
    32
  0
VERTEX
  8
01
  5
1C2BA
 10
4530.26
 20
944.951
 30
0.000000
  70
    32
  0
VERTEX
  8
01
  5
1C2BB
 10
4530.42
 20
944.954
 30
0.000000
  70
    32
  0
VERTEX
  8
01
  5
1C2BC
 10
4530.58
 20
944.958
 30
0.000000
  70
    32
  0
VERTEX
  8
01
  5
1C2BD
 10
4530.73
 20
944.963
 30
0.000000
  70
    32
  0
VERTEX
  8
01
  5
1C2BE
 10
4530.89
 20
944.969
 30
0.000000
  70
    32
  0
VERTEX
  8
01
  5
1C2BF
 10
4531.04
 20
944.976
 30
0.000000
  70
    32
  0
VERTEX
  8
01
  5
1C2C0
 10
4531.19
 20
944.984
 30
0.000000
  70
    32
  0
VERTEX
  8
01
  5
1C2C1
 10
4531.33
 20
944.993
 30
0.000000
  70
    32
  0
VERTEX
  8
01
  5
1C2C2
 10
4531.47
 20
945.002
 30
0.000000
  70
    32
  0
VERTEX
  8
01
  5
1C2C3
 10
4531.61
 20
945.013
 30
0.000000
  70
    32
  0
VERTEX
  8
01
  5
1C2C4
 10
4531.75
 20
945.025
 30
0.000000
  70
    32
  0
VERTEX
  8
01
  5
1C2C5
 10
4531.88
 20
945.038
 30
0.000000
  70
    32
  0
VERTEX
  8
01
  5
1C2C6
 10
4532.00
 20
945.051
 30
0.000000
  70
    32
  0
VERTEX
  8
01
  5
1C2C7
 10
4532.12
 20
945.066
 30
0.000000
  70
    32
  0
VERTEX
  8
01
  5
1C2C8
 10
4532.24
 20
945.081
 30
0.000000
  70
    32
  0
VERTEX
  8
01
  5
1C2C9
 10
4532.35
 20
945.097
 30
0.000000
  70
    32
  0
VERTEX
  8
01
  5
1C2CA
 10
4532.45
 20
945.114
 30
0.000000
  70
    32
  0
VERTEX
  8
01
  5
1C2CB
 10
4532.55
 20
945.131
 30
0.000000
  70
    32
  0
VERTEX
  8
01
  5
1C2CC
 10
4532.64
 20
945.149
 30
0.000000
  70
    32
  0
VERTEX
  8
01
  5
1C2CD
 10
4532.73
 20
945.168
 30
0.000000
  70
    32
  0
VERTEX
  8
01
  5
1C2CE
 10
4532.81
 20
945.187
 30
0.000000
  70
    32
  0
VERTEX
  8
01
  5
1C2CF
 10
4532.88
 20
945.207
 30
0.000000
  70
    32
  0
VERTEX
  8
01
  5
1C2D0
 10
4532.94
 20
945.227
 30
0.000000
  70
    32
  0
VERTEX
  8
01
  5
1C2D1
 10
4533.00
 20
945.248
 30
0.000000
  70
    32
  0
VERTEX
  8
01
  5
1C2D2
 10
4533.05
 20
945.269
 30
0.000000
  70
    32
  0
VERTEX
  8
01
  5
1C2D3
 10
4533.09
 20
945.290
 30
0.000000
  70
    32
  0
VERTEX
  8
01
  5
1C2D4
 10
4533.13
 20
945.312
 30
0.000000
  70
    32
  0
VERTEX
  8
01
  5
1C2D5
 10
4533.16
 20
945.333
 30
0.000000
  70
    32
  0
VERTEX
  8
01
  5
1C2D6
 10
4533.18
 20
945.355
 30
0.000000
  70
    32
  0
VERTEX
  8
01
  5
1C2D7
 10
4533.19
 20
945.377
 30
0.000000
  70
    32
  0
VERTEX
  8
01
  5
1C2D8
 10
4533.19
 20
945.399
 30
0.000000
  70
    32
  0
VERTEX
  8
01
  5
1C2D9
 10
4533.19
 20
945.421
 30
0.000000
  70
    32
  0
VERTEX
  8
01
  5
1C2DA
 10
4533.18
 20
945.443
 30
0.000000
  70
    32
  0
VERTEX
  8
01
  5
1C2DB
 10
4533.16
 20
945.465
 30
0.000000
  70
    32
  0
VERTEX
  8
01
  5
1C2DC
 10
4533.13
 20
945.487
 30
0.000000
  70
    32
  0
VERTEX
  8
01
  5
1C2DD
 10
4533.09
 20
945.509
 30
0.000000
  70
    32
  0
VERTEX
  8
01
  5
1C2DE
 10
4533.05
 20
945.530
 30
0.000000
  70
    32
  0
VERTEX
  8
01
  5
1C2DF
 10
4533.00
 20
945.551
 30
0.000000
  70
    32
  0
VERTEX
  8
01
  5
1C2E0
 10
4532.94
 20
945.572
 30
0.000000
  70
    32
  0
VERTEX
  8
01
  5
1C2E1
 10
4532.88
 20
945.592
 30
0.000000
  70
    32
  0
VERTEX
  8
01
  5
1C2E2
 10
4532.81
 20
945.611
 30
0.000000
  70
    32
  0
VERTEX
  8
01
  5
1C2E3
 10
4532.73
 20
945.631
 30
0.000000
  70
    32
  0
VERTEX
  8
01
  5
1C2E4
 10
4532.64
 20
945.649
 30
0.000000
  70
    32
  0
VERTEX
  8
01
  5
1C2E5
 10
4532.55
 20
945.667
 30
0.000000
  70
    32
  0
VERTEX
  8
01
  5
1C2E6
 10
4532.45
 20
945.685
 30
0.000000
  70
    32
  0
VERTEX
  8
01
  5
1C2E7
 10
4532.35
 20
945.702
 30
0.000000
  70
    32
  0
VERTEX
  8
01
  5
1C2E8
 10
4532.24
 20
945.717
 30
0.000000
  70
    32
  0
VERTEX
  8
01
  5
1C2E9
 10
4532.12
 20
945.733
 30
0.000000
  70
    32
  0
VERTEX
  8
01
  5
1C2EA
 10
4532.00
 20
945.747
 30
0.000000
  70
    32
  0
VERTEX
  8
01
  5
1C2EB
 10
4531.88
 20
945.761
 30
0.000000
  70
    32
  0
VERTEX
  8
01
  5
1C2EC
 10
4531.75
 20
945.773
 30
0.000000
  70
    32
  0
VERTEX
  8
01
  5
1C2ED
 10
4531.61
 20
945.785
 30
0.000000
  70
    32
  0
VERTEX
  8
01
  5
1C2EE
 10
4531.47
 20
945.796
 30
0.000000
  70
    32
  0
VERTEX
  8
01
  5
1C2EF
 10
4531.33
 20
945.806
 30
0.000000
  70
    32
  0
VERTEX
  8
01
  5
1C2F0
 10
4531.19
 20
945.815
 30
0.000000
  70
    32
  0
VERTEX
  8
01
  5
1C2F1
 10
4531.04
 20
945.823
 30
0.000000
  70
    32
  0
VERTEX
  8
01
  5
1C2F2
 10
4530.89
 20
945.830
 30
0.000000
  70
    32
  0
VERTEX
  8
01
  5
1C2F3
 10
4530.73
 20
945.836
 30
0.000000
  70
    32
  0
VERTEX
  8
01
  5
1C2F4
 10
4530.58
 20
945.841
 30
0.000000
  70
    32
  0
VERTEX
  8
01
  5
1C2F5
 10
4530.42
 20
945.844
 30
0.000000
  70
    32
  0
VERTEX
  8
01
  5
1C2F6
 10
4530.26
 20
945.847
 30
0.000000
  70
    32
  0
VERTEX
  8
01
  5
1C2F7
 10
4530.10
 20
945.849
 30
0.000000
  70
    32
  0
VERTEX
  8
01
  5
1C2F8
 10
4529.94
 20
945.849
 30
0.000000
  70
    32
  0
VERTEX
  8
01
  5
1C2F9
 10
4529.78
 20
945.849
 30
0.000000
  70
    32
  0
VERTEX
  8
01
  5
1C2FA
 10
4529.62
 20
945.847
 30
0.000000
  70
    32
  0
VERTEX
  8
01
  5
1C2FB
 10
4529.47
 20
945.844
 30
0.000000
  70
    32
  0
VERTEX
  8
01
  5
1C2FC
 10
4529.31
 20
945.841
 30
0.000000
  70
    32
  0
VERTEX
  8
01
  5
1C2FD
 10
4529.15
 20
945.836
 30
0.000000
  70
    32
  0
VERTEX
  8
01
  5
1C2FE
 10
4529.00
 20
945.830
 30
0.000000
  70
    32
  0
VERTEX
  8
01
  5
1C2FF
 10
4528.85
 20
945.823
 30
0.000000
  70
    32
  0
VERTEX
  8
01
  5
1C300
 10
4528.70
 20
945.815
 30
0.000000
  70
    32
  0
VERTEX
  8
01
  5
1C301
 10
4528.55
 20
945.806
 30
0.000000
  70
    32
  0
VERTEX
  8
01
  5
1C302
 10
4528.41
 20
945.796
 30
0.000000
  70
    32
  0
VERTEX
  8
01
  5
1C303
 10
4528.27
 20
945.785
 30
0.000000
  70
    32
  0
VERTEX
  8
01
  5
1C304
 10
4528.14
 20
945.773
 30
0.000000
  70
    32
  0
VERTEX
  8
01
  5
1C305
 10
4528.01
 20
945.761
 30
0.000000
  70
    32
  0
VERTEX
  8
01
  5
1C306
 10
4527.88
 20
945.747
 30
0.000000
  70
    32
  0
VERTEX
  8
01
  5
1C307
 10
4527.76
 20
945.733
 30
0.000000
  70
    32
  0
VERTEX
  8
01
  5
1C308
 10
4527.64
 20
945.717
 30
0.000000
  70
    32
  0
VERTEX
  8
01
  5
1C309
 10
4527.53
 20
945.702
 30
0.000000
  70
    32
  0
VERTEX
  8
01
  5
1C30A
 10
4527.43
 20
945.685
 30
0.000000
  70
    32
  0
VERTEX
  8
01
  5
1C30B
 10
4527.33
 20
945.667
 30
0.000000
  70
    32
  0
VERTEX
  8
01
  5
1C30C
 10
4527.24
 20
945.649
 30
0.000000
  70
    32
  0
VERTEX
  8
01
  5
1C30D
 10
4527.15
 20
945.631
 30
0.000000
  70
    32
  0
VERTEX
  8
01
  5
1C30E
 10
4527.08
 20
945.611
 30
0.000000
  70
    32
  0
VERTEX
  8
01
  5
1C30F
 10
4527.00
 20
945.592
 30
0.000000
  70
    32
  0
VERTEX
  8
01
  5
1C310
 10
4526.94
 20
945.572
 30
0.000000
  70
    32
  0
VERTEX
  8
01
  5
1C311
 10
4526.88
 20
945.551
 30
0.000000
  70
    32
  0
VERTEX
  8
01
  5
1C312
 10
4526.83
 20
945.530
 30
0.000000
  70
    32
  0
VERTEX
  8
01
  5
1C313
 10
4526.79
 20
945.509
 30
0.000000
  70
    32
  0
VERTEX
  8
01
  5
1C314
 10
4526.75
 20
945.487
 30
0.000000
  70
    32
  0
VERTEX
  8
01
  5
1C315
 10
4526.73
 20
945.465
 30
0.000000
  70
    32
  0
VERTEX
  8
01
  5
1C316
 10
4526.71
 20
945.443
 30
0.000000
  70
    32
  0
VERTEX
  8
01
  5
1C317
 10
4526.70
 20
945.421
 30
0.000000
  70
    32
  0
VERTEX
  8
01
  5
1C318
 10
4526.69
 20
945.399
 30
0.000000
  70
    32
  0
SEQEND
  8
01
  5
1C319
  0
LINE
  5
1BB0D
  8
01
 10
4183.9421854454267
 20
966.6293014567791
 30
0.0
 11
4202.9421854454276
 21
966.6293014567791
 31
0.0
  0
LINE
  5
1BB0E
  8
01
 10
4068.9421854454272
 20
951.62930145677888
 30
0.0
 11
4202.9421854454276
 21
951.62930145677888
 31
0.0
  0
ARC
  5
1BB0F
  8
01
 10
4202.9421854454276
 20
952.62930145677888
 30
0.0
 40
1.0
 50
270.0
 51
0.000000000000007
  0
LINE
  5
1BB10
  8
01
 10
4068.9421854454272
 20
960.6293014567791
 30
0.0
 11
4202.9421854454276
 21
960.6293014567791
 31
0.0
  0
LINE
  5
1BB11
  8
01
 10
4183.9421854454267
 20
944.62930145677888
 30
0.0
 11
4202.9421854454276
 21
944.62930145677888
 31
0.0
  0
ARC
  5
1BB12
  8
01
 10
4183.9421854454267
 20
946.62930145677899
 30
0.0
 40
2.0
 50
180.0
 51
270.0
  0
LINE
  5
1BB13
  8
01
 10
4203.9421854454267
 20
965.62930145677922
 30
0.0
 11
4203.9421854454267
 21
945.62930145677888
 31
0.0
  0
ARC
  5
1BB14
  8
01
 10
4202.9421854454276
 20
959.6293014567791
 30
0.0
 40
1.0
 50
0.000000000000007
 51
90.0
  0
ARC
  5
1BB15
  8
01
 10
4202.9421854454276
 20
965.62930145677922
 30
0.0
 40
1.0
 50
0.000000000000007
 51
90.0
  0
ARC
  5
1BB16
  8
01
 10
4202.9421854454276
 20
945.62930145677888
 30
0.0
 40
1.0
 50
270.0
 51
0.000000000000007
  0
LINE
  5
1BB17
  8
01
 10
4181.9421854454276
 20
964.21508789440566
 30
0.0
 11
4181.9421854454276
 21
963.46688766403577
 31
0.0
  0
LINE
  5
1BB18
  8
01
 10
4183.9421854454267
 20
966.6293014567791
 30
0.0
 11
4182.2350786642401
 21
964.92219467559244
 31
0.0
  0
LINE
  5
1BB19
  8
01
 10
4067.9421854454272
 20
949.5794185890154
 30
0.0
 11
4067.9421854454272
 21
960.07028351243571
 31
0.0
  0
ARC
  5
1BB1A
  8
01
 10
4068.9421854454272
 20
952.62930145677888
 30
0.0
 40
1.0
 50
180.0
 51
270.0
  0
ARC
  5
1BB1B
  8
01
 10
4068.9421854454272
 20
949.5794185890154
 30
0.0000000000112557
 40
1.0
 50
180.0
 51
270.0
  0
ARC
  5
1BB1C
  8
01
 10
4068.9421854454272
 20
959.6293014567791
 30
0.0
 40
1.0
 50
90.0
 51
180.0
  0
LINE
  5
1BB1D
  8
01
 10
4181.9421854454276
 20
948.07023914621482
 30
0.0
 11
4181.9421854454276
 21
946.62930145677899
 31
0.0
  0
LINE
  5
1BB1E
  8
01
 10
4183.9421854454267
 20
948.07023914621482
 30
0.0
 11
4183.9421854454267
 21
944.62930145677888
 31
0.0
  0
POLYLINE
  5
1BB1F
  8
01
 10
4181.9421854454276
 20
948.57941858901563
 30
0.0000000000082766
 66
     1
 70
     8
  0
VERTEX
  8
01
  5
1C31A
 10
4181.94
 20
948.579
 30
8.27660e-012
  70
    32
  0
VERTEX
  8
01
  5
1C31B
 10
4181.97
 20
948.579
 30
8.27660e-012
  70
    32
  0
VERTEX
  8
01
  5
1C31C
 10
4181.99
 20
948.579
 30
8.27660e-012
  70
    32
  0
VERTEX
  8
01
  5
1C31D
 10
4182.02
 20
948.579
 30
8.27660e-012
  70
    32
  0
VERTEX
  8
01
  5
1C31E
 10
4182.04
 20
948.579
 30
8.27660e-012
  70
    32
  0
VERTEX
  8
01
  5
1C31F
 10
4182.06
 20
948.578
 30
8.27660e-012
  70
    32
  0
VERTEX
  8
01
  5
1C320
 10
4182.09
 20
948.578
 30
8.27660e-012
  70
    32
  0
VERTEX
  8
01
  5
1C321
 10
4182.11
 20
948.578
 30
8.27660e-012
  70
    32
  0
VERTEX
  8
01
  5
1C322
 10
4182.14
 20
948.577
 30
8.27660e-012
  70
    32
  0
VERTEX
  8
01
  5
1C323
 10
4182.16
 20
948.576
 30
8.27660e-012
  70
    32
  0
VERTEX
  8
01
  5
1C324
 10
4182.19
 20
948.576
 30
8.27660e-012
  70
    32
  0
VERTEX
  8
01
  5
1C325
 10
4182.21
 20
948.575
 30
8.27660e-012
  70
    32
  0
VERTEX
  8
01
  5
1C326
 10
4182.24
 20
948.574
 30
8.27660e-012
  70
    32
  0
VERTEX
  8
01
  5
1C327
 10
4182.26
 20
948.573
 30
8.27660e-012
  70
    32
  0
VERTEX
  8
01
  5
1C328
 10
4182.28
 20
948.572
 30
8.27660e-012
  70
    32
  0
VERTEX
  8
01
  5
1C329
 10
4182.31
 20
948.571
 30
8.27660e-012
  70
    32
  0
VERTEX
  8
01
  5
1C32A
 10
4182.33
 20
948.570
 30
8.27660e-012
  70
    32
  0
VERTEX
  8
01
  5
1C32B
 10
4182.36
 20
948.569
 30
8.27660e-012
  70
    32
  0
VERTEX
  8
01
  5
1C32C
 10
4182.38
 20
948.567
 30
8.27660e-012
  70
    32
  0
VERTEX
  8
01
  5
1C32D
 10
4182.40
 20
948.566
 30
8.27660e-012
  70
    32
  0
VERTEX
  8
01
  5
1C32E
 10
4182.43
 20
948.564
 30
8.27660e-012
  70
    32
  0
VERTEX
  8
01
  5
1C32F
 10
4182.45
 20
948.563
 30
8.27660e-012
  70
    32
  0
VERTEX
  8
01
  5
1C330
 10
4182.48
 20
948.561
 30
8.27660e-012
  70
    32
  0
VERTEX
  8
01
  5
1C331
 10
4182.50
 20
948.560
 30
8.27660e-012
  70
    32
  0
VERTEX
  8
01
  5
1C332
 10
4182.52
 20
948.558
 30
8.27660e-012
  70
    32
  0
VERTEX
  8
01
  5
1C333
 10
4182.55
 20
948.556
 30
8.27660e-012
  70
    32
  0
VERTEX
  8
01
  5
1C334
 10
4182.57
 20
948.554
 30
8.27660e-012
  70
    32
  0
VERTEX
  8
01
  5
1C335
 10
4182.59
 20
948.552
 30
8.27660e-012
  70
    32
  0
VERTEX
  8
01
  5
1C336
 10
4182.62
 20
948.550
 30
8.27660e-012
  70
    32
  0
VERTEX
  8
01
  5
1C337
 10
4182.64
 20
948.548
 30
8.27660e-012
  70
    32
  0
VERTEX
  8
01
  5
1C338
 10
4182.66
 20
948.546
 30
8.27660e-012
  70
    32
  0
VERTEX
  8
01
  5
1C339
 10
4182.68
 20
948.544
 30
8.27660e-012
  70
    32
  0
VERTEX
  8
01
  5
1C33A
 10
4182.71
 20
948.541
 30
8.27660e-012
  70
    32
  0
VERTEX
  8
01
  5
1C33B
 10
4182.73
 20
948.539
 30
8.27660e-012
  70
    32
  0
VERTEX
  8
01
  5
1C33C
 10
4182.75
 20
948.537
 30
8.27660e-012
  70
    32
  0
VERTEX
  8
01
  5
1C33D
 10
4182.78
 20
948.534
 30
8.27660e-012
  70
    32
  0
VERTEX
  8
01
  5
1C33E
 10
4182.80
 20
948.531
 30
8.27660e-012
  70
    32
  0
VERTEX
  8
01
  5
1C33F
 10
4182.82
 20
948.529
 30
8.27660e-012
  70
    32
  0
VERTEX
  8
01
  5
1C340
 10
4182.84
 20
948.526
 30
8.27660e-012
  70
    32
  0
VERTEX
  8
01
  5
1C341
 10
4182.86
 20
948.523
 30
8.27660e-012
  70
    32
  0
VERTEX
  8
01
  5
1C342
 10
4182.88
 20
948.520
 30
8.27660e-012
  70
    32
  0
VERTEX
  8
01
  5
1C343
 10
4182.91
 20
948.517
 30
8.27660e-012
  70
    32
  0
VERTEX
  8
01
  5
1C344
 10
4182.93
 20
948.514
 30
8.27660e-012
  70
    32
  0
VERTEX
  8
01
  5
1C345
 10
4182.95
 20
948.511
 30
8.27660e-012
  70
    32
  0
VERTEX
  8
01
  5
1C346
 10
4182.97
 20
948.508
 30
8.27660e-012
  70
    32
  0
VERTEX
  8
01
  5
1C347
 10
4182.99
 20
948.505
 30
8.27660e-012
  70
    32
  0
VERTEX
  8
01
  5
1C348
 10
4183.01
 20
948.502
 30
8.27660e-012
  70
    32
  0
VERTEX
  8
01
  5
1C349
 10
4183.03
 20
948.499
 30
8.27660e-012
  70
    32
  0
VERTEX
  8
01
  5
1C34A
 10
4183.05
 20
948.495
 30
8.27660e-012
  70
    32
  0
VERTEX
  8
01
  5
1C34B
 10
4183.07
 20
948.492
 30
8.27660e-012
  70
    32
  0
VERTEX
  8
01
  5
1C34C
 10
4183.09
 20
948.488
 30
8.27660e-012
  70
    32
  0
VERTEX
  8
01
  5
1C34D
 10
4183.11
 20
948.485
 30
8.27660e-012
  70
    32
  0
VERTEX
  8
01
  5
1C34E
 10
4183.13
 20
948.481
 30
8.27660e-012
  70
    32
  0
VERTEX
  8
01
  5
1C34F
 10
4183.15
 20
948.477
 30
8.27660e-012
  70
    32
  0
VERTEX
  8
01
  5
1C350
 10
4183.17
 20
948.474
 30
8.27660e-012
  70
    32
  0
VERTEX
  8
01
  5
1C351
 10
4183.19
 20
948.470
 30
8.27660e-012
  70
    32
  0
VERTEX
  8
01
  5
1C352
 10
4183.21
 20
948.466
 30
8.27660e-012
  70
    32
  0
VERTEX
  8
01
  5
1C353
 10
4183.23
 20
948.462
 30
8.27660e-012
  70
    32
  0
VERTEX
  8
01
  5
1C354
 10
4183.25
 20
948.458
 30
8.27660e-012
  70
    32
  0
VERTEX
  8
01
  5
1C355
 10
4183.27
 20
948.454
 30
8.27660e-012
  70
    32
  0
VERTEX
  8
01
  5
1C356
 10
4183.29
 20
948.450
 30
8.27660e-012
  70
    32
  0
VERTEX
  8
01
  5
1C357
 10
4183.30
 20
948.446
 30
8.27660e-012
  70
    32
  0
VERTEX
  8
01
  5
1C358
 10
4183.32
 20
948.442
 30
8.27660e-012
  70
    32
  0
VERTEX
  8
01
  5
1C359
 10
4183.34
 20
948.437
 30
8.27660e-012
  70
    32
  0
VERTEX
  8
01
  5
1C35A
 10
4183.36
 20
948.433
 30
8.27660e-012
  70
    32
  0
VERTEX
  8
01
  5
1C35B
 10
4183.37
 20
948.429
 30
8.27660e-012
  70
    32
  0
VERTEX
  8
01
  5
1C35C
 10
4183.39
 20
948.424
 30
8.27660e-012
  70
    32
  0
VERTEX
  8
01
  5
1C35D
 10
4183.41
 20
948.420
 30
8.27660e-012
  70
    32
  0
VERTEX
  8
01
  5
1C35E
 10
4183.42
 20
948.415
 30
8.27660e-012
  70
    32
  0
VERTEX
  8
01
  5
1C35F
 10
4183.44
 20
948.411
 30
8.27660e-012
  70
    32
  0
VERTEX
  8
01
  5
1C360
 10
4183.46
 20
948.406
 30
8.27660e-012
  70
    32
  0
VERTEX
  8
01
  5
1C361
 10
4183.47
 20
948.401
 30
8.27660e-012
  70
    32
  0
VERTEX
  8
01
  5
1C362
 10
4183.49
 20
948.397
 30
8.27660e-012
  70
    32
  0
VERTEX
  8
01
  5
1C363
 10
4183.50
 20
948.392
 30
8.27660e-012
  70
    32
  0
VERTEX
  8
01
  5
1C364
 10
4183.52
 20
948.387
 30
8.27660e-012
  70
    32
  0
VERTEX
  8
01
  5
1C365
 10
4183.53
 20
948.382
 30
8.27660e-012
  70
    32
  0
VERTEX
  8
01
  5
1C366
 10
4183.55
 20
948.377
 30
8.27660e-012
  70
    32
  0
VERTEX
  8
01
  5
1C367
 10
4183.56
 20
948.372
 30
8.27660e-012
  70
    32
  0
VERTEX
  8
01
  5
1C368
 10
4183.58
 20
948.367
 30
8.27660e-012
  70
    32
  0
VERTEX
  8
01
  5
1C369
 10
4183.59
 20
948.362
 30
8.27660e-012
  70
    32
  0
VERTEX
  8
01
  5
1C36A
 10
4183.61
 20
948.357
 30
8.27660e-012
  70
    32
  0
VERTEX
  8
01
  5
1C36B
 10
4183.62
 20
948.352
 30
8.27660e-012
  70
    32
  0
VERTEX
  8
01
  5
1C36C
 10
4183.63
 20
948.347
 30
8.27660e-012
  70
    32
  0
VERTEX
  8
01
  5
1C36D
 10
4183.64
 20
948.342
 30
8.27660e-012
  70
    32
  0
VERTEX
  8
01
  5
1C36E
 10
4183.66
 20
948.336
 30
8.27660e-012
  70
    32
  0
VERTEX
  8
01
  5
1C36F
 10
4183.67
 20
948.331
 30
8.27660e-012
  70
    32
  0
VERTEX
  8
01
  5
1C370
 10
4183.68
 20
948.326
 30
8.27660e-012
  70
    32
  0
VERTEX
  8
01
  5
1C371
 10
4183.69
 20
948.321
 30
8.27660e-012
  70
    32
  0
VERTEX
  8
01
  5
1C372
 10
4183.71
 20
948.315
 30
8.27660e-012
  70
    32
  0
VERTEX
  8
01
  5
1C373
 10
4183.72
 20
948.310
 30
8.27660e-012
  70
    32
  0
VERTEX
  8
01
  5
1C374
 10
4183.73
 20
948.304
 30
8.27660e-012
  70
    32
  0
VERTEX
  8
01
  5
1C375
 10
4183.74
 20
948.299
 30
8.27660e-012
  70
    32
  0
VERTEX
  8
01
  5
1C376
 10
4183.75
 20
948.293
 30
8.27660e-012
  70
    32
  0
VERTEX
  8
01
  5
1C377
 10
4183.76
 20
948.288
 30
8.27660e-012
  70
    32
  0
VERTEX
  8
01
  5
1C378
 10
4183.77
 20
948.282
 30
8.27660e-012
  70
    32
  0
VERTEX
  8
01
  5
1C379
 10
4183.78
 20
948.276
 30
8.27660e-012
  70
    32
  0
VERTEX
  8
01
  5
1C37A
 10
4183.79
 20
948.271
 30
8.27660e-012
  70
    32
  0
VERTEX
  8
01
  5
1C37B
 10
4183.80
 20
948.265
 30
8.27660e-012
  70
    32
  0
VERTEX
  8
01
  5
1C37C
 10
4183.81
 20
948.259
 30
8.27660e-012
  70
    32
  0
VERTEX
  8
01
  5
1C37D
 10
4183.82
 20
948.254
 30
8.27660e-012
  70
    32
  0
VERTEX
  8
01
  5
1C37E
 10
4183.83
 20
948.248
 30
8.27660e-012
  70
    32
  0
VERTEX
  8
01
  5
1C37F
 10
4183.83
 20
948.242
 30
8.27660e-012
  70
    32
  0
VERTEX
  8
01
  5
1C380
 10
4183.84
 20
948.236
 30
8.27660e-012
  70
    32
  0
VERTEX
  8
01
  5
1C381
 10
4183.85
 20
948.230
 30
8.27660e-012
  70
    32
  0
VERTEX
  8
01
  5
1C382
 10
4183.86
 20
948.225
 30
8.27660e-012
  70
    32
  0
VERTEX
  8
01
  5
1C383
 10
4183.86
 20
948.219
 30
8.27660e-012
  70
    32
  0
VERTEX
  8
01
  5
1C384
 10
4183.87
 20
948.213
 30
8.27660e-012
  70
    32
  0
VERTEX
  8
01
  5
1C385
 10
4183.88
 20
948.207
 30
8.27660e-012
  70
    32
  0
VERTEX
  8
01
  5
1C386
 10
4183.88
 20
948.201
 30
8.27660e-012
  70
    32
  0
VERTEX
  8
01
  5
1C387
 10
4183.89
 20
948.195
 30
8.27660e-012
  70
    32
  0
VERTEX
  8
01
  5
1C388
 10
4183.89
 20
948.189
 30
8.27660e-012
  70
    32
  0
VERTEX
  8
01
  5
1C389
 10
4183.90
 20
948.183
 30
8.27660e-012
  70
    32
  0
VERTEX
  8
01
  5
1C38A
 10
4183.90
 20
948.177
 30
8.27660e-012
  70
    32
  0
VERTEX
  8
01
  5
1C38B
 10
4183.91
 20
948.171
 30
8.27660e-012
  70
    32
  0
VERTEX
  8
01
  5
1C38C
 10
4183.91
 20
948.165
 30
8.27660e-012
  70
    32
  0
VERTEX
  8
01
  5
1C38D
 10
4183.92
 20
948.159
 30
8.27660e-012
  70
    32
  0
VERTEX
  8
01
  5
1C38E
 10
4183.92
 20
948.153
 30
8.27660e-012
  70
    32
  0
VERTEX
  8
01
  5
1C38F
 10
4183.92
 20
948.147
 30
8.27660e-012
  70
    32
  0
VERTEX
  8
01
  5
1C390
 10
4183.93
 20
948.141
 30
8.27660e-012
  70
    32
  0
VERTEX
  8
01
  5
1C391
 10
4183.93
 20
948.135
 30
8.27660e-012
  70
    32
  0
VERTEX
  8
01
  5
1C392
 10
4183.93
 20
948.128
 30
8.27660e-012
  70
    32
  0
VERTEX
  8
01
  5
1C393
 10
4183.93
 20
948.122
 30
8.27660e-012
  70
    32
  0
VERTEX
  8
01
  5
1C394
 10
4183.94
 20
948.116
 30
8.27660e-012
  70
    32
  0
VERTEX
  8
01
  5
1C395
 10
4183.94
 20
948.110
 30
8.27660e-012
  70
    32
  0
VERTEX
  8
01
  5
1C396
 10
4183.94
 20
948.104
 30
8.27660e-012
  70
    32
  0
VERTEX
  8
01
  5
1C397
 10
4183.94
 20
948.098
 30
8.27660e-012
  70
    32
  0
VERTEX
  8
01
  5
1C398
 10
4183.94
 20
948.092
 30
8.27660e-012
  70
    32
  0
VERTEX
  8
01
  5
1C399
 10
4183.94
 20
948.086
 30
8.27660e-012
  70
    32
  0
VERTEX
  8
01
  5
1C39A
 10
4183.94
 20
948.079
 30
8.27660e-012
  70
    32
  0
SEQEND
  8
01
  5
1C39B
  0
POLYLINE
  5
1BB20
  8
01
 10
4179.9421854454276
 20
948.57941858901563
 30
0.0000000000041383
 66
     1
 70
     8
  0
VERTEX
  8
01
  5
1C39C
 10
4179.94
 20
948.579
 30
4.13830e-012
  70
    32
  0
VERTEX
  8
01
  5
1C39D
 10
4179.97
 20
948.579
 30
4.13830e-012
  70
    32
  0
VERTEX
  8
01
  5
1C39E
 10
4179.99
 20
948.579
 30
4.13830e-012
  70
    32
  0
VERTEX
  8
01
  5
1C39F
 10
4180.02
 20
948.579
 30
4.13830e-012
  70
    32
  0
VERTEX
  8
01
  5
1C3A0
 10
4180.04
 20
948.579
 30
4.13830e-012
  70
    32
  0
VERTEX
  8
01
  5
1C3A1
 10
4180.06
 20
948.578
 30
4.13830e-012
  70
    32
  0
VERTEX
  8
01
  5
1C3A2
 10
4180.09
 20
948.578
 30
4.13830e-012
  70
    32
  0
VERTEX
  8
01
  5
1C3A3
 10
4180.11
 20
948.578
 30
4.13830e-012
  70
    32
  0
VERTEX
  8
01
  5
1C3A4
 10
4180.14
 20
948.577
 30
4.13830e-012
  70
    32
  0
VERTEX
  8
01
  5
1C3A5
 10
4180.16
 20
948.576
 30
4.13830e-012
  70
    32
  0
VERTEX
  8
01
  5
1C3A6
 10
4180.19
 20
948.576
 30
4.13830e-012
  70
    32
  0
VERTEX
  8
01
  5
1C3A7
 10
4180.21
 20
948.575
 30
4.13830e-012
  70
    32
  0
VERTEX
  8
01
  5
1C3A8
 10
4180.24
 20
948.574
 30
4.13830e-012
  70
    32
  0
VERTEX
  8
01
  5
1C3A9
 10
4180.26
 20
948.573
 30
4.13830e-012
  70
    32
  0
VERTEX
  8
01
  5
1C3AA
 10
4180.28
 20
948.572
 30
4.13830e-012
  70
    32
  0
VERTEX
  8
01
  5
1C3AB
 10
4180.31
 20
948.571
 30
4.13830e-012
  70
    32
  0
VERTEX
  8
01
  5
1C3AC
 10
4180.33
 20
948.570
 30
4.13830e-012
  70
    32
  0
VERTEX
  8
01
  5
1C3AD
 10
4180.36
 20
948.569
 30
4.13830e-012
  70
    32
  0
VERTEX
  8
01
  5
1C3AE
 10
4180.38
 20
948.567
 30
4.13830e-012
  70
    32
  0
VERTEX
  8
01
  5
1C3AF
 10
4180.40
 20
948.566
 30
4.13830e-012
  70
    32
  0
VERTEX
  8
01
  5
1C3B0
 10
4180.43
 20
948.564
 30
4.13830e-012
  70
    32
  0
VERTEX
  8
01
  5
1C3B1
 10
4180.45
 20
948.563
 30
4.13830e-012
  70
    32
  0
VERTEX
  8
01
  5
1C3B2
 10
4180.48
 20
948.561
 30
4.13830e-012
  70
    32
  0
VERTEX
  8
01
  5
1C3B3
 10
4180.50
 20
948.560
 30
4.13830e-012
  70
    32
  0
VERTEX
  8
01
  5
1C3B4
 10
4180.52
 20
948.558
 30
4.13830e-012
  70
    32
  0
VERTEX
  8
01
  5
1C3B5
 10
4180.55
 20
948.556
 30
4.13830e-012
  70
    32
  0
VERTEX
  8
01
  5
1C3B6
 10
4180.57
 20
948.554
 30
4.13830e-012
  70
    32
  0
VERTEX
  8
01
  5
1C3B7
 10
4180.59
 20
948.552
 30
4.13830e-012
  70
    32
  0
VERTEX
  8
01
  5
1C3B8
 10
4180.62
 20
948.550
 30
4.13830e-012
  70
    32
  0
VERTEX
  8
01
  5
1C3B9
 10
4180.64
 20
948.548
 30
4.13830e-012
  70
    32
  0
VERTEX
  8
01
  5
1C3BA
 10
4180.66
 20
948.546
 30
4.13830e-012
  70
    32
  0
VERTEX
  8
01
  5
1C3BB
 10
4180.68
 20
948.544
 30
4.13830e-012
  70
    32
  0
VERTEX
  8
01
  5
1C3BC
 10
4180.71
 20
948.541
 30
4.13830e-012
  70
    32
  0
VERTEX
  8
01
  5
1C3BD
 10
4180.73
 20
948.539
 30
4.13830e-012
  70
    32
  0
VERTEX
  8
01
  5
1C3BE
 10
4180.75
 20
948.537
 30
4.13830e-012
  70
    32
  0
VERTEX
  8
01
  5
1C3BF
 10
4180.78
 20
948.534
 30
4.13830e-012
  70
    32
  0
VERTEX
  8
01
  5
1C3C0
 10
4180.80
 20
948.531
 30
4.13830e-012
  70
    32
  0
VERTEX
  8
01
  5
1C3C1
 10
4180.82
 20
948.529
 30
4.13830e-012
  70
    32
  0
VERTEX
  8
01
  5
1C3C2
 10
4180.84
 20
948.526
 30
4.13830e-012
  70
    32
  0
VERTEX
  8
01
  5
1C3C3
 10
4180.86
 20
948.523
 30
4.13830e-012
  70
    32
  0
VERTEX
  8
01
  5
1C3C4
 10
4180.88
 20
948.520
 30
4.13830e-012
  70
    32
  0
VERTEX
  8
01
  5
1C3C5
 10
4180.91
 20
948.517
 30
4.13830e-012
  70
    32
  0
VERTEX
  8
01
  5
1C3C6
 10
4180.93
 20
948.514
 30
4.13830e-012
  70
    32
  0
VERTEX
  8
01
  5
1C3C7
 10
4180.95
 20
948.511
 30
4.13830e-012
  70
    32
  0
VERTEX
  8
01
  5
1C3C8
 10
4180.97
 20
948.508
 30
4.13830e-012
  70
    32
  0
VERTEX
  8
01
  5
1C3C9
 10
4180.99
 20
948.505
 30
4.13830e-012
  70
    32
  0
VERTEX
  8
01
  5
1C3CA
 10
4181.01
 20
948.502
 30
4.13830e-012
  70
    32
  0
VERTEX
  8
01
  5
1C3CB
 10
4181.03
 20
948.499
 30
4.13830e-012
  70
    32
  0
VERTEX
  8
01
  5
1C3CC
 10
4181.05
 20
948.495
 30
4.13830e-012
  70
    32
  0
VERTEX
  8
01
  5
1C3CD
 10
4181.07
 20
948.492
 30
4.13830e-012
  70
    32
  0
VERTEX
  8
01
  5
1C3CE
 10
4181.09
 20
948.488
 30
4.13830e-012
  70
    32
  0
VERTEX
  8
01
  5
1C3CF
 10
4181.11
 20
948.485
 30
4.13830e-012
  70
    32
  0
VERTEX
  8
01
  5
1C3D0
 10
4181.13
 20
948.481
 30
4.13830e-012
  70
    32
  0
VERTEX
  8
01
  5
1C3D1
 10
4181.15
 20
948.477
 30
4.13830e-012
  70
    32
  0
VERTEX
  8
01
  5
1C3D2
 10
4181.17
 20
948.474
 30
4.13830e-012
  70
    32
  0
VERTEX
  8
01
  5
1C3D3
 10
4181.19
 20
948.470
 30
4.13830e-012
  70
    32
  0
VERTEX
  8
01
  5
1C3D4
 10
4181.21
 20
948.466
 30
4.13830e-012
  70
    32
  0
VERTEX
  8
01
  5
1C3D5
 10
4181.23
 20
948.462
 30
4.13830e-012
  70
    32
  0
VERTEX
  8
01
  5
1C3D6
 10
4181.25
 20
948.458
 30
4.13830e-012
  70
    32
  0
VERTEX
  8
01
  5
1C3D7
 10
4181.27
 20
948.454
 30
4.13830e-012
  70
    32
  0
VERTEX
  8
01
  5
1C3D8
 10
4181.29
 20
948.450
 30
4.13830e-012
  70
    32
  0
VERTEX
  8
01
  5
1C3D9
 10
4181.30
 20
948.446
 30
4.13830e-012
  70
    32
  0
VERTEX
  8
01
  5
1C3DA
 10
4181.32
 20
948.442
 30
4.13830e-012
  70
    32
  0
VERTEX
  8
01
  5
1C3DB
 10
4181.34
 20
948.437
 30
4.13830e-012
  70
    32
  0
VERTEX
  8
01
  5
1C3DC
 10
4181.36
 20
948.433
 30
4.13830e-012
  70
    32
  0
VERTEX
  8
01
  5
1C3DD
 10
4181.37
 20
948.429
 30
4.13830e-012
  70
    32
  0
VERTEX
  8
01
  5
1C3DE
 10
4181.39
 20
948.424
 30
4.13830e-012
  70
    32
  0
VERTEX
  8
01
  5
1C3DF
 10
4181.41
 20
948.420
 30
4.13830e-012
  70
    32
  0
VERTEX
  8
01
  5
1C3E0
 10
4181.42
 20
948.415
 30
4.13830e-012
  70
    32
  0
VERTEX
  8
01
  5
1C3E1
 10
4181.44
 20
948.411
 30
4.13830e-012
  70
    32
  0
VERTEX
  8
01
  5
1C3E2
 10
4181.46
 20
948.406
 30
4.13830e-012
  70
    32
  0
VERTEX
  8
01
  5
1C3E3
 10
4181.47
 20
948.401
 30
4.13830e-012
  70
    32
  0
VERTEX
  8
01
  5
1C3E4
 10
4181.49
 20
948.397
 30
4.13830e-012
  70
    32
  0
VERTEX
  8
01
  5
1C3E5
 10
4181.50
 20
948.392
 30
4.13830e-012
  70
    32
  0
VERTEX
  8
01
  5
1C3E6
 10
4181.52
 20
948.387
 30
4.13830e-012
  70
    32
  0
VERTEX
  8
01
  5
1C3E7
 10
4181.53
 20
948.382
 30
4.13830e-012
  70
    32
  0
VERTEX
  8
01
  5
1C3E8
 10
4181.55
 20
948.377
 30
4.13830e-012
  70
    32
  0
VERTEX
  8
01
  5
1C3E9
 10
4181.56
 20
948.372
 30
4.13830e-012
  70
    32
  0
VERTEX
  8
01
  5
1C3EA
 10
4181.58
 20
948.367
 30
4.13830e-012
  70
    32
  0
VERTEX
  8
01
  5
1C3EB
 10
4181.59
 20
948.362
 30
4.13830e-012
  70
    32
  0
VERTEX
  8
01
  5
1C3EC
 10
4181.61
 20
948.357
 30
4.13830e-012
  70
    32
  0
VERTEX
  8
01
  5
1C3ED
 10
4181.62
 20
948.352
 30
4.13830e-012
  70
    32
  0
VERTEX
  8
01
  5
1C3EE
 10
4181.63
 20
948.347
 30
4.13830e-012
  70
    32
  0
VERTEX
  8
01
  5
1C3EF
 10
4181.64
 20
948.342
 30
4.13830e-012
  70
    32
  0
VERTEX
  8
01
  5
1C3F0
 10
4181.66
 20
948.336
 30
4.13830e-012
  70
    32
  0
VERTEX
  8
01
  5
1C3F1
 10
4181.67
 20
948.331
 30
4.13830e-012
  70
    32
  0
VERTEX
  8
01
  5
1C3F2
 10
4181.68
 20
948.326
 30
4.13830e-012
  70
    32
  0
VERTEX
  8
01
  5
1C3F3
 10
4181.69
 20
948.321
 30
4.13830e-012
  70
    32
  0
VERTEX
  8
01
  5
1C3F4
 10
4181.71
 20
948.315
 30
4.13830e-012
  70
    32
  0
VERTEX
  8
01
  5
1C3F5
 10
4181.72
 20
948.310
 30
4.13830e-012
  70
    32
  0
VERTEX
  8
01
  5
1C3F6
 10
4181.73
 20
948.304
 30
4.13830e-012
  70
    32
  0
VERTEX
  8
01
  5
1C3F7
 10
4181.74
 20
948.299
 30
4.13830e-012
  70
    32
  0
VERTEX
  8
01
  5
1C3F8
 10
4181.75
 20
948.293
 30
4.13830e-012
  70
    32
  0
VERTEX
  8
01
  5
1C3F9
 10
4181.76
 20
948.288
 30
4.13830e-012
  70
    32
  0
VERTEX
  8
01
  5
1C3FA
 10
4181.77
 20
948.282
 30
4.13830e-012
  70
    32
  0
VERTEX
  8
01
  5
1C3FB
 10
4181.78
 20
948.276
 30
4.13830e-012
  70
    32
  0
VERTEX
  8
01
  5
1C3FC
 10
4181.79
 20
948.271
 30
4.13830e-012
  70
    32
  0
VERTEX
  8
01
  5
1C3FD
 10
4181.80
 20
948.265
 30
4.13830e-012
  70
    32
  0
VERTEX
  8
01
  5
1C3FE
 10
4181.81
 20
948.259
 30
4.13830e-012
  70
    32
  0
VERTEX
  8
01
  5
1C3FF
 10
4181.82
 20
948.254
 30
4.13830e-012
  70
    32
  0
VERTEX
  8
01
  5
1C400
 10
4181.83
 20
948.248
 30
4.13830e-012
  70
    32
  0
VERTEX
  8
01
  5
1C401
 10
4181.83
 20
948.242
 30
4.13830e-012
  70
    32
  0
VERTEX
  8
01
  5
1C402
 10
4181.84
 20
948.236
 30
4.13830e-012
  70
    32
  0
VERTEX
  8
01
  5
1C403
 10
4181.85
 20
948.230
 30
4.13830e-012
  70
    32
  0
VERTEX
  8
01
  5
1C404
 10
4181.86
 20
948.225
 30
4.13830e-012
  70
    32
  0
VERTEX
  8
01
  5
1C405
 10
4181.86
 20
948.219
 30
4.13830e-012
  70
    32
  0
VERTEX
  8
01
  5
1C406
 10
4181.87
 20
948.213
 30
4.13830e-012
  70
    32
  0
VERTEX
  8
01
  5
1C407
 10
4181.88
 20
948.207
 30
4.13830e-012
  70
    32
  0
VERTEX
  8
01
  5
1C408
 10
4181.88
 20
948.201
 30
4.13830e-012
  70
    32
  0
VERTEX
  8
01
  5
1C409
 10
4181.89
 20
948.195
 30
4.13830e-012
  70
    32
  0
VERTEX
  8
01
  5
1C40A
 10
4181.89
 20
948.189
 30
4.13830e-012
  70
    32
  0
VERTEX
  8
01
  5
1C40B
 10
4181.90
 20
948.183
 30
4.13830e-012
  70
    32
  0
VERTEX
  8
01
  5
1C40C
 10
4181.90
 20
948.177
 30
4.13830e-012
  70
    32
  0
VERTEX
  8
01
  5
1C40D
 10
4181.91
 20
948.171
 30
4.13830e-012
  70
    32
  0
VERTEX
  8
01
  5
1C40E
 10
4181.91
 20
948.165
 30
4.13830e-012
  70
    32
  0
VERTEX
  8
01
  5
1C40F
 10
4181.92
 20
948.159
 30
4.13830e-012
  70
    32
  0
VERTEX
  8
01
  5
1C410
 10
4181.92
 20
948.153
 30
4.13830e-012
  70
    32
  0
VERTEX
  8
01
  5
1C411
 10
4181.92
 20
948.147
 30
4.13830e-012
  70
    32
  0
VERTEX
  8
01
  5
1C412
 10
4181.93
 20
948.141
 30
4.13830e-012
  70
    32
  0
VERTEX
  8
01
  5
1C413
 10
4181.93
 20
948.135
 30
4.13830e-012
  70
    32
  0
VERTEX
  8
01
  5
1C414
 10
4181.93
 20
948.128
 30
4.13830e-012
  70
    32
  0
VERTEX
  8
01
  5
1C415
 10
4181.93
 20
948.122
 30
4.13830e-012
  70
    32
  0
VERTEX
  8
01
  5
1C416
 10
4181.94
 20
948.116
 30
4.13830e-012
  70
    32
  0
VERTEX
  8
01
  5
1C417
 10
4181.94
 20
948.110
 30
4.13830e-012
  70
    32
  0
VERTEX
  8
01
  5
1C418
 10
4181.94
 20
948.104
 30
4.13830e-012
  70
    32
  0
VERTEX
  8
01
  5
1C419
 10
4181.94
 20
948.098
 30
4.13830e-012
  70
    32
  0
VERTEX
  8
01
  5
1C41A
 10
4181.94
 20
948.092
 30
4.13830e-012
  70
    32
  0
VERTEX
  8
01
  5
1C41B
 10
4181.94
 20
948.086
 30
4.13830e-012
  70
    32
  0
VERTEX
  8
01
  5
1C41C
 10
4181.94
 20
948.079
 30
4.13830e-012
  70
    32
  0
SEQEND
  8
01
  5
1C41D
  0
LINE
  5
1BB21
  8
01
 10
4068.9421854454272
 20
951.62930145678274
 30
0.0
 11
4202.9421854454276
 21
951.62930145678274
 31
0.0
  0
LINE
  5
1BB22
  8
01
 10
4181.9421854454276
 20
948.57941858901552
 30
0.0000000000041383
 11
4068.9421854454272
 21
948.57941858901552
 31
0.0000000000041436
  0
LINE
  5
1BB23
  8
01
 10
4183.9421854454267
 20
966.6293014567791
 30
0.0
 11
4183.9421854454267
 21
963.96688766403565
 31
0.0
  0
LINE
  5
1BB24
  8
01
 10
4181.9421854454276
 20
963.46688766403577
 30
0.0
 11
4068.9209833159798
 21
961.07005872202342
 31
0.0
  0
ARC
  5
1BB25
  8
01
 10
4068.9421854454272
 20
960.07028351243571
 30
0.0
 40
1.0
 50
91.214883566833407
 51
180.0
  0
LINE
  5
1BB26
  8
01
 10
4181.9421854454276
 20
964.21508789440566
 30
0.0
 11
4181.9421854454276
 21
963.46688766403577
 31
0.0
  0
ARC
  5
1BB27
  8
01
 10
4182.9421854454267
 20
964.21508789440566
 30
0.0
 40
1.0
 50
135.00000000000941
 51
180.0
  0
POLYLINE
  5
1BB28
  8
01
 10
4183.9421854454276
 20
963.96688766403565
 30
0.0
 66
     1
 70
     8
  0
VERTEX
  8
01
  5
1C41E
 10
4183.94
 20
963.967
 30
0.000000
  70
    32
  0
VERTEX
  8
01
  5
1C41F
 10
4183.94
 20
963.961
 30
0.000000
  70
    32
  0
VERTEX
  8
01
  5
1C420
 10
4183.94
 20
963.955
 30
0.000000
  70
    32
  0
VERTEX
  8
01
  5
1C421
 10
4183.94
 20
963.948
 30
0.000000
  70
    32
  0
VERTEX
  8
01
  5
1C422
 10
4183.94
 20
963.942
 30
0.000000
  70
    32
  0
VERTEX
  8
01
  5
1C423
 10
4183.94
 20
963.936
 30
0.000000
  70
    32
  0
VERTEX
  8
01
  5
1C424
 10
4183.94
 20
963.930
 30
0.000000
  70
    32
  0
VERTEX
  8
01
  5
1C425
 10
4183.93
 20
963.924
 30
0.000000
  70
    32
  0
VERTEX
  8
01
  5
1C426
 10
4183.93
 20
963.918
 30
0.000000
  70
    32
  0
VERTEX
  8
01
  5
1C427
 10
4183.93
 20
963.912
 30
0.000000
  70
    32
  0
VERTEX
  8
01
  5
1C428
 10
4183.93
 20
963.906
 30
0.000000
  70
    32
  0
VERTEX
  8
01
  5
1C429
 10
4183.92
 20
963.900
 30
0.000000
  70
    32
  0
VERTEX
  8
01
  5
1C42A
 10
4183.92
 20
963.894
 30
0.000000
  70
    32
  0
VERTEX
  8
01
  5
1C42B
 10
4183.92
 20
963.887
 30
0.000000
  70
    32
  0
VERTEX
  8
01
  5
1C42C
 10
4183.91
 20
963.881
 30
0.000000
  70
    32
  0
VERTEX
  8
01
  5
1C42D
 10
4183.91
 20
963.875
 30
0.000000
  70
    32
  0
VERTEX
  8
01
  5
1C42E
 10
4183.90
 20
963.869
 30
0.000000
  70
    32
  0
VERTEX
  8
01
  5
1C42F
 10
4183.90
 20
963.863
 30
0.000000
  70
    32
  0
VERTEX
  8
01
  5
1C430
 10
4183.89
 20
963.857
 30
0.000000
  70
    32
  0
VERTEX
  8
01
  5
1C431
 10
4183.89
 20
963.851
 30
0.000000
  70
    32
  0
VERTEX
  8
01
  5
1C432
 10
4183.88
 20
963.845
 30
0.000000
  70
    32
  0
VERTEX
  8
01
  5
1C433
 10
4183.88
 20
963.839
 30
0.000000
  70
    32
  0
VERTEX
  8
01
  5
1C434
 10
4183.87
 20
963.834
 30
0.000000
  70
    32
  0
VERTEX
  8
01
  5
1C435
 10
4183.86
 20
963.828
 30
0.000000
  70
    32
  0
VERTEX
  8
01
  5
1C436
 10
4183.86
 20
963.822
 30
0.000000
  70
    32
  0
VERTEX
  8
01
  5
1C437
 10
4183.85
 20
963.816
 30
0.000000
  70
    32
  0
VERTEX
  8
01
  5
1C438
 10
4183.84
 20
963.810
 30
0.000000
  70
    32
  0
VERTEX
  8
01
  5
1C439
 10
4183.83
 20
963.804
 30
0.000000
  70
    32
  0
VERTEX
  8
01
  5
1C43A
 10
4183.83
 20
963.798
 30
0.000000
  70
    32
  0
VERTEX
  8
01
  5
1C43B
 10
4183.82
 20
963.793
 30
0.000000
  70
    32
  0
VERTEX
  8
01
  5
1C43C
 10
4183.81
 20
963.787
 30
0.000000
  70
    32
  0
VERTEX
  8
01
  5
1C43D
 10
4183.80
 20
963.781
 30
0.000000
  70
    32
  0
VERTEX
  8
01
  5
1C43E
 10
4183.79
 20
963.776
 30
0.000000
  70
    32
  0
VERTEX
  8
01
  5
1C43F
 10
4183.78
 20
963.770
 30
0.000000
  70
    32
  0
VERTEX
  8
01
  5
1C440
 10
4183.77
 20
963.764
 30
0.000000
  70
    32
  0
VERTEX
  8
01
  5
1C441
 10
4183.76
 20
963.759
 30
0.000000
  70
    32
  0
VERTEX
  8
01
  5
1C442
 10
4183.75
 20
963.753
 30
0.000000
  70
    32
  0
VERTEX
  8
01
  5
1C443
 10
4183.74
 20
963.748
 30
0.000000
  70
    32
  0
VERTEX
  8
01
  5
1C444
 10
4183.73
 20
963.742
 30
0.000000
  70
    32
  0
VERTEX
  8
01
  5
1C445
 10
4183.72
 20
963.737
 30
0.000000
  70
    32
  0
VERTEX
  8
01
  5
1C446
 10
4183.71
 20
963.731
 30
0.000000
  70
    32
  0
VERTEX
  8
01
  5
1C447
 10
4183.69
 20
963.726
 30
0.000000
  70
    32
  0
VERTEX
  8
01
  5
1C448
 10
4183.68
 20
963.720
 30
0.000000
  70
    32
  0
VERTEX
  8
01
  5
1C449
 10
4183.67
 20
963.715
 30
0.000000
  70
    32
  0
VERTEX
  8
01
  5
1C44A
 10
4183.66
 20
963.710
 30
0.000000
  70
    32
  0
VERTEX
  8
01
  5
1C44B
 10
4183.64
 20
963.705
 30
0.000000
  70
    32
  0
VERTEX
  8
01
  5
1C44C
 10
4183.63
 20
963.699
 30
0.000000
  70
    32
  0
VERTEX
  8
01
  5
1C44D
 10
4183.62
 20
963.694
 30
0.000000
  70
    32
  0
VERTEX
  8
01
  5
1C44E
 10
4183.61
 20
963.689
 30
0.000000
  70
    32
  0
VERTEX
  8
01
  5
1C44F
 10
4183.59
 20
963.684
 30
0.000000
  70
    32
  0
VERTEX
  8
01
  5
1C450
 10
4183.58
 20
963.679
 30
0.000000
  70
    32
  0
VERTEX
  8
01
  5
1C451
 10
4183.56
 20
963.674
 30
0.000000
  70
    32
  0
VERTEX
  8
01
  5
1C452
 10
4183.55
 20
963.669
 30
0.000000
  70
    32
  0
VERTEX
  8
01
  5
1C453
 10
4183.53
 20
963.664
 30
0.000000
  70
    32
  0
VERTEX
  8
01
  5
1C454
 10
4183.52
 20
963.659
 30
0.000000
  70
    32
  0
VERTEX
  8
01
  5
1C455
 10
4183.50
 20
963.654
 30
0.000000
  70
    32
  0
VERTEX
  8
01
  5
1C456
 10
4183.49
 20
963.650
 30
0.000000
  70
    32
  0
VERTEX
  8
01
  5
1C457
 10
4183.47
 20
963.645
 30
0.000000
  70
    32
  0
VERTEX
  8
01
  5
1C458
 10
4183.46
 20
963.640
 30
0.000000
  70
    32
  0
VERTEX
  8
01
  5
1C459
 10
4183.44
 20
963.636
 30
0.000000
  70
    32
  0
VERTEX
  8
01
  5
1C45A
 10
4183.42
 20
963.631
 30
0.000000
  70
    32
  0
VERTEX
  8
01
  5
1C45B
 10
4183.41
 20
963.627
 30
0.000000
  70
    32
  0
VERTEX
  8
01
  5
1C45C
 10
4183.39
 20
963.622
 30
0.000000
  70
    32
  0
VERTEX
  8
01
  5
1C45D
 10
4183.37
 20
963.618
 30
0.000000
  70
    32
  0
VERTEX
  8
01
  5
1C45E
 10
4183.36
 20
963.613
 30
0.000000
  70
    32
  0
VERTEX
  8
01
  5
1C45F
 10
4183.34
 20
963.609
 30
0.000000
  70
    32
  0
VERTEX
  8
01
  5
1C460
 10
4183.32
 20
963.605
 30
0.000000
  70
    32
  0
VERTEX
  8
01
  5
1C461
 10
4183.30
 20
963.601
 30
0.000000
  70
    32
  0
VERTEX
  8
01
  5
1C462
 10
4183.29
 20
963.596
 30
0.000000
  70
    32
  0
VERTEX
  8
01
  5
1C463
 10
4183.27
 20
963.592
 30
0.000000
  70
    32
  0
VERTEX
  8
01
  5
1C464
 10
4183.25
 20
963.588
 30
0.000000
  70
    32
  0
VERTEX
  8
01
  5
1C465
 10
4183.23
 20
963.584
 30
0.000000
  70
    32
  0
VERTEX
  8
01
  5
1C466
 10
4183.21
 20
963.580
 30
0.000000
  70
    32
  0
VERTEX
  8
01
  5
1C467
 10
4183.19
 20
963.577
 30
0.000000
  70
    32
  0
VERTEX
  8
01
  5
1C468
 10
4183.17
 20
963.573
 30
0.000000
  70
    32
  0
VERTEX
  8
01
  5
1C469
 10
4183.15
 20
963.569
 30
0.000000
  70
    32
  0
VERTEX
  8
01
  5
1C46A
 10
4183.13
 20
963.565
 30
0.000000
  70
    32
  0
VERTEX
  8
01
  5
1C46B
 10
4183.11
 20
963.562
 30
0.000000
  70
    32
  0
VERTEX
  8
01
  5
1C46C
 10
4183.09
 20
963.558
 30
0.000000
  70
    32
  0
VERTEX
  8
01
  5
1C46D
 10
4183.07
 20
963.555
 30
0.000000
  70
    32
  0
VERTEX
  8
01
  5
1C46E
 10
4183.05
 20
963.551
 30
0.000000
  70
    32
  0
VERTEX
  8
01
  5
1C46F
 10
4183.03
 20
963.548
 30
0.000000
  70
    32
  0
VERTEX
  8
01
  5
1C470
 10
4183.01
 20
963.544
 30
0.000000
  70
    32
  0
VERTEX
  8
01
  5
1C471
 10
4182.99
 20
963.541
 30
0.000000
  70
    32
  0
VERTEX
  8
01
  5
1C472
 10
4182.97
 20
963.538
 30
0.000000
  70
    32
  0
VERTEX
  8
01
  5
1C473
 10
4182.95
 20
963.535
 30
0.000000
  70
    32
  0
VERTEX
  8
01
  5
1C474
 10
4182.93
 20
963.532
 30
0.000000
  70
    32
  0
VERTEX
  8
01
  5
1C475
 10
4182.91
 20
963.529
 30
0.000000
  70
    32
  0
VERTEX
  8
01
  5
1C476
 10
4182.88
 20
963.526
 30
0.000000
  70
    32
  0
VERTEX
  8
01
  5
1C477
 10
4182.86
 20
963.523
 30
0.000000
  70
    32
  0
VERTEX
  8
01
  5
1C478
 10
4182.84
 20
963.520
 30
0.000000
  70
    32
  0
VERTEX
  8
01
  5
1C479
 10
4182.82
 20
963.518
 30
0.000000
  70
    32
  0
VERTEX
  8
01
  5
1C47A
 10
4182.80
 20
963.515
 30
0.000000
  70
    32
  0
VERTEX
  8
01
  5
1C47B
 10
4182.78
 20
963.512
 30
0.000000
  70
    32
  0
VERTEX
  8
01
  5
1C47C
 10
4182.75
 20
963.510
 30
0.000000
  70
    32
  0
VERTEX
  8
01
  5
1C47D
 10
4182.73
 20
963.507
 30
0.000000
  70
    32
  0
VERTEX
  8
01
  5
1C47E
 10
4182.71
 20
963.505
 30
0.000000
  70
    32
  0
VERTEX
  8
01
  5
1C47F
 10
4182.68
 20
963.503
 30
0.000000
  70
    32
  0
VERTEX
  8
01
  5
1C480
 10
4182.66
 20
963.500
 30
0.000000
  70
    32
  0
VERTEX
  8
01
  5
1C481
 10
4182.64
 20
963.498
 30
0.000000
  70
    32
  0
VERTEX
  8
01
  5
1C482
 10
4182.62
 20
963.496
 30
0.000000
  70
    32
  0
VERTEX
  8
01
  5
1C483
 10
4182.59
 20
963.494
 30
0.000000
  70
    32
  0
VERTEX
  8
01
  5
1C484
 10
4182.57
 20
963.492
 30
0.000000
  70
    32
  0
VERTEX
  8
01
  5
1C485
 10
4182.55
 20
963.490
 30
0.000000
  70
    32
  0
VERTEX
  8
01
  5
1C486
 10
4182.52
 20
963.488
 30
0.000000
  70
    32
  0
VERTEX
  8
01
  5
1C487
 10
4182.50
 20
963.487
 30
0.000000
  70
    32
  0
VERTEX
  8
01
  5
1C488
 10
4182.48
 20
963.485
 30
0.000000
  70
    32
  0
VERTEX
  8
01
  5
1C489
 10
4182.45
 20
963.483
 30
0.000000
  70
    32
  0
VERTEX
  8
01
  5
1C48A
 10
4182.43
 20
963.482
 30
0.000000
  70
    32
  0
VERTEX
  8
01
  5
1C48B
 10
4182.40
 20
963.480
 30
0.000000
  70
    32
  0
VERTEX
  8
01
  5
1C48C
 10
4182.38
 20
963.479
 30
0.000000
  70
    32
  0
VERTEX
  8
01
  5
1C48D
 10
4182.36
 20
963.478
 30
0.000000
  70
    32
  0
VERTEX
  8
01
  5
1C48E
 10
4182.33
 20
963.476
 30
0.000000
  70
    32
  0
VERTEX
  8
01
  5
1C48F
 10
4182.31
 20
963.475
 30
0.000000
  70
    32
  0
VERTEX
  8
01
  5
1C490
 10
4182.28
 20
963.474
 30
0.000000
  70
    32
  0
VERTEX
  8
01
  5
1C491
 10
4182.26
 20
963.473
 30
0.000000
  70
    32
  0
VERTEX
  8
01
  5
1C492
 10
4182.24
 20
963.472
 30
0.000000
  70
    32
  0
VERTEX
  8
01
  5
1C493
 10
4182.21
 20
963.471
 30
0.000000
  70
    32
  0
VERTEX
  8
01
  5
1C494
 10
4182.19
 20
963.471
 30
0.000000
  70
    32
  0
VERTEX
  8
01
  5
1C495
 10
4182.16
 20
963.470
 30
0.000000
  70
    32
  0
VERTEX
  8
01
  5
1C496
 10
4182.14
 20
963.469
 30
0.000000
  70
    32
  0
VERTEX
  8
01
  5
1C497
 10
4182.11
 20
963.469
 30
0.000000
  70
    32
  0
VERTEX
  8
01
  5
1C498
 10
4182.09
 20
963.468
 30
0.000000
  70
    32
  0
VERTEX
  8
01
  5
1C499
 10
4182.06
 20
963.468
 30
0.000000
  70
    32
  0
VERTEX
  8
01
  5
1C49A
 10
4182.04
 20
963.467
 30
0.000000
  70
    32
  0
VERTEX
  8
01
  5
1C49B
 10
4182.02
 20
963.467
 30
0.000000
  70
    32
  0
VERTEX
  8
01
  5
1C49C
 10
4181.99
 20
963.467
 30
0.000000
  70
    32
  0
VERTEX
  8
01
  5
1C49D
 10
4181.97
 20
963.467
 30
0.000000
  70
    32
  0
VERTEX
  8
01
  5
1C49E
 10
4181.94
 20
963.467
 30
0.000000
  70
    32
  0
SEQEND
  8
01
  5
1C49F
  0
POLYLINE
  5
1BB29
  8
01
 10
4196.1921854454267
 20
945.39930145681012
 30
0.0
 66
     1
 70
     8
  0
VERTEX
  8
01
  5
1C4A0
 10
4196.19
 20
945.399
 30
0.000000
  70
    32
  0
VERTEX
  8
01
  5
1C4A1
 10
4196.19
 20
945.377
 30
0.000000
  70
    32
  0
VERTEX
  8
01
  5
1C4A2
 10
4196.18
 20
945.355
 30
0.000000
  70
    32
  0
VERTEX
  8
01
  5
1C4A3
 10
4196.16
 20
945.333
 30
0.000000
  70
    32
  0
VERTEX
  8
01
  5
1C4A4
 10
4196.13
 20
945.312
 30
0.000000
  70
    32
  0
VERTEX
  8
01
  5
1C4A5
 10
4196.09
 20
945.290
 30
0.000000
  70
    32
  0
VERTEX
  8
01
  5
1C4A6
 10
4196.05
 20
945.269
 30
0.000000
  70
    32
  0
VERTEX
  8
01
  5
1C4A7
 10
4196.00
 20
945.248
 30
0.000000
  70
    32
  0
VERTEX
  8
01
  5
1C4A8
 10
4195.94
 20
945.227
 30
0.000000
  70
    32
  0
VERTEX
  8
01
  5
1C4A9
 10
4195.88
 20
945.207
 30
0.000000
  70
    32
  0
VERTEX
  8
01
  5
1C4AA
 10
4195.81
 20
945.187
 30
0.000000
  70
    32
  0
VERTEX
  8
01
  5
1C4AB
 10
4195.73
 20
945.168
 30
0.000000
  70
    32
  0
VERTEX
  8
01
  5
1C4AC
 10
4195.64
 20
945.149
 30
0.000000
  70
    32
  0
VERTEX
  8
01
  5
1C4AD
 10
4195.55
 20
945.131
 30
0.000000
  70
    32
  0
VERTEX
  8
01
  5
1C4AE
 10
4195.45
 20
945.114
 30
0.000000
  70
    32
  0
VERTEX
  8
01
  5
1C4AF
 10
4195.35
 20
945.097
 30
0.000000
  70
    32
  0
VERTEX
  8
01
  5
1C4B0
 10
4195.24
 20
945.081
 30
0.000000
  70
    32
  0
VERTEX
  8
01
  5
1C4B1
 10
4195.12
 20
945.066
 30
0.000000
  70
    32
  0
VERTEX
  8
01
  5
1C4B2
 10
4195.00
 20
945.051
 30
0.000000
  70
    32
  0
VERTEX
  8
01
  5
1C4B3
 10
4194.88
 20
945.038
 30
0.000000
  70
    32
  0
VERTEX
  8
01
  5
1C4B4
 10
4194.75
 20
945.025
 30
0.000000
  70
    32
  0
VERTEX
  8
01
  5
1C4B5
 10
4194.61
 20
945.013
 30
0.000000
  70
    32
  0
VERTEX
  8
01
  5
1C4B6
 10
4194.47
 20
945.002
 30
0.000000
  70
    32
  0
VERTEX
  8
01
  5
1C4B7
 10
4194.33
 20
944.993
 30
0.000000
  70
    32
  0
VERTEX
  8
01
  5
1C4B8
 10
4194.19
 20
944.984
 30
0.000000
  70
    32
  0
VERTEX
  8
01
  5
1C4B9
 10
4194.04
 20
944.976
 30
0.000000
  70
    32
  0
VERTEX
  8
01
  5
1C4BA
 10
4193.89
 20
944.969
 30
0.000000
  70
    32
  0
VERTEX
  8
01
  5
1C4BB
 10
4193.73
 20
944.963
 30
0.000000
  70
    32
  0
VERTEX
  8
01
  5
1C4BC
 10
4193.58
 20
944.958
 30
0.000000
  70
    32
  0
VERTEX
  8
01
  5
1C4BD
 10
4193.42
 20
944.954
 30
0.000000
  70
    32
  0
VERTEX
  8
01
  5
1C4BE
 10
4193.26
 20
944.951
 30
0.000000
  70
    32
  0
VERTEX
  8
01
  5
1C4BF
 10
4193.10
 20
944.950
 30
0.000000
  70
    32
  0
VERTEX
  8
01
  5
1C4C0
 10
4192.94
 20
944.949
 30
0.000000
  70
    32
  0
VERTEX
  8
01
  5
1C4C1
 10
4192.78
 20
944.950
 30
0.000000
  70
    32
  0
VERTEX
  8
01
  5
1C4C2
 10
4192.62
 20
944.951
 30
0.000000
  70
    32
  0
VERTEX
  8
01
  5
1C4C3
 10
4192.47
 20
944.954
 30
0.000000
  70
    32
  0
VERTEX
  8
01
  5
1C4C4
 10
4192.31
 20
944.958
 30
0.000000
  70
    32
  0
VERTEX
  8
01
  5
1C4C5
 10
4192.15
 20
944.963
 30
0.000000
  70
    32
  0
VERTEX
  8
01
  5
1C4C6
 10
4192.00
 20
944.969
 30
0.000000
  70
    32
  0
VERTEX
  8
01
  5
1C4C7
 10
4191.85
 20
944.976
 30
0.000000
  70
    32
  0
VERTEX
  8
01
  5
1C4C8
 10
4191.70
 20
944.984
 30
0.000000
  70
    32
  0
VERTEX
  8
01
  5
1C4C9
 10
4191.55
 20
944.993
 30
0.000000
  70
    32
  0
VERTEX
  8
01
  5
1C4CA
 10
4191.41
 20
945.002
 30
0.000000
  70
    32
  0
VERTEX
  8
01
  5
1C4CB
 10
4191.27
 20
945.013
 30
0.000000
  70
    32
  0
VERTEX
  8
01
  5
1C4CC
 10
4191.14
 20
945.025
 30
0.000000
  70
    32
  0
VERTEX
  8
01
  5
1C4CD
 10
4191.01
 20
945.038
 30
0.000000
  70
    32
  0
VERTEX
  8
01
  5
1C4CE
 10
4190.88
 20
945.051
 30
0.000000
  70
    32
  0
VERTEX
  8
01
  5
1C4CF
 10
4190.76
 20
945.066
 30
0.000000
  70
    32
  0
VERTEX
  8
01
  5
1C4D0
 10
4190.64
 20
945.081
 30
0.000000
  70
    32
  0
VERTEX
  8
01
  5
1C4D1
 10
4190.53
 20
945.097
 30
0.000000
  70
    32
  0
VERTEX
  8
01
  5
1C4D2
 10
4190.43
 20
945.114
 30
0.000000
  70
    32
  0
VERTEX
  8
01
  5
1C4D3
 10
4190.33
 20
945.131
 30
0.000000
  70
    32
  0
VERTEX
  8
01
  5
1C4D4
 10
4190.24
 20
945.149
 30
0.000000
  70
    32
  0
VERTEX
  8
01
  5
1C4D5
 10
4190.15
 20
945.168
 30
0.000000
  70
    32
  0
VERTEX
  8
01
  5
1C4D6
 10
4190.08
 20
945.187
 30
0.000000
  70
    32
  0
VERTEX
  8
01
  5
1C4D7
 10
4190.00
 20
945.207
 30
0.000000
  70
    32
  0
VERTEX
  8
01
  5
1C4D8
 10
4189.94
 20
945.227
 30
0.000000
  70
    32
  0
VERTEX
  8
01
  5
1C4D9
 10
4189.88
 20
945.248
 30
0.000000
  70
    32
  0
VERTEX
  8
01
  5
1C4DA
 10
4189.83
 20
945.269
 30
0.000000
  70
    32
  0
VERTEX
  8
01
  5
1C4DB
 10
4189.79
 20
945.290
 30
0.000000
  70
    32
  0
VERTEX
  8
01
  5
1C4DC
 10
4189.75
 20
945.312
 30
0.000000
  70
    32
  0
VERTEX
  8
01
  5
1C4DD
 10
4189.73
 20
945.333
 30
0.000000
  70
    32
  0
VERTEX
  8
01
  5
1C4DE
 10
4189.71
 20
945.355
 30
0.000000
  70
    32
  0
VERTEX
  8
01
  5
1C4DF
 10
4189.70
 20
945.377
 30
0.000000
  70
    32
  0
VERTEX
  8
01
  5
1C4E0
 10
4189.69
 20
945.399
 30
0.000000
  70
    32
  0
VERTEX
  8
01
  5
1C4E1
 10
4189.70
 20
945.421
 30
0.000000
  70
    32
  0
VERTEX
  8
01
  5
1C4E2
 10
4189.71
 20
945.443
 30
0.000000
  70
    32
  0
VERTEX
  8
01
  5
1C4E3
 10
4189.73
 20
945.465
 30
0.000000
  70
    32
  0
VERTEX
  8
01
  5
1C4E4
 10
4189.75
 20
945.487
 30
0.000000
  70
    32
  0
VERTEX
  8
01
  5
1C4E5
 10
4189.79
 20
945.509
 30
0.000000
  70
    32
  0
VERTEX
  8
01
  5
1C4E6
 10
4189.83
 20
945.530
 30
0.000000
  70
    32
  0
VERTEX
  8
01
  5
1C4E7
 10
4189.88
 20
945.551
 30
0.000000
  70
    32
  0
VERTEX
  8
01
  5
1C4E8
 10
4189.94
 20
945.572
 30
0.000000
  70
    32
  0
VERTEX
  8
01
  5
1C4E9
 10
4190.00
 20
945.592
 30
0.000000
  70
    32
  0
VERTEX
  8
01
  5
1C4EA
 10
4190.08
 20
945.611
 30
0.000000
  70
    32
  0
VERTEX
  8
01
  5
1C4EB
 10
4190.15
 20
945.631
 30
0.000000
  70
    32
  0
VERTEX
  8
01
  5
1C4EC
 10
4190.24
 20
945.649
 30
0.000000
  70
    32
  0
VERTEX
  8
01
  5
1C4ED
 10
4190.33
 20
945.667
 30
0.000000
  70
    32
  0
VERTEX
  8
01
  5
1C4EE
 10
4190.43
 20
945.685
 30
0.000000
  70
    32
  0
VERTEX
  8
01
  5
1C4EF
 10
4190.53
 20
945.702
 30
0.000000
  70
    32
  0
VERTEX
  8
01
  5
1C4F0
 10
4190.64
 20
945.717
 30
0.000000
  70
    32
  0
VERTEX
  8
01
  5
1C4F1
 10
4190.76
 20
945.733
 30
0.000000
  70
    32
  0
VERTEX
  8
01
  5
1C4F2
 10
4190.88
 20
945.747
 30
0.000000
  70
    32
  0
VERTEX
  8
01
  5
1C4F3
 10
4191.01
 20
945.761
 30
0.000000
  70
    32
  0
VERTEX
  8
01
  5
1C4F4
 10
4191.14
 20
945.773
 30
0.000000
  70
    32
  0
VERTEX
  8
01
  5
1C4F5
 10
4191.27
 20
945.785
 30
0.000000
  70
    32
  0
VERTEX
  8
01
  5
1C4F6
 10
4191.41
 20
945.796
 30
0.000000
  70
    32
  0
VERTEX
  8
01
  5
1C4F7
 10
4191.55
 20
945.806
 30
0.000000
  70
    32
  0
VERTEX
  8
01
  5
1C4F8
 10
4191.70
 20
945.815
 30
0.000000
  70
    32
  0
VERTEX
  8
01
  5
1C4F9
 10
4191.85
 20
945.823
 30
0.000000
  70
    32
  0
VERTEX
  8
01
  5
1C4FA
 10
4192.00
 20
945.830
 30
0.000000
  70
    32
  0
VERTEX
  8
01
  5
1C4FB
 10
4192.15
 20
945.836
 30
0.000000
  70
    32
  0
VERTEX
  8
01
  5
1C4FC
 10
4192.31
 20
945.841
 30
0.000000
  70
    32
  0
VERTEX
  8
01
  5
1C4FD
 10
4192.47
 20
945.844
 30
0.000000
  70
    32
  0
VERTEX
  8
01
  5
1C4FE
 10
4192.62
 20
945.847
 30
0.000000
  70
    32
  0
VERTEX
  8
01
  5
1C4FF
 10
4192.78
 20
945.849
 30
0.000000
  70
    32
  0
VERTEX
  8
01
  5
1C500
 10
4192.94
 20
945.849
 30
0.000000
  70
    32
  0
VERTEX
  8
01
  5
1C501
 10
4193.10
 20
945.849
 30
0.000000
  70
    32
  0
VERTEX
  8
01
  5
1C502
 10
4193.26
 20
945.847
 30
0.000000
  70
    32
  0
VERTEX
  8
01
  5
1C503
 10
4193.42
 20
945.844
 30
0.000000
  70
    32
  0
VERTEX
  8
01
  5
1C504
 10
4193.58
 20
945.841
 30
0.000000
  70
    32
  0
VERTEX
  8
01
  5
1C505
 10
4193.73
 20
945.836
 30
0.000000
  70
    32
  0
VERTEX
  8
01
  5
1C506
 10
4193.89
 20
945.830
 30
0.000000
  70
    32
  0
VERTEX
  8
01
  5
1C507
 10
4194.04
 20
945.823
 30
0.000000
  70
    32
  0
VERTEX
  8
01
  5
1C508
 10
4194.19
 20
945.815
 30
0.000000
  70
    32
  0
VERTEX
  8
01
  5
1C509
 10
4194.33
 20
945.806
 30
0.000000
  70
    32
  0
VERTEX
  8
01
  5
1C50A
 10
4194.47
 20
945.796
 30
0.000000
  70
    32
  0
VERTEX
  8
01
  5
1C50B
 10
4194.61
 20
945.785
 30
0.000000
  70
    32
  0
VERTEX
  8
01
  5
1C50C
 10
4194.75
 20
945.773
 30
0.000000
  70
    32
  0
VERTEX
  8
01
  5
1C50D
 10
4194.88
 20
945.761
 30
0.000000
  70
    32
  0
VERTEX
  8
01
  5
1C50E
 10
4195.00
 20
945.747
 30
0.000000
  70
    32
  0
VERTEX
  8
01
  5
1C50F
 10
4195.12
 20
945.733
 30
0.000000
  70
    32
  0
VERTEX
  8
01
  5
1C510
 10
4195.24
 20
945.717
 30
0.000000
  70
    32
  0
VERTEX
  8
01
  5
1C511
 10
4195.35
 20
945.702
 30
0.000000
  70
    32
  0
VERTEX
  8
01
  5
1C512
 10
4195.45
 20
945.685
 30
0.000000
  70
    32
  0
VERTEX
  8
01
  5
1C513
 10
4195.55
 20
945.667
 30
0.000000
  70
    32
  0
VERTEX
  8
01
  5
1C514
 10
4195.64
 20
945.649
 30
0.000000
  70
    32
  0
VERTEX
  8
01
  5
1C515
 10
4195.73
 20
945.631
 30
0.000000
  70
    32
  0
VERTEX
  8
01
  5
1C516
 10
4195.81
 20
945.611
 30
0.000000
  70
    32
  0
VERTEX
  8
01
  5
1C517
 10
4195.88
 20
945.592
 30
0.000000
  70
    32
  0
VERTEX
  8
01
  5
1C518
 10
4195.94
 20
945.572
 30
0.000000
  70
    32
  0
VERTEX
  8
01
  5
1C519
 10
4196.00
 20
945.551
 30
0.000000
  70
    32
  0
VERTEX
  8
01
  5
1C51A
 10
4196.05
 20
945.530
 30
0.000000
  70
    32
  0
VERTEX
  8
01
  5
1C51B
 10
4196.09
 20
945.509
 30
0.000000
  70
    32
  0
VERTEX
  8
01
  5
1C51C
 10
4196.13
 20
945.487
 30
0.000000
  70
    32
  0
VERTEX
  8
01
  5
1C51D
 10
4196.16
 20
945.465
 30
0.000000
  70
    32
  0
VERTEX
  8
01
  5
1C51E
 10
4196.18
 20
945.443
 30
0.000000
  70
    32
  0
VERTEX
  8
01
  5
1C51F
 10
4196.19
 20
945.421
 30
0.000000
  70
    32
  0
VERTEX
  8
01
  5
1C520
 10
4196.19
 20
945.399
 30
0.000000
  70
    32
  0
SEQEND
  8
01
  5
1C521
  0
LINE
  5
1BB2C
  8
01
 10
4390.4421814422667
 20
944.62930145803671
 30
0.0
 11
4439.5808292820166
 21
951.50871215582345
 31
-0.0000000000000559
  0
ARC
  5
1BB2D
  8
01
 10
4439.4421814374791
 20
952.49905390249739
 30
0.000000000003587
 40
1.0
 50
277.9696103945497
 51
0.0
  0
LINE
  5
1BB2E
  8
01
 10
4439.5613266581113
 20
960.73500403157334
 30
0.0
 11
4390.4421814437728
 21
966.62930145803705
 31
0.0
  0
LINE
  5
1BB2F
  8
01
 10
4440.4421814374782
 20
959.74212719308889
 30
0.0
 11
4440.4421814374791
 21
952.49905390249739
 31
0.0000000000000061
  0
ARC
  5
1BB30
  8
01
 10
4439.4421814374782
 20
959.74212719308889
 30
0.0
 40
1.0
 50
0.0
 51
83.157226586524104
  0
LINE
  5
1BB32
  8
01
 10
4390.4421814470797
 20
944.6293014580358
 30
0.0
 11
4390.4421814437728
 21
966.62930145803705
 31
0.0
  0
LINE
  5
1BB33
  8
01
 10
4395.9421814454272
 20
939.23604421960772
 30
0.0
 11
4395.9421814454272
 21
951.23604421960761
 31
0.0
  0
LINE
  5
1BB34
  8
01
 10
4332.4421814485868
 20
944.62930145803671
 30
0.0
 11
4283.3035336088369
 21
951.50871215582345
 31
-0.0000000000000559
  0
ARC
  5
1BB35
  8
01
 10
4283.4421814533753
 20
952.49905390249739
 30
0.000000000003587
 40
1.0
 50
180.0
 51
262.03038960545018
  0
LINE
  5
1BB36
  8
01
 10
4283.3230362327431
 20
960.73500403157334
 30
0.0
 11
4332.4421814470797
 21
966.62930145803705
 31
0.0
  0
LINE
  5
1BB37
  8
01
 10
4282.4421814533762
 20
959.74212719308889
 30
0.0
 11
4282.4421814533753
 21
952.49905390249739
 31
0.0000000000000061
  0
ARC
  5
1BB38
  8
01
 10
4283.4421814533762
 20
959.74212719308889
 30
0.0
 40
1.0
 50
96.842773413475882
 51
180.0
  0
LINE
  5
1BB39
  8
01
 10
4332.4421814437737
 20
944.6293014580358
 30
0.0
 11
4332.4421814470797
 21
966.62930145803705
 31
0.0
  0
LINE
  5
1BB3A
  8
01
 10
4326.9421814454272
 20
939.23604421960772
 30
0.0
 11
4326.9421814454272
 21
951.23604421960761
 31
0.0
  0
LINE
  5
1BB4C
  8
01
 10
4654.9422937851723
 20
1223.1293014504929
 30
-0.0000000000000568
 11
4654.9422937851723
 21
1245.1293014536509
 31
-0.0000000000000568
  0
LINE
  5
1BB4D
  8
01
 10
4518.9422937851723
 20
1196.12930145678
 30
0.0
 11
4518.9422937851723
 21
1245.1293014536491
 31
0.0
  0
ARC
  5
1BB4E
  8
01
 10
4519.9422937851714
 20
1245.1293014536491
 30
-0.0000000000000568
 40
1.0
 50
90.000000000000028
 51
180.0
  0
LINE
  5
1BB4F
  8
01
 10
4540.9422937851723
 20
1196.12930145678
 30
0.0
 11
4540.9422937851732
 21
1220.1293014504949
 31
0.0000000000000044
  0
LINE
  5
1BB50
  8
01
 10
4518.9422937851723
 20
1196.12930145678
 30
0.0
 11
4540.9422937851723
 21
1196.12930145678
 31
0.0
  0
LINE
  5
1BB51
  8
01
 10
4519.9422937851714
 20
1246.1293014536491
 30
-0.0000000000000568
 11
4653.9422937851723
 21
1246.12930145365
 31
-0.0000000000000568
  0
ARC
  5
1BB52
  8
01
 10
4653.9422937851723
 20
1245.1293014536509
 30
-0.0000000000000568
 40
1.0
 50
0.0
 51
90.000000000000028
  0
LINE
  5
1BB53
  8
01
 10
4653.9422937851723
 20
1222.1293014504929
 30
-0.0000000000000568
 11
4542.9422937851732
 21
1222.1293014504929
 31
-0.0000000000000558
  0
ARC
  5
1BB54
  8
01
 10
4653.9422937851723
 20
1223.1293014504929
 30
-0.000000000000042
 40
1.0
 50
270.0
 51
0.0
  0
ARC
  5
1BB55
  8
01
 10
4542.9422937851732
 20
1220.1293014504949
 30
0.0000000000136305
 40
2.0
 50
90.000000000000028
 51
180.0
  0
LINE
  5
1BB56
  8
01
 10
4538.9422937851723
 20
1196.12930145678
 30
0.0
 11
4538.9422937851714
 21
1220.86678968308
 31
0.0000000000000275
  0
LINE
  5
1BB57
  8
01
 10
4654.9422937851723
 20
1242.62930145365
 30
0.0
 11
4542.2215903531023
 21
1224.6522927135729
 31
0.0000000000000303
  0
ARC
  5
1BB58
  8
01
 10
4542.9422937851732
 20
1220.716682398383
 30
-0.000000000006261
 40
4.0
 50
99.061378582766238
 51
180.0
  0
LINE
  5
1BD72
  8
01
 10
4361.4421814454272
 20
990.42331783097677
 30
0.0
 11
4361.4421814454272
 21
1004.835285082581
 31
0.0
  0
LINE
  5
1BD73
  8
01
 10
4361.4421814454272
 20
816.42331783097677
 30
0.0
 11
4361.4421814454272
 21
830.83528508258121
 31
0.0
  0
LINE
  5
1BEC9
  8
01
 10
4555.9421774454268
 20
982.12930145677728
 30
0.0
 11
4503.9421774454304
 21
982.12930145677728
 31
0.0
  0
LINE
  5
1BECA
  8
01
 10
4503.9421774454304
 20
929.12930145677717
 30
0.0
 11
4555.9421774454277
 21
929.12930145677717
 31
0.0
  0
LINE
  5
1BECB
  8
01
 10
4503.4421774454286
 20
981.62930145677717
 30
0.0
 11
4503.4421774454286
 21
929.62930145677728
 31
0.0
  0
ARC
  5
1BECC
  8
01
 10
4503.9421774454304
 20
929.62930145677728
 30
0.0
 40
0.5
 50
180.0
 51
270.0
  0
ARC
  5
1BECD
  8
01
 10
4503.9421774454304
 20
981.62930145677717
 30
0.0
 40
0.5
 50
90.0
 51
180.0
  0
LINE
  5
1BECE
  8
01
 10
4556.4421774454258
 20
981.62930145677717
 30
0.0
 11
4556.4421774454268
 21
929.62930145677728
 31
0.0
  0
ARC
  5
1BECF
  8
01
 10
4555.9421774454277
 20
929.62930145677728
 30
0.0
 40
0.5
 50
270.0
 51
0.0
  0
ARC
  5
1BED0
  8
01
 10
4555.9421774454268
 20
981.62930145677717
 30
0.0
 40
0.5
 50
0.0
 51
90.0
  0
LINE
  5
1BED1
  8
01
 10
4503.4421774454286
 20
1147.1293014567791
 30
0.0
 11
4556.4421774454258
 21
1147.1293014567791
 31
0.0
  0
LINE
  5
1BED2
  8
01
 10
4503.9421774454304
 20
1138.6293014567791
 30
0.0
 11
4555.9421774454268
 21
1138.6293014567791
 31
0.0
  0
LINE
  5
1BED3
  8
01
 10
4556.4421774454258
 20
1147.1293014567791
 30
0.0
 11
4556.4421774454258
 21
1139.1293014567791
 31
0.0
  0
LINE
  5
1BED4
  8
01
 10
4503.4421774454286
 20
1147.1293014567791
 30
0.0
 11
4503.4421774454286
 21
1139.1293014567791
 31
0.0
  0
ARC
  5
1BED5
  8
01
 10
4503.9421774454304
 20
1139.1293014567791
 30
0.0
 40
0.5
 50
180.0
 51
270.0
  0
ARC
  5
1BED6
  8
01
 10
4555.9421774454268
 20
1139.1293014567791
 30
0.0
 40
0.5
 50
270.0
 51
0.0
  0
LINE
  5
1BED7
  8
01
 10
4381.4421814454272
 20
929.12930145678001
 30
0.0
 11
4381.4421814454272
 21
982.12930145677728
 31
0.0
  0
LINE
  5
1BED8
  8
01
 10
4389.9421814454272
 20
929.6293014567799
 30
0.0
 11
4389.9421814454272
 21
981.62930145677717
 31
0.0
  0
LINE
  5
1BED9
  8
01
 10
4381.4421814454272
 20
982.12930145677728
 30
0.0
 11
4389.4421814454272
 21
982.12930145677728
 31
0.0
  0
LINE
  5
1BEDA
  8
01
 10
4381.4421814454272
 20
929.12930145678001
 30
0.0
 11
4389.4421814454272
 21
929.12930145678001
 31
0.0
  0
ARC
  5
1BEDB
  8
01
 10
4389.4421814454272
 20
929.6293014567799
 30
0.0
 40
0.5
 50
270.0
 51
0.0
  0
ARC
  5
1BEDC
  8
01
 10
4389.4421814454272
 20
981.62930145677717
 30
0.0
 40
0.5
 50
0.0
 51
90.0
  0
LINE
  5
1BEF3
  8
01
 10
4503.4421774454286
 20
1187.12930145678
 30
0.0
 11
4556.4421774454258
 21
1187.12930145678
 31
0.0
  0
LINE
  5
1BEF4
  8
01
 10
4503.9421774454304
 20
1195.62930145678
 30
0.0
 11
4555.9421774454268
 21
1195.62930145678
 31
0.0
  0
LINE
  5
1BEF5
  8
01
 10
4556.4421774454258
 20
1187.12930145678
 30
0.0
 11
4556.4421774454258
 21
1195.12930145678
 31
0.0
  0
LINE
  5
1BEF6
  8
01
 10
4503.4421774454286
 20
1187.12930145678
 30
0.0
 11
4503.4421774454286
 21
1195.12930145678
 31
0.0
  0
ARC
  5
1BEF7
  8
01
 10
4503.9421774454304
 20
1195.12930145678
 30
0.0
 40
0.5
 50
90.000000000000028
 51
180.0
  0
ARC
  5
1BEF8
  8
01
 10
4555.9421774454268
 20
1195.12930145678
 30
0.0
 40
0.5
 50
0.0
 51
90.000000000000028
  0
LINE
  5
1BEFB
  8
01
 10
4341.4421814454272
 20
929.12930145678001
 30
0.0
 11
4341.4421814454272
 21
982.12930145677728
 31
0.0
  0
LINE
  5
1BEFC
  8
01
 10
4332.9421814454272
 20
929.6293014567799
 30
0.0
 11
4332.9421814454272
 21
981.62930145677717
 31
0.0
  0
LINE
  5
1BEFD
  8
01
 10
4341.4421814454272
 20
982.12930145677728
 30
0.0
 11
4333.4421814454272
 21
982.12930145677728
 31
0.0
  0
LINE
  5
1BEFE
  8
01
 10
4341.4421814454272
 20
929.12930145678001
 30
0.0
 11
4333.4421814454272
 21
929.12930145678001
 31
0.0
  0
ARC
  5
1BEFF
  8
01
 10
4333.4421814454272
 20
929.6293014567799
 30
0.0
 40
0.5
 50
180.0
 51
270.0
  0
ARC
  5
1BF00
  8
01
 10
4333.4421814454272
 20
981.62930145677717
 30
0.0
 40
0.5
 50
90.0
 51
180.0
  0
LINE
  5
1BF02
  8
01
 10
4166.9421854454267
 20
982.12930145677728
 30
0.0
 11
4218.9421854454249
 21
982.12930145677728
 31
0.0
  0
LINE
  5
1BF03
  8
01
 10
4218.9421854454249
 20
929.12930145677717
 30
0.0
 11
4166.9421854454267
 21
929.12930145677717
 31
0.0
  0
LINE
  5
1BF04
  8
01
 10
4219.4421854454249
 20
981.62930145677717
 30
0.0
 11
4219.4421854454249
 21
929.62930145677728
 31
0.0
  0
ARC
  5
1BF05
  8
01
 10
4218.9421854454249
 20
929.62930145677728
 30
0.0
 40
0.5
 50
270.0
 51
0.000000000000007
  0
ARC
  5
1BF06
  8
01
 10
4218.9421854454249
 20
981.62930145677717
 30
0.0
 40
0.5
 50
0.000000000000007
 51
90.0
  0
LINE
  5
1BF07
  8
01
 10
4166.4421854454267
 20
981.62930145677717
 30
0.0
 11
4166.4421854454258
 21
929.62930145677728
 31
0.0
  0
ARC
  5
1BF08
  8
01
 10
4166.9421854454267
 20
929.62930145677728
 30
0.0
 40
0.5
 50
180.0
 51
270.0
  0
ARC
  5
1BF09
  8
01
 10
4166.9421854454267
 20
981.62930145677717
 30
0.0
 40
0.5
 50
90.0
 51
180.0
  0
LINE
  5
1C00D
  8
01
 10
4503.9421774454304
 20
982.12930145677728
 30
0.0
 11
4493.6421774454266
 21
982.12930145677728
 31
0.0
  0
LINE
  5
1C00E
  8
01
 10
4503.9421774454304
 20
929.12930145677717
 30
0.0
 11
4493.6421774454266
 21
929.12930145677717
 31
0.0
  0
LINE
  5
1C00F
  8
01
 10
4494.9421774454277
 20
979.52930145677726
 30
0.0
 11
4494.9421774454277
 21
931.72930145677731
 31
0.0
  0
LINE
  5
1C013
  8
01
 10
4518.9422937851723
 20
1089.1293014599109
 30
0.0
 11
4518.9422937851723
 21
1061.8293014599101
 31
0.0
  0
LINE
  5
1C014
  8
01
 10
4654.9422937851714
 20
1088.12930145991
 30
0.0
 11
4654.9422937851714
 21
1061.8293014599101
 31
0.0
  0
LINE
  5
1C015
  8
01
 10
4521.5422937851718
 20
1063.1293014599109
 30
0.0
 11
4652.342293785171
 21
1063.1293014599109
 31
0.0
  0
LINE
  5
1C019
  8
01
 10
4529.9422937851723
 20
1125.6293014567791
 30
0.0
 11
4529.9422937851723
 21
1071.829301459911
 31
0.0
  0
LINE
  5
1C01A
  8
01
 10
4654.9422937851714
 20
1088.12930145991
 30
0.0
 11
4654.9422937851714
 21
1071.829301459911
 31
0.0
  0
LINE
  5
1C01B
  8
01
 10
4532.5422937851718
 20
1073.1293014599109
 30
0.0
 11
4652.342293785171
 21
1073.1293014599109
 31
0.0
  0
LINE
  5
1C01F
  8
01
 10
4632.6974417825204
 20
1147.1293014567791
 30
0.0
 11
4681.2422937851707
 21
1147.1293014567791
 31
0.0
  0
LINE
  5
1C020
  8
01
 10
4654.9422937851714
 20
1088.12930145991
 30
0.0
 11
4681.2422937851707
 21
1088.12930145991
 31
0.0
  0
LINE
  5
1C021
  8
01
 10
4679.9422937851714
 20
1144.529301456779
 30
0.0
 11
4679.9422937851714
 21
1090.7293014599099
 31
0.0
  0
LINE
  5
1C025
  8
01
 10
4632.6974417825204
 20
1147.1293014567791
 30
0.0
 11
4671.2422937851716
 21
1147.1293014567791
 31
0.0
  0
LINE
  5
1C026
  8
01
 10
4653.9422937851723
 20
1112.129301463066
 30
0.0
 11
4671.2422937851716
 21
1112.129301463066
 31
0.0
  0
LINE
  5
1C027
  8
01
 10
4669.9422937851723
 20
1144.529301456779
 30
0.0
 11
4669.9422937851723
 21
1114.7293014630659
 31
0.0
  0
LINE
  5
1C02B
  8
01
 10
4555.4430616274876
 20
1174.229301456779
 30
0.0
 11
4570.8387757418714
 21
1174.229301456779
 31
0.0
  0
LINE
  5
1C02C
  8
01
 10
4555.4430616274876
 20
1160.0293014567801
 30
0.0
 11
4570.8387757418714
 21
1160.0293014567801
 31
0.0
  0
LINE
  5
1C02D
  8
01
 10
4569.5387757418712
 20
1171.62930145678
 30
0.0
 11
4569.5387757418712
 21
1162.62930145678
 31
0.0
  0
LINE
  5
1C02E
  8
01
 10
4569.5387757418712
 20
1160.0293014567801
 30
0.0
 11
4569.5387757418712
 21
1129.8109953802059
 31
0.0
  0
LINE
  5
1C032
  8
01
 10
4361.4421814454272
 20
1008.629301456779
 30
0.0
 11
4422.7421814454274
 21
1008.629301456779
 31
0.0
  0
LINE
  5
1C033
  8
01
 10
4361.4421814454272
 20
812.62930145677819
 30
0.0
 11
4422.7421814454274
 21
812.62930145677819
 31
0.0
  0
LINE
  5
1C034
  8
01
 10
4421.4421814454272
 20
1006.029301456779
 30
0.0
 11
4421.4421814454272
 21
815.2293014567781
 31
0.0
  0
LINE
  5
1C038
  8
01
 10
4367.9421814454272
 20
997.62930145677899
 30
0.0
 11
4407.2457724819842
 21
997.62930145677899
 31
0.0
  0
LINE
  5
1C039
  8
01
 10
4368.847311700667
 20
823.62930145677808
 30
0.0
 11
4407.2457724819842
 21
823.62930145677808
 31
0.0
  0
LINE
  5
1C03A
  8
01
 10
4405.945772481984
 20
995.02930145677897
 30
0.0
 11
4405.945772481984
 21
826.22930145677833
 31
0.0
  0
LINE
  5
1C03E
  8
01
 10
4352.4421814454272
 20
999.6293014567791
 30
0.0
 11
4352.4421814454272
 21
1025.9293014567791
 31
0.0
  0
LINE
  5
1C03F
  8
01
 10
4370.4421814454272
 20
999.6293014567791
 30
0.0
 11
4370.4421814454272
 21
1025.9293014567791
 31
0.0
  0
LINE
  5
1C040
  8
01
 10
4355.0421814454266
 20
1024.6293014567791
 30
0.0
 11
4367.8421814454268
 21
1024.6293014567791
 31
0.0
  0
LINE
  5
1C044
  8
01
 10
4478.9421774454277
 20
1008.629301456779
 30
0.0
 11
4478.9421774454277
 21
1025.9293014567791
 31
0.0
  0
LINE
  5
1C045
  8
01
 10
4529.9421774454277
 20
985.6293014567791
 30
0.0
 11
4529.9421774454277
 21
1025.9293014567791
 31
0.0
  0
LINE
  5
1C046
  8
01
 10
4481.542177445428
 20
1024.6293014567791
 30
0.0
 11
4527.3421774454273
 21
1024.6293014567791
 31
0.0
  0
LINE
  5
1C04A
  8
01
 10
4555.4421774454268
 20
976.6293014567791
 30
0.0
 11
4555.4421774454268
 21
1035.9293014567791
 31
0.0
  0
LINE
  5
1C04B
  8
01
 10
4478.9421774454277
 20
1008.629301456779
 30
0.0
 11
4478.9421774454277
 21
1035.9293014567791
 31
0.0
  0
LINE
  5
1C04C
  8
01
 10
4552.8421774454273
 20
1034.6293014567791
 30
0.0
 11
4481.542177445428
 21
1034.6293014567791
 31
0.0
  0
LINE
  5
1C050
  8
01
 10
4467.5685281809538
 20
920.6293014567791
 30
0.0
 11
4467.5685281809538
 21
1025.9293014567791
 31
0.0
  0
LINE
  5
1C051
  8
01
 10
4478.9421774454277
 20
1008.629301456779
 30
0.0
 11
4478.9421774454277
 21
1025.9293014567791
 31
0.0
  0
LINE
  5
1C052
  8
01
 10
4476.3421774454273
 20
1024.6293014567791
 30
0.0
 11
4470.168528180955
 21
1024.6293014567791
 31
0.0
  0
LINE
  5
1C053
  8
01
 10
4467.5685281809538
 20
1024.6293014567791
 30
0.0
 11
4457.7318615142876
 21
1024.6293014567791
 31
0.0
  0
LINE
  5
1C057
  8
01
 10
4555.4421774454268
 20
976.6293014567791
 30
0.0
 11
4583.7421774454278
 21
976.6293014567791
 31
0.0
  0
LINE
  5
1C058
  8
01
 10
4555.4421774454268
 20
844.6293014567791
 30
0.0
 11
4583.7421774454278
 21
844.6293014567791
 31
0.0
  0
LINE
  5
1C059
  8
01
 10
4582.4421774454277
 20
974.02930145677908
 30
0.0
 11
4582.4421774454277
 21
847.22930145677913
 31
0.0
  0
TEXT
  5
1C05D
  8
01
 10
4581.5321774454269
 20
903.80430145677985
 30
0.0
 40
4.5499999999999989
  1
132
 50
90.0
  0
LINE
  5
1C05E
  8
01
  6
BYBLOCK
 10
4583.1388453394266
 20
847.22930145677913
 30
0.0
 11
4582.4421774454277
 21
844.6293014567791
 31
0.0
  0
LINE
  5
1C05F
  8
01
  6
BYBLOCK
 10
4582.4421774454277
 20
844.6293014567791
 30
0.0
 11
4581.7455095514269
 21
847.22930145677913
 31
0.0
  0
LINE
  5
1C060
  8
01
  6
BYBLOCK
 10
4582.4421774454277
 20
844.6293014567791
 30
0.0
 11
4582.4421774454277
 21
847.22930145677913
 31
0.0
  0
LINE
  5
1C061
  8
01
  6
BYBLOCK
 10
4581.7455095514269
 20
974.02930145677908
 30
0.0
 11
4582.4421774454277
 21
976.6293014567791
 31
0.0
  0
LINE
  5
1C062
  8
01
  6
BYBLOCK
 10
4582.4421774454277
 20
976.6293014567791
 30
0.0
 11
4583.1388453394266
 21
974.02930145677908
 31
0.0
  0
LINE
  5
1C063
  8
01
  6
BYBLOCK
 10
4582.4421774454277
 20
976.6293014567791
 30
0.0
 11
4582.4421774454277
 21
974.02930145677908
 31
0.0
  0
TEXT
  5
1C064
  8
01
 10
4457.3418615142882
 20
1025.539301456779
 30
0.0
 40
4.5499999999999989
  1
11
  0
LINE
  5
1C065
  8
01
  6
BYBLOCK
 10
4470.168528180955
 20
1023.932633562779
 30
0.0
 11
4467.5685281809538
 21
1024.6293014567791
 31
0.0
  0
LINE
  5
1C066
  8
01
  6
BYBLOCK
 10
4467.5685281809538
 20
1024.6293014567791
 30
0.0
 11
4470.168528180955
 21
1025.3259693507789
 31
0.0
  0
LINE
  5
1C067
  8
01
  6
BYBLOCK
 10
4467.5685281809538
 20
1024.6293014567791
 30
0.0
 11
4470.168528180955
 21
1024.6293014567791
 31
0.0
  0
LINE
  5
1C068
  8
01
  6
BYBLOCK
 10
4476.3421774454273
 20
1025.3259693507789
 30
0.0
 11
4478.9421774454277
 21
1024.6293014567791
 31
0.0
  0
LINE
  5
1C069
  8
01
  6
BYBLOCK
 10
4478.9421774454277
 20
1024.6293014567791
 30
0.0
 11
4476.3421774454273
 21
1023.932633562779
 31
0.0
  0
LINE
  5
1C06A
  8
01
  6
BYBLOCK
 10
4478.9421774454277
 20
1024.6293014567791
 30
0.0
 11
4476.3421774454273
 21
1024.6293014567791
 31
0.0
  0
TEXT
  5
1C06B
  8
01
 10
4509.6088441120937
 20
1035.539301456779
 30
0.0
 40
4.5499999999999989
  1
76.5
  0
LINE
  5
1C06C
  8
01
  6
BYBLOCK
 10
4481.542177445428
 20
1033.9326335627791
 30
0.0
 11
4478.9421774454277
 21
1034.6293014567791
 31
0.0
  0
LINE
  5
1C06D
  8
01
  6
BYBLOCK
 10
4478.9421774454277
 20
1034.6293014567791
 30
0.0
 11
4481.542177445428
 21
1035.3259693507789
 31
0.0
  0
LINE
  5
1C06E
  8
01
  6
BYBLOCK
 10
4478.9421774454277
 20
1034.6293014567791
 30
0.0
 11
4481.542177445428
 21
1034.6293014567791
 31
0.0
  0
LINE
  5
1C06F
  8
01
  6
BYBLOCK
 10
4552.8421774454273
 20
1035.3259693507789
 30
0.0
 11
4555.4421774454268
 21
1034.6293014567791
 31
0.0
  0
LINE
  5
1C070
  8
01
  6
BYBLOCK
 10
4555.4421774454268
 20
1034.6293014567791
 30
0.0
 11
4552.8421774454273
 21
1033.9326335627791
 31
0.0
  0
LINE
  5
1C071
  8
01
  6
BYBLOCK
 10
4555.4421774454268
 20
1034.6293014567791
 30
0.0
 11
4552.8421774454273
 21
1034.6293014567791
 31
0.0
  0
TEXT
  5
1C072
  8
01
 10
4500.7588441120943
 20
1025.539301456779
 30
0.0
 40
4.5499999999999989
  1
51
  0
LINE
  5
1C073
  8
01
  6
BYBLOCK
 10
4527.3421774454273
 20
1025.3259693507789
 30
0.0
 11
4529.9421774454277
 21
1024.6293014567791
 31
0.0
  0
LINE
  5
1C074
  8
01
  6
BYBLOCK
 10
4529.9421774454277
 20
1024.6293014567791
 30
0.0
 11
4527.3421774454273
 21
1023.932633562779
 31
0.0
  0
LINE
  5
1C075
  8
01
  6
BYBLOCK
 10
4529.9421774454277
 20
1024.6293014567791
 30
0.0
 11
4527.3421774454273
 21
1024.6293014567791
 31
0.0
  0
LINE
  5
1C076
  8
01
  6
BYBLOCK
 10
4481.542177445428
 20
1023.932633562779
 30
0.0
 11
4478.9421774454277
 21
1024.6293014567791
 31
0.0
  0
LINE
  5
1C077
  8
01
  6
BYBLOCK
 10
4478.9421774454277
 20
1024.6293014567791
 30
0.0
 11
4481.542177445428
 21
1025.3259693507789
 31
0.0
  0
LINE
  5
1C078
  8
01
  6
BYBLOCK
 10
4478.9421774454277
 20
1024.6293014567791
 30
0.0
 11
4481.542177445428
 21
1024.6293014567791
 31
0.0
  0
TEXT
  5
1C079
  8
01
 10
4356.7838481120934
 20
1025.539301456779
 30
0.0
 40
4.5499999999999989
  1
18
  0
LINE
  5
1C07A
  8
01
  6
BYBLOCK
 10
4367.8421814454268
 20
1025.3259693507789
 30
0.0
 11
4370.4421814454272
 21
1024.6293014567791
 31
0.0
  0
LINE
  5
1C07B
  8
01
  6
BYBLOCK
 10
4370.4421814454272
 20
1024.6293014567791
 30
0.0
 11
4367.8421814454268
 21
1023.932633562779
 31
0.0
  0
LINE
  5
1C07C
  8
01
  6
BYBLOCK
 10
4370.4421814454272
 20
1024.6293014567791
 30
0.0
 11
4367.8421814454268
 21
1024.6293014567791
 31
0.0
  0
LINE
  5
1C07D
  8
01
  6
BYBLOCK
 10
4355.0421814454266
 20
1023.932633562779
 30
0.0
 11
4352.4421814454272
 21
1024.6293014567791
 31
0.0
  0
LINE
  5
1C07E
  8
01
  6
BYBLOCK
 10
4352.4421814454272
 20
1024.6293014567791
 30
0.0
 11
4355.0421814454266
 21
1025.3259693507789
 31
0.0
  0
LINE
  5
1C07F
  8
01
  6
BYBLOCK
 10
4352.4421814454272
 20
1024.6293014567791
 30
0.0
 11
4355.0421814454266
 21
1024.6293014567791
 31
0.0
  0
TEXT
  5
1C080
  8
01
 10
4405.0357724819833
 20
905.4996948343852
 30
0.0
 40
4.5499999999999989
  1
174
 50
90.0
  0
LINE
  5
1C081
  8
01
  6
BYBLOCK
 10
4406.6424403759838
 20
826.22930145677833
 30
0.0
 11
4405.945772481984
 21
823.62930145677808
 31
0.0
  0
LINE
  5
1C082
  8
01
  6
BYBLOCK
 10
4405.945772481984
 20
823.62930145677808
 30
0.0
 11
4405.2491045879842
 21
826.22930145677833
 31
0.0
  0
LINE
  5
1C083
  8
01
  6
BYBLOCK
 10
4405.945772481984
 20
823.62930145677808
 30
0.0
 11
4405.945772481984
 21
826.22930145677833
 31
0.0
  0
LINE
  5
1C084
  8
01
  6
BYBLOCK
 10
4405.2491045879842
 20
995.02930145677897
 30
0.0
 11
4405.945772481984
 21
997.62930145677899
 31
0.0
  0
LINE
  5
1C085
  8
01
  6
BYBLOCK
 10
4405.945772481984
 20
997.62930145677899
 30
0.0
 11
4406.6424403759838
 21
995.02930145677897
 31
0.0
  0
LINE
  5
1C086
  8
01
  6
BYBLOCK
 10
4405.945772481984
 20
997.62930145677899
 30
0.0
 11
4405.945772481984
 21
995.02930145677897
 31
0.0
  0
TEXT
  5
1C087
  8
01
 10
4420.5321814454273
 20
904.65729593430285
 30
0.0
 40
4.5499999999999989
  1
196
 50
90.0
  0
LINE
  5
1C088
  8
01
  6
BYBLOCK
 10
4422.138849339427
 20
815.2293014567781
 30
0.0
 11
4421.4421814454272
 21
812.62930145677819
 31
0.0
  0
LINE
  5
1C089
  8
01
  6
BYBLOCK
 10
4421.4421814454272
 20
812.62930145677819
 30
0.0
 11
4420.7455135514274
 21
815.2293014567781
 31
0.0
  0
LINE
  5
1C08A
  8
01
  6
BYBLOCK
 10
4421.4421814454272
 20
812.62930145677819
 30
0.0
 11
4421.4421814454272
 21
815.2293014567781
 31
0.0
  0
LINE
  5
1C08B
  8
01
  6
BYBLOCK
 10
4420.7455135514274
 20
1006.029301456779
 30
0.0
 11
4421.4421814454272
 21
1008.629301456779
 31
0.0
  0
LINE
  5
1C08C
  8
01
  6
BYBLOCK
 10
4421.4421814454272
 20
1008.629301456779
 30
0.0
 11
4422.138849339427
 21
1006.029301456779
 31
0.0
  0
LINE
  5
1C08D
  8
01
  6
BYBLOCK
 10
4421.4421814454272
 20
1008.629301456779
 30
0.0
 11
4421.4421814454272
 21
1006.029301456779
 31
0.0
  0
TEXT
  5
1C08E
  8
01
 10
4568.6287757418713
 20
1129.4209953802069
 30
0.0
 40
4.5499999999999989
  1
14.2
 50
90.0
  0
LINE
  5
1C08F
  8
01
  6
BYBLOCK
 10
4570.235443635871
 20
1162.62930145678
 30
0.0
 11
4569.5387757418712
 21
1160.0293014567801
 31
0.0
  0
LINE
  5
1C090
  8
01
  6
BYBLOCK
 10
4569.5387757418712
 20
1160.0293014567801
 30
0.0
 11
4568.8421078478714
 21
1162.62930145678
 31
0.0
  0
LINE
  5
1C091
  8
01
  6
BYBLOCK
 10
4569.5387757418712
 20
1160.0293014567801
 30
0.0
 11
4569.5387757418712
 21
1162.62930145678
 31
0.0
  0
LINE
  5
1C092
  8
01
  6
BYBLOCK
 10
4568.8421078478714
 20
1171.62930145678
 30
0.0
 11
4569.5387757418712
 21
1174.229301456779
 31
0.0
  0
LINE
  5
1C093
  8
01
  6
BYBLOCK
 10
4569.5387757418712
 20
1174.229301456779
 30
0.0
 11
4570.235443635871
 21
1171.62930145678
 31
0.0
  0
LINE
  5
1C094
  8
01
  6
BYBLOCK
 10
4569.5387757418712
 20
1174.229301456779
 30
0.0
 11
4569.5387757418712
 21
1171.62930145678
 31
0.0
  0
TEXT
  5
1C095
  8
01
 10
4669.0322937851706
 20
1125.29596812659
 30
0.0
 40
4.5499999999999989
  1
35
 50
90.0
  0
LINE
  5
1C096
  8
01
  6
BYBLOCK
 10
4670.6389616791712
 20
1114.7293014630659
 30
0.0
 11
4669.9422937851723
 21
1112.129301463066
 31
0.0
  0
LINE
  5
1C097
  8
01
  6
BYBLOCK
 10
4669.9422937851723
 20
1112.129301463066
 30
0.0
 11
4669.2456258911707
 21
1114.7293014630659
 31
0.0
  0
LINE
  5
1C098
  8
01
  6
BYBLOCK
 10
4669.9422937851723
 20
1112.129301463066
 30
0.0
 11
4669.9422937851723
 21
1114.7293014630659
 31
0.0
  0
LINE
  5
1C099
  8
01
  6
BYBLOCK
 10
4669.2456258911707
 20
1144.529301456779
 30
0.0
 11
4669.9422937851723
 21
1147.1293014567791
 31
0.0
  0
LINE
  5
1C09A
  8
01
  6
BYBLOCK
 10
4669.9422937851723
 20
1147.1293014567791
 30
0.0
 11
4670.6389616791712
 21
1144.529301456779
 31
0.0
  0
LINE
  5
1C09B
  8
01
  6
BYBLOCK
 10
4669.9422937851723
 20
1147.1293014567791
 30
0.0
 11
4669.9422937851723
 21
1144.529301456779
 31
0.0
  0
TEXT
  5
1C09C
  8
01
 10
4679.0322937851724
 20
1113.404301458346
 30
0.0
 40
4.5499999999999989
  1
59
 50
90.0
  0
LINE
  5
1C09D
  8
01
  6
BYBLOCK
 10
4680.6389616791712
 20
1090.7293014599099
 30
0.0
 11
4679.9422937851714
 21
1088.12930145991
 31
0.0
  0
LINE
  5
1C09E
  8
01
  6
BYBLOCK
 10
4679.9422937851714
 20
1088.12930145991
 30
0.0
 11
4679.2456258911716
 21
1090.7293014599099
 31
0.0
  0
LINE
  5
1C09F
  8
01
  6
BYBLOCK
 10
4679.9422937851714
 20
1088.12930145991
 30
0.0
 11
4679.9422937851714
 21
1090.7293014599099
 31
0.0
  0
LINE
  5
1C0A0
  8
01
  6
BYBLOCK
 10
4679.2456258911716
 20
1144.529301456779
 30
0.0
 11
4679.9422937851714
 21
1147.1293014567791
 31
0.0
  0
LINE
  5
1C0A1
  8
01
  6
BYBLOCK
 10
4679.9422937851714
 20
1147.1293014567791
 30
0.0
 11
4680.6389616791712
 21
1144.529301456779
 31
0.0
  0
LINE
  5
1C0A2
  8
01
  6
BYBLOCK
 10
4679.9422937851714
 20
1147.1293014567791
 30
0.0
 11
4679.9422937851714
 21
1144.529301456779
 31
0.0
  0
TEXT
  5
1C0A3
  8
01
 10
4585.6172937851716
 20
1074.039301459911
 30
0.0
 40
4.5499999999999989
  1
125
  0
LINE
  5
1C0A4
  8
01
  6
BYBLOCK
 10
4652.342293785171
 20
1073.825969353911
 30
0.0
 11
4654.9422937851714
 21
1073.1293014599109
 31
0.0
  0
LINE
  5
1C0A5
  8
01
  6
BYBLOCK
 10
4654.9422937851714
 20
1073.1293014599109
 30
0.0
 11
4652.342293785171
 21
1072.43263356591
 31
0.0
  0
LINE
  5
1C0A6
  8
01
  6
BYBLOCK
 10
4654.9422937851714
 20
1073.1293014599109
 30
0.0
 11
4652.342293785171
 21
1073.1293014599109
 31
0.0
  0
LINE
  5
1C0A7
  8
01
  6
BYBLOCK
 10
4532.5422937851718
 20
1072.43263356591
 30
0.0
 11
4529.9422937851723
 21
1073.1293014599109
 31
0.0
  0
LINE
  5
1C0A8
  8
01
  6
BYBLOCK
 10
4529.9422937851723
 20
1073.1293014599109
 30
0.0
 11
4532.5422937851718
 21
1073.825969353911
 31
0.0
  0
LINE
  5
1C0A9
  8
01
  6
BYBLOCK
 10
4529.9422937851723
 20
1073.1293014599109
 30
0.0
 11
4532.5422937851718
 21
1073.1293014599109
 31
0.0
  0
TEXT
  5
1C0AA
  8
01
 10
4580.1172937851707
 20
1064.039301459911
 30
0.0
 40
4.5499999999999989
  1
136
  0
LINE
  5
1C0AB
  8
01
  6
BYBLOCK
 10
4652.342293785171
 20
1063.825969353911
 30
0.0
 11
4654.9422937851714
 21
1063.1293014599109
 31
0.0
  0
LINE
  5
1C0AC
  8
01
  6
BYBLOCK
 10
4654.9422937851714
 20
1063.1293014599109
 30
0.0
 11
4652.342293785171
 21
1062.4326335659109
 31
0.0
  0
LINE
  5
1C0AD
  8
01
  6
BYBLOCK
 10
4654.9422937851714
 20
1063.1293014599109
 30
0.0
 11
4652.342293785171
 21
1063.1293014599109
 31
0.0
  0
LINE
  5
1C0AE
  8
01
  6
BYBLOCK
 10
4521.5422937851718
 20
1062.4326335659109
 30
0.0
 11
4518.9422937851723
 21
1063.1293014599109
 31
0.0
  0
LINE
  5
1C0AF
  8
01
  6
BYBLOCK
 10
4518.9422937851723
 20
1063.1293014599109
 30
0.0
 11
4521.5422937851718
 21
1063.825969353911
 31
0.0
  0
LINE
  5
1C0B0
  8
01
  6
BYBLOCK
 10
4518.9422937851723
 20
1063.1293014599109
 30
0.0
 11
4521.5422937851718
 21
1063.1293014599109
 31
0.0
  0
TEXT
  5
1C0B1
  8
01
 10
4494.0321774454269
 20
947.24788882795781
 30
0.0
 40
4.5499999999999989
  1
□53
 50
90.0
  0
LINE
  5
1C0B2
  8
01
  6
BYBLOCK
 10
4495.6388453394266
 20
931.72930145677731
 30
0.0
 11
4494.9421774454277
 21
929.12930145677717
 31
0.0
  0
LINE
  5
1C0B3
  8
01
  6
BYBLOCK
 10
4494.9421774454277
 20
929.12930145677717
 30
0.0
 11
4494.2455095514269
 21
931.72930145677731
 31
0.0
  0
LINE
  5
1C0B4
  8
01
  6
BYBLOCK
 10
4494.9421774454277
 20
929.12930145677717
 30
0.0
 11
4494.9421774454277
 21
931.72930145677731
 31
0.0
  0
LINE
  5
1C0B5
  8
01
  6
BYBLOCK
 10
4494.2455095514269
 20
979.52930145677726
 30
0.0
 11
4494.9421774454277
 21
982.12930145677728
 31
0.0
  0
LINE
  5
1C0B6
  8
01
  6
BYBLOCK
 10
4494.9421774454277
 20
982.12930145677728
 30
0.0
 11
4495.6388453394266
 21
979.52930145677726
 31
0.0
  0
LINE
  5
1C0B7
  8
01
  6
BYBLOCK
 10
4494.9421774454277
 20
982.12930145677728
 30
0.0
 11
4494.9421774454277
 21
979.52930145677726
 31
0.0
  0
VIEWPORT
  5
57
 67
     1
  8
0
 10
-12.71820606546885
 20
10.09248672500371
 30
0.0
 40
422.13063831291117
 41
282.79017097599461
 68
     1
 69
     1
1001
ACAD
1000
MVIEW
1002
{
1070
    16
1010
0.0
1020
0.0
1030
0.0
1010
0.0
1020
0.0
1030
1.0
1040
0.0
1040
282.79017097599461
1040
-12.71820606546885
1040
10.09248672500371
1040
50.0
1040
0.0
1040
0.0
1070
     0
1070
   100
1070
     1
1070
     1
1070
     0
1070
     0
1070
     0
1070
     0
1040
0.0
1040
0.0
1040
0.0
1040
10.0
1040
10.0
1040
10.0
1040
10.0
1070
     0
1002
{
1002
}
1002
}
  0
ENDSEC
  0
EOF
