  0
SECTION
  2
HEADER
  9
$ACADVER
  1
AC1009
  9
$INSBASE
 10
0.0
 20
0.0
 30
0.0
  9
$EXTMIN
 10
544.18767216632466
 20
-718.07002159774402
 30
0.0
  9
$EXTMAX
 10
1150.487781506069
 20
-308.73408159877272
 30
0.0
  9
$LIMMIN
 10
0.0
 20
0.0
  9
$LIMMAX
 10
420.0
 20
297.0
  9
$ORTHOMODE
 70
     0
  9
$REGENMODE
 70
     1
  9
$FILLMODE
 70
     1
  9
$QTEXTMODE
 70
     0
  9
$MIRRTEXT
 70
     0
  9
$DRAGMODE
 70
     2
  9
$LTSCALE
 40
0.5
  9
$OSMODE
 70
  2175
  9
$ATTMODE
 70
     1
  9
$TEXTSIZE
 40
4.0
  9
$TRACEWID
 40
1.0
  9
$TEXTSTYLE
  7
STANDARD
  9
$CLAYER
  8
1TEXT
  9
$CELTYPE
  6
BYLAYER
  9
$CECOLOR
 62
   256
  9
$DIMSCALE
 40
1.0
  9
$DIMASZ
 40
2.0
  9
$DIMEXO
 40
0.0
  9
$DIMDLI
 40
7.0
  9
$DIMRND
 40
0.0
  9
$DIMDLE
 40
0.0
  9
$DIMEXE
 40
1.0
  9
$DIMTP
 40
0.0
  9
$DIMTM
 40
0.0
  9
$DIMTXT
 40
3.5
  9
$DIMCEN
 40
0.0
  9
$DIMTSZ
 40
0.0
  9
$DIMTOL
 70
     0
  9
$DIMLIM
 70
     0
  9
$DIMTIH
 70
     0
  9
$DIMTOH
 70
     0
  9
$DIMSE1
 70
     0
  9
$DIMSE2
 70
     0
  9
$DIMTAD
 70
     1
  9
$DIMZIN
 70
     8
  9
$DIMBLK
  1

  9
$DIMASO
 70
     1
  9
$DIMSHO
 70
     1
  9
$DIMPOST
  1
 
  9
$DIMAPOST
  1

  9
$DIMALT
 70
     0
  9
$DIMALTD
 70
     2
  9
$DIMALTF
 40
25.399999999999999
  9
$DIMLFAC
 40
1.0
  9
$DIMTOFL
 70
     1
  9
$DIMTVP
 40
0.0
  9
$DIMTIX
 70
     0
  9
$DIMSOXD
 70
     0
  9
$DIMSAH
 70
     1
  9
$DIMBLK1
  1
OPEN30
  9
$DIMBLK2
  1
OPEN30
  9
$DIMSTYLE
  2
NEWX10
  9
$DIMCLRD
 70
   256
  9
$DIMCLRE
 70
   256
  9
$DIMCLRT
 70
   201
  9
$DIMTFAC
 40
0.7
  9
$DIMGAP
 40
0.7
  9
$LUNITS
 70
     2
  9
$LUPREC
 70
     4
  9
$SKETCHINC
 40
1.0
  9
$FILLETRAD
 40
0.5
  9
$AUNITS
 70
     0
  9
$AUPREC
 70
     2
  9
$MENU
  1
acad
  9
$ELEVATION
 40
0.0
  9
$PELEVATION
 40
0.0
  9
$THICKNESS
 40
0.0
  9
$LIMCHECK
 70
     0
  9
$BLIPMODE
 70
     0
  9
$CHAMFERA
 40
10.0
  9
$CHAMFERB
 40
10.0
  9
$SKPOLY
 70
     0
  9
$TDCREATE
 40
2451318.621352917
  9
$TDUPDATE
 40
2456015.8054960528
  9
$TDINDWG
 40
0.4702342824
  9
$TDUSRTIMER
 40
0.4702342824
  9
$USRTIMER
 70
     1
  9
$ANGBASE
 50
0.0
  9
$ANGDIR
 70
     0
  9
$PDMODE
 70
     0
  9
$PDSIZE
 40
0.0
  9
$PLINEWID
 40
0.0
  9
$COORDS
 70
     2
  9
$SPLFRAME
 70
     0
  9
$SPLINETYPE
 70
     6
  9
$SPLINESEGS
 70
     8
  9
$ATTDIA
 70
     0
  9
$ATTREQ
 70
     1
  9
$HANDLING
 70
     1
  9
$HANDSEED
  5
DE30
  9
$SURFTAB1
 70
     6
  9
$SURFTAB2
 70
     6
  9
$SURFTYPE
 70
     6
  9
$SURFU
 70
     6
  9
$SURFV
 70
     6
  9
$UCSNAME
  2

  9
$UCSORG
 10
0.0
 20
0.0
 30
0.0
  9
$UCSXDIR
 10
1.0
 20
0.0
 30
0.0
  9
$UCSYDIR
 10
0.0
 20
1.0
 30
0.0
  9
$PUCSNAME
  2

  9
$PUCSORG
 10
0.0
 20
0.0
 30
0.0
  9
$PUCSXDIR
 10
1.0
 20
0.0
 30
0.0
  9
$PUCSYDIR
 10
0.0
 20
1.0
 30
0.0
  9
$USERI1
 70
     0
  9
$USERI2
 70
     0
  9
$USERI3
 70
     0
  9
$USERI4
 70
     0
  9
$USERI5
 70
     0
  9
$USERR1
 40
0.0
  9
$USERR2
 40
0.0
  9
$USERR3
 40
0.0
  9
$USERR4
 40
0.0
  9
$USERR5
 40
0.0
  9
$WORLDVIEW
 70
     1
  9
$SHADEDGE
 70
     3
  9
$SHADEDIF
 70
    70
  9
$TILEMODE
 70
     1
  9
$MAXACTVP
 70
    48
  9
$PLIMCHECK
 70
     0
  9
$PEXTMIN
 10
1.0000000000000000E+020
 20
1.0000000000000000E+020
 30
1.0000000000000000E+020
  9
$PEXTMAX
 10
-1.0000000000000000E+020
 20
-1.0000000000000000E+020
 30
-1.0000000000000000E+020
  9
$PLIMMIN
 10
0.0
 20
0.0
  9
$PLIMMAX
 10
420.0
 20
297.0
  9
$UNITMODE
 70
     0
  9
$VISRETAIN
 70
     1
  9
$PLINEGEN
 70
     0
  9
$PSLTSCALE
 70
     1
  0
ENDSEC
  0
SECTION
  2
TABLES
  0
TABLE
  2
VPORT
 70
     1
  0
VPORT
  2
*ACTIVE
 70
     0
 10
0.0
 20
0.0
 11
1.0
 21
1.0
 12
847.34717459175579
 22
-513.41730664488887
 13
0.0
 23
0.0
 14
10.0
 24
10.0
 15
10.0
 25
10.0
 16
0.0
 26
0.0
 36
1.0
 17
0.0
 27
0.0
 37
0.0
 40
434.43068912430772
 41
1.53950953678474
 42
50.0
 43
0.0
 44
0.0
 50
0.0
 51
0.0
 71
     0
 72
   100
 73
     1
 74
     1
 75
     0
 76
     0
 77
     0
 78
     0
  0
ENDTAB
  0
TABLE
  2
LTYPE
 70
    12
  0
LTYPE
  2
CONTINUOUS
 70
     0
  3
Solid line
 72
    65
 73
     0
 40
0.0
  0
LTYPE
  2
XREF1|CENTER2
 70
    48
  3
Center (.5x) ___ _ ___ _ ___ _ ___ _ ___ _ ___
 72
    65
 73
     4
 40
28.574999999999999
 49
19.050000000000001
 49
-3.1749999999999989
 49
3.1749999999999989
 49
-3.1749999999999989
  0
LTYPE
  2
A3WAKUDAKE|CENTER2
 70
    48
  3
Center (.5x) ___ _ ___ _ ___ _ ___ _ ___ _ ___
 72
    65
 73
     4
 40
28.574999999999999
 49
19.050000000000001
 49
-3.1749999999999989
 49
3.1749999999999989
 49
-3.1749999999999989
  0
ENDTAB
  0
TABLE
  2
LAYER
 70
    36
  0
LAYER
  2
0
 70
     0
 62
     7
  6
CONTINUOUS
  0
LAYER
  2
1TEXT
 70
     0
 62
     7
  6
CONTINUOUS
  0
LAYER
  2
01
 70
     0
 62
     1
  6
CONTINUOUS
  0
LAYER
  2
A3WAKUDAKE|THICK
 70
    48
 62
     7
  6
CONTINUOUS
  0
LAYER
  2
A3WAKUDAKE|POINT
 70
    48
 62
     7
  6
CONTINUOUS
  0
LAYER
  2
A3WAKUDAKE|1CENTER
 70
    48
 62
     7
  6
A3WAKUDAKE|CENTER2
  0
LAYER
  2
A3WAKUDAKE|0-6
 70
    48
 62
     7
  6
CONTINUOUS
  0
LAYER
  2
A3WAKUDAKE|1DIM
 70
    48
 62
     7
  6
CONTINUOUS
  0
LAYER
  2
XREF1|1CENTER
 70
    48
 62
     7
  6
XREF1|CENTER2
  0
ENDTAB
  0
TABLE
  2
STYLE
 70
     4
  0
STYLE
  2
STANDARD
 70
     0
 40
0.0
 41
1.0
 50
0.0
 71
     0
 42
4.0
  3
romans.shx
  4
extfont2.shx
  0
ENDTAB
  0
TABLE
  2
VIEW
 70
     5
  0
ENDTAB
  0
TABLE
  2
UCS
 70
     0
  0
ENDTAB
  0
TABLE
  2
APPID
 70
    10
  0
APPID
  2
ACAD
 70
     0
  0
APPID
  2
DRAWINGVARIABLESXDATA
 70
     0
  0
APPID
  2
CONTENTTABDATA
 70
     0
  0
APPID
  2
CONTENTCURRENTTAB
 70
     0
  0
APPID
  2
CONTENTBLOCKDESCRIPTION
 70
     0
  0
APPID
  2
CONTENTBLOCKICON
 70
     0
  0
APPID
  2
CONTENTLONGBLOCKNAME
 70
     0
  0
APPID
  2
ACAD_PSEXT
 70
     0
  0
APPID
  2
ACAD_MLEADERVER
 70
     0
  0
APPID
  2
ACAD_DSTYLE_DIMRADIAL_EXTENSION
 70
     0
  0
ENDTAB
  0
TABLE
  2
DIMSTYLE
 70
     5
  0
DIMSTYLE
  2
NEWX10
 70
     0
  3
 
  4

  5

  6
OPEN30
  7
OPEN30
 40
1.0
 41
2.0
 42
0.0
 43
7.0
 44
1.0
 45
0.0
 46
0.0
 47
0.0
 48
0.0
140
3.5
141
0.0
142
0.0
143
25.399999999999999
144
1.0
145
0.0
146
0.7
147
0.7
 71
     0
 72
     0
 73
     0
 74
     0
 75
     0
 76
     0
 77
     1
 78
     8
170
     0
171
     2
172
     1
173
     1
174
     0
175
     0
176
   256
177
   256
178
   201
  0
ENDTAB
  0
ENDSEC
  0
SECTION
  2
BLOCKS
  0
BLOCK
  8
0
  2
$MODEL_SPACE
 70
     0
 10
0.0
 20
0.0
 30
0.0
  3
$MODEL_SPACE
  1

  0
ENDBLK
  5
1A
  8
0
  0
BLOCK
 67
     1
  8
0
  2
$PAPER_SPACE
 70
     0
 10
0.0
 20
0.0
 30
0.0
  3
$PAPER_SPACE
  1

  0
ENDBLK
  5
17
 67
     1
  8
0
  0
BLOCK
  8
0
  2
_OPEN30
 70
     0
 10
0.0
 20
0.0
 30
0.0
  3
_OPEN30
  1

  0
LINE
  5
44
  8
0
  6
BYBLOCK
 62
     0
 10
-1.0
 20
0.26794919
 30
0.0
 11
0.0
 21
0.0
 31
0.0
  0
LINE
  5
45
  8
0
  6
BYBLOCK
 62
     0
 10
0.0
 20
0.0
 30
0.0
 11
-1.0
 21
-0.26794919
 31
0.0
  0
LINE
  5
46
  8
0
  6
BYBLOCK
 62
     0
 10
0.0
 20
0.0
 30
0.0
 11
-1.0
 21
0.0
 31
0.0
  0
ENDBLK
  5
47
  8
0
  0
BLOCK
  8
0
  2
XREF1
 70
    36
 10
0.0
 20
0.0
 30
0.0
  3
XREF1
  1
D:\ACLT\FORMAT\KAWAJUN(9)図面用.dwg
  0
ENDBLK
  5
5D
  8
0
  0
BLOCK
  8
0
  2
A3WAKUDAKE
 70
    36
 10
0.0
 20
0.0
 30
0.0
  3
A3WAKUDAKE
  1
D:\ACLT\FORMAT\A3WAKUdake.dwg
  0
ENDBLK
  5
6A0
  8
0
  0
BLOCK
  8
0
  2
*U21
 70
     1
 10
0.0
 20
0.0
 30
0.0
  3
*U21
  1

  0
TEXT
  5
DD1F
  8
1TEXT
 62
   201
 10
1043.3489401080969
 20
-395.56741493210592
 30
0.0
 40
3.5
  1
20.5
 50
90.0
  0
ENDBLK
  5
DD21
  8
0
  0
BLOCK
  8
0
  2
*U22
 70
     1
 10
0.0
 20
0.0
 30
0.0
  3
*U22
  1

  0
TEXT
  5
DD23
  8
1TEXT
 62
   201
 10
3363.5793699269252
 20
-397.31741493210552
 30
0.0
 40
4.5499999999999989
  1
20.5
 50
90.0
  0
ENDBLK
  5
DD25
  8
0
  0
ENDSEC
  0
SECTION
  2
ENTITIES
  0
LINE
  5
4C5
  8
01
 10
854.18766916632455
 20
-570.73670159774338
 30
0.0
 11
854.18766916632455
 21
-718.07002159774402
 31
0.0
  0
LINE
  5
4C6
  8
01
 10
814.18766916632467
 20
-570.73670159774338
 30
0.0
 11
814.18766916632467
 21
-718.07002159774402
 31
0.0
  0
LINE
  5
4C8
  8
01
 10
712.78767516632524
 20
-577.23408159774397
 30
0.0
 11
712.78767516632524
 21
-600.33405159774327
 31
0.0
  0
LINE
  5
4C9
  8
01
 10
711.18766916632467
 20
-577.23408159774397
 30
0.0
 11
711.18766916632467
 21
-600.23408159774397
 31
0.0
  0
LINE
  5
4CA
  8
01
 10
713.58767816632553
 20
-577.23408159774397
 30
0.0
 11
713.58767816632553
 21
-707.23408159774397
 31
0.0
  0
LINE
  5
4CC
  8
01
 10
715.18766916632467
 20
-577.23408159774397
 30
0.0
 11
715.18766916632467
 21
-707.23408159774397
 31
0.0
  0
LINE
  5
4CF
  8
01
 10
712.18766916632455
 20
-679.23408159774397
 30
0.0
 11
683.39704587862275
 21
-679.23408159774397
 31
0.0
  0
LINE
  5
4D2
  8
01
 10
721.18766916632285
 20
-631.23408159774408
 30
0.0
 11
715.18766916632467
 21
-631.23408159774408
 31
0.0
  0
LINE
  5
4D3
  8
01
 10
726.18766916632455
 20
-636.23408159774397
 30
0.0
 11
716.18766916632467
 21
-636.23408159774397
 31
0.0
  0
POLYLINE
  5
4D4
  8
01
 10
726.18766916632455
 20
-634.80250159774369
 30
0.0
 66
     1
 70
     8
  0
VERTEX
  8
01
  5
DD2C
 10
726.188
 20
-634.803
 30
0.000000
  70
    32
  0
VERTEX
  8
01
  5
DD2D
 10
726.186
 20
-634.715
 30
0.000000
  70
    32
  0
VERTEX
  8
01
  5
DD2E
 10
726.182
 20
-634.627
 30
0.000000
  70
    32
  0
VERTEX
  8
01
  5
DD2F
 10
726.174
 20
-634.540
 30
0.000000
  70
    32
  0
VERTEX
  8
01
  5
DD30
 10
726.164
 20
-634.453
 30
0.000000
  70
    32
  0
VERTEX
  8
01
  5
DD31
 10
726.150
 20
-634.366
 30
0.000000
  70
    32
  0
VERTEX
  8
01
  5
DD32
 10
726.134
 20
-634.279
 30
0.000000
  70
    32
  0
VERTEX
  8
01
  5
DD33
 10
726.114
 20
-634.192
 30
0.000000
  70
    32
  0
VERTEX
  8
01
  5
DD34
 10
726.092
 20
-634.106
 30
0.000000
  70
    32
  0
VERTEX
  8
01
  5
DD35
 10
726.066
 20
-634.021
 30
0.000000
  70
    32
  0
VERTEX
  8
01
  5
DD36
 10
726.038
 20
-633.935
 30
0.000000
  70
    32
  0
VERTEX
  8
01
  5
DD37
 10
726.007
 20
-633.851
 30
0.000000
  70
    32
  0
VERTEX
  8
01
  5
DD38
 10
725.972
 20
-633.767
 30
0.000000
  70
    32
  0
VERTEX
  8
01
  5
DD39
 10
725.935
 20
-633.683
 30
0.000000
  70
    32
  0
VERTEX
  8
01
  5
DD3A
 10
725.895
 20
-633.600
 30
0.000000
  70
    32
  0
VERTEX
  8
01
  5
DD3B
 10
725.853
 20
-633.518
 30
0.000000
  70
    32
  0
VERTEX
  8
01
  5
DD3C
 10
725.807
 20
-633.437
 30
0.000000
  70
    32
  0
VERTEX
  8
01
  5
DD3D
 10
725.759
 20
-633.356
 30
0.000000
  70
    32
  0
VERTEX
  8
01
  5
DD3E
 10
725.708
 20
-633.277
 30
0.000000
  70
    32
  0
VERTEX
  8
01
  5
DD3F
 10
725.654
 20
-633.198
 30
0.000000
  70
    32
  0
VERTEX
  8
01
  5
DD40
 10
725.597
 20
-633.120
 30
0.000000
  70
    32
  0
VERTEX
  8
01
  5
DD41
 10
725.538
 20
-633.044
 30
0.000000
  70
    32
  0
VERTEX
  8
01
  5
DD42
 10
725.476
 20
-632.968
 30
0.000000
  70
    32
  0
VERTEX
  8
01
  5
DD43
 10
725.412
 20
-632.893
 30
0.000000
  70
    32
  0
VERTEX
  8
01
  5
DD44
 10
725.345
 20
-632.820
 30
0.000000
  70
    32
  0
VERTEX
  8
01
  5
DD45
 10
725.276
 20
-632.748
 30
0.000000
  70
    32
  0
VERTEX
  8
01
  5
DD46
 10
725.204
 20
-632.677
 30
0.000000
  70
    32
  0
VERTEX
  8
01
  5
DD47
 10
725.129
 20
-632.607
 30
0.000000
  70
    32
  0
VERTEX
  8
01
  5
DD48
 10
725.053
 20
-632.539
 30
0.000000
  70
    32
  0
VERTEX
  8
01
  5
DD49
 10
724.974
 20
-632.472
 30
0.000000
  70
    32
  0
VERTEX
  8
01
  5
DD4A
 10
724.892
 20
-632.406
 30
0.000000
  70
    32
  0
VERTEX
  8
01
  5
DD4B
 10
724.809
 20
-632.342
 30
0.000000
  70
    32
  0
VERTEX
  8
01
  5
DD4C
 10
724.723
 20
-632.279
 30
0.000000
  70
    32
  0
VERTEX
  8
01
  5
DD4D
 10
724.635
 20
-632.218
 30
0.000000
  70
    32
  0
VERTEX
  8
01
  5
DD4E
 10
724.545
 20
-632.158
 30
0.000000
  70
    32
  0
VERTEX
  8
01
  5
DD4F
 10
724.454
 20
-632.100
 30
0.000000
  70
    32
  0
VERTEX
  8
01
  5
DD50
 10
724.360
 20
-632.044
 30
0.000000
  70
    32
  0
VERTEX
  8
01
  5
DD51
 10
724.264
 20
-631.989
 30
0.000000
  70
    32
  0
VERTEX
  8
01
  5
DD52
 10
724.166
 20
-631.936
 30
0.000000
  70
    32
  0
VERTEX
  8
01
  5
DD53
 10
724.067
 20
-631.885
 30
0.000000
  70
    32
  0
VERTEX
  8
01
  5
DD54
 10
723.966
 20
-631.835
 30
0.000000
  70
    32
  0
VERTEX
  8
01
  5
DD55
 10
723.863
 20
-631.788
 30
0.000000
  70
    32
  0
VERTEX
  8
01
  5
DD56
 10
723.758
 20
-631.742
 30
0.000000
  70
    32
  0
VERTEX
  8
01
  5
DD57
 10
723.652
 20
-631.698
 30
0.000000
  70
    32
  0
VERTEX
  8
01
  5
DD58
 10
723.545
 20
-631.655
 30
0.000000
  70
    32
  0
VERTEX
  8
01
  5
DD59
 10
723.436
 20
-631.615
 30
0.000000
  70
    32
  0
VERTEX
  8
01
  5
DD5A
 10
723.325
 20
-631.577
 30
0.000000
  70
    32
  0
VERTEX
  8
01
  5
DD5B
 10
723.214
 20
-631.540
 30
0.000000
  70
    32
  0
VERTEX
  8
01
  5
DD5C
 10
723.101
 20
-631.506
 30
0.000000
  70
    32
  0
VERTEX
  8
01
  5
DD5D
 10
722.987
 20
-631.473
 30
0.000000
  70
    32
  0
VERTEX
  8
01
  5
DD5E
 10
722.872
 20
-631.443
 30
0.000000
  70
    32
  0
VERTEX
  8
01
  5
DD5F
 10
722.756
 20
-631.414
 30
0.000000
  70
    32
  0
VERTEX
  8
01
  5
DD60
 10
722.639
 20
-631.388
 30
0.000000
  70
    32
  0
VERTEX
  8
01
  5
DD61
 10
722.521
 20
-631.363
 30
0.000000
  70
    32
  0
VERTEX
  8
01
  5
DD62
 10
722.403
 20
-631.341
 30
0.000000
  70
    32
  0
VERTEX
  8
01
  5
DD63
 10
722.283
 20
-631.321
 30
0.000000
  70
    32
  0
VERTEX
  8
01
  5
DD64
 10
722.163
 20
-631.303
 30
0.000000
  70
    32
  0
VERTEX
  8
01
  5
DD65
 10
722.042
 20
-631.287
 30
0.000000
  70
    32
  0
VERTEX
  8
01
  5
DD66
 10
721.921
 20
-631.273
 30
0.000000
  70
    32
  0
VERTEX
  8
01
  5
DD67
 10
721.800
 20
-631.261
 30
0.000000
  70
    32
  0
VERTEX
  8
01
  5
DD68
 10
721.678
 20
-631.251
 30
0.000000
  70
    32
  0
VERTEX
  8
01
  5
DD69
 10
721.555
 20
-631.244
 30
0.000000
  70
    32
  0
VERTEX
  8
01
  5
DD6A
 10
721.433
 20
-631.238
 30
0.000000
  70
    32
  0
VERTEX
  8
01
  5
DD6B
 10
721.310
 20
-631.235
 30
0.000000
  70
    32
  0
VERTEX
  8
01
  5
DD6C
 10
721.188
 20
-631.234
 30
0.000000
  70
    32
  0
VERTEX
  8
01
  5
DD6D
 10
721.065
 20
-631.235
 30
0.000000
  70
    32
  0
VERTEX
  8
01
  5
DD6E
 10
720.942
 20
-631.238
 30
0.000000
  70
    32
  0
VERTEX
  8
01
  5
DD6F
 10
720.820
 20
-631.244
 30
0.000000
  70
    32
  0
VERTEX
  8
01
  5
DD70
 10
720.698
 20
-631.251
 30
0.000000
  70
    32
  0
VERTEX
  8
01
  5
DD71
 10
720.576
 20
-631.261
 30
0.000000
  70
    32
  0
VERTEX
  8
01
  5
DD72
 10
720.454
 20
-631.273
 30
0.000000
  70
    32
  0
VERTEX
  8
01
  5
DD73
 10
720.333
 20
-631.287
 30
0.000000
  70
    32
  0
VERTEX
  8
01
  5
DD74
 10
720.212
 20
-631.303
 30
0.000000
  70
    32
  0
VERTEX
  8
01
  5
DD75
 10
720.092
 20
-631.321
 30
0.000000
  70
    32
  0
VERTEX
  8
01
  5
DD76
 10
719.973
 20
-631.341
 30
0.000000
  70
    32
  0
VERTEX
  8
01
  5
DD77
 10
719.854
 20
-631.363
 30
0.000000
  70
    32
  0
VERTEX
  8
01
  5
DD78
 10
719.736
 20
-631.388
 30
0.000000
  70
    32
  0
VERTEX
  8
01
  5
DD79
 10
719.619
 20
-631.414
 30
0.000000
  70
    32
  0
VERTEX
  8
01
  5
DD7A
 10
719.503
 20
-631.443
 30
0.000000
  70
    32
  0
VERTEX
  8
01
  5
DD7B
 10
719.388
 20
-631.473
 30
0.000000
  70
    32
  0
VERTEX
  8
01
  5
DD7C
 10
719.274
 20
-631.506
 30
0.000000
  70
    32
  0
VERTEX
  8
01
  5
DD7D
 10
719.161
 20
-631.540
 30
0.000000
  70
    32
  0
VERTEX
  8
01
  5
DD7E
 10
719.050
 20
-631.577
 30
0.000000
  70
    32
  0
VERTEX
  8
01
  5
DD7F
 10
718.940
 20
-631.615
 30
0.000000
  70
    32
  0
VERTEX
  8
01
  5
DD80
 10
718.831
 20
-631.655
 30
0.000000
  70
    32
  0
VERTEX
  8
01
  5
DD81
 10
718.723
 20
-631.698
 30
0.000000
  70
    32
  0
VERTEX
  8
01
  5
DD82
 10
718.617
 20
-631.742
 30
0.000000
  70
    32
  0
VERTEX
  8
01
  5
DD83
 10
718.513
 20
-631.788
 30
0.000000
  70
    32
  0
VERTEX
  8
01
  5
DD84
 10
718.410
 20
-631.835
 30
0.000000
  70
    32
  0
VERTEX
  8
01
  5
DD85
 10
718.309
 20
-631.885
 30
0.000000
  70
    32
  0
VERTEX
  8
01
  5
DD86
 10
718.209
 20
-631.936
 30
0.000000
  70
    32
  0
VERTEX
  8
01
  5
DD87
 10
718.112
 20
-631.989
 30
0.000000
  70
    32
  0
VERTEX
  8
01
  5
DD88
 10
718.016
 20
-632.044
 30
0.000000
  70
    32
  0
VERTEX
  8
01
  5
DD89
 10
717.922
 20
-632.100
 30
0.000000
  70
    32
  0
VERTEX
  8
01
  5
DD8A
 10
717.830
 20
-632.158
 30
0.000000
  70
    32
  0
VERTEX
  8
01
  5
DD8B
 10
717.740
 20
-632.218
 30
0.000000
  70
    32
  0
VERTEX
  8
01
  5
DD8C
 10
717.652
 20
-632.279
 30
0.000000
  70
    32
  0
VERTEX
  8
01
  5
DD8D
 10
717.566
 20
-632.342
 30
0.000000
  70
    32
  0
VERTEX
  8
01
  5
DD8E
 10
717.483
 20
-632.406
 30
0.000000
  70
    32
  0
VERTEX
  8
01
  5
DD8F
 10
717.402
 20
-632.472
 30
0.000000
  70
    32
  0
VERTEX
  8
01
  5
DD90
 10
717.323
 20
-632.539
 30
0.000000
  70
    32
  0
VERTEX
  8
01
  5
DD91
 10
717.246
 20
-632.607
 30
0.000000
  70
    32
  0
VERTEX
  8
01
  5
DD92
 10
717.172
 20
-632.677
 30
0.000000
  70
    32
  0
VERTEX
  8
01
  5
DD93
 10
717.100
 20
-632.748
 30
0.000000
  70
    32
  0
VERTEX
  8
01
  5
DD94
 10
717.030
 20
-632.820
 30
0.000000
  70
    32
  0
VERTEX
  8
01
  5
DD95
 10
716.963
 20
-632.893
 30
0.000000
  70
    32
  0
VERTEX
  8
01
  5
DD96
 10
716.899
 20
-632.968
 30
0.000000
  70
    32
  0
VERTEX
  8
01
  5
DD97
 10
716.837
 20
-633.044
 30
0.000000
  70
    32
  0
VERTEX
  8
01
  5
DD98
 10
716.778
 20
-633.120
 30
0.000000
  70
    32
  0
VERTEX
  8
01
  5
DD99
 10
716.722
 20
-633.198
 30
0.000000
  70
    32
  0
VERTEX
  8
01
  5
DD9A
 10
716.668
 20
-633.277
 30
0.000000
  70
    32
  0
VERTEX
  8
01
  5
DD9B
 10
716.617
 20
-633.356
 30
0.000000
  70
    32
  0
VERTEX
  8
01
  5
DD9C
 10
716.568
 20
-633.437
 30
0.000000
  70
    32
  0
VERTEX
  8
01
  5
DD9D
 10
716.523
 20
-633.518
 30
0.000000
  70
    32
  0
VERTEX
  8
01
  5
DD9E
 10
716.480
 20
-633.600
 30
0.000000
  70
    32
  0
VERTEX
  8
01
  5
DD9F
 10
716.440
 20
-633.683
 30
0.000000
  70
    32
  0
VERTEX
  8
01
  5
DDA0
 10
716.403
 20
-633.767
 30
0.000000
  70
    32
  0
VERTEX
  8
01
  5
DDA1
 10
716.369
 20
-633.851
 30
0.000000
  70
    32
  0
VERTEX
  8
01
  5
DDA2
 10
716.338
 20
-633.935
 30
0.000000
  70
    32
  0
VERTEX
  8
01
  5
DDA3
 10
716.309
 20
-634.021
 30
0.000000
  70
    32
  0
VERTEX
  8
01
  5
DDA4
 10
716.284
 20
-634.106
 30
0.000000
  70
    32
  0
VERTEX
  8
01
  5
DDA5
 10
716.261
 20
-634.192
 30
0.000000
  70
    32
  0
VERTEX
  8
01
  5
DDA6
 10
716.242
 20
-634.279
 30
0.000000
  70
    32
  0
VERTEX
  8
01
  5
DDA7
 10
716.225
 20
-634.366
 30
0.000000
  70
    32
  0
VERTEX
  8
01
  5
DDA8
 10
716.212
 20
-634.453
 30
0.000000
  70
    32
  0
VERTEX
  8
01
  5
DDA9
 10
716.201
 20
-634.540
 30
0.000000
  70
    32
  0
VERTEX
  8
01
  5
DDAA
 10
716.194
 20
-634.627
 30
0.000000
  70
    32
  0
VERTEX
  8
01
  5
DDAB
 10
716.189
 20
-634.715
 30
0.000000
  70
    32
  0
VERTEX
  8
01
  5
DDAC
 10
716.188
 20
-634.803
 30
0.000000
  70
    32
  0
SEQEND
  8
01
  5
DDAD
  0
LINE
  5
4D5
  8
01
 10
721.18766916632455
 20
-651.23408159774408
 30
0.0
 11
715.18766916632467
 21
-651.23408159774408
 31
0.0
  0
LINE
  5
4D6
  8
01
 10
726.18766916632455
 20
-646.23408159774408
 30
0.0
 11
716.18766916632467
 21
-646.23408159774408
 31
0.0
  0
POLYLINE
  5
4D7
  8
01
 10
726.18766916632455
 20
-647.66566159774368
 30
0.0
 66
     1
 70
     8
  0
VERTEX
  8
01
  5
DDAE
 10
726.188
 20
-647.666
 30
0.000000
  70
    32
  0
VERTEX
  8
01
  5
DDAF
 10
726.186
 20
-647.753
 30
0.000000
  70
    32
  0
VERTEX
  8
01
  5
DDB0
 10
726.182
 20
-647.841
 30
0.000000
  70
    32
  0
VERTEX
  8
01
  5
DDB1
 10
726.174
 20
-647.928
 30
0.000000
  70
    32
  0
VERTEX
  8
01
  5
DDB2
 10
726.164
 20
-648.015
 30
0.000000
  70
    32
  0
VERTEX
  8
01
  5
DDB3
 10
726.150
 20
-648.102
 30
0.000000
  70
    32
  0
VERTEX
  8
01
  5
DDB4
 10
726.134
 20
-648.189
 30
0.000000
  70
    32
  0
VERTEX
  8
01
  5
DDB5
 10
726.114
 20
-648.276
 30
0.000000
  70
    32
  0
VERTEX
  8
01
  5
DDB6
 10
726.092
 20
-648.362
 30
0.000000
  70
    32
  0
VERTEX
  8
01
  5
DDB7
 10
726.066
 20
-648.448
 30
0.000000
  70
    32
  0
VERTEX
  8
01
  5
DDB8
 10
726.038
 20
-648.533
 30
0.000000
  70
    32
  0
VERTEX
  8
01
  5
DDB9
 10
726.007
 20
-648.617
 30
0.000000
  70
    32
  0
VERTEX
  8
01
  5
DDBA
 10
725.972
 20
-648.702
 30
0.000000
  70
    32
  0
VERTEX
  8
01
  5
DDBB
 10
725.935
 20
-648.785
 30
0.000000
  70
    32
  0
VERTEX
  8
01
  5
DDBC
 10
725.895
 20
-648.868
 30
0.000000
  70
    32
  0
VERTEX
  8
01
  5
DDBD
 10
725.853
 20
-648.950
 30
0.000000
  70
    32
  0
VERTEX
  8
01
  5
DDBE
 10
725.807
 20
-649.031
 30
0.000000
  70
    32
  0
VERTEX
  8
01
  5
DDBF
 10
725.759
 20
-649.112
 30
0.000000
  70
    32
  0
VERTEX
  8
01
  5
DDC0
 10
725.708
 20
-649.191
 30
0.000000
  70
    32
  0
VERTEX
  8
01
  5
DDC1
 10
725.654
 20
-649.270
 30
0.000000
  70
    32
  0
VERTEX
  8
01
  5
DDC2
 10
725.597
 20
-649.348
 30
0.000000
  70
    32
  0
VERTEX
  8
01
  5
DDC3
 10
725.538
 20
-649.425
 30
0.000000
  70
    32
  0
VERTEX
  8
01
  5
DDC4
 10
725.476
 20
-649.500
 30
0.000000
  70
    32
  0
VERTEX
  8
01
  5
DDC5
 10
725.412
 20
-649.575
 30
0.000000
  70
    32
  0
VERTEX
  8
01
  5
DDC6
 10
725.345
 20
-649.648
 30
0.000000
  70
    32
  0
VERTEX
  8
01
  5
DDC7
 10
725.276
 20
-649.720
 30
0.000000
  70
    32
  0
VERTEX
  8
01
  5
DDC8
 10
725.204
 20
-649.791
 30
0.000000
  70
    32
  0
VERTEX
  8
01
  5
DDC9
 10
725.129
 20
-649.861
 30
0.000000
  70
    32
  0
VERTEX
  8
01
  5
DDCA
 10
725.053
 20
-649.929
 30
0.000000
  70
    32
  0
VERTEX
  8
01
  5
DDCB
 10
724.974
 20
-649.996
 30
0.000000
  70
    32
  0
VERTEX
  8
01
  5
DDCC
 10
724.892
 20
-650.062
 30
0.000000
  70
    32
  0
VERTEX
  8
01
  5
DDCD
 10
724.809
 20
-650.126
 30
0.000000
  70
    32
  0
VERTEX
  8
01
  5
DDCE
 10
724.723
 20
-650.189
 30
0.000000
  70
    32
  0
VERTEX
  8
01
  5
DDCF
 10
724.635
 20
-650.250
 30
0.000000
  70
    32
  0
VERTEX
  8
01
  5
DDD0
 10
724.545
 20
-650.310
 30
0.000000
  70
    32
  0
VERTEX
  8
01
  5
DDD1
 10
724.454
 20
-650.368
 30
0.000000
  70
    32
  0
VERTEX
  8
01
  5
DDD2
 10
724.360
 20
-650.424
 30
0.000000
  70
    32
  0
VERTEX
  8
01
  5
DDD3
 10
724.264
 20
-650.479
 30
0.000000
  70
    32
  0
VERTEX
  8
01
  5
DDD4
 10
724.166
 20
-650.532
 30
0.000000
  70
    32
  0
VERTEX
  8
01
  5
DDD5
 10
724.067
 20
-650.583
 30
0.000000
  70
    32
  0
VERTEX
  8
01
  5
DDD6
 10
723.966
 20
-650.633
 30
0.000000
  70
    32
  0
VERTEX
  8
01
  5
DDD7
 10
723.863
 20
-650.680
 30
0.000000
  70
    32
  0
VERTEX
  8
01
  5
DDD8
 10
723.758
 20
-650.726
 30
0.000000
  70
    32
  0
VERTEX
  8
01
  5
DDD9
 10
723.652
 20
-650.770
 30
0.000000
  70
    32
  0
VERTEX
  8
01
  5
DDDA
 10
723.545
 20
-650.813
 30
0.000000
  70
    32
  0
VERTEX
  8
01
  5
DDDB
 10
723.436
 20
-650.853
 30
0.000000
  70
    32
  0
VERTEX
  8
01
  5
DDDC
 10
723.325
 20
-650.891
 30
0.000000
  70
    32
  0
VERTEX
  8
01
  5
DDDD
 10
723.214
 20
-650.928
 30
0.000000
  70
    32
  0
VERTEX
  8
01
  5
DDDE
 10
723.101
 20
-650.962
 30
0.000000
  70
    32
  0
VERTEX
  8
01
  5
DDDF
 10
722.987
 20
-650.995
 30
0.000000
  70
    32
  0
VERTEX
  8
01
  5
DDE0
 10
722.872
 20
-651.025
 30
0.000000
  70
    32
  0
VERTEX
  8
01
  5
DDE1
 10
722.756
 20
-651.054
 30
0.000000
  70
    32
  0
VERTEX
  8
01
  5
DDE2
 10
722.639
 20
-651.080
 30
0.000000
  70
    32
  0
VERTEX
  8
01
  5
DDE3
 10
722.521
 20
-651.105
 30
0.000000
  70
    32
  0
VERTEX
  8
01
  5
DDE4
 10
722.403
 20
-651.127
 30
0.000000
  70
    32
  0
VERTEX
  8
01
  5
DDE5
 10
722.283
 20
-651.147
 30
0.000000
  70
    32
  0
VERTEX
  8
01
  5
DDE6
 10
722.163
 20
-651.166
 30
0.000000
  70
    32
  0
VERTEX
  8
01
  5
DDE7
 10
722.042
 20
-651.182
 30
0.000000
  70
    32
  0
VERTEX
  8
01
  5
DDE8
 10
721.921
 20
-651.195
 30
0.000000
  70
    32
  0
VERTEX
  8
01
  5
DDE9
 10
721.800
 20
-651.207
 30
0.000000
  70
    32
  0
VERTEX
  8
01
  5
DDEA
 10
721.678
 20
-651.217
 30
0.000000
  70
    32
  0
VERTEX
  8
01
  5
DDEB
 10
721.555
 20
-651.224
 30
0.000000
  70
    32
  0
VERTEX
  8
01
  5
DDEC
 10
721.433
 20
-651.230
 30
0.000000
  70
    32
  0
VERTEX
  8
01
  5
DDED
 10
721.310
 20
-651.233
 30
0.000000
  70
    32
  0
VERTEX
  8
01
  5
DDEE
 10
721.188
 20
-651.234
 30
0.000000
  70
    32
  0
VERTEX
  8
01
  5
DDEF
 10
721.065
 20
-651.233
 30
0.000000
  70
    32
  0
VERTEX
  8
01
  5
DDF0
 10
720.942
 20
-651.230
 30
0.000000
  70
    32
  0
VERTEX
  8
01
  5
DDF1
 10
720.820
 20
-651.224
 30
0.000000
  70
    32
  0
VERTEX
  8
01
  5
DDF2
 10
720.698
 20
-651.217
 30
0.000000
  70
    32
  0
VERTEX
  8
01
  5
DDF3
 10
720.576
 20
-651.207
 30
0.000000
  70
    32
  0
VERTEX
  8
01
  5
DDF4
 10
720.454
 20
-651.195
 30
0.000000
  70
    32
  0
VERTEX
  8
01
  5
DDF5
 10
720.333
 20
-651.182
 30
0.000000
  70
    32
  0
VERTEX
  8
01
  5
DDF6
 10
720.212
 20
-651.166
 30
0.000000
  70
    32
  0
VERTEX
  8
01
  5
DDF7
 10
720.092
 20
-651.147
 30
0.000000
  70
    32
  0
VERTEX
  8
01
  5
DDF8
 10
719.973
 20
-651.127
 30
0.000000
  70
    32
  0
VERTEX
  8
01
  5
DDF9
 10
719.854
 20
-651.105
 30
0.000000
  70
    32
  0
VERTEX
  8
01
  5
DDFA
 10
719.736
 20
-651.080
 30
0.000000
  70
    32
  0
VERTEX
  8
01
  5
DDFB
 10
719.619
 20
-651.054
 30
0.000000
  70
    32
  0
VERTEX
  8
01
  5
DDFC
 10
719.503
 20
-651.025
 30
0.000000
  70
    32
  0
VERTEX
  8
01
  5
DDFD
 10
719.388
 20
-650.995
 30
0.000000
  70
    32
  0
VERTEX
  8
01
  5
DDFE
 10
719.274
 20
-650.962
 30
0.000000
  70
    32
  0
VERTEX
  8
01
  5
DDFF
 10
719.161
 20
-650.928
 30
0.000000
  70
    32
  0
VERTEX
  8
01
  5
DE00
 10
719.050
 20
-650.891
 30
0.000000
  70
    32
  0
VERTEX
  8
01
  5
DE01
 10
718.940
 20
-650.853
 30
0.000000
  70
    32
  0
VERTEX
  8
01
  5
DE02
 10
718.831
 20
-650.813
 30
0.000000
  70
    32
  0
VERTEX
  8
01
  5
DE03
 10
718.723
 20
-650.770
 30
0.000000
  70
    32
  0
VERTEX
  8
01
  5
DE04
 10
718.617
 20
-650.726
 30
0.000000
  70
    32
  0
VERTEX
  8
01
  5
DE05
 10
718.513
 20
-650.680
 30
0.000000
  70
    32
  0
VERTEX
  8
01
  5
DE06
 10
718.410
 20
-650.633
 30
0.000000
  70
    32
  0
VERTEX
  8
01
  5
DE07
 10
718.309
 20
-650.583
 30
0.000000
  70
    32
  0
VERTEX
  8
01
  5
DE08
 10
718.209
 20
-650.532
 30
0.000000
  70
    32
  0
VERTEX
  8
01
  5
DE09
 10
718.112
 20
-650.479
 30
0.000000
  70
    32
  0
VERTEX
  8
01
  5
DE0A
 10
718.016
 20
-650.424
 30
0.000000
  70
    32
  0
VERTEX
  8
01
  5
DE0B
 10
717.922
 20
-650.368
 30
0.000000
  70
    32
  0
VERTEX
  8
01
  5
DE0C
 10
717.830
 20
-650.310
 30
0.000000
  70
    32
  0
VERTEX
  8
01
  5
DE0D
 10
717.740
 20
-650.250
 30
0.000000
  70
    32
  0
VERTEX
  8
01
  5
DE0E
 10
717.652
 20
-650.189
 30
0.000000
  70
    32
  0
VERTEX
  8
01
  5
DE0F
 10
717.566
 20
-650.126
 30
0.000000
  70
    32
  0
VERTEX
  8
01
  5
DE10
 10
717.483
 20
-650.062
 30
0.000000
  70
    32
  0
VERTEX
  8
01
  5
DE11
 10
717.402
 20
-649.996
 30
0.000000
  70
    32
  0
VERTEX
  8
01
  5
DE12
 10
717.323
 20
-649.929
 30
0.000000
  70
    32
  0
VERTEX
  8
01
  5
DE13
 10
717.246
 20
-649.861
 30
0.000000
  70
    32
  0
VERTEX
  8
01
  5
DE14
 10
717.172
 20
-649.791
 30
0.000000
  70
    32
  0
VERTEX
  8
01
  5
DE15
 10
717.100
 20
-649.720
 30
0.000000
  70
    32
  0
VERTEX
  8
01
  5
DE16
 10
717.030
 20
-649.648
 30
0.000000
  70
    32
  0
VERTEX
  8
01
  5
DE17
 10
716.963
 20
-649.575
 30
0.000000
  70
    32
  0
VERTEX
  8
01
  5
DE18
 10
716.899
 20
-649.500
 30
0.000000
  70
    32
  0
VERTEX
  8
01
  5
DE19
 10
716.837
 20
-649.425
 30
0.000000
  70
    32
  0
VERTEX
  8
01
  5
DE1A
 10
716.778
 20
-649.348
 30
0.000000
  70
    32
  0
VERTEX
  8
01
  5
DE1B
 10
716.722
 20
-649.270
 30
0.000000
  70
    32
  0
VERTEX
  8
01
  5
DE1C
 10
716.668
 20
-649.191
 30
0.000000
  70
    32
  0
VERTEX
  8
01
  5
DE1D
 10
716.617
 20
-649.112
 30
0.000000
  70
    32
  0
VERTEX
  8
01
  5
DE1E
 10
716.568
 20
-649.031
 30
0.000000
  70
    32
  0
VERTEX
  8
01
  5
DE1F
 10
716.523
 20
-648.950
 30
0.000000
  70
    32
  0
VERTEX
  8
01
  5
DE20
 10
716.480
 20
-648.868
 30
0.000000
  70
    32
  0
VERTEX
  8
01
  5
DE21
 10
716.440
 20
-648.785
 30
0.000000
  70
    32
  0
VERTEX
  8
01
  5
DE22
 10
716.403
 20
-648.702
 30
0.000000
  70
    32
  0
VERTEX
  8
01
  5
DE23
 10
716.369
 20
-648.617
 30
0.000000
  70
    32
  0
VERTEX
  8
01
  5
DE24
 10
716.338
 20
-648.533
 30
0.000000
  70
    32
  0
VERTEX
  8
01
  5
DE25
 10
716.309
 20
-648.448
 30
0.000000
  70
    32
  0
VERTEX
  8
01
  5
DE26
 10
716.284
 20
-648.362
 30
0.000000
  70
    32
  0
VERTEX
  8
01
  5
DE27
 10
716.261
 20
-648.276
 30
0.000000
  70
    32
  0
VERTEX
  8
01
  5
DE28
 10
716.242
 20
-648.189
 30
0.000000
  70
    32
  0
VERTEX
  8
01
  5
DE29
 10
716.225
 20
-648.102
 30
0.000000
  70
    32
  0
VERTEX
  8
01
  5
DE2A
 10
716.212
 20
-648.015
 30
0.000000
  70
    32
  0
VERTEX
  8
01
  5
DE2B
 10
716.201
 20
-647.928
 30
0.000000
  70
    32
  0
VERTEX
  8
01
  5
DE2C
 10
716.194
 20
-647.841
 30
0.000000
  70
    32
  0
VERTEX
  8
01
  5
DE2D
 10
716.189
 20
-647.753
 30
0.000000
  70
    32
  0
VERTEX
  8
01
  5
DE2E
 10
716.188
 20
-647.666
 30
0.000000
  70
    32
  0
SEQEND
  8
01
  5
DE2F
  0
LINE
  5
4D8
  8
01
 10
726.18766916632455
 20
-634.80250159774357
 30
0.0
 11
726.18766916632455
 21
-647.66566159774447
 31
0.0
  0
LINE
  5
4D9
  8
01
 10
716.18766916632467
 20
-634.80250159774357
 30
0.0
 11
716.18766916632467
 21
-647.66566159774175
 31
0.0
  0
LINE
  5
4DA
  8
01
 10
712.18765416632505
 20
-601.23408159774408
 30
0.0
 11
711.18765416632505
 21
-600.23408159774397
 31
0.0
  0
LINE
  5
4DB
  8
01
 10
713.58767116632487
 20
-601.13410159774412
 30
0.0
 11
712.78769016632475
 21
-600.33412159774343
 31
0.0
  0
LINE
  5
4DC
  8
01
 10
713.58767116632487
 20
-683.33409159774328
 30
0.0
 11
712.78766816632469
 21
-684.13407159774385
 31
0.0
  0
LINE
  5
4DD
  8
01
 10
712.18761616632491
 20
-683.23411159774332
 30
0.0
 11
711.18763116632454
 21
-684.23411159774332
 31
0.0
  0
LINE
  5
4DE
  8
01
 10
715.18766916632467
 20
-707.23408159774397
 30
0.0
 11
711.18766916632467
 21
-707.23408159774397
 31
0.0
  0
LINE
  5
4DF
  8
01
 10
712.78767516632524
 20
-707.23408159774397
 30
0.0
 11
712.78767516632524
 21
-684.13407159774385
 31
0.0
  0
LINE
  5
4E0
  8
01
 10
711.18766916632467
 20
-707.23408159774397
 30
0.0
 11
711.18766916632467
 21
-684.23408159774408
 31
0.0
  0
LINE
  5
4E1
  8
01
 10
712.18766916632455
 20
-601.23408159774408
 30
0.0
 11
712.18766916632455
 21
-683.23408159774397
 31
0.0
  0
LINE
  5
4E3
  8
01
 10
715.18766916632467
 20
-577.23408159774397
 30
0.0
 11
711.18766916632467
 21
-577.23408159774397
 31
0.0
  0
LINE
  5
4E6
  8
01
 10
821.68766916632455
 20
-583.23408159774397
 30
0.0
 11
821.68766916632455
 21
-701.23408159774408
 31
0.0
  0
LINE
  5
4E7
  8
01
 10
846.68766916632455
 20
-583.23408159774397
 30
0.0
 11
846.68766916632455
 21
-701.23408159774408
 31
0.0
  0
ARC
  5
4E8
  8
01
 10
840.68766916632455
 20
-701.23408159774408
 30
0.0
 40
6.0
 50
270.0
 51
0.0
  0
ARC
  5
4EA
  8
01
 10
827.68766916632467
 20
-701.23408159774408
 30
0.0
 40
6.0
 50
180.0
 51
270.0
  0
LINE
  5
4EB
  8
01
 10
841.93766916632467
 20
-634.80250159774357
 30
0.0
 11
841.93766916632467
 21
-647.66566159774345
 31
0.0
  0
LINE
  5
4EC
  8
01
 10
840.93766916632467
 20
-636.23408159774397
 30
0.0
 11
840.93766916632467
 21
-646.23408159774408
 31
0.0
  0
LINE
  5
4ED
  8
01
 10
827.43766916632455
 20
-636.23408159774397
 30
0.0
 11
827.43766916632455
 21
-646.23408159774408
 31
0.0
  0
LINE
  5
4EE
  8
01
 10
826.43766916632455
 20
-634.80250159774357
 30
0.0
 11
826.43766916632455
 21
-647.66566159774345
 31
0.0
  0
ARC
  5
4EF
  8
01
 10
834.18766916632455
 20
-641.0340715977436
 30
0.0
 40
10.199999999999999
 50
220.5530799999753
 51
319.44692000002459
  0
LINE
  5
4F0
  8
01
 10
827.43766916632455
 20
-646.23408159774408
 30
0.0
 11
840.93766916632467
 21
-646.23408159774408
 31
0.0
  0
LINE
  5
4F1
  8
01
 10
827.43766916632455
 20
-636.23408159774397
 30
0.0
 11
840.93766916632467
 21
-636.23408159774397
 31
0.0
  0
ARC
  5
4F2
  8
01
 10
834.18766916632455
 20
-641.43409159774365
 30
0.0
 40
10.199999999999999
 50
40.553083999977588
 51
139.44692000002459
  0
CIRCLE
  5
4F3
  8
01
 10
834.18766916632455
 20
-699.23408159774397
 30
0.0
 40
4.5
  0
CIRCLE
  5
4F4
  8
01
 10
834.18766916632455
 20
-699.23408159774397
 30
0.0
 40
2.75
  0
LINE
  5
4F5
  8
01
 10
827.68766916632467
 20
-707.23408159774397
 30
0.0
 11
840.68766916632455
 21
-707.23408159774397
 31
0.0
  0
ARC
  5
4F6
  8
01
 10
840.68766916632455
 20
-583.23408159774397
 30
0.0
 40
6.0
 50
0.0
 51
90.0
  0
ARC
  5
4F9
  8
01
 10
827.68766916632467
 20
-583.23408159774397
 30
0.0
 40
6.0
 50
90.0
 51
180.0
  0
LINE
  5
4FA
  8
01
 10
827.68766916632467
 20
-577.23408159774397
 30
0.0
 11
840.68766916632455
 21
-577.23408159774397
 31
0.0
  0
CIRCLE
  5
4FB
  8
01
 10
834.18766916632455
 20
-585.23408159774408
 30
0.0
 40
4.5
  0
CIRCLE
  5
4FC
  8
01
 10
834.18766916632455
 20
-585.23408159774408
 30
0.0
 40
2.75
  0
TEXT
  5
4FD
  8
01
 10
649.18768516632463
 20
-378.23408159774419
 30
0.0
 40
20.0
  1
1-KAC-X-LW
  0
LINE
  5
51F
  8
01
 10
955.58767516632452
 20
-577.23408159774397
 30
0.0
 11
955.58767516632452
 21
-600.33405159774327
 31
0.0
  0
LINE
  5
520
  8
01
 10
957.18766516632502
 20
-577.23408159774397
 30
0.0
 11
957.18766516632502
 21
-600.23408159774397
 31
0.0
  0
LINE
  5
521
  8
01
 10
954.78767516632524
 20
-577.23408159774397
 30
0.0
 11
954.78767516632524
 21
-707.23408159774397
 31
0.0
  0
LINE
  5
522
  8
01
 10
953.18766516632513
 20
-577.23408159774397
 30
0.0
 11
953.18766516632513
 21
-707.23408159774397
 31
0.0
  0
LINE
  5
525
  8
01
 10
956.18766516632513
 20
-679.23408159774397
 30
0.0
 11
984.97829245402636
 21
-679.23408159774397
 31
0.0
  0
LINE
  5
526
  8
01
 10
956.18767516632477
 20
-601.23408159774408
 30
0.0
 11
957.18767516632477
 21
-600.23408159774397
 31
0.0
  0
LINE
  5
527
  8
01
 10
954.7876651663255
 20
-601.13410159774412
 30
0.0
 11
955.58767516632452
 21
-600.33405159774327
 31
0.0
  0
LINE
  5
528
  8
01
 10
946.18766516632513
 20
-631.23408159774408
 30
0.0
 11
953.18766516632513
 21
-631.23408159774408
 31
0.0
  0
LINE
  5
529
  8
01
 10
946.18766516632513
 20
-651.23408159774408
 30
0.0
 11
953.18766516632513
 21
-651.23408159774408
 31
0.0
  0
LINE
  5
52A
  8
01
 10
942.26976516632465
 20
-648.04035159774412
 30
0.0
 11
953.18766516632513
 21
-648.04035159774412
 31
0.0
  0
LINE
  5
52B
  8
01
 10
942.26976516632465
 20
-634.42780159774327
 30
0.0
 11
953.18766516632513
 21
-634.42780159774327
 31
0.0
  0
LINE
  5
52C
  8
01
 10
942.18766516632525
 20
-635.23408159774408
 30
0.0
 11
942.18766516632525
 21
-647.23408159774408
 31
0.0
  0
ARC
  5
52D
  8
01
 10
946.18766516632513
 20
-647.23408159774408
 30
0.0
 40
4.0
 50
179.999989999999
 51
270.0
  0
ARC
  5
52F
  8
01
 10
946.18766516632513
 20
-635.23408159774408
 30
0.0
 40
4.0
 50
90.000002999984659
 51
180.00001000000091
  0
LINE
  5
530
  8
01
 10
954.7876651663255
 20
-683.33409159774328
 30
0.0
 11
955.58767516632452
 21
-684.13407159774385
 31
0.0
  0
LINE
  5
531
  8
01
 10
956.18771516632569
 20
-683.23411159774332
 30
0.0
 11
957.18769516632426
 21
-684.23408159774408
 31
0.0
  0
LINE
  5
532
  8
01
 10
948.18766516632513
 20
-699.23408159774397
 30
0.0
 11
962.18766516632513
 21
-699.23408159774397
 31
0.0
  0
LINE
  5
533
  8
01
 10
953.18766516632513
 20
-707.23408159774397
 30
0.0
 11
957.18766516632502
 21
-707.23408159774397
 31
0.0
  0
LINE
  5
534
  8
01
 10
955.58767516632452
 20
-707.23408159774397
 30
0.0
 11
955.58767516632452
 21
-684.13407159774385
 31
0.0
  0
LINE
  5
535
  8
01
 10
957.18766516632502
 20
-707.23408159774397
 30
0.0
 11
957.18766516632502
 21
-684.23408159774408
 31
0.0
  0
LINE
  5
536
  8
01
 10
956.18766516632513
 20
-601.23408159774408
 30
0.0
 11
956.18766516632513
 21
-683.23408159774397
 31
0.0
  0
LINE
  5
539
  8
01
 10
953.18766516632513
 20
-577.23408159774397
 30
0.0
 11
957.18766516632502
 21
-577.23408159774397
 31
0.0
  0
LINE
  5
53A
  8
01
 10
948.18766516632513
 20
-585.23408159774408
 30
0.0
 11
962.18766516632513
 21
-585.23408159774408
 31
0.0
  0
LINE
  5
545
  8
01
 10
957.1885493483851
 20
-383.73408159877272
 30
0.0
 11
1023.188549348385
 21
-383.73408159877272
 31
0.0
  0
LINE
  5
546
  8
01
 10
957.1885493483851
 20
-385.33405159877202
 30
0.0
 11
1023.188549348385
 21
-385.33405159877202
 31
0.0
  0
LINE
  5
547
  8
01
 10
954.78855934838532
 20
-402.7340815987726
 30
0.0
 11
1023.188549348385
 21
-402.7340815987726
 31
0.0
  0
LINE
  5
548
  8
01
 10
956.38853934838608
 20
-388.23408159877272
 30
0.0
 11
957.1885493483851
 21
-387.43406159877208
 31
0.0
  0
LINE
  5
549
  8
01
 10
957.1885493483851
 20
-382.73408159877272
 30
0.0
 11
957.1885493483851
 21
-387.43406159877208
 31
0.0
  0
LINE
  5
54A
  8
01
 10
954.78855934838532
 20
-388.23405159877262
 30
0.0
 11
955.58854934838655
 21
-387.43409159877228
 31
0.0
  0
LINE
  5
54B
  8
01
 10
942.18854934838498
 20
-400.98408159877272
 30
0.0
 11
953.1885493483851
 21
-400.98408159877272
 31
0.0
  0
LINE
  5
54C
  8
01
 10
942.18854934838498
 20
-400.98408159877272
 30
0.0
 11
942.18854934838498
 21
-398.98408159877272
 31
0.0
  0
LINE
  5
54D
  8
01
 10
953.1885493483851
 20
-380.73408159877272
 30
0.0
 11
954.78855934838532
 21
-380.73408159877272
 31
0.0
  0
LINE
  5
54E
  8
01
 10
954.78855934838532
 20
-380.73408159877272
 30
0.0
 11
954.78855934838532
 21
-388.23408159877272
 31
0.0
  0
LINE
  5
54F
  8
01
 10
955.58855934838618
 20
-382.73408159877272
 30
0.0
 11
955.58855934838618
 21
-387.43406159877208
 31
0.0
  0
LINE
  5
550
  8
01
 10
954.78855934838532
 20
-382.73408159877272
 30
0.0
 11
957.1885493483851
 21
-382.73408159877272
 31
0.0
  0
LINE
  5
551
  8
01
 10
957.1885493483851
 20
-399.0340715987723
 30
0.0
 11
957.1885493483851
 21
-402.7340815987726
 31
0.0
  0
LINE
  5
552
  8
01
 10
956.38855934838557
 20
-398.23405159877262
 30
0.0
 11
957.1885493483851
 21
-399.0340715987723
 31
0.0
  0
LINE
  5
553
  8
01
 10
957.1885493483851
 20
-401.13407159877261
 30
0.0
 11
961.78855934838509
 21
-401.13407159877261
 31
0.0
  0
LINE
  5
554
  8
01
 10
954.78854934838546
 20
-398.23405159877262
 30
0.0
 11
955.58855934838618
 21
-399.0340715987723
 31
0.0
  0
LINE
  5
555
  8
01
 10
954.78855934838532
 20
-398.23408159877272
 30
0.0
 11
954.78855934838532
 21
-405.73408159877272
 31
0.0
  0
LINE
  5
556
  8
01
 10
953.1885493483851
 20
-405.73408159877272
 30
0.0
 11
954.78855934838532
 21
-405.73408159877272
 31
0.0
  0
LINE
  5
557
  8
01
 10
955.58855934838618
 20
-399.0340715987723
 30
0.0
 11
955.58855934838618
 21
-402.7340815987726
 31
0.0
  0
LINE
  5
558
  8
01
 10
953.1885493483851
 20
-373.23408159877272
 30
0.0
 11
953.1885493483851
 21
-413.23408159877272
 31
0.0
  0
LINE
  5
559
  8
01
 10
961.78855934838509
 20
-385.33405159877202
 30
0.0
 11
961.78855934838509
 21
-402.7340815987726
 31
0.0
  0
LINE
  5
55A
  8
01
 10
956.38854934838594
 20
-388.23408159877272
 30
0.0
 11
956.38854934838594
 21
-398.23408159877272
 31
0.0
  0
LINE
  5
55B
  8
01
 10
954.78855934838532
 20
-388.23408159877272
 30
0.0
 11
954.78855934838532
 21
-398.23408159877272
 31
0.0
  0
ARC
  5
55C
  8
01
 10
985.85804934838507
 20
-423.33516159877217
 30
0.0
 40
50.0
 50
130.7976899999974
 51
150.85500000002
  0
LINE
  5
55E
  8
01
 10
985.54989789461706
 20
-427.73411259877139
 30
0.0
 11
1001.172534506068
 21
-427.73411259877139
 31
0.0
  0
LINE
  5
55F
  8
01
 10
1021.588549348386
 20
-385.33405159877202
 30
0.0
 11
1021.588549348386
 21
-402.7340815987726
 31
0.0
  0
LINE
  5
560
  8
01
 10
1023.188549348385
 20
-383.73408159877272
 30
0.0
 11
1023.188549348385
 21
-402.7340815987726
 31
0.0
  0
LINE
  5
562
  8
01
 10
985.54989789461706
 20
-358.73405059877399
 30
0.0
 11
1001.172534506068
 21
-358.73405059877399
 31
0.0
  0
POINT
  5
568
  8
01
 10
854.18766916632455
 20
-663.23408159774408
 30
0.0
  0
LINE
  5
569
  8
01
 10
854.18766916632455
 20
-688.23408159774385
 30
0.0
 11
854.18766916632455
 21
-638.2341815977444
 31
0.0
  0
LINE
  5
92B
  8
01
 10
720.1876731663242
 20
-699.23408159774397
 30
0.0
 11
706.18767316632409
 21
-699.23408159774397
 31
0.0
  0
LINE
  5
92C
  8
01
 10
720.1876731663242
 20
-585.23408159774408
 30
0.0
 11
706.18767316632409
 21
-585.23408159774408
 31
0.0
  0
LINE
  5
92E
  8
01
 10
840.68766916632455
 20
-585.23408159774408
 30
0.0
 11
827.68766916632467
 21
-585.23408159774408
 31
0.0
  0
LINE
  5
92F
  8
01
 10
834.18766916632455
 20
-578.73408159774397
 30
0.0
 11
834.18766916632455
 21
-591.73408159774397
 31
0.0
  0
LINE
  5
931
  8
01
 10
840.68766916632455
 20
-699.23408159774397
 30
0.0
 11
827.68766916632467
 21
-699.23408159774397
 31
0.0
  0
LINE
  5
932
  8
01
 10
834.18766916632455
 20
-692.73408159774408
 30
0.0
 11
834.18766916632455
 21
-705.73408159774408
 31
0.0
  0
LINE
  5
96B
  8
01
 10
694.1876731663242
 20
-663.23408159774408
 30
0.0
 11
634.1876731663242
 21
-663.23408159774408
 31
0.0
  0
LINE
  5
96C
  8
01
 10
664.18767316632409
 20
-633.23408159774397
 30
0.0
 11
664.18767316632409
 21
-693.23408159774408
 31
0.0
  0
LINE
  5
96E
  8
01
 10
974.18766516632502
 20
-663.23408159774419
 30
0.0
 11
1034.1876651663249
 21
-663.23408159774419
 31
0.0
  0
LINE
  5
96F
  8
01
 10
1004.187665166325
 20
-633.23408159774419
 30
0.0
 11
1004.187665166325
 21
-693.23408159774419
 31
0.0
  0
POINT
  5
21C1
  8
01
 10
799.68766916632455
 20
-663.23408159774419
 30
0.0
 50
180.0
  0
CIRCLE
  5
21CE
  8
01
 10
799.68766916632455
 20
-663.23408159774419
 30
0.0
 40
2.5
  0
POINT
  5
21D7
  8
01
 10
868.68766916632467
 20
-663.23408159774419
 30
0.0
  0
LINE
  5
21D8
  8
01
 10
868.28766915632468
 20
-664.98408159774419
 30
0.0
 11
868.28766915632468
 21
-664.13408157774404
 31
0.0
  0
LINE
  5
21D9
  8
01
 10
869.08766917632465
 20
-664.98408159774419
 30
0.0
 11
869.08766917632465
 21
-664.13408157774404
 31
0.0
  0
LINE
  5
21DA
  8
01
 10
867.78766918632482
 20
-663.63408160774406
 30
0.0
 11
866.93766916632467
 21
-663.63408160774406
 31
0.0
  0
LINE
  5
21DB
  8
01
 10
867.78766918632482
 20
-662.83408158774421
 30
0.0
 11
866.93766916632467
 21
-662.83408158774421
 31
0.0
  0
LINE
  5
21DC
  8
01
 10
866.93766916632467
 20
-663.63408160774406
 30
0.0
 11
866.93766916632467
 21
-662.83408158774421
 31
0.0
  0
LINE
  5
21DD
  8
01
 10
869.08766917632465
 20
-664.98408159774419
 30
0.0
 11
868.28766915632468
 21
-664.98408159774419
 31
0.0
  0
LINE
  5
21DE
  8
01
 10
869.08766917632465
 20
-661.48408159774419
 30
0.0
 11
869.08766917632465
 21
-662.33408161774435
 31
0.0
  0
LINE
  5
21DF
  8
01
 10
868.28766915632468
 20
-661.48408159774419
 30
0.0
 11
868.28766915632468
 21
-662.33408161774435
 31
0.0
  0
LINE
  5
21E0
  8
01
 10
869.58766914632452
 20
-662.83408158774421
 30
0.0
 11
870.43766916632467
 21
-662.83408158774421
 31
0.0
  0
LINE
  5
21E1
  8
01
 10
869.58766914632452
 20
-663.63408160774406
 30
0.0
 11
870.43766916632467
 21
-663.63408160774406
 31
0.0
  0
LINE
  5
21E2
  8
01
 10
870.43766916632467
 20
-662.83408158774421
 30
0.0
 11
870.43766916632467
 21
-663.63408160774406
 31
0.0
  0
LINE
  5
21E3
  8
01
 10
868.28766915632468
 20
-661.48408159774419
 30
0.0
 11
869.08766917632465
 21
-661.48408159774419
 31
0.0
  0
CIRCLE
  5
21E4
  8
01
 10
868.68766916632467
 20
-663.23408159774419
 30
0.0
 40
2.5
  0
ARC
  5
21E5
  8
01
 10
869.58766914632452
 20
-662.33408161774435
 30
0.0
 40
0.5
 50
179.9999899999998
 51
270.0
  0
ARC
  5
21E6
  8
01
 10
869.58766914632452
 20
-664.13408157774404
 30
0.0
 40
0.5
 50
90.000003000000945
 51
180.0000100000002
  0
ARC
  5
21E7
  8
01
 10
867.78766918632482
 20
-664.13408157774404
 30
0.0
 40
0.5
 50
0.0
 51
90.000003000000945
  0
ARC
  5
21E8
  8
01
 10
867.78766918632482
 20
-662.33408161774435
 30
0.0
 40
0.5
 50
270.0
 51
0.0
  0
LINE
  5
5977
  8
01
 10
1004.18778150607
 20
-343.23408159877272
 30
0.0
 11
1004.18778150607
 21
-378.23408159877249
 31
0.0
  0
LINE
  5
5978
  8
01
 10
1004.18778150607
 20
-408.23408159877272
 30
0.0
 11
1004.18778150607
 21
-443.23408159877272
 31
0.0
  0
LINE
  5
5979
  8
01
 10
784.18766916632455
 20
-663.23408159774419
 30
0.0
 11
819.18766916632455
 21
-663.23408159774419
 31
0.0
  0
LINE
  5
597A
  8
01
 10
849.18766916632467
 20
-663.23408159774419
 30
0.0
 11
884.18766916632455
 21
-663.23408159774419
 31
0.0
  0
LINE
  5
A5D6
  8
01
 10
953.1885493483851
 20
-413.23408159877272
 30
0.0
 11
1106.942929503417
 21
-413.23408159877272
 31
0.0
  0
LINE
  5
A5D7
  8
01
 10
953.1885493483851
 20
-373.23408159877272
 30
0.0
 11
1106.942929503417
 21
-373.23408159877272
 31
0.0
  0
LINE
  5
C55C
  8
01
 10
649.18768516632554
 20
-418.73408159774408
 30
0.0
 11
806.68768516632565
 21
-418.73408159774488
 31
0.0
  0
TEXT
  5
C55D
  8
01
 10
650.88768516632592
 20
-416.48408159774408
 30
0.0
 40
6.0
  1
表面処理：脚部
 72
     1
 11
675.2876851663259
 21
-416.48408159774408
 31
0.0
  0
LINE
  5
C55E
  8
01
 10
649.18768516632554
 20
-408.23408159774419
 30
0.0
 11
806.68768516632565
 21
-408.23408159774419
 31
0.0
  0
TEXT
  5
C55F
  8
01
 10
770.28768516632579
 20
-416.48408159774408
 30
0.0
 40
6.0
  1
コード
 72
     1
 11
780.2876851663259
 21
-416.48408159774408
 31
0.0
  0
TEXT
  5
C560
  8
01
 10
703.38768516632592
 20
-416.48408159774408
 30
0.0
 40
6.0
  1
表面処理：握り
 72
     1
 11
727.7876851663259
 21
-416.48408159774408
 31
0.0
  0
TEXT
  5
C562
  8
01
 10
714.18768516632667
 20
-427.30561707321817
 30
0.0
 40
6.0
  1
クローム
 72
     1
 11
727.7876851663267
 21
-427.30561707321817
 31
0.0
  0
LINE
  5
C564
  8
01
 10
701.68768516632554
 20
-408.23408159774419
 30
0.0
 11
701.68768516632508
 21
-439.73408159774402
 31
0.0
  0
LINE
  5
C565
  8
01
 10
754.18768516632463
 20
-408.23408159774419
 30
0.0
 11
754.1876851663269
 21
-439.73408159774442
 31
0.0
  0
LINE
  5
C566
  8
01
 10
806.68768516632565
 20
-408.23408159774419
 30
0.0
 11
806.68768516632497
 21
-439.73408159774482
 31
0.0
  0
LINE
  5
C567
  8
01
 10
649.18768516632451
 20
-439.73408159774363
 30
0.0
 11
649.18768516632463
 21
-408.23408159774419
 31
0.0
  0
LINE
  5
C56A
  8
01
 10
649.18768516632463
 20
-439.73408159774351
 30
0.0
 11
806.68768516632565
 21
-439.73408159774482
 31
0.0
  0
TEXT
  5
C573
  8
01
 10
757.88768516632592
 20
-427.30561707321891
 30
0.0
 40
6.0
  1
1-KAC-C-LW
 41
0.7
 72
     1
 11
780.2876851663259
 21
-427.30561707321891
 31
0.0
  0
TEXT
  5
C574
  8
01
 10
755.68768516632576
 20
-437.80561707321903
 30
0.0
 40
6.0
  1
1-KAC-CN-LW
 41
0.7
 72
     1
 11
780.2876851663259
 21
-437.80561707321903
 31
0.0
  0
TEXT
  5
C576
  8
01
 10
703.3876851663241
 20
-437.20045201509981
 30
0.0
 40
6.0
  1
サテンニッケル
 72
     1
 11
727.78768516632408
 21
-437.20045201509981
 31
0.0
  0
TEXT
  5
C611
  8
01
 10
661.68768516632542
 20
-432.55561707321777
 30
0.0
 40
6.0
  1
クローム
 72
     1
 11
675.28768516632545
 21
-432.55561707321777
 31
0.0
  0
ARC
  5
CE94
  8
01
 10
1004.187665166325
 20
-663.23408159774419
 30
0.0
 40
25.0
 50
11.53695973454157
 51
168.4630402654584
  0
LINE
  5
CE99
  8
01
 10
854.18766916632455
 20
-638.23408159774419
 30
0.0
 11
854.18766916632455
 21
-688.23408159774419
 31
0.0
  0
LINE
  5
CE9A
  8
01
 10
862.68766916632455
 20
-687.73408159774419
 30
0.0
 11
862.68766916632455
 21
-638.73408159774419
 31
0.0
  0
LINE
  5
CE9B
  8
01
 10
854.18766916632455
 20
-688.23408159774419
 30
0.0
 11
862.18766916632455
 21
-688.23408159774419
 31
0.0
  0
LINE
  5
CE9D
  8
01
 10
854.18766916632455
 20
-638.23408159774419
 30
0.0
 11
862.18766916632455
 21
-638.23408159774419
 31
0.0
  0
POINT
  5
CEA7
  8
01
 10
1004.18778150607
 20
-422.2340815987726
 30
0.0
  0
POINT
  5
CEA8
  8
01
 10
863.18766916632467
 20
-663.23408159774419
 30
0.0
  0
POINT
  5
CEA9
  8
01
 10
863.18766916632467
 20
-663.23408159774419
 30
0.0
  0
POINT
  5
CEAA
  8
01
 10
863.18766916632467
 20
-663.23408159774419
 30
0.0
  0
LINE
  5
CEAB
  8
01
 10
979.18778150606965
 20
-477.7340815987726
 30
0.0
 11
1123.18778150607
 21
-477.7340815987726
 31
0.0
  0
LINE
  5
CEAC
  8
01
 10
1016.18778150607
 20
-455.73408159877272
 30
0.0
 11
1123.18778150607
 21
-455.73408159877272
 31
0.0
  0
LINE
  5
CEAD
  8
01
 10
979.18778150606965
 20
-455.73408159877272
 30
0.0
 11
992.18778150606977
 21
-455.73408159877272
 31
0.0
  0
LINE
  5
CEAE
  8
01
 10
978.18778150606965
 20
-476.73408159877272
 30
0.0
 11
978.18778150606965
 21
-456.7340815987726
 31
0.0
  0
ARC
  5
CEAF
  8
01
 10
979.18778150606965
 20
-476.73408159877272
 30
0.0
 40
1.0
 50
180.0
 51
270.0
  0
ARC
  5
CEB0
  8
01
 10
979.18778150606965
 20
-456.7340815987726
 30
0.0
 40
1.0
 50
90.0
 51
180.0
  0
LINE
  5
CEB1
  8
01
 10
992.18778150606977
 20
-471.2934685987729
 30
0.0
 11
992.18778150606977
 21
-422.2340815987726
 31
0.0
  0
LINE
  5
CEB2
  8
01
 10
1016.18778150607
 20
-471.2934685987729
 30
0.0
 11
1016.18778150607
 21
-422.2340815987726
 31
0.0
  0
LINE
  5
CEB3
  8
01
 10
1015.18778150607
 20
-472.2934685987729
 30
0.0
 11
993.18778150606977
 21
-472.2934685987729
 31
0.0
  0
ARC
  5
CEB4
  8
01
 10
993.18778150606977
 20
-471.2934685987729
 30
0.0
 40
1.0
 50
180.0
 51
270.0
  0
ARC
  5
CEB5
  8
01
 10
1015.18778150607
 20
-471.2934685987729
 30
0.0
 40
1.0
 50
270.0
 51
0.0
  0
LINE
  5
CEB6
  8
01
 10
1016.18778150607
 20
-422.2340815987726
 30
0.0
 11
992.18778150606977
 21
-422.2340815987726
 31
0.0
  0
LINE
  5
CEB7
  8
01
 10
1124.18778150607
 20
-476.73408159877272
 30
0.0
 11
1124.18778150607
 21
-456.7340815987726
 31
0.0
  0
ARC
  5
CEB8
  8
01
 10
1123.18778150607
 20
-476.73408159877272
 30
0.0
 40
1.0
 50
270.0
 51
0.0
  0
ARC
  5
CEB9
  8
01
 10
1123.18778150607
 20
-456.7340815987726
 30
0.0
 40
1.0
 50
0.0
 51
90.0
  0
LINE
  5
CEBA
  8
01
 10
979.28899816632475
 20
-658.23408129774464
 30
0.0
 11
1123.086331166325
 21
-658.23408129774464
 31
0.0
  0
LINE
  5
CEBB
  8
01
 10
979.28899816632475
 20
-668.23407951774425
 30
0.0
 11
1123.086331166325
 21
-668.23407951774425
 31
0.0
  0
ARC
  5
CEBC
  8
01
 10
1058.1876656663251
 20
-663.23408159774419
 30
0.0
 40
80.0
 50
177.09770999997869
 51
182.90229000002131
  0
ARC
  5
CEBD
  8
01
 10
979.28899816632475
 20
-667.23407949774446
 30
0.0
 40
1.0
 50
182.90229000002131
 51
270.0
  0
ARC
  5
CEBE
  8
01
 10
979.28899816632475
 20
-659.23408159774419
 30
0.0
 40
1.0
 50
90.0
 51
177.09772999999561
  0
LINE
  5
CEBF
  8
01
 10
993.43075216632485
 20
-675.23406639774385
 30
0.0
 11
1014.944573166325
 21
-675.23406639774385
 31
0.0
  0
LINE
  5
CEC0
  8
01
 10
992.18766516632525
 20
-668.42806640774427
 30
0.0
 11
1016.187665166325
 21
-668.42806640774427
 31
0.0
  0
ARC
  5
CEC1
  8
01
 10
997.18766516632513
 20
-667.42806639774437
 30
0.0
 40
1.0
 50
233.70828000004011
 51
270.0
  0
ARC
  5
CEC2
  8
01
 10
1242.1876641663259
 20
-663.23408159774419
 30
0.0
 40
250.0
 50
181.1459900000043
 51
182.53195999998391
  0
ARC
  5
CEC3
  8
01
 10
993.43075216632485
 20
-674.23406639774385
 30
0.0
 40
1.0
 50
182.53195999998391
 51
270.0
  0
ARC
  5
CEC4
  8
01
 10
1011.187665166325
 20
-667.42806639774437
 30
0.0
 40
1.0
 50
270.0
 51
306.29171000001321
  0
ARC
  5
CEC5
  8
01
 10
766.1876641663257
 20
-663.23408159774419
 30
0.0
 40
250.0
 50
357.46804000001612
 51
358.8540099999957
  0
ARC
  5
CEC6
  8
01
 10
1014.944573166325
 20
-674.23406639774385
 30
0.0
 40
1.0
 50
270.0
 51
357.46804000001612
  0
LINE
  5
CEC7
  8
01
 10
993.43075216632485
 20
-651.23408129774464
 30
0.0
 11
1014.944573166325
 21
-651.23408129774464
 31
0.0
  0
LINE
  5
CEC8
  8
01
 10
992.18766516632525
 20
-658.04008129774422
 30
0.0
 11
1016.187665166325
 21
-658.04008129774422
 31
0.0
  0
ARC
  5
CEC9
  8
01
 10
1242.1876641663259
 20
-663.23408159774419
 30
0.0
 40
250.0
 50
177.468040000016
 51
178.8540099999957
  0
ARC
  5
CECA
  8
01
 10
997.18766516632513
 20
-659.04008139774396
 30
0.0
 40
1.0
 50
90.0
 51
126.2930499999655
  0
ARC
  5
CECB
  8
01
 10
993.43075216632485
 20
-652.23408129774464
 30
0.0
 40
1.0
 50
90.0
 51
177.4680700000207
  0
ARC
  5
CECC
  8
01
 10
766.1876641663257
 20
-663.23408159774419
 30
0.0
 40
250.0
 50
1.145991999977229
 51
2.531962700000558
  0
ARC
  5
CECD
  8
01
 10
1011.187665166325
 20
-659.04008139774396
 30
0.0
 40
1.0
 50
53.706952000007071
 51
90.0
  0
ARC
  5
CECE
  8
01
 10
1014.944573166325
 20
-652.23408129774464
 30
0.0
 40
1.0
 50
2.5319289999982049
 51
90.0
  0
ARC
  5
CECF
  8
01
 10
1044.1876661663241
 20
-663.23408159774419
 30
0.0
 40
80.0
 50
357.09770999997858
 51
2.9022935999826749
  0
ARC
  5
CED0
  8
01
 10
1123.086331166325
 20
-667.23407949774446
 30
0.0
 40
1.0
 50
270.0
 51
357.09770999997858
  0
ARC
  5
CED1
  8
01
 10
1123.086331166325
 20
-659.23408159774419
 30
0.0
 40
1.0
 50
2.9022656000111282
 51
90.0
  0
LINE
  5
CED2
  8
01
 10
912.19634916632458
 20
-651.23408129774464
 30
0.0
 11
863.18766916632467
 21
-651.23408129774464
 31
0.0
  0
LINE
  5
CED3
  8
01
 10
912.19634916632458
 20
-675.23406639774385
 30
0.0
 11
863.18766916632467
 21
-675.23406639774385
 31
0.0
  0
LINE
  5
CED4
  8
01
 10
863.18766916632467
 20
-675.23406639774385
 30
0.0
 11
863.18766916632467
 21
-651.23408129774464
 31
0.0
  0
LINE
  5
CED5
  8
01
 10
889.9133435513213
 20
-658.29319829577719
 30
0.0
 11
917.56814355132155
 21
-658.05185829577749
 31
0.0
  0
ARC
  5
CED6
  8
01
 10
917.57686355132125
 20
-659.05181999577792
 30
0.0
 40
1.0
 50
3.0346829000177751
 51
90.500085999987206
  0
ARC
  5
CED7
  8
01
 10
838.6876335513216
 20
-663.23407859577776
 30
0.0
 40
80.0
 50
356.96533999998258
 51
3.0346557000021042
  0
ARC
  5
CED8
  8
01
 10
917.57686355132125
 20
-667.41633729577745
 30
0.0
 40
1.0
 50
269.49990999998511
 51
356.96533999998258
  0
ARC
  5
CED9
  8
01
 10
889.92207355132177
 20
-659.29316059577752
 30
0.0
 40
1.0
 50
90.500085999987206
 51
179.49996999998339
  0
LINE
  5
CEDA
  8
01
 10
888.92212355132153
 20
-659.28443639577745
 30
0.0
 11
888.8876535513217
 21
-663.23407769577716
 31
0.0
  0
LINE
  5
CEDB
  8
01
 10
888.92210355132113
 20
-667.18372439577718
 30
0.0
 11
888.88763355132153
 21
-663.23408389577708
 31
0.0
  0
ARC
  5
CEDC
  8
01
 10
889.92207355132177
 20
-667.17500429577751
 30
0.0
 40
1.0
 50
180.50000000001751
 51
269.49990999998511
  0
LINE
  5
CEDD
  8
01
 10
889.91124798489636
 20
-668.17494569761675
 30
0.0
 11
917.5681335513209
 21
-668.4163036257778
 31
0.0
  0
LINE
  5
CEDE
  8
01
 10
913.24704916632425
 20
-668.42858100774458
 30
0.0
 11
913.19630916632457
 21
-674.24281299774441
 31
0.0
  0
ARC
  5
CEDF
  8
01
 10
912.19634916632458
 20
-674.23406639774385
 30
0.0
 40
1.0
 50
270.0
 51
359.49999999998238
  0
LINE
  5
CEE0
  8
01
 10
913.2470591663249
 20
-658.03956729774393
 30
0.0
 11
913.19630916632457
 21
-652.22534929774429
 31
0.0
  0
ARC
  5
CEE1
  8
01
 10
912.19634916632458
 20
-652.23408129774464
 30
0.0
 40
1.0
 50
0.4999762299792074
 51
90.0
  0
LINE
  5
CEE2
  8
01
 10
889.91335916632397
 20
-668.22495097774402
 30
0.0
 11
901.18766916632455
 21
-668.32334035140605
 31
0.0
  0
LINE
  5
CEE3
  8
01
 10
898.18764916632517
 20
-668.29715967774428
 30
0.0
 11
889.68432916632446
 21
-668.22295216774455
 31
0.0
  0
LINE
  5
CEE4
  8
01
 10
888.68766916632455
 20
-659.24520529774418
 30
0.0
 11
888.68766916632455
 21
-667.22295769774439
 31
0.0
  0
ARC
  5
CEE5
  8
01
 10
889.68766916632455
 20
-667.22295769774439
 30
0.0
 40
1.0
 50
180.00001000000091
 51
269.49990999998511
  0
ARC
  5
CEE6
  8
01
 10
889.68766916632455
 20
-659.24520529774418
 30
0.0
 40
1.0
 50
90.500085999987206
 51
180.0
  0
LINE
  5
CEE7
  8
01
 10
913.2470591663249
 20
-658.03956729774393
 30
0.0
 11
889.67893916632511
 21
-658.24524229774397
 31
0.0
  0
LINE
  5
CEE8
  8
01
 10
913.24704916632425
 20
-668.42858100774458
 30
0.0
 11
901.18766916632455
 21
-668.32334037792964
 31
0.0
  0
POINT
  5
D210
  8
01
 10
1004.18778150607
 20
-364.23408159877272
 30
0.0
  0
LINE
  5
D211
  8
01
 10
979.18778150606965
 20
-308.73408159877272
 30
0.0
 11
1123.18778150607
 21
-308.73408159877272
 31
0.0
  0
LINE
  5
D212
  8
01
 10
1016.18778150607
 20
-330.73408159877272
 30
0.0
 11
1123.18778150607
 21
-330.73408159877272
 31
0.0
  0
LINE
  5
D213
  8
01
 10
979.18778150606965
 20
-330.73408159877272
 30
0.0
 11
992.18778150606977
 21
-330.73408159877272
 31
0.0
  0
LINE
  5
D214
  8
01
 10
978.18778150606965
 20
-309.73408159877272
 30
0.0
 11
978.18778150606965
 21
-329.73408159877272
 31
0.0
  0
ARC
  5
D215
  8
01
 10
979.18778150606965
 20
-309.73408159877272
 30
0.0
 40
1.0
 50
90.000000000000028
 51
180.0
  0
ARC
  5
D216
  8
01
 10
979.18778150606965
 20
-329.73408159877272
 30
0.0
 40
1.0
 50
180.0
 51
270.0
  0
LINE
  5
D217
  8
01
 10
992.18778150606977
 20
-315.17469459877248
 30
0.0
 11
992.18778150606977
 21
-364.23408159877272
 31
0.0
  0
LINE
  5
D218
  8
01
 10
1016.18778150607
 20
-315.17469459877248
 30
0.0
 11
1016.18778150607
 21
-364.23408159877272
 31
0.0
  0
LINE
  5
D219
  8
01
 10
1015.18778150607
 20
-314.17469459877248
 30
0.0
 11
993.18778150606977
 21
-314.17469459877248
 31
0.0
  0
ARC
  5
D21A
  8
01
 10
993.18778150606977
 20
-315.17469459877248
 30
0.0
 40
1.0
 50
90.000000000000028
 51
180.0
  0
ARC
  5
D21B
  8
01
 10
1015.18778150607
 20
-315.17469459877248
 30
0.0
 40
1.0
 50
0.0
 51
90.000000000000028
  0
LINE
  5
D21C
  8
01
 10
1016.18778150607
 20
-364.23408159877272
 30
0.0
 11
992.18778150606977
 21
-364.23408159877272
 31
0.0
  0
LINE
  5
D21D
  8
01
 10
1124.18778150607
 20
-309.73408159877272
 30
0.0
 11
1124.18778150607
 21
-329.73408159877272
 31
0.0
  0
ARC
  5
D21E
  8
01
 10
1123.18778150607
 20
-309.73408159877272
 30
0.0
 40
1.0
 50
0.0
 51
90.000000000000028
  0
ARC
  5
D21F
  8
01
 10
1123.18778150607
 20
-329.73408159877272
 30
0.0
 40
1.0
 50
270.0
 51
0.0
  0
ARC
  5
D25C
  8
01
 10
664.18767316632409
 20
-663.23408159774408
 30
0.0
 40
25.0
 50
11.53695973454157
 51
168.46304026545829
  0
LINE
  5
D260
  8
01
 10
814.18766916632467
 20
-638.23408159774419
 30
0.0
 11
814.18766916632467
 21
-688.23408159774419
 31
0.0
  0
LINE
  5
D261
  8
01
 10
805.68766916632455
 20
-687.73408159774419
 30
0.0
 11
805.68766916632444
 21
-638.73408159774419
 31
0.0
  0
LINE
  5
D262
  8
01
 10
814.18766916632467
 20
-688.23408159774419
 30
0.0
 11
806.18766916632467
 21
-688.23408159774419
 31
0.0
  0
LINE
  5
D264
  8
01
 10
814.18766916632467
 20
-638.23408159774419
 30
0.0
 11
806.18766916632455
 21
-638.23408159774419
 31
0.0
  0
POINT
  5
D26A
  8
01
 10
805.18766916632467
 20
-663.23408159774419
 30
0.0
  0
POINT
  5
D26B
  8
01
 10
805.18766916632467
 20
-663.23408159774419
 30
0.0
  0
POINT
  5
D26C
  8
01
 10
805.18766916632467
 20
-663.23408159774419
 30
0.0
  0
LINE
  5
D26D
  8
01
 10
689.08634016632459
 20
-658.23408129774452
 30
0.0
 11
545.28900716632415
 21
-658.23408129774452
 31
0.0
  0
LINE
  5
D26E
  8
01
 10
689.08634016632459
 20
-668.23407951774425
 30
0.0
 11
545.28900716632415
 21
-668.23407951774425
 31
0.0
  0
ARC
  5
D26F
  8
01
 10
610.18767266632403
 20
-663.23408159774408
 30
0.0
 40
80.0
 50
357.09770999997858
 51
2.902290000021297
  0
ARC
  5
D270
  8
01
 10
689.08634016632459
 20
-667.23407949774435
 30
0.0
 40
1.0
 50
270.0
 51
357.09770999997858
  0
ARC
  5
D271
  8
01
 10
689.08634016632459
 20
-659.23408159774408
 30
0.0
 40
1.0
 50
2.9022700000043482
 51
89.999999999999986
  0
LINE
  5
D272
  8
01
 10
674.94458616632426
 20
-675.23406639774385
 30
0.0
 11
653.43076516632391
 21
-675.23406639774385
 31
0.0
  0
LINE
  5
D273
  8
01
 10
676.18767316632409
 20
-668.42806640774415
 30
0.0
 11
652.18767316632409
 21
-668.42806640774415
 31
0.0
  0
ARC
  5
D274
  8
01
 10
671.1876731663242
 20
-667.42806639774415
 30
0.0
 40
1.0
 50
270.0
 51
306.29171999995992
  0
ARC
  5
D275
  8
01
 10
426.18767416632357
 20
-663.23408159774385
 30
0.0
 40
250.0
 50
357.46804000001612
 51
358.8540099999957
  0
ARC
  5
D276
  8
01
 10
674.94458616632426
 20
-674.23406639774385
 30
0.0
 40
1.0
 50
270.0
 51
357.46804000001612
  0
ARC
  5
D277
  8
01
 10
657.1876731663242
 20
-667.42806639774415
 30
0.0
 40
1.0
 50
233.70828999998679
 51
270.0
  0
ARC
  5
D278
  8
01
 10
902.1876741663234
 20
-663.23408159774419
 30
0.0
 40
250.0
 50
181.14599000000419
 51
182.53195999998391
  0
ARC
  5
D279
  8
01
 10
653.43076516632391
 20
-674.23406639774385
 30
0.0
 40
1.0
 50
182.53195999998391
 51
270.0
  0
LINE
  5
D27A
  8
01
 10
674.94458616632426
 20
-651.23408129774452
 30
0.0
 11
653.43076516632391
 21
-651.23408129774452
 31
0.0
  0
LINE
  5
D27B
  8
01
 10
676.18767316632409
 20
-658.040081297744
 30
0.0
 11
652.18767316632409
 21
-658.040081297744
 31
0.0
  0
ARC
  5
D27C
  8
01
 10
426.18767416632357
 20
-663.23408159774385
 30
0.0
 40
250.0
 50
1.1459900000042811
 51
2.5319599999839091
  0
ARC
  5
D27D
  8
01
 10
671.1876731663242
 20
-659.04008139774385
 30
0.0
 40
1.0
 50
53.706950000034453
 51
89.999999999999986
  0
ARC
  5
D27E
  8
01
 10
674.94458616632426
 20
-652.23408129774452
 30
0.0
 40
1.0
 50
2.53192999997921
 51
89.999999999999986
  0
ARC
  5
D27F
  8
01
 10
902.1876741663234
 20
-663.23408159774419
 30
0.0
 40
250.0
 50
177.46803729999939
 51
178.8540080000227
  0
ARC
  5
D280
  8
01
 10
657.1876731663242
 20
-659.04008139774385
 30
0.0
 40
1.0
 50
89.999999999999986
 51
126.29304799999289
  0
ARC
  5
D281
  8
01
 10
653.43076516632391
 20
-652.23408129774452
 30
0.0
 40
1.0
 50
89.999999999999986
 51
177.46807100000169
  0
ARC
  5
D282
  8
01
 10
624.18767216632466
 20
-663.23408159774408
 30
0.0
 40
80.0
 50
177.09770640001719
 51
182.90229000002131
  0
ARC
  5
D283
  8
01
 10
545.28900716632415
 20
-667.23407949774435
 30
0.0
 40
1.0
 50
182.90229000002131
 51
270.0
  0
ARC
  5
D284
  8
01
 10
545.28900716632415
 20
-659.23408159774408
 30
0.0
 40
1.0
 50
89.999999999999986
 51
177.09773439998881
  0
LINE
  5
D285
  8
01
 10
756.17898916632475
 20
-651.23408129774464
 30
0.0
 11
805.18766916632467
 21
-651.23408129774464
 31
0.0
  0
LINE
  5
D286
  8
01
 10
756.17898916632475
 20
-675.23406639774385
 30
0.0
 11
805.18766916632467
 21
-675.23406639774385
 31
0.0
  0
LINE
  5
D287
  8
01
 10
805.18766916632467
 20
-675.23406639774385
 30
0.0
 11
805.18766916632467
 21
-651.23408129774464
 31
0.0
  0
LINE
  5
D288
  8
01
 10
778.46199478132803
 20
-658.29319829577719
 30
0.0
 11
750.80719478132767
 21
-658.05185829577749
 31
0.0
  0
ARC
  5
D289
  8
01
 10
750.79847478132797
 20
-659.05181999577792
 30
0.0
 40
1.0
 50
89.499914000012765
 51
176.9653170999822
  0
ARC
  5
D28A
  8
01
 10
829.68770478132774
 20
-663.23407859577776
 30
0.0
 40
80.0
 50
176.96534429999781
 51
183.03466000001731
  0
ARC
  5
D28B
  8
01
 10
750.79847478132797
 20
-667.41633729577745
 30
0.0
 40
1.0
 50
183.03466000001731
 51
270.50009000001501
  0
ARC
  5
D28C
  8
01
 10
778.45326478132745
 20
-659.29316059577752
 30
0.0
 40
1.0
 50
0.5000300000165553
 51
89.499914000012765
  0
LINE
  5
D28D
  8
01
 10
779.45321478132792
 20
-659.28443639577745
 30
0.0
 11
779.48768478132752
 21
-663.23407769577716
 31
0.0
  0
LINE
  5
D28E
  8
01
 10
779.45323478132832
 20
-667.18372439577718
 30
0.0
 11
779.48770478132792
 21
-663.23408389577708
 31
0.0
  0
ARC
  5
D28F
  8
01
 10
778.45326478132745
 20
-667.17500429577751
 30
0.0
 40
1.0
 50
270.50009000001501
 51
359.49999999998238
  0
LINE
  5
D290
  8
01
 10
778.46409034775286
 20
-668.17494569761675
 30
0.0
 11
750.80720478132844
 21
-668.4163036257778
 31
0.0
  0
LINE
  5
D291
  8
01
 10
755.12828916632486
 20
-668.42858100774458
 30
0.0
 11
755.17902916632465
 21
-674.24281299774441
 31
0.0
  0
ARC
  5
D292
  8
01
 10
756.17898916632475
 20
-674.23406639774385
 30
0.0
 40
1.0
 50
180.50000000001751
 51
270.0
  0
LINE
  5
D293
  8
01
 10
755.12827916632432
 20
-658.03956729774393
 30
0.0
 11
755.17902916632465
 21
-652.22534929774429
 31
0.0
  0
ARC
  5
D294
  8
01
 10
756.17898916632475
 20
-652.23408129774464
 30
0.0
 40
1.0
 50
89.999999999999986
 51
179.5000237700207
  0
LINE
  5
D295
  8
01
 10
778.46197916632536
 20
-668.22495097774402
 30
0.0
 11
767.18766916632455
 21
-668.32334035140605
 31
0.0
  0
LINE
  5
D296
  8
01
 10
770.18768916632405
 20
-668.29715967774428
 30
0.0
 11
778.69100916632487
 21
-668.22295216774455
 31
0.0
  0
LINE
  5
D297
  8
01
 10
779.68766916632455
 20
-659.24520529774418
 30
0.0
 11
779.68766916632455
 21
-667.22295769774439
 31
0.0
  0
ARC
  5
D298
  8
01
 10
778.68766916632467
 20
-667.22295769774439
 30
0.0
 40
1.0
 50
270.50009000001501
 51
359.999989999999
  0
ARC
  5
D299
  8
01
 10
778.68766916632467
 20
-659.24520529774418
 30
0.0
 40
1.0
 50
0.0
 51
89.499914000012765
  0
LINE
  5
D29A
  8
01
 10
755.12827916632432
 20
-658.03956729774393
 30
0.0
 11
778.69639916632423
 21
-658.24524229774397
 31
0.0
  0
LINE
  5
D29B
  8
01
 10
755.12828916632486
 20
-668.42858100774458
 30
0.0
 11
767.18766916632455
 21
-668.32334037792964
 31
0.0
  0
ARC
  5
D2CC
  8
01
 10
1004.187665166325
 20
-663.23408159774419
 30
0.0
 40
25.0
 50
191.53695416750779
 51
348.46304583249213
  0
ARC
  5
D2CD
  8
01
 10
664.18767316632409
 20
-663.23408159774408
 30
0.0
 40
25.0
 50
191.53695416750779
 51
348.46304583249213
  0
LINE
  5
D535
  8
01
 10
1022.187665166325
 20
-645.8847300248467
 30
0.0
 11
1022.187665166325
 21
-679.23408159774397
 31
0.0
  0
LINE
  5
D536
  8
01
 10
984.97829245402636
 20
-679.23408159774397
 30
0.0
 11
1022.187665166325
 21
-679.23408159774397
 31
0.0
  0
LINE
  5
D823
  8
01
 10
701.68768516632508
 20
-429.2340815977438
 30
0.0
 11
806.68768516632565
 21
-429.23408159774482
 31
0.0
  0
LINE
  5
D99C
  8
01
 10
979.18778150606965
 20
-373.23408159877272
 30
0.0
 11
979.18778150606965
 21
-365.23408159877272
 31
0.0
  0
LINE
  5
D99D
  8
01
 10
1029.1877815060691
 20
-373.23408159877272
 30
0.0
 11
1029.1877815060691
 21
-365.23408159877272
 31
0.0
  0
LINE
  5
D99E
  8
01
 10
979.18778150606965
 20
-373.23408159877272
 30
0.0
 11
1029.1877815060691
 21
-373.23408159877272
 31
0.0
  0
LINE
  5
D99F
  8
01
 10
979.68778150606977
 20
-364.73408159877272
 30
0.0
 11
1028.68778150607
 21
-364.73408159877272
 31
0.0
  0
ARC
  5
D9A0
  8
01
 10
979.68778150606977
 20
-365.2340815987726
 30
0.0
 40
0.5
 50
89.999999999986969
 51
180.00000000001299
  0
ARC
  5
D9A1
  8
01
 10
1028.68778150607
 20
-365.23408159877272
 30
0.0
 40
0.5
 50
359.99999999999352
 51
90.0
  0
LINE
  5
D9A2
  8
01
 10
979.18778150606965
 20
-413.23408159877272
 30
0.0
 11
979.18778150606965
 21
-421.23408159877272
 31
0.0
  0
LINE
  5
D9A3
  8
01
 10
1029.1877815060691
 20
-413.23408159877272
 30
0.0
 11
1029.1877815060691
 21
-421.23408159877272
 31
0.0
  0
LINE
  5
D9A4
  8
01
 10
979.18778150606965
 20
-413.23408159877272
 30
0.0
 11
1029.1877815060691
 21
-413.23408159877272
 31
0.0
  0
LINE
  5
D9A5
  8
01
 10
979.68778150606977
 20
-421.73408159877272
 30
0.0
 11
1028.68778150607
 21
-421.73408159877272
 31
0.0
  0
ARC
  5
D9A6
  8
01
 10
979.68778150606977
 20
-421.23408159877278
 30
0.0
 40
0.5
 50
179.99999999998701
 51
270.00000000001302
  0
ARC
  5
D9A7
  8
01
 10
1028.68778150607
 20
-421.23408159877278
 30
0.0
 40
0.5
 50
270.0
 51
0.0000000000065138
  0
ARC
  5
D9B2
  8
01
 10
862.18766916632455
 20
-638.73408159774419
 30
0.0
 40
0.5
 50
0.0
 51
90.0
  0
ARC
  5
D9B3
  8
01
 10
862.18766916632455
 20
-687.73408159774419
 30
0.0
 40
0.5
 50
270.0
 51
0.0
  0
ARC
  5
D9B4
  8
01
 10
806.18766916632467
 20
-687.73408159774419
 30
0.0
 40
0.5
 50
180.0
 51
270.0
  0
ARC
  5
D9B5
  8
01
 10
806.18766916632455
 20
-638.73408159774419
 30
0.0
 40
0.5
 50
90.0
 51
180.0
  0
LINE
  5
DABC
  8
01
 10
646.18768516632463
 20
-604.73408159774419
 30
0.0
 11
646.18768516632463
 21
-645.88479247371515
 31
0.0
  0
LINE
  5
DABE
  8
01
 10
1022.187665166325
 20
-604.73408159774419
 30
0.0
 11
1022.187665166325
 21
-645.88480492373969
 31
0.0
  0
LINE
  5
DABF
  8
01
  6
BYBLOCK
 10
1001.187665166325
 20
-604.73408159774419
 30
0.0
 11
1007.187665166325
 21
-604.73408159774419
 31
0.0
  0
LINE
  5
DAC0
  8
01
  6
BYBLOCK
 10
1014.187665166325
 20
-604.73408159774419
 30
0.0
 11
1022.187665166325
 21
-604.73408159774419
 31
0.0
  0
LINE
  5
DAC1
  8
01
  6
BYBLOCK
 10
1001.187665166325
 20
-605.7340815977434
 30
0.0
 11
1001.187665166325
 21
-604.73408159774419
 31
0.0
  0
LINE
  5
DAC2
  8
01
  6
BYBLOCK
 10
1007.187665166325
 20
-605.73408159774419
 30
0.0
 11
1007.187665166325
 21
-604.73408159774419
 31
0.0
  0
ARC
  5
DAC3
  8
01
  6
BYBLOCK
 10
997.68766516632479
 20
-605.73408159774419
 30
0.0
 40
3.5
 50
179.99999999998701
 51
0.0000000000130276
  0
ARC
  5
DAC4
  8
01
  6
BYBLOCK
 10
1010.687665166325
 20
-605.73408159774419
 30
0.0
 40
3.5
 50
180.0
 51
0.0
  0
CIRCLE
  5
DAC5
  8
01
  6
BYBLOCK
 10
1004.187665166036
 20
-613.23408159803284
 30
0.0
 40
6.0
  0
LINE
  5
DAC6
  8
01
  6
BYBLOCK
 10
994.18766516632479
 20
-604.73408159774419
 30
0.0
 11
956.18766516632513
 21
-604.73408159774419
 31
0.0
  0
LINE
  5
DAC7
  8
01
  6
BYBLOCK
 10
994.18766516632456
 20
-605.7340815977434
 30
0.0
 11
994.18766516632479
 21
-604.73408159774419
 31
0.0
  0
LINE
  5
DAC8
  8
01
  6
BYBLOCK
 10
1014.187665166325
 20
-605.73408159774419
 30
0.0
 11
1014.187665166325
 21
-604.73408159774419
 31
0.0
  0
LINE
  5
DAC9
  8
01
  6
BYBLOCK
 10
1004.187665166036
 20
-616.78408150471444
 30
0.0
 11
1007.737665072718
 21
-613.23408159803284
 31
0.0
  0
LINE
  5
DACA
  8
01
  6
BYBLOCK
 10
1007.737665072718
 20
-613.23408159803284
 30
0.0
 11
1004.187665166036
 21
-609.68408169135137
 31
0.0
  0
LINE
  5
DACB
  8
01
  6
BYBLOCK
 10
1000.637665259354
 20
-613.23408159803284
 30
0.0
 11
1004.187665166036
 21
-616.78408150471444
 31
0.0
  0
LINE
  5
DACC
  8
01
  6
BYBLOCK
 10
1004.187665166036
 20
-609.68408169135137
 30
0.0
 11
1000.637665259354
 21
-613.23408159803284
 31
0.0
  0
LINE
  5
DACD
  8
01
  6
BYBLOCK
 10
667.18767316632443
 20
-604.73408159774419
 30
0.0
 11
661.1876731663242
 21
-604.73408159774419
 31
0.0
  0
LINE
  5
DACE
  8
01
  6
BYBLOCK
 10
654.1876731663242
 20
-604.73408159774419
 30
0.0
 11
646.18768516632463
 21
-604.73408159774419
 31
0.0
  0
LINE
  5
DACF
  8
01
  6
BYBLOCK
 10
667.1876731663242
 20
-605.7340815977434
 30
0.0
 11
667.18767316632443
 21
-604.73408159774419
 31
0.0
  0
LINE
  5
DAD0
  8
01
  6
BYBLOCK
 10
661.1876731663242
 20
-605.73408159774419
 30
0.0
 11
661.1876731663242
 21
-604.73408159774419
 31
0.0
  0
ARC
  5
DAD1
  8
01
  6
BYBLOCK
 10
670.68767316632443
 20
-605.73408159774419
 30
0.0
 40
3.5
 50
179.99999999998701
 51
0.0000000000130276
  0
ARC
  5
DAD2
  8
01
  6
BYBLOCK
 10
657.6876731663242
 20
-605.73408159774419
 30
0.0
 40
3.5
 50
180.0
 51
0.0
  0
CIRCLE
  5
DAD3
  8
01
  6
BYBLOCK
 10
664.18767316661297
 20
-613.23408159803284
 30
0.0
 40
6.0
  0
LINE
  5
DAD4
  8
01
  6
BYBLOCK
 10
674.18767316632443
 20
-604.73408159774419
 30
0.0
 11
712.1876731663242
 21
-604.73408159774419
 31
0.0
  0
LINE
  5
DAD5
  8
01
  6
BYBLOCK
 10
674.18767316632454
 20
-605.7340815977434
 30
0.0
 11
674.18767316632443
 21
-604.73408159774419
 31
0.0
  0
LINE
  5
DAD6
  8
01
  6
BYBLOCK
 10
654.1876731663242
 20
-605.73408159774419
 30
0.0
 11
654.1876731663242
 21
-604.73408159774419
 31
0.0
  0
LINE
  5
DAD7
  8
01
  6
BYBLOCK
 10
664.18767316661297
 20
-616.78408150471444
 30
0.0
 11
660.63767325993149
 21
-613.23408159803284
 31
0.0
  0
LINE
  5
DAD8
  8
01
  6
BYBLOCK
 10
660.63767325993149
 20
-613.23408159803284
 30
0.0
 11
664.18767316661297
 21
-609.68408169135137
 31
0.0
  0
LINE
  5
DAD9
  8
01
  6
BYBLOCK
 10
667.73767307329456
 20
-613.23408159803284
 30
0.0
 11
664.18767316661297
 21
-616.78408150471444
 31
0.0
  0
LINE
  5
DADA
  8
01
  6
BYBLOCK
 10
664.18767316661297
 20
-609.68408169135137
 30
0.0
 11
667.73767307329456
 21
-613.23408159803284
 31
0.0
  0
LINE
  5
DADB
  8
01
  6
BYBLOCK
 10
1010.188549348096
 20
-382.98408159877272
 30
0.0
 11
998.18854934809622
 21
-382.98408159877272
 31
0.0
  0
LINE
  5
DADC
  8
01
  6
BYBLOCK
 10
998.18854934809622
 20
-403.48408159877272
 30
0.0
 11
1010.188549348096
 21
-403.48408159877272
 31
0.0
  0
LINE
  5
DADD
  8
01
  6
BYBLOCK
 10
998.18854934809622
 20
-403.48408159877272
 30
0.0
 11
998.18854934809622
 21
-402.73408159877249
 31
0.0
  0
LINE
  5
DADE
  8
01
  6
BYBLOCK
 10
998.18854934809622
 20
-383.73408159877272
 30
0.0
 11
998.18854934809622
 21
-382.98408159877272
 31
0.0
  0
LINE
  5
DADF
  8
01
  6
BYBLOCK
 10
1010.188549348096
 20
-403.48408159877272
 30
0.0
 11
1010.188549348096
 21
-402.73408159877249
 31
0.0
  0
LINE
  5
DAE0
  8
01
  6
BYBLOCK
 10
1010.188549348096
 20
-383.73408159877272
 30
0.0
 11
1010.188549348096
 21
-382.98408159877272
 31
0.0
  0
LINE
  5
DAE2
  8
01
 10
1015.4995534335779
 20
-613.23408159803284
 30
0.0
 11
992.87577689849468
 21
-613.23408159803284
 31
0.0
  0
LINE
  5
DAE3
  8
01
 10
1004.187665166036
 20
-601.92219333049115
 30
0.0
 11
1004.187665166036
 21
-624.54596986557465
 31
0.0
  0
TEXT
  5
DC06
  8
01
 10
1053.0598844115259
 20
-434.17326706794091
 30
0.0
 40
4.5499999999999989
  1
材質：亜鉛ダイキャスト
  0
TEXT
  5
DC07
  8
01
 10
1053.0598844115259
 20
-441.75660040127423
 30
0.0
 40
4.5499999999999989
  1
仕上げ：各種メッキ
  0
SOLID
  5
DC08
  8
01
 10
1038.262824668238
 20
-456.56400877862251
 30
0.0
 11
1036.245656835406
 21
-458.26071491462972
 31
0.0
 12
1037.6035054980291
 22
-456.00150602937998
 32
0.0
 13
1037.6035054980291
 23
-456.00150602937998
 33
0.0
1001
ACAD
1000
DSTYLE
1002
{
1070
    40
1040
1.3
1002
}
  0
LINE
  5
DC0A
  8
01
 10
1010.188549348096
 20
-382.98408159877272
 30
0.0
 11
1045.3489401080981
 21
-382.98408159877272
 31
0.0
  0
LINE
  5
DC0B
  8
01
 10
1010.188549348096
 20
-403.48408159877272
 30
0.0
 11
1045.3489401080981
 21
-403.48408159877272
 31
0.0
  0
LINE
  5
DC0C
  8
01
 10
1044.0489401080979
 20
-385.58408159877268
 30
0.0
 11
1044.0489401080979
 21
-400.8840815987727
 31
0.0
  0
TEXT
  5
DC10
  8
01
 10
914.58415959267495
 20
-443.6507482654394
 30
0.0
 40
4.5499999999999989
  1
材質：亜鉛ダイキャスト
  0
TEXT
  5
DC11
  8
01
 10
930.96415959267495
 20
-451.23408159877272
 30
0.0
 40
4.5499999999999989
  1
仕上げ：クローム
  0
SOLID
  5
DC12
  8
01
 10
1001.610520805609
 20
-432.38806973868282
 30
0.0
 11
1003.928266406386
 21
-431.13274782464748
 31
0.0
 12
1002.142935783176
 22
-433.0719157760139
 32
0.0
 13
1002.142935783176
 23
-433.0719157760139
 33
0.0
1001
ACAD
1000
DSTYLE
1002
{
1070
    40
1040
1.3
1002
}
  0
LINE
  5
DC14
  8
01
 10
1022.187665166325
 20
-604.73408159774419
 30
0.0
 11
1050.4876651663251
 21
-604.73408159774419
 31
0.0
  0
LINE
  5
DC15
  8
01
 10
1022.187665166325
 20
-679.23408159774397
 30
0.0
 11
1050.4876651663251
 21
-679.23408159774397
 31
0.0
  0
LINE
  5
DC16
  8
01
 10
1049.1876651663249
 20
-607.33408159774422
 30
0.0
 11
1049.1876651663249
 21
-676.63408159774394
 31
0.0
  0
LINE
  5
DC1A
  8
01
 10
1123.086331166325
 20
-658.23408129774464
 30
0.0
 11
1140.4876651663251
 21
-658.23408129774464
 31
0.0
  0
LINE
  5
DC1B
  8
01
 10
1123.086331166325
 20
-668.23407951774425
 30
0.0
 11
1140.4876651663251
 21
-668.23407951774425
 31
0.0
  0
LINE
  5
DC1C
  8
01
 10
1139.1876651663249
 20
-660.83408129774455
 30
0.0
 11
1139.1876651663249
 21
-665.63407951774434
 31
0.0
  0
LINE
  5
DC20
  8
01
 10
1106.942929503417
 20
-413.23408159877272
 30
0.0
 11
1150.487781506069
 21
-413.23408159877272
 31
0.0
  0
LINE
  5
DC21
  8
01
 10
1123.18778150607
 20
-477.7340815987726
 30
0.0
 11
1150.487781506069
 21
-477.7340815987726
 31
0.0
  0
LINE
  5
DC22
  8
01
 10
1149.18778150607
 20
-415.83408159877268
 30
0.0
 11
1149.18778150607
 21
-475.13408159877258
 31
0.0
  0
LINE
  5
DC26
  8
01
 10
1106.942929503417
 20
-413.23408159877272
 30
0.0
 11
1140.487781506069
 21
-413.23408159877272
 31
0.0
  0
LINE
  5
DC27
  8
01
 10
1123.18778150607
 20
-455.73408159877272
 30
0.0
 11
1140.487781506069
 21
-455.73408159877272
 31
0.0
  0
LINE
  5
DC28
  8
01
 10
1139.18778150607
 20
-415.83408159877268
 30
0.0
 11
1139.18778150607
 21
-453.13408159877258
 31
0.0
  0
LINE
  5
DC2C
  8
01
 10
978.18778150606965
 20
-476.73408159877272
 30
0.0
 11
978.18778150606965
 21
-504.03408159877262
 31
0.0
  0
LINE
  5
DC2D
  8
01
 10
1124.18778150607
 20
-476.73408159877272
 30
0.0
 11
1124.18778150607
 21
-504.03408159877262
 31
0.0
  0
LINE
  5
DC2E
  8
01
 10
980.78778150606968
 20
-502.7340815987726
 30
0.0
 11
1121.5877815060701
 21
-502.7340815987726
 31
0.0
  0
LINE
  5
DC32
  8
01
 10
1004.18778150607
 20
-443.23408159877272
 30
0.0
 11
1004.18778150607
 21
-494.03408159877262
 31
0.0
  0
LINE
  5
DC33
  8
01
 10
1124.18778150607
 20
-476.73408159877272
 30
0.0
 11
1124.18778150607
 21
-494.03408159877262
 31
0.0
  0
LINE
  5
DC34
  8
01
 10
1006.787781506069
 20
-492.7340815987726
 30
0.0
 11
1121.5877815060701
 21
-492.7340815987726
 31
0.0
  0
LINE
  5
DC38
  8
01
 10
1004.187665166325
 20
-638.23408159774419
 30
0.0
 11
967.88766516632495
 21
-638.23408159774419
 31
0.0
  0
LINE
  5
DC39
  8
01
 10
1004.187665166325
 20
-688.23408159774328
 30
0.0
 11
967.88766516632495
 21
-688.23408159774328
 31
0.0
  0
LINE
  5
DC3A
  8
01
 10
969.18766516632502
 20
-640.8340815977441
 30
0.0
 11
969.18766516632502
 21
-685.63408159774315
 31
0.0
  0
CIRCLE
  5
DC3E
  8
01
 10
868.68766916632455
 20
-663.23408159774419
 30
0.0
 40
3.0
  0
LINE
  5
DC3F
  8
01
 10
800.98670727200124
 20
-662.48408159774408
 30
0.0
 11
799.68766916632455
 21
-661.73408159774419
 31
0.0
  0
LINE
  5
DC40
  8
01
 10
799.68766916632455
 20
-661.73408159774419
 30
0.0
 11
798.38863106064787
 21
-662.48408159774408
 31
0.0
  0
LINE
  5
DC41
  8
01
 10
798.38863106064787
 20
-662.48408159774408
 30
0.0
 11
798.38863106064787
 21
-663.98408159774419
 31
0.0
  0
LINE
  5
DC42
  8
01
 10
798.38863106064787
 20
-663.98408159774419
 30
0.0
 11
799.68766916632455
 21
-664.73408159774408
 31
0.0
  0
LINE
  5
DC43
  8
01
 10
799.68766916632455
 20
-664.73408159774408
 30
0.0
 11
800.98670727200124
 21
-663.98408159774419
 31
0.0
  0
LINE
  5
DC44
  8
01
 10
800.98670727200124
 20
-663.98408159774419
 30
0.0
 11
800.98670727200124
 21
-662.48408159774408
 31
0.0
  0
CIRCLE
  5
DC45
  8
01
 10
799.68766916632455
 20
-663.23408159774419
 30
0.0
 40
3.0
  0
LINE
  5
DC46
  8
01
 10
953.18766516632502
 20
-577.23408159774397
 30
0.0
 11
953.18766516632502
 21
-555.93408159774413
 31
0.0
  0
LINE
  5
DC47
  8
01
 10
1004.187665166325
 20
-633.23408159774419
 30
0.0
 11
1004.187665166325
 21
-555.93408159774413
 31
0.0
  0
LINE
  5
DC48
  8
01
 10
955.78766516632493
 20
-557.23408159774397
 30
0.0
 11
1001.587665166325
 21
-557.23408159774397
 31
0.0
  0
LINE
  5
DC4C
  8
01
 10
1022.187665166325
 20
-605.23408159774408
 30
0.0
 11
1022.187665166325
 21
-545.93408159774413
 31
0.0
  0
LINE
  5
DC4D
  8
01
 10
953.18766516632502
 20
-577.23408159774397
 30
0.0
 11
953.18766516632502
 21
-545.93408159774413
 31
0.0
  0
LINE
  5
DC4E
  8
01
 10
1019.587665166325
 20
-547.23408159774408
 30
0.0
 11
955.78766516632493
 21
-547.23408159774408
 31
0.0
  0
LINE
  5
DC52
  8
01
 10
942.18766516632502
 20
-635.23408229587494
 30
0.0
 11
942.18766516632502
 21
-555.93408159774413
 31
0.0
  0
LINE
  5
DC53
  8
01
 10
953.18766516632502
 20
-577.23408159774397
 30
0.0
 11
953.18766516632502
 21
-555.93408159774413
 31
0.0
  0
LINE
  5
DC54
  8
01
 10
944.78766516632504
 20
-557.23408159774397
 30
0.0
 11
950.587665166325
 21
-557.23408159774397
 31
0.0
  0
LINE
  5
DC58
  8
01
 10
821.68766916632444
 20
-583.23408159774397
 30
0.0
 11
821.68766916632444
 21
-555.93408159774413
 31
0.0
  0
LINE
  5
DC59
  8
01
 10
846.68766916632444
 20
-583.23408159774397
 30
0.0
 11
846.68766916632444
 21
-555.93408159774413
 31
0.0
  0
LINE
  5
DC5A
  8
01
 10
824.28766916632458
 20
-557.23408159774397
 30
0.0
 11
844.08766916632453
 21
-557.23408159774397
 31
0.0
  0
LINE
  5
DC5E
  8
01
 10
840.68766916632455
 20
-577.23408159774397
 30
0.0
 11
895.48766916632439
 21
-577.23408159774397
 31
0.0
  0
LINE
  5
DC5F
  8
01
 10
840.68766916632455
 20
-707.23408159774397
 30
0.0
 11
895.48766916632439
 21
-707.23408159774397
 31
0.0
  0
LINE
  5
DC60
  8
01
 10
894.18766916632455
 20
-579.83408159774399
 30
0.0
 11
894.18766916632455
 21
-704.63408159774394
 31
0.0
  0
LINE
  5
DC64
  8
01
 10
840.68766916632455
 20
-585.23408159774408
 30
0.0
 11
879.99126020288111
 21
-585.23408159774408
 31
0.0
  0
LINE
  5
DC65
  8
01
 10
840.68766916632455
 20
-699.23408159774397
 30
0.0
 11
879.99126020288111
 21
-699.23408159774397
 31
0.0
  0
LINE
  5
DC66
  8
01
 10
878.69126020288127
 20
-587.83408159774399
 30
0.0
 11
878.69126020288127
 21
-696.63408159774394
 31
0.0
  0
TEXT
  5
DC6A
  8
01
 10
877.78126020288153
 20
-631.35369425076237
 30
0.0
 40
4.5499999999999989
  1
114
 50
90.0
  0
LINE
  5
DC6B
  8
01
  6
BYBLOCK
 10
879.3879280968813
 20
-696.63408159774394
 30
0.0
 11
878.69126020288127
 21
-699.23408159774397
 31
0.0
  0
LINE
  5
DC6C
  8
01
  6
BYBLOCK
 10
878.69126020288127
 20
-699.23408159774397
 30
0.0
 11
877.99459230888124
 21
-696.63408159774394
 31
0.0
  0
LINE
  5
DC6D
  8
01
  6
BYBLOCK
 10
878.69126020288127
 20
-699.23408159774397
 30
0.0
 11
878.69126020288127
 21
-696.63408159774394
 31
0.0
  0
LINE
  5
DC6E
  8
01
  6
BYBLOCK
 10
877.99459230888124
 20
-587.83408159774399
 30
0.0
 11
878.69126020288127
 21
-585.23408159774408
 31
0.0
  0
LINE
  5
DC6F
  8
01
  6
BYBLOCK
 10
878.69126020288127
 20
-585.23408159774408
 30
0.0
 11
879.3879280968813
 21
-587.83408159774399
 31
0.0
  0
LINE
  5
DC70
  8
01
  6
BYBLOCK
 10
878.69126020288127
 20
-585.23408159774408
 30
0.0
 11
878.69126020288127
 21
-587.83408159774399
 31
0.0
  0
TEXT
  5
DC71
  8
01
 10
893.27766916632481
 20
-631.24536091742914
 30
0.0
 40
4.5499999999999989
  1
130
 50
90.0
  0
LINE
  5
DC72
  8
01
  6
BYBLOCK
 10
894.88433706032447
 20
-704.63408159774394
 30
0.0
 11
894.18766916632455
 21
-707.23408159774397
 31
0.0
  0
LINE
  5
DC73
  8
01
  6
BYBLOCK
 10
894.18766916632455
 20
-707.23408159774397
 30
0.0
 11
893.49100127232452
 21
-704.63408159774394
 31
0.0
  0
LINE
  5
DC74
  8
01
  6
BYBLOCK
 10
894.18766916632455
 20
-707.23408159774397
 30
0.0
 11
894.18766916632455
 21
-704.63408159774394
 31
0.0
  0
LINE
  5
DC75
  8
01
  6
BYBLOCK
 10
893.49100127232452
 20
-579.83408159774399
 30
0.0
 11
894.18766916632455
 21
-577.23408159774397
 31
0.0
  0
LINE
  5
DC76
  8
01
  6
BYBLOCK
 10
894.18766916632455
 20
-577.23408159774397
 30
0.0
 11
894.88433706032447
 21
-579.83408159774399
 31
0.0
  0
LINE
  5
DC77
  8
01
  6
BYBLOCK
 10
894.18766916632455
 20
-577.23408159774397
 30
0.0
 11
894.18766916632455
 21
-579.83408159774399
 31
0.0
  0
TEXT
  5
DC78
  8
01
 10
829.8543358329913
 20
-556.32408159774411
 30
0.0
 40
4.5499999999999989
  1
25
  0
LINE
  5
DC79
  8
01
  6
BYBLOCK
 10
844.08766916632453
 20
-556.53741370374405
 30
0.0
 11
846.68766916632444
 21
-557.23408159774397
 31
0.0
  0
LINE
  5
DC7A
  8
01
  6
BYBLOCK
 10
846.68766916632444
 20
-557.23408159774397
 30
0.0
 11
844.08766916632453
 21
-557.93074949174411
 31
0.0
  0
LINE
  5
DC7B
  8
01
  6
BYBLOCK
 10
846.68766916632444
 20
-557.23408159774397
 30
0.0
 11
844.08766916632453
 21
-557.23408159774397
 31
0.0
  0
LINE
  5
DC7C
  8
01
  6
BYBLOCK
 10
824.28766916632458
 20
-557.93074949174411
 30
0.0
 11
821.68766916632444
 21
-557.23408159774397
 31
0.0
  0
LINE
  5
DC7D
  8
01
  6
BYBLOCK
 10
821.68766916632444
 20
-557.23408159774397
 30
0.0
 11
824.28766916632458
 21
-556.53741370374405
 31
0.0
  0
LINE
  5
DC7E
  8
01
  6
BYBLOCK
 10
821.68766916632444
 20
-557.23408159774397
 30
0.0
 11
824.28766916632458
 21
-557.23408159774397
 31
0.0
  0
TEXT
  5
DC7F
  8
01
 10
943.67933183299158
 20
-556.32408159774411
 30
0.0
 40
4.5499999999999989
  1
11
  0
LINE
  5
DC80
  8
01
  6
BYBLOCK
 10
950.587665166325
 20
-556.53741370374405
 30
0.0
 11
953.18766516632502
 21
-557.23408159774397
 31
0.0
  0
LINE
  5
DC81
  8
01
  6
BYBLOCK
 10
953.18766516632502
 20
-557.23408159774397
 30
0.0
 11
950.587665166325
 21
-557.93074949174411
 31
0.0
  0
LINE
  5
DC82
  8
01
  6
BYBLOCK
 10
953.18766516632502
 20
-557.23408159774397
 30
0.0
 11
950.587665166325
 21
-557.23408159774397
 31
0.0
  0
LINE
  5
DC83
  8
01
  6
BYBLOCK
 10
944.78766516632504
 20
-557.93074949174411
 30
0.0
 11
942.18766516632502
 21
-557.23408159774397
 31
0.0
  0
LINE
  5
DC84
  8
01
  6
BYBLOCK
 10
942.18766516632502
 20
-557.23408159774397
 30
0.0
 11
944.78766516632504
 21
-556.53741370374405
 31
0.0
  0
LINE
  5
DC85
  8
01
  6
BYBLOCK
 10
942.18766516632502
 20
-557.23408159774397
 30
0.0
 11
944.78766516632504
 21
-557.23408159774397
 31
0.0
  0
TEXT
  5
DC86
  8
01
 10
983.35433183299153
 20
-546.32408159774411
 30
0.0
 40
4.5499999999999989
  1
69
  0
LINE
  5
DC87
  8
01
  6
BYBLOCK
 10
955.78766516632493
 20
-547.93074949174411
 30
0.0
 11
953.18766516632502
 21
-547.23408159774408
 31
0.0
  0
LINE
  5
DC88
  8
01
  6
BYBLOCK
 10
953.18766516632502
 20
-547.23408159774408
 30
0.0
 11
955.78766516632493
 21
-546.53741370374405
 31
0.0
  0
LINE
  5
DC89
  8
01
  6
BYBLOCK
 10
953.18766516632502
 20
-547.23408159774408
 30
0.0
 11
955.78766516632493
 21
-547.23408159774408
 31
0.0
  0
LINE
  5
DC8A
  8
01
  6
BYBLOCK
 10
1019.587665166325
 20
-546.53741370374405
 30
0.0
 11
1022.187665166325
 21
-547.23408159774408
 31
0.0
  0
LINE
  5
DC8B
  8
01
  6
BYBLOCK
 10
1022.187665166325
 20
-547.23408159774408
 30
0.0
 11
1019.587665166325
 21
-547.93074949174411
 31
0.0
  0
LINE
  5
DC8C
  8
01
  6
BYBLOCK
 10
1022.187665166325
 20
-547.23408159774408
 30
0.0
 11
1019.587665166325
 21
-547.23408159774408
 31
0.0
  0
TEXT
  5
DC8D
  8
01
 10
975.00433183299185
 20
-556.32408159774411
 30
0.0
 40
4.5499999999999989
  1
51
  0
LINE
  5
DC8E
  8
01
  6
BYBLOCK
 10
1001.587665166325
 20
-556.53741370374405
 30
0.0
 11
1004.187665166325
 21
-557.23408159774397
 31
0.0
  0
LINE
  5
DC8F
  8
01
  6
BYBLOCK
 10
1004.187665166325
 20
-557.23408159774397
 30
0.0
 11
1001.587665166325
 21
-557.93074949174411
 31
0.0
  0
LINE
  5
DC90
  8
01
  6
BYBLOCK
 10
1004.187665166325
 20
-557.23408159774397
 30
0.0
 11
1001.587665166325
 21
-557.23408159774397
 31
0.0
  0
LINE
  5
DC91
  8
01
  6
BYBLOCK
 10
955.78766516632493
 20
-557.93074949174411
 30
0.0
 11
953.18766516632502
 21
-557.23408159774397
 31
0.0
  0
LINE
  5
DC92
  8
01
  6
BYBLOCK
 10
953.18766516632502
 20
-557.23408159774397
 30
0.0
 11
955.78766516632493
 21
-556.53741370374405
 31
0.0
  0
LINE
  5
DC93
  8
01
  6
BYBLOCK
 10
953.18766516632502
 20
-557.23408159774397
 30
0.0
 11
955.78766516632493
 21
-557.23408159774397
 31
0.0
  0
TEXT
  5
DC94
  8
01
 10
968.27766516632505
 20
-671.76716089323213
 30
0.0
 40
4.5499999999999989
  1
\U+03C650
 50
90.0
  0
LINE
  5
DC95
  8
01
  6
BYBLOCK
 10
969.88433306032505
 20
-685.63408159774315
 30
0.0
 11
969.18766516632502
 21
-688.23408159774328
 31
0.0
  0
LINE
  5
DC96
  8
01
  6
BYBLOCK
 10
969.18766516632502
 20
-688.23408159774328
 30
0.0
 11
968.49099727232499
 21
-685.63408159774315
 31
0.0
  0
LINE
  5
DC97
  8
01
  6
BYBLOCK
 10
969.18766516632502
 20
-688.23408159774328
 30
0.0
 11
969.18766516632502
 21
-685.63408159774315
 31
0.0
  0
LINE
  5
DC98
  8
01
  6
BYBLOCK
 10
968.49099727232499
 20
-640.8340815977441
 30
0.0
 11
969.18766516632502
 21
-638.23408159774419
 31
0.0
  0
LINE
  5
DC99
  8
01
  6
BYBLOCK
 10
969.18766516632502
 20
-638.23408159774419
 30
0.0
 11
969.88433306032505
 21
-640.8340815977441
 31
0.0
  0
LINE
  5
DC9A
  8
01
  6
BYBLOCK
 10
969.18766516632502
 20
-638.23408159774419
 30
0.0
 11
969.18766516632502
 21
-640.8340815977441
 31
0.0
  0
TEXT
  5
DC9B
  8
01
 10
1057.362781506069
 20
-491.82408159877258
 30
0.0
 40
4.5499999999999989
  1
120
  0
LINE
  5
DC9C
  8
01
  6
BYBLOCK
 10
1121.5877815060701
 20
-492.03741370477258
 30
0.0
 11
1124.18778150607
 21
-492.7340815987726
 31
0.0
  0
LINE
  5
DC9D
  8
01
  6
BYBLOCK
 10
1124.18778150607
 20
-492.7340815987726
 30
0.0
 11
1121.5877815060701
 21
-493.43074949277252
 31
0.0
  0
LINE
  5
DC9E
  8
01
  6
BYBLOCK
 10
1124.18778150607
 20
-492.7340815987726
 30
0.0
 11
1121.5877815060701
 21
-492.7340815987726
 31
0.0
  0
LINE
  5
DC9F
  8
01
  6
BYBLOCK
 10
1006.787781506069
 20
-493.43074949277252
 30
0.0
 11
1004.18778150607
 21
-492.7340815987726
 31
0.0
  0
LINE
  5
DCA0
  8
01
  6
BYBLOCK
 10
1004.18778150607
 20
-492.7340815987726
 30
0.0
 11
1006.787781506069
 21
-492.03741370477258
 31
0.0
  0
LINE
  5
DCA1
  8
01
  6
BYBLOCK
 10
1004.18778150607
 20
-492.7340815987726
 30
0.0
 11
1006.787781506069
 21
-492.7340815987726
 31
0.0
  0
TEXT
  5
DCA2
  8
01
 10
1044.36278150607
 20
-501.82408159877258
 30
0.0
 40
4.5499999999999989
  1
146
  0
LINE
  5
DCA3
  8
01
  6
BYBLOCK
 10
1121.5877815060701
 20
-502.03741370477269
 30
0.0
 11
1124.18778150607
 21
-502.7340815987726
 31
0.0
  0
LINE
  5
DCA4
  8
01
  6
BYBLOCK
 10
1124.18778150607
 20
-502.7340815987726
 30
0.0
 11
1121.5877815060701
 21
-503.43074949277258
 31
0.0
  0
LINE
  5
DCA5
  8
01
  6
BYBLOCK
 10
1124.18778150607
 20
-502.7340815987726
 30
0.0
 11
1121.5877815060701
 21
-502.7340815987726
 31
0.0
  0
LINE
  5
DCA6
  8
01
  6
BYBLOCK
 10
980.78778150606968
 20
-503.43074949277258
 30
0.0
 11
978.18778150606965
 21
-502.7340815987726
 31
0.0
  0
LINE
  5
DCA7
  8
01
  6
BYBLOCK
 10
978.18778150606965
 20
-502.7340815987726
 30
0.0
 11
980.78778150606968
 21
-502.03741370477269
 31
0.0
  0
LINE
  5
DCA8
  8
01
  6
BYBLOCK
 10
978.18778150606965
 20
-502.7340815987726
 30
0.0
 11
980.78778150606968
 21
-502.7340815987726
 31
0.0
  0
TEXT
  5
DCA9
  8
01
 10
1138.2777815060699
 20
-442.06741493210581
 30
0.0
 40
4.5499999999999989
  1
42.5
 50
90.0
  0
LINE
  5
DCAA
  8
01
  6
BYBLOCK
 10
1139.88444940007
 20
-453.13408159877258
 30
0.0
 11
1139.18778150607
 21
-455.73408159877272
 31
0.0
  0
LINE
  5
DCAB
  8
01
  6
BYBLOCK
 10
1139.18778150607
 20
-455.73408159877272
 30
0.0
 11
1138.49111361207
 21
-453.13408159877258
 31
0.0
  0
LINE
  5
DCAC
  8
01
  6
BYBLOCK
 10
1139.18778150607
 20
-455.73408159877272
 30
0.0
 11
1139.18778150607
 21
-453.13408159877258
 31
0.0
  0
LINE
  5
DCAD
  8
01
  6
BYBLOCK
 10
1138.49111361207
 20
-415.83408159877268
 30
0.0
 11
1139.18778150607
 21
-413.23408159877272
 31
0.0
  0
LINE
  5
DCAE
  8
01
  6
BYBLOCK
 10
1139.18778150607
 20
-413.23408159877272
 30
0.0
 11
1139.88444940007
 21
-415.83408159877268
 31
0.0
  0
LINE
  5
DCAF
  8
01
  6
BYBLOCK
 10
1139.18778150607
 20
-413.23408159877272
 30
0.0
 11
1139.18778150607
 21
-415.83408159877268
 31
0.0
  0
TEXT
  5
DCB0
  8
01
 10
1148.277781506069
 20
-453.1757482654391
 30
0.0
 40
4.5499999999999989
  1
64.5
 50
90.0
  0
LINE
  5
DCB1
  8
01
  6
BYBLOCK
 10
1149.88444940007
 20
-475.13408159877258
 30
0.0
 11
1149.18778150607
 21
-477.7340815987726
 31
0.0
  0
LINE
  5
DCB2
  8
01
  6
BYBLOCK
 10
1149.18778150607
 20
-477.7340815987726
 30
0.0
 11
1148.4911136120691
 21
-475.13408159877258
 31
0.0
  0
LINE
  5
DCB3
  8
01
  6
BYBLOCK
 10
1149.18778150607
 20
-477.7340815987726
 30
0.0
 11
1149.18778150607
 21
-475.13408159877258
 31
0.0
  0
LINE
  5
DCB4
  8
01
  6
BYBLOCK
 10
1148.4911136120691
 20
-415.83408159877268
 30
0.0
 11
1149.18778150607
 21
-413.23408159877272
 31
0.0
  0
LINE
  5
DCB5
  8
01
  6
BYBLOCK
 10
1149.18778150607
 20
-413.23408159877272
 30
0.0
 11
1149.88444940007
 21
-415.83408159877268
 31
0.0
  0
LINE
  5
DCB6
  8
01
  6
BYBLOCK
 10
1149.18778150607
 20
-413.23408159877272
 30
0.0
 11
1149.18778150607
 21
-415.83408159877268
 31
0.0
  0
TEXT
  5
DCB7
  8
01
 10
1138.2776651663251
 20
-667.89241374107769
 30
0.0
 40
4.5499999999999989
  1
10
 50
90.0
  0
LINE
  5
DCB8
  8
01
  6
BYBLOCK
 10
1139.8843330603249
 20
-665.63407951774434
 30
0.0
 11
1139.1876651663249
 21
-668.23407951774425
 31
0.0
  0
LINE
  5
DCB9
  8
01
  6
BYBLOCK
 10
1139.1876651663249
 20
-668.23407951774425
 30
0.0
 11
1138.4909972723251
 21
-665.63407951774434
 31
0.0
  0
LINE
  5
DCBA
  8
01
  6
BYBLOCK
 10
1139.1876651663249
 20
-668.23407951774425
 30
0.0
 11
1139.1876651663249
 21
-665.63407951774434
 31
0.0
  0
LINE
  5
DCBB
  8
01
  6
BYBLOCK
 10
1138.4909972723251
 20
-660.83408129774455
 30
0.0
 11
1139.1876651663249
 21
-658.23408129774464
 31
0.0
  0
LINE
  5
DCBC
  8
01
  6
BYBLOCK
 10
1139.1876651663249
 20
-658.23408129774464
 30
0.0
 11
1139.8843330603249
 21
-660.83408129774455
 31
0.0
  0
LINE
  5
DCBD
  8
01
  6
BYBLOCK
 10
1139.1876651663249
 20
-658.23408129774464
 30
0.0
 11
1139.1876651663249
 21
-660.83408129774455
 31
0.0
  0
TEXT
  5
DCBE
  8
01
 10
1048.2776651663251
 20
-649.56741493107722
 30
0.0
 40
4.5499999999999989
  1
74.5
 50
90.0
  0
LINE
  5
DCBF
  8
01
  6
BYBLOCK
 10
1049.8843330603249
 20
-676.63408159774394
 30
0.0
 11
1049.1876651663249
 21
-679.23408159774397
 31
0.0
  0
LINE
  5
DCC0
  8
01
  6
BYBLOCK
 10
1049.1876651663249
 20
-679.23408159774397
 30
0.0
 11
1048.4909972723251
 21
-676.63408159774394
 31
0.0
  0
LINE
  5
DCC1
  8
01
  6
BYBLOCK
 10
1049.1876651663249
 20
-679.23408159774397
 30
0.0
 11
1049.1876651663249
 21
-676.63408159774394
 31
0.0
  0
LINE
  5
DCC2
  8
01
  6
BYBLOCK
 10
1048.4909972723251
 20
-607.33408159774422
 30
0.0
 11
1049.1876651663249
 21
-604.73408159774419
 31
0.0
  0
LINE
  5
DCC3
  8
01
  6
BYBLOCK
 10
1049.1876651663249
 20
-604.73408159774419
 30
0.0
 11
1049.8843330603249
 21
-607.33408159774422
 31
0.0
  0
LINE
  5
DCC4
  8
01
  6
BYBLOCK
 10
1049.1876651663249
 20
-604.73408159774419
 30
0.0
 11
1049.1876651663249
 21
-607.33408159774422
 31
0.0
  0
LINE
  5
DCC5
  8
01
 10
1001.876728294393
 20
-432.72999275734833
 30
0.0
 11
976.94082625934175
 21
-452.14408159877269
 31
0.0
1001
ACAD
1000
DSTYLE
1002
{
1070
    40
1040
1.3
1002
}
  0
LINE
  5
DCC6
  8
01
 10
976.94082625934175
 20
-452.14408159877269
 30
0.0
 11
973.43082625934176
 21
-452.14408159877269
 31
0.0
1001
ACAD
1000
DSTYLE
1002
{
1070
    40
1040
1.3
1002
}
  0
TEXT
  5
DCC7
  8
01
 10
1043.138940108098
 20
-400.81741493210581
 30
0.0
 40
4.5499999999999989
  1
20.5
 50
90.0
  0
LINE
  5
DCC8
  8
01
  6
BYBLOCK
 10
1044.7456080020979
 20
-400.8840815987727
 30
0.0
 11
1044.0489401080979
 21
-403.48408159877272
 31
0.0
  0
LINE
  5
DCC9
  8
01
  6
BYBLOCK
 10
1044.0489401080979
 20
-403.48408159877272
 30
0.0
 11
1043.3522722140981
 21
-400.8840815987727
 31
0.0
  0
LINE
  5
DCCA
  8
01
  6
BYBLOCK
 10
1044.0489401080979
 20
-403.48408159877272
 30
0.0
 11
1044.0489401080979
 21
-400.8840815987727
 31
0.0
  0
LINE
  5
DCCB
  8
01
  6
BYBLOCK
 10
1043.3522722140981
 20
-385.58408159877268
 30
0.0
 11
1044.0489401080979
 21
-382.98408159877272
 31
0.0
  0
LINE
  5
DCCC
  8
01
  6
BYBLOCK
 10
1044.0489401080979
 20
-382.98408159877272
 30
0.0
 11
1044.7456080020979
 21
-385.58408159877268
 31
0.0
  0
LINE
  5
DCCD
  8
01
  6
BYBLOCK
 10
1044.0489401080979
 20
-382.98408159877272
 30
0.0
 11
1044.0489401080979
 21
-385.58408159877268
 31
0.0
  0
LINE
  5
DCCE
  8
01
 10
1037.933165083133
 20
-456.2827574040013
 30
0.0
 11
1049.5498844115259
 21
-442.66660040127431
 31
0.0
1001
ACAD
1000
DSTYLE
1002
{
1070
    40
1040
1.3
1002
}
  0
LINE
  5
DCCF
  8
01
 10
1049.5498844115259
 20
-442.66660040127431
 30
0.0
 11
1053.0598844115259
 21
-442.66660040127431
 31
0.0
1001
ACAD
1000
DSTYLE
1002
{
1070
    40
1040
1.3
1002
}
  0
VIEWPORT
  5
57
 67
     1
  8
0
 10
10.30270091935693
 20
17.565658765306811
 30
0.0
 40
436.88494755936352
 41
283.7819039898875
 68
     1
 69
     1
1001
ACAD
1000
MVIEW
1002
{
1070
    16
1010
0.0
1020
0.0
1030
0.0
1010
0.0
1020
0.0
1030
1.0
1040
0.0
1040
283.7819039898875
1040
10.30270091935693
1040
17.565658765306811
1040
50.0
1040
0.0
1040
0.0
1070
     0
1070
   100
1070
     1
1070
     1
1070
     0
1070
     0
1070
     0
1070
     0
1040
0.0
1040
0.0
1040
0.0
1040
10.0
1040
10.0
1040
10.0
1040
10.0
1070
     0
1002
{
1002
}
1002
}
  0
ENDSEC
  0
EOF
