  0
SECTION
  2
HEADER
  9
$ACADVER
  1
AC1009
  9
$INSBASE
 10
0.0
 20
0.0
 30
0.0
  9
$EXTMIN
 10
549.18767316632318
 20
-718.07002159774402
 30
0.0
  9
$EXTMAX
 10
1145.4877815060711
 20
-311.23408159877238
 30
0.0
  9
$LIMMIN
 10
0.0
 20
0.0
  9
$LIMMAX
 10
420.0
 20
297.0
  9
$ORTHOMODE
 70
     0
  9
$REGENMODE
 70
     1
  9
$FILLMODE
 70
     1
  9
$QTEXTMODE
 70
     0
  9
$MIRRTEXT
 70
     0
  9
$DRAGMODE
 70
     2
  9
$LTSCALE
 40
0.5
  9
$OSMODE
 70
  2175
  9
$ATTMODE
 70
     1
  9
$TEXTSIZE
 40
4.0
  9
$TRACEWID
 40
1.0
  9
$TEXTSTYLE
  7
STANDARD
  9
$CLAYER
  8
1TEXT
  9
$CELTYPE
  6
BYLAYER
  9
$CECOLOR
 62
   256
  9
$DIMSCALE
 40
1.0
  9
$DIMASZ
 40
2.0
  9
$DIMEXO
 40
0.0
  9
$DIMDLI
 40
7.0
  9
$DIMRND
 40
0.0
  9
$DIMDLE
 40
0.0
  9
$DIMEXE
 40
1.0
  9
$DIMTP
 40
0.0
  9
$DIMTM
 40
0.0
  9
$DIMTXT
 40
3.5
  9
$DIMCEN
 40
0.0
  9
$DIMTSZ
 40
0.0
  9
$DIMTOL
 70
     0
  9
$DIMLIM
 70
     0
  9
$DIMTIH
 70
     0
  9
$DIMTOH
 70
     0
  9
$DIMSE1
 70
     0
  9
$DIMSE2
 70
     0
  9
$DIMTAD
 70
     1
  9
$DIMZIN
 70
     8
  9
$DIMBLK
  1

  9
$DIMASO
 70
     1
  9
$DIMSHO
 70
     1
  9
$DIMPOST
  1
 
  9
$DIMAPOST
  1

  9
$DIMALT
 70
     0
  9
$DIMALTD
 70
     2
  9
$DIMALTF
 40
25.399999999999999
  9
$DIMLFAC
 40
1.0
  9
$DIMTOFL
 70
     1
  9
$DIMTVP
 40
0.0
  9
$DIMTIX
 70
     0
  9
$DIMSOXD
 70
     0
  9
$DIMSAH
 70
     1
  9
$DIMBLK1
  1
OPEN30
  9
$DIMBLK2
  1
OPEN30
  9
$DIMSTYLE
  2
NEWX10
  9
$DIMCLRD
 70
   256
  9
$DIMCLRE
 70
   256
  9
$DIMCLRT
 70
   201
  9
$DIMTFAC
 40
0.7
  9
$DIMGAP
 40
0.7
  9
$LUNITS
 70
     2
  9
$LUPREC
 70
     4
  9
$SKETCHINC
 40
1.0
  9
$FILLETRAD
 40
0.5
  9
$AUNITS
 70
     0
  9
$AUPREC
 70
     2
  9
$MENU
  1
acad
  9
$ELEVATION
 40
0.0
  9
$PELEVATION
 40
0.0
  9
$THICKNESS
 40
0.0
  9
$LIMCHECK
 70
     0
  9
$BLIPMODE
 70
     0
  9
$CHAMFERA
 40
10.0
  9
$CHAMFERB
 40
10.0
  9
$SKPOLY
 70
     0
  9
$TDCREATE
 40
2451318.621352917
  9
$TDUPDATE
 40
2456015.805284827
  9
$TDINDWG
 40
0.4960643287
  9
$TDUSRTIMER
 40
0.4960643287
  9
$USRTIMER
 70
     1
  9
$ANGBASE
 50
0.0
  9
$ANGDIR
 70
     0
  9
$PDMODE
 70
     0
  9
$PDSIZE
 40
0.0
  9
$PLINEWID
 40
0.0
  9
$COORDS
 70
     2
  9
$SPLFRAME
 70
     0
  9
$SPLINETYPE
 70
     6
  9
$SPLINESEGS
 70
     8
  9
$ATTDIA
 70
     0
  9
$ATTREQ
 70
     1
  9
$HANDLING
 70
     1
  9
$HANDSEED
  5
F5D3
  9
$SURFTAB1
 70
     6
  9
$SURFTAB2
 70
     6
  9
$SURFTYPE
 70
     6
  9
$SURFU
 70
     6
  9
$SURFV
 70
     6
  9
$UCSNAME
  2

  9
$UCSORG
 10
0.0
 20
0.0
 30
0.0
  9
$UCSXDIR
 10
1.0
 20
0.0
 30
0.0
  9
$UCSYDIR
 10
0.0
 20
1.0
 30
0.0
  9
$PUCSNAME
  2

  9
$PUCSORG
 10
0.0
 20
0.0
 30
0.0
  9
$PUCSXDIR
 10
1.0
 20
0.0
 30
0.0
  9
$PUCSYDIR
 10
0.0
 20
1.0
 30
0.0
  9
$USERI1
 70
     0
  9
$USERI2
 70
     0
  9
$USERI3
 70
     0
  9
$USERI4
 70
     0
  9
$USERI5
 70
     0
  9
$USERR1
 40
0.0
  9
$USERR2
 40
0.0
  9
$USERR3
 40
0.0
  9
$USERR4
 40
0.0
  9
$USERR5
 40
0.0
  9
$WORLDVIEW
 70
     1
  9
$SHADEDGE
 70
     3
  9
$SHADEDIF
 70
    70
  9
$TILEMODE
 70
     1
  9
$MAXACTVP
 70
    48
  9
$PLIMCHECK
 70
     0
  9
$PEXTMIN
 10
1.0000000000000000E+020
 20
1.0000000000000000E+020
 30
1.0000000000000000E+020
  9
$PEXTMAX
 10
-1.0000000000000000E+020
 20
-1.0000000000000000E+020
 30
-1.0000000000000000E+020
  9
$PLIMMIN
 10
0.0
 20
0.0
  9
$PLIMMAX
 10
420.0
 20
297.0
  9
$UNITMODE
 70
     0
  9
$VISRETAIN
 70
     1
  9
$PLINEGEN
 70
     0
  9
$PSLTSCALE
 70
     1
  0
ENDSEC
  0
SECTION
  2
TABLES
  0
TABLE
  2
VPORT
 70
     1
  0
VPORT
  2
*ACTIVE
 70
     0
 10
0.0
 20
0.0
 11
1.0
 21
1.0
 12
847.33515728131954
 22
-514.65640579378965
 13
0.0
 23
0.0
 14
10.0
 24
10.0
 15
10.0
 25
10.0
 16
0.0
 26
0.0
 36
1.0
 17
0.0
 27
0.0
 37
0.0
 40
431.80076440010998
 41
1.5395095367847409
 42
50.0
 43
0.0
 44
0.0
 50
0.0
 51
0.0
 71
     0
 72
   100
 73
     1
 74
     1
 75
     0
 76
     0
 77
     0
 78
     0
  0
ENDTAB
  0
TABLE
  2
LTYPE
 70
    12
  0
LTYPE
  2
CONTINUOUS
 70
     0
  3
Solid line
 72
    65
 73
     0
 40
0.0
  0
LTYPE
  2
XREF1|CENTER2
 70
    48
  3
Center (.5x) ___ _ ___ _ ___ _ ___ _ ___ _ ___
 72
    65
 73
     4
 40
28.574999999999999
 49
19.050000000000001
 49
-3.1749999999999989
 49
3.1749999999999989
 49
-3.1749999999999989
  0
LTYPE
  2
A3WAKUDAKE|CENTER2
 70
    48
  3
Center (.5x) ___ _ ___ _ ___ _ ___ _ ___ _ ___
 72
    65
 73
     4
 40
28.574999999999999
 49
19.050000000000001
 49
-3.1749999999999989
 49
3.1749999999999989
 49
-3.1749999999999989
  0
ENDTAB
  0
TABLE
  2
LAYER
 70
    37
  0
LAYER
  2
0
 70
     0
 62
     7
  6
CONTINUOUS
  0
LAYER
  2
1TEXT
 70
     0
 62
     7
  6
CONTINUOUS
  0
LAYER
  2
01
 70
     0
 62
     1
  6
CONTINUOUS
  0
LAYER
  2
A3WAKUDAKE|THICK
 70
    48
 62
     7
  6
CONTINUOUS
  0
LAYER
  2
A3WAKUDAKE|POINT
 70
    48
 62
     7
  6
CONTINUOUS
  0
LAYER
  2
A3WAKUDAKE|1CENTER
 70
    48
 62
     7
  6
A3WAKUDAKE|CENTER2
  0
LAYER
  2
A3WAKUDAKE|0-6
 70
    48
 62
     7
  6
CONTINUOUS
  0
LAYER
  2
A3WAKUDAKE|1DIM
 70
    48
 62
     7
  6
CONTINUOUS
  0
LAYER
  2
XREF1|1CENTER
 70
    48
 62
     7
  6
XREF1|CENTER2
  0
ENDTAB
  0
TABLE
  2
STYLE
 70
     4
  0
STYLE
  2
STANDARD
 70
     0
 40
0.0
 41
1.0
 50
0.0
 71
     0
 42
4.0
  3
romans.shx
  4
extfont2.shx
  0
ENDTAB
  0
TABLE
  2
VIEW
 70
     5
  0
ENDTAB
  0
TABLE
  2
UCS
 70
     0
  0
ENDTAB
  0
TABLE
  2
APPID
 70
     9
  0
APPID
  2
ACAD
 70
     0
  0
APPID
  2
DRAWINGVARIABLESXDATA
 70
     0
  0
APPID
  2
CONTENTTABDATA
 70
     0
  0
APPID
  2
CONTENTCURRENTTAB
 70
     0
  0
APPID
  2
CONTENTBLOCKDESCRIPTION
 70
     0
  0
APPID
  2
CONTENTBLOCKICON
 70
     0
  0
APPID
  2
CONTENTLONGBLOCKNAME
 70
     0
  0
APPID
  2
ACAD_PSEXT
 70
     0
  0
APPID
  2
ACAD_MLEADERVER
 70
     0
  0
ENDTAB
  0
TABLE
  2
DIMSTYLE
 70
     5
  0
DIMSTYLE
  2
NEWX10
 70
     0
  3
 
  4

  5

  6
OPEN30
  7
OPEN30
 40
1.0
 41
2.0
 42
0.0
 43
7.0
 44
1.0
 45
0.0
 46
0.0
 47
0.0
 48
0.0
140
3.5
141
0.0
142
0.0
143
25.399999999999999
144
1.0
145
0.0
146
0.7
147
0.7
 71
     0
 72
     0
 73
     0
 74
     0
 75
     0
 76
     0
 77
     1
 78
     8
170
     0
171
     2
172
     1
173
     1
174
     0
175
     0
176
   256
177
   256
178
   201
  0
ENDTAB
  0
ENDSEC
  0
SECTION
  2
BLOCKS
  0
BLOCK
  8
0
  2
$MODEL_SPACE
 70
     0
 10
0.0
 20
0.0
 30
0.0
  3
$MODEL_SPACE
  1

  0
ENDBLK
  5
1A
  8
0
  0
BLOCK
 67
     1
  8
0
  2
$PAPER_SPACE
 70
     0
 10
0.0
 20
0.0
 30
0.0
  3
$PAPER_SPACE
  1

  0
ENDBLK
  5
17
 67
     1
  8
0
  0
BLOCK
  8
0
  2
_OPEN30
 70
     0
 10
0.0
 20
0.0
 30
0.0
  3
_OPEN30
  1

  0
LINE
  5
44
  8
0
  6
BYBLOCK
 62
     0
 10
-1.0
 20
0.26794919
 30
0.0
 11
0.0
 21
0.0
 31
0.0
  0
LINE
  5
45
  8
0
  6
BYBLOCK
 62
     0
 10
0.0
 20
0.0
 30
0.0
 11
-1.0
 21
-0.26794919
 31
0.0
  0
LINE
  5
46
  8
0
  6
BYBLOCK
 62
     0
 10
0.0
 20
0.0
 30
0.0
 11
-1.0
 21
0.0
 31
0.0
  0
ENDBLK
  5
47
  8
0
  0
BLOCK
  8
0
  2
XREF1
 70
    36
 10
0.0
 20
0.0
 30
0.0
  3
XREF1
  1
D:\ACLT\FORMAT\KAWAJUN(9)図面用.dwg
  0
ENDBLK
  5
5D
  8
0
  0
BLOCK
  8
0
  2
A3WAKUDAKE
 70
    36
 10
0.0
 20
0.0
 30
0.0
  3
A3WAKUDAKE
  1
D:\ACLT\FORMAT\A3WAKUdake.dwg
  0
ENDBLK
  5
6A0
  8
0
  0
BLOCK
  8
0
  2
*U21
 70
     1
 10
0.0
 20
0.0
 30
0.0
  3
*U21
  1

  0
TEXT
  5
F4C2
  8
1TEXT
 62
   201
 10
1043.3489401080969
 20
-395.56741493210592
 30
0.0
 40
3.5
  1
20.5
 50
90.0
  0
ENDBLK
  5
F4C4
  8
0
  0
BLOCK
  8
0
  2
*U22
 70
     1
 10
0.0
 20
0.0
 30
0.0
  3
*U22
  1

  0
TEXT
  5
F4C6
  8
1TEXT
 62
   201
 10
5506.9158361993859
 20
-1203.61055353047
 30
0.0
 40
4.5499999999999989
  1
20.5
 50
90.0
  0
ENDBLK
  5
F4C8
  8
0
  0
ENDSEC
  0
SECTION
  2
ENTITIES
  0
LINE
  5
4C5
  8
01
 10
854.18766916632455
 20
-570.73670159774338
 30
0.0
 11
854.18766916632455
 21
-718.07002159774402
 31
0.0
  0
LINE
  5
4C6
  8
01
 10
814.18766916632467
 20
-570.73670159774338
 30
0.0
 11
814.18766916632467
 21
-718.07002159774402
 31
0.0
  0
LINE
  5
4C8
  8
01
 10
712.78767516632524
 20
-577.23408159774397
 30
0.0
 11
712.78767516632524
 21
-600.33405159774327
 31
0.0
  0
LINE
  5
4C9
  8
01
 10
711.18766916632467
 20
-577.23408159774397
 30
0.0
 11
711.18766916632467
 21
-600.23408159774397
 31
0.0
  0
LINE
  5
4CA
  8
01
 10
713.58767816632553
 20
-577.23408159774397
 30
0.0
 11
713.58767816632553
 21
-707.23408159774397
 31
0.0
  0
LINE
  5
4CC
  8
01
 10
715.18766916632467
 20
-577.23408159774397
 30
0.0
 11
715.18766916632467
 21
-707.23408159774397
 31
0.0
  0
LINE
  5
4CF
  8
01
 10
712.18766916632455
 20
-679.23408159774397
 30
0.0
 11
683.39704587862275
 21
-679.23408159774397
 31
0.0
  0
LINE
  5
4D2
  8
01
 10
721.18766916632285
 20
-631.23408159774408
 30
0.0
 11
715.18766916632467
 21
-631.23408159774408
 31
0.0
  0
LINE
  5
4D3
  8
01
 10
726.18766916632455
 20
-636.23408159774397
 30
0.0
 11
716.18766916632467
 21
-636.23408159774397
 31
0.0
  0
POLYLINE
  5
4D4
  8
01
 10
726.18766916632455
 20
-634.80250159774369
 30
0.0
 66
     1
 70
     8
  0
VERTEX
  8
01
  5
F4CF
 10
726.188
 20
-634.803
 30
0.000000
  70
    32
  0
VERTEX
  8
01
  5
F4D0
 10
726.186
 20
-634.715
 30
0.000000
  70
    32
  0
VERTEX
  8
01
  5
F4D1
 10
726.182
 20
-634.627
 30
0.000000
  70
    32
  0
VERTEX
  8
01
  5
F4D2
 10
726.174
 20
-634.540
 30
0.000000
  70
    32
  0
VERTEX
  8
01
  5
F4D3
 10
726.164
 20
-634.453
 30
0.000000
  70
    32
  0
VERTEX
  8
01
  5
F4D4
 10
726.150
 20
-634.366
 30
0.000000
  70
    32
  0
VERTEX
  8
01
  5
F4D5
 10
726.134
 20
-634.279
 30
0.000000
  70
    32
  0
VERTEX
  8
01
  5
F4D6
 10
726.114
 20
-634.192
 30
0.000000
  70
    32
  0
VERTEX
  8
01
  5
F4D7
 10
726.092
 20
-634.106
 30
0.000000
  70
    32
  0
VERTEX
  8
01
  5
F4D8
 10
726.066
 20
-634.021
 30
0.000000
  70
    32
  0
VERTEX
  8
01
  5
F4D9
 10
726.038
 20
-633.935
 30
0.000000
  70
    32
  0
VERTEX
  8
01
  5
F4DA
 10
726.007
 20
-633.851
 30
0.000000
  70
    32
  0
VERTEX
  8
01
  5
F4DB
 10
725.972
 20
-633.767
 30
0.000000
  70
    32
  0
VERTEX
  8
01
  5
F4DC
 10
725.935
 20
-633.683
 30
0.000000
  70
    32
  0
VERTEX
  8
01
  5
F4DD
 10
725.895
 20
-633.600
 30
0.000000
  70
    32
  0
VERTEX
  8
01
  5
F4DE
 10
725.853
 20
-633.518
 30
0.000000
  70
    32
  0
VERTEX
  8
01
  5
F4DF
 10
725.807
 20
-633.437
 30
0.000000
  70
    32
  0
VERTEX
  8
01
  5
F4E0
 10
725.759
 20
-633.356
 30
0.000000
  70
    32
  0
VERTEX
  8
01
  5
F4E1
 10
725.708
 20
-633.277
 30
0.000000
  70
    32
  0
VERTEX
  8
01
  5
F4E2
 10
725.654
 20
-633.198
 30
0.000000
  70
    32
  0
VERTEX
  8
01
  5
F4E3
 10
725.597
 20
-633.120
 30
0.000000
  70
    32
  0
VERTEX
  8
01
  5
F4E4
 10
725.538
 20
-633.044
 30
0.000000
  70
    32
  0
VERTEX
  8
01
  5
F4E5
 10
725.476
 20
-632.968
 30
0.000000
  70
    32
  0
VERTEX
  8
01
  5
F4E6
 10
725.412
 20
-632.893
 30
0.000000
  70
    32
  0
VERTEX
  8
01
  5
F4E7
 10
725.345
 20
-632.820
 30
0.000000
  70
    32
  0
VERTEX
  8
01
  5
F4E8
 10
725.276
 20
-632.748
 30
0.000000
  70
    32
  0
VERTEX
  8
01
  5
F4E9
 10
725.204
 20
-632.677
 30
0.000000
  70
    32
  0
VERTEX
  8
01
  5
F4EA
 10
725.129
 20
-632.607
 30
0.000000
  70
    32
  0
VERTEX
  8
01
  5
F4EB
 10
725.053
 20
-632.539
 30
0.000000
  70
    32
  0
VERTEX
  8
01
  5
F4EC
 10
724.974
 20
-632.472
 30
0.000000
  70
    32
  0
VERTEX
  8
01
  5
F4ED
 10
724.892
 20
-632.406
 30
0.000000
  70
    32
  0
VERTEX
  8
01
  5
F4EE
 10
724.809
 20
-632.342
 30
0.000000
  70
    32
  0
VERTEX
  8
01
  5
F4EF
 10
724.723
 20
-632.279
 30
0.000000
  70
    32
  0
VERTEX
  8
01
  5
F4F0
 10
724.635
 20
-632.218
 30
0.000000
  70
    32
  0
VERTEX
  8
01
  5
F4F1
 10
724.545
 20
-632.158
 30
0.000000
  70
    32
  0
VERTEX
  8
01
  5
F4F2
 10
724.454
 20
-632.100
 30
0.000000
  70
    32
  0
VERTEX
  8
01
  5
F4F3
 10
724.360
 20
-632.044
 30
0.000000
  70
    32
  0
VERTEX
  8
01
  5
F4F4
 10
724.264
 20
-631.989
 30
0.000000
  70
    32
  0
VERTEX
  8
01
  5
F4F5
 10
724.166
 20
-631.936
 30
0.000000
  70
    32
  0
VERTEX
  8
01
  5
F4F6
 10
724.067
 20
-631.885
 30
0.000000
  70
    32
  0
VERTEX
  8
01
  5
F4F7
 10
723.966
 20
-631.835
 30
0.000000
  70
    32
  0
VERTEX
  8
01
  5
F4F8
 10
723.863
 20
-631.788
 30
0.000000
  70
    32
  0
VERTEX
  8
01
  5
F4F9
 10
723.758
 20
-631.742
 30
0.000000
  70
    32
  0
VERTEX
  8
01
  5
F4FA
 10
723.652
 20
-631.698
 30
0.000000
  70
    32
  0
VERTEX
  8
01
  5
F4FB
 10
723.545
 20
-631.655
 30
0.000000
  70
    32
  0
VERTEX
  8
01
  5
F4FC
 10
723.436
 20
-631.615
 30
0.000000
  70
    32
  0
VERTEX
  8
01
  5
F4FD
 10
723.325
 20
-631.577
 30
0.000000
  70
    32
  0
VERTEX
  8
01
  5
F4FE
 10
723.214
 20
-631.540
 30
0.000000
  70
    32
  0
VERTEX
  8
01
  5
F4FF
 10
723.101
 20
-631.506
 30
0.000000
  70
    32
  0
VERTEX
  8
01
  5
F500
 10
722.987
 20
-631.473
 30
0.000000
  70
    32
  0
VERTEX
  8
01
  5
F501
 10
722.872
 20
-631.443
 30
0.000000
  70
    32
  0
VERTEX
  8
01
  5
F502
 10
722.756
 20
-631.414
 30
0.000000
  70
    32
  0
VERTEX
  8
01
  5
F503
 10
722.639
 20
-631.388
 30
0.000000
  70
    32
  0
VERTEX
  8
01
  5
F504
 10
722.521
 20
-631.363
 30
0.000000
  70
    32
  0
VERTEX
  8
01
  5
F505
 10
722.403
 20
-631.341
 30
0.000000
  70
    32
  0
VERTEX
  8
01
  5
F506
 10
722.283
 20
-631.321
 30
0.000000
  70
    32
  0
VERTEX
  8
01
  5
F507
 10
722.163
 20
-631.303
 30
0.000000
  70
    32
  0
VERTEX
  8
01
  5
F508
 10
722.042
 20
-631.287
 30
0.000000
  70
    32
  0
VERTEX
  8
01
  5
F509
 10
721.921
 20
-631.273
 30
0.000000
  70
    32
  0
VERTEX
  8
01
  5
F50A
 10
721.800
 20
-631.261
 30
0.000000
  70
    32
  0
VERTEX
  8
01
  5
F50B
 10
721.678
 20
-631.251
 30
0.000000
  70
    32
  0
VERTEX
  8
01
  5
F50C
 10
721.555
 20
-631.244
 30
0.000000
  70
    32
  0
VERTEX
  8
01
  5
F50D
 10
721.433
 20
-631.238
 30
0.000000
  70
    32
  0
VERTEX
  8
01
  5
F50E
 10
721.310
 20
-631.235
 30
0.000000
  70
    32
  0
VERTEX
  8
01
  5
F50F
 10
721.188
 20
-631.234
 30
0.000000
  70
    32
  0
VERTEX
  8
01
  5
F510
 10
721.065
 20
-631.235
 30
0.000000
  70
    32
  0
VERTEX
  8
01
  5
F511
 10
720.942
 20
-631.238
 30
0.000000
  70
    32
  0
VERTEX
  8
01
  5
F512
 10
720.820
 20
-631.244
 30
0.000000
  70
    32
  0
VERTEX
  8
01
  5
F513
 10
720.698
 20
-631.251
 30
0.000000
  70
    32
  0
VERTEX
  8
01
  5
F514
 10
720.576
 20
-631.261
 30
0.000000
  70
    32
  0
VERTEX
  8
01
  5
F515
 10
720.454
 20
-631.273
 30
0.000000
  70
    32
  0
VERTEX
  8
01
  5
F516
 10
720.333
 20
-631.287
 30
0.000000
  70
    32
  0
VERTEX
  8
01
  5
F517
 10
720.212
 20
-631.303
 30
0.000000
  70
    32
  0
VERTEX
  8
01
  5
F518
 10
720.092
 20
-631.321
 30
0.000000
  70
    32
  0
VERTEX
  8
01
  5
F519
 10
719.973
 20
-631.341
 30
0.000000
  70
    32
  0
VERTEX
  8
01
  5
F51A
 10
719.854
 20
-631.363
 30
0.000000
  70
    32
  0
VERTEX
  8
01
  5
F51B
 10
719.736
 20
-631.388
 30
0.000000
  70
    32
  0
VERTEX
  8
01
  5
F51C
 10
719.619
 20
-631.414
 30
0.000000
  70
    32
  0
VERTEX
  8
01
  5
F51D
 10
719.503
 20
-631.443
 30
0.000000
  70
    32
  0
VERTEX
  8
01
  5
F51E
 10
719.388
 20
-631.473
 30
0.000000
  70
    32
  0
VERTEX
  8
01
  5
F51F
 10
719.274
 20
-631.506
 30
0.000000
  70
    32
  0
VERTEX
  8
01
  5
F520
 10
719.161
 20
-631.540
 30
0.000000
  70
    32
  0
VERTEX
  8
01
  5
F521
 10
719.050
 20
-631.577
 30
0.000000
  70
    32
  0
VERTEX
  8
01
  5
F522
 10
718.940
 20
-631.615
 30
0.000000
  70
    32
  0
VERTEX
  8
01
  5
F523
 10
718.831
 20
-631.655
 30
0.000000
  70
    32
  0
VERTEX
  8
01
  5
F524
 10
718.723
 20
-631.698
 30
0.000000
  70
    32
  0
VERTEX
  8
01
  5
F525
 10
718.617
 20
-631.742
 30
0.000000
  70
    32
  0
VERTEX
  8
01
  5
F526
 10
718.513
 20
-631.788
 30
0.000000
  70
    32
  0
VERTEX
  8
01
  5
F527
 10
718.410
 20
-631.835
 30
0.000000
  70
    32
  0
VERTEX
  8
01
  5
F528
 10
718.309
 20
-631.885
 30
0.000000
  70
    32
  0
VERTEX
  8
01
  5
F529
 10
718.209
 20
-631.936
 30
0.000000
  70
    32
  0
VERTEX
  8
01
  5
F52A
 10
718.112
 20
-631.989
 30
0.000000
  70
    32
  0
VERTEX
  8
01
  5
F52B
 10
718.016
 20
-632.044
 30
0.000000
  70
    32
  0
VERTEX
  8
01
  5
F52C
 10
717.922
 20
-632.100
 30
0.000000
  70
    32
  0
VERTEX
  8
01
  5
F52D
 10
717.830
 20
-632.158
 30
0.000000
  70
    32
  0
VERTEX
  8
01
  5
F52E
 10
717.740
 20
-632.218
 30
0.000000
  70
    32
  0
VERTEX
  8
01
  5
F52F
 10
717.652
 20
-632.279
 30
0.000000
  70
    32
  0
VERTEX
  8
01
  5
F530
 10
717.566
 20
-632.342
 30
0.000000
  70
    32
  0
VERTEX
  8
01
  5
F531
 10
717.483
 20
-632.406
 30
0.000000
  70
    32
  0
VERTEX
  8
01
  5
F532
 10
717.402
 20
-632.472
 30
0.000000
  70
    32
  0
VERTEX
  8
01
  5
F533
 10
717.323
 20
-632.539
 30
0.000000
  70
    32
  0
VERTEX
  8
01
  5
F534
 10
717.246
 20
-632.607
 30
0.000000
  70
    32
  0
VERTEX
  8
01
  5
F535
 10
717.172
 20
-632.677
 30
0.000000
  70
    32
  0
VERTEX
  8
01
  5
F536
 10
717.100
 20
-632.748
 30
0.000000
  70
    32
  0
VERTEX
  8
01
  5
F537
 10
717.030
 20
-632.820
 30
0.000000
  70
    32
  0
VERTEX
  8
01
  5
F538
 10
716.963
 20
-632.893
 30
0.000000
  70
    32
  0
VERTEX
  8
01
  5
F539
 10
716.899
 20
-632.968
 30
0.000000
  70
    32
  0
VERTEX
  8
01
  5
F53A
 10
716.837
 20
-633.044
 30
0.000000
  70
    32
  0
VERTEX
  8
01
  5
F53B
 10
716.778
 20
-633.120
 30
0.000000
  70
    32
  0
VERTEX
  8
01
  5
F53C
 10
716.722
 20
-633.198
 30
0.000000
  70
    32
  0
VERTEX
  8
01
  5
F53D
 10
716.668
 20
-633.277
 30
0.000000
  70
    32
  0
VERTEX
  8
01
  5
F53E
 10
716.617
 20
-633.356
 30
0.000000
  70
    32
  0
VERTEX
  8
01
  5
F53F
 10
716.568
 20
-633.437
 30
0.000000
  70
    32
  0
VERTEX
  8
01
  5
F540
 10
716.523
 20
-633.518
 30
0.000000
  70
    32
  0
VERTEX
  8
01
  5
F541
 10
716.480
 20
-633.600
 30
0.000000
  70
    32
  0
VERTEX
  8
01
  5
F542
 10
716.440
 20
-633.683
 30
0.000000
  70
    32
  0
VERTEX
  8
01
  5
F543
 10
716.403
 20
-633.767
 30
0.000000
  70
    32
  0
VERTEX
  8
01
  5
F544
 10
716.369
 20
-633.851
 30
0.000000
  70
    32
  0
VERTEX
  8
01
  5
F545
 10
716.338
 20
-633.935
 30
0.000000
  70
    32
  0
VERTEX
  8
01
  5
F546
 10
716.309
 20
-634.021
 30
0.000000
  70
    32
  0
VERTEX
  8
01
  5
F547
 10
716.284
 20
-634.106
 30
0.000000
  70
    32
  0
VERTEX
  8
01
  5
F548
 10
716.261
 20
-634.192
 30
0.000000
  70
    32
  0
VERTEX
  8
01
  5
F549
 10
716.242
 20
-634.279
 30
0.000000
  70
    32
  0
VERTEX
  8
01
  5
F54A
 10
716.225
 20
-634.366
 30
0.000000
  70
    32
  0
VERTEX
  8
01
  5
F54B
 10
716.212
 20
-634.453
 30
0.000000
  70
    32
  0
VERTEX
  8
01
  5
F54C
 10
716.201
 20
-634.540
 30
0.000000
  70
    32
  0
VERTEX
  8
01
  5
F54D
 10
716.194
 20
-634.627
 30
0.000000
  70
    32
  0
VERTEX
  8
01
  5
F54E
 10
716.189
 20
-634.715
 30
0.000000
  70
    32
  0
VERTEX
  8
01
  5
F54F
 10
716.188
 20
-634.803
 30
0.000000
  70
    32
  0
SEQEND
  8
01
  5
F550
  0
LINE
  5
4D5
  8
01
 10
721.18766916632455
 20
-651.23408159774408
 30
0.0
 11
715.18766916632467
 21
-651.23408159774408
 31
0.0
  0
LINE
  5
4D6
  8
01
 10
726.18766916632455
 20
-646.23408159774408
 30
0.0
 11
716.18766916632467
 21
-646.23408159774408
 31
0.0
  0
POLYLINE
  5
4D7
  8
01
 10
726.18766916632455
 20
-647.66566159774368
 30
0.0
 66
     1
 70
     8
  0
VERTEX
  8
01
  5
F551
 10
726.188
 20
-647.666
 30
0.000000
  70
    32
  0
VERTEX
  8
01
  5
F552
 10
726.186
 20
-647.753
 30
0.000000
  70
    32
  0
VERTEX
  8
01
  5
F553
 10
726.182
 20
-647.841
 30
0.000000
  70
    32
  0
VERTEX
  8
01
  5
F554
 10
726.174
 20
-647.928
 30
0.000000
  70
    32
  0
VERTEX
  8
01
  5
F555
 10
726.164
 20
-648.015
 30
0.000000
  70
    32
  0
VERTEX
  8
01
  5
F556
 10
726.150
 20
-648.102
 30
0.000000
  70
    32
  0
VERTEX
  8
01
  5
F557
 10
726.134
 20
-648.189
 30
0.000000
  70
    32
  0
VERTEX
  8
01
  5
F558
 10
726.114
 20
-648.276
 30
0.000000
  70
    32
  0
VERTEX
  8
01
  5
F559
 10
726.092
 20
-648.362
 30
0.000000
  70
    32
  0
VERTEX
  8
01
  5
F55A
 10
726.066
 20
-648.448
 30
0.000000
  70
    32
  0
VERTEX
  8
01
  5
F55B
 10
726.038
 20
-648.533
 30
0.000000
  70
    32
  0
VERTEX
  8
01
  5
F55C
 10
726.007
 20
-648.617
 30
0.000000
  70
    32
  0
VERTEX
  8
01
  5
F55D
 10
725.972
 20
-648.702
 30
0.000000
  70
    32
  0
VERTEX
  8
01
  5
F55E
 10
725.935
 20
-648.785
 30
0.000000
  70
    32
  0
VERTEX
  8
01
  5
F55F
 10
725.895
 20
-648.868
 30
0.000000
  70
    32
  0
VERTEX
  8
01
  5
F560
 10
725.853
 20
-648.950
 30
0.000000
  70
    32
  0
VERTEX
  8
01
  5
F561
 10
725.807
 20
-649.031
 30
0.000000
  70
    32
  0
VERTEX
  8
01
  5
F562
 10
725.759
 20
-649.112
 30
0.000000
  70
    32
  0
VERTEX
  8
01
  5
F563
 10
725.708
 20
-649.191
 30
0.000000
  70
    32
  0
VERTEX
  8
01
  5
F564
 10
725.654
 20
-649.270
 30
0.000000
  70
    32
  0
VERTEX
  8
01
  5
F565
 10
725.597
 20
-649.348
 30
0.000000
  70
    32
  0
VERTEX
  8
01
  5
F566
 10
725.538
 20
-649.425
 30
0.000000
  70
    32
  0
VERTEX
  8
01
  5
F567
 10
725.476
 20
-649.500
 30
0.000000
  70
    32
  0
VERTEX
  8
01
  5
F568
 10
725.412
 20
-649.575
 30
0.000000
  70
    32
  0
VERTEX
  8
01
  5
F569
 10
725.345
 20
-649.648
 30
0.000000
  70
    32
  0
VERTEX
  8
01
  5
F56A
 10
725.276
 20
-649.720
 30
0.000000
  70
    32
  0
VERTEX
  8
01
  5
F56B
 10
725.204
 20
-649.791
 30
0.000000
  70
    32
  0
VERTEX
  8
01
  5
F56C
 10
725.129
 20
-649.861
 30
0.000000
  70
    32
  0
VERTEX
  8
01
  5
F56D
 10
725.053
 20
-649.929
 30
0.000000
  70
    32
  0
VERTEX
  8
01
  5
F56E
 10
724.974
 20
-649.996
 30
0.000000
  70
    32
  0
VERTEX
  8
01
  5
F56F
 10
724.892
 20
-650.062
 30
0.000000
  70
    32
  0
VERTEX
  8
01
  5
F570
 10
724.809
 20
-650.126
 30
0.000000
  70
    32
  0
VERTEX
  8
01
  5
F571
 10
724.723
 20
-650.189
 30
0.000000
  70
    32
  0
VERTEX
  8
01
  5
F572
 10
724.635
 20
-650.250
 30
0.000000
  70
    32
  0
VERTEX
  8
01
  5
F573
 10
724.545
 20
-650.310
 30
0.000000
  70
    32
  0
VERTEX
  8
01
  5
F574
 10
724.454
 20
-650.368
 30
0.000000
  70
    32
  0
VERTEX
  8
01
  5
F575
 10
724.360
 20
-650.424
 30
0.000000
  70
    32
  0
VERTEX
  8
01
  5
F576
 10
724.264
 20
-650.479
 30
0.000000
  70
    32
  0
VERTEX
  8
01
  5
F577
 10
724.166
 20
-650.532
 30
0.000000
  70
    32
  0
VERTEX
  8
01
  5
F578
 10
724.067
 20
-650.583
 30
0.000000
  70
    32
  0
VERTEX
  8
01
  5
F579
 10
723.966
 20
-650.633
 30
0.000000
  70
    32
  0
VERTEX
  8
01
  5
F57A
 10
723.863
 20
-650.680
 30
0.000000
  70
    32
  0
VERTEX
  8
01
  5
F57B
 10
723.758
 20
-650.726
 30
0.000000
  70
    32
  0
VERTEX
  8
01
  5
F57C
 10
723.652
 20
-650.770
 30
0.000000
  70
    32
  0
VERTEX
  8
01
  5
F57D
 10
723.545
 20
-650.813
 30
0.000000
  70
    32
  0
VERTEX
  8
01
  5
F57E
 10
723.436
 20
-650.853
 30
0.000000
  70
    32
  0
VERTEX
  8
01
  5
F57F
 10
723.325
 20
-650.891
 30
0.000000
  70
    32
  0
VERTEX
  8
01
  5
F580
 10
723.214
 20
-650.928
 30
0.000000
  70
    32
  0
VERTEX
  8
01
  5
F581
 10
723.101
 20
-650.962
 30
0.000000
  70
    32
  0
VERTEX
  8
01
  5
F582
 10
722.987
 20
-650.995
 30
0.000000
  70
    32
  0
VERTEX
  8
01
  5
F583
 10
722.872
 20
-651.025
 30
0.000000
  70
    32
  0
VERTEX
  8
01
  5
F584
 10
722.756
 20
-651.054
 30
0.000000
  70
    32
  0
VERTEX
  8
01
  5
F585
 10
722.639
 20
-651.080
 30
0.000000
  70
    32
  0
VERTEX
  8
01
  5
F586
 10
722.521
 20
-651.105
 30
0.000000
  70
    32
  0
VERTEX
  8
01
  5
F587
 10
722.403
 20
-651.127
 30
0.000000
  70
    32
  0
VERTEX
  8
01
  5
F588
 10
722.283
 20
-651.147
 30
0.000000
  70
    32
  0
VERTEX
  8
01
  5
F589
 10
722.163
 20
-651.166
 30
0.000000
  70
    32
  0
VERTEX
  8
01
  5
F58A
 10
722.042
 20
-651.182
 30
0.000000
  70
    32
  0
VERTEX
  8
01
  5
F58B
 10
721.921
 20
-651.195
 30
0.000000
  70
    32
  0
VERTEX
  8
01
  5
F58C
 10
721.800
 20
-651.207
 30
0.000000
  70
    32
  0
VERTEX
  8
01
  5
F58D
 10
721.678
 20
-651.217
 30
0.000000
  70
    32
  0
VERTEX
  8
01
  5
F58E
 10
721.555
 20
-651.224
 30
0.000000
  70
    32
  0
VERTEX
  8
01
  5
F58F
 10
721.433
 20
-651.230
 30
0.000000
  70
    32
  0
VERTEX
  8
01
  5
F590
 10
721.310
 20
-651.233
 30
0.000000
  70
    32
  0
VERTEX
  8
01
  5
F591
 10
721.188
 20
-651.234
 30
0.000000
  70
    32
  0
VERTEX
  8
01
  5
F592
 10
721.065
 20
-651.233
 30
0.000000
  70
    32
  0
VERTEX
  8
01
  5
F593
 10
720.942
 20
-651.230
 30
0.000000
  70
    32
  0
VERTEX
  8
01
  5
F594
 10
720.820
 20
-651.224
 30
0.000000
  70
    32
  0
VERTEX
  8
01
  5
F595
 10
720.698
 20
-651.217
 30
0.000000
  70
    32
  0
VERTEX
  8
01
  5
F596
 10
720.576
 20
-651.207
 30
0.000000
  70
    32
  0
VERTEX
  8
01
  5
F597
 10
720.454
 20
-651.195
 30
0.000000
  70
    32
  0
VERTEX
  8
01
  5
F598
 10
720.333
 20
-651.182
 30
0.000000
  70
    32
  0
VERTEX
  8
01
  5
F599
 10
720.212
 20
-651.166
 30
0.000000
  70
    32
  0
VERTEX
  8
01
  5
F59A
 10
720.092
 20
-651.147
 30
0.000000
  70
    32
  0
VERTEX
  8
01
  5
F59B
 10
719.973
 20
-651.127
 30
0.000000
  70
    32
  0
VERTEX
  8
01
  5
F59C
 10
719.854
 20
-651.105
 30
0.000000
  70
    32
  0
VERTEX
  8
01
  5
F59D
 10
719.736
 20
-651.080
 30
0.000000
  70
    32
  0
VERTEX
  8
01
  5
F59E
 10
719.619
 20
-651.054
 30
0.000000
  70
    32
  0
VERTEX
  8
01
  5
F59F
 10
719.503
 20
-651.025
 30
0.000000
  70
    32
  0
VERTEX
  8
01
  5
F5A0
 10
719.388
 20
-650.995
 30
0.000000
  70
    32
  0
VERTEX
  8
01
  5
F5A1
 10
719.274
 20
-650.962
 30
0.000000
  70
    32
  0
VERTEX
  8
01
  5
F5A2
 10
719.161
 20
-650.928
 30
0.000000
  70
    32
  0
VERTEX
  8
01
  5
F5A3
 10
719.050
 20
-650.891
 30
0.000000
  70
    32
  0
VERTEX
  8
01
  5
F5A4
 10
718.940
 20
-650.853
 30
0.000000
  70
    32
  0
VERTEX
  8
01
  5
F5A5
 10
718.831
 20
-650.813
 30
0.000000
  70
    32
  0
VERTEX
  8
01
  5
F5A6
 10
718.723
 20
-650.770
 30
0.000000
  70
    32
  0
VERTEX
  8
01
  5
F5A7
 10
718.617
 20
-650.726
 30
0.000000
  70
    32
  0
VERTEX
  8
01
  5
F5A8
 10
718.513
 20
-650.680
 30
0.000000
  70
    32
  0
VERTEX
  8
01
  5
F5A9
 10
718.410
 20
-650.633
 30
0.000000
  70
    32
  0
VERTEX
  8
01
  5
F5AA
 10
718.309
 20
-650.583
 30
0.000000
  70
    32
  0
VERTEX
  8
01
  5
F5AB
 10
718.209
 20
-650.532
 30
0.000000
  70
    32
  0
VERTEX
  8
01
  5
F5AC
 10
718.112
 20
-650.479
 30
0.000000
  70
    32
  0
VERTEX
  8
01
  5
F5AD
 10
718.016
 20
-650.424
 30
0.000000
  70
    32
  0
VERTEX
  8
01
  5
F5AE
 10
717.922
 20
-650.368
 30
0.000000
  70
    32
  0
VERTEX
  8
01
  5
F5AF
 10
717.830
 20
-650.310
 30
0.000000
  70
    32
  0
VERTEX
  8
01
  5
F5B0
 10
717.740
 20
-650.250
 30
0.000000
  70
    32
  0
VERTEX
  8
01
  5
F5B1
 10
717.652
 20
-650.189
 30
0.000000
  70
    32
  0
VERTEX
  8
01
  5
F5B2
 10
717.566
 20
-650.126
 30
0.000000
  70
    32
  0
VERTEX
  8
01
  5
F5B3
 10
717.483
 20
-650.062
 30
0.000000
  70
    32
  0
VERTEX
  8
01
  5
F5B4
 10
717.402
 20
-649.996
 30
0.000000
  70
    32
  0
VERTEX
  8
01
  5
F5B5
 10
717.323
 20
-649.929
 30
0.000000
  70
    32
  0
VERTEX
  8
01
  5
F5B6
 10
717.246
 20
-649.861
 30
0.000000
  70
    32
  0
VERTEX
  8
01
  5
F5B7
 10
717.172
 20
-649.791
 30
0.000000
  70
    32
  0
VERTEX
  8
01
  5
F5B8
 10
717.100
 20
-649.720
 30
0.000000
  70
    32
  0
VERTEX
  8
01
  5
F5B9
 10
717.030
 20
-649.648
 30
0.000000
  70
    32
  0
VERTEX
  8
01
  5
F5BA
 10
716.963
 20
-649.575
 30
0.000000
  70
    32
  0
VERTEX
  8
01
  5
F5BB
 10
716.899
 20
-649.500
 30
0.000000
  70
    32
  0
VERTEX
  8
01
  5
F5BC
 10
716.837
 20
-649.425
 30
0.000000
  70
    32
  0
VERTEX
  8
01
  5
F5BD
 10
716.778
 20
-649.348
 30
0.000000
  70
    32
  0
VERTEX
  8
01
  5
F5BE
 10
716.722
 20
-649.270
 30
0.000000
  70
    32
  0
VERTEX
  8
01
  5
F5BF
 10
716.668
 20
-649.191
 30
0.000000
  70
    32
  0
VERTEX
  8
01
  5
F5C0
 10
716.617
 20
-649.112
 30
0.000000
  70
    32
  0
VERTEX
  8
01
  5
F5C1
 10
716.568
 20
-649.031
 30
0.000000
  70
    32
  0
VERTEX
  8
01
  5
F5C2
 10
716.523
 20
-648.950
 30
0.000000
  70
    32
  0
VERTEX
  8
01
  5
F5C3
 10
716.480
 20
-648.868
 30
0.000000
  70
    32
  0
VERTEX
  8
01
  5
F5C4
 10
716.440
 20
-648.785
 30
0.000000
  70
    32
  0
VERTEX
  8
01
  5
F5C5
 10
716.403
 20
-648.702
 30
0.000000
  70
    32
  0
VERTEX
  8
01
  5
F5C6
 10
716.369
 20
-648.617
 30
0.000000
  70
    32
  0
VERTEX
  8
01
  5
F5C7
 10
716.338
 20
-648.533
 30
0.000000
  70
    32
  0
VERTEX
  8
01
  5
F5C8
 10
716.309
 20
-648.448
 30
0.000000
  70
    32
  0
VERTEX
  8
01
  5
F5C9
 10
716.284
 20
-648.362
 30
0.000000
  70
    32
  0
VERTEX
  8
01
  5
F5CA
 10
716.261
 20
-648.276
 30
0.000000
  70
    32
  0
VERTEX
  8
01
  5
F5CB
 10
716.242
 20
-648.189
 30
0.000000
  70
    32
  0
VERTEX
  8
01
  5
F5CC
 10
716.225
 20
-648.102
 30
0.000000
  70
    32
  0
VERTEX
  8
01
  5
F5CD
 10
716.212
 20
-648.015
 30
0.000000
  70
    32
  0
VERTEX
  8
01
  5
F5CE
 10
716.201
 20
-647.928
 30
0.000000
  70
    32
  0
VERTEX
  8
01
  5
F5CF
 10
716.194
 20
-647.841
 30
0.000000
  70
    32
  0
VERTEX
  8
01
  5
F5D0
 10
716.189
 20
-647.753
 30
0.000000
  70
    32
  0
VERTEX
  8
01
  5
F5D1
 10
716.188
 20
-647.666
 30
0.000000
  70
    32
  0
SEQEND
  8
01
  5
F5D2
  0
LINE
  5
4D8
  8
01
 10
726.18766916632455
 20
-634.80250159774357
 30
0.0
 11
726.18766916632455
 21
-647.66566159774447
 31
0.0
  0
LINE
  5
4D9
  8
01
 10
716.18766916632467
 20
-634.80250159774357
 30
0.0
 11
716.18766916632467
 21
-647.66566159774175
 31
0.0
  0
LINE
  5
4DA
  8
01
 10
712.18765416632505
 20
-601.23408159774408
 30
0.0
 11
711.18765416632505
 21
-600.23408159774397
 31
0.0
  0
LINE
  5
4DB
  8
01
 10
713.58767116632487
 20
-601.13410159774412
 30
0.0
 11
712.78769016632475
 21
-600.33412159774343
 31
0.0
  0
LINE
  5
4DC
  8
01
 10
713.58767116632487
 20
-683.33409159774328
 30
0.0
 11
712.78766816632469
 21
-684.13407159774385
 31
0.0
  0
LINE
  5
4DD
  8
01
 10
712.18761616632491
 20
-683.23411159774332
 30
0.0
 11
711.18763116632454
 21
-684.23411159774332
 31
0.0
  0
LINE
  5
4DE
  8
01
 10
715.18766916632467
 20
-707.23408159774397
 30
0.0
 11
711.18766916632467
 21
-707.23408159774397
 31
0.0
  0
LINE
  5
4DF
  8
01
 10
712.78767516632524
 20
-707.23408159774397
 30
0.0
 11
712.78767516632524
 21
-684.13407159774385
 31
0.0
  0
LINE
  5
4E0
  8
01
 10
711.18766916632467
 20
-707.23408159774397
 30
0.0
 11
711.18766916632467
 21
-684.23408159774408
 31
0.0
  0
LINE
  5
4E1
  8
01
 10
712.18766916632455
 20
-601.23408159774408
 30
0.0
 11
712.18766916632455
 21
-683.23408159774397
 31
0.0
  0
LINE
  5
4E3
  8
01
 10
715.18766916632467
 20
-577.23408159774397
 30
0.0
 11
711.18766916632467
 21
-577.23408159774397
 31
0.0
  0
LINE
  5
4E6
  8
01
 10
821.68766916632455
 20
-583.23408159774397
 30
0.0
 11
821.68766916632455
 21
-701.23408159774408
 31
0.0
  0
LINE
  5
4E7
  8
01
 10
846.68766916632455
 20
-583.23408159774397
 30
0.0
 11
846.68766916632455
 21
-701.23408159774408
 31
0.0
  0
ARC
  5
4E8
  8
01
 10
840.68766916632455
 20
-701.23408159774408
 30
0.0
 40
6.0
 50
270.0
 51
0.0
  0
ARC
  5
4EA
  8
01
 10
827.68766916632467
 20
-701.23408159774408
 30
0.0
 40
6.0
 50
180.0
 51
270.0
  0
LINE
  5
4EB
  8
01
 10
841.93766916632467
 20
-634.80250159774357
 30
0.0
 11
841.93766916632467
 21
-647.66566159774345
 31
0.0
  0
LINE
  5
4EC
  8
01
 10
840.93766916632467
 20
-636.23408159774397
 30
0.0
 11
840.93766916632467
 21
-646.23408159774408
 31
0.0
  0
LINE
  5
4ED
  8
01
 10
827.43766916632455
 20
-636.23408159774397
 30
0.0
 11
827.43766916632455
 21
-646.23408159774408
 31
0.0
  0
LINE
  5
4EE
  8
01
 10
826.43766916632455
 20
-634.80250159774357
 30
0.0
 11
826.43766916632455
 21
-647.66566159774345
 31
0.0
  0
ARC
  5
4EF
  8
01
 10
834.18766916632455
 20
-641.0340715977436
 30
0.0
 40
10.199999999999999
 50
220.5530799999753
 51
319.44692000002459
  0
LINE
  5
4F0
  8
01
 10
827.43766916632455
 20
-646.23408159774408
 30
0.0
 11
840.93766916632467
 21
-646.23408159774408
 31
0.0
  0
LINE
  5
4F1
  8
01
 10
827.43766916632455
 20
-636.23408159774397
 30
0.0
 11
840.93766916632467
 21
-636.23408159774397
 31
0.0
  0
ARC
  5
4F2
  8
01
 10
834.18766916632455
 20
-641.43409159774365
 30
0.0
 40
10.199999999999999
 50
40.553083999977588
 51
139.44692000002459
  0
CIRCLE
  5
4F3
  8
01
 10
834.18766916632455
 20
-699.23408159774397
 30
0.0
 40
4.5
  0
CIRCLE
  5
4F4
  8
01
 10
834.18766916632455
 20
-699.23408159774397
 30
0.0
 40
2.75
  0
LINE
  5
4F5
  8
01
 10
827.68766916632467
 20
-707.23408159774397
 30
0.0
 11
840.68766916632455
 21
-707.23408159774397
 31
0.0
  0
ARC
  5
4F6
  8
01
 10
840.68766916632455
 20
-583.23408159774397
 30
0.0
 40
6.0
 50
0.0
 51
90.0
  0
ARC
  5
4F9
  8
01
 10
827.68766916632467
 20
-583.23408159774397
 30
0.0
 40
6.0
 50
90.0
 51
180.0
  0
LINE
  5
4FA
  8
01
 10
827.68766916632467
 20
-577.23408159774397
 30
0.0
 11
840.68766916632455
 21
-577.23408159774397
 31
0.0
  0
CIRCLE
  5
4FB
  8
01
 10
834.18766916632455
 20
-585.23408159774408
 30
0.0
 40
4.5
  0
CIRCLE
  5
4FC
  8
01
 10
834.18766916632455
 20
-585.23408159774408
 30
0.0
 40
2.75
  0
TEXT
  5
4FD
  8
01
 10
649.18768516632463
 20
-378.23408159774419
 30
0.0
 40
20.0
  1
1-KKC-X-LW
  0
LINE
  5
51F
  8
01
 10
955.58767516632452
 20
-577.23408159774397
 30
0.0
 11
955.58767516632452
 21
-600.33405159774327
 31
0.0
  0
LINE
  5
520
  8
01
 10
957.18766516632502
 20
-577.23408159774397
 30
0.0
 11
957.18766516632502
 21
-600.23408159774397
 31
0.0
  0
LINE
  5
521
  8
01
 10
954.78767516632524
 20
-577.23408159774397
 30
0.0
 11
954.78767516632524
 21
-707.23408159774397
 31
0.0
  0
LINE
  5
522
  8
01
 10
953.18766516632513
 20
-577.23408159774397
 30
0.0
 11
953.18766516632513
 21
-707.23408159774397
 31
0.0
  0
LINE
  5
525
  8
01
 10
956.18766516632513
 20
-679.23408159774397
 30
0.0
 11
984.97829245402636
 21
-679.23408159774397
 31
0.0
  0
LINE
  5
526
  8
01
 10
956.18767516632477
 20
-601.23408159774408
 30
0.0
 11
957.18767516632477
 21
-600.23408159774397
 31
0.0
  0
LINE
  5
527
  8
01
 10
954.7876651663255
 20
-601.13410159774412
 30
0.0
 11
955.58767516632452
 21
-600.33405159774327
 31
0.0
  0
LINE
  5
528
  8
01
 10
946.18766516632513
 20
-631.23408159774408
 30
0.0
 11
953.18766516632513
 21
-631.23408159774408
 31
0.0
  0
LINE
  5
529
  8
01
 10
946.18766516632513
 20
-651.23408159774408
 30
0.0
 11
953.18766516632513
 21
-651.23408159774408
 31
0.0
  0
LINE
  5
52A
  8
01
 10
942.26976516632465
 20
-648.04035159774412
 30
0.0
 11
953.18766516632513
 21
-648.04035159774412
 31
0.0
  0
LINE
  5
52B
  8
01
 10
942.26976516632465
 20
-634.42780159774327
 30
0.0
 11
953.18766516632513
 21
-634.42780159774327
 31
0.0
  0
LINE
  5
52C
  8
01
 10
942.18766516632525
 20
-635.23408159774408
 30
0.0
 11
942.18766516632525
 21
-647.23408159774408
 31
0.0
  0
ARC
  5
52D
  8
01
 10
946.18766516632513
 20
-647.23408159774408
 30
0.0
 40
4.0
 50
179.999989999999
 51
270.0
  0
ARC
  5
52F
  8
01
 10
946.18766516632513
 20
-635.23408159774408
 30
0.0
 40
4.0
 50
90.000002999984659
 51
180.00001000000091
  0
LINE
  5
530
  8
01
 10
954.7876651663255
 20
-683.33409159774328
 30
0.0
 11
955.58767516632452
 21
-684.13407159774385
 31
0.0
  0
LINE
  5
531
  8
01
 10
956.18771516632569
 20
-683.23411159774332
 30
0.0
 11
957.18769516632426
 21
-684.23408159774408
 31
0.0
  0
LINE
  5
532
  8
01
 10
948.18766516632513
 20
-699.23408159774397
 30
0.0
 11
962.18766516632513
 21
-699.23408159774397
 31
0.0
  0
LINE
  5
533
  8
01
 10
953.18766516632513
 20
-707.23408159774397
 30
0.0
 11
957.18766516632502
 21
-707.23408159774397
 31
0.0
  0
LINE
  5
534
  8
01
 10
955.58767516632452
 20
-707.23408159774397
 30
0.0
 11
955.58767516632452
 21
-684.13407159774385
 31
0.0
  0
LINE
  5
535
  8
01
 10
957.18766516632502
 20
-707.23408159774397
 30
0.0
 11
957.18766516632502
 21
-684.23408159774408
 31
0.0
  0
LINE
  5
536
  8
01
 10
956.18766516632513
 20
-601.23408159774408
 30
0.0
 11
956.18766516632513
 21
-683.23408159774397
 31
0.0
  0
LINE
  5
539
  8
01
 10
953.18766516632513
 20
-577.23408159774397
 30
0.0
 11
957.18766516632502
 21
-577.23408159774397
 31
0.0
  0
LINE
  5
53A
  8
01
 10
948.18766516632513
 20
-585.23408159774408
 30
0.0
 11
962.18766516632513
 21
-585.23408159774408
 31
0.0
  0
LINE
  5
545
  8
01
 10
957.1885493483851
 20
-383.73408159877272
 30
0.0
 11
1023.188549348385
 21
-383.73408159877272
 31
0.0
  0
LINE
  5
546
  8
01
 10
957.1885493483851
 20
-385.33405159877202
 30
0.0
 11
1023.188549348385
 21
-385.33405159877202
 31
0.0
  0
LINE
  5
547
  8
01
 10
954.78855934838532
 20
-402.7340815987726
 30
0.0
 11
1023.188549348385
 21
-402.7340815987726
 31
0.0
  0
LINE
  5
548
  8
01
 10
956.38853934838608
 20
-388.23408159877272
 30
0.0
 11
957.1885493483851
 21
-387.43406159877208
 31
0.0
  0
LINE
  5
549
  8
01
 10
957.1885493483851
 20
-382.73408159877272
 30
0.0
 11
957.1885493483851
 21
-387.43406159877208
 31
0.0
  0
LINE
  5
54A
  8
01
 10
954.78855934838532
 20
-388.23405159877262
 30
0.0
 11
955.58854934838655
 21
-387.43409159877228
 31
0.0
  0
LINE
  5
54B
  8
01
 10
942.18854934838498
 20
-400.98408159877272
 30
0.0
 11
953.1885493483851
 21
-400.98408159877272
 31
0.0
  0
LINE
  5
54C
  8
01
 10
942.18854934838498
 20
-400.98408159877272
 30
0.0
 11
942.18854934838498
 21
-398.98408159877272
 31
0.0
  0
LINE
  5
54D
  8
01
 10
953.1885493483851
 20
-380.73408159877272
 30
0.0
 11
954.78855934838532
 21
-380.73408159877272
 31
0.0
  0
LINE
  5
54E
  8
01
 10
954.78855934838532
 20
-380.73408159877272
 30
0.0
 11
954.78855934838532
 21
-388.23408159877272
 31
0.0
  0
LINE
  5
54F
  8
01
 10
955.58855934838618
 20
-382.73408159877272
 30
0.0
 11
955.58855934838618
 21
-387.43406159877208
 31
0.0
  0
LINE
  5
550
  8
01
 10
954.78855934838532
 20
-382.73408159877272
 30
0.0
 11
957.1885493483851
 21
-382.73408159877272
 31
0.0
  0
LINE
  5
551
  8
01
 10
957.1885493483851
 20
-399.0340715987723
 30
0.0
 11
957.1885493483851
 21
-402.7340815987726
 31
0.0
  0
LINE
  5
552
  8
01
 10
956.38855934838557
 20
-398.23405159877262
 30
0.0
 11
957.1885493483851
 21
-399.0340715987723
 31
0.0
  0
LINE
  5
553
  8
01
 10
957.1885493483851
 20
-401.13407159877261
 30
0.0
 11
961.78855934838509
 21
-401.13407159877261
 31
0.0
  0
LINE
  5
554
  8
01
 10
954.78854934838546
 20
-398.23405159877262
 30
0.0
 11
955.58855934838618
 21
-399.0340715987723
 31
0.0
  0
LINE
  5
555
  8
01
 10
954.78855934838532
 20
-398.23408159877272
 30
0.0
 11
954.78855934838532
 21
-405.73408159877272
 31
0.0
  0
LINE
  5
556
  8
01
 10
953.1885493483851
 20
-405.73408159877272
 30
0.0
 11
954.78855934838532
 21
-405.73408159877272
 31
0.0
  0
LINE
  5
557
  8
01
 10
955.58855934838618
 20
-399.0340715987723
 30
0.0
 11
955.58855934838618
 21
-402.7340815987726
 31
0.0
  0
LINE
  5
558
  8
01
 10
953.1885493483851
 20
-373.23408159877272
 30
0.0
 11
953.1885493483851
 21
-413.23408159877272
 31
0.0
  0
LINE
  5
559
  8
01
 10
961.78855934838509
 20
-385.33405159877202
 30
0.0
 11
961.78855934838509
 21
-402.7340815987726
 31
0.0
  0
LINE
  5
55A
  8
01
 10
956.38854934838594
 20
-388.23408159877272
 30
0.0
 11
956.38854934838594
 21
-398.23408159877272
 31
0.0
  0
LINE
  5
55B
  8
01
 10
954.78855934838532
 20
-388.23408159877272
 30
0.0
 11
954.78855934838532
 21
-398.23408159877272
 31
0.0
  0
ARC
  5
55C
  8
01
 10
985.85804934838507
 20
-423.33516159877217
 30
0.0
 40
50.0
 50
130.7976899999974
 51
150.85500000002
  0
LINE
  5
55E
  8
01
 10
985.54989789461706
 20
-427.73411259877139
 30
0.0
 11
1001.172534506068
 21
-427.73411259877139
 31
0.0
  0
LINE
  5
55F
  8
01
 10
1021.588549348386
 20
-385.33405159877202
 30
0.0
 11
1021.588549348386
 21
-402.7340815987726
 31
0.0
  0
LINE
  5
560
  8
01
 10
1023.188549348385
 20
-383.73408159877272
 30
0.0
 11
1023.188549348385
 21
-402.7340815987726
 31
0.0
  0
LINE
  5
562
  8
01
 10
985.54989789461706
 20
-358.73405059877399
 30
0.0
 11
1001.172534506068
 21
-358.73405059877399
 31
0.0
  0
POINT
  5
568
  8
01
 10
854.18766916632455
 20
-663.23408159774408
 30
0.0
  0
LINE
  5
569
  8
01
 10
854.18766916632455
 20
-688.23408159774385
 30
0.0
 11
854.18766916632455
 21
-638.2341815977444
 31
0.0
  0
LINE
  5
92B
  8
01
 10
720.1876731663242
 20
-699.23408159774397
 30
0.0
 11
706.18767316632409
 21
-699.23408159774397
 31
0.0
  0
LINE
  5
92C
  8
01
 10
720.1876731663242
 20
-585.23408159774408
 30
0.0
 11
706.18767316632409
 21
-585.23408159774408
 31
0.0
  0
LINE
  5
92E
  8
01
 10
840.68766916632455
 20
-585.23408159774408
 30
0.0
 11
827.68766916632467
 21
-585.23408159774408
 31
0.0
  0
LINE
  5
92F
  8
01
 10
834.18766916632455
 20
-578.73408159774397
 30
0.0
 11
834.18766916632455
 21
-591.73408159774397
 31
0.0
  0
LINE
  5
931
  8
01
 10
840.68766916632455
 20
-699.23408159774397
 30
0.0
 11
827.68766916632467
 21
-699.23408159774397
 31
0.0
  0
LINE
  5
932
  8
01
 10
834.18766916632455
 20
-692.73408159774408
 30
0.0
 11
834.18766916632455
 21
-705.73408159774408
 31
0.0
  0
LINE
  5
96B
  8
01
 10
694.1876731663242
 20
-663.23408159774408
 30
0.0
 11
634.1876731663242
 21
-663.23408159774408
 31
0.0
  0
LINE
  5
96C
  8
01
 10
664.18767316632409
 20
-633.23408159774397
 30
0.0
 11
664.18767316632409
 21
-693.23408159774408
 31
0.0
  0
LINE
  5
96E
  8
01
 10
974.18766516632502
 20
-663.23408159774419
 30
0.0
 11
1034.1876651663249
 21
-663.23408159774419
 31
0.0
  0
LINE
  5
96F
  8
01
 10
1004.187665166325
 20
-633.23408159774419
 30
0.0
 11
1004.187665166325
 21
-693.23408159774419
 31
0.0
  0
POINT
  5
21C1
  8
01
 10
799.68766916632455
 20
-663.23408159774419
 30
0.0
 50
180.0
  0
CIRCLE
  5
21CE
  8
01
 10
799.68766916632455
 20
-663.23408159774419
 30
0.0
 40
2.5
  0
POINT
  5
21D7
  8
01
 10
868.68766916632467
 20
-663.23408159774419
 30
0.0
  0
LINE
  5
21D8
  8
01
 10
868.28766915632468
 20
-664.98408159774419
 30
0.0
 11
868.28766915632468
 21
-664.13408157774404
 31
0.0
  0
LINE
  5
21D9
  8
01
 10
869.08766917632465
 20
-664.98408159774419
 30
0.0
 11
869.08766917632465
 21
-664.13408157774404
 31
0.0
  0
LINE
  5
21DA
  8
01
 10
867.78766918632482
 20
-663.63408160774406
 30
0.0
 11
866.93766916632467
 21
-663.63408160774406
 31
0.0
  0
LINE
  5
21DB
  8
01
 10
867.78766918632482
 20
-662.83408158774421
 30
0.0
 11
866.93766916632467
 21
-662.83408158774421
 31
0.0
  0
LINE
  5
21DC
  8
01
 10
866.93766916632467
 20
-663.63408160774406
 30
0.0
 11
866.93766916632467
 21
-662.83408158774421
 31
0.0
  0
LINE
  5
21DD
  8
01
 10
869.08766917632465
 20
-664.98408159774419
 30
0.0
 11
868.28766915632468
 21
-664.98408159774419
 31
0.0
  0
LINE
  5
21DE
  8
01
 10
869.08766917632465
 20
-661.48408159774419
 30
0.0
 11
869.08766917632465
 21
-662.33408161774435
 31
0.0
  0
LINE
  5
21DF
  8
01
 10
868.28766915632468
 20
-661.48408159774419
 30
0.0
 11
868.28766915632468
 21
-662.33408161774435
 31
0.0
  0
LINE
  5
21E0
  8
01
 10
869.58766914632452
 20
-662.83408158774421
 30
0.0
 11
870.43766916632467
 21
-662.83408158774421
 31
0.0
  0
LINE
  5
21E1
  8
01
 10
869.58766914632452
 20
-663.63408160774406
 30
0.0
 11
870.43766916632467
 21
-663.63408160774406
 31
0.0
  0
LINE
  5
21E2
  8
01
 10
870.43766916632467
 20
-662.83408158774421
 30
0.0
 11
870.43766916632467
 21
-663.63408160774406
 31
0.0
  0
LINE
  5
21E3
  8
01
 10
868.28766915632468
 20
-661.48408159774419
 30
0.0
 11
869.08766917632465
 21
-661.48408159774419
 31
0.0
  0
CIRCLE
  5
21E4
  8
01
 10
868.68766916632467
 20
-663.23408159774419
 30
0.0
 40
2.5
  0
ARC
  5
21E5
  8
01
 10
869.58766914632452
 20
-662.33408161774435
 30
0.0
 40
0.5
 50
179.9999899999998
 51
270.0
  0
ARC
  5
21E6
  8
01
 10
869.58766914632452
 20
-664.13408157774404
 30
0.0
 40
0.5
 50
90.000003000000945
 51
180.0000100000002
  0
ARC
  5
21E7
  8
01
 10
867.78766918632482
 20
-664.13408157774404
 30
0.0
 40
0.5
 50
0.0
 51
90.000003000000945
  0
ARC
  5
21E8
  8
01
 10
867.78766918632482
 20
-662.33408161774435
 30
0.0
 40
0.5
 50
270.0
 51
0.0
  0
LINE
  5
5977
  8
01
 10
1004.18778150607
 20
-343.23408159877272
 30
0.0
 11
1004.18778150607
 21
-378.23408159877249
 31
0.0
  0
LINE
  5
5978
  8
01
 10
1004.18778150607
 20
-408.23408159877272
 30
0.0
 11
1004.18778150607
 21
-443.23408159877272
 31
0.0
  0
LINE
  5
5979
  8
01
 10
784.18766916632455
 20
-663.23408159774419
 30
0.0
 11
819.18766916632455
 21
-663.23408159774419
 31
0.0
  0
LINE
  5
597A
  8
01
 10
849.18766916632467
 20
-663.23408159774419
 30
0.0
 11
884.18766916632455
 21
-663.23408159774419
 31
0.0
  0
LINE
  5
A5D6
  8
01
 10
953.1885493483851
 20
-413.23408159877272
 30
0.0
 11
1106.942929503417
 21
-413.23408159877272
 31
0.0
  0
LINE
  5
A5D7
  8
01
 10
953.1885493483851
 20
-373.23408159877272
 30
0.0
 11
1106.942929503417
 21
-373.23408159877272
 31
0.0
  0
LINE
  5
C5FA
  8
01
 10
649.18768516632451
 20
-418.73408159774408
 30
0.0
 11
754.18768516632463
 21
-418.73408159774459
 31
0.0
  0
LINE
  5
C5FC
  8
01
 10
649.18768516632451
 20
-408.23408159774419
 30
0.0
 11
754.18768516632463
 21
-408.23408159774391
 31
0.0
  0
TEXT
  5
C5FD
  8
01
 10
717.78768516632488
 20
-416.48408159774402
 30
0.0
 40
6.0
  1
コード
 72
     1
 11
727.78768516632499
 21
-416.48408159774402
 31
0.0
  0
LINE
  5
C5FF
  8
01
 10
649.18768516632394
 20
-450.23408159774323
 30
0.0
 11
754.18768516632463
 21
-450.23408159774368
 31
0.0
  0
TEXT
  5
C600
  8
01
 10
661.68768516632576
 20
-427.305617073218
 30
0.0
 40
6.0
  1
クローム
 72
     1
 11
675.2876851663259
 21
-427.305617073218
 31
0.0
  0
LINE
  5
C601
  8
01
 10
649.18768516632463
 20
-408.23408159774391
 30
0.0
 11
649.18768516632406
 21
-450.23408159774323
 31
0.0
  0
LINE
  5
C602
  8
01
 10
701.68768516632372
 20
-408.23408159774391
 30
0.0
 11
701.68768516632667
 21
-450.23408159774351
 31
0.0
  0
LINE
  5
C603
  8
01
 10
754.18768516632463
 20
-408.23408159774391
 30
0.0
 11
754.18768516632394
 21
-450.23408159774368
 31
0.0
  0
LINE
  5
C606
  8
01
 10
649.18768516632451
 20
-429.23408159774368
 30
0.0
 11
754.18768516632463
 21
-429.23408159774459
 31
0.0
  0
LINE
  5
C607
  8
01
 10
649.18768516632417
 20
-439.73408159774402
 30
0.0
 11
754.18768516632463
 21
-439.73408159774459
 31
0.0
  0
TEXT
  5
C609
  8
01
 10
705.08768516632495
 20
-427.30561707321868
 30
0.0
 40
6.0
  1
1-KKC-C-LW
 41
0.7
 72
     1
 11
727.78768516632499
 21
-427.30561707321868
 31
0.0
  0
TEXT
  5
C60A
  8
01
 10
705.08768516632495
 20
-437.80561707321868
 30
0.0
 40
6.0
  1
1-KKC-B-LW
 41
0.7
 72
     1
 11
727.78768516632499
 21
-437.80561707321868
 31
0.0
  0
TEXT
  5
C60B
  8
01
 10
704.98768516632504
 20
-448.30561707321868
 30
0.0
 40
6.0
  1
1-KKC-N-LW
 41
0.7
 72
     1
 11
727.78768516632499
 21
-448.30561707321868
 31
0.0
  0
TEXT
  5
C60C
  8
01
 10
650.88768516632319
 20
-437.20045201509947
 30
0.0
 40
6.0
  1
パールクローム
 72
     1
 11
675.28768516632317
 21
-437.20045201509947
 31
0.0
  0
TEXT
  5
C60D
  8
01
 10
650.88768516632319
 20
-447.70045201509959
 30
0.0
 40
6.0
  1
サテンニッケル
 72
     1
 11
675.28768516632317
 21
-447.70045201509959
 31
0.0
  0
TEXT
  5
C6AD
  8
01
 10
661.68768516632394
 20
-416.48408159774408
 30
0.0
 40
6.0
  1
表面処理
 72
     1
 11
675.28768516632397
 21
-416.48408159774408
 31
0.0
  0
LINE
  5
D535
  8
01
 10
1022.187665166325
 20
-645.88473002484625
 30
0.0
 11
1022.187665166325
 21
-679.23408159774397
 31
0.0
  0
LINE
  5
D536
  8
01
 10
984.97829245402636
 20
-679.23408159774397
 30
0.0
 11
1022.187665166325
 21
-679.23408159774397
 31
0.0
  0
LINE
  5
E825
  8
01
 10
979.68778150606977
 20
-421.7340815987726
 30
0.0
 11
1028.68778150607
 21
-421.73408159877272
 31
0.0
  0
LINE
  5
E826
  8
01
 10
979.18778150606965
 20
-413.2340815987726
 30
0.0
 11
979.18778150606988
 21
-421.2340815987726
 31
0.0
  0
LINE
  5
E828
  8
01
 10
1029.1877815060691
 20
-413.2340815987726
 30
0.0
 11
1029.1877815060691
 21
-421.23408159877272
 31
0.0
  0
ARC
  5
E82A
  8
01
 10
1004.187665166325
 20
-663.23408159774419
 30
0.0
 40
25.0
 50
28.685402014113279
 51
352.03294349330417
  0
LINE
  5
E82F
  8
01
 10
854.18766916632455
 20
-638.23408159774419
 30
0.0
 11
854.18766916632455
 21
-688.23408159774419
 31
0.0
  0
LINE
  5
E830
  8
01
 10
862.68766916632455
 20
-687.73408159774419
 30
0.0
 11
862.68766916632455
 21
-638.73408159774419
 31
0.0
  0
LINE
  5
E831
  8
01
 10
854.18766916632455
 20
-688.23408159774419
 30
0.0
 11
862.18766916632455
 21
-688.23408159774419
 31
0.0
  0
LINE
  5
E833
  8
01
 10
854.18766916632455
 20
-638.23408159774419
 30
0.0
 11
862.18766916632455
 21
-638.23408159774419
 31
0.0
  0
LINE
  5
E839
  8
01
 10
979.18778150606965
 20
-413.2340815987726
 30
0.0
 11
1029.1877815060691
 21
-413.2340815987726
 31
0.0
  0
POINT
  5
E83D
  8
01
 10
863.18766916632467
 20
-663.23408159774419
 30
0.0
  0
POINT
  5
E83E
  8
01
 10
863.18766916632467
 20
-663.23408159774419
 30
0.0
  0
POINT
  5
E83F
  8
01
 10
863.18766916632467
 20
-663.23408159774419
 30
0.0
  0
LINE
  5
E840
  8
01
 10
992.68778150606965
 20
-422.23408159877312
 30
0.0
 11
1015.68778150607
 21
-422.23408159877209
 31
0.0
  0
LINE
  5
E841
  8
01
 10
863.18766916632649
 20
-675.23408159773601
 30
0.0
 11
863.18766916632649
 21
-651.23408159774419
 31
0.0
  0
LINE
  5
E842
  8
01
 10
1019.187781506071
 20
-452.23408159877312
 30
0.0
 11
1117.6877815060709
 21
-452.23408159877312
 31
0.0
  0
ARC
  5
E843
  8
01
 10
1117.6877815060709
 20
-453.73408159877312
 30
0.0
 40
1.5
 50
0.0
 51
90.0
  0
LINE
  5
E844
  8
01
 10
1119.1877815060709
 20
-473.73408159877312
 30
0.0
 11
1119.1877815060709
 21
-453.73408159877312
 31
0.0
  0
LINE
  5
E845
  8
01
 10
994.18778150606965
 20
-475.234081598773
 30
0.0
 11
1117.6877815060709
 21
-475.234081598773
 31
0.0
  0
ARC
  5
E846
  8
01
 10
1117.6877815060709
 20
-473.73408159877312
 30
0.0
 40
1.5
 50
270.0
 51
0.0
  0
ARC
  5
E847
  8
01
 10
994.18778150606965
 20
-473.73408159877312
 30
0.0
 40
1.5
 50
180.0
 51
270.0
  0
LINE
  5
E848
  8
01
 10
992.68778150606965
 20
-473.73408159877312
 30
0.0
 11
992.68778150606965
 21
-422.23408159877312
 31
0.0
  0
ARC
  5
E849
  8
01
 10
1019.187781506071
 20
-448.73408159877312
 30
0.0
 40
3.5
 50
180.0
 51
270.0
  0
LINE
  5
E84A
  8
01
 10
1015.687781506071
 20
-448.73408159877312
 30
0.0
 11
1015.68778150607
 21
-422.23408159877209
 31
0.0
  0
LINE
  5
E84B
  8
01
 10
914.67452174706068
 20
-651.23408159774499
 30
0.0
 11
863.18766916632649
 21
-651.23408159774419
 31
0.0
  0
ARC
  5
E84C
  8
01
 10
863.18766916633001
 20
-558.60706132650023
 30
0.0
 40
116.6270202712432
 50
270.0
 51
293.24286954582902
  0
ARC
  5
E84D
  8
01
 10
1019.030279689062
 20
-669.26867098744606
 30
0.0
 40
3.5000000000009091
 50
90.0
 51
180.0
  0
LINE
  5
E84E
  8
01
 10
992.7008697009959
 20
-652.74717140099176
 30
0.0
 11
992.88413392459995
 21
-673.74717140099176
 31
0.0
  0
ARC
  5
E84F
  8
01
 10
1019.0218546783
 20
-670.19917412658288
 30
0.0
 40
3.5000000000009091
 50
90.0
 51
178.59366045518789
  0
LINE
  5
E850
  8
01
 10
1015.522908947106
 20
-670.11327435849682
 30
0.0
 11
1015.49119640805
 21
-673.74717140099176
 31
0.0
  0
ARC
  5
E851
  8
01
 10
994.3840768091959
 20
-673.73408159774317
 30
0.0
 40
1.5
 50
180.50000000001751
 51
270.0
  0
ARC
  5
E852
  8
01
 10
1013.99125352345
 20
-673.73408159774226
 30
0.0
 40
1.5
 50
270.00000000010419
 51
359.49999999993031
  0
LINE
  5
E853
  8
01
 10
1015.530279689061
 20
-669.26867098716605
 30
0.0
 11
1015.522908947101
 21
-670.11327435865496
 31
0.0
  0
LINE
  5
E854
  8
01
 10
1013.991253523453
 20
-675.23408159774419
 30
0.0
 11
994.38407680919681
 21
-675.23408159774419
 31
0.0
  0
LINE
  5
E855
  8
01
 10
1117.6876651663249
 20
-666.69917412658106
 30
0.0
 11
1019.0218546783
 21
-666.69917412658106
 31
0.0
  0
LINE
  5
E856
  8
01
 10
994.20081258559185
 20
-651.23408159774419
 30
0.0
 11
1117.6876651663249
 21
-651.23408159774419
 31
0.0
  0
ARC
  5
E857
  8
01
 10
994.20081258559185
 20
-652.73408159774408
 30
0.0
 40
1.5
 50
90.0
 51
180.50000000001751
  0
ARC
  5
E858
  8
01
 10
914.67452174706068
 20
-652.7340815977451
 30
0.0
 40
1.5
 50
359.49999999998238
 51
90.0
  0
LINE
  5
E859
  8
01
 10
916.17446463165743
 20
-652.74717140099256
 30
0.0
 11
916.15276169516335
 21
-655.23408159774499
 31
0.0
  0
ARC
  5
E85A
  8
01
 10
904.68766916632637
 20
-655.23408159774419
 30
0.0
 40
11.465092528836969
 50
293.24286954582902
 51
0.0000000002084408
  0
ARC
  5
E85B
  8
01
 10
1117.687665166326
 20
-665.19917412658197
 30
0.0
 40
1.5
 50
269.99999999994787
 51
0.0
  0
LINE
  5
E85C
  8
01
 10
1119.1876651663249
 20
-652.73408159774408
 30
0.0
 11
1119.1876651663249
 21
-665.19917412658117
 31
0.0
  0
ARC
  5
E85D
  8
01
 10
1117.6876651663249
 20
-652.73408159774408
 30
0.0
 40
1.5
 50
0.0
 51
90.0
  0
LINE
  5
EAD6
  8
01
 10
979.68778150606977
 20
-364.73408159877289
 30
0.0
 11
1028.68778150607
 21
-364.73408159877278
 31
0.0
  0
LINE
  5
EAD7
  8
01
 10
979.18778150606965
 20
-373.23408159877278
 30
0.0
 11
979.18778150606965
 21
-365.23408159877289
 31
0.0
  0
LINE
  5
EAD9
  8
01
 10
1029.1877815060691
 20
-373.23408159877278
 30
0.0
 11
1029.1877815060691
 21
-365.23408159877278
 31
0.0
  0
LINE
  5
EADC
  8
01
 10
979.18778150606965
 20
-373.23408159877278
 30
0.0
 11
1029.1877815060691
 21
-373.23408159877278
 31
0.0
  0
LINE
  5
EADF
  8
01
 10
992.68778150606965
 20
-364.23408159877238
 30
0.0
 11
1015.68778150607
 21
-364.23408159877329
 31
0.0
  0
LINE
  5
EAE0
  8
01
 10
1019.187781506071
 20
-334.23408159877238
 30
0.0
 11
1117.6877815060709
 21
-334.23408159877238
 31
0.0
  0
ARC
  5
EAE1
  8
01
 10
1117.6877815060709
 20
-332.73408159877238
 30
0.0
 40
1.5
 50
270.0
 51
0.0
  0
LINE
  5
EAE2
  8
01
 10
1119.1877815060709
 20
-312.73408159877238
 30
0.0
 11
1119.1877815060709
 21
-332.73408159877238
 31
0.0
  0
LINE
  5
EAE3
  8
01
 10
994.18778150606965
 20
-311.23408159877238
 30
0.0
 11
1117.6877815060709
 21
-311.23408159877238
 31
0.0
  0
ARC
  5
EAE4
  8
01
 10
1117.6877815060709
 20
-312.73408159877238
 30
0.0
 40
1.5
 50
0.0
 51
90.000000000000028
  0
ARC
  5
EAE5
  8
01
 10
994.18778150606965
 20
-312.73408159877238
 30
0.0
 40
1.5
 50
90.000000000000028
 51
180.0
  0
LINE
  5
EAE6
  8
01
 10
992.68778150606965
 20
-312.73408159877238
 30
0.0
 11
992.68778150606965
 21
-364.23408159877238
 31
0.0
  0
ARC
  5
EAE7
  8
01
 10
1019.187781506071
 20
-337.73408159877238
 30
0.0
 40
3.5
 50
90.000000000000028
 51
180.0
  0
LINE
  5
EAE8
  8
01
 10
1015.687781506071
 20
-337.73408159877238
 30
0.0
 11
1015.68778150607
 21
-364.23408159877329
 31
0.0
  0
ARC
  5
EB25
  8
01
 10
664.18767316632409
 20
-663.23408159774408
 30
0.0
 40
25.0
 50
187.96705650669571
 51
151.31459798588671
  0
LINE
  5
EB29
  8
01
 10
814.18766916632467
 20
-638.23408159774431
 30
0.0
 11
814.18766916632455
 21
-688.23408159774419
 31
0.0
  0
LINE
  5
EB2A
  8
01
 10
805.68766916632444
 20
-687.73408159774419
 30
0.0
 11
805.68766916632478
 21
-638.73408159774419
 31
0.0
  0
LINE
  5
EB2B
  8
01
 10
814.18766916632455
 20
-688.23408159774419
 30
0.0
 11
806.18766916632455
 21
-688.23408159774419
 31
0.0
  0
LINE
  5
EB2D
  8
01
 10
814.18766916632467
 20
-638.23408159774431
 30
0.0
 11
806.18766916632467
 21
-638.23408159774431
 31
0.0
  0
POINT
  5
EB33
  8
01
 10
805.18766916632467
 20
-663.23408159774419
 30
0.0
  0
POINT
  5
EB34
  8
01
 10
805.18766916632467
 20
-663.23408159774419
 30
0.0
  0
POINT
  5
EB35
  8
01
 10
805.18766916632467
 20
-663.23408159774419
 30
0.0
  0
LINE
  5
EB36
  8
01
 10
805.18766916632285
 20
-675.23408159773601
 30
0.0
 11
805.18766916632285
 21
-651.23408159774419
 31
0.0
  0
LINE
  5
EB37
  8
01
 10
753.70081658558854
 20
-651.23408159774499
 30
0.0
 11
805.18766916632285
 21
-651.23408159774419
 31
0.0
  0
ARC
  5
EB38
  8
01
 10
805.18766916631921
 20
-558.60706132650034
 30
0.0
 40
116.6270202712432
 50
246.75713045417089
 51
270.0
  0
ARC
  5
EB39
  8
01
 10
649.34505864358744
 20
-669.26867098744594
 30
0.0
 40
3.5000000000009091
 50
0.0
 51
89.999999999999986
  0
LINE
  5
EB3A
  8
01
 10
675.67446863165333
 20
-652.74717140099165
 30
0.0
 11
675.49120440804927
 21
-673.74717140099165
 31
0.0
  0
ARC
  5
EB3B
  8
01
 10
649.35348365434845
 20
-670.19917412658276
 30
0.0
 40
3.5000000000009091
 50
1.4063395448120399
 51
89.999999999999986
  0
LINE
  5
EB3C
  8
01
 10
652.85242938554347
 20
-670.11327435849671
 30
0.0
 11
652.88414192459913
 21
-673.74717140099165
 31
0.0
  0
ARC
  5
EB3D
  8
01
 10
673.99126152345343
 20
-673.73408159774306
 30
0.0
 40
1.5
 50
270.0
 51
359.49999999998238
  0
ARC
  5
EB3E
  8
01
 10
654.38408480919861
 20
-673.73408159774226
 30
0.0
 40
1.5
 50
180.5000000000696
 51
269.99999999989581
  0
LINE
  5
EB3F
  8
01
 10
652.84505864358835
 20
-669.26867098716593
 30
0.0
 11
652.85242938554802
 21
-670.11327435865485
 31
0.0
  0
LINE
  5
EB40
  8
01
 10
654.38408480919577
 20
-675.23408159774397
 30
0.0
 11
673.99126152345252
 21
-675.23408159774397
 31
0.0
  0
LINE
  5
EB41
  8
01
 10
550.6876731663242
 20
-666.69917412658094
 30
0.0
 11
649.35348365434845
 21
-666.69917412658106
 31
0.0
  0
LINE
  5
EB42
  8
01
 10
674.17452574705749
 20
-651.23408159774408
 30
0.0
 11
550.6876731663242
 21
-651.23408159774385
 31
0.0
  0
ARC
  5
EB43
  8
01
 10
674.17452574705749
 20
-652.73408159774397
 30
0.0
 40
1.5
 50
359.49999999998238
 51
89.999999999999986
  0
ARC
  5
EB44
  8
01
 10
753.70081658558854
 20
-652.7340815977451
 30
0.0
 40
1.5
 50
89.999999999999986
 51
180.50000000001751
  0
LINE
  5
EB45
  8
01
 10
752.20087370099179
 20
-652.74717140099256
 30
0.0
 11
752.22257663748564
 21
-655.23408159774499
 31
0.0
  0
ARC
  5
EB46
  8
01
 10
763.68766916632273
 20
-655.23408159774419
 30
0.0
 40
11.465092528836969
 50
179.9999999997915
 51
246.75713045417089
  0
ARC
  5
EB47
  8
01
 10
550.68767316632329
 20
-665.19917412658185
 30
0.0
 40
1.5
 50
180.0
 51
270.00000000005213
  0
LINE
  5
EB48
  8
01
 10
549.1876731663242
 20
-652.73408159774385
 30
0.0
 11
549.1876731663242
 21
-665.19917412658094
 31
0.0
  0
ARC
  5
EB49
  8
01
 10
550.6876731663242
 20
-652.73408159774385
 30
0.0
 40
1.5
 50
89.999999999999986
 51
180.0
  0
ARC
  5
F0FA
  8
01
 10
979.68778150606977
 20
-365.23408159877289
 30
0.0
 40
0.5
 50
90.0
 51
180.0
  0
ARC
  5
F0FB
  8
01
 10
979.68778150606977
 20
-421.2340815987726
 30
0.0
 40
0.5
 50
180.0
 51
270.0
  0
ARC
  5
F0FC
  8
01
 10
1028.68778150607
 20
-421.23408159877272
 30
0.0
 40
0.5
 50
270.0
 51
0.0
  0
ARC
  5
F0FD
  8
01
 10
1028.68778150607
 20
-365.23408159877278
 30
0.0
 40
0.5
 50
0.0
 51
90.000000000000071
  0
ARC
  5
F0FE
  8
01
 10
862.18766916632455
 20
-687.73408159774419
 30
0.0
 40
0.5
 50
270.0
 51
0.0
  0
ARC
  5
F0FF
  8
01
 10
862.18766916632455
 20
-638.73408159774419
 30
0.0
 40
0.5
 50
0.0
 51
90.0
  0
ARC
  5
F100
  8
01
 10
806.18766916632467
 20
-638.73408159774419
 30
0.0
 40
0.5
 50
90.0
 51
179.9999999999998
  0
ARC
  5
F101
  8
01
 10
806.18766916632455
 20
-687.73408159774419
 30
0.0
 40
0.5
 50
179.99999999999969
 51
270.0
  0
LINE
  5
F242
  8
01
 10
646.18768516632463
 20
-604.73408159774419
 30
0.0
 11
646.18768516632463
 21
-645.88479247371515
 31
0.0
  0
LINE
  5
F244
  8
01
 10
1022.187665166325
 20
-604.73408159774419
 30
0.0
 11
1022.187665166325
 21
-645.88480492373969
 31
0.0
  0
LINE
  5
F245
  8
01
  6
BYBLOCK
 10
1001.187665166325
 20
-604.73408159774419
 30
0.0
 11
1007.187665166325
 21
-604.73408159774419
 31
0.0
  0
LINE
  5
F246
  8
01
  6
BYBLOCK
 10
1014.187665166325
 20
-604.73408159774419
 30
0.0
 11
1022.187665166325
 21
-604.73408159774419
 31
0.0
  0
LINE
  5
F247
  8
01
  6
BYBLOCK
 10
1001.187665166325
 20
-605.7340815977434
 30
0.0
 11
1001.187665166325
 21
-604.73408159774419
 31
0.0
  0
LINE
  5
F248
  8
01
  6
BYBLOCK
 10
1007.187665166325
 20
-605.73408159774419
 30
0.0
 11
1007.187665166325
 21
-604.73408159774419
 31
0.0
  0
ARC
  5
F249
  8
01
  6
BYBLOCK
 10
997.68766516632479
 20
-605.73408159774419
 30
0.0
 40
3.5
 50
179.99999999998701
 51
0.0000000000130276
  0
ARC
  5
F24A
  8
01
  6
BYBLOCK
 10
1010.687665166325
 20
-605.73408159774419
 30
0.0
 40
3.5
 50
180.0
 51
0.0
  0
CIRCLE
  5
F24B
  8
01
  6
BYBLOCK
 10
1004.187665166036
 20
-613.23408159803284
 30
0.0
 40
6.0
  0
LINE
  5
F24C
  8
01
  6
BYBLOCK
 10
994.18766516632479
 20
-604.73408159774419
 30
0.0
 11
956.18766516632513
 21
-604.73408159774419
 31
0.0
  0
LINE
  5
F24D
  8
01
  6
BYBLOCK
 10
994.18766516632456
 20
-605.7340815977434
 30
0.0
 11
994.18766516632479
 21
-604.73408159774419
 31
0.0
  0
LINE
  5
F24E
  8
01
  6
BYBLOCK
 10
1014.187665166325
 20
-605.73408159774419
 30
0.0
 11
1014.187665166325
 21
-604.73408159774419
 31
0.0
  0
LINE
  5
F24F
  8
01
  6
BYBLOCK
 10
1004.187665166036
 20
-616.78408150471444
 30
0.0
 11
1007.737665072718
 21
-613.23408159803284
 31
0.0
  0
LINE
  5
F250
  8
01
  6
BYBLOCK
 10
1007.737665072718
 20
-613.23408159803284
 30
0.0
 11
1004.187665166036
 21
-609.68408169135137
 31
0.0
  0
LINE
  5
F251
  8
01
  6
BYBLOCK
 10
1000.637665259354
 20
-613.23408159803284
 30
0.0
 11
1004.187665166036
 21
-616.78408150471444
 31
0.0
  0
LINE
  5
F252
  8
01
  6
BYBLOCK
 10
1004.187665166036
 20
-609.68408169135137
 30
0.0
 11
1000.637665259354
 21
-613.23408159803284
 31
0.0
  0
LINE
  5
F253
  8
01
  6
BYBLOCK
 10
667.18767316632443
 20
-604.73408159774419
 30
0.0
 11
661.1876731663242
 21
-604.73408159774419
 31
0.0
  0
LINE
  5
F254
  8
01
  6
BYBLOCK
 10
654.1876731663242
 20
-604.73408159774419
 30
0.0
 11
646.18768516632463
 21
-604.73408159774419
 31
0.0
  0
LINE
  5
F255
  8
01
  6
BYBLOCK
 10
667.1876731663242
 20
-605.7340815977434
 30
0.0
 11
667.18767316632443
 21
-604.73408159774419
 31
0.0
  0
LINE
  5
F256
  8
01
  6
BYBLOCK
 10
661.1876731663242
 20
-605.73408159774419
 30
0.0
 11
661.1876731663242
 21
-604.73408159774419
 31
0.0
  0
ARC
  5
F257
  8
01
  6
BYBLOCK
 10
670.68767316632443
 20
-605.73408159774419
 30
0.0
 40
3.5
 50
179.99999999998701
 51
0.0000000000130276
  0
ARC
  5
F258
  8
01
  6
BYBLOCK
 10
657.6876731663242
 20
-605.73408159774419
 30
0.0
 40
3.5
 50
180.0
 51
0.0
  0
CIRCLE
  5
F259
  8
01
  6
BYBLOCK
 10
664.18767316661297
 20
-613.23408159803284
 30
0.0
 40
6.0
  0
LINE
  5
F25A
  8
01
  6
BYBLOCK
 10
674.18767316632443
 20
-604.73408159774419
 30
0.0
 11
712.1876731663242
 21
-604.73408159774419
 31
0.0
  0
LINE
  5
F25B
  8
01
  6
BYBLOCK
 10
674.18767316632454
 20
-605.7340815977434
 30
0.0
 11
674.18767316632443
 21
-604.73408159774419
 31
0.0
  0
LINE
  5
F25C
  8
01
  6
BYBLOCK
 10
654.1876731663242
 20
-605.73408159774419
 30
0.0
 11
654.1876731663242
 21
-604.73408159774419
 31
0.0
  0
LINE
  5
F25D
  8
01
  6
BYBLOCK
 10
664.18767316661297
 20
-616.78408150471444
 30
0.0
 11
660.63767325993149
 21
-613.23408159803284
 31
0.0
  0
LINE
  5
F25E
  8
01
  6
BYBLOCK
 10
660.63767325993149
 20
-613.23408159803284
 30
0.0
 11
664.18767316661297
 21
-609.68408169135137
 31
0.0
  0
LINE
  5
F25F
  8
01
  6
BYBLOCK
 10
667.73767307329456
 20
-613.23408159803284
 30
0.0
 11
664.18767316661297
 21
-616.78408150471444
 31
0.0
  0
LINE
  5
F260
  8
01
  6
BYBLOCK
 10
664.18767316661297
 20
-609.68408169135137
 30
0.0
 11
667.73767307329456
 21
-613.23408159803284
 31
0.0
  0
LINE
  5
F261
  8
01
  6
BYBLOCK
 10
1010.188549348096
 20
-382.98408159877272
 30
0.0
 11
998.18854934809622
 21
-382.98408159877272
 31
0.0
  0
LINE
  5
F262
  8
01
  6
BYBLOCK
 10
998.18854934809622
 20
-403.48408159877272
 30
0.0
 11
1010.188549348096
 21
-403.48408159877272
 31
0.0
  0
LINE
  5
F263
  8
01
  6
BYBLOCK
 10
998.18854934809622
 20
-403.48408159877272
 30
0.0
 11
998.18854934809622
 21
-402.73408159877249
 31
0.0
  0
LINE
  5
F264
  8
01
  6
BYBLOCK
 10
998.18854934809622
 20
-383.73408159877272
 30
0.0
 11
998.18854934809622
 21
-382.98408159877272
 31
0.0
  0
LINE
  5
F265
  8
01
  6
BYBLOCK
 10
1010.188549348096
 20
-403.48408159877272
 30
0.0
 11
1010.188549348096
 21
-402.73408159877249
 31
0.0
  0
LINE
  5
F266
  8
01
  6
BYBLOCK
 10
1010.188549348096
 20
-383.73408159877272
 30
0.0
 11
1010.188549348096
 21
-382.98408159877272
 31
0.0
  0
LINE
  5
F268
  8
01
 10
1015.4995534335779
 20
-613.23408159803284
 30
0.0
 11
992.87577689849468
 21
-613.23408159803284
 31
0.0
  0
LINE
  5
F269
  8
01
 10
1004.187665166036
 20
-601.92219333049115
 30
0.0
 11
1004.187665166036
 21
-624.54596986557465
 31
0.0
  0
LINE
  5
F3AF
  8
01
 10
1010.188549348096
 20
-382.98408159877272
 30
0.0
 11
1045.3489401080981
 21
-382.98408159877272
 31
0.0
  0
LINE
  5
F3B0
  8
01
 10
1010.188549348096
 20
-403.48408159877272
 30
0.0
 11
1045.3489401080981
 21
-403.48408159877272
 31
0.0
  0
LINE
  5
F3B1
  8
01
 10
1044.0489401080979
 20
-385.58408159877268
 30
0.0
 11
1044.0489401080979
 21
-400.8840815987727
 31
0.0
  0
TEXT
  5
F3B5
  8
01
 10
914.58415959267495
 20
-443.6507482654394
 30
0.0
 40
4.5499999999999989
  1
材質：亜鉛ダイキャスト
  0
TEXT
  5
F3B6
  8
01
 10
925.50415959267502
 20
-451.23408159877272
 30
0.0
 40
4.5499999999999989
  1
仕上げ：各種メッキ
  0
SOLID
  5
F3B7
  8
01
 10
1001.610520805609
 20
-432.38806973868282
 30
0.0
 11
1003.928266406386
 21
-431.13274782464748
 31
0.0
 12
1002.142935783176
 22
-433.0719157760139
 32
0.0
 13
1002.142935783176
 23
-433.0719157760139
 33
0.0
1001
ACAD
1000
DSTYLE
1002
{
1070
    40
1040
1.3
1002
}
  0
LINE
  5
F3B9
  8
01
 10
1022.187665166325
 20
-604.73408159774419
 30
0.0
 11
1050.4876651663251
 21
-604.73408159774419
 31
0.0
  0
LINE
  5
F3BA
  8
01
 10
1022.187665166325
 20
-679.23408159774397
 30
0.0
 11
1050.4876651663251
 21
-679.23408159774397
 31
0.0
  0
LINE
  5
F3BB
  8
01
 10
1049.1876651663249
 20
-607.33408159774422
 30
0.0
 11
1049.1876651663249
 21
-676.63408159774394
 31
0.0
  0
LINE
  5
F3BF
  8
01
 10
1117.6876651663249
 20
-651.23408159774419
 30
0.0
 11
1135.4876651663269
 21
-651.23408159774419
 31
0.0
  0
LINE
  5
F3C0
  8
01
 10
1117.687665166324
 20
-666.69917412658197
 30
0.0
 11
1135.4876651663269
 21
-666.69917412658197
 31
0.0
  0
LINE
  5
F3C1
  8
01
 10
1134.187665166327
 20
-653.8340815977441
 30
0.0
 11
1134.187665166327
 21
-664.09917412658206
 31
0.0
  0
LINE
  5
F3C5
  8
01
 10
1106.942929503417
 20
-413.23408159877272
 30
0.0
 11
1145.4877815060711
 21
-413.23408159877272
 31
0.0
  0
LINE
  5
F3C6
  8
01
 10
1117.6877815060709
 20
-475.234081598773
 30
0.0
 11
1145.4877815060711
 21
-475.234081598773
 31
0.0
  0
LINE
  5
F3C7
  8
01
 10
1144.1877815060709
 20
-415.83408159877268
 30
0.0
 11
1144.1877815060709
 21
-472.63408159877309
 31
0.0
  0
LINE
  5
F3CB
  8
01
 10
1106.942929503417
 20
-413.23408159877272
 30
0.0
 11
1135.4877815060711
 21
-413.23408159877272
 31
0.0
  0
LINE
  5
F3CC
  8
01
 10
1117.6877815060709
 20
-452.23408159877312
 30
0.0
 11
1135.4877815060711
 21
-452.23408159877312
 31
0.0
  0
LINE
  5
F3CD
  8
01
 10
1134.1877815060709
 20
-415.83408159877268
 30
0.0
 11
1134.1877815060709
 21
-449.63408159877298
 31
0.0
  0
LINE
  5
F3D1
  8
01
 10
992.68778150606965
 20
-473.73408159877312
 30
0.0
 11
992.68778150606965
 21
-501.53408159877313
 31
0.0
  0
LINE
  5
F3D2
  8
01
 10
1119.1877815060709
 20
-473.73408159877312
 30
0.0
 11
1119.1877815060709
 21
-501.53408159877313
 31
0.0
  0
LINE
  5
F3D3
  8
01
 10
995.28778150606979
 20
-500.234081598773
 30
0.0
 11
1116.5877815060719
 21
-500.234081598773
 31
0.0
  0
LINE
  5
F3D7
  8
01
 10
1004.18778150607
 20
-443.23408159877272
 30
0.0
 11
1004.18778150607
 21
-491.53408159877313
 31
0.0
  0
LINE
  5
F3D8
  8
01
 10
1119.1877815060709
 20
-473.73408159877312
 30
0.0
 11
1119.1877815060709
 21
-491.53408159877313
 31
0.0
  0
LINE
  5
F3D9
  8
01
 10
1006.787781506069
 20
-490.234081598773
 30
0.0
 11
1116.5877815060719
 21
-490.234081598773
 31
0.0
  0
LINE
  5
F3DD
  8
01
 10
1004.187665166325
 20
-638.23408159774419
 30
0.0
 11
967.88766516632495
 21
-638.23408159774419
 31
0.0
  0
LINE
  5
F3DE
  8
01
 10
1004.187665166325
 20
-688.23408159774328
 30
0.0
 11
967.88766516632495
 21
-688.23408159774328
 31
0.0
  0
LINE
  5
F3DF
  8
01
 10
969.18766516632502
 20
-640.8340815977441
 30
0.0
 11
969.18766516632502
 21
-685.63408159774315
 31
0.0
  0
CIRCLE
  5
F3E3
  8
01
 10
868.68766916632455
 20
-663.23408159774419
 30
0.0
 40
3.0
  0
LINE
  5
F3E4
  8
01
 10
800.98670727200124
 20
-662.48408159774408
 30
0.0
 11
799.68766916632455
 21
-661.73408159774419
 31
0.0
  0
LINE
  5
F3E5
  8
01
 10
799.68766916632455
 20
-661.73408159774419
 30
0.0
 11
798.38863106064787
 21
-662.48408159774408
 31
0.0
  0
LINE
  5
F3E6
  8
01
 10
798.38863106064787
 20
-662.48408159774408
 30
0.0
 11
798.38863106064787
 21
-663.98408159774419
 31
0.0
  0
LINE
  5
F3E7
  8
01
 10
798.38863106064787
 20
-663.98408159774419
 30
0.0
 11
799.68766916632455
 21
-664.73408159774408
 31
0.0
  0
LINE
  5
F3E8
  8
01
 10
799.68766916632455
 20
-664.73408159774408
 30
0.0
 11
800.98670727200124
 21
-663.98408159774419
 31
0.0
  0
LINE
  5
F3E9
  8
01
 10
800.98670727200124
 20
-663.98408159774419
 30
0.0
 11
800.98670727200124
 21
-662.48408159774408
 31
0.0
  0
CIRCLE
  5
F3EA
  8
01
 10
799.68766916632455
 20
-663.23408159774419
 30
0.0
 40
3.0
  0
LINE
  5
F3EB
  8
01
 10
953.18766516632502
 20
-577.23408159774397
 30
0.0
 11
953.18766516632502
 21
-555.93408159774413
 31
0.0
  0
LINE
  5
F3EC
  8
01
 10
1004.187665166325
 20
-633.23408159774419
 30
0.0
 11
1004.187665166325
 21
-555.93408159774413
 31
0.0
  0
LINE
  5
F3ED
  8
01
 10
955.78766516632493
 20
-557.23408159774397
 30
0.0
 11
1001.587665166325
 21
-557.23408159774397
 31
0.0
  0
LINE
  5
F3F1
  8
01
 10
1022.187665166325
 20
-605.23408159774408
 30
0.0
 11
1022.187665166325
 21
-545.93408159774413
 31
0.0
  0
LINE
  5
F3F2
  8
01
 10
953.18766516632502
 20
-577.23408159774397
 30
0.0
 11
953.18766516632502
 21
-545.93408159774413
 31
0.0
  0
LINE
  5
F3F3
  8
01
 10
1019.587665166325
 20
-547.23408159774408
 30
0.0
 11
955.78766516632493
 21
-547.23408159774408
 31
0.0
  0
LINE
  5
F3F7
  8
01
 10
942.18766516632502
 20
-635.23408229587494
 30
0.0
 11
942.18766516632502
 21
-555.93408159774413
 31
0.0
  0
LINE
  5
F3F8
  8
01
 10
953.18766516632502
 20
-577.23408159774397
 30
0.0
 11
953.18766516632502
 21
-555.93408159774413
 31
0.0
  0
LINE
  5
F3F9
  8
01
 10
944.78766516632504
 20
-557.23408159774397
 30
0.0
 11
950.587665166325
 21
-557.23408159774397
 31
0.0
  0
LINE
  5
F3FD
  8
01
 10
821.68766916632444
 20
-583.23408159774397
 30
0.0
 11
821.68766916632444
 21
-555.93408159774413
 31
0.0
  0
LINE
  5
F3FE
  8
01
 10
846.68766916632444
 20
-583.23408159774397
 30
0.0
 11
846.68766916632444
 21
-555.93408159774413
 31
0.0
  0
LINE
  5
F3FF
  8
01
 10
824.28766916632458
 20
-557.23408159774397
 30
0.0
 11
844.08766916632453
 21
-557.23408159774397
 31
0.0
  0
LINE
  5
F403
  8
01
 10
840.68766916632455
 20
-577.23408159774397
 30
0.0
 11
895.48766916632439
 21
-577.23408159774397
 31
0.0
  0
LINE
  5
F404
  8
01
 10
840.68766916632455
 20
-707.23408159774397
 30
0.0
 11
895.48766916632439
 21
-707.23408159774397
 31
0.0
  0
LINE
  5
F405
  8
01
 10
894.18766916632455
 20
-579.83408159774399
 30
0.0
 11
894.18766916632455
 21
-704.63408159774394
 31
0.0
  0
LINE
  5
F409
  8
01
 10
840.68766916632455
 20
-585.23408159774408
 30
0.0
 11
879.99126020288111
 21
-585.23408159774408
 31
0.0
  0
LINE
  5
F40A
  8
01
 10
840.68766916632455
 20
-699.23408159774397
 30
0.0
 11
879.99126020288111
 21
-699.23408159774397
 31
0.0
  0
LINE
  5
F40B
  8
01
 10
878.69126020288127
 20
-587.83408159774399
 30
0.0
 11
878.69126020288127
 21
-696.63408159774394
 31
0.0
  0
TEXT
  5
F40F
  8
01
 10
877.78126020288153
 20
-631.35369425076237
 30
0.0
 40
4.5499999999999989
  1
114
 50
90.0
  0
LINE
  5
F410
  8
01
  6
BYBLOCK
 10
879.3879280968813
 20
-696.63408159774394
 30
0.0
 11
878.69126020288127
 21
-699.23408159774397
 31
0.0
  0
LINE
  5
F411
  8
01
  6
BYBLOCK
 10
878.69126020288127
 20
-699.23408159774397
 30
0.0
 11
877.99459230888124
 21
-696.63408159774394
 31
0.0
  0
LINE
  5
F412
  8
01
  6
BYBLOCK
 10
878.69126020288127
 20
-699.23408159774397
 30
0.0
 11
878.69126020288127
 21
-696.63408159774394
 31
0.0
  0
LINE
  5
F413
  8
01
  6
BYBLOCK
 10
877.99459230888124
 20
-587.83408159774399
 30
0.0
 11
878.69126020288127
 21
-585.23408159774408
 31
0.0
  0
LINE
  5
F414
  8
01
  6
BYBLOCK
 10
878.69126020288127
 20
-585.23408159774408
 30
0.0
 11
879.3879280968813
 21
-587.83408159774399
 31
0.0
  0
LINE
  5
F415
  8
01
  6
BYBLOCK
 10
878.69126020288127
 20
-585.23408159774408
 30
0.0
 11
878.69126020288127
 21
-587.83408159774399
 31
0.0
  0
TEXT
  5
F416
  8
01
 10
893.27766916632481
 20
-631.24536091742914
 30
0.0
 40
4.5499999999999989
  1
130
 50
90.0
  0
LINE
  5
F417
  8
01
  6
BYBLOCK
 10
894.88433706032447
 20
-704.63408159774394
 30
0.0
 11
894.18766916632455
 21
-707.23408159774397
 31
0.0
  0
LINE
  5
F418
  8
01
  6
BYBLOCK
 10
894.18766916632455
 20
-707.23408159774397
 30
0.0
 11
893.49100127232452
 21
-704.63408159774394
 31
0.0
  0
LINE
  5
F419
  8
01
  6
BYBLOCK
 10
894.18766916632455
 20
-707.23408159774397
 30
0.0
 11
894.18766916632455
 21
-704.63408159774394
 31
0.0
  0
LINE
  5
F41A
  8
01
  6
BYBLOCK
 10
893.49100127232452
 20
-579.83408159774399
 30
0.0
 11
894.18766916632455
 21
-577.23408159774397
 31
0.0
  0
LINE
  5
F41B
  8
01
  6
BYBLOCK
 10
894.18766916632455
 20
-577.23408159774397
 30
0.0
 11
894.88433706032447
 21
-579.83408159774399
 31
0.0
  0
LINE
  5
F41C
  8
01
  6
BYBLOCK
 10
894.18766916632455
 20
-577.23408159774397
 30
0.0
 11
894.18766916632455
 21
-579.83408159774399
 31
0.0
  0
TEXT
  5
F41D
  8
01
 10
829.8543358329913
 20
-556.32408159774411
 30
0.0
 40
4.5499999999999989
  1
25
  0
LINE
  5
F41E
  8
01
  6
BYBLOCK
 10
844.08766916632453
 20
-556.53741370374405
 30
0.0
 11
846.68766916632444
 21
-557.23408159774397
 31
0.0
  0
LINE
  5
F41F
  8
01
  6
BYBLOCK
 10
846.68766916632444
 20
-557.23408159774397
 30
0.0
 11
844.08766916632453
 21
-557.93074949174411
 31
0.0
  0
LINE
  5
F420
  8
01
  6
BYBLOCK
 10
846.68766916632444
 20
-557.23408159774397
 30
0.0
 11
844.08766916632453
 21
-557.23408159774397
 31
0.0
  0
LINE
  5
F421
  8
01
  6
BYBLOCK
 10
824.28766916632458
 20
-557.93074949174411
 30
0.0
 11
821.68766916632444
 21
-557.23408159774397
 31
0.0
  0
LINE
  5
F422
  8
01
  6
BYBLOCK
 10
821.68766916632444
 20
-557.23408159774397
 30
0.0
 11
824.28766916632458
 21
-556.53741370374405
 31
0.0
  0
LINE
  5
F423
  8
01
  6
BYBLOCK
 10
821.68766916632444
 20
-557.23408159774397
 30
0.0
 11
824.28766916632458
 21
-557.23408159774397
 31
0.0
  0
TEXT
  5
F424
  8
01
 10
943.67933183299158
 20
-556.32408159774411
 30
0.0
 40
4.5499999999999989
  1
11
  0
LINE
  5
F425
  8
01
  6
BYBLOCK
 10
950.587665166325
 20
-556.53741370374405
 30
0.0
 11
953.18766516632502
 21
-557.23408159774397
 31
0.0
  0
LINE
  5
F426
  8
01
  6
BYBLOCK
 10
953.18766516632502
 20
-557.23408159774397
 30
0.0
 11
950.587665166325
 21
-557.93074949174411
 31
0.0
  0
LINE
  5
F427
  8
01
  6
BYBLOCK
 10
953.18766516632502
 20
-557.23408159774397
 30
0.0
 11
950.587665166325
 21
-557.23408159774397
 31
0.0
  0
LINE
  5
F428
  8
01
  6
BYBLOCK
 10
944.78766516632504
 20
-557.93074949174411
 30
0.0
 11
942.18766516632502
 21
-557.23408159774397
 31
0.0
  0
LINE
  5
F429
  8
01
  6
BYBLOCK
 10
942.18766516632502
 20
-557.23408159774397
 30
0.0
 11
944.78766516632504
 21
-556.53741370374405
 31
0.0
  0
LINE
  5
F42A
  8
01
  6
BYBLOCK
 10
942.18766516632502
 20
-557.23408159774397
 30
0.0
 11
944.78766516632504
 21
-557.23408159774397
 31
0.0
  0
TEXT
  5
F42B
  8
01
 10
983.35433183299153
 20
-546.32408159774411
 30
0.0
 40
4.5499999999999989
  1
69
  0
LINE
  5
F42C
  8
01
  6
BYBLOCK
 10
955.78766516632493
 20
-547.93074949174411
 30
0.0
 11
953.18766516632502
 21
-547.23408159774408
 31
0.0
  0
LINE
  5
F42D
  8
01
  6
BYBLOCK
 10
953.18766516632502
 20
-547.23408159774408
 30
0.0
 11
955.78766516632493
 21
-546.53741370374405
 31
0.0
  0
LINE
  5
F42E
  8
01
  6
BYBLOCK
 10
953.18766516632502
 20
-547.23408159774408
 30
0.0
 11
955.78766516632493
 21
-547.23408159774408
 31
0.0
  0
LINE
  5
F42F
  8
01
  6
BYBLOCK
 10
1019.587665166325
 20
-546.53741370374405
 30
0.0
 11
1022.187665166325
 21
-547.23408159774408
 31
0.0
  0
LINE
  5
F430
  8
01
  6
BYBLOCK
 10
1022.187665166325
 20
-547.23408159774408
 30
0.0
 11
1019.587665166325
 21
-547.93074949174411
 31
0.0
  0
LINE
  5
F431
  8
01
  6
BYBLOCK
 10
1022.187665166325
 20
-547.23408159774408
 30
0.0
 11
1019.587665166325
 21
-547.23408159774408
 31
0.0
  0
TEXT
  5
F432
  8
01
 10
975.00433183299185
 20
-556.32408159774411
 30
0.0
 40
4.5499999999999989
  1
51
  0
LINE
  5
F433
  8
01
  6
BYBLOCK
 10
1001.587665166325
 20
-556.53741370374405
 30
0.0
 11
1004.187665166325
 21
-557.23408159774397
 31
0.0
  0
LINE
  5
F434
  8
01
  6
BYBLOCK
 10
1004.187665166325
 20
-557.23408159774397
 30
0.0
 11
1001.587665166325
 21
-557.93074949174411
 31
0.0
  0
LINE
  5
F435
  8
01
  6
BYBLOCK
 10
1004.187665166325
 20
-557.23408159774397
 30
0.0
 11
1001.587665166325
 21
-557.23408159774397
 31
0.0
  0
LINE
  5
F436
  8
01
  6
BYBLOCK
 10
955.78766516632493
 20
-557.93074949174411
 30
0.0
 11
953.18766516632502
 21
-557.23408159774397
 31
0.0
  0
LINE
  5
F437
  8
01
  6
BYBLOCK
 10
953.18766516632502
 20
-557.23408159774397
 30
0.0
 11
955.78766516632493
 21
-556.53741370374405
 31
0.0
  0
LINE
  5
F438
  8
01
  6
BYBLOCK
 10
953.18766516632502
 20
-557.23408159774397
 30
0.0
 11
955.78766516632493
 21
-557.23408159774397
 31
0.0
  0
TEXT
  5
F439
  8
01
 10
968.27766516632505
 20
-671.76716089323213
 30
0.0
 40
4.5499999999999989
  1
\U+03C650
 50
90.0
  0
LINE
  5
F43A
  8
01
  6
BYBLOCK
 10
969.88433306032505
 20
-685.63408159774315
 30
0.0
 11
969.18766516632502
 21
-688.23408159774328
 31
0.0
  0
LINE
  5
F43B
  8
01
  6
BYBLOCK
 10
969.18766516632502
 20
-688.23408159774328
 30
0.0
 11
968.49099727232499
 21
-685.63408159774315
 31
0.0
  0
LINE
  5
F43C
  8
01
  6
BYBLOCK
 10
969.18766516632502
 20
-688.23408159774328
 30
0.0
 11
969.18766516632502
 21
-685.63408159774315
 31
0.0
  0
LINE
  5
F43D
  8
01
  6
BYBLOCK
 10
968.49099727232499
 20
-640.8340815977441
 30
0.0
 11
969.18766516632502
 21
-638.23408159774419
 31
0.0
  0
LINE
  5
F43E
  8
01
  6
BYBLOCK
 10
969.18766516632502
 20
-638.23408159774419
 30
0.0
 11
969.88433306032505
 21
-640.8340815977441
 31
0.0
  0
LINE
  5
F43F
  8
01
  6
BYBLOCK
 10
969.18766516632502
 20
-638.23408159774419
 30
0.0
 11
969.18766516632502
 21
-640.8340815977441
 31
0.0
  0
TEXT
  5
F440
  8
01
 10
1054.86278150607
 20
-489.32408159877309
 30
0.0
 40
4.5499999999999989
  1
115
  0
LINE
  5
F441
  8
01
  6
BYBLOCK
 10
1116.5877815060719
 20
-489.53741370477297
 30
0.0
 11
1119.1877815060709
 21
-490.234081598773
 31
0.0
  0
LINE
  5
F442
  8
01
  6
BYBLOCK
 10
1119.1877815060709
 20
-490.234081598773
 30
0.0
 11
1116.5877815060719
 21
-490.93074949277292
 31
0.0
  0
LINE
  5
F443
  8
01
  6
BYBLOCK
 10
1119.1877815060709
 20
-490.234081598773
 30
0.0
 11
1116.5877815060719
 21
-490.234081598773
 31
0.0
  0
LINE
  5
F444
  8
01
  6
BYBLOCK
 10
1006.787781506069
 20
-490.93074949277292
 30
0.0
 11
1004.18778150607
 21
-490.234081598773
 31
0.0
  0
LINE
  5
F445
  8
01
  6
BYBLOCK
 10
1004.18778150607
 20
-490.234081598773
 30
0.0
 11
1006.787781506069
 21
-489.53741370477297
 31
0.0
  0
LINE
  5
F446
  8
01
  6
BYBLOCK
 10
1004.18778150607
 20
-490.234081598773
 30
0.0
 11
1006.787781506069
 21
-490.234081598773
 31
0.0
  0
TEXT
  5
F447
  8
01
 10
1045.8627815060711
 20
-499.32408159877309
 30
0.0
 40
4.5499999999999989
  1
126.5
  0
LINE
  5
F448
  8
01
  6
BYBLOCK
 10
1116.5877815060719
 20
-499.53741370477309
 30
0.0
 11
1119.1877815060709
 21
-500.234081598773
 31
0.0
  0
LINE
  5
F449
  8
01
  6
BYBLOCK
 10
1119.1877815060709
 20
-500.234081598773
 30
0.0
 11
1116.5877815060719
 21
-500.93074949277309
 31
0.0
  0
LINE
  5
F44A
  8
01
  6
BYBLOCK
 10
1119.1877815060709
 20
-500.234081598773
 30
0.0
 11
1116.5877815060719
 21
-500.234081598773
 31
0.0
  0
LINE
  5
F44B
  8
01
  6
BYBLOCK
 10
995.28778150606979
 20
-500.93074949277309
 30
0.0
 11
992.68778150606965
 21
-500.234081598773
 31
0.0
  0
LINE
  5
F44C
  8
01
  6
BYBLOCK
 10
992.68778150606965
 20
-500.234081598773
 30
0.0
 11
995.28778150606979
 21
-499.53741370477309
 31
0.0
  0
LINE
  5
F44D
  8
01
  6
BYBLOCK
 10
992.68778150606965
 20
-500.234081598773
 30
0.0
 11
995.28778150606979
 21
-500.234081598773
 31
0.0
  0
TEXT
  5
F44E
  8
01
 10
1133.2777815060711
 20
-436.95908159877268
 30
0.0
 40
4.5499999999999989
  1
39
 50
90.0
  0
LINE
  5
F44F
  8
01
  6
BYBLOCK
 10
1134.8844494000709
 20
-449.63408159877298
 30
0.0
 11
1134.1877815060709
 21
-452.23408159877312
 31
0.0
  0
LINE
  5
F450
  8
01
  6
BYBLOCK
 10
1134.1877815060709
 20
-452.23408159877312
 30
0.0
 11
1133.4911136120711
 21
-449.63408159877298
 31
0.0
  0
LINE
  5
F451
  8
01
  6
BYBLOCK
 10
1134.1877815060709
 20
-452.23408159877312
 30
0.0
 11
1134.1877815060709
 21
-449.63408159877298
 31
0.0
  0
LINE
  5
F452
  8
01
  6
BYBLOCK
 10
1133.4911136120711
 20
-415.83408159877268
 30
0.0
 11
1134.1877815060709
 21
-413.23408159877272
 31
0.0
  0
LINE
  5
F453
  8
01
  6
BYBLOCK
 10
1134.1877815060709
 20
-413.23408159877272
 30
0.0
 11
1134.8844494000709
 21
-415.83408159877268
 31
0.0
  0
LINE
  5
F454
  8
01
  6
BYBLOCK
 10
1134.1877815060709
 20
-413.23408159877272
 30
0.0
 11
1134.1877815060709
 21
-415.83408159877268
 31
0.0
  0
TEXT
  5
F455
  8
01
 10
1143.2777815060711
 20
-448.67574826543938
 30
0.0
 40
4.5499999999999989
  1
62
 50
90.0
  0
LINE
  5
F456
  8
01
  6
BYBLOCK
 10
1144.8844494000721
 20
-472.63408159877309
 30
0.0
 11
1144.1877815060709
 21
-475.234081598773
 31
0.0
  0
LINE
  5
F457
  8
01
  6
BYBLOCK
 10
1144.1877815060709
 20
-475.234081598773
 30
0.0
 11
1143.4911136120711
 21
-472.63408159877309
 31
0.0
  0
LINE
  5
F458
  8
01
  6
BYBLOCK
 10
1144.1877815060709
 20
-475.234081598773
 30
0.0
 11
1144.1877815060709
 21
-472.63408159877309
 31
0.0
  0
LINE
  5
F459
  8
01
  6
BYBLOCK
 10
1143.4911136120711
 20
-415.83408159877268
 30
0.0
 11
1144.1877815060709
 21
-413.23408159877272
 31
0.0
  0
LINE
  5
F45A
  8
01
  6
BYBLOCK
 10
1144.1877815060709
 20
-413.23408159877272
 30
0.0
 11
1144.8844494000721
 21
-415.83408159877268
 31
0.0
  0
LINE
  5
F45B
  8
01
  6
BYBLOCK
 10
1144.1877815060709
 20
-413.23408159877272
 30
0.0
 11
1144.1877815060709
 21
-415.83408159877268
 31
0.0
  0
TEXT
  5
F45C
  8
01
 10
1133.2776651663271
 20
-666.87496119549633
 30
0.0
 40
4.5499999999999989
  1
15.5
 50
90.0
  0
LINE
  5
F45D
  8
01
  6
BYBLOCK
 10
1134.884333060327
 20
-664.09917412658206
 30
0.0
 11
1134.187665166327
 21
-666.69917412658197
 31
0.0
  0
LINE
  5
F45E
  8
01
  6
BYBLOCK
 10
1134.187665166327
 20
-666.69917412658197
 30
0.0
 11
1133.4909972723269
 21
-664.09917412658206
 31
0.0
  0
LINE
  5
F45F
  8
01
  6
BYBLOCK
 10
1134.187665166327
 20
-666.69917412658197
 30
0.0
 11
1134.187665166327
 21
-664.09917412658206
 31
0.0
  0
LINE
  5
F460
  8
01
  6
BYBLOCK
 10
1133.4909972723269
 20
-653.8340815977441
 30
0.0
 11
1134.187665166327
 21
-651.23408159774419
 31
0.0
  0
LINE
  5
F461
  8
01
  6
BYBLOCK
 10
1134.187665166327
 20
-651.23408159774419
 30
0.0
 11
1134.884333060327
 21
-653.8340815977441
 31
0.0
  0
LINE
  5
F462
  8
01
  6
BYBLOCK
 10
1134.187665166327
 20
-651.23408159774419
 30
0.0
 11
1134.187665166327
 21
-653.8340815977441
 31
0.0
  0
TEXT
  5
F463
  8
01
 10
1048.2776651663251
 20
-649.56741493107722
 30
0.0
 40
4.5499999999999989
  1
74.5
 50
90.0
  0
LINE
  5
F464
  8
01
  6
BYBLOCK
 10
1049.8843330603249
 20
-676.63408159774394
 30
0.0
 11
1049.1876651663249
 21
-679.23408159774397
 31
0.0
  0
LINE
  5
F465
  8
01
  6
BYBLOCK
 10
1049.1876651663249
 20
-679.23408159774397
 30
0.0
 11
1048.4909972723251
 21
-676.63408159774394
 31
0.0
  0
LINE
  5
F466
  8
01
  6
BYBLOCK
 10
1049.1876651663249
 20
-679.23408159774397
 30
0.0
 11
1049.1876651663249
 21
-676.63408159774394
 31
0.0
  0
LINE
  5
F467
  8
01
  6
BYBLOCK
 10
1048.4909972723251
 20
-607.33408159774422
 30
0.0
 11
1049.1876651663249
 21
-604.73408159774419
 31
0.0
  0
LINE
  5
F468
  8
01
  6
BYBLOCK
 10
1049.1876651663249
 20
-604.73408159774419
 30
0.0
 11
1049.8843330603249
 21
-607.33408159774422
 31
0.0
  0
LINE
  5
F469
  8
01
  6
BYBLOCK
 10
1049.1876651663249
 20
-604.73408159774419
 30
0.0
 11
1049.1876651663249
 21
-607.33408159774422
 31
0.0
  0
LINE
  5
F46A
  8
01
 10
1001.876728294393
 20
-432.72999275734833
 30
0.0
 11
976.94082625934175
 21
-452.14408159877269
 31
0.0
1001
ACAD
1000
DSTYLE
1002
{
1070
    40
1040
1.3
1002
}
  0
LINE
  5
F46B
  8
01
 10
976.94082625934175
 20
-452.14408159877269
 30
0.0
 11
973.43082625934176
 21
-452.14408159877269
 31
0.0
1001
ACAD
1000
DSTYLE
1002
{
1070
    40
1040
1.3
1002
}
  0
TEXT
  5
F46C
  8
01
 10
1043.138940108098
 20
-400.81741493210581
 30
0.0
 40
4.5499999999999989
  1
20.5
 50
90.0
  0
LINE
  5
F46D
  8
01
  6
BYBLOCK
 10
1044.7456080020979
 20
-400.8840815987727
 30
0.0
 11
1044.0489401080979
 21
-403.48408159877272
 31
0.0
  0
LINE
  5
F46E
  8
01
  6
BYBLOCK
 10
1044.0489401080979
 20
-403.48408159877272
 30
0.0
 11
1043.3522722140981
 21
-400.8840815987727
 31
0.0
  0
LINE
  5
F46F
  8
01
  6
BYBLOCK
 10
1044.0489401080979
 20
-403.48408159877272
 30
0.0
 11
1044.0489401080979
 21
-400.8840815987727
 31
0.0
  0
LINE
  5
F470
  8
01
  6
BYBLOCK
 10
1043.3522722140981
 20
-385.58408159877268
 30
0.0
 11
1044.0489401080979
 21
-382.98408159877272
 31
0.0
  0
LINE
  5
F471
  8
01
  6
BYBLOCK
 10
1044.0489401080979
 20
-382.98408159877272
 30
0.0
 11
1044.7456080020979
 21
-385.58408159877268
 31
0.0
  0
LINE
  5
F472
  8
01
  6
BYBLOCK
 10
1044.0489401080979
 20
-382.98408159877272
 30
0.0
 11
1044.0489401080979
 21
-385.58408159877268
 31
0.0
  0
VIEWPORT
  5
57
 67
     1
  8
0
 10
10.29867712960651
 20
17.565658765306811
 30
0.0
 40
436.63158192697182
 41
283.6173284375198
 68
     1
 69
     1
1001
ACAD
1000
MVIEW
1002
{
1070
    16
1010
0.0
1020
0.0
1030
0.0
1010
0.0
1020
0.0
1030
1.0
1040
0.0
1040
283.6173284375198
1040
10.29867712960651
1040
17.565658765306811
1040
50.0
1040
0.0
1040
0.0
1070
     0
1070
   100
1070
     1
1070
     1
1070
     0
1070
     0
1070
     0
1070
     0
1040
0.0
1040
0.0
1040
0.0
1040
10.0
1040
10.0
1040
10.0
1040
10.0
1070
     0
1002
{
1002
}
1002
}
  0
ENDSEC
  0
EOF
