  0
SECTION
  2
HEADER
  9
$ACADVER
  1
AC1009
  9
$INSBASE
 10
0.0
 20
0.0
 30
0.0
  9
$EXTMIN
 10
539.18767316632409
 20
-718.07002159774402
 30
0.0
  9
$EXTMAX
 10
1155.48778150607
 20
-312.23408159877272
 30
0.0
  9
$LIMMIN
 10
0.0
 20
0.0
  9
$LIMMAX
 10
420.0
 20
297.0
  9
$ORTHOMODE
 70
     0
  9
$REGENMODE
 70
     1
  9
$FILLMODE
 70
     1
  9
$QTEXTMODE
 70
     0
  9
$MIRRTEXT
 70
     0
  9
$DRAGMODE
 70
     2
  9
$LTSCALE
 40
0.5
  9
$OSMODE
 70
  2175
  9
$ATTMODE
 70
     1
  9
$TEXTSIZE
 40
4.0
  9
$TRACEWID
 40
1.0
  9
$TEXTSTYLE
  7
STANDARD
  9
$CLAYER
  8
1TEXT
  9
$CELTYPE
  6
BYLAYER
  9
$CECOLOR
 62
   256
  9
$DIMSCALE
 40
1.0
  9
$DIMASZ
 40
2.0
  9
$DIMEXO
 40
0.0
  9
$DIMDLI
 40
7.0
  9
$DIMRND
 40
0.0
  9
$DIMDLE
 40
0.0
  9
$DIMEXE
 40
1.0
  9
$DIMTP
 40
0.0
  9
$DIMTM
 40
0.0
  9
$DIMTXT
 40
3.5
  9
$DIMCEN
 40
0.0
  9
$DIMTSZ
 40
0.0
  9
$DIMTOL
 70
     0
  9
$DIMLIM
 70
     0
  9
$DIMTIH
 70
     0
  9
$DIMTOH
 70
     0
  9
$DIMSE1
 70
     0
  9
$DIMSE2
 70
     0
  9
$DIMTAD
 70
     1
  9
$DIMZIN
 70
     8
  9
$DIMBLK
  1

  9
$DIMASO
 70
     1
  9
$DIMSHO
 70
     1
  9
$DIMPOST
  1
 
  9
$DIMAPOST
  1

  9
$DIMALT
 70
     0
  9
$DIMALTD
 70
     2
  9
$DIMALTF
 40
25.399999999999999
  9
$DIMLFAC
 40
1.0
  9
$DIMTOFL
 70
     1
  9
$DIMTVP
 40
0.0
  9
$DIMTIX
 70
     0
  9
$DIMSOXD
 70
     0
  9
$DIMSAH
 70
     1
  9
$DIMBLK1
  1
OPEN30
  9
$DIMBLK2
  1
OPEN30
  9
$DIMSTYLE
  2
NEWX10
  9
$DIMCLRD
 70
   256
  9
$DIMCLRE
 70
   256
  9
$DIMCLRT
 70
   201
  9
$DIMTFAC
 40
0.7
  9
$DIMGAP
 40
0.7
  9
$LUNITS
 70
     2
  9
$LUPREC
 70
     4
  9
$SKETCHINC
 40
1.0
  9
$FILLETRAD
 40
0.5
  9
$AUNITS
 70
     0
  9
$AUPREC
 70
     2
  9
$MENU
  1
acad
  9
$ELEVATION
 40
0.0
  9
$PELEVATION
 40
0.0
  9
$THICKNESS
 40
0.0
  9
$LIMCHECK
 70
     0
  9
$BLIPMODE
 70
     0
  9
$CHAMFERA
 40
10.0
  9
$CHAMFERB
 40
10.0
  9
$SKPOLY
 70
     0
  9
$TDCREATE
 40
2451318.621352917
  9
$TDUPDATE
 40
2456015.8051826512
  9
$TDINDWG
 40
0.5196876042
  9
$TDUSRTIMER
 40
0.5196876042
  9
$USRTIMER
 70
     1
  9
$ANGBASE
 50
0.0
  9
$ANGDIR
 70
     0
  9
$PDMODE
 70
     0
  9
$PDSIZE
 40
0.0
  9
$PLINEWID
 40
0.0
  9
$COORDS
 70
     2
  9
$SPLFRAME
 70
     0
  9
$SPLINETYPE
 70
     6
  9
$SPLINESEGS
 70
     8
  9
$ATTDIA
 70
     0
  9
$ATTREQ
 70
     1
  9
$HANDLING
 70
     1
  9
$HANDSEED
  5
D4E8
  9
$SURFTAB1
 70
     6
  9
$SURFTAB2
 70
     6
  9
$SURFTYPE
 70
     6
  9
$SURFU
 70
     6
  9
$SURFV
 70
     6
  9
$UCSNAME
  2

  9
$UCSORG
 10
0.0
 20
0.0
 30
0.0
  9
$UCSXDIR
 10
1.0
 20
0.0
 30
0.0
  9
$UCSYDIR
 10
0.0
 20
1.0
 30
0.0
  9
$PUCSNAME
  2

  9
$PUCSORG
 10
0.0
 20
0.0
 30
0.0
  9
$PUCSXDIR
 10
1.0
 20
0.0
 30
0.0
  9
$PUCSYDIR
 10
0.0
 20
1.0
 30
0.0
  9
$USERI1
 70
     0
  9
$USERI2
 70
     0
  9
$USERI3
 70
     0
  9
$USERI4
 70
     0
  9
$USERI5
 70
     0
  9
$USERR1
 40
0.0
  9
$USERR2
 40
0.0
  9
$USERR3
 40
0.0
  9
$USERR4
 40
0.0
  9
$USERR5
 40
0.0
  9
$WORLDVIEW
 70
     1
  9
$SHADEDGE
 70
     3
  9
$SHADEDIF
 70
    70
  9
$TILEMODE
 70
     1
  9
$MAXACTVP
 70
    48
  9
$PLIMCHECK
 70
     0
  9
$PEXTMIN
 10
1.0000000000000000E+020
 20
1.0000000000000000E+020
 30
1.0000000000000000E+020
  9
$PEXTMAX
 10
-1.0000000000000000E+020
 20
-1.0000000000000000E+020
 30
-1.0000000000000000E+020
  9
$PLIMMIN
 10
0.0
 20
0.0
  9
$PLIMMAX
 10
420.0
 20
297.0
  9
$UNITMODE
 70
     0
  9
$VISRETAIN
 70
     1
  9
$PLINEGEN
 70
     0
  9
$PSLTSCALE
 70
     1
  0
ENDSEC
  0
SECTION
  2
TABLES
  0
TABLE
  2
VPORT
 70
     1
  0
VPORT
  2
*ACTIVE
 70
     0
 10
0.0
 20
0.0
 11
1.0
 21
1.0
 12
847.32714844512543
 22
-515.15978982303045
 13
0.0
 23
0.0
 14
10.0
 24
10.0
 15
10.0
 25
10.0
 16
0.0
 26
0.0
 36
1.0
 17
0.0
 27
0.0
 37
0.0
 40
430.73235748090519
 41
1.5395095367847409
 42
50.0
 43
0.0
 44
0.0
 50
0.0
 51
0.0
 71
     0
 72
   100
 73
     1
 74
     1
 75
     0
 76
     0
 77
     0
 78
     0
  0
ENDTAB
  0
TABLE
  2
LTYPE
 70
    12
  0
LTYPE
  2
CONTINUOUS
 70
     0
  3
Solid line
 72
    65
 73
     0
 40
0.0
  0
LTYPE
  2
XREF1|CENTER2
 70
    48
  3
Center (.5x) ___ _ ___ _ ___ _ ___ _ ___ _ ___
 72
    65
 73
     4
 40
28.574999999999999
 49
19.050000000000001
 49
-3.1749999999999989
 49
3.1749999999999989
 49
-3.1749999999999989
  0
LTYPE
  2
A3WAKUDAKE|CENTER2
 70
    48
  3
Center (.5x) ___ _ ___ _ ___ _ ___ _ ___ _ ___
 72
    65
 73
     4
 40
28.574999999999999
 49
19.050000000000001
 49
-3.1749999999999989
 49
3.1749999999999989
 49
-3.1749999999999989
  0
ENDTAB
  0
TABLE
  2
LAYER
 70
    36
  0
LAYER
  2
0
 70
     0
 62
     7
  6
CONTINUOUS
  0
LAYER
  2
1TEXT
 70
     0
 62
     7
  6
CONTINUOUS
  0
LAYER
  2
01
 70
     0
 62
     1
  6
CONTINUOUS
  0
LAYER
  2
A3WAKUDAKE|THICK
 70
    48
 62
     7
  6
CONTINUOUS
  0
LAYER
  2
A3WAKUDAKE|POINT
 70
    48
 62
     7
  6
CONTINUOUS
  0
LAYER
  2
A3WAKUDAKE|1CENTER
 70
    48
 62
     7
  6
A3WAKUDAKE|CENTER2
  0
LAYER
  2
A3WAKUDAKE|0-6
 70
    48
 62
     7
  6
CONTINUOUS
  0
LAYER
  2
A3WAKUDAKE|1DIM
 70
    48
 62
     7
  6
CONTINUOUS
  0
LAYER
  2
XREF1|1CENTER
 70
    48
 62
     7
  6
XREF1|CENTER2
  0
ENDTAB
  0
TABLE
  2
STYLE
 70
     4
  0
STYLE
  2
STANDARD
 70
     0
 40
0.0
 41
1.0
 50
0.0
 71
     0
 42
4.0
  3
romans.shx
  4
extfont2.shx
  0
ENDTAB
  0
TABLE
  2
VIEW
 70
     5
  0
ENDTAB
  0
TABLE
  2
UCS
 70
     0
  0
ENDTAB
  0
TABLE
  2
APPID
 70
     9
  0
APPID
  2
ACAD
 70
     0
  0
APPID
  2
DRAWINGVARIABLESXDATA
 70
     0
  0
APPID
  2
CONTENTTABDATA
 70
     0
  0
APPID
  2
CONTENTCURRENTTAB
 70
     0
  0
APPID
  2
CONTENTBLOCKDESCRIPTION
 70
     0
  0
APPID
  2
CONTENTBLOCKICON
 70
     0
  0
APPID
  2
CONTENTLONGBLOCKNAME
 70
     0
  0
APPID
  2
ACAD_PSEXT
 70
     0
  0
APPID
  2
ACAD_MLEADERVER
 70
     0
  0
ENDTAB
  0
TABLE
  2
DIMSTYLE
 70
     5
  0
DIMSTYLE
  2
NEWX10
 70
     0
  3
 
  4

  5

  6
OPEN30
  7
OPEN30
 40
1.0
 41
2.0
 42
0.0
 43
7.0
 44
1.0
 45
0.0
 46
0.0
 47
0.0
 48
0.0
140
3.5
141
0.0
142
0.0
143
25.399999999999999
144
1.0
145
0.0
146
0.7
147
0.7
 71
     0
 72
     0
 73
     0
 74
     0
 75
     0
 76
     0
 77
     1
 78
     8
170
     0
171
     2
172
     1
173
     1
174
     0
175
     0
176
   256
177
   256
178
   201
  0
ENDTAB
  0
ENDSEC
  0
SECTION
  2
BLOCKS
  0
BLOCK
  8
0
  2
$MODEL_SPACE
 70
     0
 10
0.0
 20
0.0
 30
0.0
  3
$MODEL_SPACE
  1

  0
ENDBLK
  5
1A
  8
0
  0
BLOCK
 67
     1
  8
0
  2
$PAPER_SPACE
 70
     0
 10
0.0
 20
0.0
 30
0.0
  3
$PAPER_SPACE
  1

  0
ENDBLK
  5
17
 67
     1
  8
0
  0
BLOCK
  8
0
  2
_OPEN30
 70
     0
 10
0.0
 20
0.0
 30
0.0
  3
_OPEN30
  1

  0
LINE
  5
44
  8
0
  6
BYBLOCK
 62
     0
 10
-1.0
 20
0.26794919
 30
0.0
 11
0.0
 21
0.0
 31
0.0
  0
LINE
  5
45
  8
0
  6
BYBLOCK
 62
     0
 10
0.0
 20
0.0
 30
0.0
 11
-1.0
 21
-0.26794919
 31
0.0
  0
LINE
  5
46
  8
0
  6
BYBLOCK
 62
     0
 10
0.0
 20
0.0
 30
0.0
 11
-1.0
 21
0.0
 31
0.0
  0
ENDBLK
  5
47
  8
0
  0
BLOCK
  8
0
  2
XREF1
 70
    36
 10
0.0
 20
0.0
 30
0.0
  3
XREF1
  1
D:\ACLT\FORMAT\KAWAJUN(9)図面用.dwg
  0
ENDBLK
  5
5D
  8
0
  0
BLOCK
  8
0
  2
A3WAKUDAKE
 70
    36
 10
0.0
 20
0.0
 30
0.0
  3
A3WAKUDAKE
  1
D:\ACLT\FORMAT\A3WAKUdake.dwg
  0
ENDBLK
  5
6A0
  8
0
  0
BLOCK
  8
0
  2
*U21
 70
     1
 10
0.0
 20
0.0
 30
0.0
  3
*U21
  1

  0
TEXT
  5
D3D7
  8
1TEXT
 62
   201
 10
1043.3489401080969
 20
-395.56741493210592
 30
0.0
 40
3.5
  1
20.5
 50
90.0
  0
ENDBLK
  5
D3D9
  8
0
  0
BLOCK
  8
0
  2
*U22
 70
     1
 10
0.0
 20
0.0
 30
0.0
  3
*U22
  1

  0
TEXT
  5
D3DB
  8
1TEXT
 62
   201
 10
3363.5793699269261
 20
-400.81741493210552
 30
0.0
 40
4.5499999999999989
  1
20.5
 50
90.0
  0
ENDBLK
  5
D3DD
  8
0
  0
ENDSEC
  0
SECTION
  2
ENTITIES
  0
LINE
  5
4C5
  8
01
 10
854.18766916632455
 20
-570.73670159774338
 30
0.0
 11
854.18766916632455
 21
-718.07002159774402
 31
0.0
  0
LINE
  5
4C6
  8
01
 10
814.18766916632467
 20
-570.73670159774338
 30
0.0
 11
814.18766916632467
 21
-718.07002159774402
 31
0.0
  0
LINE
  5
4C8
  8
01
 10
712.78767516632524
 20
-577.23408159774397
 30
0.0
 11
712.78767516632524
 21
-600.33405159774327
 31
0.0
  0
LINE
  5
4C9
  8
01
 10
711.18766916632467
 20
-577.23408159774397
 30
0.0
 11
711.18766916632467
 21
-600.23408159774397
 31
0.0
  0
LINE
  5
4CA
  8
01
 10
713.58767816632553
 20
-577.23408159774397
 30
0.0
 11
713.58767816632553
 21
-707.23408159774397
 31
0.0
  0
LINE
  5
4CC
  8
01
 10
715.18766916632467
 20
-577.23408159774397
 30
0.0
 11
715.18766916632467
 21
-707.23408159774397
 31
0.0
  0
LINE
  5
4CF
  8
01
 10
712.18766916632455
 20
-679.23408159774397
 30
0.0
 11
683.39704587862275
 21
-679.23408159774397
 31
0.0
  0
LINE
  5
4D2
  8
01
 10
721.18766916632285
 20
-631.23408159774408
 30
0.0
 11
715.18766916632467
 21
-631.23408159774408
 31
0.0
  0
LINE
  5
4D3
  8
01
 10
726.18766916632455
 20
-636.23408159774397
 30
0.0
 11
716.18766916632467
 21
-636.23408159774397
 31
0.0
  0
POLYLINE
  5
4D4
  8
01
 10
726.18766916632455
 20
-634.80250159774369
 30
0.0
 66
     1
 70
     8
  0
VERTEX
  8
01
  5
D3E4
 10
726.188
 20
-634.803
 30
0.000000
  70
    32
  0
VERTEX
  8
01
  5
D3E5
 10
726.186
 20
-634.715
 30
0.000000
  70
    32
  0
VERTEX
  8
01
  5
D3E6
 10
726.182
 20
-634.627
 30
0.000000
  70
    32
  0
VERTEX
  8
01
  5
D3E7
 10
726.174
 20
-634.540
 30
0.000000
  70
    32
  0
VERTEX
  8
01
  5
D3E8
 10
726.164
 20
-634.453
 30
0.000000
  70
    32
  0
VERTEX
  8
01
  5
D3E9
 10
726.150
 20
-634.366
 30
0.000000
  70
    32
  0
VERTEX
  8
01
  5
D3EA
 10
726.134
 20
-634.279
 30
0.000000
  70
    32
  0
VERTEX
  8
01
  5
D3EB
 10
726.114
 20
-634.192
 30
0.000000
  70
    32
  0
VERTEX
  8
01
  5
D3EC
 10
726.092
 20
-634.106
 30
0.000000
  70
    32
  0
VERTEX
  8
01
  5
D3ED
 10
726.066
 20
-634.021
 30
0.000000
  70
    32
  0
VERTEX
  8
01
  5
D3EE
 10
726.038
 20
-633.935
 30
0.000000
  70
    32
  0
VERTEX
  8
01
  5
D3EF
 10
726.007
 20
-633.851
 30
0.000000
  70
    32
  0
VERTEX
  8
01
  5
D3F0
 10
725.972
 20
-633.767
 30
0.000000
  70
    32
  0
VERTEX
  8
01
  5
D3F1
 10
725.935
 20
-633.683
 30
0.000000
  70
    32
  0
VERTEX
  8
01
  5
D3F2
 10
725.895
 20
-633.600
 30
0.000000
  70
    32
  0
VERTEX
  8
01
  5
D3F3
 10
725.853
 20
-633.518
 30
0.000000
  70
    32
  0
VERTEX
  8
01
  5
D3F4
 10
725.807
 20
-633.437
 30
0.000000
  70
    32
  0
VERTEX
  8
01
  5
D3F5
 10
725.759
 20
-633.356
 30
0.000000
  70
    32
  0
VERTEX
  8
01
  5
D3F6
 10
725.708
 20
-633.277
 30
0.000000
  70
    32
  0
VERTEX
  8
01
  5
D3F7
 10
725.654
 20
-633.198
 30
0.000000
  70
    32
  0
VERTEX
  8
01
  5
D3F8
 10
725.597
 20
-633.120
 30
0.000000
  70
    32
  0
VERTEX
  8
01
  5
D3F9
 10
725.538
 20
-633.044
 30
0.000000
  70
    32
  0
VERTEX
  8
01
  5
D3FA
 10
725.476
 20
-632.968
 30
0.000000
  70
    32
  0
VERTEX
  8
01
  5
D3FB
 10
725.412
 20
-632.893
 30
0.000000
  70
    32
  0
VERTEX
  8
01
  5
D3FC
 10
725.345
 20
-632.820
 30
0.000000
  70
    32
  0
VERTEX
  8
01
  5
D3FD
 10
725.276
 20
-632.748
 30
0.000000
  70
    32
  0
VERTEX
  8
01
  5
D3FE
 10
725.204
 20
-632.677
 30
0.000000
  70
    32
  0
VERTEX
  8
01
  5
D3FF
 10
725.129
 20
-632.607
 30
0.000000
  70
    32
  0
VERTEX
  8
01
  5
D400
 10
725.053
 20
-632.539
 30
0.000000
  70
    32
  0
VERTEX
  8
01
  5
D401
 10
724.974
 20
-632.472
 30
0.000000
  70
    32
  0
VERTEX
  8
01
  5
D402
 10
724.892
 20
-632.406
 30
0.000000
  70
    32
  0
VERTEX
  8
01
  5
D403
 10
724.809
 20
-632.342
 30
0.000000
  70
    32
  0
VERTEX
  8
01
  5
D404
 10
724.723
 20
-632.279
 30
0.000000
  70
    32
  0
VERTEX
  8
01
  5
D405
 10
724.635
 20
-632.218
 30
0.000000
  70
    32
  0
VERTEX
  8
01
  5
D406
 10
724.545
 20
-632.158
 30
0.000000
  70
    32
  0
VERTEX
  8
01
  5
D407
 10
724.454
 20
-632.100
 30
0.000000
  70
    32
  0
VERTEX
  8
01
  5
D408
 10
724.360
 20
-632.044
 30
0.000000
  70
    32
  0
VERTEX
  8
01
  5
D409
 10
724.264
 20
-631.989
 30
0.000000
  70
    32
  0
VERTEX
  8
01
  5
D40A
 10
724.166
 20
-631.936
 30
0.000000
  70
    32
  0
VERTEX
  8
01
  5
D40B
 10
724.067
 20
-631.885
 30
0.000000
  70
    32
  0
VERTEX
  8
01
  5
D40C
 10
723.966
 20
-631.835
 30
0.000000
  70
    32
  0
VERTEX
  8
01
  5
D40D
 10
723.863
 20
-631.788
 30
0.000000
  70
    32
  0
VERTEX
  8
01
  5
D40E
 10
723.758
 20
-631.742
 30
0.000000
  70
    32
  0
VERTEX
  8
01
  5
D40F
 10
723.652
 20
-631.698
 30
0.000000
  70
    32
  0
VERTEX
  8
01
  5
D410
 10
723.545
 20
-631.655
 30
0.000000
  70
    32
  0
VERTEX
  8
01
  5
D411
 10
723.436
 20
-631.615
 30
0.000000
  70
    32
  0
VERTEX
  8
01
  5
D412
 10
723.325
 20
-631.577
 30
0.000000
  70
    32
  0
VERTEX
  8
01
  5
D413
 10
723.214
 20
-631.540
 30
0.000000
  70
    32
  0
VERTEX
  8
01
  5
D414
 10
723.101
 20
-631.506
 30
0.000000
  70
    32
  0
VERTEX
  8
01
  5
D415
 10
722.987
 20
-631.473
 30
0.000000
  70
    32
  0
VERTEX
  8
01
  5
D416
 10
722.872
 20
-631.443
 30
0.000000
  70
    32
  0
VERTEX
  8
01
  5
D417
 10
722.756
 20
-631.414
 30
0.000000
  70
    32
  0
VERTEX
  8
01
  5
D418
 10
722.639
 20
-631.388
 30
0.000000
  70
    32
  0
VERTEX
  8
01
  5
D419
 10
722.521
 20
-631.363
 30
0.000000
  70
    32
  0
VERTEX
  8
01
  5
D41A
 10
722.403
 20
-631.341
 30
0.000000
  70
    32
  0
VERTEX
  8
01
  5
D41B
 10
722.283
 20
-631.321
 30
0.000000
  70
    32
  0
VERTEX
  8
01
  5
D41C
 10
722.163
 20
-631.303
 30
0.000000
  70
    32
  0
VERTEX
  8
01
  5
D41D
 10
722.042
 20
-631.287
 30
0.000000
  70
    32
  0
VERTEX
  8
01
  5
D41E
 10
721.921
 20
-631.273
 30
0.000000
  70
    32
  0
VERTEX
  8
01
  5
D41F
 10
721.800
 20
-631.261
 30
0.000000
  70
    32
  0
VERTEX
  8
01
  5
D420
 10
721.678
 20
-631.251
 30
0.000000
  70
    32
  0
VERTEX
  8
01
  5
D421
 10
721.555
 20
-631.244
 30
0.000000
  70
    32
  0
VERTEX
  8
01
  5
D422
 10
721.433
 20
-631.238
 30
0.000000
  70
    32
  0
VERTEX
  8
01
  5
D423
 10
721.310
 20
-631.235
 30
0.000000
  70
    32
  0
VERTEX
  8
01
  5
D424
 10
721.188
 20
-631.234
 30
0.000000
  70
    32
  0
VERTEX
  8
01
  5
D425
 10
721.065
 20
-631.235
 30
0.000000
  70
    32
  0
VERTEX
  8
01
  5
D426
 10
720.942
 20
-631.238
 30
0.000000
  70
    32
  0
VERTEX
  8
01
  5
D427
 10
720.820
 20
-631.244
 30
0.000000
  70
    32
  0
VERTEX
  8
01
  5
D428
 10
720.698
 20
-631.251
 30
0.000000
  70
    32
  0
VERTEX
  8
01
  5
D429
 10
720.576
 20
-631.261
 30
0.000000
  70
    32
  0
VERTEX
  8
01
  5
D42A
 10
720.454
 20
-631.273
 30
0.000000
  70
    32
  0
VERTEX
  8
01
  5
D42B
 10
720.333
 20
-631.287
 30
0.000000
  70
    32
  0
VERTEX
  8
01
  5
D42C
 10
720.212
 20
-631.303
 30
0.000000
  70
    32
  0
VERTEX
  8
01
  5
D42D
 10
720.092
 20
-631.321
 30
0.000000
  70
    32
  0
VERTEX
  8
01
  5
D42E
 10
719.973
 20
-631.341
 30
0.000000
  70
    32
  0
VERTEX
  8
01
  5
D42F
 10
719.854
 20
-631.363
 30
0.000000
  70
    32
  0
VERTEX
  8
01
  5
D430
 10
719.736
 20
-631.388
 30
0.000000
  70
    32
  0
VERTEX
  8
01
  5
D431
 10
719.619
 20
-631.414
 30
0.000000
  70
    32
  0
VERTEX
  8
01
  5
D432
 10
719.503
 20
-631.443
 30
0.000000
  70
    32
  0
VERTEX
  8
01
  5
D433
 10
719.388
 20
-631.473
 30
0.000000
  70
    32
  0
VERTEX
  8
01
  5
D434
 10
719.274
 20
-631.506
 30
0.000000
  70
    32
  0
VERTEX
  8
01
  5
D435
 10
719.161
 20
-631.540
 30
0.000000
  70
    32
  0
VERTEX
  8
01
  5
D436
 10
719.050
 20
-631.577
 30
0.000000
  70
    32
  0
VERTEX
  8
01
  5
D437
 10
718.940
 20
-631.615
 30
0.000000
  70
    32
  0
VERTEX
  8
01
  5
D438
 10
718.831
 20
-631.655
 30
0.000000
  70
    32
  0
VERTEX
  8
01
  5
D439
 10
718.723
 20
-631.698
 30
0.000000
  70
    32
  0
VERTEX
  8
01
  5
D43A
 10
718.617
 20
-631.742
 30
0.000000
  70
    32
  0
VERTEX
  8
01
  5
D43B
 10
718.513
 20
-631.788
 30
0.000000
  70
    32
  0
VERTEX
  8
01
  5
D43C
 10
718.410
 20
-631.835
 30
0.000000
  70
    32
  0
VERTEX
  8
01
  5
D43D
 10
718.309
 20
-631.885
 30
0.000000
  70
    32
  0
VERTEX
  8
01
  5
D43E
 10
718.209
 20
-631.936
 30
0.000000
  70
    32
  0
VERTEX
  8
01
  5
D43F
 10
718.112
 20
-631.989
 30
0.000000
  70
    32
  0
VERTEX
  8
01
  5
D440
 10
718.016
 20
-632.044
 30
0.000000
  70
    32
  0
VERTEX
  8
01
  5
D441
 10
717.922
 20
-632.100
 30
0.000000
  70
    32
  0
VERTEX
  8
01
  5
D442
 10
717.830
 20
-632.158
 30
0.000000
  70
    32
  0
VERTEX
  8
01
  5
D443
 10
717.740
 20
-632.218
 30
0.000000
  70
    32
  0
VERTEX
  8
01
  5
D444
 10
717.652
 20
-632.279
 30
0.000000
  70
    32
  0
VERTEX
  8
01
  5
D445
 10
717.566
 20
-632.342
 30
0.000000
  70
    32
  0
VERTEX
  8
01
  5
D446
 10
717.483
 20
-632.406
 30
0.000000
  70
    32
  0
VERTEX
  8
01
  5
D447
 10
717.402
 20
-632.472
 30
0.000000
  70
    32
  0
VERTEX
  8
01
  5
D448
 10
717.323
 20
-632.539
 30
0.000000
  70
    32
  0
VERTEX
  8
01
  5
D449
 10
717.246
 20
-632.607
 30
0.000000
  70
    32
  0
VERTEX
  8
01
  5
D44A
 10
717.172
 20
-632.677
 30
0.000000
  70
    32
  0
VERTEX
  8
01
  5
D44B
 10
717.100
 20
-632.748
 30
0.000000
  70
    32
  0
VERTEX
  8
01
  5
D44C
 10
717.030
 20
-632.820
 30
0.000000
  70
    32
  0
VERTEX
  8
01
  5
D44D
 10
716.963
 20
-632.893
 30
0.000000
  70
    32
  0
VERTEX
  8
01
  5
D44E
 10
716.899
 20
-632.968
 30
0.000000
  70
    32
  0
VERTEX
  8
01
  5
D44F
 10
716.837
 20
-633.044
 30
0.000000
  70
    32
  0
VERTEX
  8
01
  5
D450
 10
716.778
 20
-633.120
 30
0.000000
  70
    32
  0
VERTEX
  8
01
  5
D451
 10
716.722
 20
-633.198
 30
0.000000
  70
    32
  0
VERTEX
  8
01
  5
D452
 10
716.668
 20
-633.277
 30
0.000000
  70
    32
  0
VERTEX
  8
01
  5
D453
 10
716.617
 20
-633.356
 30
0.000000
  70
    32
  0
VERTEX
  8
01
  5
D454
 10
716.568
 20
-633.437
 30
0.000000
  70
    32
  0
VERTEX
  8
01
  5
D455
 10
716.523
 20
-633.518
 30
0.000000
  70
    32
  0
VERTEX
  8
01
  5
D456
 10
716.480
 20
-633.600
 30
0.000000
  70
    32
  0
VERTEX
  8
01
  5
D457
 10
716.440
 20
-633.683
 30
0.000000
  70
    32
  0
VERTEX
  8
01
  5
D458
 10
716.403
 20
-633.767
 30
0.000000
  70
    32
  0
VERTEX
  8
01
  5
D459
 10
716.369
 20
-633.851
 30
0.000000
  70
    32
  0
VERTEX
  8
01
  5
D45A
 10
716.338
 20
-633.935
 30
0.000000
  70
    32
  0
VERTEX
  8
01
  5
D45B
 10
716.309
 20
-634.021
 30
0.000000
  70
    32
  0
VERTEX
  8
01
  5
D45C
 10
716.284
 20
-634.106
 30
0.000000
  70
    32
  0
VERTEX
  8
01
  5
D45D
 10
716.261
 20
-634.192
 30
0.000000
  70
    32
  0
VERTEX
  8
01
  5
D45E
 10
716.242
 20
-634.279
 30
0.000000
  70
    32
  0
VERTEX
  8
01
  5
D45F
 10
716.225
 20
-634.366
 30
0.000000
  70
    32
  0
VERTEX
  8
01
  5
D460
 10
716.212
 20
-634.453
 30
0.000000
  70
    32
  0
VERTEX
  8
01
  5
D461
 10
716.201
 20
-634.540
 30
0.000000
  70
    32
  0
VERTEX
  8
01
  5
D462
 10
716.194
 20
-634.627
 30
0.000000
  70
    32
  0
VERTEX
  8
01
  5
D463
 10
716.189
 20
-634.715
 30
0.000000
  70
    32
  0
VERTEX
  8
01
  5
D464
 10
716.188
 20
-634.803
 30
0.000000
  70
    32
  0
SEQEND
  8
01
  5
D465
  0
LINE
  5
4D5
  8
01
 10
721.18766916632455
 20
-651.23408159774408
 30
0.0
 11
715.18766916632467
 21
-651.23408159774408
 31
0.0
  0
LINE
  5
4D6
  8
01
 10
726.18766916632455
 20
-646.23408159774408
 30
0.0
 11
716.18766916632467
 21
-646.23408159774408
 31
0.0
  0
POLYLINE
  5
4D7
  8
01
 10
726.18766916632455
 20
-647.66566159774368
 30
0.0
 66
     1
 70
     8
  0
VERTEX
  8
01
  5
D466
 10
726.188
 20
-647.666
 30
0.000000
  70
    32
  0
VERTEX
  8
01
  5
D467
 10
726.186
 20
-647.753
 30
0.000000
  70
    32
  0
VERTEX
  8
01
  5
D468
 10
726.182
 20
-647.841
 30
0.000000
  70
    32
  0
VERTEX
  8
01
  5
D469
 10
726.174
 20
-647.928
 30
0.000000
  70
    32
  0
VERTEX
  8
01
  5
D46A
 10
726.164
 20
-648.015
 30
0.000000
  70
    32
  0
VERTEX
  8
01
  5
D46B
 10
726.150
 20
-648.102
 30
0.000000
  70
    32
  0
VERTEX
  8
01
  5
D46C
 10
726.134
 20
-648.189
 30
0.000000
  70
    32
  0
VERTEX
  8
01
  5
D46D
 10
726.114
 20
-648.276
 30
0.000000
  70
    32
  0
VERTEX
  8
01
  5
D46E
 10
726.092
 20
-648.362
 30
0.000000
  70
    32
  0
VERTEX
  8
01
  5
D46F
 10
726.066
 20
-648.448
 30
0.000000
  70
    32
  0
VERTEX
  8
01
  5
D470
 10
726.038
 20
-648.533
 30
0.000000
  70
    32
  0
VERTEX
  8
01
  5
D471
 10
726.007
 20
-648.617
 30
0.000000
  70
    32
  0
VERTEX
  8
01
  5
D472
 10
725.972
 20
-648.702
 30
0.000000
  70
    32
  0
VERTEX
  8
01
  5
D473
 10
725.935
 20
-648.785
 30
0.000000
  70
    32
  0
VERTEX
  8
01
  5
D474
 10
725.895
 20
-648.868
 30
0.000000
  70
    32
  0
VERTEX
  8
01
  5
D475
 10
725.853
 20
-648.950
 30
0.000000
  70
    32
  0
VERTEX
  8
01
  5
D476
 10
725.807
 20
-649.031
 30
0.000000
  70
    32
  0
VERTEX
  8
01
  5
D477
 10
725.759
 20
-649.112
 30
0.000000
  70
    32
  0
VERTEX
  8
01
  5
D478
 10
725.708
 20
-649.191
 30
0.000000
  70
    32
  0
VERTEX
  8
01
  5
D479
 10
725.654
 20
-649.270
 30
0.000000
  70
    32
  0
VERTEX
  8
01
  5
D47A
 10
725.597
 20
-649.348
 30
0.000000
  70
    32
  0
VERTEX
  8
01
  5
D47B
 10
725.538
 20
-649.425
 30
0.000000
  70
    32
  0
VERTEX
  8
01
  5
D47C
 10
725.476
 20
-649.500
 30
0.000000
  70
    32
  0
VERTEX
  8
01
  5
D47D
 10
725.412
 20
-649.575
 30
0.000000
  70
    32
  0
VERTEX
  8
01
  5
D47E
 10
725.345
 20
-649.648
 30
0.000000
  70
    32
  0
VERTEX
  8
01
  5
D47F
 10
725.276
 20
-649.720
 30
0.000000
  70
    32
  0
VERTEX
  8
01
  5
D480
 10
725.204
 20
-649.791
 30
0.000000
  70
    32
  0
VERTEX
  8
01
  5
D481
 10
725.129
 20
-649.861
 30
0.000000
  70
    32
  0
VERTEX
  8
01
  5
D482
 10
725.053
 20
-649.929
 30
0.000000
  70
    32
  0
VERTEX
  8
01
  5
D483
 10
724.974
 20
-649.996
 30
0.000000
  70
    32
  0
VERTEX
  8
01
  5
D484
 10
724.892
 20
-650.062
 30
0.000000
  70
    32
  0
VERTEX
  8
01
  5
D485
 10
724.809
 20
-650.126
 30
0.000000
  70
    32
  0
VERTEX
  8
01
  5
D486
 10
724.723
 20
-650.189
 30
0.000000
  70
    32
  0
VERTEX
  8
01
  5
D487
 10
724.635
 20
-650.250
 30
0.000000
  70
    32
  0
VERTEX
  8
01
  5
D488
 10
724.545
 20
-650.310
 30
0.000000
  70
    32
  0
VERTEX
  8
01
  5
D489
 10
724.454
 20
-650.368
 30
0.000000
  70
    32
  0
VERTEX
  8
01
  5
D48A
 10
724.360
 20
-650.424
 30
0.000000
  70
    32
  0
VERTEX
  8
01
  5
D48B
 10
724.264
 20
-650.479
 30
0.000000
  70
    32
  0
VERTEX
  8
01
  5
D48C
 10
724.166
 20
-650.532
 30
0.000000
  70
    32
  0
VERTEX
  8
01
  5
D48D
 10
724.067
 20
-650.583
 30
0.000000
  70
    32
  0
VERTEX
  8
01
  5
D48E
 10
723.966
 20
-650.633
 30
0.000000
  70
    32
  0
VERTEX
  8
01
  5
D48F
 10
723.863
 20
-650.680
 30
0.000000
  70
    32
  0
VERTEX
  8
01
  5
D490
 10
723.758
 20
-650.726
 30
0.000000
  70
    32
  0
VERTEX
  8
01
  5
D491
 10
723.652
 20
-650.770
 30
0.000000
  70
    32
  0
VERTEX
  8
01
  5
D492
 10
723.545
 20
-650.813
 30
0.000000
  70
    32
  0
VERTEX
  8
01
  5
D493
 10
723.436
 20
-650.853
 30
0.000000
  70
    32
  0
VERTEX
  8
01
  5
D494
 10
723.325
 20
-650.891
 30
0.000000
  70
    32
  0
VERTEX
  8
01
  5
D495
 10
723.214
 20
-650.928
 30
0.000000
  70
    32
  0
VERTEX
  8
01
  5
D496
 10
723.101
 20
-650.962
 30
0.000000
  70
    32
  0
VERTEX
  8
01
  5
D497
 10
722.987
 20
-650.995
 30
0.000000
  70
    32
  0
VERTEX
  8
01
  5
D498
 10
722.872
 20
-651.025
 30
0.000000
  70
    32
  0
VERTEX
  8
01
  5
D499
 10
722.756
 20
-651.054
 30
0.000000
  70
    32
  0
VERTEX
  8
01
  5
D49A
 10
722.639
 20
-651.080
 30
0.000000
  70
    32
  0
VERTEX
  8
01
  5
D49B
 10
722.521
 20
-651.105
 30
0.000000
  70
    32
  0
VERTEX
  8
01
  5
D49C
 10
722.403
 20
-651.127
 30
0.000000
  70
    32
  0
VERTEX
  8
01
  5
D49D
 10
722.283
 20
-651.147
 30
0.000000
  70
    32
  0
VERTEX
  8
01
  5
D49E
 10
722.163
 20
-651.166
 30
0.000000
  70
    32
  0
VERTEX
  8
01
  5
D49F
 10
722.042
 20
-651.182
 30
0.000000
  70
    32
  0
VERTEX
  8
01
  5
D4A0
 10
721.921
 20
-651.195
 30
0.000000
  70
    32
  0
VERTEX
  8
01
  5
D4A1
 10
721.800
 20
-651.207
 30
0.000000
  70
    32
  0
VERTEX
  8
01
  5
D4A2
 10
721.678
 20
-651.217
 30
0.000000
  70
    32
  0
VERTEX
  8
01
  5
D4A3
 10
721.555
 20
-651.224
 30
0.000000
  70
    32
  0
VERTEX
  8
01
  5
D4A4
 10
721.433
 20
-651.230
 30
0.000000
  70
    32
  0
VERTEX
  8
01
  5
D4A5
 10
721.310
 20
-651.233
 30
0.000000
  70
    32
  0
VERTEX
  8
01
  5
D4A6
 10
721.188
 20
-651.234
 30
0.000000
  70
    32
  0
VERTEX
  8
01
  5
D4A7
 10
721.065
 20
-651.233
 30
0.000000
  70
    32
  0
VERTEX
  8
01
  5
D4A8
 10
720.942
 20
-651.230
 30
0.000000
  70
    32
  0
VERTEX
  8
01
  5
D4A9
 10
720.820
 20
-651.224
 30
0.000000
  70
    32
  0
VERTEX
  8
01
  5
D4AA
 10
720.698
 20
-651.217
 30
0.000000
  70
    32
  0
VERTEX
  8
01
  5
D4AB
 10
720.576
 20
-651.207
 30
0.000000
  70
    32
  0
VERTEX
  8
01
  5
D4AC
 10
720.454
 20
-651.195
 30
0.000000
  70
    32
  0
VERTEX
  8
01
  5
D4AD
 10
720.333
 20
-651.182
 30
0.000000
  70
    32
  0
VERTEX
  8
01
  5
D4AE
 10
720.212
 20
-651.166
 30
0.000000
  70
    32
  0
VERTEX
  8
01
  5
D4AF
 10
720.092
 20
-651.147
 30
0.000000
  70
    32
  0
VERTEX
  8
01
  5
D4B0
 10
719.973
 20
-651.127
 30
0.000000
  70
    32
  0
VERTEX
  8
01
  5
D4B1
 10
719.854
 20
-651.105
 30
0.000000
  70
    32
  0
VERTEX
  8
01
  5
D4B2
 10
719.736
 20
-651.080
 30
0.000000
  70
    32
  0
VERTEX
  8
01
  5
D4B3
 10
719.619
 20
-651.054
 30
0.000000
  70
    32
  0
VERTEX
  8
01
  5
D4B4
 10
719.503
 20
-651.025
 30
0.000000
  70
    32
  0
VERTEX
  8
01
  5
D4B5
 10
719.388
 20
-650.995
 30
0.000000
  70
    32
  0
VERTEX
  8
01
  5
D4B6
 10
719.274
 20
-650.962
 30
0.000000
  70
    32
  0
VERTEX
  8
01
  5
D4B7
 10
719.161
 20
-650.928
 30
0.000000
  70
    32
  0
VERTEX
  8
01
  5
D4B8
 10
719.050
 20
-650.891
 30
0.000000
  70
    32
  0
VERTEX
  8
01
  5
D4B9
 10
718.940
 20
-650.853
 30
0.000000
  70
    32
  0
VERTEX
  8
01
  5
D4BA
 10
718.831
 20
-650.813
 30
0.000000
  70
    32
  0
VERTEX
  8
01
  5
D4BB
 10
718.723
 20
-650.770
 30
0.000000
  70
    32
  0
VERTEX
  8
01
  5
D4BC
 10
718.617
 20
-650.726
 30
0.000000
  70
    32
  0
VERTEX
  8
01
  5
D4BD
 10
718.513
 20
-650.680
 30
0.000000
  70
    32
  0
VERTEX
  8
01
  5
D4BE
 10
718.410
 20
-650.633
 30
0.000000
  70
    32
  0
VERTEX
  8
01
  5
D4BF
 10
718.309
 20
-650.583
 30
0.000000
  70
    32
  0
VERTEX
  8
01
  5
D4C0
 10
718.209
 20
-650.532
 30
0.000000
  70
    32
  0
VERTEX
  8
01
  5
D4C1
 10
718.112
 20
-650.479
 30
0.000000
  70
    32
  0
VERTEX
  8
01
  5
D4C2
 10
718.016
 20
-650.424
 30
0.000000
  70
    32
  0
VERTEX
  8
01
  5
D4C3
 10
717.922
 20
-650.368
 30
0.000000
  70
    32
  0
VERTEX
  8
01
  5
D4C4
 10
717.830
 20
-650.310
 30
0.000000
  70
    32
  0
VERTEX
  8
01
  5
D4C5
 10
717.740
 20
-650.250
 30
0.000000
  70
    32
  0
VERTEX
  8
01
  5
D4C6
 10
717.652
 20
-650.189
 30
0.000000
  70
    32
  0
VERTEX
  8
01
  5
D4C7
 10
717.566
 20
-650.126
 30
0.000000
  70
    32
  0
VERTEX
  8
01
  5
D4C8
 10
717.483
 20
-650.062
 30
0.000000
  70
    32
  0
VERTEX
  8
01
  5
D4C9
 10
717.402
 20
-649.996
 30
0.000000
  70
    32
  0
VERTEX
  8
01
  5
D4CA
 10
717.323
 20
-649.929
 30
0.000000
  70
    32
  0
VERTEX
  8
01
  5
D4CB
 10
717.246
 20
-649.861
 30
0.000000
  70
    32
  0
VERTEX
  8
01
  5
D4CC
 10
717.172
 20
-649.791
 30
0.000000
  70
    32
  0
VERTEX
  8
01
  5
D4CD
 10
717.100
 20
-649.720
 30
0.000000
  70
    32
  0
VERTEX
  8
01
  5
D4CE
 10
717.030
 20
-649.648
 30
0.000000
  70
    32
  0
VERTEX
  8
01
  5
D4CF
 10
716.963
 20
-649.575
 30
0.000000
  70
    32
  0
VERTEX
  8
01
  5
D4D0
 10
716.899
 20
-649.500
 30
0.000000
  70
    32
  0
VERTEX
  8
01
  5
D4D1
 10
716.837
 20
-649.425
 30
0.000000
  70
    32
  0
VERTEX
  8
01
  5
D4D2
 10
716.778
 20
-649.348
 30
0.000000
  70
    32
  0
VERTEX
  8
01
  5
D4D3
 10
716.722
 20
-649.270
 30
0.000000
  70
    32
  0
VERTEX
  8
01
  5
D4D4
 10
716.668
 20
-649.191
 30
0.000000
  70
    32
  0
VERTEX
  8
01
  5
D4D5
 10
716.617
 20
-649.112
 30
0.000000
  70
    32
  0
VERTEX
  8
01
  5
D4D6
 10
716.568
 20
-649.031
 30
0.000000
  70
    32
  0
VERTEX
  8
01
  5
D4D7
 10
716.523
 20
-648.950
 30
0.000000
  70
    32
  0
VERTEX
  8
01
  5
D4D8
 10
716.480
 20
-648.868
 30
0.000000
  70
    32
  0
VERTEX
  8
01
  5
D4D9
 10
716.440
 20
-648.785
 30
0.000000
  70
    32
  0
VERTEX
  8
01
  5
D4DA
 10
716.403
 20
-648.702
 30
0.000000
  70
    32
  0
VERTEX
  8
01
  5
D4DB
 10
716.369
 20
-648.617
 30
0.000000
  70
    32
  0
VERTEX
  8
01
  5
D4DC
 10
716.338
 20
-648.533
 30
0.000000
  70
    32
  0
VERTEX
  8
01
  5
D4DD
 10
716.309
 20
-648.448
 30
0.000000
  70
    32
  0
VERTEX
  8
01
  5
D4DE
 10
716.284
 20
-648.362
 30
0.000000
  70
    32
  0
VERTEX
  8
01
  5
D4DF
 10
716.261
 20
-648.276
 30
0.000000
  70
    32
  0
VERTEX
  8
01
  5
D4E0
 10
716.242
 20
-648.189
 30
0.000000
  70
    32
  0
VERTEX
  8
01
  5
D4E1
 10
716.225
 20
-648.102
 30
0.000000
  70
    32
  0
VERTEX
  8
01
  5
D4E2
 10
716.212
 20
-648.015
 30
0.000000
  70
    32
  0
VERTEX
  8
01
  5
D4E3
 10
716.201
 20
-647.928
 30
0.000000
  70
    32
  0
VERTEX
  8
01
  5
D4E4
 10
716.194
 20
-647.841
 30
0.000000
  70
    32
  0
VERTEX
  8
01
  5
D4E5
 10
716.189
 20
-647.753
 30
0.000000
  70
    32
  0
VERTEX
  8
01
  5
D4E6
 10
716.188
 20
-647.666
 30
0.000000
  70
    32
  0
SEQEND
  8
01
  5
D4E7
  0
LINE
  5
4D8
  8
01
 10
726.18766916632455
 20
-634.80250159774357
 30
0.0
 11
726.18766916632455
 21
-647.66566159774447
 31
0.0
  0
LINE
  5
4D9
  8
01
 10
716.18766916632467
 20
-634.80250159774357
 30
0.0
 11
716.18766916632467
 21
-647.66566159774175
 31
0.0
  0
LINE
  5
4DA
  8
01
 10
712.18765416632505
 20
-601.23408159774408
 30
0.0
 11
711.18765416632505
 21
-600.23408159774397
 31
0.0
  0
LINE
  5
4DB
  8
01
 10
713.58767116632487
 20
-601.13410159774412
 30
0.0
 11
712.78769016632475
 21
-600.33412159774343
 31
0.0
  0
LINE
  5
4DC
  8
01
 10
713.58767116632487
 20
-683.33409159774328
 30
0.0
 11
712.78766816632469
 21
-684.13407159774385
 31
0.0
  0
LINE
  5
4DD
  8
01
 10
712.18761616632491
 20
-683.23411159774332
 30
0.0
 11
711.18763116632454
 21
-684.23411159774332
 31
0.0
  0
LINE
  5
4DE
  8
01
 10
715.18766916632467
 20
-707.23408159774397
 30
0.0
 11
711.18766916632467
 21
-707.23408159774397
 31
0.0
  0
LINE
  5
4DF
  8
01
 10
712.78767516632524
 20
-707.23408159774397
 30
0.0
 11
712.78767516632524
 21
-684.13407159774385
 31
0.0
  0
LINE
  5
4E0
  8
01
 10
711.18766916632467
 20
-707.23408159774397
 30
0.0
 11
711.18766916632467
 21
-684.23408159774408
 31
0.0
  0
LINE
  5
4E1
  8
01
 10
712.18766916632455
 20
-601.23408159774408
 30
0.0
 11
712.18766916632455
 21
-683.23408159774397
 31
0.0
  0
LINE
  5
4E3
  8
01
 10
715.18766916632467
 20
-577.23408159774397
 30
0.0
 11
711.18766916632467
 21
-577.23408159774397
 31
0.0
  0
LINE
  5
4E6
  8
01
 10
821.68766916632455
 20
-583.23408159774397
 30
0.0
 11
821.68766916632455
 21
-701.23408159774408
 31
0.0
  0
LINE
  5
4E7
  8
01
 10
846.68766916632455
 20
-583.23408159774397
 30
0.0
 11
846.68766916632455
 21
-701.23408159774408
 31
0.0
  0
ARC
  5
4E8
  8
01
 10
840.68766916632455
 20
-701.23408159774408
 30
0.0
 40
6.0
 50
270.0
 51
0.0
  0
ARC
  5
4EA
  8
01
 10
827.68766916632467
 20
-701.23408159774408
 30
0.0
 40
6.0
 50
180.0
 51
270.0
  0
LINE
  5
4EB
  8
01
 10
841.93766916632467
 20
-634.80250159774357
 30
0.0
 11
841.93766916632467
 21
-647.66566159774345
 31
0.0
  0
LINE
  5
4EC
  8
01
 10
840.93766916632467
 20
-636.23408159774397
 30
0.0
 11
840.93766916632467
 21
-646.23408159774408
 31
0.0
  0
LINE
  5
4ED
  8
01
 10
827.43766916632455
 20
-636.23408159774397
 30
0.0
 11
827.43766916632455
 21
-646.23408159774408
 31
0.0
  0
LINE
  5
4EE
  8
01
 10
826.43766916632455
 20
-634.80250159774357
 30
0.0
 11
826.43766916632455
 21
-647.66566159774345
 31
0.0
  0
ARC
  5
4EF
  8
01
 10
834.18766916632455
 20
-641.0340715977436
 30
0.0
 40
10.199999999999999
 50
220.5530799999753
 51
319.44692000002459
  0
LINE
  5
4F0
  8
01
 10
827.43766916632455
 20
-646.23408159774408
 30
0.0
 11
840.93766916632467
 21
-646.23408159774408
 31
0.0
  0
LINE
  5
4F1
  8
01
 10
827.43766916632455
 20
-636.23408159774397
 30
0.0
 11
840.93766916632467
 21
-636.23408159774397
 31
0.0
  0
ARC
  5
4F2
  8
01
 10
834.18766916632455
 20
-641.43409159774365
 30
0.0
 40
10.199999999999999
 50
40.553083999977588
 51
139.44692000002459
  0
CIRCLE
  5
4F3
  8
01
 10
834.18766916632455
 20
-699.23408159774397
 30
0.0
 40
4.5
  0
CIRCLE
  5
4F4
  8
01
 10
834.18766916632455
 20
-699.23408159774397
 30
0.0
 40
2.75
  0
LINE
  5
4F5
  8
01
 10
827.68766916632467
 20
-707.23408159774397
 30
0.0
 11
840.68766916632455
 21
-707.23408159774397
 31
0.0
  0
ARC
  5
4F6
  8
01
 10
840.68766916632455
 20
-583.23408159774397
 30
0.0
 40
6.0
 50
0.0
 51
90.0
  0
ARC
  5
4F9
  8
01
 10
827.68766916632467
 20
-583.23408159774397
 30
0.0
 40
6.0
 50
90.0
 51
180.0
  0
LINE
  5
4FA
  8
01
 10
827.68766916632467
 20
-577.23408159774397
 30
0.0
 11
840.68766916632455
 21
-577.23408159774397
 31
0.0
  0
CIRCLE
  5
4FB
  8
01
 10
834.18766916632455
 20
-585.23408159774408
 30
0.0
 40
4.5
  0
CIRCLE
  5
4FC
  8
01
 10
834.18766916632455
 20
-585.23408159774408
 30
0.0
 40
2.75
  0
TEXT
  5
4FD
  8
01
 10
649.18768516632463
 20
-378.23408159774419
 30
0.0
 40
20.0
  1
1-KSC-X-LW
  0
LINE
  5
51F
  8
01
 10
955.58767516632452
 20
-577.23408159774397
 30
0.0
 11
955.58767516632452
 21
-600.33405159774327
 31
0.0
  0
LINE
  5
520
  8
01
 10
957.18766516632502
 20
-577.23408159774397
 30
0.0
 11
957.18766516632502
 21
-600.23408159774397
 31
0.0
  0
LINE
  5
521
  8
01
 10
954.78767516632524
 20
-577.23408159774397
 30
0.0
 11
954.78767516632524
 21
-707.23408159774397
 31
0.0
  0
LINE
  5
522
  8
01
 10
953.18766516632513
 20
-577.23408159774397
 30
0.0
 11
953.18766516632513
 21
-707.23408159774397
 31
0.0
  0
LINE
  5
525
  8
01
 10
956.18766516632513
 20
-679.23408159774397
 30
0.0
 11
984.97829245402636
 21
-679.23408159774397
 31
0.0
  0
LINE
  5
526
  8
01
 10
956.18767516632477
 20
-601.23408159774408
 30
0.0
 11
957.18767516632477
 21
-600.23408159774397
 31
0.0
  0
LINE
  5
527
  8
01
 10
954.7876651663255
 20
-601.13410159774412
 30
0.0
 11
955.58767516632452
 21
-600.33405159774327
 31
0.0
  0
LINE
  5
528
  8
01
 10
946.18766516632513
 20
-631.23408159774408
 30
0.0
 11
953.18766516632513
 21
-631.23408159774408
 31
0.0
  0
LINE
  5
529
  8
01
 10
946.18766516632513
 20
-651.23408159774408
 30
0.0
 11
953.18766516632513
 21
-651.23408159774408
 31
0.0
  0
LINE
  5
52A
  8
01
 10
942.26976516632465
 20
-648.04035159774412
 30
0.0
 11
953.18766516632513
 21
-648.04035159774412
 31
0.0
  0
LINE
  5
52B
  8
01
 10
942.26976516632465
 20
-634.42780159774327
 30
0.0
 11
953.18766516632513
 21
-634.42780159774327
 31
0.0
  0
LINE
  5
52C
  8
01
 10
942.18766516632525
 20
-635.23408159774408
 30
0.0
 11
942.18766516632525
 21
-647.23408159774408
 31
0.0
  0
ARC
  5
52D
  8
01
 10
946.18766516632513
 20
-647.23408159774408
 30
0.0
 40
4.0
 50
179.999989999999
 51
270.0
  0
ARC
  5
52F
  8
01
 10
946.18766516632513
 20
-635.23408159774408
 30
0.0
 40
4.0
 50
90.000002999984659
 51
180.00001000000091
  0
LINE
  5
530
  8
01
 10
954.7876651663255
 20
-683.33409159774328
 30
0.0
 11
955.58767516632452
 21
-684.13407159774385
 31
0.0
  0
LINE
  5
531
  8
01
 10
956.18771516632569
 20
-683.23411159774332
 30
0.0
 11
957.18769516632426
 21
-684.23408159774408
 31
0.0
  0
LINE
  5
532
  8
01
 10
948.18766516632513
 20
-699.23408159774397
 30
0.0
 11
962.18766516632513
 21
-699.23408159774397
 31
0.0
  0
LINE
  5
533
  8
01
 10
953.18766516632513
 20
-707.23408159774397
 30
0.0
 11
957.18766516632502
 21
-707.23408159774397
 31
0.0
  0
LINE
  5
534
  8
01
 10
955.58767516632452
 20
-707.23408159774397
 30
0.0
 11
955.58767516632452
 21
-684.13407159774385
 31
0.0
  0
LINE
  5
535
  8
01
 10
957.18766516632502
 20
-707.23408159774397
 30
0.0
 11
957.18766516632502
 21
-684.23408159774408
 31
0.0
  0
LINE
  5
536
  8
01
 10
956.18766516632513
 20
-601.23408159774408
 30
0.0
 11
956.18766516632513
 21
-683.23408159774397
 31
0.0
  0
LINE
  5
539
  8
01
 10
953.18766516632513
 20
-577.23408159774397
 30
0.0
 11
957.18766516632502
 21
-577.23408159774397
 31
0.0
  0
LINE
  5
53A
  8
01
 10
948.18766516632513
 20
-585.23408159774408
 30
0.0
 11
962.18766516632513
 21
-585.23408159774408
 31
0.0
  0
LINE
  5
545
  8
01
 10
957.1885493483851
 20
-383.73408159877272
 30
0.0
 11
1023.188549348385
 21
-383.73408159877272
 31
0.0
  0
LINE
  5
546
  8
01
 10
957.1885493483851
 20
-385.33405159877202
 30
0.0
 11
1023.188549348385
 21
-385.33405159877202
 31
0.0
  0
LINE
  5
547
  8
01
 10
954.78855934838532
 20
-402.7340815987726
 30
0.0
 11
1023.188549348385
 21
-402.7340815987726
 31
0.0
  0
LINE
  5
548
  8
01
 10
956.38853934838608
 20
-388.23408159877272
 30
0.0
 11
957.1885493483851
 21
-387.43406159877208
 31
0.0
  0
LINE
  5
549
  8
01
 10
957.1885493483851
 20
-382.73408159877272
 30
0.0
 11
957.1885493483851
 21
-387.43406159877208
 31
0.0
  0
LINE
  5
54A
  8
01
 10
954.78855934838532
 20
-388.23405159877262
 30
0.0
 11
955.58854934838655
 21
-387.43409159877228
 31
0.0
  0
LINE
  5
54B
  8
01
 10
942.18854934838498
 20
-400.98408159877272
 30
0.0
 11
953.1885493483851
 21
-400.98408159877272
 31
0.0
  0
LINE
  5
54C
  8
01
 10
942.18854934838498
 20
-400.98408159877272
 30
0.0
 11
942.18854934838498
 21
-398.98408159877272
 31
0.0
  0
LINE
  5
54D
  8
01
 10
953.1885493483851
 20
-380.73408159877272
 30
0.0
 11
954.78855934838532
 21
-380.73408159877272
 31
0.0
  0
LINE
  5
54E
  8
01
 10
954.78855934838532
 20
-380.73408159877272
 30
0.0
 11
954.78855934838532
 21
-388.23408159877272
 31
0.0
  0
LINE
  5
54F
  8
01
 10
955.58855934838618
 20
-382.73408159877272
 30
0.0
 11
955.58855934838618
 21
-387.43406159877208
 31
0.0
  0
LINE
  5
550
  8
01
 10
954.78855934838532
 20
-382.73408159877272
 30
0.0
 11
957.1885493483851
 21
-382.73408159877272
 31
0.0
  0
LINE
  5
551
  8
01
 10
957.1885493483851
 20
-399.0340715987723
 30
0.0
 11
957.1885493483851
 21
-402.7340815987726
 31
0.0
  0
LINE
  5
552
  8
01
 10
956.38855934838557
 20
-398.23405159877262
 30
0.0
 11
957.1885493483851
 21
-399.0340715987723
 31
0.0
  0
LINE
  5
553
  8
01
 10
957.1885493483851
 20
-401.13407159877261
 30
0.0
 11
961.78855934838509
 21
-401.13407159877261
 31
0.0
  0
LINE
  5
554
  8
01
 10
954.78854934838546
 20
-398.23405159877262
 30
0.0
 11
955.58855934838618
 21
-399.0340715987723
 31
0.0
  0
LINE
  5
555
  8
01
 10
954.78855934838532
 20
-398.23408159877272
 30
0.0
 11
954.78855934838532
 21
-405.73408159877272
 31
0.0
  0
LINE
  5
556
  8
01
 10
953.1885493483851
 20
-405.73408159877272
 30
0.0
 11
954.78855934838532
 21
-405.73408159877272
 31
0.0
  0
LINE
  5
557
  8
01
 10
955.58855934838618
 20
-399.0340715987723
 30
0.0
 11
955.58855934838618
 21
-402.7340815987726
 31
0.0
  0
LINE
  5
558
  8
01
 10
953.1885493483851
 20
-373.23408159877272
 30
0.0
 11
953.1885493483851
 21
-413.23408159877272
 31
0.0
  0
LINE
  5
559
  8
01
 10
961.78855934838509
 20
-385.33405159877202
 30
0.0
 11
961.78855934838509
 21
-402.7340815987726
 31
0.0
  0
LINE
  5
55A
  8
01
 10
956.38854934838594
 20
-388.23408159877272
 30
0.0
 11
956.38854934838594
 21
-398.23408159877272
 31
0.0
  0
LINE
  5
55B
  8
01
 10
954.78855934838532
 20
-388.23408159877272
 30
0.0
 11
954.78855934838532
 21
-398.23408159877272
 31
0.0
  0
ARC
  5
55C
  8
01
 10
985.85804934838507
 20
-423.33516159877217
 30
0.0
 40
50.0
 50
130.7976899999974
 51
150.85500000002
  0
LINE
  5
55E
  8
01
 10
985.54989789461706
 20
-427.73411259877139
 30
0.0
 11
1001.172534506068
 21
-427.73411259877139
 31
0.0
  0
LINE
  5
55F
  8
01
 10
1021.588549348386
 20
-385.33405159877202
 30
0.0
 11
1021.588549348386
 21
-402.7340815987726
 31
0.0
  0
LINE
  5
560
  8
01
 10
1023.188549348385
 20
-383.73408159877272
 30
0.0
 11
1023.188549348385
 21
-402.7340815987726
 31
0.0
  0
LINE
  5
562
  8
01
 10
985.54989789461706
 20
-358.73405059877399
 30
0.0
 11
1001.172534506068
 21
-358.73405059877399
 31
0.0
  0
POINT
  5
568
  8
01
 10
854.18766916632455
 20
-663.23408159774408
 30
0.0
  0
LINE
  5
569
  8
01
 10
854.18766916632455
 20
-688.23408159774385
 30
0.0
 11
854.18766916632455
 21
-638.2341815977444
 31
0.0
  0
LINE
  5
92B
  8
01
 10
720.1876731663242
 20
-699.23408159774397
 30
0.0
 11
706.18767316632409
 21
-699.23408159774397
 31
0.0
  0
LINE
  5
92C
  8
01
 10
720.1876731663242
 20
-585.23408159774408
 30
0.0
 11
706.18767316632409
 21
-585.23408159774408
 31
0.0
  0
LINE
  5
92E
  8
01
 10
840.68766916632455
 20
-585.23408159774408
 30
0.0
 11
827.68766916632467
 21
-585.23408159774408
 31
0.0
  0
LINE
  5
92F
  8
01
 10
834.18766916632455
 20
-578.73408159774397
 30
0.0
 11
834.18766916632455
 21
-591.73408159774397
 31
0.0
  0
LINE
  5
931
  8
01
 10
840.68766916632455
 20
-699.23408159774397
 30
0.0
 11
827.68766916632467
 21
-699.23408159774397
 31
0.0
  0
LINE
  5
932
  8
01
 10
834.18766916632455
 20
-692.73408159774408
 30
0.0
 11
834.18766916632455
 21
-705.73408159774408
 31
0.0
  0
LINE
  5
96B
  8
01
 10
694.1876731663242
 20
-663.23408159774408
 30
0.0
 11
634.1876731663242
 21
-663.23408159774408
 31
0.0
  0
LINE
  5
96C
  8
01
 10
664.18767316632409
 20
-633.23408159774397
 30
0.0
 11
664.18767316632409
 21
-693.23408159774408
 31
0.0
  0
LINE
  5
96E
  8
01
 10
974.18766516632502
 20
-663.23408159774419
 30
0.0
 11
1034.1876651663249
 21
-663.23408159774419
 31
0.0
  0
LINE
  5
96F
  8
01
 10
1004.187665166325
 20
-633.23408159774419
 30
0.0
 11
1004.187665166325
 21
-693.23408159774419
 31
0.0
  0
POINT
  5
21C1
  8
01
 10
799.68766916632455
 20
-663.23408159774419
 30
0.0
 50
180.0
  0
CIRCLE
  5
21CE
  8
01
 10
799.68766916632455
 20
-663.23408159774419
 30
0.0
 40
2.5
  0
POINT
  5
21D7
  8
01
 10
868.68766916632467
 20
-663.23408159774419
 30
0.0
  0
LINE
  5
21D8
  8
01
 10
868.28766915632468
 20
-664.98408159774419
 30
0.0
 11
868.28766915632468
 21
-664.13408157774404
 31
0.0
  0
LINE
  5
21D9
  8
01
 10
869.08766917632465
 20
-664.98408159774419
 30
0.0
 11
869.08766917632465
 21
-664.13408157774404
 31
0.0
  0
LINE
  5
21DA
  8
01
 10
867.78766918632482
 20
-663.63408160774406
 30
0.0
 11
866.93766916632467
 21
-663.63408160774406
 31
0.0
  0
LINE
  5
21DB
  8
01
 10
867.78766918632482
 20
-662.83408158774421
 30
0.0
 11
866.93766916632467
 21
-662.83408158774421
 31
0.0
  0
LINE
  5
21DC
  8
01
 10
866.93766916632467
 20
-663.63408160774406
 30
0.0
 11
866.93766916632467
 21
-662.83408158774421
 31
0.0
  0
LINE
  5
21DD
  8
01
 10
869.08766917632465
 20
-664.98408159774419
 30
0.0
 11
868.28766915632468
 21
-664.98408159774419
 31
0.0
  0
LINE
  5
21DE
  8
01
 10
869.08766917632465
 20
-661.48408159774419
 30
0.0
 11
869.08766917632465
 21
-662.33408161774435
 31
0.0
  0
LINE
  5
21DF
  8
01
 10
868.28766915632468
 20
-661.48408159774419
 30
0.0
 11
868.28766915632468
 21
-662.33408161774435
 31
0.0
  0
LINE
  5
21E0
  8
01
 10
869.58766914632452
 20
-662.83408158774421
 30
0.0
 11
870.43766916632467
 21
-662.83408158774421
 31
0.0
  0
LINE
  5
21E1
  8
01
 10
869.58766914632452
 20
-663.63408160774406
 30
0.0
 11
870.43766916632467
 21
-663.63408160774406
 31
0.0
  0
LINE
  5
21E2
  8
01
 10
870.43766916632467
 20
-662.83408158774421
 30
0.0
 11
870.43766916632467
 21
-663.63408160774406
 31
0.0
  0
LINE
  5
21E3
  8
01
 10
868.28766915632468
 20
-661.48408159774419
 30
0.0
 11
869.08766917632465
 21
-661.48408159774419
 31
0.0
  0
CIRCLE
  5
21E4
  8
01
 10
868.68766916632467
 20
-663.23408159774419
 30
0.0
 40
2.5
  0
ARC
  5
21E5
  8
01
 10
869.58766914632452
 20
-662.33408161774435
 30
0.0
 40
0.5
 50
179.9999899999998
 51
270.0
  0
ARC
  5
21E6
  8
01
 10
869.58766914632452
 20
-664.13408157774404
 30
0.0
 40
0.5
 50
90.000003000000945
 51
180.0000100000002
  0
ARC
  5
21E7
  8
01
 10
867.78766918632482
 20
-664.13408157774404
 30
0.0
 40
0.5
 50
0.0
 51
90.000003000000945
  0
ARC
  5
21E8
  8
01
 10
867.78766918632482
 20
-662.33408161774435
 30
0.0
 40
0.5
 50
270.0
 51
0.0
  0
LINE
  5
4DBE
  8
01
 10
649.18768516632554
 20
-418.73408159774408
 30
0.0
 11
806.68768516632565
 21
-418.73408159774488
 31
0.0
  0
TEXT
  5
4DBF
  8
01
 10
650.88768516632592
 20
-416.48408159774408
 30
0.0
 40
6.0
  1
表面処理：脚部
 72
     1
 11
675.2876851663259
 21
-416.48408159774408
 31
0.0
  0
LINE
  5
4DC0
  8
01
 10
649.18768516632554
 20
-408.23408159774419
 30
0.0
 11
806.68768516632565
 21
-408.23408159774419
 31
0.0
  0
TEXT
  5
4DC1
  8
01
 10
770.28768516632579
 20
-416.48408159774408
 30
0.0
 40
6.0
  1
コード
 72
     1
 11
780.2876851663259
 21
-416.48408159774408
 31
0.0
  0
TEXT
  5
4DC2
  8
01
 10
703.38768516632592
 20
-416.48408159774408
 30
0.0
 40
6.0
  1
表面処理：握り
 72
     1
 11
727.7876851663259
 21
-416.48408159774408
 31
0.0
  0
LINE
  5
4DC3
  8
01
 10
649.18768516632554
 20
-450.23408159774328
 30
0.0
 11
806.68768516632565
 21
-450.23408159774402
 31
0.0
  0
TEXT
  5
4DC4
  8
01
 10
703.38768516632683
 20
-427.30561707321817
 30
0.0
 40
6.0
  1
ライトブラウン
 72
     1
 11
727.7876851663267
 21
-427.30561707321817
 31
0.0
  0
TEXT
  5
4DC5
  8
01
 10
658.08768516632585
 20
-437.45092412772129
 30
0.0
 40
6.0
  1
本金メッキ
 72
     1
 11
675.2876851663259
 21
-437.45092412772129
 31
0.0
  0
LINE
  5
4DC6
  8
01
 10
701.68768516632554
 20
-408.23408159774419
 30
0.0
 11
701.68768516632463
 21
-481.73408159774249
 31
0.0
  0
LINE
  5
4DC7
  8
01
 10
754.18768516632463
 20
-408.23408159774419
 30
0.0
 11
754.18768516633008
 21
-481.73408159774289
 31
0.0
  0
LINE
  5
4DC8
  8
01
 10
806.68768516632565
 20
-408.23408159774419
 30
0.0
 11
806.68768516632474
 21
-481.73408159774323
 31
0.0
  0
LINE
  5
4DD2
  8
01
 10
649.18768516632463
 20
-481.73408159774237
 30
0.0
 11
649.18768516632463
 21
-408.23408159774419
 31
0.0
  0
LINE
  5
4DD7
  8
01
 10
701.68768516632554
 20
-429.23408159774391
 30
0.0
 11
806.68768516632565
 21
-429.23408159774482
 31
0.0
  0
LINE
  5
4DDA
  8
01
 10
701.68768516632554
 20
-439.73408159774402
 30
0.0
 11
806.68768516632565
 21
-439.73408159774482
 31
0.0
  0
LINE
  5
4DDB
  8
01
 10
649.18768516632554
 20
-481.73408159774237
 30
0.0
 11
806.68768516632565
 21
-481.73408159774323
 31
0.0
  0
TEXT
  5
4DDD
  8
01
 10
661.68768516632576
 20
-468.9509241277205
 30
0.0
 40
6.0
  1
クローム
 72
     1
 11
675.2876851663259
 21
-468.9509241277205
 31
0.0
  0
LINE
  5
4DE1
  8
01
 10
701.68768516632554
 20
-460.734081597743
 30
0.0
 11
806.68768516632565
 21
-460.73408159774402
 31
0.0
  0
LINE
  5
4DE4
  8
01
 10
701.68768516632554
 20
-471.234081597743
 30
0.0
 11
806.68768516632565
 21
-471.23408159774402
 31
0.0
  0
TEXT
  5
4DE7
  8
01
 10
755.68768516632667
 20
-427.30561707321891
 30
0.0
 40
6.0
  1
1-KSC-G1-LW
 41
0.7
 72
     1
 11
780.28768516632681
 21
-427.30561707321891
 31
0.0
  0
TEXT
  5
4DE8
  8
01
 10
755.68768516632667
 20
-437.80561707321903
 30
0.0
 40
6.0
  1
1-KSC-G2-LW
 41
0.7
 72
     1
 11
780.28768516632681
 21
-437.80561707321903
 31
0.0
  0
TEXT
  5
4DE9
  8
01
 10
755.68768516632667
 20
-448.30561707321891
 30
0.0
 40
6.0
  1
1-KSC-G3-LW
 41
0.7
 72
     1
 11
780.28768516632681
 21
-448.30561707321891
 31
0.0
  0
TEXT
  5
4DEA
  8
01
 10
755.68768516632576
 20
-458.80561707321812
 30
0.0
 40
6.0
  1
1-KSC-C1-LW
 41
0.7
 72
     1
 11
780.2876851663259
 21
-458.80561707321812
 31
0.0
  0
TEXT
  5
4DEB
  8
01
 10
755.68768516632576
 20
-469.30561707321812
 30
0.0
 40
6.0
  1
1-KSC-C2-LW
 41
0.7
 72
     1
 11
780.2876851663259
 21
-469.30561707321812
 31
0.0
  0
TEXT
  5
4DEC
  8
01
 10
755.68768516632576
 20
-479.80561707321812
 30
0.0
 40
6.0
  1
1-KSC-C3-LW
 41
0.7
 72
     1
 11
780.2876851663259
 21
-479.80561707321812
 31
0.0
  0
LINE
  5
5977
  8
01
 10
1004.18778150607
 20
-343.23408159877272
 30
0.0
 11
1004.18778150607
 21
-378.23408159877249
 31
0.0
  0
LINE
  5
5978
  8
01
 10
1004.18778150607
 20
-408.23408159877272
 30
0.0
 11
1004.18778150607
 21
-443.23408159877272
 31
0.0
  0
LINE
  5
5979
  8
01
 10
784.18766916632455
 20
-663.23408159774419
 30
0.0
 11
819.18766916632455
 21
-663.23408159774419
 31
0.0
  0
LINE
  5
597A
  8
01
 10
849.18766916632467
 20
-663.23408159774419
 30
0.0
 11
884.18766916632455
 21
-663.23408159774419
 31
0.0
  0
LINE
  5
A5D6
  8
01
 10
953.1885493483851
 20
-413.23408159877272
 30
0.0
 11
1106.942929503417
 21
-413.23408159877272
 31
0.0
  0
LINE
  5
A5D7
  8
01
 10
953.1885493483851
 20
-373.23408159877272
 30
0.0
 11
1106.942929503417
 21
-373.23408159877272
 31
0.0
  0
TEXT
  5
A62A
  8
01
 10
710.58768516632404
 20
-437.20045201509993
 30
0.0
 40
6.0
  1
ミディアム
 72
     1
 11
727.78768516632408
 21
-437.20045201509993
 31
0.0
  0
TEXT
  5
A62B
  8
01
 10
703.3876851663241
 20
-447.70045201509981
 30
0.0
 40
6.0
  1
ダークブラウン
 72
     1
 11
727.78768516632408
 21
-447.70045201509981
 31
0.0
  0
ARC
  5
C3CB
  8
01
 10
1004.187665166325
 20
-663.23408159774419
 30
0.0
 40
25.0
 50
21.100196024086781
 51
338.89980397591319
  0
LINE
  5
C3D0
  8
01
 10
854.18766916632455
 20
-638.23408159774408
 30
0.0
 11
854.18766916632455
 21
-688.23408159774408
 31
0.0
  0
LINE
  5
C3D1
  8
01
 10
862.68766916632455
 20
-687.73408159774397
 30
0.0
 11
862.68766916632455
 21
-638.73408159774408
 31
0.0
  0
LINE
  5
C3D2
  8
01
 10
854.18766916632455
 20
-688.23408159774408
 30
0.0
 11
862.18766916632455
 21
-688.23408159774408
 31
0.0
  0
LINE
  5
C3D4
  8
01
 10
854.18766916632455
 20
-638.23408159774408
 30
0.0
 11
862.18766916632455
 21
-638.23408159774408
 31
0.0
  0
LINE
  5
C3DE
  8
01
 10
914.18766916632467
 20
-652.23408159774397
 30
0.0
 11
863.18766916632467
 21
-652.23408159774397
 31
0.0
  0
LINE
  5
C3DF
  8
01
 10
863.18766916632467
 20
-670.98408159774397
 30
0.0
 11
863.18766916632467
 21
-652.23408159774397
 31
0.0
  0
LINE
  5
C3E0
  8
01
 10
914.18766916632467
 20
-674.23408159774419
 30
0.0
 11
863.18766916632467
 21
-674.23408159774397
 31
0.0
  0
LINE
  5
C3E1
  8
01
 10
863.18766916632467
 20
-674.23408159774397
 30
0.0
 11
863.18766916632467
 21
-670.98408159774397
 31
0.0
  0
LINE
  5
C3E2
  8
01
 10
915.18766916632467
 20
-673.23408159774397
 30
0.0
 11
915.18766916632467
 21
-653.23408159774397
 31
0.0
  0
ARC
  5
C3E3
  8
01
 10
914.18766916632467
 20
-653.23408159774408
 30
0.0
 40
1.0
 50
0.0
 51
90.0
  0
ARC
  5
C3E4
  8
01
 10
914.18766916632467
 20
-673.23408159774408
 30
0.0
 40
1.0
 50
270.0
 51
0.0
  0
LINE
  5
C3E5
  8
01
 10
1029.1876651663249
 20
-672.23408159774419
 30
0.0
 11
1029.1876651663249
 21
-654.23408159774419
 31
0.0
  0
LINE
  5
C3E6
  8
01
 10
1010.512220486662
 20
-654.23408159774431
 30
0.0
 11
1029.1876651663249
 21
-654.23408159774419
 31
0.0
  0
LINE
  5
C3E7
  8
01
 10
1010.512220486662
 20
-672.23408159774419
 30
0.0
 11
1029.1876651663249
 21
-672.23408159774419
 31
0.0
  0
LINE
  5
C3E8
  8
01
 10
1129.1876651663249
 20
-653.23408159774408
 30
0.0
 11
1129.1876651663249
 21
-673.23408159774408
 31
0.0
  0
LINE
  5
C3E9
  8
01
 10
1029.1876651663249
 20
-673.23408159774408
 30
0.0
 11
1029.1876651663249
 21
-653.23408159774408
 31
0.0
  0
LINE
  5
C3EA
  8
01
 10
1030.1876651663249
 20
-652.23408159774408
 30
0.0
 11
1128.1876651663249
 21
-652.23408159774408
 31
0.0
  0
ARC
  5
C3EB
  8
01
 10
1030.1876651663249
 20
-653.23408159774408
 30
0.0
 40
1.0
 50
90.0
 51
180.0
  0
ARC
  5
C3EC
  8
01
 10
1128.1876651663249
 20
-653.23408159774408
 30
0.0
 40
1.0
 50
0.0
 51
90.0
  0
LINE
  5
C3ED
  8
01
 10
1030.1876651663249
 20
-674.23408159774419
 30
0.0
 11
1128.1876651663249
 21
-674.23408159774419
 31
0.0
  0
ARC
  5
C3EE
  8
01
 10
1030.1876651663249
 20
-673.23408159774408
 30
0.0
 40
1.0
 50
180.0
 51
270.0
  0
ARC
  5
C3EF
  8
01
 10
1128.1876651663249
 20
-673.23408159774408
 30
0.0
 40
1.0
 50
270.0
 51
0.0
  0
CIRCLE
  5
C3F0
  8
01
 10
1004.187665166325
 20
-663.23408159774419
 30
0.0
 40
11.0
  0
LINE
  5
C78A
  8
01
 10
979.68778150606977
 20
-421.73408159877272
 30
0.0
 11
1028.68778150607
 21
-421.73408159877272
 31
0.0
  0
LINE
  5
C78B
  8
01
 10
979.18778150606965
 20
-413.23408159877272
 30
0.0
 11
979.18778150606988
 21
-421.23408159877272
 31
0.0
  0
LINE
  5
C78D
  8
01
 10
1029.1877815060691
 20
-413.23408159877272
 30
0.0
 11
1029.1877815060691
 21
-421.23408159877272
 31
0.0
  0
LINE
  5
C78F
  8
01
 10
979.18778150606965
 20
-413.23408159877272
 30
0.0
 11
1029.1877815060691
 21
-413.23408159877272
 31
0.0
  0
LINE
  5
C790
  8
01
 10
993.18778150606977
 20
-473.2340815987726
 30
0.0
 11
993.18778150606977
 21
-422.23408159877272
 31
0.0
  0
LINE
  5
C791
  8
01
 10
1029.1877815060691
 20
-468.23408159877272
 30
0.0
 11
1029.1877815060691
 21
-450.23408159877272
 31
0.0
  0
LINE
  5
C792
  8
01
 10
1011.93778150607
 20
-422.23408159877272
 30
0.0
 11
993.18778150606977
 21
-422.23408159877272
 31
0.0
  0
LINE
  5
C793
  8
01
 10
1015.68778150607
 20
-450.23408159877278
 30
0.0
 11
1029.1877815060691
 21
-450.23408159877272
 31
0.0
  0
LINE
  5
C794
  8
01
 10
1015.18778150607
 20
-449.73408159877272
 30
0.0
 11
1015.18778150607
 21
-422.23408159877272
 31
0.0
  0
LINE
  5
C795
  8
01
 10
1015.18778150607
 20
-422.23408159877272
 30
0.0
 11
1011.93778150607
 21
-422.23408159877272
 31
0.0
  0
ARC
  5
C796
  8
01
 10
1015.68778150607
 20
-449.73408159877272
 30
0.0
 40
0.5
 50
180.0
 51
270.0
  0
LINE
  5
C797
  8
01
 10
1014.18778150607
 20
-474.23408159877272
 30
0.0
 11
994.18778150606965
 21
-474.23408159877272
 31
0.0
  0
ARC
  5
C798
  8
01
 10
994.18778150606965
 20
-473.2340815987726
 30
0.0
 40
1.0
 50
180.0
 51
270.0
  0
LINE
  5
C799
  8
01
 10
1015.68778150607
 20
-468.23408159877272
 30
0.0
 11
1029.1877815060691
 21
-468.23408159877272
 31
0.0
  0
ARC
  5
C79A
  8
01
 10
1015.68778150607
 20
-468.73408159877272
 30
0.0
 40
0.5
 50
90.0
 51
180.0
  0
LINE
  5
C79B
  8
01
 10
1015.18778150607
 20
-473.2340815987726
 30
0.0
 11
1015.18778150607
 21
-468.73408159877272
 31
0.0
  0
ARC
  5
C79C
  8
01
 10
1014.18778150607
 20
-473.2340815987726
 30
0.0
 40
1.0
 50
270.0
 51
0.0
  0
LINE
  5
C79D
  8
01
 10
1129.18778150607
 20
-449.23408159877272
 30
0.0
 11
1129.18778150607
 21
-469.2340815987726
 31
0.0
  0
LINE
  5
C79E
  8
01
 10
1029.1877815060691
 20
-469.2340815987726
 30
0.0
 11
1029.1877815060691
 21
-449.23408159877272
 31
0.0
  0
LINE
  5
C79F
  8
01
 10
1030.18778150607
 20
-448.2340815987726
 30
0.0
 11
1128.18778150607
 21
-448.2340815987726
 31
0.0
  0
ARC
  5
C7A0
  8
01
 10
1030.18778150607
 20
-449.23408159877272
 30
0.0
 40
1.0
 50
90.0
 51
180.0
  0
ARC
  5
C7A1
  8
01
 10
1128.18778150607
 20
-449.23408159877272
 30
0.0
 40
1.0
 50
0.0
 51
90.0
  0
LINE
  5
C7A2
  8
01
 10
1030.18778150607
 20
-470.23408159877272
 30
0.0
 11
1128.18778150607
 21
-470.23408159877272
 31
0.0
  0
ARC
  5
C7A3
  8
01
 10
1030.18778150607
 20
-469.2340815987726
 30
0.0
 40
1.0
 50
180.0
 51
270.0
  0
ARC
  5
C7A4
  8
01
 10
1128.18778150607
 20
-469.2340815987726
 30
0.0
 40
1.0
 50
270.0
 51
0.0
  0
ARC
  5
C7A5
  8
01
 10
1021.512336826406
 20
-459.23408159877278
 30
0.0
 40
10.999999999999959
 50
125.0968012276096
 51
234.9031987723904
  0
LINE
  5
C7FF
  8
01
 10
979.68778150606977
 20
-364.73408159877272
 30
0.0
 11
1028.68778150607
 21
-364.73408159877272
 31
0.0
  0
LINE
  5
C800
  8
01
 10
979.18778150606965
 20
-373.23408159877272
 30
0.0
 11
979.18778150606988
 21
-365.23408159877272
 31
0.0
  0
LINE
  5
C802
  8
01
 10
1029.1877815060691
 20
-373.23408159877272
 30
0.0
 11
1029.1877815060691
 21
-365.23408159877272
 31
0.0
  0
LINE
  5
C804
  8
01
 10
979.18778150606965
 20
-373.23408159877272
 30
0.0
 11
1029.1877815060691
 21
-373.23408159877272
 31
0.0
  0
LINE
  5
C805
  8
01
 10
993.18778150606977
 20
-313.23408159877272
 30
0.0
 11
993.18778150606977
 21
-364.23408159877272
 31
0.0
  0
LINE
  5
C806
  8
01
 10
1029.1877815060691
 20
-318.23408159877272
 30
0.0
 11
1029.1877815060691
 21
-336.23408159877272
 31
0.0
  0
LINE
  5
C807
  8
01
 10
1011.93778150607
 20
-364.23408159877272
 30
0.0
 11
993.18778150606977
 21
-364.23408159877272
 31
0.0
  0
LINE
  5
C808
  8
01
 10
1015.68778150607
 20
-336.23408159877272
 30
0.0
 11
1029.1877815060691
 21
-336.23408159877272
 31
0.0
  0
LINE
  5
C809
  8
01
 10
1015.18778150607
 20
-336.73408159877272
 30
0.0
 11
1015.18778150607
 21
-364.23408159877272
 31
0.0
  0
LINE
  5
C80A
  8
01
 10
1015.18778150607
 20
-364.23408159877272
 30
0.0
 11
1011.93778150607
 21
-364.23408159877272
 31
0.0
  0
ARC
  5
C80B
  8
01
 10
1015.68778150607
 20
-336.73408159877272
 30
0.0
 40
0.5
 50
90.000000000000028
 51
180.0
  0
LINE
  5
C80C
  8
01
 10
1014.18778150607
 20
-312.23408159877272
 30
0.0
 11
994.18778150606965
 21
-312.23408159877272
 31
0.0
  0
ARC
  5
C80D
  8
01
 10
994.18778150606965
 20
-313.23408159877272
 30
0.0
 40
1.0
 50
90.000000000000028
 51
180.0
  0
LINE
  5
C80E
  8
01
 10
1015.68778150607
 20
-318.23408159877272
 30
0.0
 11
1029.1877815060691
 21
-318.23408159877272
 31
0.0
  0
ARC
  5
C80F
  8
01
 10
1015.68778150607
 20
-317.73408159877272
 30
0.0
 40
0.5
 50
180.0
 51
270.0
  0
LINE
  5
C810
  8
01
 10
1015.18778150607
 20
-313.23408159877272
 30
0.0
 11
1015.18778150607
 21
-317.73408159877272
 31
0.0
  0
ARC
  5
C811
  8
01
 10
1014.18778150607
 20
-313.23408159877272
 30
0.0
 40
1.0
 50
0.0
 51
90.000000000000028
  0
LINE
  5
C812
  8
01
 10
1129.18778150607
 20
-337.23408159877272
 30
0.0
 11
1129.18778150607
 21
-317.23408159877272
 31
0.0
  0
LINE
  5
C813
  8
01
 10
1029.1877815060691
 20
-317.23408159877272
 30
0.0
 11
1029.1877815060691
 21
-337.23408159877272
 31
0.0
  0
LINE
  5
C814
  8
01
 10
1030.18778150607
 20
-338.23408159877272
 30
0.0
 11
1128.18778150607
 21
-338.23408159877272
 31
0.0
  0
ARC
  5
C815
  8
01
 10
1030.18778150607
 20
-337.23408159877272
 30
0.0
 40
1.0
 50
180.0
 51
270.0
  0
ARC
  5
C816
  8
01
 10
1128.18778150607
 20
-337.23408159877272
 30
0.0
 40
1.0
 50
270.0
 51
0.0
  0
LINE
  5
C817
  8
01
 10
1030.18778150607
 20
-316.23408159877272
 30
0.0
 11
1128.18778150607
 21
-316.23408159877272
 31
0.0
  0
ARC
  5
C818
  8
01
 10
1030.18778150607
 20
-317.23408159877272
 30
0.0
 40
1.0
 50
90.000000000000028
 51
180.0
  0
ARC
  5
C819
  8
01
 10
1128.18778150607
 20
-317.23408159877272
 30
0.0
 40
1.0
 50
0.0
 51
90.000000000000028
  0
ARC
  5
C81A
  8
01
 10
1021.512336826406
 20
-327.2340815987726
 30
0.0
 40
10.999999999999959
 50
125.0968012276096
 51
234.9031987723904
  0
ARC
  5
C839
  8
01
 10
664.18767316632409
 20
-663.23408159774419
 30
0.0
 40
25.0
 50
201.10019602408681
 51
158.89980397591319
  0
LINE
  5
C83A
  8
01
 10
639.18767316632409
 20
-672.23408159774419
 30
0.0
 11
639.18767316632409
 21
-654.23408159774419
 31
0.0
  0
LINE
  5
C83B
  8
01
 10
657.86311784598729
 20
-654.23408159774431
 30
0.0
 11
639.18767316632409
 21
-654.23408159774419
 31
0.0
  0
LINE
  5
C83C
  8
01
 10
657.86311784598729
 20
-672.23408159774419
 30
0.0
 11
639.18767316632409
 21
-672.23408159774419
 31
0.0
  0
LINE
  5
C83D
  8
01
 10
539.18767316632409
 20
-653.23408159774408
 30
0.0
 11
539.18767316632409
 21
-673.23408159774408
 31
0.0
  0
LINE
  5
C83E
  8
01
 10
639.18767316632409
 20
-673.23408159774408
 30
0.0
 11
639.18767316632409
 21
-653.23408159774408
 31
0.0
  0
LINE
  5
C83F
  8
01
 10
638.1876731663242
 20
-652.23408159774408
 30
0.0
 11
540.1876731663242
 21
-652.23408159774408
 31
0.0
  0
ARC
  5
C840
  8
01
 10
638.1876731663242
 20
-653.23408159774408
 30
0.0
 40
1.0
 50
0.000000000000007
 51
90.0
  0
ARC
  5
C841
  8
01
 10
540.1876731663242
 20
-653.23408159774408
 30
0.0
 40
1.0
 50
90.0
 51
180.0
  0
LINE
  5
C842
  8
01
 10
638.1876731663242
 20
-674.23408159774419
 30
0.0
 11
540.1876731663242
 21
-674.23408159774419
 31
0.0
  0
ARC
  5
C843
  8
01
 10
638.1876731663242
 20
-673.23408159774408
 30
0.0
 40
1.0
 50
270.0
 51
0.000000000000007
  0
ARC
  5
C844
  8
01
 10
540.1876731663242
 20
-673.23408159774408
 30
0.0
 40
1.0
 50
180.0
 51
270.0
  0
CIRCLE
  5
C845
  8
01
 10
664.18767316632409
 20
-663.23408159774419
 30
0.0
 40
11.0
  0
LINE
  5
C847
  8
01
 10
1022.187665166325
 20
-645.88473002484682
 30
0.0
 11
1022.187665166325
 21
-679.23408159774397
 31
0.0
  0
LINE
  5
C848
  8
01
 10
984.97829245402636
 20
-679.23408159774397
 30
0.0
 11
1022.187665166325
 21
-679.23408159774397
 31
0.0
  0
TEXT
  5
C9C2
  8
01
 10
703.38768516632649
 20
-458.80561707321732
 30
0.0
 40
6.0
  1
ライトブラウン
 72
     1
 11
727.78768516632647
 21
-458.80561707321732
 31
0.0
  0
TEXT
  5
C9C3
  8
01
 10
710.58768516632369
 20
-468.70045201509879
 30
0.0
 40
6.0
  1
ミディアム
 72
     1
 11
727.78768516632374
 21
-468.70045201509879
 31
0.0
  0
TEXT
  5
C9C4
  8
01
 10
703.38768516632365
 20
-479.2004520150989
 30
0.0
 40
6.0
  1
ダークブラウン
 72
     1
 11
727.78768516632374
 21
-479.2004520150989
 31
0.0
  0
LINE
  5
CE87
  8
01
 10
814.18766916632467
 20
-638.23408159774408
 30
0.0
 11
814.18766916632467
 21
-688.23408159774408
 31
0.0
  0
LINE
  5
CE88
  8
01
 10
805.68766916632444
 20
-687.73408159774397
 30
0.0
 11
805.68766916632455
 21
-638.73408159774408
 31
0.0
  0
LINE
  5
CE89
  8
01
 10
814.18766916632467
 20
-688.23408159774408
 30
0.0
 11
806.18766916632455
 21
-688.23408159774408
 31
0.0
  0
LINE
  5
CE8B
  8
01
 10
814.18766916632467
 20
-638.23408159774408
 30
0.0
 11
806.18766916632467
 21
-638.23408159774408
 31
0.0
  0
LINE
  5
CE8D
  8
01
 10
754.18766916632455
 20
-652.23408159774397
 30
0.0
 11
805.18766916632467
 21
-652.23408159774397
 31
0.0
  0
LINE
  5
CE8E
  8
01
 10
805.18766916632467
 20
-670.98408159774397
 30
0.0
 11
805.18766916632467
 21
-652.23408159774397
 31
0.0
  0
LINE
  5
CE8F
  8
01
 10
754.18766916632455
 20
-674.23408159774419
 30
0.0
 11
805.18766916632467
 21
-674.23408159774397
 31
0.0
  0
LINE
  5
CE90
  8
01
 10
805.18766916632467
 20
-674.23408159774397
 30
0.0
 11
805.18766916632467
 21
-670.98408159774397
 31
0.0
  0
LINE
  5
CE91
  8
01
 10
753.18766916632467
 20
-673.23408159774397
 30
0.0
 11
753.18766916632467
 21
-653.23408159774397
 31
0.0
  0
ARC
  5
CE92
  8
01
 10
754.18766916632455
 20
-653.23408159774408
 30
0.0
 40
1.0
 50
90.0
 51
180.0
  0
ARC
  5
CE93
  8
01
 10
754.18766916632455
 20
-673.23408159774408
 30
0.0
 40
1.0
 50
180.0
 51
270.0
  0
ARC
  5
CF87
  8
01
 10
979.68778150606977
 20
-365.23408159877272
 30
0.0
 40
0.5
 50
90.0
 51
180.0
  0
ARC
  5
CF88
  8
01
 10
1028.68778150607
 20
-365.23408159877272
 30
0.0
 40
0.5
 50
0.0
 51
90.0
  0
ARC
  5
CF89
  8
01
 10
979.68778150606977
 20
-421.23408159877272
 30
0.0
 40
0.5
 50
180.0
 51
270.0
  0
ARC
  5
CF8A
  8
01
 10
1028.68778150607
 20
-421.23408159877272
 30
0.0
 40
0.5
 50
270.0
 51
0.0
  0
ARC
  5
CF8B
  8
01
 10
806.18766916632467
 20
-638.73408159774408
 30
0.0
 40
0.5
 50
90.0
 51
180.0
  0
ARC
  5
CF8C
  8
01
 10
806.18766916632455
 20
-687.73408159774397
 30
0.0
 40
0.5
 50
180.0
 51
270.0
  0
ARC
  5
CF8D
  8
01
 10
862.18766916632455
 20
-687.73408159774397
 30
0.0
 40
0.5
 50
270.0
 51
0.0
  0
ARC
  5
CF8E
  8
01
 10
862.18766916632455
 20
-638.73408159774408
 30
0.0
 40
0.5
 50
0.0
 51
90.0
  0
LINE
  5
D149
  8
01
 10
646.18768516632463
 20
-604.73408159774419
 30
0.0
 11
646.18768516632463
 21
-645.88479247371515
 31
0.0
  0
LINE
  5
D14B
  8
01
 10
1022.187665166325
 20
-604.73408159774419
 30
0.0
 11
1022.187665166325
 21
-645.88480492373969
 31
0.0
  0
LINE
  5
D14C
  8
01
  6
BYBLOCK
 10
1001.187665166325
 20
-604.73408159774419
 30
0.0
 11
1007.187665166325
 21
-604.73408159774419
 31
0.0
  0
LINE
  5
D14D
  8
01
  6
BYBLOCK
 10
1014.187665166325
 20
-604.73408159774419
 30
0.0
 11
1022.187665166325
 21
-604.73408159774419
 31
0.0
  0
LINE
  5
D14E
  8
01
  6
BYBLOCK
 10
1001.187665166325
 20
-605.7340815977434
 30
0.0
 11
1001.187665166325
 21
-604.73408159774419
 31
0.0
  0
LINE
  5
D14F
  8
01
  6
BYBLOCK
 10
1007.187665166325
 20
-605.73408159774419
 30
0.0
 11
1007.187665166325
 21
-604.73408159774419
 31
0.0
  0
ARC
  5
D150
  8
01
  6
BYBLOCK
 10
997.68766516632479
 20
-605.73408159774419
 30
0.0
 40
3.5
 50
179.99999999998701
 51
0.0000000000130276
  0
ARC
  5
D151
  8
01
  6
BYBLOCK
 10
1010.687665166325
 20
-605.73408159774419
 30
0.0
 40
3.5
 50
180.0
 51
0.0
  0
CIRCLE
  5
D152
  8
01
  6
BYBLOCK
 10
1004.187665166036
 20
-613.23408159803284
 30
0.0
 40
6.0
  0
LINE
  5
D153
  8
01
  6
BYBLOCK
 10
994.18766516632479
 20
-604.73408159774419
 30
0.0
 11
956.18766516632513
 21
-604.73408159774419
 31
0.0
  0
LINE
  5
D154
  8
01
  6
BYBLOCK
 10
994.18766516632456
 20
-605.7340815977434
 30
0.0
 11
994.18766516632479
 21
-604.73408159774419
 31
0.0
  0
LINE
  5
D155
  8
01
  6
BYBLOCK
 10
1014.187665166325
 20
-605.73408159774419
 30
0.0
 11
1014.187665166325
 21
-604.73408159774419
 31
0.0
  0
LINE
  5
D156
  8
01
  6
BYBLOCK
 10
1004.187665166036
 20
-616.78408150471444
 30
0.0
 11
1007.737665072718
 21
-613.23408159803284
 31
0.0
  0
LINE
  5
D157
  8
01
  6
BYBLOCK
 10
1007.737665072718
 20
-613.23408159803284
 30
0.0
 11
1004.187665166036
 21
-609.68408169135137
 31
0.0
  0
LINE
  5
D158
  8
01
  6
BYBLOCK
 10
1000.637665259354
 20
-613.23408159803284
 30
0.0
 11
1004.187665166036
 21
-616.78408150471444
 31
0.0
  0
LINE
  5
D159
  8
01
  6
BYBLOCK
 10
1004.187665166036
 20
-609.68408169135137
 30
0.0
 11
1000.637665259354
 21
-613.23408159803284
 31
0.0
  0
LINE
  5
D15A
  8
01
  6
BYBLOCK
 10
667.18767316632443
 20
-604.73408159774419
 30
0.0
 11
661.1876731663242
 21
-604.73408159774419
 31
0.0
  0
LINE
  5
D15B
  8
01
  6
BYBLOCK
 10
654.1876731663242
 20
-604.73408159774419
 30
0.0
 11
646.18768516632463
 21
-604.73408159774419
 31
0.0
  0
LINE
  5
D15C
  8
01
  6
BYBLOCK
 10
667.1876731663242
 20
-605.7340815977434
 30
0.0
 11
667.18767316632443
 21
-604.73408159774419
 31
0.0
  0
LINE
  5
D15D
  8
01
  6
BYBLOCK
 10
661.1876731663242
 20
-605.73408159774419
 30
0.0
 11
661.1876731663242
 21
-604.73408159774419
 31
0.0
  0
ARC
  5
D15E
  8
01
  6
BYBLOCK
 10
670.68767316632443
 20
-605.73408159774419
 30
0.0
 40
3.5
 50
179.99999999998701
 51
0.0000000000130276
  0
ARC
  5
D15F
  8
01
  6
BYBLOCK
 10
657.6876731663242
 20
-605.73408159774419
 30
0.0
 40
3.5
 50
180.0
 51
0.0
  0
CIRCLE
  5
D160
  8
01
  6
BYBLOCK
 10
664.18767316661297
 20
-613.23408159803284
 30
0.0
 40
6.0
  0
LINE
  5
D161
  8
01
  6
BYBLOCK
 10
674.18767316632443
 20
-604.73408159774419
 30
0.0
 11
712.1876731663242
 21
-604.73408159774419
 31
0.0
  0
LINE
  5
D162
  8
01
  6
BYBLOCK
 10
674.18767316632454
 20
-605.7340815977434
 30
0.0
 11
674.18767316632443
 21
-604.73408159774419
 31
0.0
  0
LINE
  5
D163
  8
01
  6
BYBLOCK
 10
654.1876731663242
 20
-605.73408159774419
 30
0.0
 11
654.1876731663242
 21
-604.73408159774419
 31
0.0
  0
LINE
  5
D164
  8
01
  6
BYBLOCK
 10
664.18767316661297
 20
-616.78408150471444
 30
0.0
 11
660.63767325993149
 21
-613.23408159803284
 31
0.0
  0
LINE
  5
D165
  8
01
  6
BYBLOCK
 10
660.63767325993149
 20
-613.23408159803284
 30
0.0
 11
664.18767316661297
 21
-609.68408169135137
 31
0.0
  0
LINE
  5
D166
  8
01
  6
BYBLOCK
 10
667.73767307329456
 20
-613.23408159803284
 30
0.0
 11
664.18767316661297
 21
-616.78408150471444
 31
0.0
  0
LINE
  5
D167
  8
01
  6
BYBLOCK
 10
664.18767316661297
 20
-609.68408169135137
 30
0.0
 11
667.73767307329456
 21
-613.23408159803284
 31
0.0
  0
LINE
  5
D168
  8
01
  6
BYBLOCK
 10
1010.188549348096
 20
-382.98408159877272
 30
0.0
 11
998.18854934809622
 21
-382.98408159877272
 31
0.0
  0
LINE
  5
D169
  8
01
  6
BYBLOCK
 10
998.18854934809622
 20
-403.48408159877272
 30
0.0
 11
1010.188549348096
 21
-403.48408159877272
 31
0.0
  0
LINE
  5
D16A
  8
01
  6
BYBLOCK
 10
998.18854934809622
 20
-403.48408159877272
 30
0.0
 11
998.18854934809622
 21
-402.73408159877249
 31
0.0
  0
LINE
  5
D16B
  8
01
  6
BYBLOCK
 10
998.18854934809622
 20
-383.73408159877272
 30
0.0
 11
998.18854934809622
 21
-382.98408159877272
 31
0.0
  0
LINE
  5
D16C
  8
01
  6
BYBLOCK
 10
1010.188549348096
 20
-403.48408159877272
 30
0.0
 11
1010.188549348096
 21
-402.73408159877249
 31
0.0
  0
LINE
  5
D16D
  8
01
  6
BYBLOCK
 10
1010.188549348096
 20
-383.73408159877272
 30
0.0
 11
1010.188549348096
 21
-382.98408159877272
 31
0.0
  0
LINE
  5
D16F
  8
01
 10
1015.4995534335779
 20
-613.23408159803284
 30
0.0
 11
992.87577689849468
 21
-613.23408159803284
 31
0.0
  0
LINE
  5
D170
  8
01
 10
1004.187665166036
 20
-601.92219333049115
 30
0.0
 11
1004.187665166036
 21
-624.54596986557465
 31
0.0
  0
LINE
  5
D2BE
  8
01
 10
1010.188549348096
 20
-382.98408159877272
 30
0.0
 11
1045.3489401080981
 21
-382.98408159877272
 31
0.0
  0
LINE
  5
D2BF
  8
01
 10
1010.188549348096
 20
-403.48408159877272
 30
0.0
 11
1045.3489401080981
 21
-403.48408159877272
 31
0.0
  0
LINE
  5
D2C0
  8
01
 10
1044.0489401080979
 20
-385.58408159877268
 30
0.0
 11
1044.0489401080979
 21
-400.8840815987727
 31
0.0
  0
TEXT
  5
D2C4
  8
01
 10
1053.0598844115259
 20
-434.17326706794091
 30
0.0
 40
4.5499999999999989
  1
材質：天然木
  0
TEXT
  5
D2C5
  8
01
 10
1053.0598844115259
 20
-441.75660040127423
 30
0.0
 40
4.5499999999999989
  1
仕上げ：各種仕上げ
  0
SOLID
  5
D2C6
  8
01
 10
1038.262824668238
 20
-456.56400877862251
 30
0.0
 11
1036.245656835406
 21
-458.26071491462972
 31
0.0
 12
1037.6035054980291
 22
-456.00150602937998
 32
0.0
 13
1037.6035054980291
 23
-456.00150602937998
 33
0.0
1001
ACAD
1000
DSTYLE
1002
{
1070
    40
1040
1.3
1002
}
  0
TEXT
  5
D2C8
  8
01
 10
914.58415959267495
 20
-443.6507482654394
 30
0.0
 40
4.5499999999999989
  1
材質：亜鉛ダイキャスト
  0
TEXT
  5
D2C9
  8
01
 10
925.50415959267502
 20
-451.23408159877272
 30
0.0
 40
4.5499999999999989
  1
仕上げ：各種メッキ
  0
SOLID
  5
D2CA
  8
01
 10
1001.610520805609
 20
-432.38806973868282
 30
0.0
 11
1003.928266406386
 21
-431.13274782464748
 31
0.0
 12
1002.142935783176
 22
-433.0719157760139
 32
0.0
 13
1002.142935783176
 23
-433.0719157760139
 33
0.0
1001
ACAD
1000
DSTYLE
1002
{
1070
    40
1040
1.3
1002
}
  0
LINE
  5
D2CC
  8
01
 10
1022.187665166325
 20
-604.73408159774419
 30
0.0
 11
1050.4876651663251
 21
-604.73408159774419
 31
0.0
  0
LINE
  5
D2CD
  8
01
 10
1022.187665166325
 20
-679.23408159774397
 30
0.0
 11
1050.4876651663251
 21
-679.23408159774397
 31
0.0
  0
LINE
  5
D2CE
  8
01
 10
1049.1876651663249
 20
-607.33408159774422
 30
0.0
 11
1049.1876651663249
 21
-676.63408159774394
 31
0.0
  0
LINE
  5
D2D2
  8
01
 10
1128.1876651663249
 20
-652.23408159774408
 30
0.0
 11
1145.48778150607
 21
-652.23408159774408
 31
0.0
  0
LINE
  5
D2D3
  8
01
 10
1128.1876651663249
 20
-674.23408159774419
 30
0.0
 11
1145.48778150607
 21
-674.23408159774419
 31
0.0
  0
LINE
  5
D2D4
  8
01
 10
1144.1877815060709
 20
-654.83408159774422
 30
0.0
 11
1144.1877815060709
 21
-671.63408159774406
 31
0.0
  0
LINE
  5
D2D8
  8
01
 10
993.18778150606977
 20
-473.2340815987726
 30
0.0
 11
993.18778150606977
 21
-500.53408159877267
 31
0.0
  0
LINE
  5
D2D9
  8
01
 10
1129.18778150607
 20
-469.2340815987726
 30
0.0
 11
1129.18778150607
 21
-500.53408159877267
 31
0.0
  0
LINE
  5
D2DA
  8
01
 10
995.78778150606968
 20
-499.23408159877272
 30
0.0
 11
1126.5877815060701
 21
-499.23408159877272
 31
0.0
  0
LINE
  5
D2DE
  8
01
 10
1004.18778150607
 20
-433.02529148562007
 30
0.0
 11
1004.18778150607
 21
-490.53408159877262
 31
0.0
  0
LINE
  5
D2DF
  8
01
 10
1129.18778150607
 20
-469.2340815987726
 30
0.0
 11
1129.18778150607
 21
-490.53408159877262
 31
0.0
  0
LINE
  5
D2E0
  8
01
 10
1006.787781506069
 20
-489.23408159877272
 30
0.0
 11
1126.5877815060701
 21
-489.23408159877272
 31
0.0
  0
LINE
  5
D2E4
  8
01
 10
1104.297688789228
 20
-413.23408159877278
 30
0.0
 11
1155.48778150607
 21
-413.23408159877278
 31
0.0
  0
LINE
  5
D2E5
  8
01
 10
1014.18778150607
 20
-474.23408159877272
 30
0.0
 11
1155.48778150607
 21
-474.23408159877272
 31
0.0
  0
LINE
  5
D2E6
  8
01
 10
1154.1877815060691
 20
-415.8340815987728
 30
0.0
 11
1154.1877815060691
 21
-471.6340815987727
 31
0.0
  0
LINE
  5
D2EA
  8
01
 10
1104.297688789228
 20
-413.23408159877278
 30
0.0
 11
1145.48778150607
 21
-413.23408159877278
 31
0.0
  0
LINE
  5
D2EB
  8
01
 10
1128.18778150607
 20
-448.2340815987726
 30
0.0
 11
1145.48778150607
 21
-448.2340815987726
 31
0.0
  0
LINE
  5
D2EC
  8
01
 10
1144.18778150607
 20
-415.83408159877268
 30
0.0
 11
1144.18778150607
 21
-445.6340815987727
 31
0.0
  0
LINE
  5
D2F0
  8
01
 10
1004.187665166325
 20
-638.23408159774419
 30
0.0
 11
967.88766516632495
 21
-638.23408159774419
 31
0.0
  0
LINE
  5
D2F1
  8
01
 10
1004.187665166325
 20
-688.23408159774328
 30
0.0
 11
967.88766516632495
 21
-688.23408159774328
 31
0.0
  0
LINE
  5
D2F2
  8
01
 10
969.18766516632502
 20
-640.8340815977441
 30
0.0
 11
969.18766516632502
 21
-685.63408159774315
 31
0.0
  0
CIRCLE
  5
D2F6
  8
01
 10
868.68766916632455
 20
-663.23408159774419
 30
0.0
 40
3.0
  0
LINE
  5
D2F7
  8
01
 10
800.98670727200124
 20
-662.48408159774408
 30
0.0
 11
799.68766916632455
 21
-661.73408159774419
 31
0.0
  0
LINE
  5
D2F8
  8
01
 10
799.68766916632455
 20
-661.73408159774419
 30
0.0
 11
798.38863106064787
 21
-662.48408159774408
 31
0.0
  0
LINE
  5
D2F9
  8
01
 10
798.38863106064787
 20
-662.48408159774408
 30
0.0
 11
798.38863106064787
 21
-663.98408159774419
 31
0.0
  0
LINE
  5
D2FA
  8
01
 10
798.38863106064787
 20
-663.98408159774419
 30
0.0
 11
799.68766916632455
 21
-664.73408159774408
 31
0.0
  0
LINE
  5
D2FB
  8
01
 10
799.68766916632455
 20
-664.73408159774408
 30
0.0
 11
800.98670727200124
 21
-663.98408159774419
 31
0.0
  0
LINE
  5
D2FC
  8
01
 10
800.98670727200124
 20
-663.98408159774419
 30
0.0
 11
800.98670727200124
 21
-662.48408159774408
 31
0.0
  0
CIRCLE
  5
D2FD
  8
01
 10
799.68766916632455
 20
-663.23408159774419
 30
0.0
 40
3.0
  0
LINE
  5
D2FE
  8
01
 10
953.18766516632502
 20
-577.23408159774397
 30
0.0
 11
953.18766516632502
 21
-555.93408159774413
 31
0.0
  0
LINE
  5
D2FF
  8
01
 10
1004.187665166325
 20
-632.70371750690708
 30
0.0
 11
1004.187665166325
 21
-555.93408159774413
 31
0.0
  0
LINE
  5
D300
  8
01
 10
955.78766516632493
 20
-557.23408159774397
 30
0.0
 11
1001.587665166325
 21
-557.23408159774397
 31
0.0
  0
LINE
  5
D304
  8
01
 10
1022.187665166325
 20
-605.23408159774408
 30
0.0
 11
1022.187665166325
 21
-545.93408159774413
 31
0.0
  0
LINE
  5
D305
  8
01
 10
953.18766516632502
 20
-577.23408159774397
 30
0.0
 11
953.18766516632502
 21
-545.93408159774413
 31
0.0
  0
LINE
  5
D306
  8
01
 10
1019.587665166325
 20
-547.23408159774408
 30
0.0
 11
955.78766516632493
 21
-547.23408159774408
 31
0.0
  0
LINE
  5
D30A
  8
01
 10
942.18766516632502
 20
-635.23408229587494
 30
0.0
 11
942.18766516632502
 21
-555.93408159774413
 31
0.0
  0
LINE
  5
D30B
  8
01
 10
953.18766516632502
 20
-577.23408159774397
 30
0.0
 11
953.18766516632502
 21
-555.93408159774413
 31
0.0
  0
LINE
  5
D30C
  8
01
 10
944.78766516632504
 20
-557.23408159774397
 30
0.0
 11
950.587665166325
 21
-557.23408159774397
 31
0.0
  0
LINE
  5
D310
  8
01
 10
821.68766916632444
 20
-583.23408159774397
 30
0.0
 11
821.68766916632444
 21
-555.93408159774413
 31
0.0
  0
LINE
  5
D311
  8
01
 10
846.68766916632444
 20
-583.23408159774397
 30
0.0
 11
846.68766916632444
 21
-555.93408159774413
 31
0.0
  0
LINE
  5
D312
  8
01
 10
824.28766916632458
 20
-557.23408159774397
 30
0.0
 11
844.08766916632453
 21
-557.23408159774397
 31
0.0
  0
LINE
  5
D316
  8
01
 10
840.68766916632455
 20
-577.23408159774397
 30
0.0
 11
895.48766916632439
 21
-577.23408159774397
 31
0.0
  0
LINE
  5
D317
  8
01
 10
840.68766916632455
 20
-707.23408159774397
 30
0.0
 11
895.48766916632439
 21
-707.23408159774397
 31
0.0
  0
LINE
  5
D318
  8
01
 10
894.18766916632455
 20
-579.83408159774399
 30
0.0
 11
894.18766916632455
 21
-704.63408159774394
 31
0.0
  0
LINE
  5
D31C
  8
01
 10
840.68766916632455
 20
-585.23408159774408
 30
0.0
 11
879.99126020288111
 21
-585.23408159774408
 31
0.0
  0
LINE
  5
D31D
  8
01
 10
840.68766916632455
 20
-699.23408159774397
 30
0.0
 11
879.99126020288111
 21
-699.23408159774397
 31
0.0
  0
LINE
  5
D31E
  8
01
 10
878.69126020288127
 20
-587.83408159774399
 30
0.0
 11
878.69126020288127
 21
-696.63408159774394
 31
0.0
  0
TEXT
  5
D322
  8
01
 10
877.78126020288153
 20
-631.35369425076237
 30
0.0
 40
4.5499999999999989
  1
114
 50
90.0
  0
LINE
  5
D323
  8
01
  6
BYBLOCK
 10
879.3879280968813
 20
-696.63408159774394
 30
0.0
 11
878.69126020288127
 21
-699.23408159774397
 31
0.0
  0
LINE
  5
D324
  8
01
  6
BYBLOCK
 10
878.69126020288127
 20
-699.23408159774397
 30
0.0
 11
877.99459230888124
 21
-696.63408159774394
 31
0.0
  0
LINE
  5
D325
  8
01
  6
BYBLOCK
 10
878.69126020288127
 20
-699.23408159774397
 30
0.0
 11
878.69126020288127
 21
-696.63408159774394
 31
0.0
  0
LINE
  5
D326
  8
01
  6
BYBLOCK
 10
877.99459230888124
 20
-587.83408159774399
 30
0.0
 11
878.69126020288127
 21
-585.23408159774408
 31
0.0
  0
LINE
  5
D327
  8
01
  6
BYBLOCK
 10
878.69126020288127
 20
-585.23408159774408
 30
0.0
 11
879.3879280968813
 21
-587.83408159774399
 31
0.0
  0
LINE
  5
D328
  8
01
  6
BYBLOCK
 10
878.69126020288127
 20
-585.23408159774408
 30
0.0
 11
878.69126020288127
 21
-587.83408159774399
 31
0.0
  0
TEXT
  5
D329
  8
01
 10
893.27766916632481
 20
-631.24536091742914
 30
0.0
 40
4.5499999999999989
  1
130
 50
90.0
  0
LINE
  5
D32A
  8
01
  6
BYBLOCK
 10
894.88433706032447
 20
-704.63408159774394
 30
0.0
 11
894.18766916632455
 21
-707.23408159774397
 31
0.0
  0
LINE
  5
D32B
  8
01
  6
BYBLOCK
 10
894.18766916632455
 20
-707.23408159774397
 30
0.0
 11
893.49100127232452
 21
-704.63408159774394
 31
0.0
  0
LINE
  5
D32C
  8
01
  6
BYBLOCK
 10
894.18766916632455
 20
-707.23408159774397
 30
0.0
 11
894.18766916632455
 21
-704.63408159774394
 31
0.0
  0
LINE
  5
D32D
  8
01
  6
BYBLOCK
 10
893.49100127232452
 20
-579.83408159774399
 30
0.0
 11
894.18766916632455
 21
-577.23408159774397
 31
0.0
  0
LINE
  5
D32E
  8
01
  6
BYBLOCK
 10
894.18766916632455
 20
-577.23408159774397
 30
0.0
 11
894.88433706032447
 21
-579.83408159774399
 31
0.0
  0
LINE
  5
D32F
  8
01
  6
BYBLOCK
 10
894.18766916632455
 20
-577.23408159774397
 30
0.0
 11
894.18766916632455
 21
-579.83408159774399
 31
0.0
  0
TEXT
  5
D330
  8
01
 10
829.8543358329913
 20
-556.32408159774411
 30
0.0
 40
4.5499999999999989
  1
25
  0
LINE
  5
D331
  8
01
  6
BYBLOCK
 10
844.08766916632453
 20
-556.53741370374405
 30
0.0
 11
846.68766916632444
 21
-557.23408159774397
 31
0.0
  0
LINE
  5
D332
  8
01
  6
BYBLOCK
 10
846.68766916632444
 20
-557.23408159774397
 30
0.0
 11
844.08766916632453
 21
-557.93074949174411
 31
0.0
  0
LINE
  5
D333
  8
01
  6
BYBLOCK
 10
846.68766916632444
 20
-557.23408159774397
 30
0.0
 11
844.08766916632453
 21
-557.23408159774397
 31
0.0
  0
LINE
  5
D334
  8
01
  6
BYBLOCK
 10
824.28766916632458
 20
-557.93074949174411
 30
0.0
 11
821.68766916632444
 21
-557.23408159774397
 31
0.0
  0
LINE
  5
D335
  8
01
  6
BYBLOCK
 10
821.68766916632444
 20
-557.23408159774397
 30
0.0
 11
824.28766916632458
 21
-556.53741370374405
 31
0.0
  0
LINE
  5
D336
  8
01
  6
BYBLOCK
 10
821.68766916632444
 20
-557.23408159774397
 30
0.0
 11
824.28766916632458
 21
-557.23408159774397
 31
0.0
  0
TEXT
  5
D337
  8
01
 10
943.67933183299158
 20
-556.32408159774411
 30
0.0
 40
4.5499999999999989
  1
11
  0
LINE
  5
D338
  8
01
  6
BYBLOCK
 10
950.587665166325
 20
-556.53741370374405
 30
0.0
 11
953.18766516632502
 21
-557.23408159774397
 31
0.0
  0
LINE
  5
D339
  8
01
  6
BYBLOCK
 10
953.18766516632502
 20
-557.23408159774397
 30
0.0
 11
950.587665166325
 21
-557.93074949174411
 31
0.0
  0
LINE
  5
D33A
  8
01
  6
BYBLOCK
 10
953.18766516632502
 20
-557.23408159774397
 30
0.0
 11
950.587665166325
 21
-557.23408159774397
 31
0.0
  0
LINE
  5
D33B
  8
01
  6
BYBLOCK
 10
944.78766516632504
 20
-557.93074949174411
 30
0.0
 11
942.18766516632502
 21
-557.23408159774397
 31
0.0
  0
LINE
  5
D33C
  8
01
  6
BYBLOCK
 10
942.18766516632502
 20
-557.23408159774397
 30
0.0
 11
944.78766516632504
 21
-556.53741370374405
 31
0.0
  0
LINE
  5
D33D
  8
01
  6
BYBLOCK
 10
942.18766516632502
 20
-557.23408159774397
 30
0.0
 11
944.78766516632504
 21
-557.23408159774397
 31
0.0
  0
TEXT
  5
D33E
  8
01
 10
983.35433183299153
 20
-546.32408159774411
 30
0.0
 40
4.5499999999999989
  1
69
  0
LINE
  5
D33F
  8
01
  6
BYBLOCK
 10
955.78766516632493
 20
-547.93074949174411
 30
0.0
 11
953.18766516632502
 21
-547.23408159774408
 31
0.0
  0
LINE
  5
D340
  8
01
  6
BYBLOCK
 10
953.18766516632502
 20
-547.23408159774408
 30
0.0
 11
955.78766516632493
 21
-546.53741370374405
 31
0.0
  0
LINE
  5
D341
  8
01
  6
BYBLOCK
 10
953.18766516632502
 20
-547.23408159774408
 30
0.0
 11
955.78766516632493
 21
-547.23408159774408
 31
0.0
  0
LINE
  5
D342
  8
01
  6
BYBLOCK
 10
1019.587665166325
 20
-546.53741370374405
 30
0.0
 11
1022.187665166325
 21
-547.23408159774408
 31
0.0
  0
LINE
  5
D343
  8
01
  6
BYBLOCK
 10
1022.187665166325
 20
-547.23408159774408
 30
0.0
 11
1019.587665166325
 21
-547.93074949174411
 31
0.0
  0
LINE
  5
D344
  8
01
  6
BYBLOCK
 10
1022.187665166325
 20
-547.23408159774408
 30
0.0
 11
1019.587665166325
 21
-547.23408159774408
 31
0.0
  0
TEXT
  5
D345
  8
01
 10
975.00433183299162
 20
-556.32408159774411
 30
0.0
 40
4.5499999999999989
  1
51
  0
LINE
  5
D346
  8
01
  6
BYBLOCK
 10
1001.587665166325
 20
-556.53741370374405
 30
0.0
 11
1004.187665166325
 21
-557.23408159774397
 31
0.0
  0
LINE
  5
D347
  8
01
  6
BYBLOCK
 10
1004.187665166325
 20
-557.23408159774397
 30
0.0
 11
1001.587665166325
 21
-557.93074949174411
 31
0.0
  0
LINE
  5
D348
  8
01
  6
BYBLOCK
 10
1004.187665166325
 20
-557.23408159774397
 30
0.0
 11
1001.587665166325
 21
-557.23408159774397
 31
0.0
  0
LINE
  5
D349
  8
01
  6
BYBLOCK
 10
955.78766516632493
 20
-557.93074949174411
 30
0.0
 11
953.18766516632502
 21
-557.23408159774397
 31
0.0
  0
LINE
  5
D34A
  8
01
  6
BYBLOCK
 10
953.18766516632502
 20
-557.23408159774397
 30
0.0
 11
955.78766516632493
 21
-556.53741370374405
 31
0.0
  0
LINE
  5
D34B
  8
01
  6
BYBLOCK
 10
953.18766516632502
 20
-557.23408159774397
 30
0.0
 11
955.78766516632493
 21
-557.23408159774397
 31
0.0
  0
TEXT
  5
D34C
  8
01
 10
968.27766516632505
 20
-671.76716089323213
 30
0.0
 40
4.5499999999999989
  1
\U+03C650
 50
90.0
  0
LINE
  5
D34D
  8
01
  6
BYBLOCK
 10
969.88433306032505
 20
-685.63408159774315
 30
0.0
 11
969.18766516632502
 21
-688.23408159774328
 31
0.0
  0
LINE
  5
D34E
  8
01
  6
BYBLOCK
 10
969.18766516632502
 20
-688.23408159774328
 30
0.0
 11
968.49099727232499
 21
-685.63408159774315
 31
0.0
  0
LINE
  5
D34F
  8
01
  6
BYBLOCK
 10
969.18766516632502
 20
-688.23408159774328
 30
0.0
 11
969.18766516632502
 21
-685.63408159774315
 31
0.0
  0
LINE
  5
D350
  8
01
  6
BYBLOCK
 10
968.49099727232499
 20
-640.8340815977441
 30
0.0
 11
969.18766516632502
 21
-638.23408159774419
 31
0.0
  0
LINE
  5
D351
  8
01
  6
BYBLOCK
 10
969.18766516632502
 20
-638.23408159774419
 30
0.0
 11
969.88433306032505
 21
-640.8340815977441
 31
0.0
  0
LINE
  5
D352
  8
01
  6
BYBLOCK
 10
969.18766516632502
 20
-638.23408159774419
 30
0.0
 11
969.18766516632502
 21
-640.8340815977441
 31
0.0
  0
TEXT
  5
D353
  8
01
 10
1143.277781506069
 20
-435.06741493210581
 30
0.0
 40
4.5499999999999989
  1
35
 50
90.0
  0
LINE
  5
D354
  8
01
  6
BYBLOCK
 10
1144.88444940007
 20
-445.6340815987727
 30
0.0
 11
1144.18778150607
 21
-448.2340815987726
 31
0.0
  0
LINE
  5
D355
  8
01
  6
BYBLOCK
 10
1144.18778150607
 20
-448.2340815987726
 30
0.0
 11
1143.49111361207
 21
-445.6340815987727
 31
0.0
  0
LINE
  5
D356
  8
01
  6
BYBLOCK
 10
1144.18778150607
 20
-448.2340815987726
 30
0.0
 11
1144.18778150607
 21
-445.6340815987727
 31
0.0
  0
LINE
  5
D357
  8
01
  6
BYBLOCK
 10
1143.49111361207
 20
-415.83408159877268
 30
0.0
 11
1144.18778150607
 21
-413.23408159877278
 31
0.0
  0
LINE
  5
D358
  8
01
  6
BYBLOCK
 10
1144.18778150607
 20
-413.23408159877278
 30
0.0
 11
1144.88444940007
 21
-415.83408159877268
 31
0.0
  0
LINE
  5
D359
  8
01
  6
BYBLOCK
 10
1144.18778150607
 20
-413.23408159877278
 30
0.0
 11
1144.18778150607
 21
-415.83408159877268
 31
0.0
  0
TEXT
  5
D35A
  8
01
 10
1153.277781506069
 20
-447.52574826543918
 30
0.0
 40
4.5499999999999989
  1
61
 50
90.0
  0
LINE
  5
D35B
  8
01
  6
BYBLOCK
 10
1154.88444940007
 20
-471.6340815987727
 30
0.0
 11
1154.1877815060691
 21
-474.23408159877272
 31
0.0
  0
LINE
  5
D35C
  8
01
  6
BYBLOCK
 10
1154.1877815060691
 20
-474.23408159877272
 30
0.0
 11
1153.49111361207
 21
-471.6340815987727
 31
0.0
  0
LINE
  5
D35D
  8
01
  6
BYBLOCK
 10
1154.1877815060691
 20
-474.23408159877272
 30
0.0
 11
1154.1877815060691
 21
-471.6340815987727
 31
0.0
  0
LINE
  5
D35E
  8
01
  6
BYBLOCK
 10
1153.49111361207
 20
-415.8340815987728
 30
0.0
 11
1154.1877815060691
 21
-413.23408159877278
 31
0.0
  0
LINE
  5
D35F
  8
01
  6
BYBLOCK
 10
1154.1877815060691
 20
-413.23408159877278
 30
0.0
 11
1154.88444940007
 21
-415.8340815987728
 31
0.0
  0
LINE
  5
D360
  8
01
  6
BYBLOCK
 10
1154.1877815060691
 20
-413.23408159877278
 30
0.0
 11
1154.1877815060691
 21
-415.8340815987728
 31
0.0
  0
TEXT
  5
D361
  8
01
 10
1059.862781506069
 20
-488.32408159877269
 30
0.0
 40
4.5499999999999989
  1
125
  0
LINE
  5
D362
  8
01
  6
BYBLOCK
 10
1126.5877815060701
 20
-488.53741370477269
 30
0.0
 11
1129.18778150607
 21
-489.23408159877272
 31
0.0
  0
LINE
  5
D363
  8
01
  6
BYBLOCK
 10
1129.18778150607
 20
-489.23408159877272
 30
0.0
 11
1126.5877815060701
 21
-489.93074949277258
 31
0.0
  0
LINE
  5
D364
  8
01
  6
BYBLOCK
 10
1129.18778150607
 20
-489.23408159877272
 30
0.0
 11
1126.5877815060701
 21
-489.23408159877272
 31
0.0
  0
LINE
  5
D365
  8
01
  6
BYBLOCK
 10
1006.787781506069
 20
-489.93074949277258
 30
0.0
 11
1004.18778150607
 21
-489.23408159877272
 31
0.0
  0
LINE
  5
D366
  8
01
  6
BYBLOCK
 10
1004.18778150607
 20
-489.23408159877272
 30
0.0
 11
1006.787781506069
 21
-488.53741370477269
 31
0.0
  0
LINE
  5
D367
  8
01
  6
BYBLOCK
 10
1004.18778150607
 20
-489.23408159877272
 30
0.0
 11
1006.787781506069
 21
-489.23408159877272
 31
0.0
  0
TEXT
  5
D368
  8
01
 10
1048.862783406069
 20
-498.32408159877269
 30
0.0
 40
4.5499999999999989
  1
136
  0
LINE
  5
D369
  8
01
  6
BYBLOCK
 10
1126.5877815060701
 20
-498.53741370477269
 30
0.0
 11
1129.18778150607
 21
-499.23408159877272
 31
0.0
  0
LINE
  5
D36A
  8
01
  6
BYBLOCK
 10
1129.18778150607
 20
-499.23408159877272
 30
0.0
 11
1126.5877815060701
 21
-499.93074949277269
 31
0.0
  0
LINE
  5
D36B
  8
01
  6
BYBLOCK
 10
1129.18778150607
 20
-499.23408159877272
 30
0.0
 11
1126.5877815060701
 21
-499.23408159877272
 31
0.0
  0
LINE
  5
D36C
  8
01
  6
BYBLOCK
 10
995.78778150606968
 20
-499.93074949277269
 30
0.0
 11
993.18778150606977
 21
-499.23408159877272
 31
0.0
  0
LINE
  5
D36D
  8
01
  6
BYBLOCK
 10
993.18778150606977
 20
-499.23408159877272
 30
0.0
 11
995.78778150606968
 21
-498.53741370477269
 31
0.0
  0
LINE
  5
D36E
  8
01
  6
BYBLOCK
 10
993.18778150606977
 20
-499.23408159877272
 30
0.0
 11
995.78778150606968
 21
-499.23408159877272
 31
0.0
  0
TEXT
  5
D36F
  8
01
 10
1143.2777815060711
 20
-670.42741493107735
 30
0.0
 40
4.5499999999999989
  1
\U+03C622
 50
90.0
  0
LINE
  5
D370
  8
01
  6
BYBLOCK
 10
1144.8844494000709
 20
-671.63408159774406
 30
0.0
 11
1144.1877815060709
 21
-674.23408159774419
 31
0.0
  0
LINE
  5
D371
  8
01
  6
BYBLOCK
 10
1144.1877815060709
 20
-674.23408159774419
 30
0.0
 11
1143.49111361207
 21
-671.63408159774406
 31
0.0
  0
LINE
  5
D372
  8
01
  6
BYBLOCK
 10
1144.1877815060709
 20
-674.23408159774419
 30
0.0
 11
1144.1877815060709
 21
-671.63408159774406
 31
0.0
  0
LINE
  5
D373
  8
01
  6
BYBLOCK
 10
1143.49111361207
 20
-654.83408159774422
 30
0.0
 11
1144.1877815060709
 21
-652.23408159774408
 31
0.0
  0
LINE
  5
D374
  8
01
  6
BYBLOCK
 10
1144.1877815060709
 20
-652.23408159774408
 30
0.0
 11
1144.8844494000709
 21
-654.83408159774422
 31
0.0
  0
LINE
  5
D375
  8
01
  6
BYBLOCK
 10
1144.1877815060709
 20
-652.23408159774408
 30
0.0
 11
1144.1877815060709
 21
-654.83408159774422
 31
0.0
  0
TEXT
  5
D376
  8
01
 10
1048.2776651663251
 20
-649.56741493107722
 30
0.0
 40
4.5499999999999989
  1
74.5
 50
90.0
  0
LINE
  5
D377
  8
01
  6
BYBLOCK
 10
1049.8843330603249
 20
-676.63408159774394
 30
0.0
 11
1049.1876651663249
 21
-679.23408159774397
 31
0.0
  0
LINE
  5
D378
  8
01
  6
BYBLOCK
 10
1049.1876651663249
 20
-679.23408159774397
 30
0.0
 11
1048.4909972723251
 21
-676.63408159774394
 31
0.0
  0
LINE
  5
D379
  8
01
  6
BYBLOCK
 10
1049.1876651663249
 20
-679.23408159774397
 30
0.0
 11
1049.1876651663249
 21
-676.63408159774394
 31
0.0
  0
LINE
  5
D37A
  8
01
  6
BYBLOCK
 10
1048.4909972723251
 20
-607.33408159774422
 30
0.0
 11
1049.1876651663249
 21
-604.73408159774419
 31
0.0
  0
LINE
  5
D37B
  8
01
  6
BYBLOCK
 10
1049.1876651663249
 20
-604.73408159774419
 30
0.0
 11
1049.8843330603249
 21
-607.33408159774422
 31
0.0
  0
LINE
  5
D37C
  8
01
  6
BYBLOCK
 10
1049.1876651663249
 20
-604.73408159774419
 30
0.0
 11
1049.1876651663249
 21
-607.33408159774422
 31
0.0
  0
LINE
  5
D37D
  8
01
 10
1001.876728294393
 20
-432.72999275734833
 30
0.0
 11
976.94082625934175
 21
-452.14408159877269
 31
0.0
1001
ACAD
1000
DSTYLE
1002
{
1070
    40
1040
1.3
1002
}
  0
LINE
  5
D37E
  8
01
 10
976.94082625934175
 20
-452.14408159877269
 30
0.0
 11
973.43082625934176
 21
-452.14408159877269
 31
0.0
1001
ACAD
1000
DSTYLE
1002
{
1070
    40
1040
1.3
1002
}
  0
LINE
  5
D37F
  8
01
 10
1037.933165083133
 20
-456.2827574040013
 30
0.0
 11
1049.5498844115259
 21
-442.66660040127431
 31
0.0
1001
ACAD
1000
DSTYLE
1002
{
1070
    40
1040
1.3
1002
}
  0
LINE
  5
D380
  8
01
 10
1049.5498844115259
 20
-442.66660040127431
 30
0.0
 11
1053.0598844115259
 21
-442.66660040127431
 31
0.0
1001
ACAD
1000
DSTYLE
1002
{
1070
    40
1040
1.3
1002
}
  0
TEXT
  5
D381
  8
01
 10
1043.138940108098
 20
-400.81741493210581
 30
0.0
 40
4.5499999999999989
  1
20.5
 50
90.0
  0
LINE
  5
D382
  8
01
  6
BYBLOCK
 10
1044.7456080020979
 20
-400.8840815987727
 30
0.0
 11
1044.0489401080979
 21
-403.48408159877272
 31
0.0
  0
LINE
  5
D383
  8
01
  6
BYBLOCK
 10
1044.0489401080979
 20
-403.48408159877272
 30
0.0
 11
1043.3522722140981
 21
-400.8840815987727
 31
0.0
  0
LINE
  5
D384
  8
01
  6
BYBLOCK
 10
1044.0489401080979
 20
-403.48408159877272
 30
0.0
 11
1044.0489401080979
 21
-400.8840815987727
 31
0.0
  0
LINE
  5
D385
  8
01
  6
BYBLOCK
 10
1043.3522722140981
 20
-385.58408159877268
 30
0.0
 11
1044.0489401080979
 21
-382.98408159877272
 31
0.0
  0
LINE
  5
D386
  8
01
  6
BYBLOCK
 10
1044.0489401080979
 20
-382.98408159877272
 30
0.0
 11
1044.7456080020979
 21
-385.58408159877268
 31
0.0
  0
LINE
  5
D387
  8
01
  6
BYBLOCK
 10
1044.0489401080979
 20
-382.98408159877272
 30
0.0
 11
1044.0489401080979
 21
-385.58408159877268
 31
0.0
  0
VIEWPORT
  5
57
 67
     1
  8
0
 10
10.30514859755575
 20
17.565658765306811
 30
0.0
 40
436.8396978060693
 41
283.75251167226099
 68
     1
 69
     1
1001
ACAD
1000
MVIEW
1002
{
1070
    16
1010
0.0
1020
0.0
1030
0.0
1010
0.0
1020
0.0
1030
1.0
1040
0.0
1040
283.75251167226099
1040
10.30514859755575
1040
17.565658765306811
1040
50.0
1040
0.0
1040
0.0
1070
     0
1070
   100
1070
     1
1070
     1
1070
     0
1070
     0
1070
     0
1070
     0
1040
0.0
1040
0.0
1040
0.0
1040
10.0
1040
10.0
1040
10.0
1040
10.0
1070
     0
1002
{
1002
}
1002
}
  0
ENDSEC
  0
EOF
