  0
SECTION
  2
HEADER
  9
$ACADVER
  1
AC1012
  9
$DWGCODEPAGE
  3
ansi_932
  9
$INSBASE
 10
0.0
 20
0.0
 30
0.0
  9
$EXTMIN
 10
4282.965630505971
 20
1236.185154360875
 30
0.0
  9
$EXTMAX
 10
4908.967145990128
 20
1662.207434128286
 30
0.0000000001127424
  9
$LIMMIN
 10
0.0
 20
0.0
  9
$LIMMAX
 10
420.0
 20
297.0
  9
$ORTHOMODE
 70
     0
  9
$REGENMODE
 70
     1
  9
$FILLMODE
 70
     1
  9
$QTEXTMODE
 70
     0
  9
$MIRRTEXT
 70
     0
  9
$DRAGMODE
 70
     2
  9
$LTSCALE
 40
0.5
  9
$OSMODE
 70
 16383
  9
$ATTMODE
 70
     1
  9
$TEXTSIZE
 40
4.0
  9
$TRACEWID
 40
1.0
  9
$TEXTSTYLE
  7
STANDARD
  9
$CLAYER
  8
1TEXT
  9
$CELTYPE
  6
BYLAYER
  9
$CECOLOR
 62
   256
  9
$CELTSCALE
 40
1.0
  9
$DELOBJ
 70
     1
  9
$DISPSILH
 70
     0
  9
$DIMSCALE
 40
1.0
  9
$DIMASZ
 40
2.0
  9
$DIMEXO
 40
0.0
  9
$DIMDLI
 40
7.0
  9
$DIMRND
 40
0.0
  9
$DIMDLE
 40
0.0
  9
$DIMEXE
 40
1.0
  9
$DIMTP
 40
0.0
  9
$DIMTM
 40
0.0
  9
$DIMTXT
 40
3.5
  9
$DIMCEN
 40
0.0
  9
$DIMTSZ
 40
0.0
  9
$DIMTOL
 70
     0
  9
$DIMLIM
 70
     0
  9
$DIMTIH
 70
     0
  9
$DIMTOH
 70
     0
  9
$DIMSE1
 70
     0
  9
$DIMSE2
 70
     0
  9
$DIMTAD
 70
     1
  9
$DIMZIN
 70
     8
  9
$DIMBLK
  1

  9
$DIMASO
 70
     1
  9
$DIMSHO
 70
     1
  9
$DIMPOST
  1
 
  9
$DIMAPOST
  1

  9
$DIMALT
 70
     0
  9
$DIMALTD
 70
     2
  9
$DIMALTF
 40
25.4
  9
$DIMLFAC
 40
1.0
  9
$DIMTOFL
 70
     1
  9
$DIMTVP
 40
0.0
  9
$DIMTIX
 70
     0
  9
$DIMSOXD
 70
     0
  9
$DIMSAH
 70
     1
  9
$DIMBLK1
  1
OPEN30
  9
$DIMBLK2
  1
OPEN30
  9
$DIMSTYLE
  2
NEWX10
  9
$DIMCLRD
 70
   256
  9
$DIMCLRE
 70
   256
  9
$DIMCLRT
 70
   201
  9
$DIMTFAC
 40
0.7
  9
$DIMGAP
 40
0.7
  9
$DIMJUST
 70
     0
  9
$DIMSD1
 70
     0
  9
$DIMSD2
 70
     0
  9
$DIMTOLJ
 70
     1
  9
$DIMTZIN
 70
     8
  9
$DIMALTZ
 70
     0
  9
$DIMALTTZ
 70
     0
  9
$DIMFIT
 70
     2
  9
$DIMUPT
 70
     0
  9
$DIMUNIT
 70
     2
  9
$DIMDEC
 70
     2
  9
$DIMTDEC
 70
     4
  9
$DIMALTU
 70
     2
  9
$DIMALTTD
 70
     2
  9
$DIMTXSTY
  7
STANDARD
  9
$DIMAUNIT
 70
     0
  9
$LUNITS
 70
     2
  9
$LUPREC
 70
     4
  9
$SKETCHINC
 40
1.0
  9
$FILLETRAD
 40
0.0
  9
$AUNITS
 70
     0
  9
$AUPREC
 70
     2
  9
$MENU
  1
acad
  9
$ELEVATION
 40
0.0
  9
$PELEVATION
 40
0.0
  9
$THICKNESS
 40
0.0
  9
$LIMCHECK
 70
     0
  9
$CHAMFERA
 40
10.0
  9
$CHAMFERB
 40
10.0
  9
$CHAMFERC
 40
20.0
  9
$CHAMFERD
 40
0.0
  9
$SKPOLY
 70
     0
  9
$TDCREATE
 40
2451318.621352917
  9
$TDUPDATE
 40
2458967.571245938
  9
$TDINDWG
 40
1.4868834144
  9
$TDUSRTIMER
 40
1.4868834144
  9
$USRTIMER
 70
     1
  9
$ANGBASE
 50
0.0
  9
$ANGDIR
 70
     0
  9
$PDMODE
 70
     0
  9
$PDSIZE
 40
0.0
  9
$PLINEWID
 40
0.0
  9
$COORDS
 70
     2
  9
$SPLFRAME
 70
     0
  9
$SPLINETYPE
 70
     6
  9
$SPLINESEGS
 70
     8
  9
$ATTDIA
 70
     0
  9
$ATTREQ
 70
     1
  9
$HANDLING
 70
     1
  9
$HANDSEED
  5
118F2
  9
$SURFTAB1
 70
     6
  9
$SURFTAB2
 70
     6
  9
$SURFTYPE
 70
     6
  9
$SURFU
 70
     6
  9
$SURFV
 70
     6
  9
$UCSNAME
  2

  9
$UCSORG
 10
0.0
 20
0.0
 30
0.0
  9
$UCSXDIR
 10
1.0
 20
0.0
 30
0.0
  9
$UCSYDIR
 10
0.0
 20
1.0
 30
0.0
  9
$PUCSNAME
  2

  9
$PUCSORG
 10
0.0
 20
0.0
 30
0.0
  9
$PUCSXDIR
 10
1.0
 20
0.0
 30
0.0
  9
$PUCSYDIR
 10
0.0
 20
1.0
 30
0.0
  9
$USERI1
 70
     0
  9
$USERI2
 70
     0
  9
$USERI3
 70
     0
  9
$USERI4
 70
     0
  9
$USERI5
 70
     0
  9
$USERR1
 40
0.0
  9
$USERR2
 40
0.0
  9
$USERR3
 40
0.0
  9
$USERR4
 40
0.0
  9
$USERR5
 40
0.0
  9
$WORLDVIEW
 70
     1
  9
$SHADEDGE
 70
     3
  9
$SHADEDIF
 70
    70
  9
$TILEMODE
 70
     1
  9
$MAXACTVP
 70
    48
  9
$PINSBASE
 10
0.0
 20
0.0
 30
0.0
  9
$PLIMCHECK
 70
     0
  9
$PEXTMIN
 10
1.000000000000000E+20
 20
1.000000000000000E+20
 30
1.000000000000000E+20
  9
$PEXTMAX
 10
-1.000000000000000E+20
 20
-1.000000000000000E+20
 30
-1.000000000000000E+20
  9
$PLIMMIN
 10
0.0
 20
0.0
  9
$PLIMMAX
 10
420.0
 20
297.0
  9
$UNITMODE
 70
     0
  9
$VISRETAIN
 70
     1
  9
$PLINEGEN
 70
     0
  9
$PSLTSCALE
 70
     1
  9
$TREEDEPTH
 70
  3020
  9
$PICKSTYLE
 70
     0
  9
$CMLSTYLE
  2
STANDARD
  9
$CMLJUST
 70
     0
  9
$CMLSCALE
 40
20.0
  9
$SAVEIMAGES
 70
     1
  0
ENDSEC
  0
SECTION
  2
CLASSES
  0
CLASS
  1
DICTIONARYVAR
  2
AcDbDictionaryVar
  3
ObjectDBX Classes
 90
        0
280
     0
281
     0
  0
CLASS
  1
IDBUFFER
  2
AcDbIdBuffer
  3
ObjectDBX Classes
 90
    32768
280
     0
281
     0
  0
CLASS
  1
LWPOLYLINE
  2
AcDbPolyline
  3
ObjectDBX Classes
 90
    32768
280
     0
281
     1
  0
CLASS
  1
ACDBDICTIONARYWDFLT
  2
AcDbDictionaryWithDefault
  3
ObjectDBX Classes
 90
    32768
280
     0
281
     0
  0
CLASS
  1
ACDBPLACEHOLDER
  2
AcDbPlaceHolder
  3
ObjectDBX Classes
 90
        0
280
     0
281
     0
  0
CLASS
  1
LAYOUT
  2
AcDbLayout
  3
ObjectDBX Classes
 90
        0
280
     0
281
     0
  0
CLASS
  1
TABLESTYLE
  2
AcDbTableStyle
  3
ObjectDBX Classes
 90
     4095
280
     0
281
     0
  0
CLASS
  1
SORTENTSTABLE
  2
AcDbSortentsTable
  3
ObjectDBX Classes
 90
    32768
280
     0
281
     0
  0
CLASS
  1
MATERIAL
  2
AcDbMaterial
  3
ObjectDBX Classes
 90
     1153
280
     0
281
     0
  0
CLASS
  1
VISUALSTYLE
  2
AcDbVisualStyle
  3
ObjectDBX Classes
 90
     4095
280
     0
281
     0
  0
CLASS
  1
SCALE
  2
AcDbScale
  3
ObjectDBX Classes
 90
     1153
280
     0
281
     0
  0
CLASS
  1
MLEADERSTYLE
  2
AcDbMLeaderStyle
  3
ACDB_MLEADERSTYLE_CLASS
 90
     4095
280
     0
281
     0
  0
CLASS
  1
CELLSTYLEMAP
  2
AcDbCellStyleMap
  3
ObjectDBX Classes
 90
     1152
280
     0
281
     0
  0
CLASS
  1
SUN
  2
AcDbSun
  3
SCENEOE
 90
     1153
280
     0
281
     0
  0
CLASS
  1
XRECORD
  2
AcDbXrecord
  3
ObjectDBX Classes
 90
    32768
280
     0
281
     0
  0
CLASS
  1
HATCH
  2
AcDbHatch
  3
ObjectDBX Classes
 90
    32768
280
     0
281
     1
  0
ENDSEC
  0
SECTION
  2
TABLES
  0
TABLE
  2
VPORT
  5
8
330
0
100
AcDbSymbolTable
 70
     1
  0
VPORT
  5
952D
330
8
100
AcDbSymbolTableRecord
100
AcDbViewportTableRecord
  2
*ACTIVE
 70
     0
 10
0.0
 20
0.0
 11
1.0
 21
1.0
 12
4595.966388248049
 22
1449.19629424458
 13
0.0
 23
0.0
 14
10.0
 24
10.0
 15
10.0
 25
10.0
 16
0.0
 26
0.0
 36
1.0
 17
0.0
 27
0.0
 37
0.0
 40
457.4133951186934
 41
1.803066037735849
 42
50.0
 43
0.0
 44
0.0
 50
0.0
 51
0.0
 71
    16
 72
   100
 73
     1
 74
     1
 75
     0
 76
     0
 77
     0
 78
     0
1001
ACAD_NAV_VCDISPLAY
1070
     3
  0
ENDTAB
  0
TABLE
  2
LTYPE
  5
5
330
0
100
AcDbSymbolTable
 70
     2
  0
LTYPE
  5
12
330
5
100
AcDbSymbolTableRecord
100
AcDbLinetypeTableRecord
  2
BYBLOCK
 70
     0
  3

 72
    65
 73
     0
 40
0.0
  0
LTYPE
  5
13
330
5
100
AcDbSymbolTableRecord
100
AcDbLinetypeTableRecord
  2
BYLAYER
 70
     0
  3

 72
    65
 73
     0
 40
0.0
  0
LTYPE
  5
14
330
5
100
AcDbSymbolTableRecord
100
AcDbLinetypeTableRecord
  2
CONTINUOUS
 70
     0
  3
Solid line
 72
    65
 73
     0
 40
0.0
  0
LTYPE
  5
9837
330
5
100
AcDbSymbolTableRecord
100
AcDbLinetypeTableRecord
  2
CENTER2
 70
     0
  3
Center (.5x) ___ _ ___ _ ___ _ ___ _ ___ _ ___
 72
    65
 73
     4
 40
28.575
 49
19.05
 74
     0
 49
-3.175
 74
     0
 49
3.175
 74
     0
 49
-3.175
 74
     0
  0
ENDTAB
  0
TABLE
  2
LAYER
  5
2
102
{ACAD_XDICTIONARY
360
96D9
102
}
330
0
100
AcDbSymbolTable
 70
     5
  0
LAYER
  5
E
102
{ACAD_XDICTIONARY
360
9593
102
}
330
2
100
AcDbSymbolTableRecord
100
AcDbLayerTableRecord
  2
0
 70
     0
 62
     7
  6
CONTINUOUS
  0
LAYER
  5
29
102
{ACAD_XDICTIONARY
360
9595
102
}
330
2
100
AcDbSymbolTableRecord
100
AcDbLayerTableRecord
  2
1CENTER
 70
     0
 62
     7
  6
CENTER2
  0
LAYER
  5
31
102
{ACAD_XDICTIONARY
360
9597
102
}
330
2
100
AcDbSymbolTableRecord
100
AcDbLayerTableRecord
  2
1TEXT
 70
     0
 62
     7
  6
CONTINUOUS
  0
LAYER
  5
243
102
{ACAD_XDICTIONARY
360
959D
102
}
330
2
100
AcDbSymbolTableRecord
100
AcDbLayerTableRecord
  2
01
 70
     0
 62
     1
  6
CONTINUOUS
  0
LAYER
  5
24E
102
{ACAD_XDICTIONARY
360
95A3
102
}
330
2
100
AcDbSymbolTableRecord
100
AcDbLayerTableRecord
  2
1DIM
 70
     0
 62
     7
  6
CONTINUOUS
  0
ENDTAB
  0
TABLE
  2
STYLE
  5
3
330
0
100
AcDbSymbolTable
 70
     1
  0
STYLE
  5
F
330
3
100
AcDbSymbolTableRecord
100
AcDbTextStyleTableRecord
  2
STANDARD
 70
     0
 40
0.0
 41
1.0
 50
0.0
 71
     0
 42
4.0
  3
txt.shx
  4
extfont.shx
  0
ENDTAB
  0
TABLE
  2
VIEW
  5
6
330
0
100
AcDbSymbolTable
 70
     0
  0
ENDTAB
  0
TABLE
  2
UCS
  5
7
330
0
100
AcDbSymbolTable
 70
     0
  0
ENDTAB
  0
TABLE
  2
APPID
  5
9
330
0
100
AcDbSymbolTable
 70
    15
  0
APPID
  5
10
330
9
100
AcDbSymbolTableRecord
100
AcDbRegAppTableRecord
  2
ACAD
 70
     0
  0
APPID
  5
21
330
9
100
AcDbSymbolTableRecord
100
AcDbRegAppTableRecord
  2
DRAWINGVARIABLESXDATA
 70
     0
  0
APPID
  5
64
330
9
100
AcDbSymbolTableRecord
100
AcDbRegAppTableRecord
  2
CONTENTTABDATA
 70
     0
  0
APPID
  5
65
330
9
100
AcDbSymbolTableRecord
100
AcDbRegAppTableRecord
  2
CONTENTCURRENTTAB
 70
     0
  0
APPID
  5
66
330
9
100
AcDbSymbolTableRecord
100
AcDbRegAppTableRecord
  2
CONTENTBLOCKDESCRIPTION
 70
     0
  0
APPID
  5
67
330
9
100
AcDbSymbolTableRecord
100
AcDbRegAppTableRecord
  2
CONTENTBLOCKICON
 70
     0
  0
APPID
  5
68
330
9
100
AcDbSymbolTableRecord
100
AcDbRegAppTableRecord
  2
CONTENTLONGBLOCKNAME
 70
     0
  0
APPID
  5
2AE
330
9
100
AcDbSymbolTableRecord
100
AcDbRegAppTableRecord
  2
ACAD_PSEXT
 70
     0
  0
APPID
  5
9585
330
9
100
AcDbSymbolTableRecord
100
AcDbRegAppTableRecord
  2
ACAD_MLEADERVER
 70
     0
  0
APPID
  5
A2E3
330
9
100
AcDbSymbolTableRecord
100
AcDbRegAppTableRecord
  2
ACADANNOTATIVE
 70
     0
  0
APPID
  5
A2E4
330
9
100
AcDbSymbolTableRecord
100
AcDbRegAppTableRecord
  2
ACDBBLOCKREPETAG
 70
     0
  0
APPID
  5
AEB1
330
9
100
AcDbSymbolTableRecord
100
AcDbRegAppTableRecord
  2
ACAD_NAV_VCDISPLAY
 70
     0
  0
APPID
  5
B6A4
330
9
100
AcDbSymbolTableRecord
100
AcDbRegAppTableRecord
  2
ACAECLAYERSTANDARD
 70
     0
  0
APPID
  5
E1EF
330
9
100
AcDbSymbolTableRecord
100
AcDbRegAppTableRecord
  2
ACAD_EXEMPT_FROM_CAD_STAND
 70
     0
  0
APPID
  5
1157E
330
9
100
AcDbSymbolTableRecord
100
AcDbRegAppTableRecord
  2
ACAD_OBJECT_CHANGE_GUID
 70
     0
  0
ENDTAB
  0
TABLE
  2
DIMSTYLE
  5
A
330
0
100
AcDbSymbolTable
 70
     1
  0
DIMSTYLE
105
48
330
A
100
AcDbSymbolTableRecord
100
AcDbDimStyleTableRecord
  2
NEWX10
 70
     0
  3
 
  4

  5

  6
OPEN30
  7
OPEN30
 40
1.0
 41
2.0
 42
0.0
 43
7.0
 44
1.0
 45
0.0
 46
0.0
 47
0.0
 48
0.0
140
3.5
141
0.0
142
0.0
143
25.4
144
1.0
145
0.0
146
0.7
147
0.7
 71
     0
 72
     0
 73
     0
 74
     0
 75
     0
 76
     0
 77
     1
 78
     8
170
     0
171
     2
172
     1
173
     1
174
     0
175
     0
176
   256
177
   256
178
   201
179
     2
270
     2
271
     2
272
     4
273
     2
274
     2
340
F
275
     0
280
     0
281
     0
282
     0
283
     1
284
     8
285
     0
286
     0
287
     2
288
     0
  0
ENDTAB
  0
TABLE
  2
BLOCK_RECORD
  5
1
330
0
100
AcDbSymbolTable
 70
     8
  0
BLOCK_RECORD
  5
18
102
{ACAD_XDICTIONARY
360
88F
102
}
330
1
100
AcDbSymbolTableRecord
100
AcDbBlockTableRecord
  2
*MODEL_SPACE
  0
BLOCK_RECORD
  5
15
330
1
100
AcDbSymbolTableRecord
100
AcDbBlockTableRecord
  2
*PAPER_SPACE
  0
BLOCK_RECORD
  5
42
330
1
100
AcDbSymbolTableRecord
100
AcDbBlockTableRecord
  2
_OPEN30
  0
BLOCK_RECORD
  5
A333
330
1
100
AcDbSymbolTableRecord
100
AcDbBlockTableRecord
  2
A3WAKUKAWAJUN2017_HYOUDAI_
  0
BLOCK_RECORD
  5
11752
330
1
100
AcDbSymbolTableRecord
100
AcDbBlockTableRecord
  2
*X215
  0
BLOCK_RECORD
  5
117A0
330
1
100
AcDbSymbolTableRecord
100
AcDbBlockTableRecord
  2
*X216
  0
BLOCK_RECORD
  5
117F2
330
1
100
AcDbSymbolTableRecord
100
AcDbBlockTableRecord
  2
*X217
  0
BLOCK_RECORD
  5
11843
330
1
100
AcDbSymbolTableRecord
100
AcDbBlockTableRecord
  2
*X218
  0
BLOCK_RECORD
  5
11880
330
1
100
AcDbSymbolTableRecord
100
AcDbBlockTableRecord
  2
*X219
  0
BLOCK_RECORD
  5
118C0
330
1
100
AcDbSymbolTableRecord
100
AcDbBlockTableRecord
  2
*X220
  0
ENDTAB
  0
ENDSEC
  0
SECTION
  2
BLOCKS
  0
BLOCK
  5
19
330
18
100
AcDbEntity
  8
0
100
AcDbBlockBegin
  2
*MODEL_SPACE
 70
     0
 10
0.0
 20
0.0
 30
0.0
  3
*MODEL_SPACE
  1

  0
ENDBLK
  5
1A
330
18
100
AcDbEntity
  8
0
100
AcDbBlockEnd
  0
BLOCK
  5
16
330
15
100
AcDbEntity
 67
     1
  8
0
100
AcDbBlockBegin
  2
*PAPER_SPACE
 70
     0
 10
0.0
 20
0.0
 30
0.0
  3
*PAPER_SPACE
  1

  0
ENDBLK
  5
17
330
15
100
AcDbEntity
 67
     1
  8
0
100
AcDbBlockEnd
  0
BLOCK
  5
43
330
42
100
AcDbEntity
  8
0
100
AcDbBlockBegin
  2
_OPEN30
 70
     0
 10
0.0
 20
0.0
 30
0.0
  3
_OPEN30
  1

  0
LINE
  5
44
330
42
100
AcDbEntity
  8
0
  6
BYBLOCK
 62
     0
100
AcDbLine
 10
-1.0
 20
0.26794919
 30
0.0
 11
0.0
 21
0.0
 31
0.0
  0
LINE
  5
45
330
42
100
AcDbEntity
  8
0
  6
BYBLOCK
 62
     0
100
AcDbLine
 10
0.0
 20
0.0
 30
0.0
 11
-1.0
 21
-0.26794919
 31
0.0
  0
LINE
  5
46
330
42
100
AcDbEntity
  8
0
  6
BYBLOCK
 62
     0
100
AcDbLine
 10
0.0
 20
0.0
 30
0.0
 11
-1.0
 21
0.0
 31
0.0
  0
ENDBLK
  5
47
330
42
100
AcDbEntity
  8
0
100
AcDbBlockEnd
  0
BLOCK
  5
AA56
330
A333
100
AcDbEntity
  8
0
100
AcDbBlockBegin
  2
A3WAKUKAWAJUN2017_HYOUDAI_
 70
     0
 10
0.0
 20
0.0
 30
0.0
  3
A3WAKUKAWAJUN2017_HYOUDAI_
  1

  0
LINE
  5
A335
330
A333
100
AcDbEntity
  8
0
100
AcDbLine
 10
13.26299999998673
 20
-0.0001000000000317
 30
0.0
 11
9.236999999990758
 21
8.999899999990987
 31
0.0
1001
ACAD
1000
ASC_BOUNDS
1002
{
1070
    19
1005
A376
1002
}
  0
LINE
  5
A336
330
A333
100
AcDbEntity
  8
0
100
AcDbLine
 10
5.657999999994331
 20
0.9999999999989768
 30
0.0
 11
9.236999999990758
 21
8.999999999991019
 31
0.0
1001
ACAD
1000
ASC_BOUNDS
1002
{
1070
    19
1005
A376
1002
}
  0
LINE
  5
A337
330
A333
100
AcDbEntity
  8
0
100
AcDbLine
 10
18.59199999998134
 20
-0.2368999999997641
 30
0.0
 11
16.46099999998353
 21
5.432899999994561
 31
0.0
1001
ACAD
1000
ASC_BOUNDS
1002
{
1070
    19
1005
A377
1002
}
  0
LINE
  5
A338
330
A333
100
AcDbEntity
  8
0
100
AcDbLine
 10
18.59199999998134
 20
-0.2368999999997641
 30
0.0
 11
22.38199999997767
 21
8.763099999991255
 31
0.0
1001
ACAD
1000
ASC_BOUNDS
1002
{
1070
    19
1005
A377
1002
}
  0
LINE
  5
A339
330
A333
100
AcDbEntity
  8
0
100
AcDbLine
 10
14.32899999998563
 20
-0.2368999999997641
 30
0.0
 11
16.46099999998353
 21
5.432899999994561
 31
0.0
1001
ACAD
1000
ASC_BOUNDS
1002
{
1070
    19
1005
A377
1002
}
  0
LINE
  5
A33A
330
A333
100
AcDbEntity
  8
0
100
AcDbLine
 10
14.32899999998563
 20
-0.2368999999997641
 30
0.0
 11
10.53899999998941
 21
8.763099999991255
 31
0.0
1001
ACAD
1000
ASC_BOUNDS
1002
{
1070
    19
1005
A377
1002
}
  0
LINE
  5
A33B
330
A333
100
AcDbEntity
  8
0
100
AcDbLine
 10
19.53899999998043
 20
-0.0001000000000317
 30
0.0
 11
23.56599999997638
 21
8.999899999990987
 31
0.0
1001
ACAD
1000
ASC_BOUNDS
1002
{
1070
    19
1005
A378
1002
}
  0
LINE
  5
A33C
330
A333
100
AcDbEntity
  8
0
100
AcDbLine
 10
26.97358892824991
 20
1.383099999991202
 30
0.0
 11
23.56599999997638
 21
8.999899999990987
 31
0.0
1001
ACAD
1000
ASC_BOUNDS
1002
{
1070
    19
1005
A378
1002
}
  0
LINE
  5
A33D
330
A333
100
AcDbEntity
  8
0
100
AcDbLine
 10
5.657999999994331
 20
0.9999999999989768
 30
0.0
 11
3.181999999996833
 21
4.668599999995308
 31
0.0
1001
ACAD
1000
ASC_BOUNDS
1002
{
1070
    19
1005
A376
1002
}
  0
LINE
  5
A33E
330
A333
100
AcDbEntity
  8
0
100
AcDbLine
 10
4.617999999995391
 20
-0.0001000000000317
 30
0.0
 11
1.420999999998571
 21
4.736799999995242
 31
0.0
1001
ACAD
1000
ASC_BOUNDS
1002
{
1070
    19
1005
A376
1002
}
  0
LINE
  5
A33F
330
A333
100
AcDbEntity
  8
0
100
AcDbLine
 10
1.420999999998571
 20
8.763099999991255
 30
0.0
 11
1.420999999998571
 21
0.0
 31
0.0
1001
ACAD
1000
ASC_BOUNDS
1002
{
1070
    19
1005
A37B
1002
}
  0
LINE
  5
A340
330
A333
100
AcDbEntity
  8
0
100
AcDbLine
 10
0.0
 20
8.763099999991255
 30
0.0
 11
0.0
 21
0.0
 31
0.0
1001
ACAD
1000
ASC_BOUNDS
1002
{
1070
    19
1005
A37B
1002
}
  0
LINE
  5
A341
330
A333
100
AcDbEntity
  8
0
100
AcDbLine
 10
6.766999999993232
 20
-0.0001000000000317
 30
0.0
 11
7.826999999992154
 21
2.368399999997621
 31
0.0
1001
ACAD
1000
ASC_BOUNDS
1002
{
1070
    19
1005
A376
1002
}
  0
LINE
  5
A342
330
A333
100
AcDbEntity
  8
0
100
AcDbLine
 10
0.0
 20
0.0
 30
0.0
 11
1.420999999998571
 21
0.0
 31
0.0
1001
ACAD
1000
ASC_BOUNDS
1002
{
1070
    19
1005
A37B
1002
}
  0
LINE
  5
A343
330
A333
100
AcDbEntity
  8
0
100
AcDbLine
 10
4.617999999995391
 20
0.0
 30
0.0
 11
6.766999999993232
 21
0.0
 31
0.0
1001
ACAD
1000
ASC_BOUNDS
1002
{
1070
    19
1005
A376
1002
}
  0
LINE
  5
A344
330
A333
100
AcDbEntity
  8
0
100
AcDbLine
 10
11.70599999998831
 20
-0.0001000000000317
 30
0.0
 11
10.64699999998936
 21
2.368399999997621
 31
0.0
1001
ACAD
1000
ASC_BOUNDS
1002
{
1070
    19
1005
A376
1002
}
  0
LINE
  5
A345
330
A333
100
AcDbEntity
  8
0
100
AcDbLine
 10
7.826999999992154
 20
2.368399999997621
 30
0.0
 11
10.64699999998936
 21
2.368399999997621
 31
0.0
1001
ACAD
1000
ASC_BOUNDS
1002
{
1070
    19
1005
A376
1002
}
  0
LINE
  5
A346
330
A333
100
AcDbEntity
  8
0
100
AcDbLine
 10
11.70599999998831
 20
0.0
 30
0.0
 11
13.26299999998673
 21
0.0
 31
0.0
1001
ACAD
1000
ASC_BOUNDS
1002
{
1070
    19
1005
A376
1002
}
  0
LINE
  5
A347
330
A333
100
AcDbEntity
  8
0
100
AcDbLine
 10
22.15599999997789
 20
2.368399999997621
 30
0.0
 11
24.97599999997499
 21
2.368399999997621
 31
0.0
1001
ACAD
1000
ASC_BOUNDS
1002
{
1070
    19
1005
A378
1002
}
  0
LINE
  5
A348
330
A333
100
AcDbEntity
  8
0
100
AcDbLine
 10
19.53899999998043
 20
0.0
 30
0.0
 11
21.09599999997886
 21
0.0
 31
0.0
1001
ACAD
1000
ASC_BOUNDS
1002
{
1070
    19
1005
A378
1002
}
  0
LINE
  5
A349
330
A333
100
AcDbEntity
  8
0
100
AcDbLine
 10
21.09599999997886
 20
-0.0001000000000317
 30
0.0
 11
22.15599999997789
 21
2.368399999997621
 31
0.0
1001
ACAD
1000
ASC_BOUNDS
1002
{
1070
    19
1005
A378
1002
}
  0
LINE
  5
A34A
330
A333
100
AcDbEntity
  8
0
100
AcDbLine
 10
26.02015566812236
 20
0.0330999999912365
 30
0.0
 11
24.97599999997499
 21
2.368399999997621
 31
0.0
1001
ACAD
1000
ASC_BOUNDS
1002
{
1070
    19
1005
A378
1002
}
  0
LINE
  5
A34B
330
A333
100
AcDbEntity
  8
0
100
AcDbLine
 10
14.32399999998563
 20
3.315799999996671
 30
0.0
 11
16.46099999998353
 21
8.999899999990987
 31
0.0
1001
ACAD
1000
ASC_BOUNDS
1002
{
1070
    19
1005
A377
1002
}
  0
LINE
  5
A34C
330
A333
100
AcDbEntity
  8
0
100
AcDbLine
 10
6.432999999993513
 20
8.763099999991255
 30
0.0
 11
3.181999999996833
 21
4.668599999995308
 31
0.0
1001
ACAD
1000
ASC_BOUNDS
1002
{
1070
    19
1005
A376
1002
}
  0
LINE
  5
A34D
330
A333
100
AcDbEntity
  8
0
100
AcDbLine
 10
4.617999999995391
 20
8.763099999991255
 30
0.0
 11
1.420999999998571
 21
4.736799999995242
 31
0.0
1001
ACAD
1000
ASC_BOUNDS
1002
{
1070
    19
1005
A376
1002
}
  0
LINE
  5
A34E
330
A333
100
AcDbEntity
  8
0
100
AcDbLine
 10
0.0
 20
8.763099999991255
 30
0.0
 11
1.420999999998571
 21
8.763099999991255
 31
0.0
1001
ACAD
1000
ASC_BOUNDS
1002
{
1070
    19
1005
A37B
1002
}
  0
LINE
  5
A34F
330
A333
100
AcDbEntity
  8
0
100
AcDbLine
 10
4.617999999995391
 20
8.763099999991255
 30
0.0
 11
6.432999999993513
 21
8.763099999991255
 31
0.0
1001
ACAD
1000
ASC_BOUNDS
1002
{
1070
    19
1005
A376
1002
}
  0
LINE
  5
A350
330
A333
100
AcDbEntity
  8
0
100
AcDbLine
 10
14.32399999998563
 20
3.315799999996671
 30
0.0
 11
12.02999999998792
 21
8.763099999991255
 31
0.0
1001
ACAD
1000
ASC_BOUNDS
1002
{
1070
    19
1005
A377
1002
}
  0
LINE
  5
A351
330
A333
100
AcDbEntity
  8
0
100
AcDbLine
 10
10.06399999998996
 20
3.670999999996297
 30
0.0
 11
9.236999999990758
 21
5.5200999999945
 31
0.0
1001
ACAD
1000
ASC_BOUNDS
1002
{
1070
    19
1005
A376
1002
}
  0
LINE
  5
A352
330
A333
100
AcDbEntity
  8
0
100
AcDbLine
 10
8.409999999991555
 20
3.670999999996297
 30
0.0
 11
9.236999999990758
 21
5.5200999999945
 31
0.0
1001
ACAD
1000
ASC_BOUNDS
1002
{
1070
    19
1005
A376
1002
}
  0
LINE
  5
A353
330
A333
100
AcDbEntity
  8
0
100
AcDbLine
 10
8.409999999991555
 20
3.670999999996297
 30
0.0
 11
10.06399999998996
 21
3.670999999996297
 31
0.0
1001
ACAD
1000
ASC_BOUNDS
1002
{
1070
    19
1005
A376
1002
}
  0
LINE
  5
A354
330
A333
100
AcDbEntity
  8
0
100
AcDbLine
 10
10.53899999998941
 20
8.763099999991255
 30
0.0
 11
12.02999999998792
 21
8.763099999991255
 31
0.0
1001
ACAD
1000
ASC_BOUNDS
1002
{
1070
    19
1005
A377
1002
}
  0
LINE
  5
A355
330
A333
100
AcDbEntity
  8
0
100
AcDbLine
 10
22.7389999999773
 20
3.670999999996297
 30
0.0
 11
23.56599999997638
 21
5.5200999999945
 31
0.0
1001
ACAD
1000
ASC_BOUNDS
1002
{
1070
    19
1005
A378
1002
}
  0
LINE
  5
A356
330
A333
100
AcDbEntity
  8
0
100
AcDbLine
 10
22.7389999999773
 20
3.670999999996297
 30
0.0
 11
24.39299999997559
 21
3.670999999996297
 31
0.0
1001
ACAD
1000
ASC_BOUNDS
1002
{
1070
    19
1005
A378
1002
}
  0
LINE
  5
A357
330
A333
100
AcDbEntity
  8
0
100
AcDbLine
 10
18.59799999998143
 20
3.315799999996671
 30
0.0
 11
20.89099999997916
 21
8.763099999991255
 31
0.0
1001
ACAD
1000
ASC_BOUNDS
1002
{
1070
    19
1005
A377
1002
}
  0
LINE
  5
A358
330
A333
100
AcDbEntity
  8
0
100
AcDbLine
 10
18.59799999998143
 20
3.315799999996671
 30
0.0
 11
16.46099999998353
 21
8.999899999990987
 31
0.0
1001
ACAD
1000
ASC_BOUNDS
1002
{
1070
    19
1005
A377
1002
}
  0
LINE
  5
A359
330
A333
100
AcDbEntity
  8
0
100
AcDbLine
 10
20.89099999997916
 20
8.763099999991255
 30
0.0
 11
22.38199999997767
 21
8.763099999991255
 31
0.0
1001
ACAD
1000
ASC_BOUNDS
1002
{
1070
    19
1005
A377
1002
}
  0
LINE
  5
A35A
330
A333
100
AcDbEntity
  8
0
100
AcDbLine
 10
24.39299999997559
 20
3.670999999996297
 30
0.0
 11
23.56599999997638
 21
5.5200999999945
 31
0.0
1001
ACAD
1000
ASC_BOUNDS
1002
{
1070
    19
1005
A378
1002
}
  0
LINE
  5
A35B
330
A333
100
AcDbEntity
  8
0
100
AcDbLine
 10
44.99999999995498
 20
-0.2368999999997641
 30
0.0
 11
40.02599999995994
 21
5.341799999994635
 31
0.0
1001
ACAD
1000
ASC_BOUNDS
1002
{
1070
    19
1005
A37A
1002
}
  0
LINE
  5
A35C
330
A333
100
AcDbEntity
  8
0
100
AcDbLine
 10
40.02599999995994
 20
5.341799999994635
 30
0.0
 11
40.02599999995994
 21
0.0
 31
0.0
1001
ACAD
1000
ASC_BOUNDS
1002
{
1070
    19
1005
A37A
1002
}
  0
LINE
  5
A35D
330
A333
100
AcDbEntity
  8
0
100
AcDbLine
 10
38.60499999996136
 20
8.999999999991019
 30
0.0
 11
38.60499999996136
 21
0.0
 31
0.0
1001
ACAD
1000
ASC_BOUNDS
1002
{
1070
    19
1005
A37A
1002
}
  0
LINE
  5
A35E
330
A333
100
AcDbEntity
  8
0
100
AcDbLine
 10
44.99999999995498
 20
8.763099999991255
 30
0.0
 11
44.99999999995498
 21
-0.2368999999997641
 31
0.0
1001
ACAD
1000
ASC_BOUNDS
1002
{
1070
    19
1005
A37A
1002
}
  0
LINE
  5
A35F
330
A333
100
AcDbEntity
  8
0
100
AcDbLine
 10
38.60499999996136
 20
0.0
 30
0.0
 11
40.02599999995994
 21
0.0
 31
0.0
1001
ACAD
1000
ASC_BOUNDS
1002
{
1070
    19
1005
A37A
1002
}
  0
LINE
  5
A360
330
A333
100
AcDbEntity
  8
0
100
AcDbLine
 10
43.57899999995641
 20
3.421199999996588
 30
0.0
 11
38.60499999996136
 21
8.999899999990987
 31
0.0
1001
ACAD
1000
ASC_BOUNDS
1002
{
1070
    19
1005
A37A
1002
}
  0
LINE
  5
A361
330
A333
100
AcDbEntity
  8
0
100
AcDbLine
 10
43.57899999995641
 20
8.763099999991255
 30
0.0
 11
43.57899999995641
 21
3.421199999996588
 31
0.0
1001
ACAD
1000
ASC_BOUNDS
1002
{
1070
    19
1005
A37A
1002
}
  0
LINE
  5
A362
330
A333
100
AcDbEntity
  8
0
100
AcDbLine
 10
43.57899999995641
 20
8.763099999991255
 30
0.0
 11
44.99999999995498
 21
8.763099999991255
 31
0.0
1001
ACAD
1000
ASC_BOUNDS
1002
{
1070
    19
1005
A37A
1002
}
  0
LINE
  5
A363
330
A333
100
AcDbEntity
  8
0
100
AcDbLine
 10
37.67199999996831
 20
8.763099999991255
 30
0.0
 11
36.23199999996837
 21
8.763099999991255
 31
0.0
  0
LINE
  5
A364
330
A333
100
AcDbEntity
  8
0
100
AcDbLine
 10
31.64199999996833
 20
8.763099999991255
 30
0.0
 11
31.64199999996833
 21
2.481619422925121
 31
0.0
  0
LINE
  5
A365
330
A333
100
AcDbEntity
  8
0
100
AcDbLine
 10
37.67199999996831
 20
8.763099999991255
 30
0.0
 11
37.67199999996831
 21
2.481619422925121
 31
0.0
  0
LINE
  5
A366
330
A333
100
AcDbEntity
  8
0
100
AcDbLine
 10
36.23199999996837
 20
8.763099999991255
 30
0.0
 11
36.23199999996837
 21
2.481619422925064
 31
0.0
  0
LINE
  5
A367
330
A333
100
AcDbEntity
  8
0
100
AcDbLine
 10
33.08199999996839
 20
8.763099999991255
 30
0.0
 11
33.08199999996839
 21
2.481619422925121
 31
0.0
  0
ARC
  5
A368
330
A333
100
AcDbEntity
  8
0
100
AcDbCircle
 10
34.65699999996832
 20
3.183099999991214
 30
0.0
 40
3.420000000000007
100
AcDbArc
 50
240.0000000000255
 51
299.9999999999766
  0
ARC
  5
A369
330
A333
100
AcDbEntity
  8
0
100
AcDbCircle
 10
34.65699999996832
 20
3.183099999991214
 30
0.0
 40
1.97999999999999
100
AcDbArc
 50
240.000000000026
 51
299.9999999999703
  0
LINE
  5
A36A
330
A333
100
AcDbEntity
  8
0
100
AcDbLine
 10
33.08199999996828
 20
8.763099999991255
 30
0.0
 11
31.64199999996833
 21
8.763099999991255
 31
0.0
  0
ARC
  5
A36B
330
A333
100
AcDbEntity
  8
0
100
AcDbCircle
 10
35.06199999996829
 20
2.481619422925064
 30
0.0
 40
1.17
100
AcDbArc
 50
299.9999999999699
 51
0.0
  0
ARC
  5
A36C
330
A333
100
AcDbEntity
  8
0
100
AcDbCircle
 10
34.25199999996835
 20
2.481619422925121
 30
0.0
 40
1.17
100
AcDbArc
 50
180.0
 51
240.0000000000238
  0
ARC
  5
A36D
330
A333
100
AcDbEntity
  8
0
100
AcDbCircle
 10
35.06199999996841
 20
2.481619422925121
 30
0.0
 40
2.61
100
AcDbArc
 50
299.9999999999756
 51
0.0
  0
ARC
  5
A36E
330
A333
100
AcDbEntity
  8
0
100
AcDbCircle
 10
34.25199999996835
 20
2.481619422925121
 30
0.0
 40
2.61
100
AcDbArc
 50
180.0
 51
240.0000000000244
  0
LINE
  5
A36F
330
A333
100
AcDbEntity
  8
0
100
AcDbLine
 10
29.30199999996933
 20
8.763099999991255
 30
0.0
 11
30.74199999996927
 21
8.763099999991255
 31
0.0
1001
ACAD
1000
ASC_BOUNDS
1002
{
1070
    19
1005
A378
1002
}
  0
LINE
  5
A370
330
A333
100
AcDbEntity
  8
0
100
AcDbLine
 10
30.74199999996927
 20
8.763099999991255
 30
0.0
 11
30.74199999996927
 21
2.373099999991211
 31
0.0
1001
ACAD
1000
ASC_BOUNDS
1002
{
1070
    19
1005
A378
1002
}
  0
LINE
  5
A371
330
A333
100
AcDbEntity
  8
0
100
AcDbLine
 10
26.02015566812236
 20
0.0330999999912365
 30
0.0
 11
28.40199999996923
 21
0.0330999999912365
 31
0.0
1001
ACAD
1000
ASC_BOUNDS
1002
{
1070
    19
1005
A378
1002
}
  0
LINE
  5
A372
330
A333
100
AcDbEntity
  8
0
100
AcDbLine
 10
29.30199999996933
 20
8.763099999991255
 30
0.0
 11
29.30199999996933
 21
2.283099999991236
 31
0.0
1001
ACAD
1000
ASC_BOUNDS
1002
{
1070
    19
1005
A378
1002
}
  0
LINE
  5
A373
330
A333
100
AcDbEntity
  8
0
100
AcDbLine
 10
26.97358892824991
 20
1.383099999991202
 30
0.0
 11
28.40199999996923
 21
1.383099999991202
 31
0.0
1001
ACAD
1000
ASC_BOUNDS
1002
{
1070
    19
1005
A378
1002
}
  0
ARC
  5
A374
330
A333
100
AcDbEntity
  8
0
100
AcDbCircle
 10
28.40199999996923
 20
2.283099999991236
 30
0.0
 40
0.9
100
AcDbArc
 50
270.0
 51
0.0
1001
ACAD
1000
ASC_BOUNDS
1002
{
1070
    19
1005
A378
1002
}
  0
ARC
  5
A375
330
A333
100
AcDbEntity
  8
0
100
AcDbCircle
 10
28.40199999996923
 20
2.373099999991211
 30
0.0
 40
2.34
100
AcDbArc
 50
270.0
 51
0.0
1001
ACAD
1000
ASC_BOUNDS
1002
{
1070
    19
1005
A378
1002
}
  0
INSERT
  5
A376
330
A333
100
AcDbEntity
  8
0
100
AcDbBlockReference
  2
*X215
 10
0.0
 20
0.0
 30
0.0
1001
ACAD
1000
HATCH
1002
{
1070
    19
1000
ANSI37
1040
0.15
1040
0.0
1000
ASC_BOUNDS
1070
     2
1070
     2
1070
    12
1005
A335
1005
A336
1005
A33D
1005
A34C
1005
A34F
1005
A34D
1005
A33E
1005
A343
1005
A341
1005
A345
1005
A344
1005
A346
1070
     2
1070
     3
1005
A351
1005
A353
1005
A352
1000
ASC_SEEDPOINT
1011
3.614004224891801
1021
2.996669441146025
1031
0.0
1000
R14_HATCH_DATA
1000
A376
1011
1.0
1021
0.0
1031
0.0
1011
0.0
1021
1.0
1031
0.0
1011
0.0
1021
0.0
1031
1.0
1040
0.0
1010
0.0
1020
0.0
1030
1.0
1000
ANSI37
1070
     0
1070
     1
1071
        2
1071
        7
1070
     0
1070
     1
1071
       17
1040
13.26299999998673
1040
-0.0001000000000317
1040
9.236999999990758
1040
8.999899999990987
1040
9.236999999990758
1040
8.999999999991019
1040
5.657999999994331
1040
0.9999999999989768
1040
3.181999999996833
1040
4.668599999995308
1040
6.432999999993513
1040
8.763099999991255
1040
4.617999999995391
1040
8.763099999991255
1040
1.420999999998571
1040
4.736799999995242
1040
4.617999999995391
1040
-0.0001000000000317
1040
4.617999999995391
1040
0.0
1040
6.766999999993232
1040
0.0
1040
6.766999999993232
1040
-0.0001000000000317
1040
7.826999999992154
1040
2.368399999997621
1040
10.64699999998936
1040
2.368399999997621
1040
11.70599999998831
1040
-0.0001000000000317
1040
11.70599999998831
1040
0.0
1040
13.26299999998673
1040
0.0
1071
       12
1005
A335
1005
A336
1005
A33D
1005
A34C
1005
A34F
1005
A34D
1005
A33E
1005
A343
1005
A341
1005
A345
1005
A344
1005
A346
1071
       22
1070
     0
1070
     1
1071
        3
1040
9.236999999990758
1040
5.5200999999945
1040
10.06399999998996
1040
3.670999999996297
1040
8.409999999991555
1040
3.670999999996297
1071
        3
1005
A351
1005
A353
1005
A352
1070
     0
1070
     1
1040
0.0
1040
0.15
1070
     0
1070
     2
1040
0.7853981633974483
1040
49.29960901727088
1040
-10.17736998311392
1040
-0.3367596045400932
1040
0.3367596045400932
1070
     0
1040
2.356194490192345
1040
49.29960901727088
1040
-10.17736998311392
1040
-0.3367596045400932
1040
-0.3367596045400932
1070
     0
1040
0.0110235143455945
1071
        2
1040
3.614004224891801
1040
2.996669441146025
1040
0.0
1040
3.614004224891801
1040
2.996669441146025
1040
0.0
1002
}
  0
INSERT
  5
A377
330
A333
100
AcDbEntity
  8
0
100
AcDbBlockReference
  2
*X216
 10
0.0
 20
0.0
 30
0.0
1001
ACAD
1000
HATCH
1002
{
1070
    19
1000
ANSI37
1040
0.15
1040
0.0
1000
ASC_BOUNDS
1070
     1
1070
     2
1070
    10
1005
A337
1005
A338
1005
A359
1005
A357
1005
A358
1005
A34B
1005
A350
1005
A354
1005
A33A
1005
A339
1000
ASC_SEEDPOINT
1011
14.73245321214324
1021
2.798246178283421
1031
0.0
1000
R14_HATCH_DATA
1000
A377
1011
1.0
1021
0.0
1031
0.0
1011
0.0
1021
1.0
1031
0.0
1011
0.0
1021
0.0
1031
1.0
1040
0.0
1010
0.0
1020
0.0
1030
1.0
1000
ANSI37
1070
     0
1070
     1
1071
        1
1071
        7
1070
     0
1070
     1
1071
       10
1040
16.46099999998353
1040
5.432899999994561
1040
18.59199999998134
1040
-0.2368999999997641
1040
22.38199999997767
1040
8.763099999991255
1040
20.89099999997916
1040
8.763099999991255
1040
18.59799999998143
1040
3.315799999996671
1040
16.46099999998353
1040
8.999899999990987
1040
14.32399999998563
1040
3.315799999996671
1040
12.02999999998792
1040
8.763099999991255
1040
10.53899999998941
1040
8.763099999991255
1040
14.32899999998563
1040
-0.2368999999997641
1071
       10
1005
A337
1005
A338
1005
A359
1005
A357
1005
A358
1005
A34B
1005
A350
1005
A354
1005
A33A
1005
A339
1070
     0
1070
     1
1040
0.0
1040
0.15
1070
     0
1070
     2
1040
0.7853981633974483
1040
49.29960901727088
1040
-10.17736998311392
1040
-0.3367596045400932
1040
0.3367596045400932
1070
     0
1040
2.356194490192345
1040
49.29960901727088
1040
-10.17736998311392
1040
-0.3367596045400932
1040
-0.3367596045400932
1070
     0
1040
0.0110235143455945
1071
        1
1040
14.73245321214324
1040
2.798246178283421
1040
0.0
1002
}
  0
INSERT
  5
A378
330
A333
100
AcDbEntity
  8
0
100
AcDbBlockReference
  2
*X217
 10
0.0
 20
0.0
 30
0.0
1001
ACAD
1000
HATCH
1002
{
1070
    19
1000
ANSI37
1040
0.15
1040
0.0
1000
ASC_BOUNDS
1070
     2
1070
     2
1070
    13
1005
A33B
1005
A348
1005
A349
1005
A347
1005
A34A
1005
A371
1005
A375
1005
A370
1005
A36F
1005
A372
1005
A374
1005
A373
1005
A33C
1070
     2
1070
     3
1005
A355
1005
A35A
1005
A356
1000
ASC_SEEDPOINT
1011
21.97929957367762
1021
3.294304244259308
1031
0.0
1000
R14_HATCH_DATA
1000
A378
1011
1.0
1021
0.0
1031
0.0
1011
0.0
1021
1.0
1031
0.0
1011
0.0
1021
0.0
1031
1.0
1040
0.0
1010
0.0
1020
0.0
1030
1.0
1000
ANSI37
1070
     0
1070
     1
1071
        2
1071
        7
1070
     1
1070
     1
1071
       15
1040
23.56599999997638
1040
8.999899999990987
1040
0.0
1040
19.53899999998043
1040
-0.0001000000000317
1040
0.0
1040
19.53899999998043
1040
0.0
1040
0.0
1040
21.09599999997886
1040
0.0
1040
0.0
1040
21.09599999997886
1040
-0.0001000000000317
1040
0.0
1040
22.15599999997789
1040
2.368399999997621
1040
0.0
1040
24.97599999997499
1040
2.368399999997621
1040
0.0
1040
26.02015566812236
1040
0.0330999999912365
1040
0.0
1040
28.40199999996923
1040
0.0330999999912365
1040
0.414213562373095
1040
30.74199999996923
1040
2.373099999991211
1040
0.0
1040
30.74199999996927
1040
8.763099999991255
1040
0.0
1040
29.30199999996933
1040
8.763099999991255
1040
0.0
1040
29.30199999996933
1040
2.283099999991236
1040
-0.414213562373095
1040
28.40199999996923
1040
1.383099999991237
1040
0.0
1040
26.97358892824991
1040
1.383099999991202
1040
0.0
1071
       13
1005
A33B
1005
A348
1005
A349
1005
A347
1005
A34A
1005
A371
1005
A375
1005
A370
1005
A36F
1005
A372
1005
A374
1005
A373
1005
A33C
1071
       22
1070
     0
1070
     1
1071
        3
1040
22.7389999999773
1040
3.670999999996297
1040
23.56599999997638
1040
5.5200999999945
1040
24.39299999997559
1040
3.670999999996297
1071
        3
1005
A355
1005
A35A
1005
A356
1070
     0
1070
     1
1040
0.0
1040
0.15
1070
     0
1070
     2
1040
0.7853981633974483
1040
49.29960901727088
1040
-10.17736998311392
1040
-0.3367596045400932
1040
0.3367596045400932
1070
     0
1040
2.356194490192345
1040
49.29960901727088
1040
-10.17736998311392
1040
-0.3367596045400932
1040
-0.3367596045400932
1070
     0
1040
0.0110235143455945
1071
        2
1040
21.97929957367762
1040
3.294304244259308
1040
0.0
1040
21.97929957367762
1040
3.294304244259308
1040
0.0
1002
}
  0
INSERT
  5
A379
330
A333
100
AcDbEntity
  8
0
100
AcDbBlockReference
  2
*X218
 10
0.0
 20
0.0
 30
0.0
1001
ACAD
1000
HATCH
1002
{
1070
    19
1000
ANSI37
1040
0.15
1040
0.0
1000
R14_HATCH_DATA
1000
A379
1011
1.0
1021
0.0
1031
0.0
1011
0.0
1021
1.0
1031
0.0
1011
0.0
1021
0.0
1031
1.0
1040
0.0
1010
0.0
1020
0.0
1030
1.0
1000
ANSI37
1070
     0
1070
     1
1071
        1
1071
        7
1070
     1
1070
     1
1071
       12
1040
31.64199999996833
1040
2.481619422925121
1040
0.2679491924310942
1040
32.94699999997067
1040
0.2212931190493919
1040
0.2679491924301353
1040
36.36699999995983
1040
0.2212931190459813
1040
0.2679491924321411
1040
37.67199999996831
1040
2.481619422928361
1040
0.0
1040
37.67199999996831
1040
8.763099999991255
1040
0.0
1040
36.23199999996837
1040
8.763099999991255
1040
0.0
1040
36.23199999996837
1040
2.481619422925064
1040
-0.2679491924310291
1040
35.64699999996708
1040
1.468369700498386
1040
-0.267949192430519
1040
33.66699999997093
1040
1.468369700497703
1040
-0.267949192431809
1040
33.08199999996839
1040
2.481619422926997
1040
0.0
1040
33.08199999996839
1040
8.763099999991255
1040
0.0
1040
31.64199999996833
1040
8.763099999991255
1040
0.0
1071
        0
1070
     0
1070
     1
1040
0.0
1040
0.15
1070
     0
1070
     2
1040
0.7853981633974483
1040
49.29960901727088
1040
-10.17736998311392
1040
-0.3367596045400932
1040
0.3367596045400932
1070
     0
1040
2.356194490192345
1040
49.29960901727088
1040
-10.17736998311392
1040
-0.3367596045400932
1040
-0.3367596045400932
1070
     0
1040
0.0110235143455945
1071
        1
1040
32.30357378967278
1040
3.988785755459219
1040
0.0
1002
}
  0
INSERT
  5
A37A
330
A333
100
AcDbEntity
  8
0
100
AcDbBlockReference
  2
*X219
 10
0.0
 20
0.0
 30
0.0
1001
ACAD
1000
HATCH
1002
{
1070
    19
1000
ANSI37
1040
0.15
1040
0.0
1000
ASC_BOUNDS
1070
     1
1070
     2
1070
     8
1005
A35B
1005
A35E
1005
A362
1005
A361
1005
A360
1005
A35D
1005
A35F
1005
A35C
1000
ASC_SEEDPOINT
1011
39.74896370716704
1021
4.484843821435049
1031
0.0
1000
R14_HATCH_DATA
1000
A37A
1011
1.0
1021
0.0
1031
0.0
1011
0.0
1021
1.0
1031
0.0
1011
0.0
1021
0.0
1031
1.0
1040
0.0
1010
0.0
1020
0.0
1030
1.0
1000
ANSI37
1070
     0
1070
     1
1071
        1
1071
        7
1070
     0
1070
     1
1071
        9
1040
40.02599999995994
1040
5.341799999994635
1040
44.99999999995498
1040
-0.2368999999997641
1040
44.99999999995498
1040
8.763099999991255
1040
43.57899999995641
1040
8.763099999991255
1040
43.57899999995641
1040
3.421199999996588
1040
38.60499999996136
1040
8.999899999990987
1040
38.60499999996136
1040
8.999999999991019
1040
38.60499999996136
1040
0.0
1040
40.02599999995994
1040
0.0
1071
        8
1005
A35B
1005
A35E
1005
A362
1005
A361
1005
A360
1005
A35D
1005
A35F
1005
A35C
1070
     0
1070
     1
1040
0.0
1040
0.15
1070
     0
1070
     2
1040
0.7853981633974483
1040
49.29960901727088
1040
-10.17736998311392
1040
-0.3367596045400932
1040
0.3367596045400932
1070
     0
1040
2.356194490192345
1040
49.29960901727088
1040
-10.17736998311392
1040
-0.3367596045400932
1040
-0.3367596045400932
1070
     0
1040
0.0110235143455945
1071
        1
1040
39.74896370716704
1040
4.484843821435049
1040
0.0
1002
}
  0
INSERT
  5
A37B
330
A333
100
AcDbEntity
  8
0
100
AcDbBlockReference
  2
*X220
 10
0.0
 20
0.0
 30
0.0
1001
ACAD
1000
HATCH
1002
{
1070
    19
1000
ANSI37
1040
0.15
1040
0.0
1000
ASC_BOUNDS
1070
     1
1070
     2
1070
     4
1005
A33F
1005
A34E
1005
A340
1005
A342
1000
ASC_SEEDPOINT
1011
1.079051535452663
1021
4.148538732891836
1031
0.0
1000
R14_HATCH_DATA
1000
A37B
1011
1.0
1021
0.0
1031
0.0
1011
0.0
1021
1.0
1031
0.0
1011
0.0
1021
0.0
1031
1.0
1040
0.0
1010
0.0
1020
0.0
1030
1.0
1000
ANSI37
1070
     0
1070
     1
1071
        1
1071
        7
1070
     0
1070
     1
1071
        4
1040
1.420999999998571
1040
0.0
1040
1.420999999998571
1040
8.763099999991255
1040
0.0
1040
8.763099999991255
1040
0.0
1040
0.0
1071
        4
1005
A33F
1005
A34E
1005
A340
1005
A342
1070
     0
1070
     1
1040
0.0
1040
0.15
1070
     0
1070
     2
1040
0.7853981633974483
1040
49.29960901727088
1040
-10.17736998311392
1040
-0.3367596045400932
1040
0.3367596045400932
1070
     0
1040
2.356194490192345
1040
49.29960901727088
1040
-10.17736998311392
1040
-0.3367596045400932
1040
-0.3367596045400932
1070
     0
1040
0.0053004257112761
1071
        1
1040
1.079051535452663
1040
4.148538732891836
1040
0.0
1002
}
  0
ENDBLK
  5
AA57
330
A333
100
AcDbEntity
  8
0
100
AcDbBlockEnd
  0
BLOCK
  5
118E0
330
11752
100
AcDbEntity
  8
0
100
AcDbBlockBegin
  2
*X215
 70
     1
 10
0.0
 20
0.0
 30
0.0
  3
*X215
  1

  0
LINE
  5
11753
330
11752
100
AcDbEntity
  8
0
  6
CONTINUOUS
100
AcDbLine
 10
3.418023043697893
 20
7.251849696850613
 30
0.0
 11
4.929273346838536
 21
8.763099999991255
 31
0.0
  0
LINE
  5
11754
330
11752
100
AcDbEntity
  8
0
  6
CONTINUOUS
100
AcDbLine
 10
1.483656411257782
 20
4.643963855330318
 30
0.0
 11
5.60279255591872
 21
8.763099999991255
 31
0.0
  0
LINE
  5
11755
330
11752
100
AcDbEntity
  8
0
  6
CONTINUOUS
100
AcDbLine
 10
1.755053947328235
 20
4.241842182320584
 30
0.0
 11
6.276311764998907
 21
8.763099999991255
 31
0.0
  0
LINE
  5
11756
330
11752
100
AcDbEntity
  8
0
  6
CONTINUOUS
100
AcDbLine
 10
2.026451483398688
 20
3.839720509310849
 30
0.0
 11
4.441040904851878
 21
6.254309930764039
 31
0.0
  0
LINE
  5
11757
330
11752
100
AcDbEntity
  8
0
  6
CONTINUOUS
100
AcDbLine
 10
2.297849019469139
 20
3.437598836301114
 30
0.0
 11
3.321765168359338
 21
4.461514985191313
 31
0.0
  0
LINE
  5
11758
330
11752
100
AcDbEntity
  8
0
  6
CONTINUOUS
100
AcDbLine
 10
2.569246555539591
 20
3.03547716329138
 30
0.0
 11
3.593163397972743
 21
4.059394005724531
 31
0.0
  0
LINE
  5
11759
330
11752
100
AcDbEntity
  8
0
  6
CONTINUOUS
100
AcDbLine
 10
2.840644091610043
 20
2.633355490281646
 30
0.0
 11
3.864561627586149
 21
3.657273026257751
 31
0.0
  0
LINE
  5
1175A
330
11752
100
AcDbEntity
  8
0
  6
CONTINUOUS
100
AcDbLine
 10
3.112041627680496
 20
2.231233817271911
 30
0.0
 11
4.135959857199554
 21
3.25515204679097
 31
0.0
  0
LINE
  5
1175B
330
11752
100
AcDbEntity
  8
0
  6
CONTINUOUS
100
AcDbLine
 10
3.383439163750948
 20
1.829112144262177
 30
0.0
 11
4.40735808681296
 21
2.853031067324189
 31
0.0
  0
LINE
  5
1175C
330
11752
100
AcDbEntity
  8
0
  6
CONTINUOUS
100
AcDbLine
 10
3.654836699821399
 20
1.426990471252442
 30
0.0
 11
4.678756316426365
 21
2.450910087857407
 31
0.0
  0
LINE
  5
1175D
330
11752
100
AcDbEntity
  8
0
  6
CONTINUOUS
100
AcDbLine
 10
3.926234235891853
 20
1.024868798242709
 30
0.0
 11
4.95015454603977
 21
2.048789108390626
 31
0.0
  0
LINE
  5
1175E
330
11752
100
AcDbEntity
  8
0
  6
CONTINUOUS
100
AcDbLine
 10
4.197631771962304
 20
0.6227471252329737
 30
0.0
 11
5.221552775653176
 21
1.646668128923846
 31
0.0
  0
LINE
  5
1175F
330
11752
100
AcDbEntity
  8
0
  6
CONTINUOUS
100
AcDbLine
 10
8.715877546767851
 20
7.835069736359266
 30
0.0
 11
9.435953450375058
 21
8.555145639966472
 31
0.0
  0
LINE
  5
11760
330
11752
100
AcDbEntity
  8
0
  6
CONTINUOUS
100
AcDbLine
 10
8.170620868422267
 20
6.616293848933497
 30
0.0
 11
9.644120833743461
 21
8.08979381425469
 31
0.0
  0
LINE
  5
11761
330
11752
100
AcDbEntity
  8
0
  6
CONTINUOUS
100
AcDbLine
 10
7.625364190076684
 20
5.397517961507727
 30
0.0
 11
9.852288217111864
 21
7.624441988542907
 31
0.0
  0
LINE
  5
11762
330
11752
100
AcDbEntity
  8
0
  6
CONTINUOUS
100
AcDbLine
 10
7.080107511731101
 20
4.178742074081957
 30
0.0
 11
10.06045560048027
 21
7.159090162831124
 31
0.0
  0
LINE
  5
11763
330
11752
100
AcDbEntity
  8
0
  6
CONTINUOUS
100
AcDbLine
 10
6.534850833385518
 20
2.959966186656187
 30
0.0
 11
10.26862298384867
 21
6.693738337119342
 31
0.0
  0
LINE
  5
11764
330
11752
100
AcDbEntity
  8
0
  6
CONTINUOUS
100
AcDbLine
 10
4.469029308032756
 20
0.2206254522232385
 30
0.0
 11
5.492951005266582
 21
1.244547149457064
 31
0.0
  0
LINE
  5
11765
330
11752
100
AcDbEntity
  8
0
  6
CONTINUOUS
100
AcDbLine
 10
5.989594155039935
 20
1.741190299230417
 30
0.0
 11
8.806950407233131
 21
4.558546551423613
 31
0.0
  0
LINE
  5
11766
330
11752
100
AcDbEntity
  8
0
  6
CONTINUOUS
100
AcDbLine
 10
9.401251593263643
 20
5.152847737454126
 30
0.0
 11
10.47679036721708
 21
6.228386511407559
 31
0.0
  0
LINE
  5
11767
330
11752
100
AcDbEntity
  8
0
  6
CONTINUOUS
100
AcDbLine
 10
4.921837203428691
 20
-0.0000858614610131
 30
0.0
 11
8.592923064886001
 21
3.670999999996297
 31
0.0
  0
LINE
  5
11768
330
11752
100
AcDbEntity
  8
0
  6
CONTINUOUS
100
AcDbLine
 10
9.609390446785305
 20
4.6874673818956
 30
0.0
 11
10.68495775058548
 21
5.763034685695775
 31
0.0
  0
LINE
  5
11769
330
11752
100
AcDbEntity
  8
0
  6
CONTINUOUS
100
AcDbLine
 10
5.595387755019432
 20
-0.0000545189504582
 30
0.0
 11
7.716137258923768
 21
2.120694984953879
 31
0.0
  0
LINE
  5
1176A
330
11752
100
AcDbEntity
  8
0
  6
CONTINUOUS
100
AcDbLine
 10
6.268938306610172
 20
-0.000023176439905
 30
0.0
 11
7.170485805526503
 21
0.9015243224764267
 31
0.0
  0
LINE
  5
1176B
330
11752
100
AcDbEntity
  8
0
  6
CONTINUOUS
100
AcDbLine
 10
7.963842273967511
 20
2.368399999997621
 30
0.0
 11
9.266442273966188
 21
3.670999999996297
 31
0.0
  0
LINE
  5
1176C
330
11752
100
AcDbEntity
  8
0
  6
CONTINUOUS
100
AcDbLine
 10
8.637361483047696
 20
2.368399999997621
 30
0.0
 11
9.939961483046375
 21
3.670999999996297
 31
0.0
  0
LINE
  5
1176D
330
11752
100
AcDbEntity
  8
0
  6
CONTINUOUS
100
AcDbLine
 10
9.817529300306965
 20
4.222087026337075
 30
0.0
 11
10.89312513395388
 21
5.297682859983993
 31
0.0
  0
LINE
  5
1176E
330
11752
100
AcDbEntity
  8
0
  6
CONTINUOUS
100
AcDbLine
 10
10.02566815382863
 20
3.756706670778549
 30
0.0
 11
11.10129251732229
 21
4.832331034272211
 31
0.0
  0
LINE
  5
1176F
330
11752
100
AcDbEntity
  8
0
  6
CONTINUOUS
100
AcDbLine
 10
9.310880692127883
 20
2.368399999997621
 30
0.0
 11
11.30945990069069
 21
4.366979208560428
 31
0.0
  0
LINE
  5
11770
330
11752
100
AcDbEntity
  8
0
  6
CONTINUOUS
100
AcDbLine
 10
9.98439990120807
 20
2.36839999999762
 30
0.0
 11
11.5176272840591
 21
3.901627382848645
 31
0.0
  0
LINE
  5
11771
330
11752
100
AcDbEntity
  8
0
  6
CONTINUOUS
100
AcDbLine
 10
10.65037369446246
 20
2.36085458417182
 30
0.0
 11
11.7257946674275
 21
3.436275557136862
 31
0.0
  0
LINE
  5
11772
330
11752
100
AcDbEntity
  8
0
  6
CONTINUOUS
100
AcDbLine
 10
10.85847197087848
 20
1.895433651507656
 30
0.0
 11
11.9339620507959
 21
2.97092373142508
 31
0.0
  0
LINE
  5
11773
330
11752
100
AcDbEntity
  8
0
  6
CONTINUOUS
100
AcDbLine
 10
11.0665702472945
 20
1.430012718843491
 30
0.0
 11
12.14212943416431
 21
2.505571905713296
 31
0.0
  0
LINE
  5
11774
330
11752
100
AcDbEntity
  8
0
  6
CONTINUOUS
100
AcDbLine
 10
11.27466852371052
 20
0.9645917861793256
 30
0.0
 11
12.35029681753271
 21
2.040220080001513
 31
0.0
  0
LINE
  5
11775
330
11752
100
AcDbEntity
  8
0
  6
CONTINUOUS
100
AcDbLine
 10
11.48276680012654
 20
0.4991708535151611
 30
0.0
 11
12.55846420090111
 21
1.57486825428973
 31
0.0
  0
LINE
  5
11776
330
11752
100
AcDbEntity
  8
0
  6
CONTINUOUS
100
AcDbLine
 10
11.69086507654257
 20
0.0337499208509957
 30
0.0
 11
12.76663158426952
 21
1.109516428577947
 31
0.0
  0
LINE
  5
11777
330
11752
100
AcDbEntity
  8
0
  6
CONTINUOUS
100
AcDbLine
 10
12.33057447873954
 20
-0.0000598860322123
 30
0.0
 11
12.97479896763792
 21
0.6441646028661663
 31
0.0
  0
LINE
  5
11778
330
11752
100
AcDbEntity
  8
0
  6
CONTINUOUS
100
AcDbLine
 10
13.00413694809395
 20
-0.0000166257579952
 30
0.0
 11
13.18296635100632
 21
0.1788127771543824
 31
0.0
  0
LINE
  5
11779
330
11752
100
AcDbEntity
  8
0
  6
CONTINUOUS
100
AcDbLine
 10
4.772852165289667
 20
-0.000092794222212
 30
0.0
 11
4.296495091028902
 21
0.4762642800385528
 31
0.0
  0
LINE
  5
1177A
330
11752
100
AcDbEntity
  8
0
  6
CONTINUOUS
100
AcDbLine
 10
5.446340034776103
 20
-0.0000614546284616
 30
0.0
 11
2.898195908335625
 21
2.548082671812017
 31
0.0
  0
LINE
  5
1177B
330
11752
100
AcDbEntity
  8
0
  6
CONTINUOUS
100
AcDbLine
 10
6.119827904262539
 20
-0.0000301150347113
 30
0.0
 11
1.499896725642348
 21
4.61990106358548
 31
0.0
  0
LINE
  5
1177C
330
11752
100
AcDbEntity
  8
0
  6
CONTINUOUS
100
AcDbLine
 10
6.775136745476159
 20
0.0181802528318542
 30
0.0
 11
5.699826040202669
 21
1.093490958105344
 31
0.0
  0
LINE
  5
1177D
330
11752
100
AcDbEntity
  8
0
  6
CONTINUOUS
100
AcDbLine
 10
6.983376846288489
 20
0.4834593610997118
 30
0.0
 11
5.908008617934405
 21
1.558827589453796
 31
0.0
  0
LINE
  5
1177E
330
11752
100
AcDbEntity
  8
0
  6
CONTINUOUS
100
AcDbLine
 10
5.377063484962296
 20
1.416253513345719
 30
0.0
 11
1.702276957014131
 21
5.091040041293883
 31
0.0
  0
LINE
  5
1177F
330
11752
100
AcDbEntity
  8
0
  6
CONTINUOUS
100
AcDbLine
 10
3.978745891735324
 20
3.488090315652877
 30
0.0
 11
2.000373521109399
 21
5.466462686278803
 31
0.0
  0
LINE
  5
11780
330
11752
100
AcDbEntity
  8
0
  6
CONTINUOUS
100
AcDbLine
 10
7.191616947100819
 20
0.948738469367568
 30
0.0
 11
6.11619119566614
 21
2.024164220802247
 31
0.0
  0
LINE
  5
11781
330
11752
100
AcDbEntity
  8
0
  6
CONTINUOUS
100
AcDbLine
 10
7.399857047913149
 20
1.414017577635424
 30
0.0
 11
6.324373773397875
 21
2.489500852150698
 31
0.0
  0
LINE
  5
11782
330
11752
100
AcDbEntity
  8
0
  6
CONTINUOUS
100
AcDbLine
 10
7.608097148725479
 20
1.879296685903281
 30
0.0
 11
6.53255635112961
 21
2.95483748349915
 31
0.0
  0
LINE
  5
11783
330
11752
100
AcDbEntity
  8
0
  6
CONTINUOUS
100
AcDbLine
 10
7.816337249537808
 20
2.344575794171138
 30
0.0
 11
6.740738928861345
 21
3.420174114847601
 31
0.0
  0
LINE
  5
11784
330
11752
100
AcDbEntity
  8
0
  6
CONTINUOUS
100
AcDbLine
 10
3.310241080789734
 20
4.830114335678653
 30
0.0
 11
2.298470085204666
 21
5.84188533126372
 31
0.0
  0
LINE
  5
11785
330
11752
100
AcDbEntity
  8
0
  6
CONTINUOUS
100
AcDbLine
 10
3.60832983563551
 20
5.205544789913063
 30
0.0
 11
2.596566649299935
 21
6.217307976248638
 31
0.0
  0
LINE
  5
11786
330
11752
100
AcDbEntity
  8
0
  6
CONTINUOUS
100
AcDbLine
 10
3.906418590481286
 20
5.580975244147473
 30
0.0
 11
2.894663213395203
 21
6.592730621233557
 31
0.0
  0
LINE
  5
11787
330
11752
100
AcDbEntity
  8
0
  6
CONTINUOUS
100
AcDbLine
 10
4.204507345327062
 20
5.956405698381884
 30
0.0
 11
3.192759777490472
 21
6.968153266218474
 31
0.0
  0
LINE
  5
11788
330
11752
100
AcDbEntity
  8
0
  6
CONTINUOUS
100
AcDbLine
 10
8.466032252791512
 20
2.368399999997621
 30
0.0
 11
6.948921506593081
 21
3.885510746196053
 31
0.0
  0
LINE
  5
11789
330
11752
100
AcDbEntity
  8
0
  6
CONTINUOUS
100
AcDbLine
 10
9.139551461871699
 20
2.36839999999762
 30
0.0
 11
7.157104084324816
 21
4.350847377544504
 31
0.0
  0
LINE
  5
1178A
330
11752
100
AcDbEntity
  8
0
  6
CONTINUOUS
100
AcDbLine
 10
4.502596100172839
 20
6.331836152616295
 30
0.0
 11
3.49085634158574
 21
7.343575911203393
 31
0.0
  0
LINE
  5
1178B
330
11752
100
AcDbEntity
  8
0
  6
CONTINUOUS
100
AcDbLine
 10
4.800684855018615
 20
6.707266606850705
 30
0.0
 11
3.788952905681008
 21
7.718998556188312
 31
0.0
  0
LINE
  5
1178C
330
11752
100
AcDbEntity
  8
0
  6
CONTINUOUS
100
AcDbLine
 10
12.18154012887317
 20
-0.0000694579236642
 30
0.0
 11
11.32140332908496
 21
0.8600673418645499
 31
0.0
  0
LINE
  5
1178D
330
11752
100
AcDbEntity
  8
0
  6
CONTINUOUS
100
AcDbLine
 10
12.85501608323566
 20
-0.0000262032059659
 30
0.0
 11
10.77672456435345
 21
2.078265315676246
 31
0.0
  0
LINE
  5
1178E
330
11752
100
AcDbEntity
  8
0
  6
CONTINUOUS
100
AcDbLine
 10
9.813070670951886
 20
2.36839999999762
 30
0.0
 11
8.51047067095321
 21
3.670999999996297
 31
0.0
  0
LINE
  5
1178F
330
11752
100
AcDbEntity
  8
0
  6
CONTINUOUS
100
AcDbLine
 10
10.48658988003207
 20
2.36839999999762
 30
0.0
 11
9.183989880033396
 21
3.670999999996297
 31
0.0
  0
LINE
  5
11790
330
11752
100
AcDbEntity
  8
0
  6
CONTINUOUS
100
AcDbLine
 10
8.441048632286794
 20
3.740422038662712
 30
0.0
 11
7.365286662056551
 21
4.816184008892956
 31
0.0
  0
LINE
  5
11791
330
11752
100
AcDbEntity
  8
0
  6
CONTINUOUS
100
AcDbLine
 10
8.649187485808454
 20
4.205802394221237
 30
0.0
 11
7.573469239788285
 21
5.281520640241407
 31
0.0
  0
LINE
  5
11792
330
11752
100
AcDbEntity
  8
0
  6
CONTINUOUS
100
AcDbLine
 10
5.098773609864391
 20
7.082697061085115
 30
0.0
 11
4.087049469776277
 21
8.09442120117323
 31
0.0
  0
LINE
  5
11793
330
11752
100
AcDbEntity
  8
0
  6
CONTINUOUS
100
AcDbLine
 10
5.396862364710167
 20
7.458127515319526
 30
0.0
 11
4.385146033871544
 21
8.469843846158149
 31
0.0
  0
LINE
  5
11794
330
11752
100
AcDbEntity
  8
0
  6
CONTINUOUS
100
AcDbLine
 10
13.04801363231285
 20
0.4804954567970334
 30
0.0
 11
9.85750908911358
 21
3.670999999996297
 31
0.0
  0
LINE
  5
11795
330
11752
100
AcDbEntity
  8
0
  6
CONTINUOUS
100
AcDbLine
 10
8.857326339330116
 20
4.671182749779763
 30
0.0
 11
7.781651817520021
 21
5.746857271589858
 31
0.0
  0
LINE
  5
11796
330
11752
100
AcDbEntity
  8
0
  6
CONTINUOUS
100
AcDbLine
 10
5.694951119555943
 20
7.833557969553937
 30
0.0
 11
4.765409089118624
 21
8.763099999991255
 31
0.0
  0
LINE
  5
11797
330
11752
100
AcDbEntity
  8
0
  6
CONTINUOUS
100
AcDbLine
 10
12.50286117236978
 20
1.699167125820288
 30
0.0
 11
9.68611877250287
 21
4.515909525687196
 31
0.0
  0
LINE
  5
11798
330
11752
100
AcDbEntity
  8
0
  6
CONTINUOUS
100
AcDbLine
 10
9.065465192851777
 20
5.136563105338288
 30
0.0
 11
7.989834395251757
 21
6.21219390293831
 31
0.0
  0
LINE
  5
11799
330
11752
100
AcDbEntity
  8
0
  6
CONTINUOUS
100
AcDbLine
 10
5.993039874401719
 20
8.208988423788346
 30
0.0
 11
5.43892829819881
 21
8.763099999991255
 31
0.0
  0
LINE
  5
1179A
330
11752
100
AcDbEntity
  8
0
  6
CONTINUOUS
100
AcDbLine
 10
11.95770871242671
 20
2.917838794843543
 30
0.0
 11
8.19801697298349
 21
6.677530534286761
 31
0.0
  0
LINE
  5
1179B
330
11752
100
AcDbEntity
  8
0
  6
CONTINUOUS
100
AcDbLine
 10
6.291128629247495
 20
8.584418878022756
 30
0.0
 11
6.112447507278997
 21
8.763099999991255
 31
0.0
  0
LINE
  5
1179C
330
11752
100
AcDbEntity
  8
0
  6
CONTINUOUS
100
AcDbLine
 10
11.41255625248364
 20
4.136510463866797
 30
0.0
 11
8.406199550715227
 21
7.142867165635211
 31
0.0
  0
LINE
  5
1179D
330
11752
100
AcDbEntity
  8
0
  6
CONTINUOUS
100
AcDbLine
 10
10.86740379254057
 20
5.355182132890051
 30
0.0
 11
8.614382128446962
 21
7.608203796983664
 31
0.0
  0
LINE
  5
1179E
330
11752
100
AcDbEntity
  8
0
  6
CONTINUOUS
100
AcDbLine
 10
10.3222513325975
 20
6.573853801913305
 30
0.0
 11
8.822564706178696
 21
8.073540428332114
 31
0.0
  0
LINE
  5
1179F
330
11752
100
AcDbEntity
  8
0
  6
CONTINUOUS
100
AcDbLine
 10
9.777098872654436
 20
7.792525470936562
 30
0.0
 11
9.030747283910433
 21
8.538877059680566
 31
0.0
  0
ENDBLK
  5
118E1
330
11752
100
AcDbEntity
  8
0
100
AcDbBlockEnd
  0
BLOCK
  5
118E2
330
117A0
100
AcDbEntity
  8
0
100
AcDbBlockBegin
  2
*X216
 70
     1
 10
0.0
 20
0.0
 30
0.0
  3
*X216
  1

  0
LINE
  5
117A1
330
117A0
100
AcDbEntity
  8
0
  6
CONTINUOUS
100
AcDbLine
 10
10.67292308101235
 20
8.445076852443387
 30
0.0
 11
10.99094622856022
 21
8.763099999991255
 31
0.0
  0
LINE
  5
117A2
330
117A0
100
AcDbEntity
  8
0
  6
CONTINUOUS
100
AcDbLine
 10
10.87250383178748
 20
7.971138394138331
 30
0.0
 11
11.6644654376404
 21
8.763099999991255
 31
0.0
  0
LINE
  5
117A3
330
117A0
100
AcDbEntity
  8
0
  6
CONTINUOUS
100
AcDbLine
 10
11.07208458256261
 20
7.497199935833273
 30
0.0
 11
12.12126590876355
 21
8.546381262034211
 31
0.0
  0
LINE
  5
117A4
330
117A0
100
AcDbEntity
  8
0
  6
CONTINUOUS
100
AcDbLine
 10
11.27166533333774
 20
7.023261477528216
 30
0.0
 11
12.32085164573666
 21
8.072447789927136
 31
0.0
  0
LINE
  5
117A5
330
117A0
100
AcDbEntity
  8
0
  6
CONTINUOUS
100
AcDbLine
 10
11.47124608411287
 20
6.549323019223158
 30
0.0
 11
12.52043738270977
 21
7.59851431782006
 31
0.0
  0
LINE
  5
117A6
330
117A0
100
AcDbEntity
  8
0
  6
CONTINUOUS
100
AcDbLine
 10
11.670826834888
 20
6.075384560918101
 30
0.0
 11
12.72002311968288
 21
7.124580845712984
 31
0.0
  0
LINE
  5
117A7
330
117A0
100
AcDbEntity
  8
0
  6
CONTINUOUS
100
AcDbLine
 10
11.87040758566313
 20
5.601446102613043
 30
0.0
 11
12.91960885665599
 21
6.650647373605907
 31
0.0
  0
LINE
  5
117A8
330
117A0
100
AcDbEntity
  8
0
  6
CONTINUOUS
100
AcDbLine
 10
12.06998833643825
 20
5.127507644307986
 30
0.0
 11
13.1191945936291
 21
6.176713901498832
 31
0.0
  0
LINE
  5
117A9
330
117A0
100
AcDbEntity
  8
0
  6
CONTINUOUS
100
AcDbLine
 10
12.26956908721338
 20
4.65356918600293
 30
0.0
 11
13.31878033060221
 21
5.702780429391757
 31
0.0
  0
LINE
  5
117AA
330
117A0
100
AcDbEntity
  8
0
  6
CONTINUOUS
100
AcDbLine
 10
12.46914983798851
 20
4.179630727697873
 30
0.0
 11
13.51836606757532
 21
5.228846957284683
 31
0.0
  0
LINE
  5
117AB
330
117A0
100
AcDbEntity
  8
0
  6
CONTINUOUS
100
AcDbLine
 10
12.66873058876364
 20
3.705692269392816
 30
0.0
 11
13.71795180454843
 21
4.754913485177607
 31
0.0
  0
LINE
  5
117AC
330
117A0
100
AcDbEntity
  8
0
  6
CONTINUOUS
100
AcDbLine
 10
12.86831133953877
 20
3.231753811087759
 30
0.0
 11
13.91753754152154
 21
4.280980013070531
 31
0.0
  0
LINE
  5
117AD
330
117A0
100
AcDbEntity
  8
0
  6
CONTINUOUS
100
AcDbLine
 10
13.0678920903139
 20
2.757815352782702
 30
0.0
 11
14.11712327849465
 21
3.807046540963456
 31
0.0
  0
LINE
  5
117AE
330
117A0
100
AcDbEntity
  8
0
  6
CONTINUOUS
100
AcDbLine
 10
13.26747284108903
 20
2.283876894477644
 30
0.0
 11
14.31670901546777
 21
3.333113068856379
 31
0.0
  0
LINE
  5
117AF
330
117A0
100
AcDbEntity
  8
0
  6
CONTINUOUS
100
AcDbLine
 10
16.36767838827179
 20
8.751678487061342
 30
0.0
 11
16.50332410898388
 21
8.887324207773432
 31
0.0
  0
LINE
  5
117B0
330
117A0
100
AcDbEntity
  8
0
  6
CONTINUOUS
100
AcDbLine
 10
15.96190732182191
 20
7.67238821153127
 30
0.0
 11
16.68735328004734
 21
8.397834169756699
 31
0.0
  0
LINE
  5
117B1
330
117A0
100
AcDbEntity
  8
0
  6
CONTINUOUS
100
AcDbLine
 10
15.55613625537202
 20
6.593097936001196
 30
0.0
 11
16.87138245111079
 21
7.908344131739965
 31
0.0
  0
LINE
  5
117B2
330
117A0
100
AcDbEntity
  8
0
  6
CONTINUOUS
100
AcDbLine
 10
15.15036518892213
 20
5.513807660471122
 30
0.0
 11
17.05541162217424
 21
7.418854093723231
 31
0.0
  0
LINE
  5
117B3
330
117A0
100
AcDbEntity
  8
0
  6
CONTINUOUS
100
AcDbLine
 10
14.74459412247225
 20
4.434517384941048
 30
0.0
 11
17.2394407932377
 21
6.929364055706499
 31
0.0
  0
LINE
  5
117B4
330
117A0
100
AcDbEntity
  8
0
  6
CONTINUOUS
100
AcDbLine
 10
14.33882305602236
 20
3.355227109410975
 30
0.0
 11
17.42346996430115
 21
6.439874017689766
 31
0.0
  0
LINE
  5
117B5
330
117A0
100
AcDbEntity
  8
0
  6
CONTINUOUS
100
AcDbLine
 10
13.46705359186416
 20
1.809938436172586
 30
0.0
 11
16.0819338255367
 21
4.424818669845129
 31
0.0
  0
LINE
  5
117B6
330
117A0
100
AcDbEntity
  8
0
  6
CONTINUOUS
100
AcDbLine
 10
16.63283254238972
 20
4.975717386698149
 30
0.0
 11
17.60749913536461
 21
5.950383979673033
 31
0.0
  0
LINE
  5
117B7
330
117A0
100
AcDbEntity
  8
0
  6
CONTINUOUS
100
AcDbLine
 10
13.66663434263929
 20
1.335999977867529
 30
0.0
 11
15.67604797733754
 21
3.345413612565779
 31
0.0
  0
LINE
  5
117B8
330
117A0
100
AcDbEntity
  8
0
  6
CONTINUOUS
100
AcDbLine
 10
13.86621509341442
 20
0.8620615195624723
 30
0.0
 11
15.27016212913838
 21
2.26600855528643
 31
0.0
  0
LINE
  5
117B9
330
117A0
100
AcDbEntity
  8
0
  6
CONTINUOUS
100
AcDbLine
 10
16.81682257348267
 20
4.486188208710908
 30
0.0
 11
17.79152830642806
 21
5.460893941656299
 31
0.0
  0
LINE
  5
117BA
330
117A0
100
AcDbEntity
  8
0
  6
CONTINUOUS
100
AcDbLine
 10
17.00081260457561
 20
3.996659030723667
 30
0.0
 11
17.97555747749151
 21
4.971403903639565
 31
0.0
  0
LINE
  5
117BB
330
117A0
100
AcDbEntity
  8
0
  6
CONTINUOUS
100
AcDbLine
 10
20.74362343514722
 20
8.412989070375462
 30
0.0
 11
21.09373436476302
 21
8.763099999991256
 31
0.0
  0
LINE
  5
117BC
330
117A0
100
AcDbEntity
  8
0
  6
CONTINUOUS
100
AcDbLine
 10
20.25401257174777
 20
7.249858997895826
 30
0.0
 11
21.7672535738432
 21
8.763099999991255
 31
0.0
  0
LINE
  5
117BD
330
117A0
100
AcDbEntity
  8
0
  6
CONTINUOUS
100
AcDbLine
 10
14.06579584418955
 20
0.3881230612574149
 30
0.0
 11
14.86427628093921
 21
1.186603498007082
 31
0.0
  0
LINE
  5
117BE
330
117A0
100
AcDbEntity
  8
0
  6
CONTINUOUS
100
AcDbLine
 10
14.26537659496467
 20
-0.0858153970476412
 30
0.0
 11
14.45839043274005
 21
0.1071984407277329
 31
0.0
  0
LINE
  5
117BF
330
117A0
100
AcDbEntity
  8
0
  6
CONTINUOUS
100
AcDbLine
 10
17.18480263566856
 20
3.507129852736426
 30
0.0
 11
18.15958664855496
 21
4.481913865622833
 31
0.0
  0
LINE
  5
117C0
330
117A0
100
AcDbEntity
  8
0
  6
CONTINUOUS
100
AcDbLine
 10
17.3687926667615
 20
3.017600674749186
 30
0.0
 11
18.34361581961842
 21
3.9924238276061
 31
0.0
  0
LINE
  5
117C1
330
117A0
100
AcDbEntity
  8
0
  6
CONTINUOUS
100
AcDbLine
 10
19.76440170834832
 20
6.086728925416191
 30
0.0
 11
22.33924590259489
 21
8.661573119662755
 31
0.0
  0
LINE
  5
117C2
330
117A0
100
AcDbEntity
  8
0
  6
CONTINUOUS
100
AcDbLine
 10
19.27479084494887
 20
4.923598852936555
 30
0.0
 11
21.84929622842713
 21
7.498104236414807
 31
0.0
  0
LINE
  5
117C3
330
117A0
100
AcDbEntity
  8
0
  6
CONTINUOUS
100
AcDbLine
 10
17.55278269785445
 20
2.528071496761945
 30
0.0
 11
18.52764499068187
 21
3.502933789589366
 31
0.0
  0
LINE
  5
117C4
330
117A0
100
AcDbEntity
  8
0
  6
CONTINUOUS
100
AcDbLine
 10
18.78517998154942
 20
3.760468780456919
 30
0.0
 11
21.35934655425936
 21
6.33463535316686
 31
0.0
  0
LINE
  5
117C5
330
117A0
100
AcDbEntity
  8
0
  6
CONTINUOUS
100
AcDbLine
 10
17.73677272894739
 20
2.038542318774704
 30
0.0
 11
20.8693968800916
 21
5.171166469918914
 31
0.0
  0
LINE
  5
117C6
330
117A0
100
AcDbEntity
  8
0
  6
CONTINUOUS
100
AcDbLine
 10
17.92076276004034
 20
1.549013140787464
 30
0.0
 11
20.37944720592384
 21
4.007697586670968
 31
0.0
  0
LINE
  5
117C7
330
117A0
100
AcDbEntity
  8
0
  6
CONTINUOUS
100
AcDbLine
 10
18.10475279113329
 20
1.059483962800223
 30
0.0
 11
19.88949753175608
 21
2.84422870342302
 31
0.0
  0
LINE
  5
117C8
330
117A0
100
AcDbEntity
  8
0
  6
CONTINUOUS
100
AcDbLine
 10
18.28874282222623
 20
0.5699547848129822
 30
0.0
 11
19.39954785758832
 21
1.680759820175074
 31
0.0
  0
LINE
  5
117C9
330
117A0
100
AcDbEntity
  8
0
  6
CONTINUOUS
100
AcDbLine
 10
18.47273285331918
 20
0.0804256068257416
 30
0.0
 11
18.90959818342056
 21
0.517290936927127
 31
0.0
  0
LINE
  5
117CA
330
117A0
100
AcDbEntity
  8
0
  6
CONTINUOUS
100
AcDbLine
 10
14.3590401358224
 20
-0.1570118376323384
 30
0.0
 11
14.24903296539946
 21
-0.0470046672093929
 31
0.0
  0
LINE
  5
117CB
330
117A0
100
AcDbEntity
  8
0
  6
CONTINUOUS
100
AcDbLine
 10
14.54309291258661
 20
0.332454594683643
 30
0.0
 11
13.75908329123172
 21
1.116464216038529
 31
0.0
  0
LINE
  5
117CC
330
117A0
100
AcDbEntity
  8
0
  6
CONTINUOUS
100
AcDbLine
 10
14.72714568935081
 20
0.8219210269996244
 30
0.0
 11
13.26913361706399
 21
2.27993309928645
 31
0.0
  0
LINE
  5
117CD
330
117A0
100
AcDbEntity
  8
0
  6
CONTINUOUS
100
AcDbLine
 10
14.91119846611502
 20
1.311387459315606
 30
0.0
 11
12.77918394289625
 21
3.443401982534371
 31
0.0
  0
LINE
  5
117CE
330
117A0
100
AcDbEntity
  8
0
  6
CONTINUOUS
100
AcDbLine
 10
15.09525124287922
 20
1.800853891631587
 30
0.0
 11
12.28923426872852
 21
4.606870865782293
 31
0.0
  0
LINE
  5
117CF
330
117A0
100
AcDbEntity
  8
0
  6
CONTINUOUS
100
AcDbLine
 10
15.27930401964343
 20
2.290320323947569
 30
0.0
 11
11.79928459456078
 21
5.770339749030213
 31
0.0
  0
LINE
  5
117D0
330
117A0
100
AcDbEntity
  8
0
  6
CONTINUOUS
100
AcDbLine
 10
15.46335679640763
 20
2.77978675626355
 30
0.0
 11
14.48885470994921
 21
3.754288842721972
 31
0.0
  0
LINE
  5
117D1
330
117A0
100
AcDbEntity
  8
0
  6
CONTINUOUS
100
AcDbLine
 10
13.88507249233704
 20
4.358071060334137
 30
0.0
 11
11.30933492039305
 21
6.933808632278135
 31
0.0
  0
LINE
  5
117D2
330
117A0
100
AcDbEntity
  8
0
  6
CONTINUOUS
100
AcDbLine
 10
18.75840522805855
 20
0.1582575336928151
 30
0.0
 11
18.25383727664818
 21
0.6628254851031863
 31
0.0
  0
LINE
  5
117D3
330
117A0
100
AcDbEntity
  8
0
  6
CONTINUOUS
100
AcDbLine
 10
15.64740957317184
 20
3.269253188579531
 30
0.0
 11
14.67288388101266
 21
4.243778880738705
 31
0.0
  0
LINE
  5
117D4
330
117A0
100
AcDbEntity
  8
0
  6
CONTINUOUS
100
AcDbLine
 10
13.39509276772158
 20
5.521569994029786
 30
0.0
 11
10.81938524622531
 21
8.097277515526056
 31
0.0
  0
LINE
  5
117D5
330
117A0
100
AcDbEntity
  8
0
  6
CONTINUOUS
100
AcDbLine
 10
18.95798597883369
 20
0.6321959919978686
 30
0.0
 11
17.84825644852853
 21
1.741925522303024
 31
0.0
  0
LINE
  5
117D6
330
117A0
100
AcDbEntity
  8
0
  6
CONTINUOUS
100
AcDbLine
 10
19.15756672960882
 20
1.106134450302922
 30
0.0
 11
17.44267562040888
 21
2.821025559502861
 31
0.0
  0
LINE
  5
117D7
330
117A0
100
AcDbEntity
  8
0
  6
CONTINUOUS
100
AcDbLine
 10
15.83146234993604
 20
3.758719620895513
 30
0.0
 11
14.85691305207612
 21
4.733268918755439
 31
0.0
  0
LINE
  5
117D8
330
117A0
100
AcDbEntity
  8
0
  6
CONTINUOUS
100
AcDbLine
 10
16.01551512670025
 20
4.248186053211494
 30
0.0
 11
15.04094222313957
 21
5.222758956772172
 31
0.0
  0
LINE
  5
117D9
330
117A0
100
AcDbEntity
  8
0
  6
CONTINUOUS
100
AcDbLine
 10
12.90511304310612
 20
6.685068927725435
 30
0.0
 11
10.8270819708403
 21
8.763099999991255
 31
0.0
  0
LINE
  5
117DA
330
117A0
100
AcDbEntity
  8
0
  6
CONTINUOUS
100
AcDbLine
 10
12.41513331849066
 20
7.848567861421083
 30
0.0
 11
11.50060117992049
 21
8.763099999991255
 31
0.0
  0
LINE
  5
117DB
330
117A0
100
AcDbEntity
  8
0
  6
CONTINUOUS
100
AcDbLine
 10
19.35714748038395
 20
1.580072908607975
 30
0.0
 11
17.03709479228923
 21
3.900125596702697
 31
0.0
  0
LINE
  5
117DC
330
117A0
100
AcDbEntity
  8
0
  6
CONTINUOUS
100
AcDbLine
 10
19.55672823115909
 20
2.054011366913028
 30
0.0
 11
16.63151396416958
 21
4.979225633902534
 31
0.0
  0
LINE
  5
117DD
330
117A0
100
AcDbEntity
  8
0
  6
CONTINUOUS
100
AcDbLine
 10
16.19956790346445
 20
4.737652485527476
 30
0.0
 11
15.22497139420302
 21
5.712248994788904
 31
0.0
  0
LINE
  5
117DE
330
117A0
100
AcDbEntity
  8
0
  6
CONTINUOUS
100
AcDbLine
 10
16.38362068022866
 20
5.227118917843457
 30
0.0
 11
15.40900056526648
 21
6.201739032805637
 31
0.0
  0
LINE
  5
117DF
330
117A0
100
AcDbEntity
  8
0
  6
CONTINUOUS
100
AcDbLine
 10
19.75630898193422
 20
2.527949825218081
 30
0.0
 11
18.70774536448286
 21
3.576513442669441
 31
0.0
  0
LINE
  5
117E0
330
117A0
100
AcDbEntity
  8
0
  6
CONTINUOUS
100
AcDbLine
 10
19.95588973270936
 20
3.001888283523134
 30
0.0
 11
18.90726987211446
 21
4.050508144118028
 31
0.0
  0
LINE
  5
117E1
330
117A0
100
AcDbEntity
  8
0
  6
CONTINUOUS
100
AcDbLine
 10
20.15547048348449
 20
3.475826741828186
 30
0.0
 11
19.10679437974606
 21
4.524502845566614
 31
0.0
  0
LINE
  5
117E2
330
117A0
100
AcDbEntity
  8
0
  6
CONTINUOUS
100
AcDbLine
 10
20.35505123425962
 20
3.94976520013324
 30
0.0
 11
19.30631888737766
 21
4.998497547015201
 31
0.0
  0
LINE
  5
117E3
330
117A0
100
AcDbEntity
  8
0
  6
CONTINUOUS
100
AcDbLine
 10
20.55463198503475
 20
4.423703658438292
 30
0.0
 11
19.50584339500926
 21
5.472492248463787
 31
0.0
  0
LINE
  5
117E4
330
117A0
100
AcDbEntity
  8
0
  6
CONTINUOUS
100
AcDbLine
 10
18.37481191085755
 20
3.909446896294752
 30
0.0
 11
15.59302973632993
 21
6.691229070822371
 31
0.0
  0
LINE
  5
117E5
330
117A0
100
AcDbEntity
  8
0
  6
CONTINUOUS
100
AcDbLine
 10
17.96904084440766
 20
4.988737171824825
 30
0.0
 11
15.77705890739338
 21
7.180719108839104
 31
0.0
  0
LINE
  5
117E6
330
117A0
100
AcDbEntity
  8
0
  6
CONTINUOUS
100
AcDbLine
 10
17.56326977795777
 20
6.068027447354899
 30
0.0
 11
15.96108807845684
 21
7.670209146855838
 31
0.0
  0
LINE
  5
117E7
330
117A0
100
AcDbEntity
  8
0
  6
CONTINUOUS
100
AcDbLine
 10
17.15749871150789
 20
7.147317722884972
 30
0.0
 11
16.14511724952029
 21
8.15969918487257
 31
0.0
  0
LINE
  5
117E8
330
117A0
100
AcDbEntity
  8
0
  6
CONTINUOUS
100
AcDbLine
 10
16.751727645058
 20
8.226607998415046
 30
0.0
 11
16.32914642058374
 21
8.649189222889303
 31
0.0
  0
LINE
  5
117E9
330
117A0
100
AcDbEntity
  8
0
  6
CONTINUOUS
100
AcDbLine
 10
20.75421273580989
 20
4.897642116743345
 30
0.0
 11
19.70536790264086
 21
5.946486949912374
 31
0.0
  0
LINE
  5
117EA
330
117A0
100
AcDbEntity
  8
0
  6
CONTINUOUS
100
AcDbLine
 10
20.95379348658502
 20
5.371580575048398
 30
0.0
 11
19.90489241027246
 21
6.42048165136096
 31
0.0
  0
LINE
  5
117EB
330
117A0
100
AcDbEntity
  8
0
  6
CONTINUOUS
100
AcDbLine
 10
21.15337423736015
 20
5.845519033353452
 30
0.0
 11
20.10441691790406
 21
6.894476352809547
 31
0.0
  0
LINE
  5
117EC
330
117A0
100
AcDbEntity
  8
0
  6
CONTINUOUS
100
AcDbLine
 10
21.35295498813529
 20
6.319457491658505
 30
0.0
 11
20.30394142553566
 21
7.368471054258134
 31
0.0
  0
LINE
  5
117ED
330
117A0
100
AcDbEntity
  8
0
  6
CONTINUOUS
100
AcDbLine
 10
21.55253573891042
 20
6.793395949963558
 30
0.0
 11
20.50346593316726
 21
7.842465755706721
 31
0.0
  0
LINE
  5
117EE
330
117A0
100
AcDbEntity
  8
0
  6
CONTINUOUS
100
AcDbLine
 10
21.75211648968556
 20
7.267334408268612
 30
0.0
 11
20.70299044079886
 21
8.316460457155308
 31
0.0
  0
LINE
  5
117EF
330
117A0
100
AcDbEntity
  8
0
  6
CONTINUOUS
100
AcDbLine
 10
21.95169724046069
 20
7.741272866573663
 30
0.0
 11
20.9298701070431
 21
8.763099999991256
 31
0.0
  0
LINE
  5
117F0
330
117A0
100
AcDbEntity
  8
0
  6
CONTINUOUS
100
AcDbLine
 10
22.15127799123582
 20
8.215211324878716
 30
0.0
 11
21.60338931612328
 21
8.763099999991256
 31
0.0
  0
LINE
  5
117F1
330
117A0
100
AcDbEntity
  8
0
  6
CONTINUOUS
100
AcDbLine
 10
22.35085874201096
 20
8.689149783183769
 30
0.0
 11
22.27690852520347
 21
8.763099999991255
 31
0.0
  0
ENDBLK
  5
118E3
330
117A0
100
AcDbEntity
  8
0
100
AcDbBlockEnd
  0
BLOCK
  5
118E4
330
117F2
100
AcDbEntity
  8
0
100
AcDbBlockBegin
  2
*X217
 70
     1
 10
0.0
 20
0.0
 30
0.0
  3
*X217
  1

  0
LINE
  5
117F3
330
117F2
100
AcDbEntity
  8
0
  6
CONTINUOUS
100
AcDbLine
 10
23.19462913593892
 20
8.169917934846424
 30
0.0
 11
23.70775465517246
 21
8.683043454079957
 31
0.0
  0
LINE
  5
117F4
330
117F2
100
AcDbEntity
  8
0
  6
CONTINUOUS
100
AcDbLine
 10
22.64923161835078
 20
6.951001208178088
 30
0.0
 11
23.9159364069932
 21
8.217705996820516
 31
0.0
  0
LINE
  5
117F5
330
117F2
100
AcDbEntity
  8
0
  6
CONTINUOUS
100
AcDbLine
 10
22.10383410076263
 20
5.732084481509751
 30
0.0
 11
24.12411815881395
 21
7.752368539561078
 31
0.0
  0
LINE
  5
117F6
330
117F2
100
AcDbEntity
  8
0
  6
CONTINUOUS
100
AcDbLine
 10
21.55843658317447
 20
4.513167754841414
 30
0.0
 11
24.3322999106347
 21
7.287031082301639
 31
0.0
  0
LINE
  5
117F7
330
117F2
100
AcDbEntity
  8
0
  6
CONTINUOUS
100
AcDbLine
 10
21.01303906558632
 20
3.294251028173077
 30
0.0
 11
24.54048166245544
 21
6.821693625042199
 31
0.0
  0
LINE
  5
117F8
330
117F2
100
AcDbEntity
  8
0
  6
CONTINUOUS
100
AcDbLine
 10
20.46764154799817
 20
2.075334301504738
 30
0.0
 11
23.28571549467848
 21
4.89340824818505
 31
0.0
  0
LINE
  5
117F9
330
117F2
100
AcDbEntity
  8
0
  6
CONTINUOUS
100
AcDbLine
 10
19.92224403041002
 20
0.8564175748364002
 30
0.0
 11
22.74075865492779
 21
3.674932199354171
 31
0.0
  0
LINE
  5
117FA
330
117F2
100
AcDbEntity
  8
0
  6
CONTINUOUS
100
AcDbLine
 10
23.67305085490148
 20
5.280743608408048
 30
0.0
 11
24.74866341427619
 21
6.356356167782759
 31
0.0
  0
LINE
  5
117FB
330
117F2
100
AcDbEntity
  8
0
  6
CONTINUOUS
100
AcDbLine
 10
23.88118970842314
 20
4.815363252849522
 30
0.0
 11
24.95684516609694
 21
5.89101871052332
 31
0.0
  0
LINE
  5
117FC
330
117F2
100
AcDbEntity
  8
0
  6
CONTINUOUS
100
AcDbLine
 10
19.73925852647308
 20
-0.0000871381807288
 30
0.0
 11
23.4103456646501
 21
3.670999999996297
 31
0.0
  0
LINE
  5
117FD
330
117F2
100
AcDbEntity
  8
0
  6
CONTINUOUS
100
AcDbLine
 10
24.0893285619448
 20
4.349982897290997
 30
0.0
 11
25.16502691791769
 21
5.42568125326388
 31
0.0
  0
LINE
  5
117FE
330
117F2
100
AcDbEntity
  8
0
  6
CONTINUOUS
100
AcDbLine
 10
20.41282099582748
 20
-0.0000438779065108
 30
0.0
 11
21.64944178675636
 21
1.236576913022366
 31
0.0
  0
LINE
  5
117FF
330
117F2
100
AcDbEntity
  8
0
  6
CONTINUOUS
100
AcDbLine
 10
22.78126487373161
 20
2.36839999999762
 30
0.0
 11
24.08386487373029
 21
3.670999999996297
 31
0.0
  0
LINE
  5
11800
330
117F2
100
AcDbEntity
  8
0
  6
CONTINUOUS
100
AcDbLine
 10
24.29746741546646
 20
3.884602541732471
 30
0.0
 11
25.37320866973843
 21
4.960343796004441
 31
0.0
  0
LINE
  5
11801
330
117F2
100
AcDbEntity
  8
0
  6
CONTINUOUS
100
AcDbLine
 10
21.08638346518189
 20
-0.0000006176322938
 30
0.0
 11
21.10379033335899
 21
0.0174062505448083
 31
0.0
  0
LINE
  5
11802
330
117F2
100
AcDbEntity
  8
0
  6
CONTINUOUS
100
AcDbLine
 10
23.4547840828118
 20
2.36839999999762
 30
0.0
 11
25.58139042155918
 21
4.495006338745002
 31
0.0
  0
LINE
  5
11803
330
117F2
100
AcDbEntity
  8
0
  6
CONTINUOUS
100
AcDbLine
 10
29.30199999996933
 20
8.215615917155148
 30
0.0
 11
29.84948408280543
 21
8.763099999991255
 31
0.0
  0
LINE
  5
11804
330
117F2
100
AcDbEntity
  8
0
  6
CONTINUOUS
100
AcDbLine
 10
24.12830329189199
 20
2.36839999999762
 30
0.0
 11
25.78957217337993
 21
4.029668881485562
 31
0.0
  0
LINE
  5
11805
330
117F2
100
AcDbEntity
  8
0
  6
CONTINUOUS
100
AcDbLine
 10
29.30199999996933
 20
7.54209670807496
 30
0.0
 11
30.52300329188562
 21
8.763099999991255
 31
0.0
  0
LINE
  5
11806
330
117F2
100
AcDbEntity
  8
0
  6
CONTINUOUS
100
AcDbLine
 10
24.80182250097217
 20
2.36839999999762
 30
0.0
 11
25.99775392520067
 21
3.564331424226122
 31
0.0
  0
LINE
  5
11807
330
117F2
100
AcDbEntity
  8
0
  6
CONTINUOUS
100
AcDbLine
 10
29.30199999996933
 20
6.868577498994774
 30
0.0
 11
30.74199999996926
 21
8.308577498994712
 31
0.0
  0
LINE
  5
11808
330
117F2
100
AcDbEntity
  8
0
  6
CONTINUOUS
100
AcDbLine
 10
25.13028238392013
 20
2.023340673865392
 30
0.0
 11
26.20593567702142
 21
3.098993966966683
 31
0.0
  0
LINE
  5
11809
330
117F2
100
AcDbEntity
  8
0
  6
CONTINUOUS
100
AcDbLine
 10
25.33838066033617
 20
1.557919741201244
 30
0.0
 11
26.41411742884217
 21
2.633656509707244
 31
0.0
  0
LINE
  5
1180A
330
117F2
100
AcDbEntity
  8
0
  6
CONTINUOUS
100
AcDbLine
 10
25.54647893675221
 20
1.092498808537098
 30
0.0
 11
26.62229918066291
 21
2.168319052447804
 31
0.0
  0
LINE
  5
1180B
330
117F2
100
AcDbEntity
  8
0
  6
CONTINUOUS
100
AcDbLine
 10
25.75457721316825
 20
0.62707787587295
 30
0.0
 11
26.83048093248366
 21
1.702981595188365
 31
0.0
  0
LINE
  5
1180C
330
117F2
100
AcDbEntity
  8
0
  6
CONTINUOUS
100
AcDbLine
 10
29.30199999996933
 20
6.195058289914587
 30
0.0
 11
30.74199999996926
 21
7.635058289914522
 31
0.0
  0
LINE
  5
1180D
330
117F2
100
AcDbEntity
  8
0
  6
CONTINUOUS
100
AcDbLine
 10
29.30199999996933
 20
5.521539080834401
 30
0.0
 11
30.74199999996926
 21
6.961539080834331
 31
0.0
  0
LINE
  5
1180E
330
117F2
100
AcDbEntity
  8
0
  6
CONTINUOUS
100
AcDbLine
 10
29.30199999996933
 20
4.848019871754214
 30
0.0
 11
30.74199999996925
 21
6.288019871754143
 31
0.0
  0
LINE
  5
1180F
330
117F2
100
AcDbEntity
  8
0
  6
CONTINUOUS
100
AcDbLine
 10
29.30199999996933
 20
4.174500662674028
 30
0.0
 11
30.74199999996925
 21
5.614500662673953
 31
0.0
  0
LINE
  5
11810
330
117F2
100
AcDbEntity
  8
0
  6
CONTINUOUS
100
AcDbLine
 10
25.96267548958429
 20
0.1616569432088024
 30
0.0
 11
27.18411854636669
 21
1.383099999991207
 31
0.0
  0
LINE
  5
11811
330
117F2
100
AcDbEntity
  8
0
  6
CONTINUOUS
100
AcDbLine
 10
29.30199999996933
 20
3.500981453593841
 30
0.0
 11
30.74199999996925
 21
4.940981453593762
 31
0.0
  0
LINE
  5
11812
330
117F2
100
AcDbEntity
  8
0
  6
CONTINUOUS
100
AcDbLine
 10
26.50763775544691
 20
0.0330999999912356
 30
0.0
 11
27.85763775544689
 21
1.383099999991223
 31
0.0
  0
LINE
  5
11813
330
117F2
100
AcDbEntity
  8
0
  6
CONTINUOUS
100
AcDbLine
 10
29.30199999996933
 20
2.827462244513656
 30
0.0
 11
30.74199999996925
 21
4.267462244513574
 31
0.0
  0
LINE
  5
11814
330
117F2
100
AcDbEntity
  8
0
  6
CONTINUOUS
100
AcDbLine
 10
27.18115696452709
 20
0.0330999999912356
 30
0.0
 11
28.55073879889363
 21
1.402681834357775
 31
0.0
  0
LINE
  5
11815
330
117F2
100
AcDbEntity
  8
0
  6
CONTINUOUS
100
AcDbLine
 10
29.28241816560272
 20
2.134361201066866
 30
0.0
 11
30.74199999996924
 21
3.593943035433383
 31
0.0
  0
LINE
  5
11816
330
117F2
100
AcDbEntity
  8
0
  6
CONTINUOUS
100
AcDbLine
 10
27.85467617360728
 20
0.0330999999912356
 30
0.0
 11
30.74199999996924
 21
2.920423826353195
 31
0.0
  0
LINE
  5
11817
330
117F2
100
AcDbEntity
  8
0
  6
CONTINUOUS
100
AcDbLine
 10
28.53897559587887
 20
0.0438802131826428
 30
0.0
 11
30.73121978677781
 21
2.236124404081585
 31
0.0
  0
LINE
  5
11818
330
117F2
100
AcDbEntity
  8
0
  6
CONTINUOUS
100
AcDbLine
 10
29.45140055588722
 20
0.2827859641107988
 30
0.0
 11
30.49231403584965
 21
1.323699444073236
 31
0.0
  0
LINE
  5
11819
330
117F2
100
AcDbEntity
  8
0
  6
CONTINUOUS
100
AcDbLine
 10
19.59027867740337
 20
-0.0000967065718083
 30
0.0
 11
19.55485265190471
 21
0.035329318926844
 31
0.0
  0
LINE
  5
1181A
330
117F2
100
AcDbEntity
  8
0
  6
CONTINUOUS
100
AcDbLine
 10
20.26375463176586
 20
-0.0000534518541091
 30
0.0
 11
19.76305575737534
 21
0.5006454225364014
 31
0.0
  0
LINE
  5
1181B
330
117F2
100
AcDbEntity
  8
0
  6
CONTINUOUS
100
AcDbLine
 10
20.93723058612834
 20
-0.0000101971364099
 30
0.0
 11
19.97125886284597
 21
0.965961526145958
 31
0.0
  0
LINE
  5
1181C
330
117F2
100
AcDbEntity
  8
0
  6
CONTINUOUS
100
AcDbLine
 10
21.25514828313686
 20
0.355591314935257
 30
0.0
 11
20.1794619683166
 21
1.431277629755512
 31
0.0
  0
LINE
  5
1181D
330
117F2
100
AcDbEntity
  8
0
  6
CONTINUOUS
100
AcDbLine
 10
21.46338838394921
 20
0.8208704232030986
 30
0.0
 11
20.38766507378723
 21
1.896593733365069
 31
0.0
  0
LINE
  5
1181E
330
117F2
100
AcDbEntity
  8
0
  6
CONTINUOUS
100
AcDbLine
 10
21.67162848476155
 20
1.28614953147094
 30
0.0
 11
20.59586817925786
 21
2.361909836974626
 31
0.0
  0
LINE
  5
1181F
330
117F2
100
AcDbEntity
  8
0
  6
CONTINUOUS
100
AcDbLine
 10
21.8798685855739
 20
1.751428639738782
 30
0.0
 11
20.80407128472849
 21
2.827225940584183
 31
0.0
  0
LINE
  5
11820
330
117F2
100
AcDbEntity
  8
0
  6
CONTINUOUS
100
AcDbLine
 10
22.08810868638624
 20
2.216707748006623
 30
0.0
 11
21.01227439019912
 21
3.292542044193739
 31
0.0
  0
LINE
  5
11821
330
117F2
100
AcDbEntity
  8
0
  6
CONTINUOUS
100
AcDbLine
 10
22.60993564347543
 20
2.36839999999762
 30
0.0
 11
21.22047749566975
 21
3.757858147803296
 31
0.0
  0
LINE
  5
11822
330
117F2
100
AcDbEntity
  8
0
  6
CONTINUOUS
100
AcDbLine
 10
23.28345485255561
 20
2.36839999999762
 30
0.0
 11
21.42868060114038
 21
4.223174251412853
 31
0.0
  0
LINE
  5
11823
330
117F2
100
AcDbEntity
  8
0
  6
CONTINUOUS
100
AcDbLine
 10
26.29227406164219
 20
0.0330999999912356
 30
0.0
 11
25.80009199592872
 21
0.5252820657046957
 31
0.0
  0
LINE
  5
11824
330
117F2
100
AcDbEntity
  8
0
  6
CONTINUOUS
100
AcDbLine
 10
23.9569740616358
 20
2.36839999999762
 30
0.0
 11
21.63688370661101
 21
4.688490355022409
 31
0.0
  0
LINE
  5
11825
330
117F2
100
AcDbEntity
  8
0
  6
CONTINUOUS
100
AcDbLine
 10
26.96579327072237
 20
0.0330999999912356
 30
0.0
 11
25.2554132311971
 21
1.743480039516508
 31
0.0
  0
LINE
  5
11826
330
117F2
100
AcDbEntity
  8
0
  6
CONTINUOUS
100
AcDbLine
 10
24.63049327071599
 20
2.36839999999762
 30
0.0
 11
23.32789327071731
 21
3.670999999996297
 31
0.0
  0
LINE
  5
11827
330
117F2
100
AcDbEntity
  8
0
  6
CONTINUOUS
100
AcDbLine
 10
22.92098674744635
 20
4.077906523267254
 30
0.0
 11
21.84508681208164
 21
5.153806458631966
 31
0.0
  0
LINE
  5
11828
330
117F2
100
AcDbEntity
  8
0
  6
CONTINUOUS
100
AcDbLine
 10
27.63931247980256
 20
0.0330999999912356
 30
0.0
 11
24.0014124797975
 21
3.670999999996297
 31
0.0
  0
LINE
  5
11829
330
117F2
100
AcDbEntity
  8
0
  6
CONTINUOUS
100
AcDbLine
 10
23.129125600968
 20
4.5432868788258
 30
0.0
 11
22.05328991755227
 21
5.619122562241522
 31
0.0
  0
LINE
  5
1182A
330
117F2
100
AcDbEntity
  8
0
  6
CONTINUOUS
100
AcDbLine
 10
28.31283168888275
 20
0.0330999999912356
 30
0.0
 11
24.16488385994816
 21
4.181047828925828
 31
0.0
  0
LINE
  5
1182B
330
117F2
100
AcDbEntity
  8
0
  6
CONTINUOUS
100
AcDbLine
 10
23.33726445448964
 20
5.008667234384345
 30
0.0
 11
22.2614930230229
 21
6.084438665851079
 31
0.0
  0
LINE
  5
1182C
330
117F2
100
AcDbEntity
  8
0
  6
CONTINUOUS
100
AcDbLine
 10
28.92085740005492
 20
0.0985934978992438
 30
0.0
 11
27.63635089796295
 21
1.383099999991217
 31
0.0
  0
LINE
  5
1182D
330
117F2
100
AcDbEntity
  8
0
  6
CONTINUOUS
100
AcDbLine
 10
26.43704649509776
 20
2.582404402856405
 30
0.0
 11
23.61992702019732
 21
5.399523877756844
 31
0.0
  0
LINE
  5
1182E
330
117F2
100
AcDbEntity
  8
0
  6
CONTINUOUS
100
AcDbLine
 10
23.54540330801128
 20
5.47404758994289
 30
0.0
 11
22.46969612849353
 21
6.549754769460635
 31
0.0
  0
LINE
  5
1182F
330
117F2
100
AcDbEntity
  8
0
  6
CONTINUOUS
100
AcDbLine
 10
29.42225615078443
 20
0.2707139562499279
 30
0.0
 11
28.30987010704312
 21
1.383099999991234
 31
0.0
  0
LINE
  5
11830
330
117F2
100
AcDbEntity
  8
0
  6
CONTINUOUS
100
AcDbLine
 10
25.89179548232307
 20
3.801174624711282
 30
0.0
 11
22.67789923396416
 21
7.015070873070191
 31
0.0
  0
LINE
  5
11831
330
117F2
100
AcDbEntity
  8
0
  6
CONTINUOUS
100
AcDbLine
 10
29.83624534690007
 20
0.5302439692144705
 30
0.0
 11
28.85811781497101
 21
1.508371501143527
 31
0.0
  0
LINE
  5
11832
330
117F2
100
AcDbEntity
  8
0
  6
CONTINUOUS
100
AcDbLine
 10
25.34654446954838
 20
5.01994484656616
 30
0.0
 11
22.88610233943479
 21
7.480386976679748
 31
0.0
  0
LINE
  5
11833
330
117F2
100
AcDbEntity
  8
0
  6
CONTINUOUS
100
AcDbLine
 10
30.17865975401872
 20
0.8613487711760022
 30
0.0
 11
29.18888744090175
 21
1.851121084292977
 31
0.0
  0
LINE
  5
11834
330
117F2
100
AcDbEntity
  8
0
  6
CONTINUOUS
100
AcDbLine
 10
24.80129345677369
 20
6.238715068421037
 30
0.0
 11
23.09430544490542
 21
7.945703080289305
 31
0.0
  0
LINE
  5
11835
330
117F2
100
AcDbEntity
  8
0
  6
CONTINUOUS
100
AcDbLine
 10
30.45496647202376
 20
1.258561262251155
 30
0.0
 11
29.30199999996933
 21
2.411527734305588
 31
0.0
  0
LINE
  5
11836
330
117F2
100
AcDbEntity
  8
0
  6
CONTINUOUS
100
AcDbLine
 10
24.256042443999
 20
7.457485290275915
 30
0.0
 11
23.30250855037605
 21
8.411019183898862
 31
0.0
  0
LINE
  5
11837
330
117F2
100
AcDbEntity
  8
0
  6
CONTINUOUS
100
AcDbLine
 10
30.64868582078271
 20
1.738361122572387
 30
0.0
 11
29.30199999996933
 21
3.085046943385775
 31
0.0
  0
LINE
  5
11838
330
117F2
100
AcDbEntity
  8
0
  6
CONTINUOUS
100
AcDbLine
 10
23.71079143122431
 20
8.676255512130794
 30
0.0
 11
23.51071165584668
 21
8.876335287508416
 31
0.0
  0
LINE
  5
11839
330
117F2
100
AcDbEntity
  8
0
  6
CONTINUOUS
100
AcDbLine
 10
30.73802122914428
 20
2.322544923291007
 30
0.0
 11
29.30199999996933
 21
3.758566152465961
 31
0.0
  0
LINE
  5
1183A
330
117F2
100
AcDbEntity
  8
0
  6
CONTINUOUS
100
AcDbLine
 10
30.74199999996924
 20
2.992085361546236
 30
0.0
 11
29.30199999996933
 21
4.432085361546148
 31
0.0
  0
LINE
  5
1183B
330
117F2
100
AcDbEntity
  8
0
  6
CONTINUOUS
100
AcDbLine
 10
30.74199999996924
 20
3.665604570626419
 30
0.0
 11
29.30199999996933
 21
5.105604570626333
 31
0.0
  0
LINE
  5
1183C
330
117F2
100
AcDbEntity
  8
0
  6
CONTINUOUS
100
AcDbLine
 10
30.74199999996925
 20
4.339123779706602
 30
0.0
 11
29.30199999996933
 21
5.77912377970652
 31
0.0
  0
LINE
  5
1183D
330
117F2
100
AcDbEntity
  8
0
  6
CONTINUOUS
100
AcDbLine
 10
30.74199999996925
 20
5.012642988786785
 30
0.0
 11
29.30199999996933
 21
6.452642988786707
 31
0.0
  0
LINE
  5
1183E
330
117F2
100
AcDbEntity
  8
0
  6
CONTINUOUS
100
AcDbLine
 10
30.74199999996925
 20
5.68616219786697
 30
0.0
 11
29.30199999996933
 21
7.126162197866894
 31
0.0
  0
LINE
  5
1183F
330
117F2
100
AcDbEntity
  8
0
  6
CONTINUOUS
100
AcDbLine
 10
30.74199999996925
 20
6.359681406947153
 30
0.0
 11
29.30199999996933
 21
7.799681406947081
 31
0.0
  0
LINE
  5
11840
330
117F2
100
AcDbEntity
  8
0
  6
CONTINUOUS
100
AcDbLine
 10
30.74199999996926
 20
7.033200616027337
 30
0.0
 11
29.30199999996933
 21
8.473200616027269
 31
0.0
  0
LINE
  5
11841
330
117F2
100
AcDbEntity
  8
0
  6
CONTINUOUS
100
AcDbLine
 10
30.74199999996926
 20
7.706719825107518
 30
0.0
 11
29.68561982508552
 21
8.763099999991255
 31
0.0
  0
LINE
  5
11842
330
117F2
100
AcDbEntity
  8
0
  6
CONTINUOUS
100
AcDbLine
 10
30.74199999996926
 20
8.380239034187703
 30
0.0
 11
30.35913903416571
 21
8.763099999991255
 31
0.0
  0
ENDBLK
  5
118E5
330
117F2
100
AcDbEntity
  8
0
100
AcDbBlockEnd
  0
BLOCK
  5
118E6
330
11843
100
AcDbEntity
  8
0
100
AcDbBlockBegin
  2
*X218
 70
     1
 10
0.0
 20
0.0
 30
0.0
  3
*X218
  1

  0
LINE
  5
11844
330
11843
100
AcDbEntity
  8
0
  6
CONTINUOUS
100
AcDbLine
 10
31.64199999996833
 20
8.535058289913598
 30
0.0
 11
31.87004171004599
 21
8.763099999991255
 31
0.0
  0
LINE
  5
11845
330
11843
100
AcDbEntity
  8
0
  6
CONTINUOUS
100
AcDbLine
 10
31.64199999996833
 20
7.861539080833412
 30
0.0
 11
32.54356091912618
 21
8.763099999991255
 31
0.0
  0
LINE
  5
11846
330
11843
100
AcDbEntity
  8
0
  6
CONTINUOUS
100
AcDbLine
 10
31.64199999996833
 20
7.188019871753226
 30
0.0
 11
33.08199999996839
 21
8.628019871753281
 31
0.0
  0
LINE
  5
11847
330
11843
100
AcDbEntity
  8
0
  6
CONTINUOUS
100
AcDbLine
 10
31.64199999996833
 20
6.51450066267304
 30
0.0
 11
33.08199999996839
 21
7.954500662673095
 31
0.0
  0
LINE
  5
11848
330
11843
100
AcDbEntity
  8
0
  6
CONTINUOUS
100
AcDbLine
 10
31.64199999996833
 20
5.840981453592853
 30
0.0
 11
33.08199999996839
 21
7.280981453592908
 31
0.0
  0
LINE
  5
11849
330
11843
100
AcDbEntity
  8
0
  6
CONTINUOUS
100
AcDbLine
 10
31.64199999996833
 20
5.167462244512667
 30
0.0
 11
33.08199999996839
 21
6.607462244512721
 31
0.0
  0
LINE
  5
1184A
330
11843
100
AcDbEntity
  8
0
  6
CONTINUOUS
100
AcDbLine
 10
31.64199999996833
 20
4.493943035432481
 30
0.0
 11
33.08199999996839
 21
5.933943035432535
 31
0.0
  0
LINE
  5
1184B
330
11843
100
AcDbEntity
  8
0
  6
CONTINUOUS
100
AcDbLine
 10
31.64199999996833
 20
3.820423826352293
 30
0.0
 11
33.08199999996839
 21
5.260423826352348
 31
0.0
  0
LINE
  5
1184C
330
11843
100
AcDbEntity
  8
0
  6
CONTINUOUS
100
AcDbLine
 10
31.64199999996833
 20
3.146904617272106
 30
0.0
 11
33.08199999996839
 21
4.586904617272161
 31
0.0
  0
LINE
  5
1184D
330
11843
100
AcDbEntity
  8
0
  6
CONTINUOUS
100
AcDbLine
 10
36.23199999996837
 20
8.410423826352325
 30
0.0
 11
36.5846761736073
 21
8.763099999991255
 31
0.0
  0
LINE
  5
1184E
330
11843
100
AcDbEntity
  8
0
  6
CONTINUOUS
100
AcDbLine
 10
36.23199999996837
 20
7.73690461727214
 30
0.0
 11
37.25819538268748
 21
8.763099999991255
 31
0.0
  0
LINE
  5
1184F
330
11843
100
AcDbEntity
  8
0
  6
CONTINUOUS
100
AcDbLine
 10
31.64257403601376
 20
2.473959444237348
 30
0.0
 11
33.08199999996839
 21
3.913385408191974
 31
0.0
  0
LINE
  5
11850
330
11843
100
AcDbEntity
  8
0
  6
CONTINUOUS
100
AcDbLine
 10
36.23199999996837
 20
7.063385408191953
 30
0.0
 11
37.67199999996831
 21
8.503385408191894
 31
0.0
  0
LINE
  5
11851
330
11843
100
AcDbEntity
  8
0
  6
CONTINUOUS
100
AcDbLine
 10
31.72013636841932
 20
1.87800256756272
 30
0.0
 11
33.08199999996839
 21
3.239866199111788
 31
0.0
  0
LINE
  5
11852
330
11843
100
AcDbEntity
  8
0
  6
CONTINUOUS
100
AcDbLine
 10
36.23199999996837
 20
6.389866199111767
 30
0.0
 11
37.67199999996831
 21
7.829866199111708
 31
0.0
  0
LINE
  5
11853
330
11843
100
AcDbEntity
  8
0
  6
CONTINUOUS
100
AcDbLine
 10
31.89042734314753
 20
1.374774333210744
 30
0.0
 11
33.08199999996839
 21
2.566346990031601
 31
0.0
  0
LINE
  5
11854
330
11843
100
AcDbEntity
  8
0
  6
CONTINUOUS
100
AcDbLine
 10
36.23199999996837
 20
5.71634699003158
 30
0.0
 11
37.67199999996831
 21
7.156346990031521
 31
0.0
  0
LINE
  5
11855
330
11843
100
AcDbEntity
  8
0
  6
CONTINUOUS
100
AcDbLine
 10
32.14210568064475
 20
0.952933461627778
 30
0.0
 11
33.18745552475986
 21
1.998283305742888
 31
0.0
  0
LINE
  5
11856
330
11843
100
AcDbEntity
  8
0
  6
CONTINUOUS
100
AcDbLine
 10
36.23199999996837
 20
5.042827780951393
 30
0.0
 11
37.67199999996831
 21
6.482827780951334
 31
0.0
  0
LINE
  5
11857
330
11843
100
AcDbEntity
  8
0
  6
CONTINUOUS
100
AcDbLine
 10
32.45820639400955
 20
0.5955149659123915
 30
0.0
 11
33.47242681921943
 21
1.60973539112227
 31
0.0
  0
LINE
  5
11858
330
11843
100
AcDbEntity
  8
0
  6
CONTINUOUS
100
AcDbLine
 10
36.23199999996837
 20
4.369308571871207
 30
0.0
 11
37.67199999996831
 21
5.809308571871147
 31
0.0
  0
LINE
  5
11859
330
11843
100
AcDbEntity
  8
0
  6
CONTINUOUS
100
AcDbLine
 10
32.83432456621412
 20
0.2981139290367771
 30
0.0
 11
33.89722476612215
 21
1.361014128944803
 31
0.0
  0
LINE
  5
1185A
330
11843
100
AcDbEntity
  8
0
  6
CONTINUOUS
100
AcDbLine
 10
36.23199999996837
 20
3.69578936279102
 30
0.0
 11
37.67199999996831
 21
5.135789362790962
 31
0.0
  0
LINE
  5
1185B
330
11843
100
AcDbEntity
  8
0
  6
CONTINUOUS
100
AcDbLine
 10
33.2711633111245
 20
0.0614334648669672
 30
0.0
 11
34.43247338014423
 21
1.222743533886696
 31
0.0
  0
LINE
  5
1185C
330
11843
100
AcDbEntity
  8
0
  6
CONTINUOUS
100
AcDbLine
 10
36.23199999996837
 20
3.022270153710834
 30
0.0
 11
37.67199999996831
 21
4.462270153710775
 31
0.0
  0
LINE
  5
1185D
330
11843
100
AcDbEntity
  8
0
  6
CONTINUOUS
100
AcDbLine
 10
33.76515245874577
 20
-0.1180965965919523
 30
0.0
 11
35.1587445516215
 21
1.27549549628378
 31
0.0
  0
LINE
  5
1185E
330
11843
100
AcDbEntity
  8
0
  6
CONTINUOUS
100
AcDbLine
 10
36.21639478609585
 20
2.333145730758136
 30
0.0
 11
37.67199999996831
 21
3.788750944630588
 31
0.0
  0
LINE
  5
1185F
330
11843
100
AcDbEntity
  8
0
  6
CONTINUOUS
100
AcDbLine
 10
34.34060583368432
 20
-0.2161624307335863
 30
0.0
 11
37.67199999996831
 21
3.115231735550401
 31
0.0
  0
LINE
  5
11860
330
11843
100
AcDbEntity
  8
0
  6
CONTINUOUS
100
AcDbLine
 10
35.01698193613905
 20
-0.2133055373590427
 30
0.0
 11
37.66876712070525
 21
2.438479647207154
 31
0.0
  0
LINE
  5
11861
330
11843
100
AcDbEntity
  8
0
  6
CONTINUOUS
100
AcDbLine
 10
35.90743367693304
 20
0.0036269943547609
 30
0.0
 11
37.51723902192366
 21
1.613432339345381
 31
0.0
  0
LINE
  5
11862
330
11843
100
AcDbEntity
  8
0
  6
CONTINUOUS
100
AcDbLine
 10
32.55309425579761
 20
0.5074718966376706
 30
0.0
 11
32.27784730925847
 21
0.7827188431768102
 31
0.0
  0
LINE
  5
11863
330
11843
100
AcDbEntity
  8
0
  6
CONTINUOUS
100
AcDbLine
 10
33.87496468909684
 20
-0.1408793275813673
 30
0.0
 11
31.67993083278052
 21
2.054154528734943
 31
0.0
  0
LINE
  5
11864
330
11843
100
AcDbEntity
  8
0
  6
CONTINUOUS
100
AcDbLine
 10
34.64362813207632
 20
-0.2360235614806649
 30
0.0
 11
31.64199999996833
 21
2.765604570627322
 31
0.0
  0
LINE
  5
11865
330
11843
100
AcDbEntity
  8
0
  6
CONTINUOUS
100
AcDbLine
 10
35.25801106796118
 20
-0.1768872882853429
 30
0.0
 11
31.64199999996833
 21
3.439123779707508
 31
0.0
  0
LINE
  5
11866
330
11843
100
AcDbEntity
  8
0
  6
CONTINUOUS
100
AcDbLine
 10
35.79065650332146
 20
-0.0360135145654361
 30
0.0
 11
34.54143210838231
 21
1.213210880373721
 31
0.0
  0
LINE
  5
11867
330
11843
100
AcDbEntity
  8
0
  6
CONTINUOUS
100
AcDbLine
 10
33.08199999996839
 20
2.67264298878764
 30
0.0
 11
31.64199999996833
 21
4.112642988787695
 31
0.0
  0
LINE
  5
11868
330
11843
100
AcDbEntity
  8
0
  6
CONTINUOUS
100
AcDbLine
 10
36.25975597779143
 20
0.1684062200447833
 30
0.0
 11
35.15395110240023
 21
1.274211095435983
 31
0.0
  0
LINE
  5
11869
330
11843
100
AcDbEntity
  8
0
  6
CONTINUOUS
100
AcDbLine
 10
33.08199999996839
 20
3.346162197867826
 30
0.0
 11
31.64199999996833
 21
4.786162197867881
 31
0.0
  0
LINE
  5
1186A
330
11843
100
AcDbEntity
  8
0
  6
CONTINUOUS
100
AcDbLine
 10
36.67226329638774
 20
0.4294181105286579
 30
0.0
 11
35.63766478748767
 21
1.464016619428737
 31
0.0
  0
LINE
  5
1186B
330
11843
100
AcDbEntity
  8
0
  6
CONTINUOUS
100
AcDbLine
 10
33.08199999996839
 20
4.019681406948012
 30
0.0
 11
31.64199999996833
 21
5.459681406948068
 31
0.0
  0
LINE
  5
1186C
330
11843
100
AcDbEntity
  8
0
  6
CONTINUOUS
100
AcDbLine
 10
37.01677749710036
 20
0.7584231188962329
 30
0.0
 11
35.99563422741351
 21
1.779566388583076
 31
0.0
  0
LINE
  5
1186D
330
11843
100
AcDbEntity
  8
0
  6
CONTINUOUS
100
AcDbLine
 10
33.08199999996839
 20
4.693200616028199
 30
0.0
 11
31.64199999996833
 21
6.133200616028255
 31
0.0
  0
LINE
  5
1186E
330
11843
100
AcDbEntity
  8
0
  6
CONTINUOUS
100
AcDbLine
 10
37.29859977568887
 20
1.1501200493879
 30
0.0
 11
36.20680593341555
 21
2.241913891661226
 31
0.0
  0
LINE
  5
1186F
330
11843
100
AcDbEntity
  8
0
  6
CONTINUOUS
100
AcDbLine
 10
33.08199999996839
 20
5.366719825108386
 30
0.0
 11
31.64199999996833
 21
6.80671982510844
 31
0.0
  0
LINE
  5
11870
330
11843
100
AcDbEntity
  8
0
  6
CONTINUOUS
100
AcDbLine
 10
37.5148623517228
 20
1.607376682434161
 30
0.0
 11
36.23199999996837
 21
2.890239034188594
 31
0.0
  0
LINE
  5
11871
330
11843
100
AcDbEntity
  8
0
  6
CONTINUOUS
100
AcDbLine
 10
33.08199999996839
 20
6.040239034188573
 30
0.0
 11
31.64199999996833
 21
7.480239034188627
 31
0.0
  0
LINE
  5
11872
330
11843
100
AcDbEntity
  8
0
  6
CONTINUOUS
100
AcDbLine
 10
37.64705163358367
 20
2.148706609653477
 30
0.0
 11
36.23199999996837
 21
3.56375824326878
 31
0.0
  0
LINE
  5
11873
330
11843
100
AcDbEntity
  8
0
  6
CONTINUOUS
100
AcDbLine
 10
33.08199999996839
 20
6.713758243268758
 30
0.0
 11
31.64199999996833
 21
8.153758243268815
 31
0.0
  0
LINE
  5
11874
330
11843
100
AcDbEntity
  8
0
  6
CONTINUOUS
100
AcDbLine
 10
37.67199999996831
 20
2.797277452349026
 30
0.0
 11
36.23199999996837
 21
4.237277452348967
 31
0.0
  0
LINE
  5
11875
330
11843
100
AcDbEntity
  8
0
  6
CONTINUOUS
100
AcDbLine
 10
37.67199999996831
 20
3.470796661429213
 30
0.0
 11
36.23199999996837
 21
4.910796661429154
 31
0.0
  0
LINE
  5
11876
330
11843
100
AcDbEntity
  8
0
  6
CONTINUOUS
100
AcDbLine
 10
37.67199999996831
 20
4.144315870509399
 30
0.0
 11
36.23199999996837
 21
5.58431587050934
 31
0.0
  0
LINE
  5
11877
330
11843
100
AcDbEntity
  8
0
  6
CONTINUOUS
100
AcDbLine
 10
33.08199999996839
 20
7.387277452348945
 30
0.0
 11
31.70617745232608
 21
8.763099999991255
 31
0.0
  0
LINE
  5
11878
330
11843
100
AcDbEntity
  8
0
  6
CONTINUOUS
100
AcDbLine
 10
33.08199999996839
 20
8.060796661429132
 30
0.0
 11
32.37969666140626
 21
8.763099999991255
 31
0.0
  0
LINE
  5
11879
330
11843
100
AcDbEntity
  8
0
  6
CONTINUOUS
100
AcDbLine
 10
33.08199999996839
 20
8.734315870509318
 30
0.0
 11
33.05321587048645
 21
8.763099999991255
 31
0.0
  0
LINE
  5
1187A
330
11843
100
AcDbEntity
  8
0
  6
CONTINUOUS
100
AcDbLine
 10
37.67199999996831
 20
4.817835079589585
 30
0.0
 11
36.23199999996837
 21
6.257835079589526
 31
0.0
  0
LINE
  5
1187B
330
11843
100
AcDbEntity
  8
0
  6
CONTINUOUS
100
AcDbLine
 10
37.67199999996831
 20
5.491354288669771
 30
0.0
 11
36.23199999996837
 21
6.931354288669713
 31
0.0
  0
LINE
  5
1187C
330
11843
100
AcDbEntity
  8
0
  6
CONTINUOUS
100
AcDbLine
 10
37.67199999996831
 20
6.164873497749958
 30
0.0
 11
36.23199999996837
 21
7.6048734977499
 31
0.0
  0
LINE
  5
1187D
330
11843
100
AcDbEntity
  8
0
  6
CONTINUOUS
100
AcDbLine
 10
37.67199999996831
 20
6.838392706830144
 30
0.0
 11
36.23199999996837
 21
8.278392706830086
 31
0.0
  0
LINE
  5
1187E
330
11843
100
AcDbEntity
  8
0
  6
CONTINUOUS
100
AcDbLine
 10
37.67199999996831
 20
7.511911915910332
 30
0.0
 11
36.42081191588738
 21
8.763099999991255
 31
0.0
  0
LINE
  5
1187F
330
11843
100
AcDbEntity
  8
0
  6
CONTINUOUS
100
AcDbLine
 10
37.67199999996831
 20
8.185431124990519
 30
0.0
 11
37.09433112496757
 21
8.763099999991255
 31
0.0
  0
ENDBLK
  5
118E7
330
11843
100
AcDbEntity
  8
0
100
AcDbBlockEnd
  0
BLOCK
  5
118E8
330
11880
100
AcDbEntity
  8
0
100
AcDbBlockBegin
  2
*X219
 70
     1
 10
0.0
 20
0.0
 30
0.0
  3
*X219
  1

  0
LINE
  5
11881
330
11880
100
AcDbEntity
  8
0
  6
CONTINUOUS
100
AcDbLine
 10
38.60499999996136
 20
8.762866199104765
 30
0.0
 11
38.71672554182345
 21
8.874591740966855
 31
0.0
  0
LINE
  5
11882
330
11880
100
AcDbEntity
  8
0
  6
CONTINUOUS
100
AcDbLine
 10
38.60499999996136
 20
8.089346990024577
 30
0.0
 11
39.03418785440363
 21
8.518534844466847
 31
0.0
  0
LINE
  5
11883
330
11880
100
AcDbEntity
  8
0
  6
CONTINUOUS
100
AcDbLine
 10
38.60499999996136
 20
7.41582778094439
 30
0.0
 11
39.35165016698382
 21
8.16247794796684
 31
0.0
  0
LINE
  5
11884
330
11880
100
AcDbEntity
  8
0
  6
CONTINUOUS
100
AcDbLine
 10
38.60499999996136
 20
6.742308571864204
 30
0.0
 11
39.66911247956399
 21
7.806421051466834
 31
0.0
  0
LINE
  5
11885
330
11880
100
AcDbEntity
  8
0
  6
CONTINUOUS
100
AcDbLine
 10
38.60499999996136
 20
6.068789362784018
 30
0.0
 11
39.98657479214418
 21
7.450364154966827
 31
0.0
  0
LINE
  5
11886
330
11880
100
AcDbEntity
  8
0
  6
CONTINUOUS
100
AcDbLine
 10
38.60499999996136
 20
5.395270153703832
 30
0.0
 11
40.30403710472435
 21
7.09430725846682
 31
0.0
  0
LINE
  5
11887
330
11880
100
AcDbEntity
  8
0
  6
CONTINUOUS
100
AcDbLine
 10
38.60499999996136
 20
4.721750944623645
 30
0.0
 11
40.62149941730453
 21
6.738250361966813
 31
0.0
  0
LINE
  5
11888
330
11880
100
AcDbEntity
  8
0
  6
CONTINUOUS
100
AcDbLine
 10
38.60499999996136
 20
4.048231735543458
 30
0.0
 11
40.93896172988471
 21
6.382193465466806
 31
0.0
  0
LINE
  5
11889
330
11880
100
AcDbEntity
  8
0
  6
CONTINUOUS
100
AcDbLine
 10
38.60499999996136
 20
3.374712526463272
 30
0.0
 11
40.02599999995994
 21
4.795712526461843
 31
0.0
  0
LINE
  5
1188A
330
11880
100
AcDbEntity
  8
0
  6
CONTINUOUS
100
AcDbLine
 10
38.60499999996136
 20
2.701193317383085
 30
0.0
 11
40.02599999995994
 21
4.122193317381657
 31
0.0
  0
LINE
  5
1188B
330
11880
100
AcDbEntity
  8
0
  6
CONTINUOUS
100
AcDbLine
 10
40.28339754687704
 20
5.053110073378947
 30
0.0
 11
41.25642404246489
 21
6.026136568966799
 31
0.0
  0
LINE
  5
1188C
330
11880
100
AcDbEntity
  8
0
  6
CONTINUOUS
100
AcDbLine
 10
40.60085985945722
 20
4.697053176878939
 30
0.0
 11
41.57388635504507
 21
5.670079672466793
 31
0.0
  0
LINE
  5
1188D
330
11880
100
AcDbEntity
  8
0
  6
CONTINUOUS
100
AcDbLine
 10
43.57899999995641
 20
8.348712526458318
 30
0.0
 11
43.99338747348935
 21
8.763099999991255
 31
0.0
  0
LINE
  5
1188E
330
11880
100
AcDbEntity
  8
0
  6
CONTINUOUS
100
AcDbLine
 10
43.57899999995641
 20
7.675193317378131
 30
0.0
 11
44.66690668256953
 21
8.763099999991255
 31
0.0
  0
LINE
  5
1188F
330
11880
100
AcDbEntity
  8
0
  6
CONTINUOUS
100
AcDbLine
 10
38.60499999996136
 20
2.027674108302898
 30
0.0
 11
40.02599999995994
 21
3.44867410830147
 31
0.0
  0
LINE
  5
11890
330
11880
100
AcDbEntity
  8
0
  6
CONTINUOUS
100
AcDbLine
 10
38.60499999996136
 20
1.354154899222712
 30
0.0
 11
40.02599999995994
 21
2.775154899221284
 31
0.0
  0
LINE
  5
11891
330
11880
100
AcDbEntity
  8
0
  6
CONTINUOUS
100
AcDbLine
 10
38.60499999996136
 20
0.6806356901425255
 30
0.0
 11
40.02599999995994
 21
2.101635690141098
 31
0.0
  0
LINE
  5
11892
330
11880
100
AcDbEntity
  8
0
  6
CONTINUOUS
100
AcDbLine
 10
38.60499999996136
 20
0.0071164810623383
 30
0.0
 11
40.02599999995994
 21
1.428116481060911
 31
0.0
  0
LINE
  5
11893
330
11880
100
AcDbEntity
  8
0
  6
CONTINUOUS
100
AcDbLine
 10
40.9183221720374
 20
4.340996280378933
 30
0.0
 11
41.89134866762525
 21
5.314022775966786
 31
0.0
  0
LINE
  5
11894
330
11880
100
AcDbEntity
  8
0
  6
CONTINUOUS
100
AcDbLine
 10
41.23578448461758
 20
3.984939383878926
 30
0.0
 11
42.20881098020543
 21
4.957965879466778
 31
0.0
  0
LINE
  5
11895
330
11880
100
AcDbEntity
  8
0
  6
CONTINUOUS
100
AcDbLine
 10
41.55324679719776
 20
3.628882487378919
 30
0.0
 11
42.52627329278561
 21
4.601908982966772
 31
0.0
  0
LINE
  5
11896
330
11880
100
AcDbEntity
  8
0
  6
CONTINUOUS
100
AcDbLine
 10
41.87070910977793
 20
3.272825590878912
 30
0.0
 11
42.84373560536579
 21
4.245852086466765
 31
0.0
  0
LINE
  5
11897
330
11880
100
AcDbEntity
  8
0
  6
CONTINUOUS
100
AcDbLine
 10
43.57899999995641
 20
7.001674108297943
 30
0.0
 11
44.99999999995498
 21
8.422674108296516
 31
0.0
  0
LINE
  5
11898
330
11880
100
AcDbEntity
  8
0
  6
CONTINUOUS
100
AcDbLine
 10
43.57899999995641
 20
6.328154899217758
 30
0.0
 11
44.99999999995498
 21
7.749154899216329
 31
0.0
  0
LINE
  5
11899
330
11880
100
AcDbEntity
  8
0
  6
CONTINUOUS
100
AcDbLine
 10
43.57899999995641
 20
5.654635690137571
 30
0.0
 11
44.99999999995498
 21
7.075635690136142
 31
0.0
  0
LINE
  5
1189A
330
11880
100
AcDbEntity
  8
0
  6
CONTINUOUS
100
AcDbLine
 10
43.57899999995641
 20
4.981116481057384
 30
0.0
 11
44.99999999995498
 21
6.402116481055955
 31
0.0
  0
LINE
  5
1189B
330
11880
100
AcDbEntity
  8
0
  6
CONTINUOUS
100
AcDbLine
 10
39.27140272797921
 20
-0.0000000000000009
 30
0.0
 11
40.02599999995994
 21
0.7545972719807246
 31
0.0
  0
LINE
  5
1189C
330
11880
100
AcDbEntity
  8
0
  6
CONTINUOUS
100
AcDbLine
 10
39.9449219370594
 20
-0.0000000000000009
 30
0.0
 11
40.02599999995994
 21
0.0810780629005379
 31
0.0
  0
LINE
  5
1189D
330
11880
100
AcDbEntity
  8
0
  6
CONTINUOUS
100
AcDbLine
 10
42.18817142235812
 20
2.916768694378905
 30
0.0
 11
43.16119791794597
 21
3.889795189966758
 31
0.0
  0
LINE
  5
1189E
330
11880
100
AcDbEntity
  8
0
  6
CONTINUOUS
100
AcDbLine
 10
42.50563373493829
 20
2.560711797878898
 30
0.0
 11
43.47866023052615
 21
3.533738293466751
 31
0.0
  0
LINE
  5
1189F
330
11880
100
AcDbEntity
  8
0
  6
CONTINUOUS
100
AcDbLine
 10
43.57899999995641
 20
4.307597271977198
 30
0.0
 11
44.99999999995498
 21
5.728597271975769
 31
0.0
  0
LINE
  5
118A0
330
11880
100
AcDbEntity
  8
0
  6
CONTINUOUS
100
AcDbLine
 10
43.57899999995641
 20
3.634078062897011
 30
0.0
 11
44.99999999995498
 21
5.055078062895582
 31
0.0
  0
LINE
  5
118A1
330
11880
100
AcDbEntity
  8
0
  6
CONTINUOUS
100
AcDbLine
 10
42.82309604751848
 20
2.204654901378891
 30
0.0
 11
44.99999999995498
 21
4.381558853815395
 31
0.0
  0
LINE
  5
118A2
330
11880
100
AcDbEntity
  8
0
  6
CONTINUOUS
100
AcDbLine
 10
43.14055836009865
 20
1.848598004878885
 30
0.0
 11
44.99999999995498
 21
3.70803964473521
 31
0.0
  0
LINE
  5
118A3
330
11880
100
AcDbEntity
  8
0
  6
CONTINUOUS
100
AcDbLine
 10
43.45802067267883
 20
1.492541108378878
 30
0.0
 11
44.99999999995498
 21
3.034520435655023
 31
0.0
  0
LINE
  5
118A4
330
11880
100
AcDbEntity
  8
0
  6
CONTINUOUS
100
AcDbLine
 10
43.77548298525902
 20
1.136484211878871
 30
0.0
 11
44.99999999995498
 21
2.361001226574837
 31
0.0
  0
LINE
  5
118A5
330
11880
100
AcDbEntity
  8
0
  6
CONTINUOUS
100
AcDbLine
 10
44.09294529783919
 20
0.7804273153788639
 30
0.0
 11
44.99999999995498
 21
1.687482017494649
 31
0.0
  0
LINE
  5
118A6
330
11880
100
AcDbEntity
  8
0
  6
CONTINUOUS
100
AcDbLine
 10
44.41040761041938
 20
0.4243704188788566
 30
0.0
 11
44.99999999995498
 21
1.013962808414463
 31
0.0
  0
LINE
  5
118A7
330
11880
100
AcDbEntity
  8
0
  6
CONTINUOUS
100
AcDbLine
 10
44.72786992299955
 20
0.0683135223788494
 30
0.0
 11
44.99999999995498
 21
0.340443599334276
 31
0.0
  0
LINE
  5
118A8
330
11880
100
AcDbEntity
  8
0
  6
CONTINUOUS
100
AcDbLine
 10
39.12223903415696
 20
-0.0000000000000009
 30
0.0
 11
38.60499999996136
 21
0.5172390341955961
 31
0.0
  0
LINE
  5
118A9
330
11880
100
AcDbEntity
  8
0
  6
CONTINUOUS
100
AcDbLine
 10
39.79575824323715
 20
-0.0000000000000009
 30
0.0
 11
38.60499999996136
 21
1.190758243275783
 31
0.0
  0
LINE
  5
118AA
330
11880
100
AcDbEntity
  8
0
  6
CONTINUOUS
100
AcDbLine
 10
40.02599999995994
 20
0.443277452357397
 30
0.0
 11
38.60499999996136
 21
1.864277452355969
 31
0.0
  0
LINE
  5
118AB
330
11880
100
AcDbEntity
  8
0
  6
CONTINUOUS
100
AcDbLine
 10
40.02599999995994
 20
1.116796661437583
 30
0.0
 11
38.60499999996136
 21
2.537796661436155
 31
0.0
  0
LINE
  5
118AC
330
11880
100
AcDbEntity
  8
0
  6
CONTINUOUS
100
AcDbLine
 10
40.02599999995994
 20
1.79031587051777
 30
0.0
 11
38.60499999996136
 21
3.211315870516341
 31
0.0
  0
LINE
  5
118AD
330
11880
100
AcDbEntity
  8
0
  6
CONTINUOUS
100
AcDbLine
 10
40.02599999995994
 20
2.463835079597956
 30
0.0
 11
38.60499999996136
 21
3.884835079596527
 31
0.0
  0
LINE
  5
118AE
330
11880
100
AcDbEntity
  8
0
  6
CONTINUOUS
100
AcDbLine
 10
40.02599999995994
 20
3.137354288678143
 30
0.0
 11
38.60499999996136
 21
4.558354288676714
 31
0.0
  0
LINE
  5
118AF
330
11880
100
AcDbEntity
  8
0
  6
CONTINUOUS
100
AcDbLine
 10
40.02599999995994
 20
3.810873497758329
 30
0.0
 11
38.60499999996136
 21
5.2318734977569
 31
0.0
  0
LINE
  5
118B0
330
11880
100
AcDbEntity
  8
0
  6
CONTINUOUS
100
AcDbLine
 10
40.02599999995994
 20
4.484392706838515
 30
0.0
 11
38.60499999996136
 21
5.905392706837086
 31
0.0
  0
LINE
  5
118B1
330
11880
100
AcDbEntity
  8
0
  6
CONTINUOUS
100
AcDbLine
 10
44.99999999995498
 20
0.183911915923658
 30
0.0
 11
41.53858364506288
 21
3.64532827081576
 31
0.0
  0
LINE
  5
118B2
330
11880
100
AcDbEntity
  8
0
  6
CONTINUOUS
100
AcDbLine
 10
40.02599999995994
 20
5.157911915918703
 30
0.0
 11
38.60499999996136
 21
6.578911915917274
 31
0.0
  0
LINE
  5
118B3
330
11880
100
AcDbEntity
  8
0
  6
CONTINUOUS
100
AcDbLine
 10
44.99999999995498
 20
0.8574311250038447
 30
0.0
 11
38.60499999996136
 21
7.25243112499746
 31
0.0
  0
LINE
  5
118B4
330
11880
100
AcDbEntity
  8
0
  6
CONTINUOUS
100
AcDbLine
 10
44.99999999995498
 20
1.530950334084031
 30
0.0
 11
38.60499999996136
 21
7.925950334077647
 31
0.0
  0
LINE
  5
118B5
330
11880
100
AcDbEntity
  8
0
  6
CONTINUOUS
100
AcDbLine
 10
44.99999999995498
 20
2.204469543164218
 30
0.0
 11
43.57899999995641
 21
3.625469543162789
 31
0.0
  0
LINE
  5
118B6
330
11880
100
AcDbEntity
  8
0
  6
CONTINUOUS
100
AcDbLine
 10
41.89876730984767
 20
5.305702233271528
 30
0.0
 11
38.60499999996136
 21
8.599469543157834
 31
0.0
  0
LINE
  5
118B7
330
11880
100
AcDbEntity
  8
0
  6
CONTINUOUS
100
AcDbLine
 10
44.99999999995498
 20
2.877988752244405
 30
0.0
 11
43.57899999995641
 21
4.298988752242975
 31
0.0
  0
LINE
  5
118B8
330
11880
100
AcDbEntity
  8
0
  6
CONTINUOUS
100
AcDbLine
 10
44.99999999995498
 20
3.551507961324591
 30
0.0
 11
43.57899999995641
 21
4.972507961323163
 31
0.0
  0
LINE
  5
118B9
330
11880
100
AcDbEntity
  8
0
  6
CONTINUOUS
100
AcDbLine
 10
44.99999999995498
 20
4.225027170404777
 30
0.0
 11
43.57899999995641
 21
5.646027170403348
 31
0.0
  0
LINE
  5
118BA
330
11880
100
AcDbEntity
  8
0
  6
CONTINUOUS
100
AcDbLine
 10
44.99999999995498
 20
4.898546379484964
 30
0.0
 11
43.57899999995641
 21
6.319546379483535
 31
0.0
  0
LINE
  5
118BB
330
11880
100
AcDbEntity
  8
0
  6
CONTINUOUS
100
AcDbLine
 10
44.99999999995498
 20
5.572065588565151
 30
0.0
 11
43.57899999995641
 21
6.993065588563722
 31
0.0
  0
LINE
  5
118BC
330
11880
100
AcDbEntity
  8
0
  6
CONTINUOUS
100
AcDbLine
 10
44.99999999995498
 20
6.245584797645336
 30
0.0
 11
43.57899999995641
 21
7.666584797643908
 31
0.0
  0
LINE
  5
118BD
330
11880
100
AcDbEntity
  8
0
  6
CONTINUOUS
100
AcDbLine
 10
44.99999999995498
 20
6.919104006725522
 30
0.0
 11
43.57899999995641
 21
8.340104006724093
 31
0.0
  0
LINE
  5
118BE
330
11880
100
AcDbEntity
  8
0
  6
CONTINUOUS
100
AcDbLine
 10
44.99999999995498
 20
7.592623215805709
 30
0.0
 11
43.82952321576943
 21
8.763099999991255
 31
0.0
  0
LINE
  5
118BF
330
11880
100
AcDbEntity
  8
0
  6
CONTINUOUS
100
AcDbLine
 10
44.99999999995498
 20
8.266142424885896
 30
0.0
 11
44.50304242484962
 21
8.763099999991255
 31
0.0
  0
ENDBLK
  5
118E9
330
11880
100
AcDbEntity
  8
0
100
AcDbBlockEnd
  0
BLOCK
  5
118EA
330
118C0
100
AcDbEntity
  8
0
100
AcDbBlockBegin
  2
*X220
 70
     1
 10
0.0
 20
0.0
 30
0.0
  3
*X220
  1

  0
LINE
  5
118C1
330
118C0
100
AcDbEntity
  8
0
  6
CONTINUOUS
100
AcDbLine
 10
0.0
 20
8.548461116714023
 30
0.0
 11
0.2146388832772324
 21
8.763099999991255
 31
0.0
  0
LINE
  5
118C2
330
118C0
100
AcDbEntity
  8
0
  6
CONTINUOUS
100
AcDbLine
 10
-0.0000000000000002
 20
7.874941907633837
 30
0.0
 11
0.8881580923574184
 21
8.763099999991255
 31
0.0
  0
LINE
  5
118C3
330
118C0
100
AcDbEntity
  8
0
  6
CONTINUOUS
100
AcDbLine
 10
0.0
 20
7.20142269855365
 30
0.0
 11
1.420999999998572
 21
8.622422698552223
 31
0.0
  0
LINE
  5
118C4
330
118C0
100
AcDbEntity
  8
0
  6
CONTINUOUS
100
AcDbLine
 10
-0.0000000000000001
 20
6.527903489473465
 30
0.0
 11
1.420999999998571
 21
7.948903489472036
 31
0.0
  0
LINE
  5
118C5
330
118C0
100
AcDbEntity
  8
0
  6
CONTINUOUS
100
AcDbLine
 10
-0.0000000000000002
 20
5.854384280393278
 30
0.0
 11
1.420999999998571
 21
7.275384280391849
 31
0.0
  0
LINE
  5
118C6
330
118C0
100
AcDbEntity
  8
0
  6
CONTINUOUS
100
AcDbLine
 10
-0.0000000000000002
 20
5.180865071313091
 30
0.0
 11
1.420999999998571
 21
6.601865071311663
 31
0.0
  0
LINE
  5
118C7
330
118C0
100
AcDbEntity
  8
0
  6
CONTINUOUS
100
AcDbLine
 10
0.0
 20
4.507345862232905
 30
0.0
 11
1.420999999998571
 21
5.928345862231477
 31
0.0
  0
LINE
  5
118C8
330
118C0
100
AcDbEntity
  8
0
  6
CONTINUOUS
100
AcDbLine
 10
-0.0000000000000003
 20
3.833826653152718
 30
0.0
 11
1.420999999998571
 21
5.25482665315129
 31
0.0
  0
LINE
  5
118C9
330
118C0
100
AcDbEntity
  8
0
  6
CONTINUOUS
100
AcDbLine
 10
-0.0000000000000002
 20
3.160307444072532
 30
0.0
 11
1.420999999998571
 21
4.581307444071103
 31
0.0
  0
LINE
  5
118CA
330
118C0
100
AcDbEntity
  8
0
  6
CONTINUOUS
100
AcDbLine
 10
-0.0000000000000001
 20
2.486788234992345
 30
0.0
 11
1.420999999998571
 21
3.907788234990917
 31
0.0
  0
LINE
  5
118CB
330
118C0
100
AcDbEntity
  8
0
  6
CONTINUOUS
100
AcDbLine
 10
-0.0000000000000006
 20
1.813269025912159
 30
0.0
 11
1.420999999998571
 21
3.234269025910731
 31
0.0
  0
LINE
  5
118CC
330
118C0
100
AcDbEntity
  8
0
  6
CONTINUOUS
100
AcDbLine
 10
0.0
 20
1.139749816831973
 30
0.0
 11
1.420999999998571
 21
2.560749816830544
 31
0.0
  0
LINE
  5
118CD
330
118C0
100
AcDbEntity
  8
0
  6
CONTINUOUS
100
AcDbLine
 10
0.0000000000000002
 20
0.466230607751787
 30
0.0
 11
1.420999999998571
 21
1.887230607750358
 31
0.0
  0
LINE
  5
118CE
330
118C0
100
AcDbEntity
  8
0
  6
CONTINUOUS
100
AcDbLine
 10
0.2072886013284003
 20
-0.0000000000000009
 30
0.0
 11
1.420999999998571
 21
1.213711398670171
 31
0.0
  0
LINE
  5
118CF
330
118C0
100
AcDbEntity
  8
0
  6
CONTINUOUS
100
AcDbLine
 10
0.8808078104085864
 20
-0.0000000000000009
 30
0.0
 11
1.420999999998571
 21
0.5401921895899839
 31
0.0
  0
LINE
  5
118D0
330
118C0
100
AcDbEntity
  8
0
  6
CONTINUOUS
100
AcDbLine
 10
0.0581249075061505
 20
-0.0000000000000009
 30
0.0
 11
-0.0000000000000002
 21
0.0581249075061496
 31
0.0
  0
LINE
  5
118D1
330
118C0
100
AcDbEntity
  8
0
  6
CONTINUOUS
100
AcDbLine
 10
0.7316441165863372
 20
-0.0000000000000009
 30
0.0
 11
-0.0000000000000002
 21
0.7316441165863363
 31
0.0
  0
LINE
  5
118D2
330
118C0
100
AcDbEntity
  8
0
  6
CONTINUOUS
100
AcDbLine
 10
1.405163325666523
 20
-0.0000000000000009
 30
0.0
 11
-0.0000000000000002
 21
1.405163325666523
 31
0.0
  0
LINE
  5
118D3
330
118C0
100
AcDbEntity
  8
0
  6
CONTINUOUS
100
AcDbLine
 10
1.420999999998572
 20
0.6576825347481381
 30
0.0
 11
-0.0000000000000001
 21
2.07868253474671
 31
0.0
  0
LINE
  5
118D4
330
118C0
100
AcDbEntity
  8
0
  6
CONTINUOUS
100
AcDbLine
 10
1.420999999998571
 20
1.331201743828324
 30
0.0
 11
-0.0000000000000001
 21
2.752201743826896
 31
0.0
  0
LINE
  5
118D5
330
118C0
100
AcDbEntity
  8
0
  6
CONTINUOUS
100
AcDbLine
 10
1.420999999998571
 20
2.004720952908511
 30
0.0
 11
-0.0000000000000002
 21
3.425720952907082
 31
0.0
  0
LINE
  5
118D6
330
118C0
100
AcDbEntity
  8
0
  6
CONTINUOUS
100
AcDbLine
 10
1.420999999998571
 20
2.678240161988697
 30
0.0
 11
-0.0000000000000001
 21
4.099240161987269
 31
0.0
  0
LINE
  5
118D7
330
118C0
100
AcDbEntity
  8
0
  6
CONTINUOUS
100
AcDbLine
 10
1.420999999998572
 20
3.351759371068884
 30
0.0
 11
0.0
 21
4.772759371067455
 31
0.0
  0
LINE
  5
118D8
330
118C0
100
AcDbEntity
  8
0
  6
CONTINUOUS
100
AcDbLine
 10
1.420999999998571
 20
4.02527858014907
 30
0.0
 11
-0.0000000000000003
 21
5.446278580147642
 31
0.0
  0
LINE
  5
118D9
330
118C0
100
AcDbEntity
  8
0
  6
CONTINUOUS
100
AcDbLine
 10
1.420999999998571
 20
4.698797789229257
 30
0.0
 11
0.0
 21
6.119797789227828
 31
0.0
  0
LINE
  5
118DA
330
118C0
100
AcDbEntity
  8
0
  6
CONTINUOUS
100
AcDbLine
 10
1.420999999998571
 20
5.372316998309444
 30
0.0
 11
-0.0000000000000001
 21
6.793316998308015
 31
0.0
  0
LINE
  5
118DB
330
118C0
100
AcDbEntity
  8
0
  6
CONTINUOUS
100
AcDbLine
 10
1.420999999998572
 20
6.045836207389629
 30
0.0
 11
-0.0000000000000004
 21
7.466836207388202
 31
0.0
  0
LINE
  5
118DC
330
118C0
100
AcDbEntity
  8
0
  6
CONTINUOUS
100
AcDbLine
 10
1.420999999998571
 20
6.719355416469816
 30
0.0
 11
0.0
 21
8.140355416468388
 31
0.0
  0
LINE
  5
118DD
330
118C0
100
AcDbEntity
  8
0
  6
CONTINUOUS
100
AcDbLine
 10
1.420999999998571
 20
7.392874625550003
 30
0.0
 11
0.0507746255573185
 21
8.763099999991255
 31
0.0
  0
LINE
  5
118DE
330
118C0
100
AcDbEntity
  8
0
  6
CONTINUOUS
100
AcDbLine
 10
1.420999999998571
 20
8.06639383463019
 30
0.0
 11
0.7242938346375052
 21
8.763099999991255
 31
0.0
  0
LINE
  5
118DF
330
118C0
100
AcDbEntity
  8
0
  6
CONTINUOUS
100
AcDbLine
 10
1.420999999998571
 20
8.739913043710375
 30
0.0
 11
1.397813043717691
 21
8.763099999991255
 31
0.0
  0
ENDBLK
  5
118EB
330
118C0
100
AcDbEntity
  8
0
100
AcDbBlockEnd
  0
ENDSEC
  0
SECTION
  2
ENTITIES
  0
LINE
  5
F9B5
330
18
100
AcDbEntity
  8
01
100
AcDbLine
 10
4686.667145990128
 20
1384.185154360875
 30
0.0000000000563712
 11
4700.667145990128
 21
1384.185154360875
 31
0.0000000000563712
  0
LINE
  5
F9B6
330
18
100
AcDbEntity
  8
01
100
AcDbLine
 10
4691.668030172188
 20
1596.185154359847
 30
0.0000000000563712
 11
4845.422410327221
 21
1596.185154359847
 31
0.0000000000563712
  0
LINE
  5
F9B7
330
18
100
AcDbEntity
  8
01
  6
BYBLOCK
100
AcDbLine
 10
4691.668030172188
 20
1596.185154359847
 30
0.0000000000563712
 11
4691.668030172188
 21
1556.185154359847
 31
0.0000000000563712
  0
LINE
  5
F9BB
330
18
100
AcDbEntity
  8
01
100
AcDbLine
 10
4742.667262329873
 20
1591.185154358818
 30
0.0000000000563712
 11
4742.667262329873
 21
1622.103234548067
 31
0.0000000000563712
  0
LINE
  5
F9BC
330
18
100
AcDbEntity
  8
01
  6
BYBLOCK
100
AcDbLine
 10
4693.167145990128
 20
1392.085154360876
 30
0.0000000000563712
 11
4693.167145990128
 21
1262.285154360876
 31
0.0000000000563712
  0
LINE
  5
F9BD
330
18
100
AcDbEntity
  8
01
  6
BYBLOCK
100
AcDbLine
 10
4693.167145990128
 20
1263.185154360875
 30
0.0000000000563712
 11
4695.667145990128
 21
1263.185154360875
 31
0.0000000000563712
  0
LINE
  5
F9BE
330
18
100
AcDbEntity
  8
01
  6
BYBLOCK
100
AcDbLine
 10
4695.667145990128
 20
1263.185154360875
 30
0.0000000000563712
 11
4695.667145990128
 21
1279.688098086028
 31
0.0000000000563712
  0
LINE
  5
F9BF
330
18
100
AcDbEntity
  8
01
  6
BYBLOCK
100
AcDbLine
 10
4691.667145990128
 20
1392.085154360876
 30
0.0000000000563712
 11
4691.667145990128
 21
1262.285154360876
 31
0.0000000000563712
  0
LINE
  5
F9C0
330
18
100
AcDbEntity
  8
01
  6
BYBLOCK
100
AcDbLine
 10
4691.667145990128
 20
1262.285154360876
 30
0.0000000000563712
 11
4693.167145990128
 21
1262.285154360876
 31
0.0000000000563712
  0
LINE
  5
F9C1
330
18
100
AcDbEntity
  8
01
  6
BYBLOCK
100
AcDbLine
 10
4693.167145990128
 20
1391.185154360875
 30
0.0000000000563712
 11
4695.667145990128
 21
1391.185154360875
 31
0.0000000000563712
  0
LINE
  5
F9C2
330
18
100
AcDbEntity
  8
01
  6
BYBLOCK
100
AcDbLine
 10
4691.667145990128
 20
1392.085154360876
 30
0.0000000000563712
 11
4693.167145990128
 21
1392.085154360876
 31
0.0000000000563712
  0
LINE
  5
F9C3
330
18
100
AcDbEntity
  8
01
  6
BYBLOCK
100
AcDbLine
 10
4693.167145990128
 20
1367.185154360875
 30
0.0000000000563712
 11
4694.367145990127
 21
1367.185154360875
 31
0.0000000000563712
  0
ARC
  5
F9C4
330
18
100
AcDbEntity
  8
01
  6
BYBLOCK
100
AcDbCircle
 10
4759.667145990128
 20
1363.185154360875
 30
0.0000000000563712
 40
1.0
100
AcDbArc
 50
0.0
 51
90.0
  0
LINE
  5
F9C5
330
18
100
AcDbEntity
  8
01
  6
BYBLOCK
100
AcDbLine
 10
4694.367145990127
 20
1372.885154360876
 30
0.0000000000563712
 11
4694.367145990127
 21
1281.485154360876
 31
0.0000000000563712
  0
LINE
  5
F9C6
330
18
100
AcDbEntity
  8
01
  6
BYBLOCK
100
AcDbLine
 10
4694.467145990127
 20
1263.185154360875
 30
0.0000000000563712
 11
4694.467145990127
 21
1279.785154360876
 31
0.0000000000563712
  0
LINE
  5
F9C7
330
18
100
AcDbEntity
  8
01
  6
BYBLOCK
100
AcDbLine
 10
4694.467145990127
 20
1279.785154360876
 30
0.0000000000563712
 11
4693.518617852704
 21
1280.733682498299
 31
0.0000000000563712
  0
LINE
  5
F9C8
330
18
100
AcDbEntity
  8
01
  6
BYBLOCK
100
AcDbLine
 10
4695.315674127551
 20
1280.536626223452
 30
0.0000000000563712
 11
4694.367145990127
 21
1281.485154360876
 31
0.0000000000563712
  0
ARC
  5
F9C9
330
18
100
AcDbEntity
  8
01
  6
BYBLOCK
100
AcDbCircle
 10
4694.467145990127
 20
1279.688098086028
 30
0.0000000000563712
 40
1.2
100
AcDbArc
 50
0.0
 51
45.00000000005527
  0
ARC
  5
F9CA
330
18
100
AcDbEntity
  8
01
  6
BYBLOCK
100
AcDbCircle
 10
4694.367145990127
 20
1281.582210635724
 30
0.0000000000563712
 40
1.2
100
AcDbArc
 50
180.0
 51
225.0000000000553
  0
LINE
  5
F9CB
330
18
100
AcDbEntity
  8
01
  6
BYBLOCK
100
AcDbLine
 10
4695.667145990128
 20
1391.185154360875
 30
0.0000000000563712
 11
4695.667145990128
 21
1374.682210635723
 31
0.0000000000563712
  0
LINE
  5
F9CC
330
18
100
AcDbEntity
  8
01
  6
BYBLOCK
100
AcDbLine
 10
4694.467145990127
 20
1391.185154360875
 30
0.0000000000563712
 11
4694.467145990127
 21
1374.585154360876
 31
0.0000000000563712
  0
LINE
  5
F9CD
330
18
100
AcDbEntity
  8
01
  6
BYBLOCK
100
AcDbLine
 10
4694.467145990127
 20
1374.585154360876
 30
0.0000000000563712
 11
4693.518617852704
 21
1373.636626223451
 31
0.0000000000563712
  0
LINE
  5
F9CE
330
18
100
AcDbEntity
  8
01
  6
BYBLOCK
100
AcDbLine
 10
4695.315674127551
 20
1373.833682498299
 30
0.0000000000563712
 11
4694.367145990127
 21
1372.885154360875
 31
0.0000000000563712
  0
ARC
  5
F9CF
330
18
100
AcDbEntity
  8
01
  6
BYBLOCK
100
AcDbCircle
 10
4694.467145990127
 20
1374.682210635723
 30
0.0000000000563712
 40
1.2
100
AcDbArc
 50
314.9999999999447
 51
0.0
  0
ARC
  5
F9D0
330
18
100
AcDbEntity
  8
01
  6
BYBLOCK
100
AcDbCircle
 10
4694.367145990127
 20
1372.788098086028
 30
0.0000000000563712
 40
1.2
100
AcDbArc
 50
134.9999999999447
 51
180.0
  0
CIRCLE
  5
F9D1
330
18
100
AcDbEntity
  8
01
  6
BYBLOCK
100
AcDbCircle
 10
4742.667145990128
 20
1356.185154360875
 30
0.0000000000563712
 40
4.75
  0
LINE
  5
F9D2
330
18
100
AcDbEntity
  8
01
  6
BYBLOCK
100
AcDbLine
 10
4694.367145990127
 20
1290.185154360875
 30
0.0000000000563712
 11
4716.167145990132
 21
1290.185154360875
 31
0.0000000000563712
  0
ARC
  5
F9D3
330
18
100
AcDbEntity
  8
01
  6
BYBLOCK
100
AcDbCircle
 10
4694.768030172188
 20
1579.746404902847
 30
0.0000000000563712
 40
1.6
100
AcDbArc
 50
115.944479772022
 51
180.0
  0
ARC
  5
F9D4
330
18
100
AcDbEntity
  8
01
  6
BYBLOCK
100
AcDbCircle
 10
4694.768030172188
 20
1572.623903816847
 30
0.0000000000563712
 40
1.6
100
AcDbArc
 50
180.0
 51
244.055520227978
  0
ARC
  5
F9D5
330
18
100
AcDbEntity
  8
01
  6
BYBLOCK
100
AcDbCircle
 10
4694.068030172188
 20
1571.346404902847
 30
0.0000000000563712
 40
1.6
100
AcDbArc
 50
0.0
 51
64.05552022797804
  0
ARC
  5
F9D6
330
18
100
AcDbEntity
  8
01
  6
BYBLOCK
100
AcDbCircle
 10
4694.068030172188
 20
1581.023903816847
 30
0.0000000000563712
 40
1.6
100
AcDbArc
 50
295.944479772022
 51
0.0
  0
LINE
  5
F9D7
330
18
100
AcDbEntity
  8
01
  6
BYBLOCK
100
AcDbLine
 10
4695.668030172188
 20
1581.023903816847
 30
0.0000000000563712
 11
4695.668030172188
 21
1588.385154359847
 31
0.0000000000563712
  0
LINE
  5
F9D8
330
18
100
AcDbEntity
  8
01
  6
BYBLOCK
100
AcDbLine
 10
4694.768030172188
 20
1572.785154359847
 30
0.0000000000563712
 11
4694.768030172188
 21
1579.585154359847
 31
0.0000000000563712
  0
LINE
  5
F9D9
330
18
100
AcDbEntity
  8
01
  6
BYBLOCK
100
AcDbLine
 10
4695.668030172188
 20
1564.185154359847
 30
0.0000000000563712
 11
4695.668030172188
 21
1571.346404902847
 31
0.0000000000563712
  0
LINE
  5
F9DA
330
18
100
AcDbEntity
  8
01
  6
BYBLOCK
100
AcDbLine
 10
4694.068030172188
 20
1581.185154359847
 30
0.0000000000563712
 11
4694.068030172188
 21
1588.385154359847
 31
0.0000000000563712
  0
LINE
  5
F9DB
330
18
100
AcDbEntity
  8
01
  6
BYBLOCK
100
AcDbLine
 10
4694.068030172188
 20
1571.185154359847
 30
0.0000000000563712
 11
4694.068030172188
 21
1564.085154359847
 31
0.0000000000563712
  0
ARC
  5
F9DC
330
18
100
AcDbEntity
  8
01
  6
BYBLOCK
100
AcDbCircle
 10
4759.068030172188
 20
1584.085154359847
 30
0.0000000000563712
 40
1.6
100
AcDbArc
 50
0.0
 51
90.0
  0
LINE
  5
F9DD
330
18
100
AcDbEntity
  8
01
  6
BYBLOCK
100
AcDbLine
 10
4693.168030172188
 20
1588.585154359847
 30
0.0000000000563712
 11
4693.168030172188
 21
1563.785154359847
 31
0.0000000000563712
  0
LINE
  5
F9DE
330
18
100
AcDbEntity
  8
01
  6
BYBLOCK
100
AcDbLine
 10
4759.068030172188
 20
1585.685154359847
 30
0.0000000000563712
 11
4695.668030172188
 21
1585.685154359847
 31
0.0000000000563712
  0
LINE
  5
F9DF
330
18
100
AcDbEntity
  8
01
  6
BYBLOCK
100
AcDbLine
 10
4759.068030172188
 20
1568.485154359847
 30
0.0000000000563712
 11
4759.068030172188
 21
1585.685154359847
 31
0.0000000000563712
  0
LINE
  5
F9E0
330
18
100
AcDbEntity
  8
01
  6
BYBLOCK
100
AcDbLine
 10
4760.668030172188
 20
1566.885154359847
 30
0.0000000000563712
 11
4760.668030172188
 21
1584.085154359847
 31
0.0000000000563712
  0
LINE
  5
F9E1
330
18
100
AcDbEntity
  8
01
  6
BYBLOCK
100
AcDbLine
 10
4693.168030172188
 20
1588.385154359847
 30
0.0000000000563712
 11
4695.668030172188
 21
1588.385154359847
 31
0.0000000000563712
  0
LINE
  5
F9E2
330
18
100
AcDbEntity
  8
01
  6
BYBLOCK
100
AcDbLine
 10
4695.668030172188
 20
1564.185154359847
 30
0.0000000000563712
 11
4694.068030172188
 21
1564.185154359847
 31
0.0000000000563712
  0
LINE
  5
F9E3
330
18
100
AcDbEntity
  8
01
  6
BYBLOCK
100
AcDbLine
 10
4694.068030172188
 20
1564.085154359847
 30
0.0000000000563712
 11
4693.168030172188
 21
1564.085154359847
 31
0.0000000000563712
  0
ARC
  5
F9E4
330
18
100
AcDbEntity
  8
01
  6
BYBLOCK
100
AcDbCircle
 10
4690.368625099587
 20
1570.485154359847
 30
0.0000000000563712
 40
0.3000000000000051
100
AcDbArc
 50
232.8678058729389
 51
270.0
  0
LINE
  5
F9E5
330
18
100
AcDbEntity
  8
01
  6
BYBLOCK
100
AcDbLine
 10
4691.168030172188
 20
1570.185154359848
 30
0.0000000000563712
 11
4690.368625099587
 21
1570.185154359848
 31
0.0000000000563712
  0
LINE
  5
F9E6
330
18
100
AcDbEntity
  8
01
  6
BYBLOCK
100
AcDbLine
 10
4680.768030172188
 20
1579.858143226052
 30
0.0000000000563712
 11
4680.768030172188
 21
1579.687521170503
 31
0.0000000000563712
  0
ARC
  5
F9E7
330
18
100
AcDbEntity
  8
01
  6
BYBLOCK
100
AcDbCircle
 10
4681.068030172188
 20
1579.687521170503
 30
0.0000000000563712
 40
0.3
100
AcDbArc
 50
180.0
 51
217.7405295629614
  0
ARC
  5
F9E8
330
18
100
AcDbEntity
  8
01
  6
BYBLOCK
100
AcDbCircle
 10
4720.370330771471
 20
1610.108224114443
 30
0.0000000000563712
 40
50.00000000000002
100
AcDbArc
 50
217.7405295629665
 51
232.8678058730001
  0
LINE
  5
F9E9
330
18
100
AcDbEntity
  8
01
  6
BYBLOCK
100
AcDbLine
 10
4680.568030172188
 20
1580.985154359847
 30
0.0000000000563712
 11
4680.568030172188
 21
1581.685154359847
 31
0.0000000000563712
  0
ARC
  5
F9EA
330
18
100
AcDbEntity
  8
01
  6
BYBLOCK
100
AcDbCircle
 10
4681.068030172188
 20
1581.685154359847
 30
0.0000000000563712
 40
0.5000000000000142
100
AcDbArc
 50
90.0
 51
180.0
  0
LINE
  5
F9EB
330
18
100
AcDbEntity
  8
01
  6
BYBLOCK
100
AcDbLine
 10
4691.168030172188
 20
1582.185154359847
 30
0.0000000000563712
 11
4681.068030172188
 21
1582.185154359847
 31
0.0000000000563712
  0
LINE
  5
F9EC
330
18
100
AcDbEntity
  8
01
  6
BYBLOCK
100
AcDbLine
 10
4680.568030172188
 20
1580.606474703407
 30
0.0000000000563712
 11
4680.568030172188
 21
1580.985154359847
 31
0.0000000000563712
  0
SPLINE
  5
F9ED
330
18
100
AcDbEntity
  8
01
  6
BYBLOCK
100
AcDbSpline
210
0.0
220
0.0
230
1.0
 70
     8
 71
     3
 72
     8
 73
     4
 74
     0
 42
0.0000000001
 43
0.0000000001
 40
0.0
 40
0.0
 40
0.0
 40
0.0
 40
1.0
 40
1.0
 40
1.0
 40
1.0
 10
4680.593762713452
 20
1580.329824273957
 30
0.0000000000563712
 10
4680.57629482734
 20
1580.422910469838
 30
0.0000000000563712
 10
4680.568030172188
 20
1580.516176480729
 30
0.0000000000563712
 10
4680.568030172188
 20
1580.606474703407
 30
0.0000000000563712
  0
ARC
  5
F9EE
330
18
100
AcDbEntity
  8
01
  6
BYBLOCK
100
AcDbCircle
 10
4682.068030172188
 20
1580.606474703407
 30
0.0000000000563712
 40
1.499999999999998
100
AcDbArc
 50
190.628112987605
 51
225.0000000000553
  0
LINE
  5
F9EF
330
18
100
AcDbEntity
  8
01
  6
BYBLOCK
100
AcDbLine
 10
4691.668030172188
 20
1583.035154359847
 30
0.0000000000563712
 11
4691.168030172188
 21
1583.035154359847
 31
0.0000000000563712
  0
LINE
  5
F9F0
330
18
100
AcDbEntity
  8
01
  6
BYBLOCK
100
AcDbLine
 10
4691.168030172188
 20
1569.335154359847
 30
0.0000000000563712
 11
4691.668030172188
 21
1569.335154359847
 31
0.0000000000563712
  0
LINE
  5
F9F1
330
18
100
AcDbEntity
  8
01
  6
BYBLOCK
100
AcDbLine
 10
4691.168030172188
 20
1569.335154359847
 30
0.0000000000563712
 11
4691.168030172188
 21
1583.035154359847
 31
0.0000000000563712
  0
LINE
  5
F9F2
330
18
100
AcDbEntity
  8
01
  6
BYBLOCK
100
AcDbLine
 10
4691.668030172188
 20
1588.585154359847
 30
0.0000000000563712
 11
4693.168030172188
 21
1588.585154359847
 31
0.0000000000563712
  0
LINE
  5
F9F3
330
18
100
AcDbEntity
  8
01
  6
BYBLOCK
100
AcDbLine
 10
4691.668030172188
 20
1563.785154359847
 30
0.0000000000563712
 11
4693.168030172188
 21
1563.785154359847
 31
0.0000000000563712
  0
LINE
  5
F9F4
330
18
100
AcDbEntity
  8
01
  6
BYBLOCK
100
AcDbLine
 10
4691.668030172188
 20
1563.785154359847
 30
0.0000000000563712
 11
4691.668030172188
 21
1588.585154359847
 31
0.0000000000563712
  0
LINE
  5
F9F5
330
18
100
AcDbEntity
  8
01
  6
BYBLOCK
100
AcDbLine
 10
4760.668030172188
 20
1568.485154359847
 30
0.0000000000563712
 11
4695.668030172188
 21
1568.485154359847
 31
0.0000000000563712
  0
LINE
  5
F9F6
330
18
100
AcDbEntity
  8
01
  6
BYBLOCK
100
AcDbLine
 10
4760.668030172188
 20
1566.885154359847
 30
0.0000000000563712
 11
4710.268030172188
 21
1566.885154359847
 31
0.0000000000563712
  0
LINE
  5
F9F7
330
18
100
AcDbEntity
  8
01
  6
BYBLOCK
100
AcDbLine
 10
4713.10528847239
 20
1566.885154359847
 30
0.0000000000563712
 11
4695.668030172188
 21
1566.885154359847
 31
0.0000000000563712
  0
LINE
  5
F9F8
330
18
100
AcDbEntity
  8
01
  6
BYBLOCK
100
AcDbLine
 10
4690.221583562781
 20
1570.331600969253
 30
0.0000000000563712
 11
4681.007370000407
 21
1579.545814531627
 31
0.0000000000563712
  0
ARC
  5
F9F9
330
18
100
AcDbEntity
  8
01
  6
BYBLOCK
100
AcDbCircle
 10
4690.575136953374
 20
1570.685154359847
 30
0.0000000000563712
 40
0.5
100
AcDbArc
 50
224.9999999999908
 51
270.0
  0
LINE
  5
F9FA
330
18
100
AcDbEntity
  8
01
  6
BYBLOCK
100
AcDbLine
 10
4691.168030172188
 20
1570.185154359847
 30
0.0000000000563712
 11
4690.575136953374
 21
1570.185154359847
 31
0.0000000000563712
  0
LINE
  5
F9FC
330
18
100
AcDbEntity
  8
01
  6
BYBLOCK
100
AcDbLine
 10
4739.060901406076
 20
1356.185154360875
 30
0.0000000000563712
 11
4742.667145990128
 21
1359.791398944927
 31
0.0000000000563712
  0
LINE
  5
F9FD
330
18
100
AcDbEntity
  8
01
  6
BYBLOCK
100
AcDbLine
 10
4746.273390574179
 20
1356.185154360875
 30
0.0000000000563712
 11
4742.667145990128
 21
1359.791398944927
 31
0.0000000000563712
  0
LINE
  5
F9FE
330
18
100
AcDbEntity
  8
01
  6
BYBLOCK
100
AcDbLine
 10
4739.060901406076
 20
1356.185154360875
 30
0.0000000000563712
 11
4742.667145990128
 21
1352.578909776824
 31
0.0000000000563712
  0
LINE
  5
F9FF
330
18
100
AcDbEntity
  8
01
  6
BYBLOCK
100
AcDbLine
 10
4746.273390574179
 20
1356.185154360875
 30
0.0000000000563712
 11
4742.667145990128
 21
1352.578909776824
 31
0.0000000000563712
  0
LINE
  5
FA00
330
18
100
AcDbEntity
  8
01
  6
BYBLOCK
100
AcDbLine
 10
4680.667145990128
 20
1337.216824627892
 30
0.0000000000563712
 11
4680.667145990128
 21
1319.153484093886
 31
0.0000000000563712
  0
LINE
  5
FA01
330
18
100
AcDbEntity
  8
01
  6
BYBLOCK
100
AcDbLine
 10
4684.960039208941
 20
1338.185154360889
 30
0.0000000000563712
 11
4691.667145990128
 21
1338.185154360889
 31
0.0000000000563712
  0
LINE
  5
FA02
330
18
100
AcDbEntity
  8
01
  6
BYBLOCK
100
AcDbLine
 10
4684.960039208941
 20
1318.185154360889
 30
0.0000000000563712
 11
4691.667145990128
 21
1318.185154360889
 31
0.0000000000563712
  0
LINE
  5
FA03
330
18
100
AcDbEntity
  8
01
  6
BYBLOCK
100
AcDbLine
 10
4690.460039208941
 20
1333.435154360889
 30
0.0000000000563712
 11
4690.460039208941
 21
1322.935154360889
 31
0.0000000000563712
  0
ARC
  5
FA04
330
18
100
AcDbEntity
  8
01
  6
BYBLOCK
100
AcDbCircle
 10
4684.960039208941
 20
1328.185154360889
 30
0.0000000000563712
 40
10.00000000000009
100
AcDbArc
 50
53.13010235413383
 51
115.4224671781395
  0
ARC
  5
FA05
330
18
100
AcDbEntity
  8
01
  6
BYBLOCK
100
AcDbCircle
 10
4684.960039208941
 20
1328.185154360889
 30
0.0000000000563712
 40
10.00000000000009
100
AcDbArc
 50
244.5775328218606
 51
306.8698976458662
  0
LINE
  5
FA06
330
18
100
AcDbEntity
  8
01
  6
BYBLOCK
100
AcDbLine
 10
4690.960039208941
 20
1336.185154360889
 30
0.0000000000563712
 11
4690.960039208941
 21
1320.185154360889
 31
0.0000000000563712
  0
LINE
  5
FA07
330
18
100
AcDbEntity
  8
01
  6
BYBLOCK
100
AcDbLine
 10
4680.667145990128
 20
1333.435154360889
 30
0.0000000000563712
 11
4690.460039208941
 21
1333.435154360889
 31
0.0000000000563712
  0
LINE
  5
FA08
330
18
100
AcDbEntity
  8
01
  6
BYBLOCK
100
AcDbLine
 10
4680.667145990128
 20
1322.935154360889
 30
0.0000000000563712
 11
4690.460039208941
 21
1322.935154360889
 31
0.0000000000563712
  0
LINE
  5
FA09
330
18
100
AcDbEntity
  8
01
  6
BYBLOCK
100
AcDbLine
 10
4566.267262329873
 20
1392.085154360875
 30
0.0000000000563712
 11
4579.067262329872
 21
1392.085154360875
 31
0.0000000000563712
  0
LINE
  5
FA0A
330
18
100
AcDbEntity
  8
01
  6
BYBLOCK
100
AcDbLine
 10
4566.267262329873
 20
1262.285154360875
 30
0.0000000000563712
 11
4579.067262329872
 21
1262.285154360875
 31
0.0000000000563712
  0
LINE
  5
FA0B
330
18
100
AcDbEntity
  8
01
  6
BYBLOCK
100
AcDbLine
 10
4560.267262329873
 20
1386.085154360875
 30
0.0000000000563712
 11
4560.267262329873
 21
1268.285154360875
 31
0.0000000000563712
  0
LINE
  5
FA0C
330
18
100
AcDbEntity
  8
01
  6
BYBLOCK
100
AcDbLine
 10
4585.067262329872
 20
1386.085154360875
 30
0.0000000000563712
 11
4585.067262329872
 21
1268.285154360875
 31
0.0000000000563712
  0
ARC
  5
FA0D
330
18
100
AcDbEntity
  8
01
  6
BYBLOCK
100
AcDbCircle
 10
4566.267262329873
 20
1268.285154360875
 30
0.0000000000563712
 40
6.0
100
AcDbArc
 50
180.0
 51
270.0
  0
ARC
  5
FA0E
330
18
100
AcDbEntity
  8
01
  6
BYBLOCK
100
AcDbCircle
 10
4579.067262329872
 20
1268.285154360875
 30
0.0000000000563712
 40
6.0
100
AcDbArc
 50
270.0
 51
0.0
  0
ARC
  5
FA0F
330
18
100
AcDbEntity
  8
01
  6
BYBLOCK
100
AcDbCircle
 10
4566.267262329873
 20
1386.085154360875
 30
0.0000000000563712
 40
6.0
100
AcDbArc
 50
90.0
 51
180.0
  0
ARC
  5
FA10
330
18
100
AcDbEntity
  8
01
  6
BYBLOCK
100
AcDbCircle
 10
4579.067262329872
 20
1386.085154360875
 30
0.0000000000563712
 40
6.0
100
AcDbArc
 50
0.0
 51
90.0
  0
CIRCLE
  5
FA11
330
18
100
AcDbEntity
  8
01
  6
BYBLOCK
100
AcDbCircle
 10
4572.667262329873
 20
1270.185154360875
 30
0.0000000000563712
 40
2.75
  0
CIRCLE
  5
FA12
330
18
100
AcDbEntity
  8
01
  6
BYBLOCK
100
AcDbCircle
 10
4572.667262329873
 20
1270.185154360875
 30
0.0000000000563712
 40
4.25
  0
CIRCLE
  5
FA13
330
18
100
AcDbEntity
  8
01
  6
BYBLOCK
100
AcDbCircle
 10
4572.667262329873
 20
1384.185154360875
 30
0.0000000000563712
 40
2.75
  0
CIRCLE
  5
FA14
330
18
100
AcDbEntity
  8
01
  6
BYBLOCK
100
AcDbCircle
 10
4572.667262329873
 20
1384.185154360875
 30
0.0000000000563712
 40
4.25
  0
LINE
  5
FA15
330
18
100
AcDbEntity
  8
1CENTER
100
AcDbLine
 10
4578.542287737779
 20
1270.185154360875
 30
0.0000000000563712
 11
4566.792236921967
 21
1270.185154360875
 31
0.0000000000563712
  0
LINE
  5
FA16
330
18
100
AcDbEntity
  8
1CENTER
100
AcDbLine
 10
4572.667262329873
 20
1276.060179768781
 30
0.0000000000563712
 11
4572.667262329873
 21
1264.310128952969
 31
0.0000000000563712
  0
LINE
  5
FA17
330
18
100
AcDbEntity
  8
1CENTER
100
AcDbLine
 10
4578.542287737779
 20
1384.185154360875
 30
0.0000000000563712
 11
4566.792236921967
 21
1384.185154360875
 31
0.0000000000563712
  0
LINE
  5
FA18
330
18
100
AcDbEntity
  8
1CENTER
100
AcDbLine
 10
4572.667262329873
 20
1390.060179768781
 30
0.0000000000563712
 11
4572.667262329873
 21
1378.310128952969
 31
0.0000000000563712
  0
ARC
  5
FA19
330
18
100
AcDbEntity
  8
01
  6
BYBLOCK
100
AcDbCircle
 10
4572.667262329873
 20
1328.185154360875
 30
0.0000000000563712
 40
10.15
100
AcDbArc
 50
231.9925780701392
 51
308.0074219298607
  0
LINE
  5
FA1A
330
18
100
AcDbEntity
  8
01
  6
BYBLOCK
100
AcDbLine
 10
4566.417262329873
 20
1336.182653970128
 30
0.0000000000563712
 11
4566.417262329873
 21
1320.187654751622
 31
0.0000000000563712
  0
LINE
  5
FA1B
330
18
100
AcDbEntity
  8
01
  6
BYBLOCK
100
AcDbLine
 10
4578.917262329873
 20
1336.182653970128
 30
0.0000000000563712
 11
4578.917262329873
 21
1320.187654751622
 31
0.0000000000563712
  0
ARC
  5
FA1C
330
18
100
AcDbEntity
  8
01
  6
BYBLOCK
100
AcDbCircle
 10
4572.667262329873
 20
1328.185154360875
 30
0.0000000000563712
 40
10.15
100
AcDbArc
 50
51.99257807013929
 51
128.0074219298607
  0
LINE
  5
FA1D
330
18
100
AcDbEntity
  8
01
  6
BYBLOCK
100
AcDbLine
 10
4568.167262329873
 20
1333.435154360875
 30
0.0000000000563712
 11
4568.167262329873
 21
1322.935154360875
 31
0.0000000000563712
  0
LINE
  5
FA1E
330
18
100
AcDbEntity
  8
01
  6
BYBLOCK
100
AcDbLine
 10
4578.167262329873
 20
1333.435154360875
 30
0.0000000000563712
 11
4578.167262329873
 21
1322.935154360875
 31
0.0000000000563712
  0
LINE
  5
FA1F
330
18
100
AcDbEntity
  8
01
  6
BYBLOCK
100
AcDbLine
 10
4568.667262329873
 20
1337.513739462594
 30
0.0000000000563712
 11
4568.667262329873
 21
1333.435154360875
 31
0.0000000000563712
  0
LINE
  5
FA20
330
18
100
AcDbEntity
  8
01
  6
BYBLOCK
100
AcDbLine
 10
4567.167262329873
 20
1333.435154360875
 30
0.0000000000563712
 11
4567.167262329873
 21
1322.935154360875
 31
0.0000000000563712
  0
LINE
  5
FA21
330
18
100
AcDbEntity
  8
01
  6
BYBLOCK
100
AcDbLine
 10
4568.667262329873
 20
1322.935154360875
 30
0.0000000000563712
 11
4568.667262329873
 21
1318.856569259156
 31
0.0000000000563712
  0
LINE
  5
FA22
330
18
100
AcDbEntity
  8
01
  6
BYBLOCK
100
AcDbLine
 10
4567.167262329873
 20
1333.435154360875
 30
0.0000000000563712
 11
4578.167262329873
 21
1333.435154360875
 31
0.0000000000563712
  0
LINE
  5
FA23
330
18
100
AcDbEntity
  8
01
  6
BYBLOCK
100
AcDbLine
 10
4567.167262329873
 20
1322.935154360875
 30
0.0000000000563712
 11
4578.167262329873
 21
1322.935154360875
 31
0.0000000000563712
  0
LINE
  5
FA27
330
18
100
AcDbEntity
  8
01
100
AcDbLine
 10
4552.667378669616
 20
1426.185154360875
 30
0.0000000000563712
 11
4552.667378669616
 21
1236.185154360875
 31
0.0000000000563712
  0
LINE
  5
FA28
330
18
100
AcDbEntity
  8
01
100
AcDbLine
 10
4552.667378669616
 20
1331.185154360875
 30
0.0000000000563712
 11
4552.667378669616
 21
1281.185154360875
 31
0.0000000000563712
  0
LINE
  5
FA29
330
18
100
AcDbEntity
  8
01
100
AcDbLine
 10
4544.167378669616
 20
1282.185154360875
 30
0.0000000000563712
 11
4544.167378669616
 21
1330.185154360875
 31
0.0000000000563712
  0
LINE
  5
FA2A
330
18
100
AcDbEntity
  8
01
100
AcDbLine
 10
4552.667378669616
 20
1281.185154360875
 30
0.0000000000563712
 11
4545.167378669616
 21
1281.185154360875
 31
0.0000000000563712
  0
ARC
  5
FA2B
330
18
100
AcDbEntity
  8
01
100
AcDbCircle
 10
4545.167378669616
 20
1282.185154360875
 30
0.0000000000563712
 40
1.0
100
AcDbArc
 50
180.0
 51
270.0
  0
LINE
  5
FA2C
330
18
100
AcDbEntity
  8
01
100
AcDbLine
 10
4552.667378669616
 20
1331.185154360875
 30
0.0000000000563712
 11
4545.167378669616
 21
1331.185154360875
 31
0.0000000000563712
  0
ARC
  5
FA2D
330
18
100
AcDbEntity
  8
01
100
AcDbCircle
 10
4545.167378669616
 20
1330.185154360875
 30
0.0000000000563712
 40
1.0
100
AcDbArc
 50
90.0
 51
180.0
  0
LINE
  5
FA2E
330
18
100
AcDbEntity
  8
01
100
AcDbLine
 10
4554.795664052048
 20
1306.185154360875
 30
0.0000000000563712
 11
4532.167378669616
 21
1306.185154360875
 31
0.0000000000563712
  0
POINT
  5
FA2F
330
18
100
AcDbEntity
  8
01
100
AcDbPoint
 10
4538.167262329873
 20
1306.185154360875
 30
0.0000000000563712
 50
180.0
  0
CIRCLE
  5
FA30
330
18
100
AcDbEntity
  8
01
100
AcDbCircle
 10
4538.167262329873
 20
1306.185154360875
 30
0.0000000000563712
 40
2.5
  0
CIRCLE
  5
FA31
330
18
100
AcDbEntity
  8
01
100
AcDbCircle
 10
4538.167262329873
 20
1306.185154360875
 30
0.0000000000563712
 40
3.0
  0
LINE
  5
FA33
330
18
100
AcDbEntity
  8
1CENTER
100
AcDbLine
 10
4538.167262329873
 20
1300.185154360875
 30
0.0000000000563712
 11
4538.167262329873
 21
1312.185154360875
 31
0.0000000000563712
  0
LINE
  5
FA34
330
18
100
AcDbEntity
  8
01
100
AcDbLine
 10
4686.667145990416
 20
1270.185154361164
 30
0.0000000000563712
 11
4700.667145990416
 21
1270.185154361164
 31
0.0000000000563712
  0
LINE
  5
FA35
330
18
100
AcDbEntity
  8
01
100
AcDbLine
 10
4753.979034257669
 20
1356.185154360875
 30
0.0000000000563712
 11
4731.355257722586
 21
1356.185154360875
 31
0.0000000000563712
  0
LINE
  5
FA36
330
18
100
AcDbEntity
  8
01
100
AcDbLine
 10
4742.667145990128
 20
1367.497042628417
 30
0.0000000000563712
 11
4742.667145990128
 21
1344.873266093334
 31
0.0000000000563712
  0
LINE
  5
FA37
330
18
100
AcDbEntity
  8
01
  6
BYBLOCK
100
AcDbLine
 10
4464.667378669617
 20
1337.216824627892
 30
0.0000000000563712
 11
4464.667378669617
 21
1319.153484093886
 31
0.0000000000563712
  0
LINE
  5
FA38
330
18
100
AcDbEntity
  8
01
  6
BYBLOCK
100
AcDbLine
 10
4460.374485450804
 20
1338.185154360889
 30
0.0000000000563712
 11
4453.667378669617
 21
1338.185154360889
 31
0.0000000000563712
  0
LINE
  5
FA39
330
18
100
AcDbEntity
  8
01
  6
BYBLOCK
100
AcDbLine
 10
4460.374485450804
 20
1318.185154360889
 30
0.0000000000563712
 11
4453.667378669617
 21
1318.185154360889
 31
0.0000000000563712
  0
ARC
  5
FA3A
330
18
100
AcDbEntity
  8
01
  6
BYBLOCK
100
AcDbCircle
 10
4460.374485450804
 20
1328.185154360889
 30
0.0000000000563712
 40
10.00000000000009
100
AcDbArc
 50
64.57753282186054
 51
90.0
  0
LINE
  5
FA3B
330
18
100
AcDbEntity
  8
01
  6
CONTINUOUS
100
AcDbLine
 10
4464.167378669617
 20
1319.870360168058
 30
0.0000000000563712
 11
4453.667378669617
 21
1319.870360168058
 31
0.0000000000563712
  0
ARC
  5
FA3C
330
18
100
AcDbEntity
  8
01
  6
CONTINUOUS
100
AcDbCircle
 10
4464.205958916531
 20
1320.332499398864
 30
0.0000000000563712
 40
0.4637468103423796
100
AcDbArc
 50
265.2279066161988
 51
354.2577450626268
  0
LINE
  5
FA3D
330
18
100
AcDbEntity
  8
01
  6
CONTINUOUS
100
AcDbLine
 10
4464.667378669617
 20
1335.668469134437
 30
0.0000000000563712
 11
4464.667378669617
 21
1320.701839587341
 31
0.0000000000563712
  0
ARC
  5
FA3E
330
18
100
AcDbEntity
  8
01
  6
CONTINUOUS
100
AcDbCircle
 10
4464.205958916531
 20
1336.037809322913
 30
0.0000000000563712
 40
0.4637468103423387
100
AcDbArc
 50
5.742254937373203
 51
94.77209338380122
  0
ARC
  5
FA3F
330
18
100
AcDbEntity
  8
01
  6
BYBLOCK
100
AcDbCircle
 10
4460.374485450804
 20
1328.185154360889
 30
0.0000000000563712
 40
10.00000000000009
100
AcDbArc
 50
270.0
 51
295.4224671781395
  0
LINE
  5
FA40
330
18
100
AcDbEntity
  8
01
  6
CONTINUOUS
100
AcDbLine
 10
4453.667378669617
 20
1336.49994855372
 30
0.0000000000563712
 11
4464.167378669617
 21
1336.49994855372
 31
0.0000000000563712
  0
LINE
  5
FA41
330
18
100
AcDbEntity
  8
01
100
AcDbLine
 10
4760.667145990128
 20
1332.685154360874
 30
0.0000000000563712
 11
4760.667145990128
 21
1291.185154360875
 31
0.0000000000563712
  0
ARC
  5
FA42
330
18
100
AcDbEntity
  8
01
100
AcDbCircle
 10
4759.667145990128
 20
1291.185154360875
 30
0.0000000000563712
 40
1.0
100
AcDbArc
 50
270.0
 51
0.0
  0
LINE
  5
FA43
330
18
100
AcDbEntity
  8
01
100
AcDbLine
 10
4716.167145990132
 20
1290.185154360875
 30
0.0000000000563712
 11
4759.667145990128
 21
1290.185154360875
 31
0.0000000000563712
  0
LINE
  5
FA44
330
18
100
AcDbEntity
  8
01
100
AcDbLine
 10
4432.667378669617
 20
1306.185154360875
 30
0.0000000000563712
 11
4372.667378669617
 21
1306.185154360875
 31
0.0000000000563712
  0
LINE
  5
FA45
330
18
100
AcDbEntity
  8
01
100
AcDbLine
 10
4402.667378669617
 20
1336.185154360875
 30
0.0000000000563712
 11
4402.667378669617
 21
1276.185154360875
 31
0.0000000000563712
  0
LINE
  5
FB06
330
18
100
AcDbEntity
  8
01
100
AcDbLine
 10
4716.167262329875
 20
1596.185154359847
 30
0.0000000000563712
 11
4769.167262329871
 21
1596.185154359847
 31
0.0000000000563712
  0
LINE
  5
FB07
330
18
100
AcDbEntity
  8
01
100
AcDbLine
 10
4716.667262329875
 20
1604.685154359847
 30
0.0000000000563712
 11
4768.667262329871
 21
1604.685154359847
 31
0.0000000000563712
  0
LINE
  5
FB08
330
18
100
AcDbEntity
  8
01
100
AcDbLine
 10
4769.167262329871
 20
1596.185154359847
 30
0.0000000000563712
 11
4769.167262329871
 21
1604.185154359847
 31
0.0000000000563712
  0
LINE
  5
FB09
330
18
100
AcDbEntity
  8
01
100
AcDbLine
 10
4716.167262329875
 20
1596.185154359847
 30
0.0000000000563712
 11
4716.167262329875
 21
1604.185154359847
 31
0.0000000000563712
  0
ARC
  5
FB0A
330
18
100
AcDbEntity
  8
01
100
AcDbCircle
 10
4716.667262329875
 20
1604.185154359847
 30
0.0000000000563712
 40
0.5
100
AcDbArc
 50
90.0
 51
180.0
  0
ARC
  5
FB0B
330
18
100
AcDbEntity
  8
01
100
AcDbCircle
 10
4768.667262329871
 20
1604.185154359847
 30
0.0000000000563712
 40
0.5
100
AcDbArc
 50
0.0
 51
90.0
  0
LINE
  5
FB0D
330
18
100
AcDbEntity
  8
01
  6
BYBLOCK
100
AcDbLine
 10
4760.667145990128
 20
1363.185154360875
 30
0.0000000000563712
 11
4760.667145990128
 21
1341.685154565002
 31
0.0000000000563712
  0
LINE
  5
FB0E
330
18
100
AcDbEntity
  8
01
  6
BYBLOCK
100
AcDbLine
 10
4694.367145990127
 20
1364.185154360875
 30
0.0000000000563712
 11
4722.66714599013
 21
1364.185154360875
 31
0.0000000000563712
  0
LINE
  5
FB0F
330
18
100
AcDbEntity
  8
01
  6
BYBLOCK
100
AcDbLine
 10
4722.66714599013
 20
1364.185154360875
 30
0.0000000000563712
 11
4759.667145990128
 21
1364.185154360875
 31
0.0000000000563712
  0
LINE
  5
FB10
330
18
100
AcDbEntity
  8
01
  6
BYBLOCK
100
AcDbLine
 10
4760.66714599013
 20
1341.685154565002
 30
0.0000000000563712
 11
4760.66714599013
 21
1332.685154360874
 31
0.0000000000563712
  0
LINE
  5
FB11
330
18
100
AcDbEntity
  8
01
100
AcDbLine
 10
4458.667378669617
 20
1384.185154360875
 30
0.0000000000563712
 11
4444.667378669617
 21
1384.185154360875
 31
0.0000000000563712
  0
LINE
  5
FB12
330
18
100
AcDbEntity
  8
01
  6
BYBLOCK
100
AcDbLine
 10
4452.167378669617
 20
1392.085154360876
 30
0.0000000000563712
 11
4452.167378669617
 21
1262.285154360876
 31
0.0000000000563712
  0
LINE
  5
FB13
330
18
100
AcDbEntity
  8
01
  6
BYBLOCK
100
AcDbLine
 10
4452.167378669617
 20
1263.185154360875
 30
0.0000000000563712
 11
4449.667378669617
 21
1263.185154360875
 31
0.0000000000563712
  0
LINE
  5
FB14
330
18
100
AcDbEntity
  8
01
  6
BYBLOCK
100
AcDbLine
 10
4449.667378669617
 20
1263.185154360875
 30
0.0000000000563712
 11
4449.667378669617
 21
1279.688098086028
 31
0.0000000000563712
  0
LINE
  5
FB15
330
18
100
AcDbEntity
  8
01
  6
BYBLOCK
100
AcDbLine
 10
4453.667378669617
 20
1392.085154360876
 30
0.0000000000563712
 11
4453.667378669617
 21
1262.285154360876
 31
0.0000000000563712
  0
LINE
  5
FB16
330
18
100
AcDbEntity
  8
01
  6
BYBLOCK
100
AcDbLine
 10
4453.667378669617
 20
1262.285154360876
 30
0.0000000000563712
 11
4452.167378669617
 21
1262.285154360876
 31
0.0000000000563712
  0
LINE
  5
FB17
330
18
100
AcDbEntity
  8
01
  6
BYBLOCK
100
AcDbLine
 10
4452.167378669617
 20
1391.185154360875
 30
0.0000000000563712
 11
4449.667378669617
 21
1391.185154360875
 31
0.0000000000563712
  0
LINE
  5
FB18
330
18
100
AcDbEntity
  8
01
  6
BYBLOCK
100
AcDbLine
 10
4453.667378669617
 20
1392.085154360876
 30
0.0000000000563712
 11
4452.167378669617
 21
1392.085154360876
 31
0.0000000000563712
  0
LINE
  5
FB19
330
18
100
AcDbEntity
  8
01
  6
BYBLOCK
100
AcDbLine
 10
4452.167378669617
 20
1367.185154360875
 30
0.0000000000563712
 11
4450.967378669617
 21
1367.185154360875
 31
0.0000000000563712
  0
ARC
  5
FB1A
330
18
100
AcDbEntity
  8
01
  6
BYBLOCK
100
AcDbCircle
 10
4385.667378669617
 20
1363.185154360875
 30
0.0000000000563712
 40
1.0
100
AcDbArc
 50
90.0
 51
180.0
  0
LINE
  5
FB1B
330
18
100
AcDbEntity
  8
01
  6
BYBLOCK
100
AcDbLine
 10
4450.967378669617
 20
1372.885154360876
 30
0.0000000000563712
 11
4450.967378669617
 21
1281.485154360876
 31
0.0000000000563712
  0
LINE
  5
FB1C
330
18
100
AcDbEntity
  8
01
  6
BYBLOCK
100
AcDbLine
 10
4450.867378669616
 20
1263.185154360875
 30
0.0000000000563712
 11
4450.867378669616
 21
1279.785154360876
 31
0.0000000000563712
  0
LINE
  5
FB1D
330
18
100
AcDbEntity
  8
01
  6
BYBLOCK
100
AcDbLine
 10
4450.867378669616
 20
1279.785154360876
 30
0.0000000000563712
 11
4451.815906807042
 21
1280.733682498299
 31
0.0000000000563712
  0
LINE
  5
FB1E
330
18
100
AcDbEntity
  8
01
  6
BYBLOCK
100
AcDbLine
 10
4450.018850532193
 20
1280.536626223452
 30
0.0000000000563712
 11
4450.967378669617
 21
1281.485154360876
 31
0.0000000000563712
  0
ARC
  5
FB1F
330
18
100
AcDbEntity
  8
01
  6
BYBLOCK
100
AcDbCircle
 10
4450.867378669616
 20
1279.688098086028
 30
0.0000000000563712
 40
1.2
100
AcDbArc
 50
134.9999999999447
 51
180.0
  0
ARC
  5
FB20
330
18
100
AcDbEntity
  8
01
  6
BYBLOCK
100
AcDbCircle
 10
4450.967378669617
 20
1281.582210635724
 30
0.0000000000563712
 40
1.2
100
AcDbArc
 50
314.9999999999447
 51
0.0
  0
LINE
  5
FB21
330
18
100
AcDbEntity
  8
01
  6
BYBLOCK
100
AcDbLine
 10
4449.667378669617
 20
1391.185154360875
 30
0.0000000000563712
 11
4449.667378669617
 21
1374.682210635723
 31
0.0000000000563712
  0
LINE
  5
FB22
330
18
100
AcDbEntity
  8
01
  6
BYBLOCK
100
AcDbLine
 10
4450.867378669616
 20
1391.185154360875
 30
0.0000000000563712
 11
4450.867378669616
 21
1374.585154360876
 31
0.0000000000563712
  0
LINE
  5
FB23
330
18
100
AcDbEntity
  8
01
  6
BYBLOCK
100
AcDbLine
 10
4450.867378669616
 20
1374.585154360876
 30
0.0000000000563712
 11
4451.815906807042
 21
1373.636626223451
 31
0.0000000000563712
  0
LINE
  5
FB24
330
18
100
AcDbEntity
  8
01
  6
BYBLOCK
100
AcDbLine
 10
4450.018850532193
 20
1373.833682498299
 30
0.0000000000563712
 11
4450.967378669617
 21
1372.885154360875
 31
0.0000000000563712
  0
ARC
  5
FB25
330
18
100
AcDbEntity
  8
01
  6
BYBLOCK
100
AcDbCircle
 10
4450.867378669616
 20
1374.682210635723
 30
0.0000000000563712
 40
1.2
100
AcDbArc
 50
180.0
 51
225.0000000000553
  0
ARC
  5
FB26
330
18
100
AcDbEntity
  8
01
  6
BYBLOCK
100
AcDbCircle
 10
4450.967378669617
 20
1372.788098086028
 30
0.0000000000563712
 40
1.2
100
AcDbArc
 50
0.0
 51
45.00000000005527
  0
CIRCLE
  5
FB27
330
18
100
AcDbEntity
  8
01
  6
BYBLOCK
100
AcDbCircle
 10
4402.667378669617
 20
1356.185154360875
 30
0.0000000000563712
 40
4.75
  0
LINE
  5
FB28
330
18
100
AcDbEntity
  8
01
  6
BYBLOCK
100
AcDbLine
 10
4450.967378669617
 20
1290.185154360875
 30
0.0000000000563712
 11
4429.167378669614
 21
1290.185154360875
 31
0.0000000000563712
  0
LINE
  5
FB29
330
18
100
AcDbEntity
  8
01
  6
BYBLOCK
100
AcDbLine
 10
4406.273623253668
 20
1356.185154360875
 30
0.0000000000563712
 11
4402.667378669617
 21
1359.791398944927
 31
0.0000000000563712
  0
LINE
  5
FB2A
330
18
100
AcDbEntity
  8
01
  6
BYBLOCK
100
AcDbLine
 10
4399.061134085565
 20
1356.185154360875
 30
0.0000000000563712
 11
4402.667378669617
 21
1359.791398944927
 31
0.0000000000563712
  0
LINE
  5
FB2B
330
18
100
AcDbEntity
  8
01
  6
BYBLOCK
100
AcDbLine
 10
4406.273623253668
 20
1356.185154360875
 30
0.0000000000563712
 11
4402.667378669617
 21
1352.578909776824
 31
0.0000000000563712
  0
LINE
  5
FB2C
330
18
100
AcDbEntity
  8
01
  6
BYBLOCK
100
AcDbLine
 10
4399.061134085565
 20
1356.185154360875
 30
0.0000000000563712
 11
4402.667378669617
 21
1352.578909776824
 31
0.0000000000563712
  0
LINE
  5
FB2D
330
18
100
AcDbEntity
  8
01
  6
BYBLOCK
100
AcDbLine
 10
4464.667378669617
 20
1337.216824627892
 30
0.0000000000563712
 11
4464.667378669617
 21
1319.153484093886
 31
0.0000000000563712
  0
LINE
  5
FB2E
330
18
100
AcDbEntity
  8
01
  6
BYBLOCK
100
AcDbLine
 10
4460.374485450804
 20
1338.185154360889
 30
0.0000000000563712
 11
4453.667378669617
 21
1338.185154360889
 31
0.0000000000563712
  0
LINE
  5
FB2F
330
18
100
AcDbEntity
  8
01
  6
BYBLOCK
100
AcDbLine
 10
4460.374485450804
 20
1318.185154360889
 30
0.0000000000563712
 11
4453.667378669617
 21
1318.185154360889
 31
0.0000000000563712
  0
LINE
  5
FB30
330
18
100
AcDbEntity
  8
01
100
AcDbLine
 10
4458.66737866933
 20
1270.185154361164
 30
0.0000000000563712
 11
4444.66737866933
 21
1270.185154361164
 31
0.0000000000563712
  0
LINE
  5
FB31
330
18
100
AcDbEntity
  8
01
  6
BYBLOCK
100
AcDbLine
 10
4384.667378669617
 20
1363.185154360875
 30
0.0000000000563712
 11
4384.667378669617
 21
1341.685154565002
 31
0.0000000000563712
  0
LINE
  5
FB32
330
18
100
AcDbEntity
  8
01
  6
BYBLOCK
100
AcDbLine
 10
4450.967378669617
 20
1364.185154360875
 30
0.0000000000563712
 11
4422.667378669616
 21
1364.185154360875
 31
0.0000000000563712
  0
LINE
  5
FB33
330
18
100
AcDbEntity
  8
01
  6
BYBLOCK
100
AcDbLine
 10
4422.667378669616
 20
1364.185154360875
 30
0.0000000000563712
 11
4385.667378669617
 21
1364.185154360875
 31
0.0000000000563712
  0
LINE
  5
FB34
330
18
100
AcDbEntity
  8
01
  6
BYBLOCK
100
AcDbLine
 10
4384.667378669614
 20
1341.685154565002
 30
0.0000000000563712
 11
4384.667378669614
 21
1332.685154360874
 31
0.0000000000563712
  0
TEXT
  5
FB35
330
18
100
AcDbEntity
  8
1TEXT
100
AcDbText
 10
4384.667278329873
 20
1587.685154360875
 30
0.0
 40
20.0
  1
1-KTT-X-LJ-2
100
AcDbText
  0
TEXT
  5
FB36
330
18
100
AcDbEntity
  8
1TEXT
100
AcDbText
 10
4396.867278329873
 20
1549.435154360875
 30
0.0
 40
6.0
  1
表面処理
 72
     1
 11
4410.767278329873
 21
1549.435154360875
 31
0.0
100
AcDbText
  0
TEXT
  5
FB37
330
18
100
AcDbEntity
  8
1TEXT
100
AcDbText
 10
4396.567278329873
 20
1539.182221371589
 30
0.0
 40
6.0
  1
クローム
 72
     1
 11
4410.767278329873
 21
1539.182221371589
 31
0.0
100
AcDbText
  0
LINE
  5
FB38
330
18
100
AcDbEntity
  8
1DIM
100
AcDbLine
 10
4384.667278329873
 20
1557.685154360875
 30
0.0000000000563712
 11
4489.667278329873
 21
1557.685154360875
 31
0.0000000000563712
  0
LINE
  5
FB39
330
18
100
AcDbEntity
  8
1DIM
100
AcDbLine
 10
4384.667278329873
 20
1547.185154360875
 30
0.0000000000563712
 11
4489.667278329873
 21
1547.185154360875
 31
0.0000000000563712
  0
LINE
  5
FB3A
330
18
100
AcDbEntity
  8
1DIM
100
AcDbLine
 10
4384.667278329873
 20
1536.685154360875
 30
0.0000000000563712
 11
4489.667278329873
 21
1536.685154360875
 31
0.0000000000563712
  0
LINE
  5
FB3B
330
18
100
AcDbEntity
  8
1DIM
100
AcDbLine
 10
4384.667278329873
 20
1536.685154360875
 30
0.0000000000563712
 11
4489.667278329873
 21
1536.685154360875
 31
0.0000000000563712
  0
LINE
  5
FB3C
330
18
100
AcDbEntity
  8
1DIM
100
AcDbLine
 10
4437.167278329873
 20
1557.685154360875
 30
0.0000000000563712
 11
4437.167278329873
 21
1536.685154360875
 31
0.0000000000563712
  0
TEXT
  5
FB3D
330
18
100
AcDbEntity
  8
1TEXT
100
AcDbText
 10
4439.467278329873
 20
1538.613618885402
 30
0.0
 40
6.0
  1
1-KTT-C-LJ-2
 41
0.6999999999999998
 72
     1
 11
4463.267278329873
 21
1538.613618885402
 31
0.0
100
AcDbText
  0
TEXT
  5
FB3E
330
18
100
AcDbEntity
  8
1TEXT
100
AcDbText
 10
4452.967278329873
 20
1549.435154360875
 30
0.0
 40
6.0
  1
コード
 72
     1
 11
4463.267278329873
 21
1549.435154360875
 31
0.0
100
AcDbText
  0
LINE
  5
FB3F
330
18
100
AcDbEntity
  8
1DIM
100
AcDbLine
 10
4489.667278329873
 20
1536.685154360875
 30
0.0000000000563712
 11
4489.667278329873
 21
1557.685154360875
 31
0.0000000000563712
  0
LINE
  5
FB40
330
18
100
AcDbEntity
  8
1DIM
100
AcDbLine
 10
4384.667278329873
 20
1536.685154360875
 30
0.0000000000563712
 11
4489.667278329873
 21
1536.685154360875
 31
0.0000000000563712
  0
LINE
  5
FB41
330
18
100
AcDbEntity
  8
1DIM
100
AcDbLine
 10
4437.167278329873
 20
1536.685154360875
 30
0.0000000000563712
 11
4437.167278329873
 21
1526.185154360875
 31
0.0000000000563712
  0
LINE
  5
FB42
330
18
100
AcDbEntity
  8
1DIM
100
AcDbLine
 10
4384.667278329873
 20
1526.185154360875
 30
0.0000000000563712
 11
4489.667278329873
 21
1526.185154360875
 31
0.0000000000563712
  0
TEXT
  5
FB43
330
18
100
AcDbEntity
  8
1TEXT
100
AcDbText
 10
4385.967278329873
 20
1528.718783943519
 30
0.0
 40
6.0
  1
サテンニッケル
 72
     1
 11
4410.767278329873
 21
1528.718783943519
 31
0.0
100
AcDbText
  0
LINE
  5
FB44
330
18
100
AcDbEntity
  8
1DIM
100
AcDbLine
 10
4384.667278329873
 20
1526.185154360875
 30
0.0000000000563712
 11
4384.667278329873
 21
1536.685154360875
 31
0.0000000000563712
  0
LINE
  5
FB45
330
18
100
AcDbEntity
  8
1DIM
100
AcDbLine
 10
4489.667278329873
 20
1526.185154360875
 30
0.0000000000563712
 11
4489.667278329873
 21
1536.685154360875
 31
0.0000000000563712
  0
TEXT
  5
FB46
330
18
100
AcDbEntity
  8
1TEXT
100
AcDbText
 10
4439.467278329873
 20
1528.113618885402
 30
0.0
 40
6.0
  1
1-KTT-N-LJ-2
 41
0.6999999999999998
 72
     1
 11
4463.267278329873
 21
1528.113618885402
 31
0.0
100
AcDbText
  0
LINE
  5
FB47
330
18
100
AcDbEntity
  8
1DIM
100
AcDbLine
 10
4384.667278329873
 20
1536.685154360875
 30
0.0000000000563712
 11
4384.667278329873
 21
1557.685154360875
 31
0.0000000000563712
  0
POINT
  5
FDD2
330
18
100
AcDbEntity
  8
01
100
AcDbPoint
 10
4607.167145990128
 20
1306.185154360875
 30
0.0000000000563712
  0
LINE
  5
FDD3
330
18
100
AcDbEntity
  8
01
100
AcDbLine
 10
4606.767145980129
 20
1304.435154360875
 30
0.0000000000563712
 11
4606.767145980129
 21
1305.285154380876
 31
0.0000000000563712
  0
LINE
  5
FDD4
330
18
100
AcDbEntity
  8
01
100
AcDbLine
 10
4607.56714600013
 20
1304.435154360875
 30
0.0000000000563712
 11
4607.56714600013
 21
1305.285154380876
 31
0.0000000000563712
  0
LINE
  5
FDD5
330
18
100
AcDbEntity
  8
01
100
AcDbLine
 10
4606.267146010128
 20
1305.785154350875
 30
0.0000000000563712
 11
4605.417145990128
 21
1305.785154350875
 31
0.0000000000563712
  0
LINE
  5
FDD6
330
18
100
AcDbEntity
  8
01
100
AcDbLine
 10
4606.267146010128
 20
1306.585154370875
 30
0.0000000000563712
 11
4605.417145990128
 21
1306.585154370875
 31
0.0000000000563712
  0
LINE
  5
FDD7
330
18
100
AcDbEntity
  8
01
100
AcDbLine
 10
4605.417145990128
 20
1305.785154350875
 30
0.0000000000563712
 11
4605.417145990128
 21
1306.585154370875
 31
0.0000000000563712
  0
LINE
  5
FDD8
330
18
100
AcDbEntity
  8
01
100
AcDbLine
 10
4607.56714600013
 20
1304.435154360875
 30
0.0000000000563712
 11
4606.767145980129
 21
1304.435154360875
 31
0.0000000000563712
  0
LINE
  5
FDD9
330
18
100
AcDbEntity
  8
01
100
AcDbLine
 10
4607.56714600013
 20
1307.935154360875
 30
0.0000000000563712
 11
4607.56714600013
 21
1307.085154340875
 31
0.0000000000563712
  0
LINE
  5
FDDA
330
18
100
AcDbEntity
  8
01
100
AcDbLine
 10
4606.767145980129
 20
1307.935154360875
 30
0.0000000000563712
 11
4606.767145980129
 21
1307.085154340875
 31
0.0000000000563712
  0
LINE
  5
FDDB
330
18
100
AcDbEntity
  8
01
100
AcDbLine
 10
4608.067145970128
 20
1306.585154370875
 30
0.0000000000563712
 11
4608.917145990128
 21
1306.585154370875
 31
0.0000000000563712
  0
LINE
  5
FDDC
330
18
100
AcDbEntity
  8
01
100
AcDbLine
 10
4608.067145970128
 20
1305.785154350875
 30
0.0000000000563712
 11
4608.917145990128
 21
1305.785154350875
 31
0.0000000000563712
  0
LINE
  5
FDDD
330
18
100
AcDbEntity
  8
01
100
AcDbLine
 10
4608.917145990128
 20
1306.585154370875
 30
0.0000000000563712
 11
4608.917145990128
 21
1305.785154350875
 31
0.0000000000563712
  0
LINE
  5
FDDE
330
18
100
AcDbEntity
  8
01
100
AcDbLine
 10
4606.767145980129
 20
1307.935154360875
 30
0.0000000000563712
 11
4607.56714600013
 21
1307.935154360875
 31
0.0000000000563712
  0
CIRCLE
  5
FDDF
330
18
100
AcDbEntity
  8
01
100
AcDbCircle
 10
4607.167145990128
 20
1306.185154360875
 30
0.0000000000563712
 40
2.5
  0
ARC
  5
FDE0
330
18
100
AcDbEntity
  8
01
100
AcDbCircle
 10
4608.067145970128
 20
1307.085154340875
 30
0.0000000000563712
 40
0.5
100
AcDbArc
 50
179.999989999999
 51
270.0
  0
ARC
  5
FDE1
330
18
100
AcDbEntity
  8
01
100
AcDbCircle
 10
4608.067145970128
 20
1305.285154380876
 30
0.0000000000563712
 40
0.5
100
AcDbArc
 50
90.00000299998466
 51
180.000010000001
  0
ARC
  5
FDE2
330
18
100
AcDbEntity
  8
01
100
AcDbCircle
 10
4606.267146010128
 20
1305.285154380876
 30
0.0000000000563712
 40
0.5
100
AcDbArc
 50
0.0
 51
90.00000299998466
  0
ARC
  5
FDE3
330
18
100
AcDbEntity
  8
01
100
AcDbCircle
 10
4606.267146010128
 20
1307.085154340875
 30
0.0000000000563712
 40
0.5
100
AcDbArc
 50
270.0
 51
0.0
  0
LINE
  5
FDE5
330
18
100
AcDbEntity
  8
1CENTER
100
AcDbLine
 10
4607.167145990128
 20
1300.185154360875
 30
0.0000000000563712
 11
4607.167145990128
 21
1312.185154360875
 31
0.0000000000563712
  0
LINE
  5
FDE6
330
18
100
AcDbEntity
  8
01
100
AcDbLine
 10
4590.538860607698
 20
1306.185154360875
 30
0.0000000000563712
 11
4613.167145990128
 21
1306.185154360875
 31
0.0000000000563712
  0
LINE
  5
FDE7
330
18
100
AcDbEntity
  8
01
  6
BYBLOCK
100
AcDbLine
 10
4691.667913832445
 20
1556.183836047773
 30
0.0000000001127424
 11
4845.422293987476
 21
1556.183836047773
 31
0.0000000001127424
  0
LINE
  5
FDE8
330
18
100
AcDbEntity
  8
1CENTER
100
AcDbLine
 10
4726.583471226188
 20
1541.683844081026
 30
0.0000000001127424
 11
4734.717143588035
 21
1541.683836047775
 31
0.0000000001127424
  0
LINE
  5
FDE9
330
18
100
AcDbEntity
  8
01
100
AcDbLine
 10
4742.667145990128
 20
1561.183836047773
 30
0.0000000001127424
 11
4742.667145990128
 21
1534.683836047773
 31
0.0000000001127424
  0
LINE
  5
FDED
330
18
100
AcDbEntity
  8
01
100
AcDbLine
 10
4592.667145990128
 20
1426.185154360875
 30
0.0000000000563712
 11
4592.667145990128
 21
1236.185154360875
 31
0.0000000000563712
  0
LINE
  5
FDEE
330
18
100
AcDbEntity
  8
01
100
AcDbLine
 10
4712.667145990128
 20
1306.185154360875
 30
0.0000000000563712
 11
4772.667145990128
 21
1306.185154360875
 31
0.0000000000563712
  0
LINE
  5
FDEF
330
18
100
AcDbEntity
  8
01
100
AcDbLine
 10
4742.667145990128
 20
1336.185154360875
 30
0.0000000000563712
 11
4742.667145990128
 21
1276.185154360875
 31
0.0000000000563712
  0
LINE
  5
FDF1
330
18
100
AcDbEntity
  8
01
100
AcDbLine
 10
4768.667145990128
 20
1332.685154360874
 30
0.0000000000563712
 11
4716.667145990132
 21
1332.685154360874
 31
0.0000000000563712
  0
LINE
  5
FDF2
330
18
100
AcDbEntity
  8
01
100
AcDbLine
 10
4716.667145990132
 20
1279.685154360874
 30
0.0000000000563712
 11
4768.667145990128
 21
1279.685154360874
 31
0.0000000000563712
  0
LINE
  5
FDF3
330
18
100
AcDbEntity
  8
01
100
AcDbLine
 10
4716.167145990132
 20
1332.185154360874
 30
0.0000000000563712
 11
4716.167145990132
 21
1280.185154360874
 31
0.0000000000563712
  0
ARC
  5
FDF4
330
18
100
AcDbEntity
  8
01
100
AcDbCircle
 10
4716.667145990132
 20
1280.185154360874
 30
0.0000000000563712
 40
0.5
100
AcDbArc
 50
180.0
 51
270.0
  0
ARC
  5
FDF5
330
18
100
AcDbEntity
  8
01
100
AcDbCircle
 10
4716.667145990132
 20
1332.185154360874
 30
0.0000000000563712
 40
0.5
100
AcDbArc
 50
90.0
 51
180.0
  0
LINE
  5
FDF6
330
18
100
AcDbEntity
  8
01
100
AcDbLine
 10
4769.167145990128
 20
1332.185154360874
 30
0.0000000000563712
 11
4769.167145990128
 21
1313.916582373704
 31
0.0000000000563712
  0
LINE
  5
FDF7
330
18
100
AcDbEntity
  8
01
100
AcDbLine
 10
4769.167145990128
 20
1298.453726348005
 30
0.0000000000563712
 11
4769.167145990128
 21
1280.185154360874
 31
0.0000000000563712
  0
ARC
  5
FDF8
330
18
100
AcDbEntity
  8
01
100
AcDbCircle
 10
4768.667145990128
 20
1280.185154360874
 30
0.0000000000563712
 40
0.5
100
AcDbArc
 50
270.0
 51
0.0
  0
ARC
  5
FDF9
330
18
100
AcDbEntity
  8
01
100
AcDbCircle
 10
4768.667145990128
 20
1332.185154360874
 30
0.0000000000563712
 40
0.5
100
AcDbArc
 50
0.0
 51
90.0
  0
LINE
  5
FDFA
330
18
100
AcDbEntity
  8
01
100
AcDbLine
 10
4716.167145990132
 20
1556.183836047773
 30
0.0000000001127424
 11
4769.167145990128
 21
1556.183836047773
 31
0.0000000001127424
  0
LINE
  5
FDFB
330
18
100
AcDbEntity
  8
01
100
AcDbLine
 10
4716.667145990132
 20
1547.683836047773
 30
0.0000000001127424
 11
4768.667145990128
 21
1547.683836047773
 31
0.0000000001127424
  0
LINE
  5
FDFC
330
18
100
AcDbEntity
  8
01
100
AcDbLine
 10
4769.167145990128
 20
1556.183836047773
 30
0.0000000001127424
 11
4769.167145990128
 21
1548.183836047773
 31
0.0000000001127424
  0
LINE
  5
FDFD
330
18
100
AcDbEntity
  8
01
100
AcDbLine
 10
4716.167145990132
 20
1556.183836047773
 30
0.0000000001127424
 11
4716.167145990132
 21
1548.183836047773
 31
0.0000000001127424
  0
ARC
  5
FDFE
330
18
100
AcDbEntity
  8
01
100
AcDbCircle
 10
4716.667145990132
 20
1548.183836047773
 30
0.0000000001127424
 40
0.5
100
AcDbArc
 50
180.0
 51
270.0
  0
ARC
  5
FDFF
330
18
100
AcDbEntity
  8
01
100
AcDbCircle
 10
4768.667145990128
 20
1548.183836047773
 30
0.0000000001127424
 40
0.5
100
AcDbArc
 50
270.0
 51
0.0
  0
LINE
  5
FE00
330
18
100
AcDbEntity
  8
01
100
AcDbLine
 10
4592.667145990128
 20
1279.685154360876
 30
0.0000000000563712
 11
4592.667145990128
 21
1332.685154360874
 31
0.0000000000563712
  0
LINE
  5
FE01
330
18
100
AcDbEntity
  8
01
100
AcDbLine
 10
4601.167145990128
 20
1280.185154360876
 30
0.0000000000563712
 11
4601.167145990128
 21
1332.185154360874
 31
0.0000000000563712
  0
LINE
  5
FE02
330
18
100
AcDbEntity
  8
01
100
AcDbLine
 10
4592.667145990128
 20
1332.685154360874
 30
0.0000000000563712
 11
4600.667145990128
 21
1332.685154360874
 31
0.0000000000563712
  0
LINE
  5
FE03
330
18
100
AcDbEntity
  8
01
100
AcDbLine
 10
4592.667145990128
 20
1279.685154360876
 30
0.0000000000563712
 11
4600.667145990128
 21
1279.685154360876
 31
0.0000000000563712
  0
ARC
  5
FE04
330
18
100
AcDbEntity
  8
01
100
AcDbCircle
 10
4600.667145990128
 20
1280.185154360876
 30
0.0000000000563712
 40
0.5
100
AcDbArc
 50
270.0
 51
0.0
  0
ARC
  5
FE05
330
18
100
AcDbEntity
  8
01
100
AcDbCircle
 10
4600.667145990128
 20
1332.185154360874
 30
0.0000000000563712
 40
0.5
100
AcDbArc
 50
0.0
 51
90.0
  0
LINE
  5
FE07
330
18
100
AcDbEntity
  8
01
100
AcDbLine
 10
4732.611234268463
 20
1308.232555603341
 30
0.0000000000563712
 11
4860.750997167021
 21
1308.232555603348
 31
0.0000000000563712
  0
LINE
  5
FE08
330
18
100
AcDbEntity
  8
01
100
AcDbLine
 10
4732.663204647737
 20
1304.13775311837
 30
0.0000000000563712
 11
4860.750997167021
 21
1304.13775311837
 31
0.0000000000563712
  0
ARC
  5
FE09
330
18
100
AcDbEntity
  8
01
100
AcDbCircle
 10
4752.7019518016
 20
1316.685154360874
 30
0.0000000000563712
 40
1.5
100
AcDbArc
 50
1.257375080859653
 51
90.0
  0
ARC
  5
FE0A
330
18
100
AcDbEntity
  8
01
100
AcDbCircle
 10
4274.317169434935
 20
1306.185154360859
 30
0.0000000000563712
 40
480.0
100
AcDbArc
 50
358.7426249190101
 51
359.0770888513416
  0
ARC
  5
FE0B
330
18
100
AcDbEntity
  8
01
100
AcDbCircle
 10
4752.7019518016
 20
1295.685154360866
 30
0.0000000000563712
 40
1.5
100
AcDbArc
 50
270.0
 51
358.7426249191403
  0
ARC
  5
FE0C
330
18
100
AcDbEntity
  8
01
100
AcDbCircle
 10
4732.632340178619
 20
1295.685154360866
 30
0.0000000000563712
 40
1.5
100
AcDbArc
 50
181.2573750808596
 51
270.0000000002606
  0
ARC
  5
FE0D
330
18
100
AcDbEntity
  8
01
100
AcDbCircle
 10
4732.632340178619
 20
1316.685154360874
 30
0.0000000000563712
 40
1.5
100
AcDbArc
 50
89.99999999973944
 51
178.7426249191404
  0
ARC
  5
FE0E
330
18
100
AcDbEntity
  8
01
100
AcDbCircle
 10
5211.017122545285
 20
1306.185154360859
 30
0.0000000000563712
 40
480.0
100
AcDbArc
 50
178.7426249190101
 51
181.2573750809899
  0
LINE
  5
FE0F
330
18
100
AcDbEntity
  8
01
100
AcDbLine
 10
4860.769557675985
 20
1298.453726348018
 30
0.0000000000563712
 11
4754.254899792619
 21
1298.453726348003
 31
0.0000000000563712
  0
LINE
  5
FE10
330
18
100
AcDbEntity
  8
01
100
AcDbLine
 10
4860.769557675985
 20
1313.916582373686
 30
0.0000000000563712
 11
4754.254899792619
 21
1313.916582373708
 31
0.0000000000563712
  0
LINE
  5
FE11
330
18
100
AcDbEntity
  8
01
100
AcDbLine
 10
4732.632340178627
 20
1318.185154360874
 30
0.0000000000563712
 11
4752.7019518016
 21
1318.185154360866
 31
0.0000000000563712
  0
LINE
  5
FE12
330
18
100
AcDbEntity
  8
01
100
AcDbLine
 10
4752.7019518016
 20
1294.185154360859
 30
0.0000000000563712
 11
4732.632340178627
 21
1294.185154360859
 31
0.0000000000563712
  0
ARC
  5
FE13
330
18
100
AcDbEntity
  8
01
100
AcDbCircle
 10
4274.317169434935
 20
1306.185154360859
 30
0.0000000000563712
 40
480.0
100
AcDbArc
 50
0.9229111486583993
 51
1.257375080989897
  0
LINE
  5
FE14
330
18
100
AcDbEntity
  8
01
100
AcDbLine
 10
4731.16714599011
 20
1307.184297105096
 30
0.0000000000563712
 11
4731.16714599011
 21
1305.186011616637
 31
0.0000000000563712
  0
LINE
  5
FE15
330
18
100
AcDbEntity
  8
01
100
AcDbLine
 10
4862.217122545304
 20
1307.184297105096
 30
0.0000000000563712
 11
4862.217122545304
 21
1305.18601161655
 31
0.0000000000563712
  0
ELLIPSE
  5
FE16
330
18
100
AcDbEntity
  8
01
100
AcDbEllipse
 10
4860.750997167021
 20
1307.184297105096
 30
0.0000000000563712
 11
1.466125378283323
 21
0.0
 31
0.0
210
0.0
220
0.0
230
1.0
 40
0.7149855761178042
 41
0.0
 42
1.570796326794897
  0
ELLIPSE
  5
FE17
330
18
100
AcDbEntity
  8
01
100
AcDbEllipse
 10
4860.750997167021
 20
1305.18601161655
 30
0.0000000000563712
 11
1.466125378283323
 21
0.0
 31
0.0
210
0.0
220
0.0
230
-1.0
 40
0.7149855761178042
 41
0.0
 42
1.570796326794897
  0
ELLIPSE
  5
FE18
330
18
100
AcDbEntity
  8
01
100
AcDbEllipse
 10
4732.663204647737
 20
1307.184297105096
 30
0.0000000000563712
 11
-1.496058657627145
 21
0.0
 31
0.0
210
0.0
220
0.0
230
1.0
 40
0.7006800788868608
 41
4.71238898038469
 42
6.283185307179586
  0
ELLIPSE
  5
FE19
330
18
100
AcDbEntity
  8
01
100
AcDbEllipse
 10
4732.663204647737
 20
1305.186011616637
 30
0.0000000000563712
 11
-1.496058657627145
 21
0.0
 31
0.0
210
0.0
220
0.0
230
-1.0
 40
0.7006800788868608
 41
4.71238898038469
 42
6.283185307179586
  0
ARC
  5
FE1A
330
18
100
AcDbEntity
  8
01
100
AcDbCircle
 10
4860.769557675985
 20
1299.953726348018
 30
0.0000000000563712
 40
1.5
100
AcDbArc
 50
270.0
 51
358.1734270623115
  0
ARC
  5
FE1B
330
18
100
AcDbEntity
  8
01
100
AcDbCircle
 10
4860.769557675985
 20
1312.416582373715
 30
0.0000000000563712
 40
1.5
100
AcDbArc
 50
1.826572937688503
 51
90.0
  0
ARC
  5
FE1C
330
18
100
AcDbEntity
  8
01
100
AcDbCircle
 10
4665.368894153775
 20
1306.185154360866
 30
0.0000000000563712
 40
197.0
100
AcDbArc
 50
358.1734270624165
 51
1.826572937583505
  0
ARC
  5
FE1D
330
18
100
AcDbEntity
  8
01
100
AcDbCircle
 10
4601.667145990128
 20
1462.385154361561
 30
0.0000000000563712
 40
168.2
100
AcDbArc
 50
270.0
 51
289.4527672107872
  0
ARC
  5
FE1E
330
18
100
AcDbEntity
  8
01
100
AcDbCircle
 10
4601.667145990128
 20
1149.985154361553
 30
0.0000000000563712
 40
168.2
100
AcDbArc
 50
70.54723278921273
 51
90.0
  0
LINE
  5
FE1F
330
18
100
AcDbEntity
  8
01
100
AcDbLine
 10
4601.667145990128
 20
1318.185154360873
 30
0.0000000000563712
 11
4601.667145990128
 21
1294.185154362241
 31
0.0000000000563712
  0
ARC
  5
FE20
330
18
100
AcDbEntity
  8
01
100
AcDbCircle
 10
4657.183190764126
 20
1305.200998758491
 30
0.0000000000563712
 40
1.5
100
AcDbArc
 50
289.4527672106225
 51
359.4275238510782
  0
ARC
  5
FE21
330
18
100
AcDbEntity
  8
01
100
AcDbCircle
 10
4657.183190764126
 20
1307.16930996463
 30
0.0000000000563712
 40
1.5
100
AcDbArc
 50
0.5724761489217947
 51
70.54723278926836
  0
ARC
  5
FE22
330
18
100
AcDbEntity
  8
01
100
AcDbCircle
 10
4558.688107446485
 20
1306.185154361383
 30
0.0000000000563712
 40
100.0
100
AcDbArc
 50
359.4275238511564
 51
0.5724761490520638
  0
ARC
  5
FE23
330
18
100
AcDbEntity
  8
01
100
AcDbCircle
 10
4860.750997167035
 20
1491.662874591408
 30
0.0000000001127424
 40
1.5
100
AcDbArc
 50
270.0
 51
358.7729938891957
  0
ARC
  5
FE24
330
18
100
AcDbEntity
  8
01
100
AcDbCircle
 10
4860.750997167021
 20
1513.683112568406
 30
0.0000000001127424
 40
1.5
100
AcDbArc
 50
1.227006111064828
 51
90.0
  0
ARC
  5
FE25
330
18
100
AcDbEntity
  8
01
100
AcDbCircle
 10
4732.663204647752
 20
1491.662874591408
 30
0.0000000001127424
 40
1.5
100
AcDbArc
 50
180.1507461495316
 51
270.0
  0
ARC
  5
FE26
330
18
100
AcDbEntity
  8
01
100
AcDbCircle
 10
4757.74219549808
 20
1518.683112568421
 30
0.0000000001127424
 40
3.5
100
AcDbArc
 50
179.8492538505465
 51
270.0
  0
LINE
  5
FE27
330
18
100
AcDbEntity
  8
01
100
AcDbLine
 10
4754.317169434949
 20
1547.183836047773
 30
0.0000000001127424
 11
4754.223845787134
 21
1511.713352525907
 31
0.0000000001127424
  0
LINE
  5
FE28
330
18
100
AcDbEntity
  8
01
100
AcDbLine
 10
4731.017122545307
 20
1547.183836047773
 30
0.0000000001127424
 11
4731.163209839438
 21
1491.658928070998
 31
0.0000000001127424
  0
ARC
  5
FE29
330
18
100
AcDbEntity
  8
01
100
AcDbCircle
 10
4346.70554548624
 20
1502.67299357954
 30
0.0000000001127424
 40
515.6633486675555
100
AcDbArc
 50
358.7729938891435
 51
1.227006110960632
  0
LINE
  5
FE2A
330
18
100
AcDbEntity
  8
01
100
AcDbLine
 10
4860.750997167035
 20
1490.162874591415
 30
0.0000000001127424
 11
4732.663204647752
 21
1490.162874591408
 31
0.0000000001127424
  0
LINE
  5
FE2B
330
18
100
AcDbEntity
  8
01
100
AcDbLine
 10
4860.750997167021
 20
1515.183112568413
 30
0.0000000001127424
 11
4757.74219549808
 21
1515.183112568421
 31
0.0000000001127424
  0
LINE
  5
FE2C
330
18
100
AcDbEntity
  8
01
100
AcDbLine
 10
4754.317169434949
 20
1547.183836047773
 30
0.0000000001127424
 11
4731.017122545307
 21
1547.183836047773
 31
0.0000000001127424
  0
ARC
  5
FE2E
330
18
100
AcDbEntity
  8
01
100
AcDbCircle
 10
4543.667378669617
 20
1462.385154361561
 30
0.0000000000563712
 40
168.2
100
AcDbArc
 50
250.5472327892128
 51
270.0
  0
ARC
  5
FE2F
330
18
100
AcDbEntity
  8
01
100
AcDbCircle
 10
4543.667378669617
 20
1149.985154361553
 30
0.0000000000563712
 40
168.2
100
AcDbArc
 50
90.0
 51
109.4527672107873
  0
LINE
  5
FE30
330
18
100
AcDbEntity
  8
01
100
AcDbLine
 10
4543.667378669617
 20
1318.185154360873
 30
0.0000000000563712
 11
4543.667378669617
 21
1294.185154362241
 31
0.0000000000563712
  0
ARC
  5
FE31
330
18
100
AcDbEntity
  8
01
100
AcDbCircle
 10
4488.151333895619
 20
1305.200998758491
 30
0.0000000000563712
 40
1.5
100
AcDbArc
 50
180.5724761489218
 51
250.5472327893775
  0
ARC
  5
FE32
330
18
100
AcDbEntity
  8
01
100
AcDbCircle
 10
4488.151333895619
 20
1307.16930996463
 30
0.0000000000563712
 40
1.5
100
AcDbArc
 50
109.4527672107316
 51
179.4275238510782
  0
ARC
  5
FE33
330
18
100
AcDbEntity
  8
01
100
AcDbCircle
 10
4586.64641721326
 20
1306.185154361383
 30
0.0000000000563712
 40
100.0
100
AcDbArc
 50
179.4275238509479
 51
180.5724761488436
  0
LINE
  5
FE34
330
18
100
AcDbEntity
  8
01
100
AcDbLine
 10
4376.667378669617
 20
1332.685154360874
 30
0.0000000000563712
 11
4428.667378669614
 21
1332.685154360874
 31
0.0000000000563712
  0
LINE
  5
FE35
330
18
100
AcDbEntity
  8
01
100
AcDbLine
 10
4428.667378669614
 20
1279.685154360874
 30
0.0000000000563712
 11
4376.667378669617
 21
1279.685154360874
 31
0.0000000000563712
  0
LINE
  5
FE36
330
18
100
AcDbEntity
  8
01
100
AcDbLine
 10
4429.167378669614
 20
1332.185154360874
 30
0.0000000000563712
 11
4429.167378669614
 21
1280.185154360874
 31
0.0000000000563712
  0
ARC
  5
FE37
330
18
100
AcDbEntity
  8
01
100
AcDbCircle
 10
4428.667378669614
 20
1280.185154360874
 30
0.0000000000563712
 40
0.5
100
AcDbArc
 50
270.0
 51
0.0
  0
ARC
  5
FE38
330
18
100
AcDbEntity
  8
01
100
AcDbCircle
 10
4428.667378669614
 20
1332.185154360874
 30
0.0000000000563712
 40
0.5
100
AcDbArc
 50
0.0
 51
90.0
  0
LINE
  5
FE39
330
18
100
AcDbEntity
  8
01
100
AcDbLine
 10
4376.167378669617
 20
1332.185154360874
 30
0.0000000000563712
 11
4376.167378669616
 21
1313.916582373704
 31
0.0000000000563712
  0
LINE
  5
FE3A
330
18
100
AcDbEntity
  8
01
100
AcDbLine
 10
4376.167378669617
 20
1298.453726348005
 30
0.0000000000563712
 11
4376.167378669617
 21
1280.185154360874
 31
0.0000000000563712
  0
ARC
  5
FE3B
330
18
100
AcDbEntity
  8
01
100
AcDbCircle
 10
4376.667378669617
 20
1280.185154360874
 30
0.0000000000563712
 40
0.5
100
AcDbArc
 50
180.0
 51
270.0
  0
ARC
  5
FE3C
330
18
100
AcDbEntity
  8
01
100
AcDbCircle
 10
4376.667378669617
 20
1332.185154360874
 30
0.0000000000563712
 40
0.5
100
AcDbArc
 50
90.0
 51
180.0
  0
LINE
  5
FE3D
330
18
100
AcDbEntity
  8
01
100
AcDbLine
 10
4412.723290391283
 20
1308.232555603341
 30
0.0000000000563712
 11
4284.583527492725
 21
1308.232555603348
 31
0.0000000000563712
  0
LINE
  5
FE3E
330
18
100
AcDbEntity
  8
01
100
AcDbLine
 10
4412.671320012008
 20
1304.13775311837
 30
0.0000000000563712
 11
4284.583527492725
 21
1304.13775311837
 31
0.0000000000563712
  0
ARC
  5
FE3F
330
18
100
AcDbEntity
  8
01
100
AcDbCircle
 10
4392.632572858145
 20
1316.685154360874
 30
0.0000000000563712
 40
1.5
100
AcDbArc
 50
90.0
 51
178.7426249191404
  0
ARC
  5
FE40
330
18
100
AcDbEntity
  8
01
100
AcDbCircle
 10
4871.017355224811
 20
1306.185154360859
 30
0.0000000000563712
 40
480.0
100
AcDbArc
 50
180.9229111486584
 51
181.2573750809899
  0
ARC
  5
FE41
330
18
100
AcDbEntity
  8
01
100
AcDbCircle
 10
4392.632572858145
 20
1295.685154360866
 30
0.0000000000563712
 40
1.5
100
AcDbArc
 50
181.2573750808596
 51
270.0
  0
ARC
  5
FE42
330
18
100
AcDbEntity
  8
01
100
AcDbCircle
 10
4412.702184481126
 20
1295.685154360866
 30
0.0000000000563712
 40
1.5
100
AcDbArc
 50
269.9999999997394
 51
358.7426249191403
  0
ARC
  5
FE43
330
18
100
AcDbEntity
  8
01
100
AcDbCircle
 10
4412.702184481126
 20
1316.685154360874
 30
0.0000000000563712
 40
1.5
100
AcDbArc
 50
1.257375080859653
 51
90.00000000026056
  0
ARC
  5
FE44
330
18
100
AcDbEntity
  8
01
100
AcDbCircle
 10
3934.31740211446
 20
1306.185154360859
 30
0.0000000000563712
 40
480.0
100
AcDbArc
 50
358.7426249190101
 51
1.257375080989897
  0
LINE
  5
FE45
330
18
100
AcDbEntity
  8
01
100
AcDbLine
 10
4284.56496698376
 20
1298.453726348018
 30
0.0000000000563712
 11
4391.079624867127
 21
1298.453726348003
 31
0.0000000000563712
  0
LINE
  5
FE46
330
18
100
AcDbEntity
  8
01
100
AcDbLine
 10
4284.56496698376
 20
1313.916582373686
 30
0.0000000000563712
 11
4391.079624867127
 21
1313.916582373708
 31
0.0000000000563712
  0
LINE
  5
FE47
330
18
100
AcDbEntity
  8
01
100
AcDbLine
 10
4412.702184481119
 20
1318.185154360874
 30
0.0000000000563712
 11
4392.632572858145
 21
1318.185154360866
 31
0.0000000000563712
  0
LINE
  5
FE48
330
18
100
AcDbEntity
  8
01
100
AcDbLine
 10
4392.632572858145
 20
1294.185154360859
 30
0.0000000000563712
 11
4412.702184481119
 21
1294.185154360859
 31
0.0000000000563712
  0
ARC
  5
FE49
330
18
100
AcDbEntity
  8
01
100
AcDbCircle
 10
4871.017355224811
 20
1306.185154360859
 30
0.0000000000563712
 40
480.0
100
AcDbArc
 50
178.7426249190101
 51
179.0770888513416
  0
LINE
  5
FE4A
330
18
100
AcDbEntity
  8
01
100
AcDbLine
 10
4414.167378669636
 20
1307.184297105096
 30
0.0000000000563712
 11
4414.167378669636
 21
1305.186011616637
 31
0.0000000000563712
  0
LINE
  5
FE4B
330
18
100
AcDbEntity
  8
01
100
AcDbLine
 10
4283.117402114442
 20
1307.184297105096
 30
0.0000000000563712
 11
4283.117402114442
 21
1305.18601161655
 31
0.0000000000563712
  0
ELLIPSE
  5
FE4C
330
18
100
AcDbEntity
  8
01
100
AcDbEllipse
 10
4284.583527492725
 20
1307.184297105096
 30
0.0000000000563712
 11
-1.466125378283323
 21
0.0
 31
0.0
210
0.0
220
0.0
230
-1.0
 40
0.7149855761178042
 41
0.0
 42
1.570796326794897
  0
ELLIPSE
  5
FE4D
330
18
100
AcDbEntity
  8
01
100
AcDbEllipse
 10
4284.583527492725
 20
1305.18601161655
 30
0.0000000000563712
 11
-1.466125378283323
 21
0.0
 31
0.0
210
0.0
220
0.0
230
1.0
 40
0.7149855761178042
 41
0.0
 42
1.570796326794897
  0
ELLIPSE
  5
FE4E
330
18
100
AcDbEntity
  8
01
100
AcDbEllipse
 10
4412.671320012008
 20
1307.184297105096
 30
0.0000000000563712
 11
1.496058657627145
 21
0.0
 31
0.0
210
0.0
220
0.0
230
-1.0
 40
0.7006800788868608
 41
4.71238898038469
 42
6.283185307179586
  0
ELLIPSE
  5
FE4F
330
18
100
AcDbEntity
  8
01
100
AcDbEllipse
 10
4412.671320012008
 20
1305.186011616637
 30
0.0000000000563712
 11
1.496058657627145
 21
0.0
 31
0.0
210
0.0
220
0.0
230
1.0
 40
0.7006800788868608
 41
4.71238898038469
 42
6.283185307179586
  0
ARC
  5
FE50
330
18
100
AcDbEntity
  8
01
100
AcDbCircle
 10
4284.56496698376
 20
1299.953726348018
 30
0.0000000000563712
 40
1.5
100
AcDbArc
 50
181.8265729376885
 51
270.0
  0
ARC
  5
FE51
330
18
100
AcDbEntity
  8
01
100
AcDbCircle
 10
4284.56496698376
 20
1312.416582373715
 30
0.0000000000563712
 40
1.5
100
AcDbArc
 50
90.0
 51
178.1734270623115
  0
ARC
  5
FE52
330
18
100
AcDbEntity
  8
01
100
AcDbCircle
 10
4479.965630505971
 20
1306.185154360866
 30
0.0000000000563712
 40
197.0
100
AcDbArc
 50
178.1734270624165
 51
181.8265729375835
  0
LINE
  5
FE53
330
18
100
AcDbEntity
  8
1CENTER
100
AcDbLine
 10
4726.583471226188
 20
1610.686464638668
 30
0.0000000001127424
 11
4734.717143588035
 21
1610.686472671918
 31
0.0000000001127424
  0
ARC
  5
FE54
330
18
100
AcDbEntity
  8
01
100
AcDbCircle
 10
4860.750997167035
 20
1660.707434128286
 30
0.0000000001127424
 40
1.5
100
AcDbArc
 50
1.227006110804337
 51
90.0
  0
ARC
  5
FE55
330
18
100
AcDbEntity
  8
01
100
AcDbCircle
 10
4860.750997167021
 20
1638.687196151287
 30
0.0000000001127424
 40
1.5
100
AcDbArc
 50
270.0
 51
358.7729938889352
  0
ARC
  5
FE56
330
18
100
AcDbEntity
  8
01
100
AcDbCircle
 10
4732.663204647752
 20
1660.707434128286
 30
0.0000000001127424
 40
1.5
100
AcDbArc
 50
90.0
 51
179.8492538504684
  0
ARC
  5
FE57
330
18
100
AcDbEntity
  8
01
100
AcDbCircle
 10
4757.74219549808
 20
1633.687196151273
 30
0.0000000001127424
 40
3.5
100
AcDbArc
 50
90.0
 51
180.1507461494535
  0
LINE
  5
FE58
330
18
100
AcDbEntity
  8
01
100
AcDbLine
 10
4754.317169434949
 20
1605.186472671921
 30
0.0000000001127424
 11
4754.223845787134
 21
1640.656956193786
 31
0.0000000001127424
  0
LINE
  5
FE59
330
18
100
AcDbEntity
  8
01
100
AcDbLine
 10
4731.017122545307
 20
1605.186472671921
 30
0.0000000001127424
 11
4731.163209839438
 21
1660.711380648695
 31
0.0000000001127424
  0
ARC
  5
FE5A
330
18
100
AcDbEntity
  8
01
100
AcDbCircle
 10
4346.70554548624
 20
1649.697315140154
 30
0.0000000001127424
 40
515.6633486675555
100
AcDbArc
 50
358.7729938890394
 51
1.227006110856435
  0
LINE
  5
FE5B
330
18
100
AcDbEntity
  8
01
100
AcDbLine
 10
4860.750997167035
 20
1662.207434128278
 30
0.0000000001127424
 11
4732.663204647752
 21
1662.207434128286
 31
0.0000000001127424
  0
LINE
  5
FE5C
330
18
100
AcDbEntity
  8
01
100
AcDbLine
 10
4860.750997167021
 20
1637.18719615128
 30
0.0000000001127424
 11
4757.74219549808
 21
1637.187196151273
 31
0.0000000001127424
  0
LINE
  5
FE5D
330
18
100
AcDbEntity
  8
01
100
AcDbLine
 10
4754.317169434949
 20
1605.186472671921
 30
0.0000000001127424
 11
4731.017122545307
 21
1605.186472671921
 31
0.0000000001127424
  0
TEXT
  5
1168D
330
18
100
AcDbEntity
  8
01
  6
CONTINUOUS
100
AcDbText
 10
4653.670307083146
 20
1518.76848769318
 30
0.0000000000563712
 40
4.55
  1
材質：亜鉛ダイキャスト
100
AcDbText
  0
TEXT
  5
1168E
330
18
100
AcDbEntity
  8
01
  6
CONTINUOUS
100
AcDbText
 10
4663.98364041648
 20
1511.185154359847
 30
0.0000000000563712
 40
4.55
  1
仕上げ：各種メッキ
100
AcDbText
  0
LINE
  5
1168F
330
18
100
AcDbEntity
  8
01
100
AcDbLine
 10
4680.667145990128
 20
1334.185153662744
 30
0.0
 11
4680.667145990128
 21
1436.906646445563
 31
0.0
1001
ACAD
1000
DSTYLE
1002
{
1070
    40
1040
1.3
1070
    45
1040
0.5
1002
}
  0
LINE
  5
11690
330
18
100
AcDbEntity
  8
01
100
AcDbLine
 10
4691.667145990128
 20
1392.056471712033
 30
0.0
 11
4691.667145990128
 21
1436.906646445563
 31
0.0
1001
ACAD
1000
DSTYLE
1002
{
1070
    40
1040
1.3
1070
    45
1040
0.5
1002
}
  0
LINE
  5
11691
330
18
100
AcDbEntity
  8
01
100
AcDbLine
 10
4683.267145990128
 20
1435.606646445563
 30
0.0
 11
4689.067145990128
 21
1435.606646445563
 31
0.0
1001
ACAD
1000
DSTYLE
1002
{
1070
    40
1040
1.3
1070
    45
1040
0.5
1002
}
  0
LINE
  5
11695
330
18
100
AcDbEntity
  8
01
100
AcDbLine
 10
4760.667145990128
 20
1364.177781853267
 30
0.0
 11
4788.967145990128
 21
1364.177781853267
 31
0.0
1001
ACAD
1000
DSTYLE
1002
{
1070
    40
1040
1.3
1070
    45
1040
0.5
1002
}
  0
LINE
  5
11696
330
18
100
AcDbEntity
  8
01
100
AcDbLine
 10
4760.667145990128
 20
1290.185154360875
 30
0.0
 11
4788.967145990128
 21
1290.185154360875
 31
0.0
1001
ACAD
1000
DSTYLE
1002
{
1070
    40
1040
1.3
1070
    45
1040
0.5
1002
}
  0
LINE
  5
11697
330
18
100
AcDbEntity
  8
01
100
AcDbLine
 10
4787.667145990128
 20
1361.577781853267
 30
0.0
 11
4787.667145990128
 21
1292.785154360875
 31
0.0
1001
ACAD
1000
DSTYLE
1002
{
1070
    40
1040
1.3
1070
    45
1040
0.5
1002
}
  0
LINE
  5
1169B
330
18
100
AcDbEntity
  8
01
100
AcDbLine
 10
4760.667145990128
 20
1364.177781853267
 30
0.0
 11
4760.667145990128
 21
1446.986513913612
 31
0.0
1001
ACAD
1000
DSTYLE
1002
{
1070
    40
1040
1.3
1070
    45
1040
0.5
1002
}
  0
LINE
  5
1169C
330
18
100
AcDbEntity
  8
01
100
AcDbLine
 10
4691.667145990128
 20
1392.056471712033
 30
0.0
 11
4691.667145990128
 21
1446.986513913612
 31
0.0
1001
ACAD
1000
DSTYLE
1002
{
1070
    40
1040
1.3
1070
    45
1040
0.5
1002
}
  0
LINE
  5
1169D
330
18
100
AcDbEntity
  8
01
100
AcDbLine
 10
4758.067145990128
 20
1445.686513913612
 30
0.0
 11
4694.267145990128
 21
1445.686513913612
 31
0.0
1001
ACAD
1000
DSTYLE
1002
{
1070
    40
1040
1.3
1070
    45
1040
0.5
1002
}
  0
LINE
  5
116A1
330
18
100
AcDbEntity
  8
01
100
AcDbLine
 10
4691.667145990128
 20
1392.056471712033
 30
0.0
 11
4691.667145990128
 21
1436.906646445563
 31
0.0
1001
ACAD
1000
DSTYLE
1002
{
1070
    40
1040
1.3
1070
    45
1040
0.5
1002
}
  0
LINE
  5
116A2
330
18
100
AcDbEntity
  8
01
100
AcDbLine
 10
4742.667145990128
 20
1356.185154360875
 30
0.0
 11
4742.667145990128
 21
1436.906646445563
 31
0.0
1001
ACAD
1000
DSTYLE
1002
{
1070
    40
1040
1.3
1070
    45
1040
0.5
1002
}
  0
LINE
  5
116A3
330
18
100
AcDbEntity
  8
01
100
AcDbLine
 10
4694.267145990128
 20
1435.606646445563
 30
0.0
 11
4740.067145990128
 21
1435.606646445563
 31
0.0
1001
ACAD
1000
DSTYLE
1002
{
1070
    40
1040
1.3
1070
    45
1040
0.5
1002
}
  0
LINE
  5
116A7
330
18
100
AcDbEntity
  8
01
100
AcDbLine
 10
4578.542287737779
 20
1384.185154360875
 30
0.0
 11
4658.828418905986
 21
1384.185154360874
 31
0.0
1001
ACAD
1000
DSTYLE
1002
{
1070
    40
1040
1.3
1070
    45
1040
0.5
1002
}
  0
LINE
  5
116A8
330
18
100
AcDbEntity
  8
01
100
AcDbLine
 10
4578.542287737779
 20
1270.185154360875
 30
0.0
 11
4658.828418905986
 21
1270.185154360874
 31
0.0
1001
ACAD
1000
DSTYLE
1002
{
1070
    40
1040
1.3
1070
    45
1040
0.5
1002
}
  0
LINE
  5
116A9
330
18
100
AcDbEntity
  8
01
100
AcDbLine
 10
4657.528418905986
 20
1381.585154360874
 30
0.0
 11
4657.528418905986
 21
1272.785154360874
 31
0.0
1001
ACAD
1000
DSTYLE
1002
{
1070
    40
1040
1.3
1070
    45
1040
0.5
1002
}
  0
LINE
  5
116AD
330
18
100
AcDbEntity
  8
01
100
AcDbLine
 10
4579.140348134542
 20
1392.084709216459
 30
0.0
 11
4668.192753072211
 21
1392.084709216458
 31
0.0
1001
ACAD
1000
DSTYLE
1002
{
1070
    40
1040
1.3
1070
    45
1040
0.5
1002
}
  0
LINE
  5
116AE
330
18
100
AcDbEntity
  8
01
100
AcDbLine
 10
4579.067262329872
 20
1262.285154360875
 30
0.0
 11
4668.192753072211
 21
1262.285154360875
 31
0.0
1001
ACAD
1000
DSTYLE
1002
{
1070
    40
1040
1.3
1070
    45
1040
0.5
1002
}
  0
LINE
  5
116AF
330
18
100
AcDbEntity
  8
01
100
AcDbLine
 10
4666.89275307221
 20
1389.484709216458
 30
0.0
 11
4666.89275307221
 21
1264.885154360875
 31
0.0
1001
ACAD
1000
DSTYLE
1002
{
1070
    40
1040
1.3
1070
    45
1040
0.5
1002
}
  0
LINE
  5
116B3
330
18
100
AcDbEntity
  8
01
100
AcDbLine
 10
4560.167262329873
 20
1386.185154360875
 30
0.0
 11
4560.167262329873
 21
1436.906646445563
 31
0.0
1001
ACAD
1000
DSTYLE
1002
{
1070
    40
1040
1.3
1070
    45
1040
0.5
1002
}
  0
LINE
  5
116B4
330
18
100
AcDbEntity
  8
01
100
AcDbLine
 10
4585.167262329873
 20
1386.185154360875
 30
0.0
 11
4585.167262329873
 21
1436.906646445563
 31
0.0
1001
ACAD
1000
DSTYLE
1002
{
1070
    40
1040
1.3
1070
    45
1040
0.5
1002
}
  0
LINE
  5
116B5
330
18
100
AcDbEntity
  8
01
100
AcDbLine
 10
4562.767262329873
 20
1435.606646445563
 30
0.0
 11
4582.567262329872
 21
1435.606646445563
 31
0.0
1001
ACAD
1000
DSTYLE
1002
{
1070
    40
1040
1.3
1070
    45
1040
0.5
1002
}
  0
LINE
  5
116B9
330
18
100
AcDbEntity
  8
01
100
AcDbLine
 10
4539.46630043555
 20
1306.935154360875
 30
0.0
 11
4538.167262329873
 21
1307.685154360875
 31
0.0
  0
LINE
  5
116BA
330
18
100
AcDbEntity
  8
01
100
AcDbLine
 10
4538.167262329873
 20
1307.685154360875
 30
0.0
 11
4536.868224224196
 21
1306.935154360875
 31
0.0
  0
LINE
  5
116BB
330
18
100
AcDbEntity
  8
01
100
AcDbLine
 10
4536.868224224196
 20
1306.935154360875
 30
0.0
 11
4536.868224224196
 21
1305.435154360875
 31
0.0
  0
LINE
  5
116BC
330
18
100
AcDbEntity
  8
01
100
AcDbLine
 10
4536.868224224196
 20
1305.435154360875
 30
0.0
 11
4538.167262329873
 21
1304.685154360875
 31
0.0
  0
LINE
  5
116BD
330
18
100
AcDbEntity
  8
01
100
AcDbLine
 10
4538.167262329873
 20
1304.685154360875
 30
0.0
 11
4539.46630043555
 21
1305.435154360875
 31
0.0
  0
LINE
  5
116BE
330
18
100
AcDbEntity
  8
01
100
AcDbLine
 10
4539.46630043555
 20
1305.435154360875
 30
0.0
 11
4539.46630043555
 21
1306.935154360875
 31
0.0
  0
CIRCLE
  5
116BF
330
18
100
AcDbEntity
  8
01
100
AcDbCircle
 10
4607.167145990128
 20
1306.185154360875
 30
0.0000000000563712
 40
3.0
  0
LINE
  5
116C0
330
18
100
AcDbEntity
  8
01
100
AcDbLine
 10
4716.667145990132
 20
1332.685154360874
 30
0.0
 11
4706.367145990128
 21
1332.685154360874
 31
0.0
1001
ACAD
1000
DSTYLE
1002
{
1070
     3
1000
□<>
1070
    40
1040
1.3
1070
    45
1040
0.5
1002
}
  0
LINE
  5
116C1
330
18
100
AcDbEntity
  8
01
100
AcDbLine
 10
4716.667145990132
 20
1279.685154360874
 30
0.0
 11
4706.367145990128
 21
1279.685154360874
 31
0.0
1001
ACAD
1000
DSTYLE
1002
{
1070
     3
1000
□<>
1070
    40
1040
1.3
1070
    45
1040
0.5
1002
}
  0
LINE
  5
116C2
330
18
100
AcDbEntity
  8
01
100
AcDbLine
 10
4707.667145990128
 20
1330.085154360874
 30
0.0
 11
4707.667145990128
 21
1282.285154360874
 31
0.0
1001
ACAD
1000
DSTYLE
1002
{
1070
     3
1000
□<>
1070
    40
1040
1.3
1070
    45
1040
0.5
1002
}
  0
LINE
  5
116C6
330
18
100
AcDbEntity
  8
01
  6
BYBLOCK
100
AcDbLine
 10
4683.267145990128
 20
1434.909978551563
 30
0.0
 11
4680.667145990128
 21
1435.606646445563
 31
0.0
  0
LINE
  5
116C7
330
18
100
AcDbEntity
  8
01
  6
BYBLOCK
100
AcDbLine
 10
4680.667145990128
 20
1435.606646445563
 30
0.0
 11
4683.267145990128
 21
1436.303314339563
 31
0.0
  0
LINE
  5
116C8
330
18
100
AcDbEntity
  8
01
  6
BYBLOCK
100
AcDbLine
 10
4680.667145990128
 20
1435.606646445563
 30
0.0
 11
4683.267145990128
 21
1435.606646445563
 31
0.0
  0
LINE
  5
116C9
330
18
100
AcDbEntity
  8
01
  6
BYBLOCK
100
AcDbLine
 10
4689.067145990128
 20
1436.303314339563
 30
0.0
 11
4691.667145990128
 21
1435.606646445563
 31
0.0
  0
LINE
  5
116CA
330
18
100
AcDbEntity
  8
01
  6
BYBLOCK
100
AcDbLine
 10
4691.667145990128
 20
1435.606646445563
 30
0.0
 11
4689.067145990128
 21
1434.909978551563
 31
0.0
  0
LINE
  5
116CB
330
18
100
AcDbEntity
  8
01
  6
BYBLOCK
100
AcDbLine
 10
4691.667145990128
 20
1435.606646445563
 30
0.0
 11
4689.067145990128
 21
1435.606646445563
 31
0.0
  0
TEXT
  5
116CC
330
18
100
AcDbEntity
  8
01
  6
CONTINUOUS
100
AcDbText
 10
4683.892145990128
 20
1436.516646445564
 30
0.0
 40
4.55
  1
11
100
AcDbText
1001
ACAD
1000
DSTYLE
1002
{
1070
    40
1040
1.3
1070
    45
1040
0.5
1002
}
  0
LINE
  5
116CD
330
18
100
AcDbEntity
  8
01
  6
BYBLOCK
100
AcDbLine
 10
4786.970478096128
 20
1361.577781853267
 30
0.0
 11
4787.667145990128
 21
1364.177781853267
 31
0.0
  0
LINE
  5
116CE
330
18
100
AcDbEntity
  8
01
  6
BYBLOCK
100
AcDbLine
 10
4787.667145990128
 20
1364.177781853267
 30
0.0
 11
4788.363813884128
 21
1361.577781853267
 31
0.0
  0
LINE
  5
116CF
330
18
100
AcDbEntity
  8
01
  6
BYBLOCK
100
AcDbLine
 10
4787.667145990128
 20
1364.177781853267
 30
0.0
 11
4787.667145990128
 21
1361.577781853267
 31
0.0
  0
LINE
  5
116D0
330
18
100
AcDbEntity
  8
01
  6
BYBLOCK
100
AcDbLine
 10
4788.363813884128
 20
1292.785154360875
 30
0.0
 11
4787.667145990128
 21
1290.185154360875
 31
0.0
  0
LINE
  5
116D1
330
18
100
AcDbEntity
  8
01
  6
BYBLOCK
100
AcDbLine
 10
4787.667145990128
 20
1290.185154360875
 30
0.0
 11
4786.970478096128
 21
1292.785154360875
 31
0.0
  0
LINE
  5
116D2
330
18
100
AcDbEntity
  8
01
  6
BYBLOCK
100
AcDbLine
 10
4787.667145990128
 20
1290.185154360875
 30
0.0
 11
4787.667145990128
 21
1292.785154360875
 31
0.0
  0
TEXT
  5
116D3
330
18
100
AcDbEntity
  8
01
  6
CONTINUOUS
100
AcDbText
 10
4786.757145990127
 20
1345.156498446894
 30
0.0
 40
4.55
  1
74
 50
90.0
100
AcDbText
1001
ACAD
1000
DSTYLE
1002
{
1070
    40
1040
1.3
1070
    45
1040
0.5
1002
}
  0
LINE
  5
116D4
330
18
100
AcDbEntity
  8
01
  6
BYBLOCK
100
AcDbLine
 10
4758.067145990128
 20
1446.383181807612
 30
0.0
 11
4760.667145990128
 21
1445.686513913612
 31
0.0
  0
LINE
  5
116D5
330
18
100
AcDbEntity
  8
01
  6
BYBLOCK
100
AcDbLine
 10
4760.667145990128
 20
1445.686513913612
 30
0.0
 11
4758.067145990128
 21
1444.989846019612
 31
0.0
  0
LINE
  5
116D6
330
18
100
AcDbEntity
  8
01
  6
BYBLOCK
100
AcDbLine
 10
4760.667145990128
 20
1445.686513913612
 30
0.0
 11
4758.067145990128
 21
1445.686513913612
 31
0.0
  0
LINE
  5
116D7
330
18
100
AcDbEntity
  8
01
  6
BYBLOCK
100
AcDbLine
 10
4694.267145990128
 20
1444.989846019612
 30
0.0
 11
4691.667145990128
 21
1445.686513913612
 31
0.0
  0
LINE
  5
116D8
330
18
100
AcDbEntity
  8
01
  6
BYBLOCK
100
AcDbLine
 10
4691.667145990128
 20
1445.686513913612
 30
0.0
 11
4694.267145990128
 21
1446.383181807612
 31
0.0
  0
LINE
  5
116D9
330
18
100
AcDbEntity
  8
01
  6
BYBLOCK
100
AcDbLine
 10
4691.667145990128
 20
1445.686513913612
 30
0.0
 11
4694.267145990128
 21
1445.686513913612
 31
0.0
  0
TEXT
  5
116DA
330
18
100
AcDbEntity
  8
01
  6
CONTINUOUS
100
AcDbText
 10
4722.35862747161
 20
1446.596513913612
 30
0.0
 40
4.55
  1
69
100
AcDbText
1001
ACAD
1000
DSTYLE
1002
{
1070
    40
1040
1.3
1070
    45
1040
0.5
1002
}
  0
LINE
  5
116DB
330
18
100
AcDbEntity
  8
01
  6
BYBLOCK
100
AcDbLine
 10
4694.267145990128
 20
1434.909978551563
 30
0.0
 11
4691.667145990128
 21
1435.606646445563
 31
0.0
  0
LINE
  5
116DC
330
18
100
AcDbEntity
  8
01
  6
BYBLOCK
100
AcDbLine
 10
4691.667145990128
 20
1435.606646445563
 30
0.0
 11
4694.267145990128
 21
1436.303314339563
 31
0.0
  0
LINE
  5
116DD
330
18
100
AcDbEntity
  8
01
  6
BYBLOCK
100
AcDbLine
 10
4691.667145990128
 20
1435.606646445563
 30
0.0
 11
4694.267145990128
 21
1435.606646445563
 31
0.0
  0
LINE
  5
116DE
330
18
100
AcDbEntity
  8
01
  6
BYBLOCK
100
AcDbLine
 10
4740.067145990128
 20
1436.303314339563
 30
0.0
 11
4742.667145990128
 21
1435.606646445563
 31
0.0
  0
LINE
  5
116DF
330
18
100
AcDbEntity
  8
01
  6
BYBLOCK
100
AcDbLine
 10
4742.667145990128
 20
1435.606646445563
 30
0.0
 11
4740.067145990128
 21
1434.909978551563
 31
0.0
  0
LINE
  5
116E0
330
18
100
AcDbEntity
  8
01
  6
BYBLOCK
100
AcDbLine
 10
4742.667145990128
 20
1435.606646445563
 30
0.0
 11
4740.067145990128
 21
1435.606646445563
 31
0.0
  0
TEXT
  5
116E1
330
18
100
AcDbEntity
  8
01
  6
CONTINUOUS
100
AcDbText
 10
4714.118014045684
 20
1436.516646445564
 30
0.0
 40
4.55
  1
51
100
AcDbText
1001
ACAD
1000
DSTYLE
1002
{
1070
    40
1040
1.3
1070
    45
1040
0.5
1002
}
  0
LINE
  5
116E2
330
18
100
AcDbEntity
  8
01
  6
BYBLOCK
100
AcDbLine
 10
4656.831751011986
 20
1381.585154360874
 30
0.0
 11
4657.528418905986
 21
1384.185154360874
 31
0.0
  0
LINE
  5
116E3
330
18
100
AcDbEntity
  8
01
  6
BYBLOCK
100
AcDbLine
 10
4657.528418905986
 20
1384.185154360874
 30
0.0
 11
4658.225086799986
 21
1381.585154360874
 31
0.0
  0
LINE
  5
116E4
330
18
100
AcDbEntity
  8
01
  6
BYBLOCK
100
AcDbLine
 10
4657.528418905986
 20
1384.185154360874
 30
0.0
 11
4657.528418905986
 21
1381.585154360874
 31
0.0
  0
LINE
  5
116E5
330
18
100
AcDbEntity
  8
01
  6
BYBLOCK
100
AcDbLine
 10
4658.225086799986
 20
1272.785154360874
 30
0.0
 11
4657.528418905986
 21
1270.185154360874
 31
0.0
  0
LINE
  5
116E6
330
18
100
AcDbEntity
  8
01
  6
BYBLOCK
100
AcDbLine
 10
4657.528418905986
 20
1270.185154360874
 30
0.0
 11
4656.831751011986
 21
1272.785154360874
 31
0.0
  0
LINE
  5
116E7
330
18
100
AcDbEntity
  8
01
  6
BYBLOCK
100
AcDbLine
 10
4657.528418905986
 20
1270.185154360874
 30
0.0
 11
4657.528418905986
 21
1272.785154360874
 31
0.0
  0
TEXT
  5
116E8
330
18
100
AcDbEntity
  8
01
  6
CONTINUOUS
100
AcDbText
 10
4656.618418905986
 20
1351.768176708796
 30
0.0
 40
4.55
  1
114
 50
90.0
100
AcDbText
1001
ACAD
1000
DSTYLE
1002
{
1070
    40
1040
1.3
1070
    45
1040
0.5
1002
}
  0
LINE
  5
116E9
330
18
100
AcDbEntity
  8
01
  6
BYBLOCK
100
AcDbLine
 10
4666.196085178211
 20
1389.484709216458
 30
0.0
 11
4666.89275307221
 21
1392.084709216458
 31
0.0
  0
LINE
  5
116EA
330
18
100
AcDbEntity
  8
01
  6
BYBLOCK
100
AcDbLine
 10
4666.89275307221
 20
1392.084709216458
 30
0.0
 11
4667.58942096621
 21
1389.484709216458
 31
0.0
  0
LINE
  5
116EB
330
18
100
AcDbEntity
  8
01
  6
BYBLOCK
100
AcDbLine
 10
4666.89275307221
 20
1392.084709216458
 30
0.0
 11
4666.89275307221
 21
1389.484709216458
 31
0.0
  0
LINE
  5
116EC
330
18
100
AcDbEntity
  8
01
  6
BYBLOCK
100
AcDbLine
 10
4667.58942096621
 20
1264.885154360875
 30
0.0
 11
4666.89275307221
 21
1262.285154360875
 31
0.0
  0
LINE
  5
116ED
330
18
100
AcDbEntity
  8
01
  6
BYBLOCK
100
AcDbLine
 10
4666.89275307221
 20
1262.285154360875
 30
0.0
 11
4666.196085178211
 21
1264.885154360875
 31
0.0
  0
LINE
  5
116EE
330
18
100
AcDbEntity
  8
01
  6
BYBLOCK
100
AcDbLine
 10
4666.89275307221
 20
1262.285154360875
 30
0.0
 11
4666.89275307221
 21
1264.885154360875
 31
0.0
  0
TEXT
  5
116EF
330
18
100
AcDbEntity
  8
01
  6
CONTINUOUS
100
AcDbText
 10
4665.98275307221
 20
1350.983612705989
 30
0.0
 40
4.55
  1
130
 50
90.0
100
AcDbText
1001
ACAD
1000
DSTYLE
1002
{
1070
    40
1040
1.3
1070
    45
1040
0.5
1002
}
  0
LINE
  5
116F0
330
18
100
AcDbEntity
  8
01
  6
BYBLOCK
100
AcDbLine
 10
4562.767262329873
 20
1434.909978551563
 30
0.0
 11
4560.167262329873
 21
1435.606646445563
 31
0.0
  0
LINE
  5
116F1
330
18
100
AcDbEntity
  8
01
  6
BYBLOCK
100
AcDbLine
 10
4560.167262329873
 20
1435.606646445563
 30
0.0
 11
4562.767262329873
 21
1436.303314339563
 31
0.0
  0
LINE
  5
116F2
330
18
100
AcDbEntity
  8
01
  6
BYBLOCK
100
AcDbLine
 10
4560.167262329873
 20
1435.606646445563
 30
0.0
 11
4562.767262329873
 21
1435.606646445563
 31
0.0
  0
LINE
  5
116F3
330
18
100
AcDbEntity
  8
01
  6
BYBLOCK
100
AcDbLine
 10
4582.567262329872
 20
1436.303314339563
 30
0.0
 11
4585.167262329873
 21
1435.606646445563
 31
0.0
  0
LINE
  5
116F4
330
18
100
AcDbEntity
  8
01
  6
BYBLOCK
100
AcDbLine
 10
4585.167262329873
 20
1435.606646445563
 30
0.0
 11
4582.567262329872
 21
1434.909978551563
 31
0.0
  0
LINE
  5
116F5
330
18
100
AcDbEntity
  8
01
  6
BYBLOCK
100
AcDbLine
 10
4585.167262329873
 20
1435.606646445563
 30
0.0
 11
4582.567262329872
 21
1435.606646445563
 31
0.0
  0
TEXT
  5
116F6
330
18
100
AcDbEntity
  8
01
  6
CONTINUOUS
100
AcDbText
 10
4568.875595663206
 20
1436.516646445564
 30
0.0
 40
4.55
  1
25
100
AcDbText
1001
ACAD
1000
DSTYLE
1002
{
1070
    40
1040
1.3
1070
    45
1040
0.5
1002
}
  0
LINE
  5
116F7
330
18
100
AcDbEntity
  8
01
  6
BYBLOCK
100
AcDbLine
 10
4706.970478096128
 20
1330.085154360874
 30
0.0
 11
4707.667145990128
 21
1332.685154360874
 31
0.0
  0
LINE
  5
116F8
330
18
100
AcDbEntity
  8
01
  6
BYBLOCK
100
AcDbLine
 10
4707.667145990128
 20
1332.685154360874
 30
0.0
 11
4708.363813884128
 21
1330.085154360874
 31
0.0
  0
LINE
  5
116F9
330
18
100
AcDbEntity
  8
01
  6
BYBLOCK
100
AcDbLine
 10
4707.667145990128
 20
1332.685154360874
 30
0.0
 11
4707.667145990128
 21
1330.085154360874
 31
0.0
  0
LINE
  5
116FA
330
18
100
AcDbEntity
  8
01
  6
BYBLOCK
100
AcDbLine
 10
4708.363813884128
 20
1282.285154360874
 30
0.0
 11
4707.667145990128
 21
1279.685154360874
 31
0.0
  0
LINE
  5
116FB
330
18
100
AcDbEntity
  8
01
  6
BYBLOCK
100
AcDbLine
 10
4707.667145990128
 20
1279.685154360874
 30
0.0
 11
4706.970478096128
 21
1282.285154360874
 31
0.0
  0
LINE
  5
116FC
330
18
100
AcDbEntity
  8
01
  6
BYBLOCK
100
AcDbLine
 10
4707.667145990128
 20
1279.685154360874
 30
0.0
 11
4707.667145990128
 21
1282.285154360874
 31
0.0
  0
TEXT
  5
116FD
330
18
100
AcDbEntity
  8
01
  6
CONTINUOUS
100
AcDbText
 10
4706.757145990128
 20
1298.156276454277
 30
0.0
 40
4.55
  1
□53
 50
90.0
100
AcDbText
1001
ACAD
1000
DSTYLE
1002
{
1070
     3
1000
□<>
1070
    40
1040
1.3
1070
    45
1040
0.5
1002
}
  0
SOLID
  5
116FE
330
18
100
AcDbEntity
  8
1DIM
100
AcDbTrace
 10
4740.036995344874
 20
1530.134397305932
 30
0.0000000000563712
 11
4742.407747230189
 21
1531.286488133972
 31
0.0000000000563712
 12
4740.538795174796
 22
1529.42777998248
 32
0.0000000000563712
 13
4740.538795174796
 23
1529.42777998248
 33
0.0000000000563712
1001
ACAD
1000
DSTYLE
1002
{
1070
    40
1040
1.3
1070
    45
1040
0.5
1002
}
  0
LINE
  5
116FF
330
18
100
AcDbEntity
  8
1DIM
100
AcDbLine
 10
4740.287895259835
 20
1529.781088644206
 30
0.0000000000563712
 11
4712.820307083146
 21
1510.275154359847
 31
0.0000000000563712
1001
ACAD
1000
DSTYLE
1002
{
1070
    40
1040
1.3
1070
    45
1040
0.5
1002
}
  0
LINE
  5
11700
330
18
100
AcDbEntity
  8
1DIM
100
AcDbLine
 10
4759.068030172188
 20
1585.685154359847
 30
0.0
 11
4779.628420931901
 21
1585.685154359847
 31
0.0
1001
ACAD
1000
DSTYLE
1002
{
1070
    45
1040
0.5
1070
    40
1040
1.3
1002
}
  0
LINE
  5
11701
330
18
100
AcDbEntity
  8
1DIM
100
AcDbLine
 10
4760.668030172188
 20
1566.885154359847
 30
0.0
 11
4779.628420931901
 21
1566.885154359847
 31
0.0
1001
ACAD
1000
DSTYLE
1002
{
1070
    45
1040
0.5
1070
    40
1040
1.3
1002
}
  0
LINE
  5
11702
330
18
100
AcDbEntity
  8
1DIM
100
AcDbLine
 10
4778.328420931901
 20
1583.085154359847
 30
0.0
 11
4778.328420931901
 21
1569.485154359847
 31
0.0
1001
ACAD
1000
DSTYLE
1002
{
1070
    45
1040
0.5
1070
    40
1040
1.3
1002
}
  0
LINE
  5
11706
330
18
100
AcDbEntity
  8
1DIM
100
AcDbLine
 10
4731.017122545307
 20
1547.183836047773
 30
0.0000000001127424
 11
4731.017122545307
 21
1459.883836047773
 31
0.0000000001127424
1001
ACAD
1000
DSTYLE
1002
{
1070
    40
1040
1.3
1070
    45
1040
0.5
1002
}
  0
LINE
  5
11707
330
18
100
AcDbEntity
  8
1DIM
100
AcDbLine
 10
4862.368894153795
 20
1502.67299357954
 30
0.0000000001127424
 11
4862.368894153795
 21
1459.883836047773
 31
0.0000000001127424
1001
ACAD
1000
DSTYLE
1002
{
1070
    40
1040
1.3
1070
    45
1040
0.5
1002
}
  0
LINE
  5
11708
330
18
100
AcDbEntity
  8
1DIM
100
AcDbLine
 10
4733.617122545307
 20
1461.183836047773
 30
0.0000000001127424
 11
4859.768894153794
 21
1461.183836047773
 31
0.0000000001127424
1001
ACAD
1000
DSTYLE
1002
{
1070
    40
1040
1.3
1070
    45
1040
0.5
1002
}
  0
LINE
  5
1170C
330
18
100
AcDbEntity
  8
1DIM
100
AcDbLine
 10
4860.750997167021
 20
1515.183112568406
 30
0.0000000001127424
 11
4898.967145990128
 21
1515.183112568406
 31
0.0000000001127424
1001
ACAD
1000
DSTYLE
1002
{
1070
    40
1040
1.3
1070
    45
1040
0.5
1002
}
  0
LINE
  5
1170D
330
18
100
AcDbEntity
  8
1DIM
100
AcDbLine
 10
4845.422293987476
 20
1556.183836047773
 30
0.0000000001127424
 11
4898.967145990128
 21
1556.183836047773
 31
0.0000000001127424
1001
ACAD
1000
DSTYLE
1002
{
1070
    40
1040
1.3
1070
    45
1040
0.5
1002
}
  0
LINE
  5
1170E
330
18
100
AcDbEntity
  8
1DIM
100
AcDbLine
 10
4897.667145990128
 20
1517.783112568406
 30
0.0000000001127424
 11
4897.667145990128
 21
1553.583836047773
 31
0.0000000001127424
1001
ACAD
1000
DSTYLE
1002
{
1070
    40
1040
1.3
1070
    45
1040
0.5
1002
}
  0
LINE
  5
11712
330
18
100
AcDbEntity
  8
1DIM
100
AcDbLine
 10
4860.750997167035
 20
1490.162874591408
 30
0.0000000001127424
 11
4908.967145990128
 21
1490.162874591408
 31
0.0000000001127424
1001
ACAD
1000
DSTYLE
1002
{
1070
    40
1040
1.3
1070
    45
1040
0.5
1002
}
  0
LINE
  5
11713
330
18
100
AcDbEntity
  8
1DIM
100
AcDbLine
 10
4845.422293987476
 20
1556.183836047773
 30
0.0000000001127424
 11
4908.967145990128
 21
1556.183836047773
 31
0.0000000001127424
1001
ACAD
1000
DSTYLE
1002
{
1070
    40
1040
1.3
1070
    45
1040
0.5
1002
}
  0
LINE
  5
11714
330
18
100
AcDbEntity
  8
1DIM
100
AcDbLine
 10
4907.667145990128
 20
1492.762874591408
 30
0.0000000001127424
 11
4907.667145990128
 21
1553.583836047773
 31
0.0000000001127424
1001
ACAD
1000
DSTYLE
1002
{
1070
    40
1040
1.3
1070
    45
1040
0.5
1002
}
  0
LINE
  5
11718
330
18
100
AcDbEntity
  8
1DIM
100
AcDbLine
 10
4860.769557675985
 20
1298.453726348018
 30
0.0
 11
4898.967145990128
 21
1298.453726348018
 31
0.0
1001
ACAD
1000
DSTYLE
1002
{
1070
    40
1040
1.3
1070
    45
1040
0.5
1002
}
  0
LINE
  5
11719
330
18
100
AcDbEntity
  8
1DIM
100
AcDbLine
 10
4860.769557675985
 20
1313.916582373715
 30
0.0
 11
4898.967145990128
 21
1313.916582373715
 31
0.0
1001
ACAD
1000
DSTYLE
1002
{
1070
    40
1040
1.3
1070
    45
1040
0.5
1002
}
  0
LINE
  5
1171A
330
18
100
AcDbEntity
  8
1DIM
100
AcDbLine
 10
4897.667145990128
 20
1301.053726348018
 30
0.0
 11
4897.667145990128
 21
1311.316582373715
 31
0.0
1001
ACAD
1000
DSTYLE
1002
{
1070
    40
1040
1.3
1070
    45
1040
0.5
1002
}
  0
LINE
  5
1171E
330
18
100
AcDbEntity
  8
1DIM
100
AcDbLine
 10
4742.667145990128
 20
1534.683836047773
 30
0.0
 11
4742.667145990128
 21
1471.148005546678
 31
0.0
1001
ACAD
1000
DSTYLE
1002
{
1070
    40
1040
1.3
1070
   271
1070
     0
1002
}
  0
LINE
  5
1171F
330
18
100
AcDbEntity
  8
1DIM
100
AcDbLine
 10
4862.368894153795
 20
1502.67299357954
 30
0.0
 11
4862.368894153795
 21
1471.148005546678
 31
0.0
1001
ACAD
1000
DSTYLE
1002
{
1070
    40
1040
1.3
1070
   271
1070
     0
1002
}
  0
LINE
  5
11720
330
18
100
AcDbEntity
  8
1DIM
100
AcDbLine
 10
4745.267145990128
 20
1472.448005546678
 30
0.0
 11
4859.768894153794
 21
1472.448005546678
 31
0.0
1001
ACAD
1000
DSTYLE
1002
{
1070
    40
1040
1.3
1070
   271
1070
     0
1002
}
  0
LINE
  5
11724
330
18
100
AcDbEntity
  8
0
  6
BYBLOCK
100
AcDbLine
 10
4777.631753037901
 20
1583.085154359847
 30
0.0
 11
4778.328420931901
 21
1585.685154359847
 31
0.0
  0
LINE
  5
11725
330
18
100
AcDbEntity
  8
0
  6
BYBLOCK
100
AcDbLine
 10
4778.328420931901
 20
1585.685154359847
 30
0.0
 11
4779.025088825901
 21
1583.085154359847
 31
0.0
  0
LINE
  5
11726
330
18
100
AcDbEntity
  8
0
  6
BYBLOCK
100
AcDbLine
 10
4778.328420931901
 20
1585.685154359847
 30
0.0
 11
4778.328420931901
 21
1583.085154359847
 31
0.0
  0
LINE
  5
11727
330
18
100
AcDbEntity
  8
0
  6
BYBLOCK
100
AcDbLine
 10
4779.025088825901
 20
1569.485154359847
 30
0.0
 11
4778.328420931901
 21
1566.885154359847
 31
0.0
  0
LINE
  5
11728
330
18
100
AcDbEntity
  8
0
  6
BYBLOCK
100
AcDbLine
 10
4778.328420931901
 20
1566.885154359847
 30
0.0
 11
4777.631753037901
 21
1569.485154359847
 31
0.0
  0
LINE
  5
11729
330
18
100
AcDbEntity
  8
0
  6
BYBLOCK
100
AcDbLine
 10
4778.328420931901
 20
1566.885154359847
 30
0.0
 11
4778.328420931901
 21
1569.485154359847
 31
0.0
  0
TEXT
  5
1172A
330
18
100
AcDbEntity
  8
1DIM
  6
CONTINUOUS
100
AcDbText
 10
4777.4184209319
 20
1573.250767785772
 30
0.0
 40
4.55
  1
19
 50
90.0
100
AcDbText
1001
ACAD
1000
DSTYLE
1002
{
1070
    45
1040
0.5
1070
    40
1040
1.3
1002
}
  0
LINE
  5
1172B
330
18
100
AcDbEntity
  8
0
  6
BYBLOCK
100
AcDbLine
 10
4733.617122545307
 20
1460.487168153773
 30
0.0000000001127424
 11
4731.017122545307
 21
1461.183836047773
 31
0.0000000001127424
  0
LINE
  5
1172C
330
18
100
AcDbEntity
  8
0
  6
BYBLOCK
100
AcDbLine
 10
4731.017122545307
 20
1461.183836047773
 30
0.0000000001127424
 11
4733.617122545307
 21
1461.880503941773
 31
0.0000000001127424
  0
LINE
  5
1172D
330
18
100
AcDbEntity
  8
0
  6
BYBLOCK
100
AcDbLine
 10
4731.017122545307
 20
1461.183836047773
 30
0.0000000001127424
 11
4733.617122545307
 21
1461.183836047773
 31
0.0000000001127424
  0
LINE
  5
1172E
330
18
100
AcDbEntity
  8
0
  6
BYBLOCK
100
AcDbLine
 10
4859.768894153794
 20
1461.880503941773
 30
0.0000000001127424
 11
4862.368894153795
 21
1461.183836047773
 31
0.0000000001127424
  0
LINE
  5
1172F
330
18
100
AcDbEntity
  8
0
  6
BYBLOCK
100
AcDbLine
 10
4862.368894153795
 20
1461.183836047773
 30
0.0000000001127424
 11
4859.768894153794
 21
1460.487168153773
 31
0.0000000001127424
  0
LINE
  5
11730
330
18
100
AcDbEntity
  8
0
  6
BYBLOCK
100
AcDbLine
 10
4862.368894153795
 20
1461.183836047773
 30
0.0000000001127424
 11
4859.768894153794
 21
1461.183836047773
 31
0.0000000001127424
  0
TEXT
  5
11731
330
18
100
AcDbEntity
  8
1DIM
  6
CONTINUOUS
100
AcDbText
 10
4792.143008349551
 20
1462.093836047773
 30
0.0000000001127424
 40
4.55
  1
131
100
AcDbText
1001
ACAD
1000
DSTYLE
1002
{
1070
    40
1040
1.3
1070
    45
1040
0.5
1002
}
  0
LINE
  5
11732
330
18
100
AcDbEntity
  8
0
  6
BYBLOCK
100
AcDbLine
 10
4898.363813884128
 20
1517.783112568406
 30
0.0000000001127424
 11
4897.667145990128
 21
1515.183112568406
 31
0.0000000001127424
  0
LINE
  5
11733
330
18
100
AcDbEntity
  8
0
  6
BYBLOCK
100
AcDbLine
 10
4897.667145990128
 20
1515.183112568406
 30
0.0000000001127424
 11
4896.970478096128
 21
1517.783112568406
 31
0.0000000001127424
  0
LINE
  5
11734
330
18
100
AcDbEntity
  8
0
  6
BYBLOCK
100
AcDbLine
 10
4897.667145990128
 20
1515.183112568406
 30
0.0000000001127424
 11
4897.667145990128
 21
1517.783112568406
 31
0.0000000001127424
  0
LINE
  5
11735
330
18
100
AcDbEntity
  8
0
  6
BYBLOCK
100
AcDbLine
 10
4896.970478096128
 20
1553.583836047773
 30
0.0000000001127424
 11
4897.667145990128
 21
1556.183836047773
 31
0.0000000001127424
  0
LINE
  5
11736
330
18
100
AcDbEntity
  8
0
  6
BYBLOCK
100
AcDbLine
 10
4897.667145990128
 20
1556.183836047773
 30
0.0000000001127424
 11
4898.363813884128
 21
1553.583836047773
 31
0.0000000001127424
  0
LINE
  5
11737
330
18
100
AcDbEntity
  8
0
  6
BYBLOCK
100
AcDbLine
 10
4897.667145990128
 20
1556.183836047773
 30
0.0000000001127424
 11
4897.667145990128
 21
1553.583836047773
 31
0.0000000001127424
  0
TEXT
  5
11738
330
18
100
AcDbEntity
  8
1DIM
  6
CONTINUOUS
100
AcDbText
 10
4896.757145990127
 20
1532.650140974757
 30
0.0000000001127424
 40
4.55
  1
41
 50
90.0
100
AcDbText
1001
ACAD
1000
DSTYLE
1002
{
1070
    40
1040
1.3
1070
    45
1040
0.5
1002
}
  0
LINE
  5
11739
330
18
100
AcDbEntity
  8
0
  6
BYBLOCK
100
AcDbLine
 10
4908.363813884128
 20
1492.762874591408
 30
0.0000000001127424
 11
4907.667145990128
 21
1490.162874591408
 31
0.0000000001127424
  0
LINE
  5
1173A
330
18
100
AcDbEntity
  8
0
  6
BYBLOCK
100
AcDbLine
 10
4907.667145990128
 20
1490.162874591408
 30
0.0000000001127424
 11
4906.970478096128
 21
1492.762874591408
 31
0.0000000001127424
  0
LINE
  5
1173B
330
18
100
AcDbEntity
  8
0
  6
BYBLOCK
100
AcDbLine
 10
4907.667145990128
 20
1490.162874591408
 30
0.0000000001127424
 11
4907.667145990128
 21
1492.762874591408
 31
0.0000000001127424
  0
LINE
  5
1173C
330
18
100
AcDbEntity
  8
0
  6
BYBLOCK
100
AcDbLine
 10
4906.970478096128
 20
1553.583836047773
 30
0.0000000001127424
 11
4907.667145990128
 21
1556.183836047773
 31
0.0000000001127424
  0
LINE
  5
1173D
330
18
100
AcDbEntity
  8
0
  6
BYBLOCK
100
AcDbLine
 10
4907.667145990128
 20
1556.183836047773
 30
0.0000000001127424
 11
4908.363813884128
 21
1553.583836047773
 31
0.0000000001127424
  0
LINE
  5
1173E
330
18
100
AcDbEntity
  8
0
  6
BYBLOCK
100
AcDbLine
 10
4907.667145990128
 20
1556.183836047773
 30
0.0000000001127424
 11
4907.667145990128
 21
1553.583836047773
 31
0.0000000001127424
  0
TEXT
  5
1173F
330
18
100
AcDbEntity
  8
1DIM
  6
CONTINUOUS
100
AcDbText
 10
4906.757145990127
 20
1519.365890041814
 30
0.0000000001127424
 40
4.55
  1
66
 50
90.0
100
AcDbText
1001
ACAD
1000
DSTYLE
1002
{
1070
    40
1040
1.3
1070
    45
1040
0.5
1002
}
  0
LINE
  5
11740
330
18
100
AcDbEntity
  8
0
  6
BYBLOCK
100
AcDbLine
 10
4898.363813884128
 20
1301.053726348018
 30
0.0
 11
4897.667145990128
 21
1298.453726348018
 31
0.0
  0
LINE
  5
11741
330
18
100
AcDbEntity
  8
0
  6
BYBLOCK
100
AcDbLine
 10
4897.667145990128
 20
1298.453726348018
 30
0.0
 11
4896.970478096128
 21
1301.053726348018
 31
0.0
  0
LINE
  5
11742
330
18
100
AcDbEntity
  8
0
  6
BYBLOCK
100
AcDbLine
 10
4897.667145990128
 20
1298.453726348018
 30
0.0
 11
4897.667145990128
 21
1301.053726348018
 31
0.0
  0
LINE
  5
11743
330
18
100
AcDbEntity
  8
0
  6
BYBLOCK
100
AcDbLine
 10
4896.970478096128
 20
1311.316582373715
 30
0.0
 11
4897.667145990128
 21
1313.916582373715
 31
0.0
  0
LINE
  5
11744
330
18
100
AcDbEntity
  8
0
  6
BYBLOCK
100
AcDbLine
 10
4897.667145990128
 20
1313.916582373715
 30
0.0
 11
4898.363813884128
 21
1311.316582373715
 31
0.0
  0
LINE
  5
11745
330
18
100
AcDbEntity
  8
0
  6
BYBLOCK
100
AcDbLine
 10
4897.667145990128
 20
1313.916582373715
 30
0.0
 11
4897.667145990128
 21
1311.316582373715
 31
0.0
  0
TEXT
  5
11746
330
18
100
AcDbEntity
  8
1DIM
  6
CONTINUOUS
100
AcDbText
 10
4896.757145990128
 20
1300.10268908309
 30
0.0
 40
4.55
  1
15.5
 50
90.0
100
AcDbText
1001
ACAD
1000
DSTYLE
1002
{
1070
    40
1040
1.3
1070
    45
1040
0.5
1002
}
  0
LINE
  5
11747
330
18
100
AcDbEntity
  8
0
  6
BYBLOCK
100
AcDbLine
 10
4745.267145990128
 20
1471.751337652678
 30
0.0
 11
4742.667145990128
 21
1472.448005546678
 31
0.0
  0
LINE
  5
11748
330
18
100
AcDbEntity
  8
0
  6
BYBLOCK
100
AcDbLine
 10
4742.667145990128
 20
1472.448005546678
 30
0.0
 11
4745.267145990128
 21
1473.144673440678
 31
0.0
  0
LINE
  5
11749
330
18
100
AcDbEntity
  8
0
  6
BYBLOCK
100
AcDbLine
 10
4742.667145990128
 20
1472.448005546678
 30
0.0
 11
4745.267145990128
 21
1472.448005546678
 31
0.0
  0
LINE
  5
1174A
330
18
100
AcDbEntity
  8
0
  6
BYBLOCK
100
AcDbLine
 10
4859.768894153794
 20
1473.144673440678
 30
0.0
 11
4862.368894153795
 21
1472.448005546678
 31
0.0
  0
LINE
  5
1174B
330
18
100
AcDbEntity
  8
0
  6
BYBLOCK
100
AcDbLine
 10
4862.368894153795
 20
1472.448005546678
 30
0.0
 11
4859.768894153794
 21
1471.751337652678
 31
0.0
  0
LINE
  5
1174C
330
18
100
AcDbEntity
  8
0
  6
BYBLOCK
100
AcDbLine
 10
4862.368894153795
 20
1472.448005546678
 30
0.0
 11
4859.768894153794
 21
1472.448005546678
 31
0.0
  0
TEXT
  5
1174D
330
18
100
AcDbEntity
  8
1DIM
  6
CONTINUOUS
100
AcDbText
 10
4797.494061738628
 20
1473.358005546678
 30
0.0
 40
4.55
  1
120
100
AcDbText
1001
ACAD
1000
DSTYLE
1002
{
1070
    40
1040
1.3
1070
   271
1070
     0
1002
}
  0
VIEWPORT
  5
57
330
15
100
AcDbEntity
 67
     1
  8
0
100
AcDbViewport
 68
     1
 10
0.0
 20
0.0
 30
0.0
 40
535.5106132075471
 41
296.9999999999999
 68
     1
 69
     1
1001
ACAD
1000
MVIEW
1002
{
1070
    16
1010
0.0
1020
0.0
1030
0.0
1010
0.0
1020
0.0
1030
1.0
1040
0.0
1040
296.9999999999999
1040
5.728000000000009
1040
25.339
1040
50.0
1040
0.0
1040
0.0
1070
    16
1070
   100
1070
     0
1070
     1
1070
     0
1070
     0
1070
     0
1070
     0
1040
0.0
1040
0.0
1040
0.0
1040
10.0
1040
10.0
1040
10.0
1040
10.0
1070
     0
1002
{
1002
}
1002
}
  0
ENDSEC
  0
SECTION
  2
OBJECTS
  0
DICTIONARY
  5
C
330
0
100
AcDbDictionary
  3
ACAD_CIP_PREVIOUS_PRODUCT_INFO
350
AEA8
  3
ACAD_COLOR
350
18D
  3
ACAD_GROUP
350
D
  3
ACAD_LAYOUT
350
18E
  3
ACAD_MATERIAL
350
18C
  3
ACAD_MLEADERSTYLE
350
9583
  3
ACAD_MLINESTYLE
350
1B
  3
ACAD_PLOTSETTINGS
350
18F
  3
ACAD_SCALELIST
350
9561
  3
ACAD_VISUALSTYLE
350
9550
  3
ACDBHEADERROUNDTRIPXREC
350
1174E
  3
ACDBVARIABLEDICTIONARY
350
37
  3
CONTENTDICTIONARY
350
D8
  3
DRAWINGVARIABLESDICT
350
20
  3
DWGPROPS
350
11751
1001
ACAD
1000
TREAT_AS_HARD
1070
     0
  0
DICTIONARY
  5
96D9
330
2
100
AcDbDictionary
  3
ACAD_LAYERSTATES
360
96DA
1001
ACAD
1000
TREAT_AS_HARD
1070
     1
  0
DICTIONARY
  5
9593
330
E
100
AcDbDictionary
  3
ADSK_XREC_LAYER_RECONCILED
360
9594
1001
ACAD
1000
TREAT_AS_HARD
1070
     1
  0
DICTIONARY
  5
9595
330
29
100
AcDbDictionary
  3
ADSK_XREC_LAYER_RECONCILED
360
9596
1001
ACAD
1000
TREAT_AS_HARD
1070
     1
  0
DICTIONARY
  5
9597
330
31
100
AcDbDictionary
  3
ADSK_XREC_LAYER_RECONCILED
360
9598
1001
ACAD
1000
TREAT_AS_HARD
1070
     1
  0
DICTIONARY
  5
959D
330
243
100
AcDbDictionary
  3
ADSK_XREC_LAYER_RECONCILED
360
959E
1001
ACAD
1000
TREAT_AS_HARD
1070
     1
  0
DICTIONARY
  5
95A3
330
24E
100
AcDbDictionary
  3
ADSK_XREC_LAYER_RECONCILED
360
95A4
1001
ACAD
1000
TREAT_AS_HARD
1070
     1
  0
DICTIONARY
  5
88F
330
18
100
AcDbDictionary
  3
ACAD_SORTENTS
360
890
1001
ACAD
1000
TREAT_AS_HARD
1070
     1
  0
XRECORD
  5
AEA8
102
{ACAD_REACTORS
330
C
102
}
330
C
100
AcDbXrecord
300
ACDLT
300
2012
300
ACDLT_F_S
  0
DICTIONARY
  5
18D
102
{ACAD_REACTORS
330
C
102
}
330
C
100
AcDbDictionary
1001
ACAD
1000
TREAT_AS_HARD
1070
     0
  0
DICTIONARY
  5
D
102
{ACAD_REACTORS
330
C
102
}
330
C
100
AcDbDictionary
1001
ACAD
1000
TREAT_AS_HARD
1070
     0
  0
DICTIONARY
  5
18E
102
{ACAD_REACTORS
330
C
102
}
330
C
100
AcDbDictionary
1001
ACAD
1000
TREAT_AS_HARD
1070
     0
  0
DICTIONARY
  5
18C
102
{ACAD_REACTORS
330
C
102
}
330
C
100
AcDbDictionary
  3
BYBLOCK
350
9540
  3
BYLAYER
350
9538
  3
GLOBAL
350
9548
1001
ACAD
1000
TREAT_AS_HARD
1070
     0
  0
DICTIONARY
  5
9583
102
{ACAD_REACTORS
330
C
102
}
330
C
100
AcDbDictionary
  3
STANDARD
350
9584
1001
ACAD
1000
TREAT_AS_HARD
1070
     0
  0
DICTIONARY
  5
1B
102
{ACAD_REACTORS
330
C
102
}
330
C
100
AcDbDictionary
  3
STANDARD
350
1C
1001
ACAD
1000
TREAT_AS_HARD
1070
     0
  0
DICTIONARY
  5
18F
102
{ACAD_REACTORS
330
C
102
}
330
C
100
AcDbDictionary
1001
ACAD
1000
TREAT_AS_HARD
1070
     0
  0
DICTIONARY
  5
9561
102
{ACAD_REACTORS
330
C
102
}
330
C
100
AcDbDictionary
  3
A0
350
9562
  3
A1
350
9563
  3
A2
350
9564
  3
A3
350
9565
  3
A4
350
9566
  3
A5
350
9567
  3
A6
350
9568
  3
A7
350
9569
  3
A8
350
956A
  3
A9
350
956B
  3
B0
350
956C
  3
B1
350
956D
  3
B2
350
956E
  3
B3
350
956F
  3
B4
350
9570
  3
B5
350
9571
  3
B6
350
9572
  3
B7
350
9573
  3
B8
350
9574
  3
B9
350
9575
  3
C0
350
9576
  3
C1
350
9577
  3
C2
350
9578
  3
C3
350
9579
  3
C4
350
957A
  3
C5
350
957B
  3
C6
350
957C
  3
C7
350
957D
  3
C8
350
957E
  3
C9
350
957F
  3
D0
350
9580
  3
D1
350
9581
  3
D2
350
9582
1001
ACAD
1000
TREAT_AS_HARD
1070
     0
  0
DICTIONARY
  5
9550
102
{ACAD_REACTORS
330
C
102
}
330
C
100
AcDbDictionary
  3
2DWIREFRAME
350
9556
  3
3D_HIDDEN
350
9558
  3
3DWIREFRAME
350
9557
  3
BASIC
350
9555
  3
BRIGHTEN
350
955C
  3
COLORCHANGE
350
9560
  3
CONCEPTUAL
350
9559
  3
DIM
350
955B
  3
EDGECOLOROFF
350
A211
  3
FACEPATTERN
350
955F
  3
FLAT
350
9551
  3
FLATWITHEDGES
350
9552
  3
GOURAUD
350
9553
  3
GOURAUDWITHEDGES
350
9554
  3
HIDDEN
350
A260
  3
JITTEROFF
350
A20F
  3
LINEPATTERN
350
955E
  3
MODELING
350
A266
  3
OVERHANGOFF
350
A210
  3
REALISTIC
350
955A
  3
SHADED
350
A265
  3
SHADED_WITH_EDGES
350
A264
  3
SHADES_OF_GRAY
350
A261
  3
SKETCHY
350
A262
  3
THICKEN
350
955D
  3
WIREFRAME
350
A25F
  3
X-RAY
350
A263
1001
ACAD
1000
TREAT_AS_HARD
1070
     0
  0
DICTIONARY
  5
1174E
102
{ACAD_REACTORS
330
C
102
}
330
C
100
AcDbDictionary
  3
COLORDICT
350
1174F
  3
MATERIALDICT
350
11750
1001
ACAD
1000
TREAT_AS_HARD
1070
     0
  0
DICTIONARY
  5
37
102
{ACAD_REACTORS
330
C
102
}
330
C
100
AcDbDictionary
  3
CANNOSCALE
350
AAE0
  3
CMLEADERSTYLE
350
9627
  3
CTABLESTYLE
350
29E
  3
DIMADEC
350
38
  3
DIMASSOC
350
1CE
  3
HIDETEXT
350
704E
  3
INDEXCTL
350
962A
  3
INTERSECTIONCOLOR
350
7052
  3
INTERSECTIONDISPLAY
350
7051
  3
MSLTSCALE
350
AB30
  3
OBSCOLOR
350
704F
  3
OBSLTYPE
350
7050
  3
PROJECTNAME
350
1CF
  3
SORTENTS
350
9629
  3
XCLIPFRAME
350
1157D
1001
ACAD
1000
TREAT_AS_HARD
1070
     0
  0
DICTIONARY
  5
D8
102
{ACAD_REACTORS
330
C
102
}
330
C
100
AcDbDictionary
1001
ACAD
1000
TREAT_AS_HARD
1070
     0
  0
DICTIONARY
  5
20
102
{ACAD_REACTORS
330
C
102
}
330
C
100
AcDbDictionary
1001
DRAWINGVARIABLESXDATA
1000
POLARANG
1000
0.261799387799149410000000
1000
POLARMODE
1000
1
1000
POLARSTYLE
1000
1
1001
ACAD
1000
TREAT_AS_HARD
1070
     0
  0
XRECORD
  5
11751
102
{ACAD_REACTORS
330
C
102
}
330
C
100
AcDbXrecord
  1
DWGPROPS COOKIE
  2

  3

  4

  6

  7

  8
3684
  9

300
=
301
=
302
=
303
=
304
=
305
=
306
=
307
=
308
=
309
=
 40
0.0
 41
2451318.246352917
 42
2458967.196245938
  1

 90
        0
  0
DICTIONARY
  5
96DA
102
{ACAD_REACTORS
330
96D9
102
}
330
96D9
100
AcDbDictionary
1001
ACAD
1000
TREAT_AS_HARD
1070
     0
  0
ACAD_PROXY_OBJECT
  5
9594
102
{ACAD_REACTORS
330
9593
102
}
330
9593
100
AcDbZombieObject
 90
      499
 91
      514
 93
       34
310
40C8804040
  0
ACAD_PROXY_OBJECT
  5
9596
102
{ACAD_REACTORS
330
9595
102
}
330
9595
100
AcDbZombieObject
 90
      499
 91
      514
 93
       34
310
40C8804040
  0
ACAD_PROXY_OBJECT
  5
9598
102
{ACAD_REACTORS
330
9597
102
}
330
9597
100
AcDbZombieObject
 90
      499
 91
      514
 93
       34
310
40C8804040
  0
ACAD_PROXY_OBJECT
  5
959E
102
{ACAD_REACTORS
330
959D
102
}
330
959D
100
AcDbZombieObject
 90
      499
 91
      514
 93
       34
310
40C8804040
  0
ACAD_PROXY_OBJECT
  5
95A4
102
{ACAD_REACTORS
330
95A3
102
}
330
95A3
100
AcDbZombieObject
 90
      499
 91
      514
 93
       34
310
40C8804040
  0
SORTENTSTABLE
  5
890
102
{ACAD_REACTORS
330
88F
102
}
330
88F
100
AcDbSortentsTable
330
18
331
0
  5
F9B6
331
F9B5
  5
F9CF
331
F9B6
  5
F9D0
331
F9B7
  5
F9D1
331
F9BB
  5
F9F3
331
F9BC
  5
F9F4
331
F9BD
  5
F9F5
331
F9BE
  5
F9F6
331
F9BF
  5
F9F7
331
F9C0
  5
F9F8
331
F9C1
  5
F9F9
331
F9C2
  5
F9FA
331
F9C3
  5
F9FB
331
F9C4
  5
F9FC
331
F9C5
  5
F9FD
331
F9C6
  5
F9FE
331
F9C7
  5
F9FF
331
F9C8
  5
FA00
331
F9C9
  5
FA01
331
F9CA
  5
FA02
331
F9CB
  5
FA03
331
F9CC
  5
FA04
331
F9CD
  5
FA05
331
F9CE
  5
FA06
331
F9CF
  5
FA07
331
F9D0
  5
FA08
331
F9D1
  5
FA09
331
F9D2
  5
FA0A
331
F9D3
  5
FA0B
331
F9D4
  5
FA0C
331
F9D5
  5
FA0D
331
F9D6
  5
FA0E
331
F9D7
  5
FA0F
331
F9D8
  5
FA10
331
F9D9
  5
FA11
331
F9DA
  5
FA12
331
F9DB
  5
FA13
331
F9DC
  5
FA14
331
F9DD
  5
FA15
331
F9DE
  5
FA16
331
F9DF
  5
FA17
331
F9E0
  5
FA18
331
F9E1
  5
FA19
331
F9E2
  5
FA1A
331
F9E3
  5
FA1B
331
F9E4
  5
FA1C
331
F9E5
  5
FA1D
331
F9E6
  5
FA1E
331
F9E7
  5
FA1F
331
F9E8
  5
FA20
331
F9E9
  5
FA21
331
F9EA
  5
FA22
331
F9EB
  5
FA23
331
F9EC
  5
FA27
331
F9ED
  5
FA28
331
F9EE
  5
FA29
331
F9EF
  5
FA2A
331
F9F0
  5
FA2B
331
F9F1
  5
FA2C
331
F9F2
  5
FA2D
331
F9F3
  5
FA2E
331
F9F4
  5
FA2F
331
F9F5
  5
FA30
331
F9F6
  5
FA31
331
F9F7
  5
FA33
331
F9F8
  5
FA34
331
F9F9
  5
FA36
331
F9FA
  5
FA37
331
0
  5
FA35
331
F9FC
  5
FB08
331
F9FD
  5
FB09
331
F9FE
  5
FB0A
331
F9FF
  5
FB0F
331
FA00
  5
FB10
331
FA01
  5
FB11
331
FA02
  5
FB15
331
FA03
  5
FB16
331
FA04
  5
FB17
331
FA05
  5
FB18
331
FA06
  5
FB19
331
FA07
  5
FB1A
331
FA08
  5
FB1B
331
FA09
  5
FB1C
331
FA0A
  5
FB1D
331
FA0B
  5
FB1E
331
FA0C
  5
FB1F
331
FA0D
  5
FB20
331
FA0E
  5
FB21
331
FA0F
  5
FB22
331
FA10
  5
FB23
331
FA11
  5
FB24
331
FA12
  5
FB25
331
FA13
  5
FB26
331
FA14
  5
FB27
331
FA15
  5
FB28
331
FA16
  5
FB29
331
FA17
  5
FB2A
331
FA18
  5
FB2B
331
FA19
  5
FB2C
331
FA1A
  5
FB2D
331
FA1B
  5
FB2E
331
FA1C
  5
FB2F
331
FA1D
  5
FB30
331
FA1E
  5
FB31
331
FA1F
  5
FB32
331
FA20
  5
FB33
331
FA21
  5
FB34
331
FA22
  5
FB35
331
FA23
  5
FB36
331
FA27
  5
FDDF
331
FA28
  5
FDE0
331
FA29
  5
FDE1
331
FA2A
  5
FDE2
331
FA2B
  5
FDE3
331
FA2C
  5
FDE5
331
FA2D
  5
FDE6
331
FA2E
  5
FDE7
331
FA2F
  5
FDE8
331
FA30
  5
FDE9
331
FA31
  5
FDEA
331
FA33
  5
FDF2
331
FA34
  5
FDF3
331
FA35
  5
FDF4
331
FA36
  5
FDF5
331
FA37
  5
FDF6
331
FA38
  5
FDF7
331
FA39
  5
FDF8
331
FA3A
  5
FDF9
331
FA3B
  5
FDFA
331
FA3C
  5
FDFB
331
FA3D
  5
FDFC
331
FA3E
  5
FDFD
331
FA3F
  5
FDFE
331
FA40
  5
FDFF
331
FA41
  5
FE00
331
FA42
  5
FE01
331
FA43
  5
FE02
331
FA44
  5
FE03
331
FA45
  5
FE04
331
FB06
  5
FE05
331
FB07
  5
FE06
331
FB08
  5
FE07
331
FB09
  5
FE08
331
FB0A
  5
FE09
331
FB0B
  5
FE0A
331
FB0D
  5
FE0B
331
FB0E
  5
FE0C
331
FB0F
  5
FE0D
331
FB10
  5
FE0E
331
FB11
  5
FE0F
331
FB12
  5
FE10
331
FB13
  5
FE11
331
FB14
  5
FE12
331
FB15
  5
FE13
331
FB16
  5
FE14
331
FB17
  5
FE15
331
FB18
  5
FE16
331
FB19
  5
FE17
331
FB1A
  5
FE18
331
FB1B
  5
FE19
331
FB1C
  5
FE1A
331
FB1D
  5
FE1B
331
FB1E
  5
FE1C
331
FB1F
  5
FE1D
331
FB20
  5
FE1E
331
FB21
  5
FE1F
331
FB22
  5
FE20
331
FB23
  5
FE21
331
FB24
  5
FE22
331
FB25
  5
FE23
331
FB26
  5
FE24
331
FB27
  5
FE25
331
FB28
  5
FE26
331
FB29
  5
FE2A
331
FB2A
  5
FE2B
331
FB2B
  5
FE2C
331
FB2C
  5
FE2D
331
FB2D
  5
FE2E
331
FB2E
  5
FE2F
331
FB2F
  5
FE30
331
FB30
  5
FE31
331
FB31
  5
FE32
331
FB32
  5
FE33
331
FB33
  5
FE34
331
FB34
  5
FE35
331
FB35
  5
FE36
331
FB36
  5
FE37
331
FB37
  5
FE38
331
FB38
  5
FE39
331
FB39
  5
FE3A
331
FB3A
  5
FE3B
331
FB3B
  5
FE3C
331
FB3C
  5
FE3D
331
FB3D
  5
FE3E
331
FB3E
  5
FE3F
331
FB3F
  5
FE40
331
FB40
  5
FE41
331
FB41
  5
FE42
331
FB42
  5
FE43
331
FB43
  5
FE44
331
FB44
  5
FE45
331
FB45
  5
FE46
331
FB46
  5
FE47
331
FB47
  5
FE48
331
FDD2
  5
FE49
331
FDD3
  5
FE4A
331
FDD4
  5
FE4B
331
FDD5
  5
FE4C
331
FDD6
  5
FE4D
331
FDD7
  5
FE4E
331
FDD8
  5
FE4F
331
FDD9
  5
FE50
331
FDDA
  5
FE51
331
FDDB
  5
FE55
331
FDDC
  5
FE56
331
FDDD
  5
FE57
331
FDDE
  5
FE58
331
FDDF
  5
FE59
331
FDE0
  5
FE5A
331
FDE1
  5
FE5B
331
FDE2
  5
FE5C
331
FDE3
  5
FE5D
331
FDE5
  5
1168E
331
FDE6
  5
11692
331
FDE7
  5
11693
331
FDE8
  5
11694
331
FDE9
  5
11698
331
0
  5
FE52
331
0
  5
FE53
331
0
  5
FE54
331
FDED
  5
116BB
331
FDEE
  5
116BC
331
FDEF
  5
116BD
331
FDF1
  5
116CB
331
FDF2
  5
116CC
331
FDF3
  5
116CE
331
FDF4
  5
116CF
331
FDF5
  5
116D0
331
FDF6
  5
116D1
331
FDF7
  5
116D2
331
FDF8
  5
116D3
331
FDF9
  5
116D4
331
FDFA
  5
116D5
331
FDFB
  5
116D6
331
FDFC
  5
116D7
331
FDFD
  5
116D8
331
FDFE
  5
116D9
331
FDFF
  5
116DA
331
FE00
  5
116DB
331
FE01
  5
116DC
331
FE02
  5
116DD
331
FE03
  5
116DE
331
FE04
  5
116DF
331
FE05
  5
116E0
331
0
  5
116A6
331
FE07
  5
116EB
331
FE08
  5
116EC
331
FE09
  5
116ED
331
FE0A
  5
116EE
331
FE0B
  5
116EF
331
FE0C
  5
116F0
331
FE0D
  5
116F4
331
FE0E
  5
116F5
331
FE0F
  5
116F6
331
FE10
  5
116F7
331
FE11
  5
116F8
331
FE12
  5
116F9
331
FE13
  5
116FA
331
FE14
  5
116FB
331
FE15
  5
116FC
331
FE16
  5
116FD
331
FE17
  5
116FE
331
FE18
  5
116FF
331
FE19
  5
11700
331
FE1A
  5
11701
331
FE1B
  5
11702
331
FE1C
  5
11703
331
FE1D
  5
11704
331
FE1E
  5
11705
331
FE1F
  5
11706
331
FE20
  5
11707
331
FE21
  5
11708
331
FE22
  5
11709
331
FE23
  5
1170A
331
FE24
  5
1170B
331
FE25
  5
1170C
331
FE26
  5
1170D
331
FE27
  5
1170E
331
FE28
  5
1170F
331
FE29
  5
11710
331
FE2A
  5
11711
331
FE2B
  5
11712
331
FE2C
  5
11713
331
0
  5
116CD
331
FE2E
  5
1171E
331
FE2F
  5
1171F
331
FE30
  5
11720
331
FE31
  5
11721
331
FE32
  5
11722
331
FE33
  5
11723
331
FE34
  5
11724
331
FE35
  5
11725
331
FE36
  5
11726
331
FE37
  5
11727
331
FE38
  5
11728
331
FE39
  5
11729
331
FE3A
  5
1172A
331
FE3B
  5
1172B
331
FE3C
  5
1172C
331
FE3D
  5
1172D
331
FE3E
  5
1172E
331
FE3F
  5
1172F
331
FE40
  5
11730
331
FE41
  5
11731
331
FE42
  5
11732
331
FE43
  5
11733
331
FE44
  5
11734
331
FE45
  5
11735
331
FE46
  5
11736
331
FE47
  5
11737
331
FE48
  5
11738
331
FE49
  5
11739
331
FE4A
  5
1173A
331
FE4B
  5
1173B
331
FE4C
  5
1173C
331
FE4D
  5
1173D
331
FE4E
  5
1173E
331
FE4F
  5
1173F
331
FE50
  5
11740
331
FE51
  5
11741
331
FE52
  5
11742
331
FE53
  5
11743
331
FE54
  5
11744
331
FE55
  5
11745
331
FE56
  5
11746
331
FE57
  5
11747
331
FE58
  5
11748
331
FE59
  5
11749
331
FE5A
  5
1174A
331
FE5B
  5
1174B
331
FE5C
  5
1174C
331
FE5D
  5
1174D
331
1168D
  5
F90F
331
1168E
  5
F9B5
331
1168F
  5
F9BC
331
11690
  5
F9C0
331
11691
  5
F9C1
331
0
  5
F9BD
331
0
  5
F9BE
331
0
  5
F9BF
331
11695
  5
F9D5
331
11696
  5
F9D6
331
11697
  5
F9D7
331
0
  5
F9C6
331
0
  5
F9C7
331
0
  5
F9C8
331
1169B
  5
F9DF
331
1169C
  5
F9E0
331
1169D
  5
F9E1
331
0
  5
F9CC
331
0
  5
F9CD
331
0
  5
F9CE
331
116A1
  5
F9E9
331
116A2
  5
F9EA
331
116A3
  5
F9EB
331
0
  5
F9D2
331
0
  5
F9D3
331
0
  5
F9D4
331
116A7
  5
FB37
331
116A8
  5
FB38
331
116A9
  5
FB39
331
0
  5
FA45
331
0
  5
FB06
331
0
  5
FB07
331
116AD
  5
FB41
331
116AE
  5
FB42
331
116AF
  5
FB43
331
0
  5
FB0B
331
0
  5
FB0D
331
0
  5
FB0E
331
116B3
  5
FDD5
331
116B4
  5
FDD6
331
116B5
  5
FDD7
331
0
  5
FB12
331
0
  5
FB13
331
0
  5
FB14
331
116B9
  5
FDEB
331
116BA
  5
FDEC
331
116BB
  5
FDED
331
116BC
  5
FDEE
331
116BD
  5
FDEF
331
116BE
  5
FDF1
331
116BF
  5
1168D
331
116C0
  5
116BE
331
116C1
  5
116BF
331
116C2
  5
116C0
331
0
  5
FE27
331
0
  5
FE28
331
0
  5
FE29
331
116C6
  5
F9C2
331
116C7
  5
F9C3
331
116C8
  5
F9C4
331
116C9
  5
F9C5
331
116CA
  5
F9C9
331
116CB
  5
F9CA
331
116CC
  5
F9CB
331
116CD
  5
F9D8
331
116CE
  5
F9D9
331
116CF
  5
F9DA
331
116D0
  5
F9DB
331
116D1
  5
F9DC
331
116D2
  5
F9DD
331
116D3
  5
F9DE
331
116D4
  5
F9E2
331
116D5
  5
F9E3
331
116D6
  5
F9E4
331
116D7
  5
F9E5
331
116D8
  5
F9E6
331
116D9
  5
F9E7
331
116DA
  5
F9E8
331
116DB
  5
F9EC
331
116DC
  5
F9ED
331
116DD
  5
F9EE
331
116DE
  5
F9EF
331
116DF
  5
F9F0
331
116E0
  5
F9F1
331
116E1
  5
F9F2
331
116E2
  5
FB3A
331
116E3
  5
FB3B
331
116E4
  5
FB3C
331
116E5
  5
FB3D
331
116E6
  5
FB3E
331
116E7
  5
FB3F
331
116E8
  5
FB40
331
116E9
  5
FB44
331
116EA
  5
FB45
331
116EB
  5
FB46
331
116EC
  5
FB47
331
116ED
  5
FDD2
331
116EE
  5
FDD3
331
116EF
  5
FDD4
331
116F0
  5
FDD8
331
116F1
  5
FDD9
331
116F2
  5
FDDA
331
116F3
  5
FDDB
331
116F4
  5
FDDC
331
116F5
  5
FDDD
331
116F6
  5
FDDE
331
116F7
  5
116C1
331
116F8
  5
116C2
331
116F9
  5
116C3
331
116FA
  5
116C7
331
116FB
  5
116C8
331
116FC
  5
116C9
331
116FD
  5
116CA
331
116FE
  5
F9B7
331
116FF
  5
F9BB
331
11700
  5
FA38
331
11701
  5
FA39
331
11702
  5
FA3A
331
0
  5
FA3B
331
0
  5
FA3C
331
0
  5
FA3D
331
11706
  5
11699
331
11707
  5
1169A
331
11708
  5
1169E
331
0
  5
1168F
331
0
  5
11690
331
0
  5
11691
331
1170C
  5
116A7
331
1170D
  5
116A8
331
1170E
  5
116A9
331
0
  5
11695
331
0
  5
11696
331
0
  5
11697
331
11712
  5
116B1
331
11713
  5
116B2
331
11714
  5
116B3
331
0
  5
1169B
331
0
  5
1169C
331
0
  5
1169D
331
11718
  5
116E1
331
11719
  5
116E2
331
1171A
  5
116E3
331
0
  5
116C4
331
0
  5
116C5
331
0
  5
116C6
331
1171E
  5
11714
331
1171F
  5
11715
331
11720
  5
11716
331
0
  5
116F1
331
0
  5
116F2
331
0
  5
116F3
331
11724
  5
FA3E
331
11725
  5
FA3F
331
11726
  5
FA40
331
11727
  5
FA41
331
11728
  5
FA42
331
11729
  5
FA43
331
1172A
  5
FA44
331
1172B
  5
1169F
331
1172C
  5
116A0
331
1172D
  5
116A1
331
1172E
  5
116A2
331
1172F
  5
116A3
331
11730
  5
116A4
331
11731
  5
116A5
331
11732
  5
116AA
331
11733
  5
116AB
331
11734
  5
116AC
331
11735
  5
116AD
331
11736
  5
116AE
331
11737
  5
116AF
331
11738
  5
116B0
331
11739
  5
116B4
331
1173A
  5
116B5
331
1173B
  5
116B6
331
1173C
  5
116B7
331
1173D
  5
116B8
331
1173E
  5
116B9
331
1173F
  5
116BA
331
11740
  5
116E4
331
11741
  5
116E5
331
11742
  5
116E6
331
11743
  5
116E7
331
11744
  5
116E8
331
11745
  5
116E9
331
11746
  5
116EA
331
11747
  5
11717
331
11748
  5
11718
331
11749
  5
11719
331
1174A
  5
1171A
331
1174B
  5
1171B
331
1174C
  5
1171C
331
1174D
  5
1171D
  0
MATERIAL
  5
9540
102
{ACAD_REACTORS
330
18C
102
}
102
{ACAD_XDICTIONARY
360
118EC
102
}
330
18C
100
AcDbMaterial
  1
BYBLOCK
 72
     0
 73
     2
 43
0.0208333333333333
 43
0.0
 43
0.0
 43
0.0
 43
0.0
 43
0.0208333333333333
 43
0.0
 43
0.0
 43
0.0
 43
0.0
 43
1.0
 43
0.0
 43
0.0
 43
0.0
 43
0.0
 43
1.0
 77
     0
 78
     2
 47
0.0208333333333333
 47
0.0
 47
0.0
 47
0.0
 47
0.0
 47
0.0208333333333333
 47
0.0
 47
0.0
 47
0.0
 47
0.0
 47
1.0
 47
0.0
 47
0.0
 47
0.0
 47
0.0
 47
1.0
171
     0
172
     2
 49
0.0208333333333333
 49
0.0
 49
0.0
 49
0.0
 49
0.0
 49
0.0208333333333333
 49
0.0
 49
0.0
 49
0.0
 49
0.0
 49
1.0
 49
0.0
 49
0.0
 49
0.0
 49
0.0
 49
1.0
175
     0
176
     2
142
0.0208333333333333
142
0.0
142
0.0
142
0.0
142
0.0
142
0.0208333333333333
142
0.0
142
0.0
142
0.0
142
0.0
142
1.0
142
0.0
142
0.0
142
0.0
142
0.0
142
1.0
179
     0
270
     2
144
0.0208333333333333
144
0.0
144
0.0
144
0.0
144
0.0
144
0.0208333333333333
144
0.0
144
0.0
144
0.0
144
0.0
144
1.0
144
0.0
144
0.0
144
0.0
144
0.0
144
1.0
274
     2
147
0.0208333333333333
147
0.0
147
0.0
147
0.0
147
0.0
147
0.0208333333333333
147
0.0
147
0.0
147
0.0
147
0.0
147
1.0
147
0.0
147
0.0
147
0.0
147
0.0
147
1.0
  0
MATERIAL
  5
9538
102
{ACAD_REACTORS
330
18C
102
}
102
{ACAD_XDICTIONARY
360
118EE
102
}
330
18C
100
AcDbMaterial
  1
BYLAYER
 72
     0
 73
     2
 43
0.0208333333333333
 43
0.0
 43
0.0
 43
0.0
 43
0.0
 43
0.0208333333333333
 43
0.0
 43
0.0
 43
0.0
 43
0.0
 43
1.0
 43
0.0
 43
0.0
 43
0.0
 43
0.0
 43
1.0
 77
     0
 78
     2
 47
0.0208333333333333
 47
0.0
 47
0.0
 47
0.0
 47
0.0
 47
0.0208333333333333
 47
0.0
 47
0.0
 47
0.0
 47
0.0
 47
1.0
 47
0.0
 47
0.0
 47
0.0
 47
0.0
 47
1.0
171
     0
172
     2
 49
0.0208333333333333
 49
0.0
 49
0.0
 49
0.0
 49
0.0
 49
0.0208333333333333
 49
0.0
 49
0.0
 49
0.0
 49
0.0
 49
1.0
 49
0.0
 49
0.0
 49
0.0
 49
0.0
 49
1.0
175
     0
176
     2
142
0.0208333333333333
142
0.0
142
0.0
142
0.0
142
0.0
142
0.0208333333333333
142
0.0
142
0.0
142
0.0
142
0.0
142
1.0
142
0.0
142
0.0
142
0.0
142
0.0
142
1.0
179
     0
270
     2
144
0.0208333333333333
144
0.0
144
0.0
144
0.0
144
0.0
144
0.0208333333333333
144
0.0
144
0.0
144
0.0
144
0.0
144
1.0
144
0.0
144
0.0
144
0.0
144
0.0
144
1.0
274
     2
147
0.0208333333333333
147
0.0
147
0.0
147
0.0
147
0.0
147
0.0208333333333333
147
0.0
147
0.0
147
0.0
147
0.0
147
1.0
147
0.0
147
0.0
147
0.0
147
0.0
147
1.0
  0
MATERIAL
  5
9548
102
{ACAD_REACTORS
330
18C
102
}
102
{ACAD_XDICTIONARY
360
118F0
102
}
330
18C
100
AcDbMaterial
  1
GLOBAL
 72
     0
 73
     2
 43
0.0208333333333333
 43
0.0
 43
0.0
 43
0.0
 43
0.0
 43
0.0208333333333333
 43
0.0
 43
0.0
 43
0.0
 43
0.0
 43
1.0
 43
0.0
 43
0.0
 43
0.0
 43
0.0
 43
1.0
 77
     0
 78
     2
 47
0.0208333333333333
 47
0.0
 47
0.0
 47
0.0
 47
0.0
 47
0.0208333333333333
 47
0.0
 47
0.0
 47
0.0
 47
0.0
 47
1.0
 47
0.0
 47
0.0
 47
0.0
 47
0.0
 47
1.0
171
     0
172
     2
 49
0.0208333333333333
 49
0.0
 49
0.0
 49
0.0
 49
0.0
 49
0.0208333333333333
 49
0.0
 49
0.0
 49
0.0
 49
0.0
 49
1.0
 49
0.0
 49
0.0
 49
0.0
 49
0.0
 49
1.0
175
     0
176
     2
142
0.0208333333333333
142
0.0
142
0.0
142
0.0
142
0.0
142
0.0208333333333333
142
0.0
142
0.0
142
0.0
142
0.0
142
1.0
142
0.0
142
0.0
142
0.0
142
0.0
142
1.0
179
     0
270
     2
144
0.0208333333333333
144
0.0
144
0.0
144
0.0
144
0.0
144
0.0208333333333333
144
0.0
144
0.0
144
0.0
144
0.0
144
1.0
144
0.0
144
0.0
144
0.0
144
0.0
144
1.0
274
     2
147
0.0208333333333333
147
0.0
147
0.0
147
0.0
147
0.0
147
0.0208333333333333
147
0.0
147
0.0
147
0.0
147
0.0
147
1.0
147
0.0
147
0.0
147
0.0
147
0.0
147
1.0
  0
ACAD_PROXY_OBJECT
  5
9584
102
{ACAD_REACTORS
330
9583
102
}
330
9583
100
AcDbZombieObject
 90
      499
 91
      511
 93
      610
310
40901902A4063FBFFFFFE000000000000002040AD7A3703D0AD73F4214DD185B99185C990000000000000104090141901A00000000000004100000000000000041025764000000000000300FC0
340
12
340
0
340
F
340
0
 94
        0
1001
ACAD_MLEADERVER
1070
     2
  0
MLINESTYLE
  5
1C
102
{ACAD_REACTORS
330
1B
102
}
330
1B
100
AcDbMlineStyle
  2
STANDARD
 70
     0
  3

 62
   256
 51
90.0
 52
90.0
 71
     2
 49
0.5
 62
   256
  6
BYLAYER
 49
-0.5
 62
   256
  6
BYLAYER
  0
ACAD_PROXY_OBJECT
  5
9562
102
{ACAD_REACTORS
330
9561
102
}
330
9561
100
AcDbZombieObject
 90
      499
 91
      510
 93
       41
310
903313A31580
  0
ACAD_PROXY_OBJECT
  5
9563
102
{ACAD_REACTORS
330
9561
102
}
330
9561
100
AcDbZombieObject
 90
      499
 91
      510
 93
      105
310
903313A324000000000000004000
  0
ACAD_PROXY_OBJECT
  5
9564
102
{ACAD_REACTORS
330
9561
102
}
330
9561
100
AcDbZombieObject
 90
      499
 91
      510
 93
      105
310
903313A344000000000000104000
  0
ACAD_PROXY_OBJECT
  5
9565
102
{ACAD_REACTORS
330
9561
102
}
330
9561
100
AcDbZombieObject
 90
      499
 91
      510
 93
      105
310
903313A354000000000000144000
  0
ACAD_PROXY_OBJECT
  5
9566
102
{ACAD_REACTORS
330
9561
102
}
330
9561
100
AcDbZombieObject
 90
      499
 91
      510
 93
      105
310
903313A384000000000000204000
  0
ACAD_PROXY_OBJECT
  5
9567
102
{ACAD_REACTORS
330
9561
102
}
330
9561
100
AcDbZombieObject
 90
      499
 91
      510
 93
      113
310
904313A31304000000000000244000
  0
ACAD_PROXY_OBJECT
  5
9568
102
{ACAD_REACTORS
330
9561
102
}
330
9561
100
AcDbZombieObject
 90
      499
 91
      510
 93
      113
310
904313A31364000000000000304000
  0
ACAD_PROXY_OBJECT
  5
9569
102
{ACAD_REACTORS
330
9561
102
}
330
9561
100
AcDbZombieObject
 90
      499
 91
      510
 93
      113
310
904313A32304000000000000344000
  0
ACAD_PROXY_OBJECT
  5
956A
102
{ACAD_REACTORS
330
9561
102
}
330
9561
100
AcDbZombieObject
 90
      499
 91
      510
 93
      113
310
904313A333040000000000003E4000
  0
ACAD_PROXY_OBJECT
  5
956B
102
{ACAD_REACTORS
330
9561
102
}
330
9561
100
AcDbZombieObject
 90
      499
 91
      510
 93
      113
310
904313A34304000000000000444000
  0
ACAD_PROXY_OBJECT
  5
956C
102
{ACAD_REACTORS
330
9561
102
}
330
9561
100
AcDbZombieObject
 90
      499
 91
      510
 93
      113
310
904313A35304000000000000494000
  0
ACAD_PROXY_OBJECT
  5
956D
102
{ACAD_REACTORS
330
9561
102
}
330
9561
100
AcDbZombieObject
 90
      499
 91
      510
 93
      121
310
905313A3130304000000000000594000
  0
ACAD_PROXY_OBJECT
  5
956E
102
{ACAD_REACTORS
330
9561
102
}
330
9561
100
AcDbZombieObject
 90
      499
 91
      510
 93
      105
310
903323A310000000000000010100
  0
ACAD_PROXY_OBJECT
  5
956F
102
{ACAD_REACTORS
330
9561
102
}
330
9561
100
AcDbZombieObject
 90
      499
 91
      510
 93
      105
310
903343A310000000000000410100
  0
ACAD_PROXY_OBJECT
  5
9570
102
{ACAD_REACTORS
330
9561
102
}
330
9561
100
AcDbZombieObject
 90
      499
 91
      510
 93
      105
310
903383A310000000000000810100
  0
ACAD_PROXY_OBJECT
  5
9571
102
{ACAD_REACTORS
330
9561
102
}
330
9561
100
AcDbZombieObject
 90
      499
 91
      510
 93
      113
310
90431303A310000000000000910100
  0
ACAD_PROXY_OBJECT
  5
9572
102
{ACAD_REACTORS
330
9561
102
}
330
9561
100
AcDbZombieObject
 90
      499
 91
      510
 93
      121
310
9053130303A310000000000001650100
  0
ACAD_PROXY_OBJECT
  5
9573
102
{ACAD_REACTORS
330
9561
102
}
330
9561
100
AcDbZombieObject
 90
      499
 91
      510
 93
      257
310
90E312F31323822203D2031272D3022000000000000200FC000000000000284000
  0
ACAD_PROXY_OBJECT
  5
9574
102
{ACAD_REACTORS
330
9561
102
}
330
9561
100
AcDbZombieObject
 90
      499
 91
      510
 93
      249
310
90D312F363422203D2031272D3022000000000000240FC000000000000284000
  0
ACAD_PROXY_OBJECT
  5
9575
102
{ACAD_REACTORS
330
9561
102
}
330
9561
100
AcDbZombieObject
 90
      499
 91
      510
 93
      249
310
90D312F333222203D2031272D3022000000000000280FC000000000000284000
  0
ACAD_PROXY_OBJECT
  5
9576
102
{ACAD_REACTORS
330
9561
102
}
330
9561
100
AcDbZombieObject
 90
      499
 91
      510
 93
      249
310
90D312F313622203D2031272D30220000000000002C0FC000000000000284000
  0
ACAD_PROXY_OBJECT
  5
9577
102
{ACAD_REACTORS
330
9561
102
}
330
9561
100
AcDbZombieObject
 90
      499
 91
      510
 93
      249
310
90D332F333222203D2031272D30220000000000002E0FC000000000000284000
  0
ACAD_PROXY_OBJECT
  5
9578
102
{ACAD_REACTORS
330
9561
102
}
330
9561
100
AcDbZombieObject
 90
      499
 91
      510
 93
      241
310
90C312F3822203D2031272D3022000000000000300FC000000000000284000
  0
ACAD_PROXY_OBJECT
  5
9579
102
{ACAD_REACTORS
330
9561
102
}
330
9561
100
AcDbZombieObject
 90
      499
 91
      510
 93
      249
310
90D332F313622203D2031272D3022000000000000320FC000000000000284000
  0
ACAD_PROXY_OBJECT
  5
957A
102
{ACAD_REACTORS
330
9561
102
}
330
9561
100
AcDbZombieObject
 90
      499
 91
      510
 93
      241
310
90C312F3422203D2031272D3022000000000000340FC000000000000284000
  0
ACAD_PROXY_OBJECT
  5
957B
102
{ACAD_REACTORS
330
9561
102
}
330
9561
100
AcDbZombieObject
 90
      499
 91
      510
 93
      241
310
90C332F3822203D2031272D3022000000000000360FC000000000000284000
  0
ACAD_PROXY_OBJECT
  5
957C
102
{ACAD_REACTORS
330
9561
102
}
330
9561
100
AcDbZombieObject
 90
      499
 91
      510
 93
      241
310
90C312F3222203D2031272D3022000000000000380FC000000000000284000
  0
ACAD_PROXY_OBJECT
  5
957D
102
{ACAD_REACTORS
330
9561
102
}
330
9561
100
AcDbZombieObject
 90
      499
 91
      510
 93
      241
310
90C332F3422203D2031272D30220000000000003A0FC000000000000284000
  0
ACAD_PROXY_OBJECT
  5
957E
102
{ACAD_REACTORS
330
9561
102
}
330
9561
100
AcDbZombieObject
 90
      499
 91
      510
 93
      161
310
90A3122203D2031272D30224000000000000284000
  0
ACAD_PROXY_OBJECT
  5
957F
102
{ACAD_REACTORS
330
9561
102
}
330
9561
100
AcDbZombieObject
 90
      499
 91
      510
 93
      257
310
90E312D312F3222203D2031272D30220000000000003E0FC000000000000284000
  0
ACAD_PROXY_OBJECT
  5
9580
102
{ACAD_REACTORS
330
9561
102
}
330
9561
100
AcDbZombieObject
 90
      499
 91
      510
 93
      225
310
90A3322203D2031272D302200000000000002100000000000000284000
  0
ACAD_PROXY_OBJECT
  5
9581
102
{ACAD_REACTORS
330
9561
102
}
330
9561
100
AcDbZombieObject
 90
      499
 91
      510
 93
      225
310
90A3622203D2031272D302200000000000006100000000000000284000
  0
ACAD_PROXY_OBJECT
  5
9582
102
{ACAD_REACTORS
330
9561
102
}
330
9561
100
AcDbZombieObject
 90
      499
 91
      510
 93
      249
310
90D31272D3022203D2031272D30220000000000000A100000000000000284000
  0
ACAD_PROXY_OBJECT
  5
9556
102
{ACAD_REACTORS
330
9550
102
}
330
9550
100
AcDbZombieObject
 90
      499
 91
      509
 93
      436
310
42CC9915DA5C99599C985B595049028333333333333E3BF0000000000000FB0107901411070040501600405405064090741402480A0340
1001
ACAD
1000
AcDbSavedByObjectVersion
1070
     0
  0
ACAD_PROXY_OBJECT
  5
9558
102
{ACAD_REACTORS
330
9550
102
}
330
9550
100
AcDbZombieObject
 90
      499
 91
      509
 93
      500
310
424CD108121A5919195B90640502408333333333333E3BF0000000000000FB01079024090700405020000000000001110200405405064090740C02480A0340
1001
ACAD
1000
AcDbSavedByObjectVersion
1070
     0
  0
ACAD_PROXY_OBJECT
  5
9557
102
{ACAD_REACTORS
330
9550
102
}
330
9550
100
AcDbZombieObject
 90
      499
 91
      509
 93
      436
310
42CCD915DA5C99599C985B595059028333333333333E3BF0000000000000FB0107901411070040501600405405064090741402480A0340
1001
ACAD
1000
AcDbSavedByObjectVersion
1070
     0
  0
ACAD_PROXY_OBJECT
  5
9555
102
{ACAD_REACTORS
330
9550
102
}
330
9550
100
AcDbZombieObject
 90
      499
 91
      509
 93
      388
310
4150985CDA58D07406404333333333333E3BF0000000000000FB0107A41107004050150841D405064090741402480A0350
1001
ACAD
1000
AcDbSavedByObjectVersion
1070
     0
  0
ACAD_PROXY_OBJECT
  5
955C
102
{ACAD_REACTORS
330
9550
102
}
330
9550
100
AcDbZombieObject
 90
      499
 91
      509
 93
      428
310
42109C9A59DA1D195B90C409028333333333333E3BF0000000000000FB010790141107004050150841D405064090741402480A029950
1001
ACAD
1000
AcDbSavedByObjectVersion
1070
     0
  0
ACAD_PROXY_OBJECT
  5
9560
102
{ACAD_REACTORS
330
9550
102
}
330
9550
100
AcDbZombieObject
 90
      499
 91
      509
 93
      452
310
42D0DBDB1BDC90DA185B99D95104090240C333333333333E3BF0000000000000FB0108901411070040501508421405064090741402480A0350
1001
ACAD
1000
AcDbSavedByObjectVersion
1070
     0
  0
ACAD_PROXY_OBJECT
  5
9559
102
{ACAD_REACTORS
330
9550
102
}
330
9550
100
AcDbZombieObject
 90
      499
 91
      509
 93
      500
310
4290DBDB98D95C1D1D585B10940D028333333333333E3BF0000000000000FB0107902409070040501000000000000111010841D405064090740C02480A0340
1001
ACAD
1000
AcDbSavedByObjectVersion
1070
     0
  0
ACAD_PROXY_OBJECT
  5
955B
102
{ACAD_REACTORS
330
9550
102
}
330
9550
100
AcDbZombieObject
 90
      499
 91
      509
 93
      412
310
40D11A5B50B409028333333333333E3BF0000000000000FB010790141107004050150841D405064090741402480A02677FFFFFD0
1001
ACAD
1000
AcDbSavedByObjectVersion
1070
     0
  0
ACAD_PROXY_OBJECT
  5
A211
102
{ACAD_REACTORS
330
9550
102
}
330
9550
100
AcDbZombieObject
 90
      499
 91
      509
 93
      452
310
43115919D950DBDB1BDC93D999916409028333333333333E3BF0000000000000FB010790141107004050150841D405064090741402480A0350
1001
ACAD
1000
AcDbSavedByObjectVersion
1070
     0
  0
ACAD_PROXY_OBJECT
  5
955F
102
{ACAD_REACTORS
330
9550
102
}
330
9550
100
AcDbZombieObject
 90
      499
 91
      509
 93
      444
310
42D19858D95C185D1D195C9B90F409028333333333333E3BF0000000000000FB010790141107004050150841D405064090741402480A0350
1001
ACAD
1000
AcDbSavedByObjectVersion
1070
     0
  0
ACAD_PROXY_OBJECT
  5
9551
102
{ACAD_REACTORS
330
9550
102
}
330
9550
100
AcDbZombieObject
 90
      499
 91
      509
 93
      388
310
41119B185D240901404333333333333E3BF0000000000000F9010740A41107004050150841D405064090741402480A1B50
1001
ACAD
1000
AcDbSavedByObjectVersion
1070
     0
  0
ACAD_PROXY_OBJECT
  5
9552
102
{ACAD_REACTORS
330
9550
102
}
330
9550
100
AcDbZombieObject
 90
      499
 91
      509
 93
      476
310
43519B185D15DA5D1A115919D95CD0140901404333333333333E3BF0000000000000F9010740901411070040501600405405064090741402480A1B50
1001
ACAD
1000
AcDbSavedByObjectVersion
1070
     0
  0
ACAD_PROXY_OBJECT
  5
9553
102
{ACAD_REACTORS
330
9550
102
}
330
9550
100
AcDbZombieObject
 90
      499
 91
      509
 93
      412
310
41D1DBDD5C985D5910240902404333333333333E3BF0000000000000F9010740A411070040501641D405064090741402480A1B50
1001
ACAD
1000
AcDbSavedByObjectVersion
1070
     0
  0
ACAD_PROXY_OBJECT
  5
9554
102
{ACAD_REACTORS
330
9550
102
}
330
9550
100
AcDbZombieObject
 90
      499
 91
      509
 93
      500
310
4411DBDD5C985D5915DA5D1A115919D95CD0340902404333333333333E3BF0000000000000F9010740901411070040501600405405064090741402480A1B50
1001
ACAD
1000
AcDbSavedByObjectVersion
1070
     0
  0
ACAD_PROXY_OBJECT
  5
A260
102
{ACAD_REACTORS
330
9550
102
}
330
9550
100
AcDbZombieObject
 90
      499
 91
      509
 93
      476
310
41921A5919195B90640502408333333333333E3BF0000000000000FB01079024090700405020000000000001110200405405064090740C02480A0340
1001
ACAD
1000
AcDbSavedByObjectVersion
1070
     0
  0
ACAD_PROXY_OBJECT
  5
A20F
102
{ACAD_REACTORS
330
9550
102
}
330
9550
100
AcDbZombieObject
 90
      499
 91
      509
 93
      428
310
42529A5D1D195C93D999914409028333333333333E3BF0000000000000FB010790141107004050150A41D405064090741402480A0350
1001
ACAD
1000
AcDbSavedByObjectVersion
1070
     0
  0
ACAD_PROXY_OBJECT
  5
955E
102
{ACAD_REACTORS
330
9550
102
}
330
9550
100
AcDbZombieObject
 90
      499
 91
      509
 93
      444
310
42D31A5B995C185D1D195C9B90E409028333333333333E3BF0000000000000FB010790141107004050750841D405064090741402483A0350
1001
ACAD
1000
AcDbSavedByObjectVersion
1070
     0
  0
ACAD_PROXY_OBJECT
  5
A266
102
{ACAD_REACTORS
330
9550
102
}
330
9550
100
AcDbZombieObject
 90
      499
 91
      509
 93
      484
310
42135BD9195B1A5B99D0A409028333333333333E3BF0000000000000F901074090290700405010000000000201990108421405064090741402480A1B40
1001
ACAD
1000
AcDbSavedByObjectVersion
1070
     0
  0
ACAD_PROXY_OBJECT
  5
A210
102
{ACAD_REACTORS
330
9550
102
}
330
9550
100
AcDbZombieObject
 90
      499
 91
      509
 93
      444
310
42D3DD995C9A185B99D3D999915409028333333333333E3BF0000000000000FB010790141107004050150941D405064090741402480A0350
1001
ACAD
1000
AcDbSavedByObjectVersion
1070
     0
  0
ACAD_PROXY_OBJECT
  5
955A
102
{ACAD_REACTORS
330
9550
102
}
330
9550
100
AcDbZombieObject
 90
      499
 91
      509
 93
      420
310
425499585B1A5CDD1A58D08409028333333333333E3BF0000000000000FB01079019070040501508421405064090741402480A1B40
1001
ACAD
1000
AcDbSavedByObjectVersion
1070
     0
  0
ACAD_PROXY_OBJECT
  5
A265
102
{ACAD_REACTORS
330
9550
102
}
330
9550
100
AcDbZombieObject
 90
      499
 91
      509
 93
      420
310
4194DA1859195911B40902404333333333333E3BF0000000000000F9010740A41107004050150800405405064090840C02480A0B40
1001
ACAD
1000
AcDbSavedByObjectVersion
1070
     0
  0
ACAD_PROXY_OBJECT
  5
A264
102
{ACAD_REACTORS
330
9550
102
}
330
9550
100
AcDbZombieObject
 90
      499
 91
      509
 93
      516
310
4454DA18591959081DDA5D1A08195919D95CD1A40902404333333333333E3BF0000000000000F901074090142907004050250800405405064090740C02480A0B40
1001
ACAD
1000
AcDbSavedByObjectVersion
1070
     0
  0
ACAD_PROXY_OBJECT
  5
A261
102
{ACAD_REACTORS
330
9550
102
}
330
9550
100
AcDbZombieObject
 90
      499
 91
      509
 93
      532
310
4394DA1859195CC81BD98811DC985E5174090240C333333333333E3BF0000000000000FB01079024090741D01000000000000111010841D405064090740C02480A0340
1001
ACAD
1000
AcDbSavedByObjectVersion
1070
     0
  0
ACAD_PROXY_OBJECT
  5
A262
102
{ACAD_REACTORS
330
9550
102
}
330
9550
100
AcDbZombieObject
 90
      499
 91
      509
 93
      476
310
41D4DAD95D18DA1E51840502408333333333333E3BF0000000000000FB01079024090741D01000000000000111010B41D405064090741802480A0340
1001
ACAD
1000
AcDbSavedByObjectVersion
1070
     0
  0
ACAD_PROXY_OBJECT
  5
955D
102
{ACAD_REACTORS
330
9550
102
}
330
9550
100
AcDbZombieObject
 90
      499
 91
      509
 93
      412
310
41D51A1A58DAD95B90D409028333333333333E3BF0000000000000FB010790141107004050150C41D405064090741402480A0350
1001
ACAD
1000
AcDbSavedByObjectVersion
1070
     0
  0
ACAD_PROXY_OBJECT
  5
A25F
102
{ACAD_REACTORS
330
9550
102
}
330
9550
100
AcDbZombieObject
 90
      499
 91
      509
 93
      420
310
4255DA5C99599C985B595059028333333333333E3BF0000000000000FB0107901411070040501600405405064090740C02480A0340
1001
ACAD
1000
AcDbSavedByObjectVersion
1070
     0
  0
ACAD_PROXY_OBJECT
  5
A263
102
{ACAD_REACTORS
330
9550
102
}
330
9550
100
AcDbZombieObject
 90
      499
 91
      509
 93
      404
310
41560B54985E51940902404000000000000E03F0000000000000FB010740501907004050150841D405064090740C02480A1B40
1001
ACAD
1000
AcDbSavedByObjectVersion
1070
     0
  0
XRECORD
  5
1174F
102
{ACAD_REACTORS
330
1174E
102
}
330
1174E
100
AcDbXrecord
340
18D
  0
XRECORD
  5
11750
102
{ACAD_REACTORS
330
1174E
102
}
330
1174E
100
AcDbXrecord
340
18C
  0
DICTIONARYVAR
  5
AAE0
102
{ACAD_REACTORS
330
37
102
}
330
37
100
DictionaryVariables
280
     0
  1
1:1
  0
DICTIONARYVAR
  5
9627
102
{ACAD_REACTORS
330
37
102
}
330
37
100
DictionaryVariables
280
     0
  1
Standard
  0
DICTIONARYVAR
  5
29E
102
{ACAD_REACTORS
330
37
102
}
330
37
100
DictionaryVariables
280
     0
  1
Standard
  0
DICTIONARYVAR
  5
38
102
{ACAD_REACTORS
330
37
102
}
330
37
100
DictionaryVariables
280
     0
  1
-1
  0
DICTIONARYVAR
  5
1CE
102
{ACAD_REACTORS
330
37
102
}
330
37
100
DictionaryVariables
280
     0
  1
2
  0
DICTIONARYVAR
  5
704E
102
{ACAD_REACTORS
330
37
102
}
330
37
100
DictionaryVariables
280
     0
  1
1
  0
DICTIONARYVAR
  5
962A
102
{ACAD_REACTORS
330
37
102
}
330
37
100
DictionaryVariables
280
     0
  1
0
  0
DICTIONARYVAR
  5
7052
102
{ACAD_REACTORS
330
37
102
}
330
37
100
DictionaryVariables
280
     0
  1
8
  0
DICTIONARYVAR
  5
7051
102
{ACAD_REACTORS
330
37
102
}
330
37
100
DictionaryVariables
280
     0
  1
1
  0
DICTIONARYVAR
  5
AB30
102
{ACAD_REACTORS
330
37
102
}
330
37
100
DictionaryVariables
280
     0
  1
0
  0
DICTIONARYVAR
  5
704F
102
{ACAD_REACTORS
330
37
102
}
330
37
100
DictionaryVariables
280
     0
  1
8
  0
DICTIONARYVAR
  5
7050
102
{ACAD_REACTORS
330
37
102
}
330
37
100
DictionaryVariables
280
     0
  1
2
  0
DICTIONARYVAR
  5
1CF
102
{ACAD_REACTORS
330
37
102
}
330
37
100
DictionaryVariables
280
     0
  1

  0
DICTIONARYVAR
  5
9629
102
{ACAD_REACTORS
330
37
102
}
330
37
100
DictionaryVariables
280
     0
  1
127
  0
DICTIONARYVAR
  5
1157D
102
{ACAD_REACTORS
330
37
102
}
330
37
100
DictionaryVariables
280
     0
  1
2
  0
DICTIONARY
  5
118EC
330
9540
100
AcDbDictionary
  3
ACAD_XREC_ROUNDTRIP
360
118ED
1001
ACAD
1000
TREAT_AS_HARD
1070
     1
  0
DICTIONARY
  5
118EE
330
9538
100
AcDbDictionary
  3
ACAD_XREC_ROUNDTRIP
360
118EF
1001
ACAD
1000
TREAT_AS_HARD
1070
     1
  0
DICTIONARY
  5
118F0
330
9548
100
AcDbDictionary
  3
ACAD_XREC_ROUNDTRIP
360
118F1
1001
ACAD
1000
TREAT_AS_HARD
1070
     1
  0
XRECORD
  5
118ED
102
{ACAD_REACTORS
330
118EC
102
}
330
118EC
100
AcDbXrecord
102
MATERIAL
148
0.0
149
0.0
149
0.0
 93
        0
 94
      127
282
     0
 72
     0
 77
     0
171
     0
175
     0
179
     0
273
     0
  0
XRECORD
  5
118EF
102
{ACAD_REACTORS
330
118EE
102
}
330
118EE
100
AcDbXrecord
102
MATERIAL
148
0.0
149
0.0
149
0.0
 93
        0
 94
      127
282
     0
 72
     0
 77
     0
171
     0
175
     0
179
     0
273
     0
  0
XRECORD
  5
118F1
102
{ACAD_REACTORS
330
118F0
102
}
330
118F0
100
AcDbXrecord
102
MATERIAL
148
0.0
149
0.0
149
0.0
 93
        0
 94
      127
282
     0
 72
     0
 77
     0
171
     0
175
     0
179
     0
273
     0
  0
ENDSEC
  0
EOF
