  0
SECTION
  2
HEADER
  9
$ACADVER
  1
AC1012
  9
$DWGCODEPAGE
  3
ansi_932
  9
$INSBASE
 10
0.0
 20
0.0
 30
0.0
  9
$EXTMIN
 10
6972.375324355964
 20
1236.185154360875
 30
0.0
  9
$EXTMAX
 10
7598.376839840122
 20
1662.206115815182
 30
0.0000000001127424
  9
$LIMMIN
 10
0.0
 20
0.0
  9
$LIMMAX
 10
420.0
 20
297.0
  9
$ORTHOMODE
 70
     0
  9
$REGENMODE
 70
     1
  9
$FILLMODE
 70
     1
  9
$QTEXTMODE
 70
     0
  9
$MIRRTEXT
 70
     0
  9
$DRAGMODE
 70
     2
  9
$LTSCALE
 40
0.5
  9
$OSMODE
 70
 16383
  9
$ATTMODE
 70
     1
  9
$TEXTSIZE
 40
4.0
  9
$TRACEWID
 40
1.0
  9
$TEXTSTYLE
  7
STANDARD
  9
$CLAYER
  8
1TEXT
  9
$CELTYPE
  6
BYLAYER
  9
$CECOLOR
 62
   256
  9
$CELTSCALE
 40
1.0
  9
$DELOBJ
 70
     1
  9
$DISPSILH
 70
     0
  9
$DIMSCALE
 40
1.0
  9
$DIMASZ
 40
2.0
  9
$DIMEXO
 40
0.0
  9
$DIMDLI
 40
7.0
  9
$DIMRND
 40
0.0
  9
$DIMDLE
 40
0.0
  9
$DIMEXE
 40
1.0
  9
$DIMTP
 40
0.0
  9
$DIMTM
 40
0.0
  9
$DIMTXT
 40
3.5
  9
$DIMCEN
 40
0.0
  9
$DIMTSZ
 40
0.0
  9
$DIMTOL
 70
     0
  9
$DIMLIM
 70
     0
  9
$DIMTIH
 70
     0
  9
$DIMTOH
 70
     0
  9
$DIMSE1
 70
     0
  9
$DIMSE2
 70
     0
  9
$DIMTAD
 70
     1
  9
$DIMZIN
 70
     8
  9
$DIMBLK
  1

  9
$DIMASO
 70
     1
  9
$DIMSHO
 70
     1
  9
$DIMPOST
  1
 
  9
$DIMAPOST
  1

  9
$DIMALT
 70
     0
  9
$DIMALTD
 70
     2
  9
$DIMALTF
 40
25.4
  9
$DIMLFAC
 40
1.0
  9
$DIMTOFL
 70
     1
  9
$DIMTVP
 40
0.0
  9
$DIMTIX
 70
     0
  9
$DIMSOXD
 70
     0
  9
$DIMSAH
 70
     1
  9
$DIMBLK1
  1
OPEN30
  9
$DIMBLK2
  1
OPEN30
  9
$DIMSTYLE
  2
NEWX10
  9
$DIMCLRD
 70
   256
  9
$DIMCLRE
 70
   256
  9
$DIMCLRT
 70
   201
  9
$DIMTFAC
 40
0.7
  9
$DIMGAP
 40
0.7
  9
$DIMJUST
 70
     0
  9
$DIMSD1
 70
     0
  9
$DIMSD2
 70
     0
  9
$DIMTOLJ
 70
     1
  9
$DIMTZIN
 70
     8
  9
$DIMALTZ
 70
     0
  9
$DIMALTTZ
 70
     0
  9
$DIMFIT
 70
     2
  9
$DIMUPT
 70
     0
  9
$DIMUNIT
 70
     2
  9
$DIMDEC
 70
     2
  9
$DIMTDEC
 70
     4
  9
$DIMALTU
 70
     2
  9
$DIMALTTD
 70
     2
  9
$DIMTXSTY
  7
STANDARD
  9
$DIMAUNIT
 70
     0
  9
$LUNITS
 70
     2
  9
$LUPREC
 70
     4
  9
$SKETCHINC
 40
1.0
  9
$FILLETRAD
 40
0.0
  9
$AUNITS
 70
     0
  9
$AUPREC
 70
     2
  9
$MENU
  1
acad
  9
$ELEVATION
 40
0.0
  9
$PELEVATION
 40
0.0
  9
$THICKNESS
 40
0.0
  9
$LIMCHECK
 70
     0
  9
$CHAMFERA
 40
10.0
  9
$CHAMFERB
 40
10.0
  9
$CHAMFERC
 40
20.0
  9
$CHAMFERD
 40
0.0
  9
$SKPOLY
 70
     0
  9
$TDCREATE
 40
2451318.621352917
  9
$TDUPDATE
 40
2458967.570479479
  9
$TDINDWG
 40
1.487274838
  9
$TDUSRTIMER
 40
1.487274838
  9
$USRTIMER
 70
     1
  9
$ANGBASE
 50
0.0
  9
$ANGDIR
 70
     0
  9
$PDMODE
 70
     0
  9
$PDSIZE
 40
0.0
  9
$PLINEWID
 40
0.0
  9
$COORDS
 70
     2
  9
$SPLFRAME
 70
     0
  9
$SPLINETYPE
 70
     6
  9
$SPLINESEGS
 70
     8
  9
$ATTDIA
 70
     0
  9
$ATTREQ
 70
     1
  9
$HANDLING
 70
     1
  9
$HANDSEED
  5
11970
  9
$SURFTAB1
 70
     6
  9
$SURFTAB2
 70
     6
  9
$SURFTYPE
 70
     6
  9
$SURFU
 70
     6
  9
$SURFV
 70
     6
  9
$UCSNAME
  2

  9
$UCSORG
 10
0.0
 20
0.0
 30
0.0
  9
$UCSXDIR
 10
1.0
 20
0.0
 30
0.0
  9
$UCSYDIR
 10
0.0
 20
1.0
 30
0.0
  9
$PUCSNAME
  2

  9
$PUCSORG
 10
0.0
 20
0.0
 30
0.0
  9
$PUCSXDIR
 10
1.0
 20
0.0
 30
0.0
  9
$PUCSYDIR
 10
0.0
 20
1.0
 30
0.0
  9
$USERI1
 70
     0
  9
$USERI2
 70
     0
  9
$USERI3
 70
     0
  9
$USERI4
 70
     0
  9
$USERI5
 70
     0
  9
$USERR1
 40
0.0
  9
$USERR2
 40
0.0
  9
$USERR3
 40
0.0
  9
$USERR4
 40
0.0
  9
$USERR5
 40
0.0
  9
$WORLDVIEW
 70
     1
  9
$SHADEDGE
 70
     3
  9
$SHADEDIF
 70
    70
  9
$TILEMODE
 70
     1
  9
$MAXACTVP
 70
    48
  9
$PINSBASE
 10
0.0
 20
0.0
 30
0.0
  9
$PLIMCHECK
 70
     0
  9
$PEXTMIN
 10
1.000000000000000E+20
 20
1.000000000000000E+20
 30
1.000000000000000E+20
  9
$PEXTMAX
 10
-1.000000000000000E+20
 20
-1.000000000000000E+20
 30
-1.000000000000000E+20
  9
$PLIMMIN
 10
0.0
 20
0.0
  9
$PLIMMAX
 10
420.0
 20
297.0
  9
$UNITMODE
 70
     0
  9
$VISRETAIN
 70
     1
  9
$PLINEGEN
 70
     0
  9
$PSLTSCALE
 70
     1
  9
$TREEDEPTH
 70
  3020
  9
$PICKSTYLE
 70
     0
  9
$CMLSTYLE
  2
STANDARD
  9
$CMLJUST
 70
     0
  9
$CMLSCALE
 40
20.0
  9
$SAVEIMAGES
 70
     1
  0
ENDSEC
  0
SECTION
  2
CLASSES
  0
CLASS
  1
DICTIONARYVAR
  2
AcDbDictionaryVar
  3
ObjectDBX Classes
 90
        0
280
     0
281
     0
  0
CLASS
  1
IDBUFFER
  2
AcDbIdBuffer
  3
ObjectDBX Classes
 90
    32768
280
     0
281
     0
  0
CLASS
  1
LWPOLYLINE
  2
AcDbPolyline
  3
ObjectDBX Classes
 90
    32768
280
     0
281
     1
  0
CLASS
  1
ACDBDICTIONARYWDFLT
  2
AcDbDictionaryWithDefault
  3
ObjectDBX Classes
 90
    32768
280
     0
281
     0
  0
CLASS
  1
ACDBPLACEHOLDER
  2
AcDbPlaceHolder
  3
ObjectDBX Classes
 90
        0
280
     0
281
     0
  0
CLASS
  1
LAYOUT
  2
AcDbLayout
  3
ObjectDBX Classes
 90
        0
280
     0
281
     0
  0
CLASS
  1
TABLESTYLE
  2
AcDbTableStyle
  3
ObjectDBX Classes
 90
     4095
280
     0
281
     0
  0
CLASS
  1
SORTENTSTABLE
  2
AcDbSortentsTable
  3
ObjectDBX Classes
 90
    32768
280
     0
281
     0
  0
CLASS
  1
MATERIAL
  2
AcDbMaterial
  3
ObjectDBX Classes
 90
     1153
280
     0
281
     0
  0
CLASS
  1
VISUALSTYLE
  2
AcDbVisualStyle
  3
ObjectDBX Classes
 90
     4095
280
     0
281
     0
  0
CLASS
  1
SCALE
  2
AcDbScale
  3
ObjectDBX Classes
 90
     1153
280
     0
281
     0
  0
CLASS
  1
MLEADERSTYLE
  2
AcDbMLeaderStyle
  3
ACDB_MLEADERSTYLE_CLASS
 90
     4095
280
     0
281
     0
  0
CLASS
  1
CELLSTYLEMAP
  2
AcDbCellStyleMap
  3
ObjectDBX Classes
 90
     1152
280
     0
281
     0
  0
CLASS
  1
SUN
  2
AcDbSun
  3
SCENEOE
 90
     1153
280
     0
281
     0
  0
CLASS
  1
XRECORD
  2
AcDbXrecord
  3
ObjectDBX Classes
 90
    32768
280
     0
281
     0
  0
CLASS
  1
HATCH
  2
AcDbHatch
  3
ObjectDBX Classes
 90
    32768
280
     0
281
     1
  0
ENDSEC
  0
SECTION
  2
TABLES
  0
TABLE
  2
VPORT
  5
8
330
0
100
AcDbSymbolTable
 70
     1
  0
VPORT
  5
952D
330
8
100
AcDbSymbolTableRecord
100
AcDbViewportTableRecord
  2
*ACTIVE
 70
     0
 10
0.0
 20
0.0
 11
1.0
 21
1.0
 12
7285.376082098042
 22
1449.195635088029
 13
0.0
 23
0.0
 14
10.0
 24
10.0
 15
10.0
 25
10.0
 16
0.0
 26
0.0
 36
1.0
 17
0.0
 27
0.0
 37
0.0
 40
457.41197966673
 41
1.803066037735849
 42
50.0
 43
0.0
 44
0.0
 50
0.0
 51
0.0
 71
    16
 72
   100
 73
     1
 74
     1
 75
     0
 76
     0
 77
     0
 78
     0
1001
ACAD_NAV_VCDISPLAY
1070
     3
  0
ENDTAB
  0
TABLE
  2
LTYPE
  5
5
330
0
100
AcDbSymbolTable
 70
     2
  0
LTYPE
  5
12
330
5
100
AcDbSymbolTableRecord
100
AcDbLinetypeTableRecord
  2
BYBLOCK
 70
     0
  3

 72
    65
 73
     0
 40
0.0
  0
LTYPE
  5
13
330
5
100
AcDbSymbolTableRecord
100
AcDbLinetypeTableRecord
  2
BYLAYER
 70
     0
  3

 72
    65
 73
     0
 40
0.0
  0
LTYPE
  5
14
330
5
100
AcDbSymbolTableRecord
100
AcDbLinetypeTableRecord
  2
CONTINUOUS
 70
     0
  3
Solid line
 72
    65
 73
     0
 40
0.0
  0
LTYPE
  5
9837
330
5
100
AcDbSymbolTableRecord
100
AcDbLinetypeTableRecord
  2
CENTER2
 70
     0
  3
Center (.5x) ___ _ ___ _ ___ _ ___ _ ___ _ ___
 72
    65
 73
     4
 40
28.575
 49
19.05
 74
     0
 49
-3.175
 74
     0
 49
3.175
 74
     0
 49
-3.175
 74
     0
  0
ENDTAB
  0
TABLE
  2
LAYER
  5
2
102
{ACAD_XDICTIONARY
360
96D9
102
}
330
0
100
AcDbSymbolTable
 70
     5
  0
LAYER
  5
E
102
{ACAD_XDICTIONARY
360
9593
102
}
330
2
100
AcDbSymbolTableRecord
100
AcDbLayerTableRecord
  2
0
 70
     0
 62
     7
  6
CONTINUOUS
  0
LAYER
  5
29
102
{ACAD_XDICTIONARY
360
9595
102
}
330
2
100
AcDbSymbolTableRecord
100
AcDbLayerTableRecord
  2
1CENTER
 70
     0
 62
     7
  6
CENTER2
  0
LAYER
  5
31
102
{ACAD_XDICTIONARY
360
9597
102
}
330
2
100
AcDbSymbolTableRecord
100
AcDbLayerTableRecord
  2
1TEXT
 70
     0
 62
     7
  6
CONTINUOUS
  0
LAYER
  5
243
102
{ACAD_XDICTIONARY
360
959D
102
}
330
2
100
AcDbSymbolTableRecord
100
AcDbLayerTableRecord
  2
01
 70
     0
 62
     1
  6
CONTINUOUS
  0
LAYER
  5
24E
102
{ACAD_XDICTIONARY
360
95A3
102
}
330
2
100
AcDbSymbolTableRecord
100
AcDbLayerTableRecord
  2
1DIM
 70
     0
 62
     7
  6
CONTINUOUS
  0
ENDTAB
  0
TABLE
  2
STYLE
  5
3
330
0
100
AcDbSymbolTable
 70
     1
  0
STYLE
  5
F
330
3
100
AcDbSymbolTableRecord
100
AcDbTextStyleTableRecord
  2
STANDARD
 70
     0
 40
0.0
 41
1.0
 50
0.0
 71
     0
 42
4.0
  3
txt.shx
  4
extfont.shx
  0
ENDTAB
  0
TABLE
  2
VIEW
  5
6
330
0
100
AcDbSymbolTable
 70
     0
  0
ENDTAB
  0
TABLE
  2
UCS
  5
7
330
0
100
AcDbSymbolTable
 70
     0
  0
ENDTAB
  0
TABLE
  2
APPID
  5
9
330
0
100
AcDbSymbolTable
 70
    15
  0
APPID
  5
10
330
9
100
AcDbSymbolTableRecord
100
AcDbRegAppTableRecord
  2
ACAD
 70
     0
  0
APPID
  5
21
330
9
100
AcDbSymbolTableRecord
100
AcDbRegAppTableRecord
  2
DRAWINGVARIABLESXDATA
 70
     0
  0
APPID
  5
64
330
9
100
AcDbSymbolTableRecord
100
AcDbRegAppTableRecord
  2
CONTENTTABDATA
 70
     0
  0
APPID
  5
65
330
9
100
AcDbSymbolTableRecord
100
AcDbRegAppTableRecord
  2
CONTENTCURRENTTAB
 70
     0
  0
APPID
  5
66
330
9
100
AcDbSymbolTableRecord
100
AcDbRegAppTableRecord
  2
CONTENTBLOCKDESCRIPTION
 70
     0
  0
APPID
  5
67
330
9
100
AcDbSymbolTableRecord
100
AcDbRegAppTableRecord
  2
CONTENTBLOCKICON
 70
     0
  0
APPID
  5
68
330
9
100
AcDbSymbolTableRecord
100
AcDbRegAppTableRecord
  2
CONTENTLONGBLOCKNAME
 70
     0
  0
APPID
  5
2AE
330
9
100
AcDbSymbolTableRecord
100
AcDbRegAppTableRecord
  2
ACAD_PSEXT
 70
     0
  0
APPID
  5
9585
330
9
100
AcDbSymbolTableRecord
100
AcDbRegAppTableRecord
  2
ACAD_MLEADERVER
 70
     0
  0
APPID
  5
A2E3
330
9
100
AcDbSymbolTableRecord
100
AcDbRegAppTableRecord
  2
ACADANNOTATIVE
 70
     0
  0
APPID
  5
A2E4
330
9
100
AcDbSymbolTableRecord
100
AcDbRegAppTableRecord
  2
ACDBBLOCKREPETAG
 70
     0
  0
APPID
  5
AEB1
330
9
100
AcDbSymbolTableRecord
100
AcDbRegAppTableRecord
  2
ACAD_NAV_VCDISPLAY
 70
     0
  0
APPID
  5
B6A4
330
9
100
AcDbSymbolTableRecord
100
AcDbRegAppTableRecord
  2
ACAECLAYERSTANDARD
 70
     0
  0
APPID
  5
E1EF
330
9
100
AcDbSymbolTableRecord
100
AcDbRegAppTableRecord
  2
ACAD_EXEMPT_FROM_CAD_STAND
 70
     0
  0
APPID
  5
115EF
330
9
100
AcDbSymbolTableRecord
100
AcDbRegAppTableRecord
  2
ACAD_OBJECT_CHANGE_GUID
 70
     0
  0
ENDTAB
  0
TABLE
  2
DIMSTYLE
  5
A
330
0
100
AcDbSymbolTable
 70
     1
  0
DIMSTYLE
105
48
330
A
100
AcDbSymbolTableRecord
100
AcDbDimStyleTableRecord
  2
NEWX10
 70
     0
  3
 
  4

  5

  6
OPEN30
  7
OPEN30
 40
1.0
 41
2.0
 42
0.0
 43
7.0
 44
1.0
 45
0.0
 46
0.0
 47
0.0
 48
0.0
140
3.5
141
0.0
142
0.0
143
25.4
144
1.0
145
0.0
146
0.7
147
0.7
 71
     0
 72
     0
 73
     0
 74
     0
 75
     0
 76
     0
 77
     1
 78
     8
170
     0
171
     2
172
     1
173
     1
174
     0
175
     0
176
   256
177
   256
178
   201
179
     2
270
     2
271
     2
272
     4
273
     2
274
     2
340
F
275
     0
280
     0
281
     0
282
     0
283
     1
284
     8
285
     0
286
     0
287
     2
288
     0
  0
ENDTAB
  0
TABLE
  2
BLOCK_RECORD
  5
1
330
0
100
AcDbSymbolTable
 70
     8
  0
BLOCK_RECORD
  5
18
102
{ACAD_XDICTIONARY
360
88F
102
}
330
1
100
AcDbSymbolTableRecord
100
AcDbBlockTableRecord
  2
*MODEL_SPACE
  0
BLOCK_RECORD
  5
15
330
1
100
AcDbSymbolTableRecord
100
AcDbBlockTableRecord
  2
*PAPER_SPACE
  0
BLOCK_RECORD
  5
42
330
1
100
AcDbSymbolTableRecord
100
AcDbBlockTableRecord
  2
_OPEN30
  0
BLOCK_RECORD
  5
A333
330
1
100
AcDbSymbolTableRecord
100
AcDbBlockTableRecord
  2
A3WAKUKAWAJUN2017_HYOUDAI_
  0
BLOCK_RECORD
  5
117D0
330
1
100
AcDbSymbolTableRecord
100
AcDbBlockTableRecord
  2
*X22
  0
BLOCK_RECORD
  5
1181E
330
1
100
AcDbSymbolTableRecord
100
AcDbBlockTableRecord
  2
*X23
  0
BLOCK_RECORD
  5
11870
330
1
100
AcDbSymbolTableRecord
100
AcDbBlockTableRecord
  2
*X24
  0
BLOCK_RECORD
  5
118C1
330
1
100
AcDbSymbolTableRecord
100
AcDbBlockTableRecord
  2
*X25
  0
BLOCK_RECORD
  5
118FE
330
1
100
AcDbSymbolTableRecord
100
AcDbBlockTableRecord
  2
*X26
  0
BLOCK_RECORD
  5
1193E
330
1
100
AcDbSymbolTableRecord
100
AcDbBlockTableRecord
  2
*X27
  0
ENDTAB
  0
ENDSEC
  0
SECTION
  2
BLOCKS
  0
BLOCK
  5
19
330
18
100
AcDbEntity
  8
0
100
AcDbBlockBegin
  2
*MODEL_SPACE
 70
     0
 10
0.0
 20
0.0
 30
0.0
  3
*MODEL_SPACE
  1

  0
ENDBLK
  5
1A
330
18
100
AcDbEntity
  8
0
100
AcDbBlockEnd
  0
BLOCK
  5
16
330
15
100
AcDbEntity
 67
     1
  8
0
100
AcDbBlockBegin
  2
*PAPER_SPACE
 70
     0
 10
0.0
 20
0.0
 30
0.0
  3
*PAPER_SPACE
  1

  0
ENDBLK
  5
17
330
15
100
AcDbEntity
 67
     1
  8
0
100
AcDbBlockEnd
  0
BLOCK
  5
43
330
42
100
AcDbEntity
  8
0
100
AcDbBlockBegin
  2
_OPEN30
 70
     0
 10
0.0
 20
0.0
 30
0.0
  3
_OPEN30
  1

  0
LINE
  5
44
330
42
100
AcDbEntity
  8
0
  6
BYBLOCK
 62
     0
100
AcDbLine
 10
-1.0
 20
0.26794919
 30
0.0
 11
0.0
 21
0.0
 31
0.0
  0
LINE
  5
45
330
42
100
AcDbEntity
  8
0
  6
BYBLOCK
 62
     0
100
AcDbLine
 10
0.0
 20
0.0
 30
0.0
 11
-1.0
 21
-0.26794919
 31
0.0
  0
LINE
  5
46
330
42
100
AcDbEntity
  8
0
  6
BYBLOCK
 62
     0
100
AcDbLine
 10
0.0
 20
0.0
 30
0.0
 11
-1.0
 21
0.0
 31
0.0
  0
ENDBLK
  5
47
330
42
100
AcDbEntity
  8
0
100
AcDbBlockEnd
  0
BLOCK
  5
AA56
330
A333
100
AcDbEntity
  8
0
100
AcDbBlockBegin
  2
A3WAKUKAWAJUN2017_HYOUDAI_
 70
     0
 10
0.0
 20
0.0
 30
0.0
  3
A3WAKUKAWAJUN2017_HYOUDAI_
  1

  0
LINE
  5
A335
330
A333
100
AcDbEntity
  8
0
100
AcDbLine
 10
13.26299999998673
 20
-0.0001000000000317
 30
0.0
 11
9.236999999990758
 21
8.999899999990987
 31
0.0
1001
ACAD
1000
ASC_BOUNDS
1002
{
1070
    19
1005
A376
1002
}
  0
LINE
  5
A336
330
A333
100
AcDbEntity
  8
0
100
AcDbLine
 10
5.657999999994331
 20
0.9999999999989768
 30
0.0
 11
9.236999999990758
 21
8.999999999991019
 31
0.0
1001
ACAD
1000
ASC_BOUNDS
1002
{
1070
    19
1005
A376
1002
}
  0
LINE
  5
A337
330
A333
100
AcDbEntity
  8
0
100
AcDbLine
 10
18.59199999998134
 20
-0.2368999999997641
 30
0.0
 11
16.46099999998353
 21
5.432899999994561
 31
0.0
1001
ACAD
1000
ASC_BOUNDS
1002
{
1070
    19
1005
A377
1002
}
  0
LINE
  5
A338
330
A333
100
AcDbEntity
  8
0
100
AcDbLine
 10
18.59199999998134
 20
-0.2368999999997641
 30
0.0
 11
22.38199999997767
 21
8.763099999991255
 31
0.0
1001
ACAD
1000
ASC_BOUNDS
1002
{
1070
    19
1005
A377
1002
}
  0
LINE
  5
A339
330
A333
100
AcDbEntity
  8
0
100
AcDbLine
 10
14.32899999998563
 20
-0.2368999999997641
 30
0.0
 11
16.46099999998353
 21
5.432899999994561
 31
0.0
1001
ACAD
1000
ASC_BOUNDS
1002
{
1070
    19
1005
A377
1002
}
  0
LINE
  5
A33A
330
A333
100
AcDbEntity
  8
0
100
AcDbLine
 10
14.32899999998563
 20
-0.2368999999997641
 30
0.0
 11
10.53899999998941
 21
8.763099999991255
 31
0.0
1001
ACAD
1000
ASC_BOUNDS
1002
{
1070
    19
1005
A377
1002
}
  0
LINE
  5
A33B
330
A333
100
AcDbEntity
  8
0
100
AcDbLine
 10
19.53899999998043
 20
-0.0001000000000317
 30
0.0
 11
23.56599999997638
 21
8.999899999990987
 31
0.0
1001
ACAD
1000
ASC_BOUNDS
1002
{
1070
    19
1005
A378
1002
}
  0
LINE
  5
A33C
330
A333
100
AcDbEntity
  8
0
100
AcDbLine
 10
26.97358892824991
 20
1.383099999991202
 30
0.0
 11
23.56599999997638
 21
8.999899999990987
 31
0.0
1001
ACAD
1000
ASC_BOUNDS
1002
{
1070
    19
1005
A378
1002
}
  0
LINE
  5
A33D
330
A333
100
AcDbEntity
  8
0
100
AcDbLine
 10
5.657999999994331
 20
0.9999999999989768
 30
0.0
 11
3.181999999996833
 21
4.668599999995308
 31
0.0
1001
ACAD
1000
ASC_BOUNDS
1002
{
1070
    19
1005
A376
1002
}
  0
LINE
  5
A33E
330
A333
100
AcDbEntity
  8
0
100
AcDbLine
 10
4.617999999995391
 20
-0.0001000000000317
 30
0.0
 11
1.420999999998571
 21
4.736799999995242
 31
0.0
1001
ACAD
1000
ASC_BOUNDS
1002
{
1070
    19
1005
A376
1002
}
  0
LINE
  5
A33F
330
A333
100
AcDbEntity
  8
0
100
AcDbLine
 10
1.420999999998571
 20
8.763099999991255
 30
0.0
 11
1.420999999998571
 21
0.0
 31
0.0
1001
ACAD
1000
ASC_BOUNDS
1002
{
1070
    19
1005
A37B
1002
}
  0
LINE
  5
A340
330
A333
100
AcDbEntity
  8
0
100
AcDbLine
 10
0.0
 20
8.763099999991255
 30
0.0
 11
0.0
 21
0.0
 31
0.0
1001
ACAD
1000
ASC_BOUNDS
1002
{
1070
    19
1005
A37B
1002
}
  0
LINE
  5
A341
330
A333
100
AcDbEntity
  8
0
100
AcDbLine
 10
6.766999999993232
 20
-0.0001000000000317
 30
0.0
 11
7.826999999992154
 21
2.368399999997621
 31
0.0
1001
ACAD
1000
ASC_BOUNDS
1002
{
1070
    19
1005
A376
1002
}
  0
LINE
  5
A342
330
A333
100
AcDbEntity
  8
0
100
AcDbLine
 10
0.0
 20
0.0
 30
0.0
 11
1.420999999998571
 21
0.0
 31
0.0
1001
ACAD
1000
ASC_BOUNDS
1002
{
1070
    19
1005
A37B
1002
}
  0
LINE
  5
A343
330
A333
100
AcDbEntity
  8
0
100
AcDbLine
 10
4.617999999995391
 20
0.0
 30
0.0
 11
6.766999999993232
 21
0.0
 31
0.0
1001
ACAD
1000
ASC_BOUNDS
1002
{
1070
    19
1005
A376
1002
}
  0
LINE
  5
A344
330
A333
100
AcDbEntity
  8
0
100
AcDbLine
 10
11.70599999998831
 20
-0.0001000000000317
 30
0.0
 11
10.64699999998936
 21
2.368399999997621
 31
0.0
1001
ACAD
1000
ASC_BOUNDS
1002
{
1070
    19
1005
A376
1002
}
  0
LINE
  5
A345
330
A333
100
AcDbEntity
  8
0
100
AcDbLine
 10
7.826999999992154
 20
2.368399999997621
 30
0.0
 11
10.64699999998936
 21
2.368399999997621
 31
0.0
1001
ACAD
1000
ASC_BOUNDS
1002
{
1070
    19
1005
A376
1002
}
  0
LINE
  5
A346
330
A333
100
AcDbEntity
  8
0
100
AcDbLine
 10
11.70599999998831
 20
0.0
 30
0.0
 11
13.26299999998673
 21
0.0
 31
0.0
1001
ACAD
1000
ASC_BOUNDS
1002
{
1070
    19
1005
A376
1002
}
  0
LINE
  5
A347
330
A333
100
AcDbEntity
  8
0
100
AcDbLine
 10
22.15599999997789
 20
2.368399999997621
 30
0.0
 11
24.97599999997499
 21
2.368399999997621
 31
0.0
1001
ACAD
1000
ASC_BOUNDS
1002
{
1070
    19
1005
A378
1002
}
  0
LINE
  5
A348
330
A333
100
AcDbEntity
  8
0
100
AcDbLine
 10
19.53899999998043
 20
0.0
 30
0.0
 11
21.09599999997886
 21
0.0
 31
0.0
1001
ACAD
1000
ASC_BOUNDS
1002
{
1070
    19
1005
A378
1002
}
  0
LINE
  5
A349
330
A333
100
AcDbEntity
  8
0
100
AcDbLine
 10
21.09599999997886
 20
-0.0001000000000317
 30
0.0
 11
22.15599999997789
 21
2.368399999997621
 31
0.0
1001
ACAD
1000
ASC_BOUNDS
1002
{
1070
    19
1005
A378
1002
}
  0
LINE
  5
A34A
330
A333
100
AcDbEntity
  8
0
100
AcDbLine
 10
26.02015566812236
 20
0.0330999999912365
 30
0.0
 11
24.97599999997499
 21
2.368399999997621
 31
0.0
1001
ACAD
1000
ASC_BOUNDS
1002
{
1070
    19
1005
A378
1002
}
  0
LINE
  5
A34B
330
A333
100
AcDbEntity
  8
0
100
AcDbLine
 10
14.32399999998563
 20
3.315799999996671
 30
0.0
 11
16.46099999998353
 21
8.999899999990987
 31
0.0
1001
ACAD
1000
ASC_BOUNDS
1002
{
1070
    19
1005
A377
1002
}
  0
LINE
  5
A34C
330
A333
100
AcDbEntity
  8
0
100
AcDbLine
 10
6.432999999993513
 20
8.763099999991255
 30
0.0
 11
3.181999999996833
 21
4.668599999995308
 31
0.0
1001
ACAD
1000
ASC_BOUNDS
1002
{
1070
    19
1005
A376
1002
}
  0
LINE
  5
A34D
330
A333
100
AcDbEntity
  8
0
100
AcDbLine
 10
4.617999999995391
 20
8.763099999991255
 30
0.0
 11
1.420999999998571
 21
4.736799999995242
 31
0.0
1001
ACAD
1000
ASC_BOUNDS
1002
{
1070
    19
1005
A376
1002
}
  0
LINE
  5
A34E
330
A333
100
AcDbEntity
  8
0
100
AcDbLine
 10
0.0
 20
8.763099999991255
 30
0.0
 11
1.420999999998571
 21
8.763099999991255
 31
0.0
1001
ACAD
1000
ASC_BOUNDS
1002
{
1070
    19
1005
A37B
1002
}
  0
LINE
  5
A34F
330
A333
100
AcDbEntity
  8
0
100
AcDbLine
 10
4.617999999995391
 20
8.763099999991255
 30
0.0
 11
6.432999999993513
 21
8.763099999991255
 31
0.0
1001
ACAD
1000
ASC_BOUNDS
1002
{
1070
    19
1005
A376
1002
}
  0
LINE
  5
A350
330
A333
100
AcDbEntity
  8
0
100
AcDbLine
 10
14.32399999998563
 20
3.315799999996671
 30
0.0
 11
12.02999999998792
 21
8.763099999991255
 31
0.0
1001
ACAD
1000
ASC_BOUNDS
1002
{
1070
    19
1005
A377
1002
}
  0
LINE
  5
A351
330
A333
100
AcDbEntity
  8
0
100
AcDbLine
 10
10.06399999998996
 20
3.670999999996297
 30
0.0
 11
9.236999999990758
 21
5.5200999999945
 31
0.0
1001
ACAD
1000
ASC_BOUNDS
1002
{
1070
    19
1005
A376
1002
}
  0
LINE
  5
A352
330
A333
100
AcDbEntity
  8
0
100
AcDbLine
 10
8.409999999991555
 20
3.670999999996297
 30
0.0
 11
9.236999999990758
 21
5.5200999999945
 31
0.0
1001
ACAD
1000
ASC_BOUNDS
1002
{
1070
    19
1005
A376
1002
}
  0
LINE
  5
A353
330
A333
100
AcDbEntity
  8
0
100
AcDbLine
 10
8.409999999991555
 20
3.670999999996297
 30
0.0
 11
10.06399999998996
 21
3.670999999996297
 31
0.0
1001
ACAD
1000
ASC_BOUNDS
1002
{
1070
    19
1005
A376
1002
}
  0
LINE
  5
A354
330
A333
100
AcDbEntity
  8
0
100
AcDbLine
 10
10.53899999998941
 20
8.763099999991255
 30
0.0
 11
12.02999999998792
 21
8.763099999991255
 31
0.0
1001
ACAD
1000
ASC_BOUNDS
1002
{
1070
    19
1005
A377
1002
}
  0
LINE
  5
A355
330
A333
100
AcDbEntity
  8
0
100
AcDbLine
 10
22.7389999999773
 20
3.670999999996297
 30
0.0
 11
23.56599999997638
 21
5.5200999999945
 31
0.0
1001
ACAD
1000
ASC_BOUNDS
1002
{
1070
    19
1005
A378
1002
}
  0
LINE
  5
A356
330
A333
100
AcDbEntity
  8
0
100
AcDbLine
 10
22.7389999999773
 20
3.670999999996297
 30
0.0
 11
24.39299999997559
 21
3.670999999996297
 31
0.0
1001
ACAD
1000
ASC_BOUNDS
1002
{
1070
    19
1005
A378
1002
}
  0
LINE
  5
A357
330
A333
100
AcDbEntity
  8
0
100
AcDbLine
 10
18.59799999998143
 20
3.315799999996671
 30
0.0
 11
20.89099999997916
 21
8.763099999991255
 31
0.0
1001
ACAD
1000
ASC_BOUNDS
1002
{
1070
    19
1005
A377
1002
}
  0
LINE
  5
A358
330
A333
100
AcDbEntity
  8
0
100
AcDbLine
 10
18.59799999998143
 20
3.315799999996671
 30
0.0
 11
16.46099999998353
 21
8.999899999990987
 31
0.0
1001
ACAD
1000
ASC_BOUNDS
1002
{
1070
    19
1005
A377
1002
}
  0
LINE
  5
A359
330
A333
100
AcDbEntity
  8
0
100
AcDbLine
 10
20.89099999997916
 20
8.763099999991255
 30
0.0
 11
22.38199999997767
 21
8.763099999991255
 31
0.0
1001
ACAD
1000
ASC_BOUNDS
1002
{
1070
    19
1005
A377
1002
}
  0
LINE
  5
A35A
330
A333
100
AcDbEntity
  8
0
100
AcDbLine
 10
24.39299999997559
 20
3.670999999996297
 30
0.0
 11
23.56599999997638
 21
5.5200999999945
 31
0.0
1001
ACAD
1000
ASC_BOUNDS
1002
{
1070
    19
1005
A378
1002
}
  0
LINE
  5
A35B
330
A333
100
AcDbEntity
  8
0
100
AcDbLine
 10
44.99999999995498
 20
-0.2368999999997641
 30
0.0
 11
40.02599999995994
 21
5.341799999994635
 31
0.0
1001
ACAD
1000
ASC_BOUNDS
1002
{
1070
    19
1005
A37A
1002
}
  0
LINE
  5
A35C
330
A333
100
AcDbEntity
  8
0
100
AcDbLine
 10
40.02599999995994
 20
5.341799999994635
 30
0.0
 11
40.02599999995994
 21
0.0
 31
0.0
1001
ACAD
1000
ASC_BOUNDS
1002
{
1070
    19
1005
A37A
1002
}
  0
LINE
  5
A35D
330
A333
100
AcDbEntity
  8
0
100
AcDbLine
 10
38.60499999996136
 20
8.999999999991019
 30
0.0
 11
38.60499999996136
 21
0.0
 31
0.0
1001
ACAD
1000
ASC_BOUNDS
1002
{
1070
    19
1005
A37A
1002
}
  0
LINE
  5
A35E
330
A333
100
AcDbEntity
  8
0
100
AcDbLine
 10
44.99999999995498
 20
8.763099999991255
 30
0.0
 11
44.99999999995498
 21
-0.2368999999997641
 31
0.0
1001
ACAD
1000
ASC_BOUNDS
1002
{
1070
    19
1005
A37A
1002
}
  0
LINE
  5
A35F
330
A333
100
AcDbEntity
  8
0
100
AcDbLine
 10
38.60499999996136
 20
0.0
 30
0.0
 11
40.02599999995994
 21
0.0
 31
0.0
1001
ACAD
1000
ASC_BOUNDS
1002
{
1070
    19
1005
A37A
1002
}
  0
LINE
  5
A360
330
A333
100
AcDbEntity
  8
0
100
AcDbLine
 10
43.57899999995641
 20
3.421199999996588
 30
0.0
 11
38.60499999996136
 21
8.999899999990987
 31
0.0
1001
ACAD
1000
ASC_BOUNDS
1002
{
1070
    19
1005
A37A
1002
}
  0
LINE
  5
A361
330
A333
100
AcDbEntity
  8
0
100
AcDbLine
 10
43.57899999995641
 20
8.763099999991255
 30
0.0
 11
43.57899999995641
 21
3.421199999996588
 31
0.0
1001
ACAD
1000
ASC_BOUNDS
1002
{
1070
    19
1005
A37A
1002
}
  0
LINE
  5
A362
330
A333
100
AcDbEntity
  8
0
100
AcDbLine
 10
43.57899999995641
 20
8.763099999991255
 30
0.0
 11
44.99999999995498
 21
8.763099999991255
 31
0.0
1001
ACAD
1000
ASC_BOUNDS
1002
{
1070
    19
1005
A37A
1002
}
  0
LINE
  5
A363
330
A333
100
AcDbEntity
  8
0
100
AcDbLine
 10
37.67199999996831
 20
8.763099999991255
 30
0.0
 11
36.23199999996837
 21
8.763099999991255
 31
0.0
  0
LINE
  5
A364
330
A333
100
AcDbEntity
  8
0
100
AcDbLine
 10
31.64199999996833
 20
8.763099999991255
 30
0.0
 11
31.64199999996833
 21
2.481619422925121
 31
0.0
  0
LINE
  5
A365
330
A333
100
AcDbEntity
  8
0
100
AcDbLine
 10
37.67199999996831
 20
8.763099999991255
 30
0.0
 11
37.67199999996831
 21
2.481619422925121
 31
0.0
  0
LINE
  5
A366
330
A333
100
AcDbEntity
  8
0
100
AcDbLine
 10
36.23199999996837
 20
8.763099999991255
 30
0.0
 11
36.23199999996837
 21
2.481619422925064
 31
0.0
  0
LINE
  5
A367
330
A333
100
AcDbEntity
  8
0
100
AcDbLine
 10
33.08199999996839
 20
8.763099999991255
 30
0.0
 11
33.08199999996839
 21
2.481619422925121
 31
0.0
  0
ARC
  5
A368
330
A333
100
AcDbEntity
  8
0
100
AcDbCircle
 10
34.65699999996832
 20
3.183099999991214
 30
0.0
 40
3.420000000000007
100
AcDbArc
 50
240.0000000000255
 51
299.9999999999766
  0
ARC
  5
A369
330
A333
100
AcDbEntity
  8
0
100
AcDbCircle
 10
34.65699999996832
 20
3.183099999991214
 30
0.0
 40
1.97999999999999
100
AcDbArc
 50
240.000000000026
 51
299.9999999999703
  0
LINE
  5
A36A
330
A333
100
AcDbEntity
  8
0
100
AcDbLine
 10
33.08199999996828
 20
8.763099999991255
 30
0.0
 11
31.64199999996833
 21
8.763099999991255
 31
0.0
  0
ARC
  5
A36B
330
A333
100
AcDbEntity
  8
0
100
AcDbCircle
 10
35.06199999996829
 20
2.481619422925064
 30
0.0
 40
1.17
100
AcDbArc
 50
299.9999999999699
 51
0.0
  0
ARC
  5
A36C
330
A333
100
AcDbEntity
  8
0
100
AcDbCircle
 10
34.25199999996835
 20
2.481619422925121
 30
0.0
 40
1.17
100
AcDbArc
 50
180.0
 51
240.0000000000238
  0
ARC
  5
A36D
330
A333
100
AcDbEntity
  8
0
100
AcDbCircle
 10
35.06199999996841
 20
2.481619422925121
 30
0.0
 40
2.61
100
AcDbArc
 50
299.9999999999756
 51
0.0
  0
ARC
  5
A36E
330
A333
100
AcDbEntity
  8
0
100
AcDbCircle
 10
34.25199999996835
 20
2.481619422925121
 30
0.0
 40
2.61
100
AcDbArc
 50
180.0
 51
240.0000000000244
  0
LINE
  5
A36F
330
A333
100
AcDbEntity
  8
0
100
AcDbLine
 10
29.30199999996933
 20
8.763099999991255
 30
0.0
 11
30.74199999996927
 21
8.763099999991255
 31
0.0
1001
ACAD
1000
ASC_BOUNDS
1002
{
1070
    19
1005
A378
1002
}
  0
LINE
  5
A370
330
A333
100
AcDbEntity
  8
0
100
AcDbLine
 10
30.74199999996927
 20
8.763099999991255
 30
0.0
 11
30.74199999996927
 21
2.373099999991211
 31
0.0
1001
ACAD
1000
ASC_BOUNDS
1002
{
1070
    19
1005
A378
1002
}
  0
LINE
  5
A371
330
A333
100
AcDbEntity
  8
0
100
AcDbLine
 10
26.02015566812236
 20
0.0330999999912365
 30
0.0
 11
28.40199999996923
 21
0.0330999999912365
 31
0.0
1001
ACAD
1000
ASC_BOUNDS
1002
{
1070
    19
1005
A378
1002
}
  0
LINE
  5
A372
330
A333
100
AcDbEntity
  8
0
100
AcDbLine
 10
29.30199999996933
 20
8.763099999991255
 30
0.0
 11
29.30199999996933
 21
2.283099999991236
 31
0.0
1001
ACAD
1000
ASC_BOUNDS
1002
{
1070
    19
1005
A378
1002
}
  0
LINE
  5
A373
330
A333
100
AcDbEntity
  8
0
100
AcDbLine
 10
26.97358892824991
 20
1.383099999991202
 30
0.0
 11
28.40199999996923
 21
1.383099999991202
 31
0.0
1001
ACAD
1000
ASC_BOUNDS
1002
{
1070
    19
1005
A378
1002
}
  0
ARC
  5
A374
330
A333
100
AcDbEntity
  8
0
100
AcDbCircle
 10
28.40199999996923
 20
2.283099999991236
 30
0.0
 40
0.9
100
AcDbArc
 50
270.0
 51
0.0
1001
ACAD
1000
ASC_BOUNDS
1002
{
1070
    19
1005
A378
1002
}
  0
ARC
  5
A375
330
A333
100
AcDbEntity
  8
0
100
AcDbCircle
 10
28.40199999996923
 20
2.373099999991211
 30
0.0
 40
2.34
100
AcDbArc
 50
270.0
 51
0.0
1001
ACAD
1000
ASC_BOUNDS
1002
{
1070
    19
1005
A378
1002
}
  0
INSERT
  5
A376
330
A333
100
AcDbEntity
  8
0
100
AcDbBlockReference
  2
*X22
 10
0.0
 20
0.0
 30
0.0
1001
ACAD
1000
HATCH
1002
{
1070
    19
1000
ANSI37
1040
0.15
1040
0.0
1000
ASC_BOUNDS
1070
     2
1070
     2
1070
    12
1005
A335
1005
A336
1005
A33D
1005
A34C
1005
A34F
1005
A34D
1005
A33E
1005
A343
1005
A341
1005
A345
1005
A344
1005
A346
1070
     2
1070
     3
1005
A351
1005
A353
1005
A352
1000
ASC_SEEDPOINT
1011
3.614004224891801
1021
2.996669441146025
1031
0.0
1000
R14_HATCH_DATA
1000
A376
1011
1.0
1021
0.0
1031
0.0
1011
0.0
1021
1.0
1031
0.0
1011
0.0
1021
0.0
1031
1.0
1040
0.0
1010
0.0
1020
0.0
1030
1.0
1000
ANSI37
1070
     0
1070
     1
1071
        2
1071
        7
1070
     0
1070
     1
1071
       17
1040
13.26299999998673
1040
-0.0001000000000317
1040
9.236999999990758
1040
8.999899999990987
1040
9.236999999990758
1040
8.999999999991019
1040
5.657999999994331
1040
0.9999999999989768
1040
3.181999999996833
1040
4.668599999995308
1040
6.432999999993513
1040
8.763099999991255
1040
4.617999999995391
1040
8.763099999991255
1040
1.420999999998571
1040
4.736799999995242
1040
4.617999999995391
1040
-0.0001000000000317
1040
4.617999999995391
1040
0.0
1040
6.766999999993232
1040
0.0
1040
6.766999999993232
1040
-0.0001000000000317
1040
7.826999999992154
1040
2.368399999997621
1040
10.64699999998936
1040
2.368399999997621
1040
11.70599999998831
1040
-0.0001000000000317
1040
11.70599999998831
1040
0.0
1040
13.26299999998673
1040
0.0
1071
       12
1005
A335
1005
A336
1005
A33D
1005
A34C
1005
A34F
1005
A34D
1005
A33E
1005
A343
1005
A341
1005
A345
1005
A344
1005
A346
1071
       22
1070
     0
1070
     1
1071
        3
1040
9.236999999990758
1040
5.5200999999945
1040
10.06399999998996
1040
3.670999999996297
1040
8.409999999991555
1040
3.670999999996297
1071
        3
1005
A351
1005
A353
1005
A352
1070
     0
1070
     1
1040
0.0
1040
0.15
1070
     0
1070
     2
1040
0.7853981633974483
1040
49.29960901727088
1040
-10.17736998311392
1040
-0.3367596045400932
1040
0.3367596045400932
1070
     0
1040
2.356194490192345
1040
49.29960901727088
1040
-10.17736998311392
1040
-0.3367596045400932
1040
-0.3367596045400932
1070
     0
1040
0.0110235143455945
1071
        2
1040
3.614004224891801
1040
2.996669441146025
1040
0.0
1040
3.614004224891801
1040
2.996669441146025
1040
0.0
1002
}
  0
INSERT
  5
A377
330
A333
100
AcDbEntity
  8
0
100
AcDbBlockReference
  2
*X23
 10
0.0
 20
0.0
 30
0.0
1001
ACAD
1000
HATCH
1002
{
1070
    19
1000
ANSI37
1040
0.15
1040
0.0
1000
ASC_BOUNDS
1070
     1
1070
     2
1070
    10
1005
A337
1005
A338
1005
A359
1005
A357
1005
A358
1005
A34B
1005
A350
1005
A354
1005
A33A
1005
A339
1000
ASC_SEEDPOINT
1011
14.73245321214324
1021
2.798246178283421
1031
0.0
1000
R14_HATCH_DATA
1000
A377
1011
1.0
1021
0.0
1031
0.0
1011
0.0
1021
1.0
1031
0.0
1011
0.0
1021
0.0
1031
1.0
1040
0.0
1010
0.0
1020
0.0
1030
1.0
1000
ANSI37
1070
     0
1070
     1
1071
        1
1071
        7
1070
     0
1070
     1
1071
       10
1040
16.46099999998353
1040
5.432899999994561
1040
18.59199999998134
1040
-0.2368999999997641
1040
22.38199999997767
1040
8.763099999991255
1040
20.89099999997916
1040
8.763099999991255
1040
18.59799999998143
1040
3.315799999996671
1040
16.46099999998353
1040
8.999899999990987
1040
14.32399999998563
1040
3.315799999996671
1040
12.02999999998792
1040
8.763099999991255
1040
10.53899999998941
1040
8.763099999991255
1040
14.32899999998563
1040
-0.2368999999997641
1071
       10
1005
A337
1005
A338
1005
A359
1005
A357
1005
A358
1005
A34B
1005
A350
1005
A354
1005
A33A
1005
A339
1070
     0
1070
     1
1040
0.0
1040
0.15
1070
     0
1070
     2
1040
0.7853981633974483
1040
49.29960901727088
1040
-10.17736998311392
1040
-0.3367596045400932
1040
0.3367596045400932
1070
     0
1040
2.356194490192345
1040
49.29960901727088
1040
-10.17736998311392
1040
-0.3367596045400932
1040
-0.3367596045400932
1070
     0
1040
0.0110235143455945
1071
        1
1040
14.73245321214324
1040
2.798246178283421
1040
0.0
1002
}
  0
INSERT
  5
A378
330
A333
100
AcDbEntity
  8
0
100
AcDbBlockReference
  2
*X24
 10
0.0
 20
0.0
 30
0.0
1001
ACAD
1000
HATCH
1002
{
1070
    19
1000
ANSI37
1040
0.15
1040
0.0
1000
ASC_BOUNDS
1070
     2
1070
     2
1070
    13
1005
A33B
1005
A348
1005
A349
1005
A347
1005
A34A
1005
A371
1005
A375
1005
A370
1005
A36F
1005
A372
1005
A374
1005
A373
1005
A33C
1070
     2
1070
     3
1005
A355
1005
A35A
1005
A356
1000
ASC_SEEDPOINT
1011
21.97929957367762
1021
3.294304244259308
1031
0.0
1000
R14_HATCH_DATA
1000
A378
1011
1.0
1021
0.0
1031
0.0
1011
0.0
1021
1.0
1031
0.0
1011
0.0
1021
0.0
1031
1.0
1040
0.0
1010
0.0
1020
0.0
1030
1.0
1000
ANSI37
1070
     0
1070
     1
1071
        2
1071
        7
1070
     1
1070
     1
1071
       15
1040
23.56599999997638
1040
8.999899999990987
1040
0.0
1040
19.53899999998043
1040
-0.0001000000000317
1040
0.0
1040
19.53899999998043
1040
0.0
1040
0.0
1040
21.09599999997886
1040
0.0
1040
0.0
1040
21.09599999997886
1040
-0.0001000000000317
1040
0.0
1040
22.15599999997789
1040
2.368399999997621
1040
0.0
1040
24.97599999997499
1040
2.368399999997621
1040
0.0
1040
26.02015566812236
1040
0.0330999999912365
1040
0.0
1040
28.40199999996923
1040
0.0330999999912365
1040
0.414213562373095
1040
30.74199999996923
1040
2.373099999991211
1040
0.0
1040
30.74199999996927
1040
8.763099999991255
1040
0.0
1040
29.30199999996933
1040
8.763099999991255
1040
0.0
1040
29.30199999996933
1040
2.283099999991236
1040
-0.414213562373095
1040
28.40199999996923
1040
1.383099999991237
1040
0.0
1040
26.97358892824991
1040
1.383099999991202
1040
0.0
1071
       13
1005
A33B
1005
A348
1005
A349
1005
A347
1005
A34A
1005
A371
1005
A375
1005
A370
1005
A36F
1005
A372
1005
A374
1005
A373
1005
A33C
1071
       22
1070
     0
1070
     1
1071
        3
1040
22.7389999999773
1040
3.670999999996297
1040
23.56599999997638
1040
5.5200999999945
1040
24.39299999997559
1040
3.670999999996297
1071
        3
1005
A355
1005
A35A
1005
A356
1070
     0
1070
     1
1040
0.0
1040
0.15
1070
     0
1070
     2
1040
0.7853981633974483
1040
49.29960901727088
1040
-10.17736998311392
1040
-0.3367596045400932
1040
0.3367596045400932
1070
     0
1040
2.356194490192345
1040
49.29960901727088
1040
-10.17736998311392
1040
-0.3367596045400932
1040
-0.3367596045400932
1070
     0
1040
0.0110235143455945
1071
        2
1040
21.97929957367762
1040
3.294304244259308
1040
0.0
1040
21.97929957367762
1040
3.294304244259308
1040
0.0
1002
}
  0
INSERT
  5
A379
330
A333
100
AcDbEntity
  8
0
100
AcDbBlockReference
  2
*X25
 10
0.0
 20
0.0
 30
0.0
1001
ACAD
1000
HATCH
1002
{
1070
    19
1000
ANSI37
1040
0.15
1040
0.0
1000
R14_HATCH_DATA
1000
A379
1011
1.0
1021
0.0
1031
0.0
1011
0.0
1021
1.0
1031
0.0
1011
0.0
1021
0.0
1031
1.0
1040
0.0
1010
0.0
1020
0.0
1030
1.0
1000
ANSI37
1070
     0
1070
     1
1071
        1
1071
        7
1070
     1
1070
     1
1071
       12
1040
31.64199999996833
1040
2.481619422925121
1040
0.2679491924310942
1040
32.94699999997067
1040
0.2212931190493919
1040
0.2679491924301353
1040
36.36699999995983
1040
0.2212931190459813
1040
0.2679491924321411
1040
37.67199999996831
1040
2.481619422928361
1040
0.0
1040
37.67199999996831
1040
8.763099999991255
1040
0.0
1040
36.23199999996837
1040
8.763099999991255
1040
0.0
1040
36.23199999996837
1040
2.481619422925064
1040
-0.2679491924310291
1040
35.64699999996708
1040
1.468369700498386
1040
-0.267949192430519
1040
33.66699999997093
1040
1.468369700497703
1040
-0.267949192431809
1040
33.08199999996839
1040
2.481619422926997
1040
0.0
1040
33.08199999996839
1040
8.763099999991255
1040
0.0
1040
31.64199999996833
1040
8.763099999991255
1040
0.0
1071
        0
1070
     0
1070
     1
1040
0.0
1040
0.15
1070
     0
1070
     2
1040
0.7853981633974483
1040
49.29960901727088
1040
-10.17736998311392
1040
-0.3367596045400932
1040
0.3367596045400932
1070
     0
1040
2.356194490192345
1040
49.29960901727088
1040
-10.17736998311392
1040
-0.3367596045400932
1040
-0.3367596045400932
1070
     0
1040
0.0110235143455945
1071
        1
1040
32.30357378967278
1040
3.988785755459219
1040
0.0
1002
}
  0
INSERT
  5
A37A
330
A333
100
AcDbEntity
  8
0
100
AcDbBlockReference
  2
*X26
 10
0.0
 20
0.0
 30
0.0
1001
ACAD
1000
HATCH
1002
{
1070
    19
1000
ANSI37
1040
0.15
1040
0.0
1000
ASC_BOUNDS
1070
     1
1070
     2
1070
     8
1005
A35B
1005
A35E
1005
A362
1005
A361
1005
A360
1005
A35D
1005
A35F
1005
A35C
1000
ASC_SEEDPOINT
1011
39.74896370716704
1021
4.484843821435049
1031
0.0
1000
R14_HATCH_DATA
1000
A37A
1011
1.0
1021
0.0
1031
0.0
1011
0.0
1021
1.0
1031
0.0
1011
0.0
1021
0.0
1031
1.0
1040
0.0
1010
0.0
1020
0.0
1030
1.0
1000
ANSI37
1070
     0
1070
     1
1071
        1
1071
        7
1070
     0
1070
     1
1071
        9
1040
40.02599999995994
1040
5.341799999994635
1040
44.99999999995498
1040
-0.2368999999997641
1040
44.99999999995498
1040
8.763099999991255
1040
43.57899999995641
1040
8.763099999991255
1040
43.57899999995641
1040
3.421199999996588
1040
38.60499999996136
1040
8.999899999990987
1040
38.60499999996136
1040
8.999999999991019
1040
38.60499999996136
1040
0.0
1040
40.02599999995994
1040
0.0
1071
        8
1005
A35B
1005
A35E
1005
A362
1005
A361
1005
A360
1005
A35D
1005
A35F
1005
A35C
1070
     0
1070
     1
1040
0.0
1040
0.15
1070
     0
1070
     2
1040
0.7853981633974483
1040
49.29960901727088
1040
-10.17736998311392
1040
-0.3367596045400932
1040
0.3367596045400932
1070
     0
1040
2.356194490192345
1040
49.29960901727088
1040
-10.17736998311392
1040
-0.3367596045400932
1040
-0.3367596045400932
1070
     0
1040
0.0110235143455945
1071
        1
1040
39.74896370716704
1040
4.484843821435049
1040
0.0
1002
}
  0
INSERT
  5
A37B
330
A333
100
AcDbEntity
  8
0
100
AcDbBlockReference
  2
*X27
 10
0.0
 20
0.0
 30
0.0
1001
ACAD
1000
HATCH
1002
{
1070
    19
1000
ANSI37
1040
0.15
1040
0.0
1000
ASC_BOUNDS
1070
     1
1070
     2
1070
     4
1005
A33F
1005
A34E
1005
A340
1005
A342
1000
ASC_SEEDPOINT
1011
1.079051535452663
1021
4.148538732891836
1031
0.0
1000
R14_HATCH_DATA
1000
A37B
1011
1.0
1021
0.0
1031
0.0
1011
0.0
1021
1.0
1031
0.0
1011
0.0
1021
0.0
1031
1.0
1040
0.0
1010
0.0
1020
0.0
1030
1.0
1000
ANSI37
1070
     0
1070
     1
1071
        1
1071
        7
1070
     0
1070
     1
1071
        4
1040
1.420999999998571
1040
0.0
1040
1.420999999998571
1040
8.763099999991255
1040
0.0
1040
8.763099999991255
1040
0.0
1040
0.0
1071
        4
1005
A33F
1005
A34E
1005
A340
1005
A342
1070
     0
1070
     1
1040
0.0
1040
0.15
1070
     0
1070
     2
1040
0.7853981633974483
1040
49.29960901727088
1040
-10.17736998311392
1040
-0.3367596045400932
1040
0.3367596045400932
1070
     0
1040
2.356194490192345
1040
49.29960901727088
1040
-10.17736998311392
1040
-0.3367596045400932
1040
-0.3367596045400932
1070
     0
1040
0.0053004257112761
1071
        1
1040
1.079051535452663
1040
4.148538732891836
1040
0.0
1002
}
  0
ENDBLK
  5
AA57
330
A333
100
AcDbEntity
  8
0
100
AcDbBlockEnd
  0
BLOCK
  5
1195E
330
117D0
100
AcDbEntity
  8
0
100
AcDbBlockBegin
  2
*X22
 70
     1
 10
0.0
 20
0.0
 30
0.0
  3
*X22
  1

  0
LINE
  5
117D1
330
117D0
100
AcDbEntity
  8
0
  6
CONTINUOUS
100
AcDbLine
 10
3.418023043697893
 20
7.251849696850613
 30
0.0
 11
4.929273346838536
 21
8.763099999991255
 31
0.0
  0
LINE
  5
117D2
330
117D0
100
AcDbEntity
  8
0
  6
CONTINUOUS
100
AcDbLine
 10
1.483656411257782
 20
4.643963855330318
 30
0.0
 11
5.60279255591872
 21
8.763099999991255
 31
0.0
  0
LINE
  5
117D3
330
117D0
100
AcDbEntity
  8
0
  6
CONTINUOUS
100
AcDbLine
 10
1.755053947328235
 20
4.241842182320584
 30
0.0
 11
6.276311764998907
 21
8.763099999991255
 31
0.0
  0
LINE
  5
117D4
330
117D0
100
AcDbEntity
  8
0
  6
CONTINUOUS
100
AcDbLine
 10
2.026451483398688
 20
3.839720509310849
 30
0.0
 11
4.441040904851878
 21
6.254309930764039
 31
0.0
  0
LINE
  5
117D5
330
117D0
100
AcDbEntity
  8
0
  6
CONTINUOUS
100
AcDbLine
 10
2.297849019469139
 20
3.437598836301114
 30
0.0
 11
3.321765168359338
 21
4.461514985191313
 31
0.0
  0
LINE
  5
117D6
330
117D0
100
AcDbEntity
  8
0
  6
CONTINUOUS
100
AcDbLine
 10
2.569246555539591
 20
3.03547716329138
 30
0.0
 11
3.593163397972743
 21
4.059394005724531
 31
0.0
  0
LINE
  5
117D7
330
117D0
100
AcDbEntity
  8
0
  6
CONTINUOUS
100
AcDbLine
 10
2.840644091610043
 20
2.633355490281646
 30
0.0
 11
3.864561627586149
 21
3.657273026257751
 31
0.0
  0
LINE
  5
117D8
330
117D0
100
AcDbEntity
  8
0
  6
CONTINUOUS
100
AcDbLine
 10
3.112041627680496
 20
2.231233817271911
 30
0.0
 11
4.135959857199554
 21
3.25515204679097
 31
0.0
  0
LINE
  5
117D9
330
117D0
100
AcDbEntity
  8
0
  6
CONTINUOUS
100
AcDbLine
 10
3.383439163750948
 20
1.829112144262177
 30
0.0
 11
4.40735808681296
 21
2.853031067324189
 31
0.0
  0
LINE
  5
117DA
330
117D0
100
AcDbEntity
  8
0
  6
CONTINUOUS
100
AcDbLine
 10
3.654836699821399
 20
1.426990471252442
 30
0.0
 11
4.678756316426365
 21
2.450910087857407
 31
0.0
  0
LINE
  5
117DB
330
117D0
100
AcDbEntity
  8
0
  6
CONTINUOUS
100
AcDbLine
 10
3.926234235891853
 20
1.024868798242709
 30
0.0
 11
4.95015454603977
 21
2.048789108390626
 31
0.0
  0
LINE
  5
117DC
330
117D0
100
AcDbEntity
  8
0
  6
CONTINUOUS
100
AcDbLine
 10
4.197631771962304
 20
0.6227471252329737
 30
0.0
 11
5.221552775653176
 21
1.646668128923846
 31
0.0
  0
LINE
  5
117DD
330
117D0
100
AcDbEntity
  8
0
  6
CONTINUOUS
100
AcDbLine
 10
8.715877546767851
 20
7.835069736359266
 30
0.0
 11
9.435953450375058
 21
8.555145639966472
 31
0.0
  0
LINE
  5
117DE
330
117D0
100
AcDbEntity
  8
0
  6
CONTINUOUS
100
AcDbLine
 10
8.170620868422267
 20
6.616293848933497
 30
0.0
 11
9.644120833743461
 21
8.08979381425469
 31
0.0
  0
LINE
  5
117DF
330
117D0
100
AcDbEntity
  8
0
  6
CONTINUOUS
100
AcDbLine
 10
7.625364190076684
 20
5.397517961507727
 30
0.0
 11
9.852288217111864
 21
7.624441988542907
 31
0.0
  0
LINE
  5
117E0
330
117D0
100
AcDbEntity
  8
0
  6
CONTINUOUS
100
AcDbLine
 10
7.080107511731101
 20
4.178742074081957
 30
0.0
 11
10.06045560048027
 21
7.159090162831124
 31
0.0
  0
LINE
  5
117E1
330
117D0
100
AcDbEntity
  8
0
  6
CONTINUOUS
100
AcDbLine
 10
6.534850833385518
 20
2.959966186656187
 30
0.0
 11
10.26862298384867
 21
6.693738337119342
 31
0.0
  0
LINE
  5
117E2
330
117D0
100
AcDbEntity
  8
0
  6
CONTINUOUS
100
AcDbLine
 10
4.469029308032756
 20
0.2206254522232385
 30
0.0
 11
5.492951005266582
 21
1.244547149457064
 31
0.0
  0
LINE
  5
117E3
330
117D0
100
AcDbEntity
  8
0
  6
CONTINUOUS
100
AcDbLine
 10
5.989594155039935
 20
1.741190299230417
 30
0.0
 11
8.806950407233131
 21
4.558546551423613
 31
0.0
  0
LINE
  5
117E4
330
117D0
100
AcDbEntity
  8
0
  6
CONTINUOUS
100
AcDbLine
 10
9.401251593263643
 20
5.152847737454126
 30
0.0
 11
10.47679036721708
 21
6.228386511407559
 31
0.0
  0
LINE
  5
117E5
330
117D0
100
AcDbEntity
  8
0
  6
CONTINUOUS
100
AcDbLine
 10
4.921837203428691
 20
-0.0000858614610131
 30
0.0
 11
8.592923064886001
 21
3.670999999996297
 31
0.0
  0
LINE
  5
117E6
330
117D0
100
AcDbEntity
  8
0
  6
CONTINUOUS
100
AcDbLine
 10
9.609390446785305
 20
4.6874673818956
 30
0.0
 11
10.68495775058548
 21
5.763034685695775
 31
0.0
  0
LINE
  5
117E7
330
117D0
100
AcDbEntity
  8
0
  6
CONTINUOUS
100
AcDbLine
 10
5.595387755019432
 20
-0.0000545189504582
 30
0.0
 11
7.716137258923768
 21
2.120694984953879
 31
0.0
  0
LINE
  5
117E8
330
117D0
100
AcDbEntity
  8
0
  6
CONTINUOUS
100
AcDbLine
 10
6.268938306610172
 20
-0.000023176439905
 30
0.0
 11
7.170485805526503
 21
0.9015243224764267
 31
0.0
  0
LINE
  5
117E9
330
117D0
100
AcDbEntity
  8
0
  6
CONTINUOUS
100
AcDbLine
 10
7.963842273967511
 20
2.368399999997621
 30
0.0
 11
9.266442273966188
 21
3.670999999996297
 31
0.0
  0
LINE
  5
117EA
330
117D0
100
AcDbEntity
  8
0
  6
CONTINUOUS
100
AcDbLine
 10
8.637361483047696
 20
2.368399999997621
 30
0.0
 11
9.939961483046375
 21
3.670999999996297
 31
0.0
  0
LINE
  5
117EB
330
117D0
100
AcDbEntity
  8
0
  6
CONTINUOUS
100
AcDbLine
 10
9.817529300306965
 20
4.222087026337075
 30
0.0
 11
10.89312513395388
 21
5.297682859983993
 31
0.0
  0
LINE
  5
117EC
330
117D0
100
AcDbEntity
  8
0
  6
CONTINUOUS
100
AcDbLine
 10
10.02566815382863
 20
3.756706670778549
 30
0.0
 11
11.10129251732229
 21
4.832331034272211
 31
0.0
  0
LINE
  5
117ED
330
117D0
100
AcDbEntity
  8
0
  6
CONTINUOUS
100
AcDbLine
 10
9.310880692127883
 20
2.368399999997621
 30
0.0
 11
11.30945990069069
 21
4.366979208560428
 31
0.0
  0
LINE
  5
117EE
330
117D0
100
AcDbEntity
  8
0
  6
CONTINUOUS
100
AcDbLine
 10
9.98439990120807
 20
2.36839999999762
 30
0.0
 11
11.5176272840591
 21
3.901627382848645
 31
0.0
  0
LINE
  5
117EF
330
117D0
100
AcDbEntity
  8
0
  6
CONTINUOUS
100
AcDbLine
 10
10.65037369446246
 20
2.36085458417182
 30
0.0
 11
11.7257946674275
 21
3.436275557136862
 31
0.0
  0
LINE
  5
117F0
330
117D0
100
AcDbEntity
  8
0
  6
CONTINUOUS
100
AcDbLine
 10
10.85847197087848
 20
1.895433651507656
 30
0.0
 11
11.9339620507959
 21
2.97092373142508
 31
0.0
  0
LINE
  5
117F1
330
117D0
100
AcDbEntity
  8
0
  6
CONTINUOUS
100
AcDbLine
 10
11.0665702472945
 20
1.430012718843491
 30
0.0
 11
12.14212943416431
 21
2.505571905713296
 31
0.0
  0
LINE
  5
117F2
330
117D0
100
AcDbEntity
  8
0
  6
CONTINUOUS
100
AcDbLine
 10
11.27466852371052
 20
0.9645917861793256
 30
0.0
 11
12.35029681753271
 21
2.040220080001513
 31
0.0
  0
LINE
  5
117F3
330
117D0
100
AcDbEntity
  8
0
  6
CONTINUOUS
100
AcDbLine
 10
11.48276680012654
 20
0.4991708535151611
 30
0.0
 11
12.55846420090111
 21
1.57486825428973
 31
0.0
  0
LINE
  5
117F4
330
117D0
100
AcDbEntity
  8
0
  6
CONTINUOUS
100
AcDbLine
 10
11.69086507654257
 20
0.0337499208509957
 30
0.0
 11
12.76663158426952
 21
1.109516428577947
 31
0.0
  0
LINE
  5
117F5
330
117D0
100
AcDbEntity
  8
0
  6
CONTINUOUS
100
AcDbLine
 10
12.33057447873954
 20
-0.0000598860322123
 30
0.0
 11
12.97479896763792
 21
0.6441646028661663
 31
0.0
  0
LINE
  5
117F6
330
117D0
100
AcDbEntity
  8
0
  6
CONTINUOUS
100
AcDbLine
 10
13.00413694809395
 20
-0.0000166257579952
 30
0.0
 11
13.18296635100632
 21
0.1788127771543824
 31
0.0
  0
LINE
  5
117F7
330
117D0
100
AcDbEntity
  8
0
  6
CONTINUOUS
100
AcDbLine
 10
4.772852165289667
 20
-0.000092794222212
 30
0.0
 11
4.296495091028902
 21
0.4762642800385528
 31
0.0
  0
LINE
  5
117F8
330
117D0
100
AcDbEntity
  8
0
  6
CONTINUOUS
100
AcDbLine
 10
5.446340034776103
 20
-0.0000614546284616
 30
0.0
 11
2.898195908335625
 21
2.548082671812017
 31
0.0
  0
LINE
  5
117F9
330
117D0
100
AcDbEntity
  8
0
  6
CONTINUOUS
100
AcDbLine
 10
6.119827904262539
 20
-0.0000301150347113
 30
0.0
 11
1.499896725642348
 21
4.61990106358548
 31
0.0
  0
LINE
  5
117FA
330
117D0
100
AcDbEntity
  8
0
  6
CONTINUOUS
100
AcDbLine
 10
6.775136745476159
 20
0.0181802528318542
 30
0.0
 11
5.699826040202669
 21
1.093490958105344
 31
0.0
  0
LINE
  5
117FB
330
117D0
100
AcDbEntity
  8
0
  6
CONTINUOUS
100
AcDbLine
 10
6.983376846288489
 20
0.4834593610997118
 30
0.0
 11
5.908008617934405
 21
1.558827589453796
 31
0.0
  0
LINE
  5
117FC
330
117D0
100
AcDbEntity
  8
0
  6
CONTINUOUS
100
AcDbLine
 10
5.377063484962296
 20
1.416253513345719
 30
0.0
 11
1.702276957014131
 21
5.091040041293883
 31
0.0
  0
LINE
  5
117FD
330
117D0
100
AcDbEntity
  8
0
  6
CONTINUOUS
100
AcDbLine
 10
3.978745891735324
 20
3.488090315652877
 30
0.0
 11
2.000373521109399
 21
5.466462686278803
 31
0.0
  0
LINE
  5
117FE
330
117D0
100
AcDbEntity
  8
0
  6
CONTINUOUS
100
AcDbLine
 10
7.191616947100819
 20
0.948738469367568
 30
0.0
 11
6.11619119566614
 21
2.024164220802247
 31
0.0
  0
LINE
  5
117FF
330
117D0
100
AcDbEntity
  8
0
  6
CONTINUOUS
100
AcDbLine
 10
7.399857047913149
 20
1.414017577635424
 30
0.0
 11
6.324373773397875
 21
2.489500852150698
 31
0.0
  0
LINE
  5
11800
330
117D0
100
AcDbEntity
  8
0
  6
CONTINUOUS
100
AcDbLine
 10
7.608097148725479
 20
1.879296685903281
 30
0.0
 11
6.53255635112961
 21
2.95483748349915
 31
0.0
  0
LINE
  5
11801
330
117D0
100
AcDbEntity
  8
0
  6
CONTINUOUS
100
AcDbLine
 10
7.816337249537808
 20
2.344575794171138
 30
0.0
 11
6.740738928861345
 21
3.420174114847601
 31
0.0
  0
LINE
  5
11802
330
117D0
100
AcDbEntity
  8
0
  6
CONTINUOUS
100
AcDbLine
 10
3.310241080789734
 20
4.830114335678653
 30
0.0
 11
2.298470085204666
 21
5.84188533126372
 31
0.0
  0
LINE
  5
11803
330
117D0
100
AcDbEntity
  8
0
  6
CONTINUOUS
100
AcDbLine
 10
3.60832983563551
 20
5.205544789913063
 30
0.0
 11
2.596566649299935
 21
6.217307976248638
 31
0.0
  0
LINE
  5
11804
330
117D0
100
AcDbEntity
  8
0
  6
CONTINUOUS
100
AcDbLine
 10
3.906418590481286
 20
5.580975244147473
 30
0.0
 11
2.894663213395203
 21
6.592730621233557
 31
0.0
  0
LINE
  5
11805
330
117D0
100
AcDbEntity
  8
0
  6
CONTINUOUS
100
AcDbLine
 10
4.204507345327062
 20
5.956405698381884
 30
0.0
 11
3.192759777490472
 21
6.968153266218474
 31
0.0
  0
LINE
  5
11806
330
117D0
100
AcDbEntity
  8
0
  6
CONTINUOUS
100
AcDbLine
 10
8.466032252791512
 20
2.368399999997621
 30
0.0
 11
6.948921506593081
 21
3.885510746196053
 31
0.0
  0
LINE
  5
11807
330
117D0
100
AcDbEntity
  8
0
  6
CONTINUOUS
100
AcDbLine
 10
9.139551461871699
 20
2.36839999999762
 30
0.0
 11
7.157104084324816
 21
4.350847377544504
 31
0.0
  0
LINE
  5
11808
330
117D0
100
AcDbEntity
  8
0
  6
CONTINUOUS
100
AcDbLine
 10
4.502596100172839
 20
6.331836152616295
 30
0.0
 11
3.49085634158574
 21
7.343575911203393
 31
0.0
  0
LINE
  5
11809
330
117D0
100
AcDbEntity
  8
0
  6
CONTINUOUS
100
AcDbLine
 10
4.800684855018615
 20
6.707266606850705
 30
0.0
 11
3.788952905681008
 21
7.718998556188312
 31
0.0
  0
LINE
  5
1180A
330
117D0
100
AcDbEntity
  8
0
  6
CONTINUOUS
100
AcDbLine
 10
12.18154012887317
 20
-0.0000694579236642
 30
0.0
 11
11.32140332908496
 21
0.8600673418645499
 31
0.0
  0
LINE
  5
1180B
330
117D0
100
AcDbEntity
  8
0
  6
CONTINUOUS
100
AcDbLine
 10
12.85501608323566
 20
-0.0000262032059659
 30
0.0
 11
10.77672456435345
 21
2.078265315676246
 31
0.0
  0
LINE
  5
1180C
330
117D0
100
AcDbEntity
  8
0
  6
CONTINUOUS
100
AcDbLine
 10
9.813070670951886
 20
2.36839999999762
 30
0.0
 11
8.51047067095321
 21
3.670999999996297
 31
0.0
  0
LINE
  5
1180D
330
117D0
100
AcDbEntity
  8
0
  6
CONTINUOUS
100
AcDbLine
 10
10.48658988003207
 20
2.36839999999762
 30
0.0
 11
9.183989880033396
 21
3.670999999996297
 31
0.0
  0
LINE
  5
1180E
330
117D0
100
AcDbEntity
  8
0
  6
CONTINUOUS
100
AcDbLine
 10
8.441048632286794
 20
3.740422038662712
 30
0.0
 11
7.365286662056551
 21
4.816184008892956
 31
0.0
  0
LINE
  5
1180F
330
117D0
100
AcDbEntity
  8
0
  6
CONTINUOUS
100
AcDbLine
 10
8.649187485808454
 20
4.205802394221237
 30
0.0
 11
7.573469239788285
 21
5.281520640241407
 31
0.0
  0
LINE
  5
11810
330
117D0
100
AcDbEntity
  8
0
  6
CONTINUOUS
100
AcDbLine
 10
5.098773609864391
 20
7.082697061085115
 30
0.0
 11
4.087049469776277
 21
8.09442120117323
 31
0.0
  0
LINE
  5
11811
330
117D0
100
AcDbEntity
  8
0
  6
CONTINUOUS
100
AcDbLine
 10
5.396862364710167
 20
7.458127515319526
 30
0.0
 11
4.385146033871544
 21
8.469843846158149
 31
0.0
  0
LINE
  5
11812
330
117D0
100
AcDbEntity
  8
0
  6
CONTINUOUS
100
AcDbLine
 10
13.04801363231285
 20
0.4804954567970334
 30
0.0
 11
9.85750908911358
 21
3.670999999996297
 31
0.0
  0
LINE
  5
11813
330
117D0
100
AcDbEntity
  8
0
  6
CONTINUOUS
100
AcDbLine
 10
8.857326339330116
 20
4.671182749779763
 30
0.0
 11
7.781651817520021
 21
5.746857271589858
 31
0.0
  0
LINE
  5
11814
330
117D0
100
AcDbEntity
  8
0
  6
CONTINUOUS
100
AcDbLine
 10
5.694951119555943
 20
7.833557969553937
 30
0.0
 11
4.765409089118624
 21
8.763099999991255
 31
0.0
  0
LINE
  5
11815
330
117D0
100
AcDbEntity
  8
0
  6
CONTINUOUS
100
AcDbLine
 10
12.50286117236978
 20
1.699167125820288
 30
0.0
 11
9.68611877250287
 21
4.515909525687196
 31
0.0
  0
LINE
  5
11816
330
117D0
100
AcDbEntity
  8
0
  6
CONTINUOUS
100
AcDbLine
 10
9.065465192851777
 20
5.136563105338288
 30
0.0
 11
7.989834395251757
 21
6.21219390293831
 31
0.0
  0
LINE
  5
11817
330
117D0
100
AcDbEntity
  8
0
  6
CONTINUOUS
100
AcDbLine
 10
5.993039874401719
 20
8.208988423788346
 30
0.0
 11
5.43892829819881
 21
8.763099999991255
 31
0.0
  0
LINE
  5
11818
330
117D0
100
AcDbEntity
  8
0
  6
CONTINUOUS
100
AcDbLine
 10
11.95770871242671
 20
2.917838794843543
 30
0.0
 11
8.19801697298349
 21
6.677530534286761
 31
0.0
  0
LINE
  5
11819
330
117D0
100
AcDbEntity
  8
0
  6
CONTINUOUS
100
AcDbLine
 10
6.291128629247495
 20
8.584418878022756
 30
0.0
 11
6.112447507278997
 21
8.763099999991255
 31
0.0
  0
LINE
  5
1181A
330
117D0
100
AcDbEntity
  8
0
  6
CONTINUOUS
100
AcDbLine
 10
11.41255625248364
 20
4.136510463866797
 30
0.0
 11
8.406199550715227
 21
7.142867165635211
 31
0.0
  0
LINE
  5
1181B
330
117D0
100
AcDbEntity
  8
0
  6
CONTINUOUS
100
AcDbLine
 10
10.86740379254057
 20
5.355182132890051
 30
0.0
 11
8.614382128446962
 21
7.608203796983664
 31
0.0
  0
LINE
  5
1181C
330
117D0
100
AcDbEntity
  8
0
  6
CONTINUOUS
100
AcDbLine
 10
10.3222513325975
 20
6.573853801913305
 30
0.0
 11
8.822564706178696
 21
8.073540428332114
 31
0.0
  0
LINE
  5
1181D
330
117D0
100
AcDbEntity
  8
0
  6
CONTINUOUS
100
AcDbLine
 10
9.777098872654436
 20
7.792525470936562
 30
0.0
 11
9.030747283910433
 21
8.538877059680566
 31
0.0
  0
ENDBLK
  5
1195F
330
117D0
100
AcDbEntity
  8
0
100
AcDbBlockEnd
  0
BLOCK
  5
11960
330
1181E
100
AcDbEntity
  8
0
100
AcDbBlockBegin
  2
*X23
 70
     1
 10
0.0
 20
0.0
 30
0.0
  3
*X23
  1

  0
LINE
  5
1181F
330
1181E
100
AcDbEntity
  8
0
  6
CONTINUOUS
100
AcDbLine
 10
10.67292308101235
 20
8.445076852443387
 30
0.0
 11
10.99094622856022
 21
8.763099999991255
 31
0.0
  0
LINE
  5
11820
330
1181E
100
AcDbEntity
  8
0
  6
CONTINUOUS
100
AcDbLine
 10
10.87250383178748
 20
7.971138394138331
 30
0.0
 11
11.6644654376404
 21
8.763099999991255
 31
0.0
  0
LINE
  5
11821
330
1181E
100
AcDbEntity
  8
0
  6
CONTINUOUS
100
AcDbLine
 10
11.07208458256261
 20
7.497199935833273
 30
0.0
 11
12.12126590876355
 21
8.546381262034211
 31
0.0
  0
LINE
  5
11822
330
1181E
100
AcDbEntity
  8
0
  6
CONTINUOUS
100
AcDbLine
 10
11.27166533333774
 20
7.023261477528216
 30
0.0
 11
12.32085164573666
 21
8.072447789927136
 31
0.0
  0
LINE
  5
11823
330
1181E
100
AcDbEntity
  8
0
  6
CONTINUOUS
100
AcDbLine
 10
11.47124608411287
 20
6.549323019223158
 30
0.0
 11
12.52043738270977
 21
7.59851431782006
 31
0.0
  0
LINE
  5
11824
330
1181E
100
AcDbEntity
  8
0
  6
CONTINUOUS
100
AcDbLine
 10
11.670826834888
 20
6.075384560918101
 30
0.0
 11
12.72002311968288
 21
7.124580845712984
 31
0.0
  0
LINE
  5
11825
330
1181E
100
AcDbEntity
  8
0
  6
CONTINUOUS
100
AcDbLine
 10
11.87040758566313
 20
5.601446102613043
 30
0.0
 11
12.91960885665599
 21
6.650647373605907
 31
0.0
  0
LINE
  5
11826
330
1181E
100
AcDbEntity
  8
0
  6
CONTINUOUS
100
AcDbLine
 10
12.06998833643825
 20
5.127507644307986
 30
0.0
 11
13.1191945936291
 21
6.176713901498832
 31
0.0
  0
LINE
  5
11827
330
1181E
100
AcDbEntity
  8
0
  6
CONTINUOUS
100
AcDbLine
 10
12.26956908721338
 20
4.65356918600293
 30
0.0
 11
13.31878033060221
 21
5.702780429391757
 31
0.0
  0
LINE
  5
11828
330
1181E
100
AcDbEntity
  8
0
  6
CONTINUOUS
100
AcDbLine
 10
12.46914983798851
 20
4.179630727697873
 30
0.0
 11
13.51836606757532
 21
5.228846957284683
 31
0.0
  0
LINE
  5
11829
330
1181E
100
AcDbEntity
  8
0
  6
CONTINUOUS
100
AcDbLine
 10
12.66873058876364
 20
3.705692269392816
 30
0.0
 11
13.71795180454843
 21
4.754913485177607
 31
0.0
  0
LINE
  5
1182A
330
1181E
100
AcDbEntity
  8
0
  6
CONTINUOUS
100
AcDbLine
 10
12.86831133953877
 20
3.231753811087759
 30
0.0
 11
13.91753754152154
 21
4.280980013070531
 31
0.0
  0
LINE
  5
1182B
330
1181E
100
AcDbEntity
  8
0
  6
CONTINUOUS
100
AcDbLine
 10
13.0678920903139
 20
2.757815352782702
 30
0.0
 11
14.11712327849465
 21
3.807046540963456
 31
0.0
  0
LINE
  5
1182C
330
1181E
100
AcDbEntity
  8
0
  6
CONTINUOUS
100
AcDbLine
 10
13.26747284108903
 20
2.283876894477644
 30
0.0
 11
14.31670901546777
 21
3.333113068856379
 31
0.0
  0
LINE
  5
1182D
330
1181E
100
AcDbEntity
  8
0
  6
CONTINUOUS
100
AcDbLine
 10
16.36767838827179
 20
8.751678487061342
 30
0.0
 11
16.50332410898388
 21
8.887324207773432
 31
0.0
  0
LINE
  5
1182E
330
1181E
100
AcDbEntity
  8
0
  6
CONTINUOUS
100
AcDbLine
 10
15.96190732182191
 20
7.67238821153127
 30
0.0
 11
16.68735328004734
 21
8.397834169756699
 31
0.0
  0
LINE
  5
1182F
330
1181E
100
AcDbEntity
  8
0
  6
CONTINUOUS
100
AcDbLine
 10
15.55613625537202
 20
6.593097936001196
 30
0.0
 11
16.87138245111079
 21
7.908344131739965
 31
0.0
  0
LINE
  5
11830
330
1181E
100
AcDbEntity
  8
0
  6
CONTINUOUS
100
AcDbLine
 10
15.15036518892213
 20
5.513807660471122
 30
0.0
 11
17.05541162217424
 21
7.418854093723231
 31
0.0
  0
LINE
  5
11831
330
1181E
100
AcDbEntity
  8
0
  6
CONTINUOUS
100
AcDbLine
 10
14.74459412247225
 20
4.434517384941048
 30
0.0
 11
17.2394407932377
 21
6.929364055706499
 31
0.0
  0
LINE
  5
11832
330
1181E
100
AcDbEntity
  8
0
  6
CONTINUOUS
100
AcDbLine
 10
14.33882305602236
 20
3.355227109410975
 30
0.0
 11
17.42346996430115
 21
6.439874017689766
 31
0.0
  0
LINE
  5
11833
330
1181E
100
AcDbEntity
  8
0
  6
CONTINUOUS
100
AcDbLine
 10
13.46705359186416
 20
1.809938436172586
 30
0.0
 11
16.0819338255367
 21
4.424818669845129
 31
0.0
  0
LINE
  5
11834
330
1181E
100
AcDbEntity
  8
0
  6
CONTINUOUS
100
AcDbLine
 10
16.63283254238972
 20
4.975717386698149
 30
0.0
 11
17.60749913536461
 21
5.950383979673033
 31
0.0
  0
LINE
  5
11835
330
1181E
100
AcDbEntity
  8
0
  6
CONTINUOUS
100
AcDbLine
 10
13.66663434263929
 20
1.335999977867529
 30
0.0
 11
15.67604797733754
 21
3.345413612565779
 31
0.0
  0
LINE
  5
11836
330
1181E
100
AcDbEntity
  8
0
  6
CONTINUOUS
100
AcDbLine
 10
13.86621509341442
 20
0.8620615195624723
 30
0.0
 11
15.27016212913838
 21
2.26600855528643
 31
0.0
  0
LINE
  5
11837
330
1181E
100
AcDbEntity
  8
0
  6
CONTINUOUS
100
AcDbLine
 10
16.81682257348267
 20
4.486188208710908
 30
0.0
 11
17.79152830642806
 21
5.460893941656299
 31
0.0
  0
LINE
  5
11838
330
1181E
100
AcDbEntity
  8
0
  6
CONTINUOUS
100
AcDbLine
 10
17.00081260457561
 20
3.996659030723667
 30
0.0
 11
17.97555747749151
 21
4.971403903639565
 31
0.0
  0
LINE
  5
11839
330
1181E
100
AcDbEntity
  8
0
  6
CONTINUOUS
100
AcDbLine
 10
20.74362343514722
 20
8.412989070375462
 30
0.0
 11
21.09373436476302
 21
8.763099999991256
 31
0.0
  0
LINE
  5
1183A
330
1181E
100
AcDbEntity
  8
0
  6
CONTINUOUS
100
AcDbLine
 10
20.25401257174777
 20
7.249858997895826
 30
0.0
 11
21.7672535738432
 21
8.763099999991255
 31
0.0
  0
LINE
  5
1183B
330
1181E
100
AcDbEntity
  8
0
  6
CONTINUOUS
100
AcDbLine
 10
14.06579584418955
 20
0.3881230612574149
 30
0.0
 11
14.86427628093921
 21
1.186603498007082
 31
0.0
  0
LINE
  5
1183C
330
1181E
100
AcDbEntity
  8
0
  6
CONTINUOUS
100
AcDbLine
 10
14.26537659496467
 20
-0.0858153970476412
 30
0.0
 11
14.45839043274005
 21
0.1071984407277329
 31
0.0
  0
LINE
  5
1183D
330
1181E
100
AcDbEntity
  8
0
  6
CONTINUOUS
100
AcDbLine
 10
17.18480263566856
 20
3.507129852736426
 30
0.0
 11
18.15958664855496
 21
4.481913865622833
 31
0.0
  0
LINE
  5
1183E
330
1181E
100
AcDbEntity
  8
0
  6
CONTINUOUS
100
AcDbLine
 10
17.3687926667615
 20
3.017600674749186
 30
0.0
 11
18.34361581961842
 21
3.9924238276061
 31
0.0
  0
LINE
  5
1183F
330
1181E
100
AcDbEntity
  8
0
  6
CONTINUOUS
100
AcDbLine
 10
19.76440170834832
 20
6.086728925416191
 30
0.0
 11
22.33924590259489
 21
8.661573119662755
 31
0.0
  0
LINE
  5
11840
330
1181E
100
AcDbEntity
  8
0
  6
CONTINUOUS
100
AcDbLine
 10
19.27479084494887
 20
4.923598852936555
 30
0.0
 11
21.84929622842713
 21
7.498104236414807
 31
0.0
  0
LINE
  5
11841
330
1181E
100
AcDbEntity
  8
0
  6
CONTINUOUS
100
AcDbLine
 10
17.55278269785445
 20
2.528071496761945
 30
0.0
 11
18.52764499068187
 21
3.502933789589366
 31
0.0
  0
LINE
  5
11842
330
1181E
100
AcDbEntity
  8
0
  6
CONTINUOUS
100
AcDbLine
 10
18.78517998154942
 20
3.760468780456919
 30
0.0
 11
21.35934655425936
 21
6.33463535316686
 31
0.0
  0
LINE
  5
11843
330
1181E
100
AcDbEntity
  8
0
  6
CONTINUOUS
100
AcDbLine
 10
17.73677272894739
 20
2.038542318774704
 30
0.0
 11
20.8693968800916
 21
5.171166469918914
 31
0.0
  0
LINE
  5
11844
330
1181E
100
AcDbEntity
  8
0
  6
CONTINUOUS
100
AcDbLine
 10
17.92076276004034
 20
1.549013140787464
 30
0.0
 11
20.37944720592384
 21
4.007697586670968
 31
0.0
  0
LINE
  5
11845
330
1181E
100
AcDbEntity
  8
0
  6
CONTINUOUS
100
AcDbLine
 10
18.10475279113329
 20
1.059483962800223
 30
0.0
 11
19.88949753175608
 21
2.84422870342302
 31
0.0
  0
LINE
  5
11846
330
1181E
100
AcDbEntity
  8
0
  6
CONTINUOUS
100
AcDbLine
 10
18.28874282222623
 20
0.5699547848129822
 30
0.0
 11
19.39954785758832
 21
1.680759820175074
 31
0.0
  0
LINE
  5
11847
330
1181E
100
AcDbEntity
  8
0
  6
CONTINUOUS
100
AcDbLine
 10
18.47273285331918
 20
0.0804256068257416
 30
0.0
 11
18.90959818342056
 21
0.517290936927127
 31
0.0
  0
LINE
  5
11848
330
1181E
100
AcDbEntity
  8
0
  6
CONTINUOUS
100
AcDbLine
 10
14.3590401358224
 20
-0.1570118376323384
 30
0.0
 11
14.24903296539946
 21
-0.0470046672093929
 31
0.0
  0
LINE
  5
11849
330
1181E
100
AcDbEntity
  8
0
  6
CONTINUOUS
100
AcDbLine
 10
14.54309291258661
 20
0.332454594683643
 30
0.0
 11
13.75908329123172
 21
1.116464216038529
 31
0.0
  0
LINE
  5
1184A
330
1181E
100
AcDbEntity
  8
0
  6
CONTINUOUS
100
AcDbLine
 10
14.72714568935081
 20
0.8219210269996244
 30
0.0
 11
13.26913361706399
 21
2.27993309928645
 31
0.0
  0
LINE
  5
1184B
330
1181E
100
AcDbEntity
  8
0
  6
CONTINUOUS
100
AcDbLine
 10
14.91119846611502
 20
1.311387459315606
 30
0.0
 11
12.77918394289625
 21
3.443401982534371
 31
0.0
  0
LINE
  5
1184C
330
1181E
100
AcDbEntity
  8
0
  6
CONTINUOUS
100
AcDbLine
 10
15.09525124287922
 20
1.800853891631587
 30
0.0
 11
12.28923426872852
 21
4.606870865782293
 31
0.0
  0
LINE
  5
1184D
330
1181E
100
AcDbEntity
  8
0
  6
CONTINUOUS
100
AcDbLine
 10
15.27930401964343
 20
2.290320323947569
 30
0.0
 11
11.79928459456078
 21
5.770339749030213
 31
0.0
  0
LINE
  5
1184E
330
1181E
100
AcDbEntity
  8
0
  6
CONTINUOUS
100
AcDbLine
 10
15.46335679640763
 20
2.77978675626355
 30
0.0
 11
14.48885470994921
 21
3.754288842721972
 31
0.0
  0
LINE
  5
1184F
330
1181E
100
AcDbEntity
  8
0
  6
CONTINUOUS
100
AcDbLine
 10
13.88507249233704
 20
4.358071060334137
 30
0.0
 11
11.30933492039305
 21
6.933808632278135
 31
0.0
  0
LINE
  5
11850
330
1181E
100
AcDbEntity
  8
0
  6
CONTINUOUS
100
AcDbLine
 10
18.75840522805855
 20
0.1582575336928151
 30
0.0
 11
18.25383727664818
 21
0.6628254851031863
 31
0.0
  0
LINE
  5
11851
330
1181E
100
AcDbEntity
  8
0
  6
CONTINUOUS
100
AcDbLine
 10
15.64740957317184
 20
3.269253188579531
 30
0.0
 11
14.67288388101266
 21
4.243778880738705
 31
0.0
  0
LINE
  5
11852
330
1181E
100
AcDbEntity
  8
0
  6
CONTINUOUS
100
AcDbLine
 10
13.39509276772158
 20
5.521569994029786
 30
0.0
 11
10.81938524622531
 21
8.097277515526056
 31
0.0
  0
LINE
  5
11853
330
1181E
100
AcDbEntity
  8
0
  6
CONTINUOUS
100
AcDbLine
 10
18.95798597883369
 20
0.6321959919978686
 30
0.0
 11
17.84825644852853
 21
1.741925522303024
 31
0.0
  0
LINE
  5
11854
330
1181E
100
AcDbEntity
  8
0
  6
CONTINUOUS
100
AcDbLine
 10
19.15756672960882
 20
1.106134450302922
 30
0.0
 11
17.44267562040888
 21
2.821025559502861
 31
0.0
  0
LINE
  5
11855
330
1181E
100
AcDbEntity
  8
0
  6
CONTINUOUS
100
AcDbLine
 10
15.83146234993604
 20
3.758719620895513
 30
0.0
 11
14.85691305207612
 21
4.733268918755439
 31
0.0
  0
LINE
  5
11856
330
1181E
100
AcDbEntity
  8
0
  6
CONTINUOUS
100
AcDbLine
 10
16.01551512670025
 20
4.248186053211494
 30
0.0
 11
15.04094222313957
 21
5.222758956772172
 31
0.0
  0
LINE
  5
11857
330
1181E
100
AcDbEntity
  8
0
  6
CONTINUOUS
100
AcDbLine
 10
12.90511304310612
 20
6.685068927725435
 30
0.0
 11
10.8270819708403
 21
8.763099999991255
 31
0.0
  0
LINE
  5
11858
330
1181E
100
AcDbEntity
  8
0
  6
CONTINUOUS
100
AcDbLine
 10
12.41513331849066
 20
7.848567861421083
 30
0.0
 11
11.50060117992049
 21
8.763099999991255
 31
0.0
  0
LINE
  5
11859
330
1181E
100
AcDbEntity
  8
0
  6
CONTINUOUS
100
AcDbLine
 10
19.35714748038395
 20
1.580072908607975
 30
0.0
 11
17.03709479228923
 21
3.900125596702697
 31
0.0
  0
LINE
  5
1185A
330
1181E
100
AcDbEntity
  8
0
  6
CONTINUOUS
100
AcDbLine
 10
19.55672823115909
 20
2.054011366913028
 30
0.0
 11
16.63151396416958
 21
4.979225633902534
 31
0.0
  0
LINE
  5
1185B
330
1181E
100
AcDbEntity
  8
0
  6
CONTINUOUS
100
AcDbLine
 10
16.19956790346445
 20
4.737652485527476
 30
0.0
 11
15.22497139420302
 21
5.712248994788904
 31
0.0
  0
LINE
  5
1185C
330
1181E
100
AcDbEntity
  8
0
  6
CONTINUOUS
100
AcDbLine
 10
16.38362068022866
 20
5.227118917843457
 30
0.0
 11
15.40900056526648
 21
6.201739032805637
 31
0.0
  0
LINE
  5
1185D
330
1181E
100
AcDbEntity
  8
0
  6
CONTINUOUS
100
AcDbLine
 10
19.75630898193422
 20
2.527949825218081
 30
0.0
 11
18.70774536448286
 21
3.576513442669441
 31
0.0
  0
LINE
  5
1185E
330
1181E
100
AcDbEntity
  8
0
  6
CONTINUOUS
100
AcDbLine
 10
19.95588973270936
 20
3.001888283523134
 30
0.0
 11
18.90726987211446
 21
4.050508144118028
 31
0.0
  0
LINE
  5
1185F
330
1181E
100
AcDbEntity
  8
0
  6
CONTINUOUS
100
AcDbLine
 10
20.15547048348449
 20
3.475826741828186
 30
0.0
 11
19.10679437974606
 21
4.524502845566614
 31
0.0
  0
LINE
  5
11860
330
1181E
100
AcDbEntity
  8
0
  6
CONTINUOUS
100
AcDbLine
 10
20.35505123425962
 20
3.94976520013324
 30
0.0
 11
19.30631888737766
 21
4.998497547015201
 31
0.0
  0
LINE
  5
11861
330
1181E
100
AcDbEntity
  8
0
  6
CONTINUOUS
100
AcDbLine
 10
20.55463198503475
 20
4.423703658438292
 30
0.0
 11
19.50584339500926
 21
5.472492248463787
 31
0.0
  0
LINE
  5
11862
330
1181E
100
AcDbEntity
  8
0
  6
CONTINUOUS
100
AcDbLine
 10
18.37481191085755
 20
3.909446896294752
 30
0.0
 11
15.59302973632993
 21
6.691229070822371
 31
0.0
  0
LINE
  5
11863
330
1181E
100
AcDbEntity
  8
0
  6
CONTINUOUS
100
AcDbLine
 10
17.96904084440766
 20
4.988737171824825
 30
0.0
 11
15.77705890739338
 21
7.180719108839104
 31
0.0
  0
LINE
  5
11864
330
1181E
100
AcDbEntity
  8
0
  6
CONTINUOUS
100
AcDbLine
 10
17.56326977795777
 20
6.068027447354899
 30
0.0
 11
15.96108807845684
 21
7.670209146855838
 31
0.0
  0
LINE
  5
11865
330
1181E
100
AcDbEntity
  8
0
  6
CONTINUOUS
100
AcDbLine
 10
17.15749871150789
 20
7.147317722884972
 30
0.0
 11
16.14511724952029
 21
8.15969918487257
 31
0.0
  0
LINE
  5
11866
330
1181E
100
AcDbEntity
  8
0
  6
CONTINUOUS
100
AcDbLine
 10
16.751727645058
 20
8.226607998415046
 30
0.0
 11
16.32914642058374
 21
8.649189222889303
 31
0.0
  0
LINE
  5
11867
330
1181E
100
AcDbEntity
  8
0
  6
CONTINUOUS
100
AcDbLine
 10
20.75421273580989
 20
4.897642116743345
 30
0.0
 11
19.70536790264086
 21
5.946486949912374
 31
0.0
  0
LINE
  5
11868
330
1181E
100
AcDbEntity
  8
0
  6
CONTINUOUS
100
AcDbLine
 10
20.95379348658502
 20
5.371580575048398
 30
0.0
 11
19.90489241027246
 21
6.42048165136096
 31
0.0
  0
LINE
  5
11869
330
1181E
100
AcDbEntity
  8
0
  6
CONTINUOUS
100
AcDbLine
 10
21.15337423736015
 20
5.845519033353452
 30
0.0
 11
20.10441691790406
 21
6.894476352809547
 31
0.0
  0
LINE
  5
1186A
330
1181E
100
AcDbEntity
  8
0
  6
CONTINUOUS
100
AcDbLine
 10
21.35295498813529
 20
6.319457491658505
 30
0.0
 11
20.30394142553566
 21
7.368471054258134
 31
0.0
  0
LINE
  5
1186B
330
1181E
100
AcDbEntity
  8
0
  6
CONTINUOUS
100
AcDbLine
 10
21.55253573891042
 20
6.793395949963558
 30
0.0
 11
20.50346593316726
 21
7.842465755706721
 31
0.0
  0
LINE
  5
1186C
330
1181E
100
AcDbEntity
  8
0
  6
CONTINUOUS
100
AcDbLine
 10
21.75211648968556
 20
7.267334408268612
 30
0.0
 11
20.70299044079886
 21
8.316460457155308
 31
0.0
  0
LINE
  5
1186D
330
1181E
100
AcDbEntity
  8
0
  6
CONTINUOUS
100
AcDbLine
 10
21.95169724046069
 20
7.741272866573663
 30
0.0
 11
20.9298701070431
 21
8.763099999991256
 31
0.0
  0
LINE
  5
1186E
330
1181E
100
AcDbEntity
  8
0
  6
CONTINUOUS
100
AcDbLine
 10
22.15127799123582
 20
8.215211324878716
 30
0.0
 11
21.60338931612328
 21
8.763099999991256
 31
0.0
  0
LINE
  5
1186F
330
1181E
100
AcDbEntity
  8
0
  6
CONTINUOUS
100
AcDbLine
 10
22.35085874201096
 20
8.689149783183769
 30
0.0
 11
22.27690852520347
 21
8.763099999991255
 31
0.0
  0
ENDBLK
  5
11961
330
1181E
100
AcDbEntity
  8
0
100
AcDbBlockEnd
  0
BLOCK
  5
11962
330
11870
100
AcDbEntity
  8
0
100
AcDbBlockBegin
  2
*X24
 70
     1
 10
0.0
 20
0.0
 30
0.0
  3
*X24
  1

  0
LINE
  5
11871
330
11870
100
AcDbEntity
  8
0
  6
CONTINUOUS
100
AcDbLine
 10
23.19462913593892
 20
8.169917934846424
 30
0.0
 11
23.70775465517246
 21
8.683043454079957
 31
0.0
  0
LINE
  5
11872
330
11870
100
AcDbEntity
  8
0
  6
CONTINUOUS
100
AcDbLine
 10
22.64923161835078
 20
6.951001208178088
 30
0.0
 11
23.9159364069932
 21
8.217705996820516
 31
0.0
  0
LINE
  5
11873
330
11870
100
AcDbEntity
  8
0
  6
CONTINUOUS
100
AcDbLine
 10
22.10383410076263
 20
5.732084481509751
 30
0.0
 11
24.12411815881395
 21
7.752368539561078
 31
0.0
  0
LINE
  5
11874
330
11870
100
AcDbEntity
  8
0
  6
CONTINUOUS
100
AcDbLine
 10
21.55843658317447
 20
4.513167754841414
 30
0.0
 11
24.3322999106347
 21
7.287031082301639
 31
0.0
  0
LINE
  5
11875
330
11870
100
AcDbEntity
  8
0
  6
CONTINUOUS
100
AcDbLine
 10
21.01303906558632
 20
3.294251028173077
 30
0.0
 11
24.54048166245544
 21
6.821693625042199
 31
0.0
  0
LINE
  5
11876
330
11870
100
AcDbEntity
  8
0
  6
CONTINUOUS
100
AcDbLine
 10
20.46764154799817
 20
2.075334301504738
 30
0.0
 11
23.28571549467848
 21
4.89340824818505
 31
0.0
  0
LINE
  5
11877
330
11870
100
AcDbEntity
  8
0
  6
CONTINUOUS
100
AcDbLine
 10
19.92224403041002
 20
0.8564175748364002
 30
0.0
 11
22.74075865492779
 21
3.674932199354171
 31
0.0
  0
LINE
  5
11878
330
11870
100
AcDbEntity
  8
0
  6
CONTINUOUS
100
AcDbLine
 10
23.67305085490148
 20
5.280743608408048
 30
0.0
 11
24.74866341427619
 21
6.356356167782759
 31
0.0
  0
LINE
  5
11879
330
11870
100
AcDbEntity
  8
0
  6
CONTINUOUS
100
AcDbLine
 10
23.88118970842314
 20
4.815363252849522
 30
0.0
 11
24.95684516609694
 21
5.89101871052332
 31
0.0
  0
LINE
  5
1187A
330
11870
100
AcDbEntity
  8
0
  6
CONTINUOUS
100
AcDbLine
 10
19.73925852647308
 20
-0.0000871381807288
 30
0.0
 11
23.4103456646501
 21
3.670999999996297
 31
0.0
  0
LINE
  5
1187B
330
11870
100
AcDbEntity
  8
0
  6
CONTINUOUS
100
AcDbLine
 10
24.0893285619448
 20
4.349982897290997
 30
0.0
 11
25.16502691791769
 21
5.42568125326388
 31
0.0
  0
LINE
  5
1187C
330
11870
100
AcDbEntity
  8
0
  6
CONTINUOUS
100
AcDbLine
 10
20.41282099582748
 20
-0.0000438779065108
 30
0.0
 11
21.64944178675636
 21
1.236576913022366
 31
0.0
  0
LINE
  5
1187D
330
11870
100
AcDbEntity
  8
0
  6
CONTINUOUS
100
AcDbLine
 10
22.78126487373161
 20
2.36839999999762
 30
0.0
 11
24.08386487373029
 21
3.670999999996297
 31
0.0
  0
LINE
  5
1187E
330
11870
100
AcDbEntity
  8
0
  6
CONTINUOUS
100
AcDbLine
 10
24.29746741546646
 20
3.884602541732471
 30
0.0
 11
25.37320866973843
 21
4.960343796004441
 31
0.0
  0
LINE
  5
1187F
330
11870
100
AcDbEntity
  8
0
  6
CONTINUOUS
100
AcDbLine
 10
21.08638346518189
 20
-0.0000006176322938
 30
0.0
 11
21.10379033335899
 21
0.0174062505448083
 31
0.0
  0
LINE
  5
11880
330
11870
100
AcDbEntity
  8
0
  6
CONTINUOUS
100
AcDbLine
 10
23.4547840828118
 20
2.36839999999762
 30
0.0
 11
25.58139042155918
 21
4.495006338745002
 31
0.0
  0
LINE
  5
11881
330
11870
100
AcDbEntity
  8
0
  6
CONTINUOUS
100
AcDbLine
 10
29.30199999996933
 20
8.215615917155148
 30
0.0
 11
29.84948408280543
 21
8.763099999991255
 31
0.0
  0
LINE
  5
11882
330
11870
100
AcDbEntity
  8
0
  6
CONTINUOUS
100
AcDbLine
 10
24.12830329189199
 20
2.36839999999762
 30
0.0
 11
25.78957217337993
 21
4.029668881485562
 31
0.0
  0
LINE
  5
11883
330
11870
100
AcDbEntity
  8
0
  6
CONTINUOUS
100
AcDbLine
 10
29.30199999996933
 20
7.54209670807496
 30
0.0
 11
30.52300329188562
 21
8.763099999991255
 31
0.0
  0
LINE
  5
11884
330
11870
100
AcDbEntity
  8
0
  6
CONTINUOUS
100
AcDbLine
 10
24.80182250097217
 20
2.36839999999762
 30
0.0
 11
25.99775392520067
 21
3.564331424226122
 31
0.0
  0
LINE
  5
11885
330
11870
100
AcDbEntity
  8
0
  6
CONTINUOUS
100
AcDbLine
 10
29.30199999996933
 20
6.868577498994774
 30
0.0
 11
30.74199999996926
 21
8.308577498994712
 31
0.0
  0
LINE
  5
11886
330
11870
100
AcDbEntity
  8
0
  6
CONTINUOUS
100
AcDbLine
 10
25.13028238392013
 20
2.023340673865392
 30
0.0
 11
26.20593567702142
 21
3.098993966966683
 31
0.0
  0
LINE
  5
11887
330
11870
100
AcDbEntity
  8
0
  6
CONTINUOUS
100
AcDbLine
 10
25.33838066033617
 20
1.557919741201244
 30
0.0
 11
26.41411742884217
 21
2.633656509707244
 31
0.0
  0
LINE
  5
11888
330
11870
100
AcDbEntity
  8
0
  6
CONTINUOUS
100
AcDbLine
 10
25.54647893675221
 20
1.092498808537098
 30
0.0
 11
26.62229918066291
 21
2.168319052447804
 31
0.0
  0
LINE
  5
11889
330
11870
100
AcDbEntity
  8
0
  6
CONTINUOUS
100
AcDbLine
 10
25.75457721316825
 20
0.62707787587295
 30
0.0
 11
26.83048093248366
 21
1.702981595188365
 31
0.0
  0
LINE
  5
1188A
330
11870
100
AcDbEntity
  8
0
  6
CONTINUOUS
100
AcDbLine
 10
29.30199999996933
 20
6.195058289914587
 30
0.0
 11
30.74199999996926
 21
7.635058289914522
 31
0.0
  0
LINE
  5
1188B
330
11870
100
AcDbEntity
  8
0
  6
CONTINUOUS
100
AcDbLine
 10
29.30199999996933
 20
5.521539080834401
 30
0.0
 11
30.74199999996926
 21
6.961539080834331
 31
0.0
  0
LINE
  5
1188C
330
11870
100
AcDbEntity
  8
0
  6
CONTINUOUS
100
AcDbLine
 10
29.30199999996933
 20
4.848019871754214
 30
0.0
 11
30.74199999996925
 21
6.288019871754143
 31
0.0
  0
LINE
  5
1188D
330
11870
100
AcDbEntity
  8
0
  6
CONTINUOUS
100
AcDbLine
 10
29.30199999996933
 20
4.174500662674028
 30
0.0
 11
30.74199999996925
 21
5.614500662673953
 31
0.0
  0
LINE
  5
1188E
330
11870
100
AcDbEntity
  8
0
  6
CONTINUOUS
100
AcDbLine
 10
25.96267548958429
 20
0.1616569432088024
 30
0.0
 11
27.18411854636669
 21
1.383099999991207
 31
0.0
  0
LINE
  5
1188F
330
11870
100
AcDbEntity
  8
0
  6
CONTINUOUS
100
AcDbLine
 10
29.30199999996933
 20
3.500981453593841
 30
0.0
 11
30.74199999996925
 21
4.940981453593762
 31
0.0
  0
LINE
  5
11890
330
11870
100
AcDbEntity
  8
0
  6
CONTINUOUS
100
AcDbLine
 10
26.50763775544691
 20
0.0330999999912356
 30
0.0
 11
27.85763775544689
 21
1.383099999991223
 31
0.0
  0
LINE
  5
11891
330
11870
100
AcDbEntity
  8
0
  6
CONTINUOUS
100
AcDbLine
 10
29.30199999996933
 20
2.827462244513656
 30
0.0
 11
30.74199999996925
 21
4.267462244513574
 31
0.0
  0
LINE
  5
11892
330
11870
100
AcDbEntity
  8
0
  6
CONTINUOUS
100
AcDbLine
 10
27.18115696452709
 20
0.0330999999912356
 30
0.0
 11
28.55073879889363
 21
1.402681834357775
 31
0.0
  0
LINE
  5
11893
330
11870
100
AcDbEntity
  8
0
  6
CONTINUOUS
100
AcDbLine
 10
29.28241816560272
 20
2.134361201066866
 30
0.0
 11
30.74199999996924
 21
3.593943035433383
 31
0.0
  0
LINE
  5
11894
330
11870
100
AcDbEntity
  8
0
  6
CONTINUOUS
100
AcDbLine
 10
27.85467617360728
 20
0.0330999999912356
 30
0.0
 11
30.74199999996924
 21
2.920423826353195
 31
0.0
  0
LINE
  5
11895
330
11870
100
AcDbEntity
  8
0
  6
CONTINUOUS
100
AcDbLine
 10
28.53897559587887
 20
0.0438802131826428
 30
0.0
 11
30.73121978677781
 21
2.236124404081585
 31
0.0
  0
LINE
  5
11896
330
11870
100
AcDbEntity
  8
0
  6
CONTINUOUS
100
AcDbLine
 10
29.45140055588722
 20
0.2827859641107988
 30
0.0
 11
30.49231403584965
 21
1.323699444073236
 31
0.0
  0
LINE
  5
11897
330
11870
100
AcDbEntity
  8
0
  6
CONTINUOUS
100
AcDbLine
 10
19.59027867740337
 20
-0.0000967065718083
 30
0.0
 11
19.55485265190471
 21
0.035329318926844
 31
0.0
  0
LINE
  5
11898
330
11870
100
AcDbEntity
  8
0
  6
CONTINUOUS
100
AcDbLine
 10
20.26375463176586
 20
-0.0000534518541091
 30
0.0
 11
19.76305575737534
 21
0.5006454225364014
 31
0.0
  0
LINE
  5
11899
330
11870
100
AcDbEntity
  8
0
  6
CONTINUOUS
100
AcDbLine
 10
20.93723058612834
 20
-0.0000101971364099
 30
0.0
 11
19.97125886284597
 21
0.965961526145958
 31
0.0
  0
LINE
  5
1189A
330
11870
100
AcDbEntity
  8
0
  6
CONTINUOUS
100
AcDbLine
 10
21.25514828313686
 20
0.355591314935257
 30
0.0
 11
20.1794619683166
 21
1.431277629755512
 31
0.0
  0
LINE
  5
1189B
330
11870
100
AcDbEntity
  8
0
  6
CONTINUOUS
100
AcDbLine
 10
21.46338838394921
 20
0.8208704232030986
 30
0.0
 11
20.38766507378723
 21
1.896593733365069
 31
0.0
  0
LINE
  5
1189C
330
11870
100
AcDbEntity
  8
0
  6
CONTINUOUS
100
AcDbLine
 10
21.67162848476155
 20
1.28614953147094
 30
0.0
 11
20.59586817925786
 21
2.361909836974626
 31
0.0
  0
LINE
  5
1189D
330
11870
100
AcDbEntity
  8
0
  6
CONTINUOUS
100
AcDbLine
 10
21.8798685855739
 20
1.751428639738782
 30
0.0
 11
20.80407128472849
 21
2.827225940584183
 31
0.0
  0
LINE
  5
1189E
330
11870
100
AcDbEntity
  8
0
  6
CONTINUOUS
100
AcDbLine
 10
22.08810868638624
 20
2.216707748006623
 30
0.0
 11
21.01227439019912
 21
3.292542044193739
 31
0.0
  0
LINE
  5
1189F
330
11870
100
AcDbEntity
  8
0
  6
CONTINUOUS
100
AcDbLine
 10
22.60993564347543
 20
2.36839999999762
 30
0.0
 11
21.22047749566975
 21
3.757858147803296
 31
0.0
  0
LINE
  5
118A0
330
11870
100
AcDbEntity
  8
0
  6
CONTINUOUS
100
AcDbLine
 10
23.28345485255561
 20
2.36839999999762
 30
0.0
 11
21.42868060114038
 21
4.223174251412853
 31
0.0
  0
LINE
  5
118A1
330
11870
100
AcDbEntity
  8
0
  6
CONTINUOUS
100
AcDbLine
 10
26.29227406164219
 20
0.0330999999912356
 30
0.0
 11
25.80009199592872
 21
0.5252820657046957
 31
0.0
  0
LINE
  5
118A2
330
11870
100
AcDbEntity
  8
0
  6
CONTINUOUS
100
AcDbLine
 10
23.9569740616358
 20
2.36839999999762
 30
0.0
 11
21.63688370661101
 21
4.688490355022409
 31
0.0
  0
LINE
  5
118A3
330
11870
100
AcDbEntity
  8
0
  6
CONTINUOUS
100
AcDbLine
 10
26.96579327072237
 20
0.0330999999912356
 30
0.0
 11
25.2554132311971
 21
1.743480039516508
 31
0.0
  0
LINE
  5
118A4
330
11870
100
AcDbEntity
  8
0
  6
CONTINUOUS
100
AcDbLine
 10
24.63049327071599
 20
2.36839999999762
 30
0.0
 11
23.32789327071731
 21
3.670999999996297
 31
0.0
  0
LINE
  5
118A5
330
11870
100
AcDbEntity
  8
0
  6
CONTINUOUS
100
AcDbLine
 10
22.92098674744635
 20
4.077906523267254
 30
0.0
 11
21.84508681208164
 21
5.153806458631966
 31
0.0
  0
LINE
  5
118A6
330
11870
100
AcDbEntity
  8
0
  6
CONTINUOUS
100
AcDbLine
 10
27.63931247980256
 20
0.0330999999912356
 30
0.0
 11
24.0014124797975
 21
3.670999999996297
 31
0.0
  0
LINE
  5
118A7
330
11870
100
AcDbEntity
  8
0
  6
CONTINUOUS
100
AcDbLine
 10
23.129125600968
 20
4.5432868788258
 30
0.0
 11
22.05328991755227
 21
5.619122562241522
 31
0.0
  0
LINE
  5
118A8
330
11870
100
AcDbEntity
  8
0
  6
CONTINUOUS
100
AcDbLine
 10
28.31283168888275
 20
0.0330999999912356
 30
0.0
 11
24.16488385994816
 21
4.181047828925828
 31
0.0
  0
LINE
  5
118A9
330
11870
100
AcDbEntity
  8
0
  6
CONTINUOUS
100
AcDbLine
 10
23.33726445448964
 20
5.008667234384345
 30
0.0
 11
22.2614930230229
 21
6.084438665851079
 31
0.0
  0
LINE
  5
118AA
330
11870
100
AcDbEntity
  8
0
  6
CONTINUOUS
100
AcDbLine
 10
28.92085740005492
 20
0.0985934978992438
 30
0.0
 11
27.63635089796295
 21
1.383099999991217
 31
0.0
  0
LINE
  5
118AB
330
11870
100
AcDbEntity
  8
0
  6
CONTINUOUS
100
AcDbLine
 10
26.43704649509776
 20
2.582404402856405
 30
0.0
 11
23.61992702019732
 21
5.399523877756844
 31
0.0
  0
LINE
  5
118AC
330
11870
100
AcDbEntity
  8
0
  6
CONTINUOUS
100
AcDbLine
 10
23.54540330801128
 20
5.47404758994289
 30
0.0
 11
22.46969612849353
 21
6.549754769460635
 31
0.0
  0
LINE
  5
118AD
330
11870
100
AcDbEntity
  8
0
  6
CONTINUOUS
100
AcDbLine
 10
29.42225615078443
 20
0.2707139562499279
 30
0.0
 11
28.30987010704312
 21
1.383099999991234
 31
0.0
  0
LINE
  5
118AE
330
11870
100
AcDbEntity
  8
0
  6
CONTINUOUS
100
AcDbLine
 10
25.89179548232307
 20
3.801174624711282
 30
0.0
 11
22.67789923396416
 21
7.015070873070191
 31
0.0
  0
LINE
  5
118AF
330
11870
100
AcDbEntity
  8
0
  6
CONTINUOUS
100
AcDbLine
 10
29.83624534690007
 20
0.5302439692144705
 30
0.0
 11
28.85811781497101
 21
1.508371501143527
 31
0.0
  0
LINE
  5
118B0
330
11870
100
AcDbEntity
  8
0
  6
CONTINUOUS
100
AcDbLine
 10
25.34654446954838
 20
5.01994484656616
 30
0.0
 11
22.88610233943479
 21
7.480386976679748
 31
0.0
  0
LINE
  5
118B1
330
11870
100
AcDbEntity
  8
0
  6
CONTINUOUS
100
AcDbLine
 10
30.17865975401872
 20
0.8613487711760022
 30
0.0
 11
29.18888744090175
 21
1.851121084292977
 31
0.0
  0
LINE
  5
118B2
330
11870
100
AcDbEntity
  8
0
  6
CONTINUOUS
100
AcDbLine
 10
24.80129345677369
 20
6.238715068421037
 30
0.0
 11
23.09430544490542
 21
7.945703080289305
 31
0.0
  0
LINE
  5
118B3
330
11870
100
AcDbEntity
  8
0
  6
CONTINUOUS
100
AcDbLine
 10
30.45496647202376
 20
1.258561262251155
 30
0.0
 11
29.30199999996933
 21
2.411527734305588
 31
0.0
  0
LINE
  5
118B4
330
11870
100
AcDbEntity
  8
0
  6
CONTINUOUS
100
AcDbLine
 10
24.256042443999
 20
7.457485290275915
 30
0.0
 11
23.30250855037605
 21
8.411019183898862
 31
0.0
  0
LINE
  5
118B5
330
11870
100
AcDbEntity
  8
0
  6
CONTINUOUS
100
AcDbLine
 10
30.64868582078271
 20
1.738361122572387
 30
0.0
 11
29.30199999996933
 21
3.085046943385775
 31
0.0
  0
LINE
  5
118B6
330
11870
100
AcDbEntity
  8
0
  6
CONTINUOUS
100
AcDbLine
 10
23.71079143122431
 20
8.676255512130794
 30
0.0
 11
23.51071165584668
 21
8.876335287508416
 31
0.0
  0
LINE
  5
118B7
330
11870
100
AcDbEntity
  8
0
  6
CONTINUOUS
100
AcDbLine
 10
30.73802122914428
 20
2.322544923291007
 30
0.0
 11
29.30199999996933
 21
3.758566152465961
 31
0.0
  0
LINE
  5
118B8
330
11870
100
AcDbEntity
  8
0
  6
CONTINUOUS
100
AcDbLine
 10
30.74199999996924
 20
2.992085361546236
 30
0.0
 11
29.30199999996933
 21
4.432085361546148
 31
0.0
  0
LINE
  5
118B9
330
11870
100
AcDbEntity
  8
0
  6
CONTINUOUS
100
AcDbLine
 10
30.74199999996924
 20
3.665604570626419
 30
0.0
 11
29.30199999996933
 21
5.105604570626333
 31
0.0
  0
LINE
  5
118BA
330
11870
100
AcDbEntity
  8
0
  6
CONTINUOUS
100
AcDbLine
 10
30.74199999996925
 20
4.339123779706602
 30
0.0
 11
29.30199999996933
 21
5.77912377970652
 31
0.0
  0
LINE
  5
118BB
330
11870
100
AcDbEntity
  8
0
  6
CONTINUOUS
100
AcDbLine
 10
30.74199999996925
 20
5.012642988786785
 30
0.0
 11
29.30199999996933
 21
6.452642988786707
 31
0.0
  0
LINE
  5
118BC
330
11870
100
AcDbEntity
  8
0
  6
CONTINUOUS
100
AcDbLine
 10
30.74199999996925
 20
5.68616219786697
 30
0.0
 11
29.30199999996933
 21
7.126162197866894
 31
0.0
  0
LINE
  5
118BD
330
11870
100
AcDbEntity
  8
0
  6
CONTINUOUS
100
AcDbLine
 10
30.74199999996925
 20
6.359681406947153
 30
0.0
 11
29.30199999996933
 21
7.799681406947081
 31
0.0
  0
LINE
  5
118BE
330
11870
100
AcDbEntity
  8
0
  6
CONTINUOUS
100
AcDbLine
 10
30.74199999996926
 20
7.033200616027337
 30
0.0
 11
29.30199999996933
 21
8.473200616027269
 31
0.0
  0
LINE
  5
118BF
330
11870
100
AcDbEntity
  8
0
  6
CONTINUOUS
100
AcDbLine
 10
30.74199999996926
 20
7.706719825107518
 30
0.0
 11
29.68561982508552
 21
8.763099999991255
 31
0.0
  0
LINE
  5
118C0
330
11870
100
AcDbEntity
  8
0
  6
CONTINUOUS
100
AcDbLine
 10
30.74199999996926
 20
8.380239034187703
 30
0.0
 11
30.35913903416571
 21
8.763099999991255
 31
0.0
  0
ENDBLK
  5
11963
330
11870
100
AcDbEntity
  8
0
100
AcDbBlockEnd
  0
BLOCK
  5
11964
330
118C1
100
AcDbEntity
  8
0
100
AcDbBlockBegin
  2
*X25
 70
     1
 10
0.0
 20
0.0
 30
0.0
  3
*X25
  1

  0
LINE
  5
118C2
330
118C1
100
AcDbEntity
  8
0
  6
CONTINUOUS
100
AcDbLine
 10
31.64199999996833
 20
8.535058289913598
 30
0.0
 11
31.87004171004599
 21
8.763099999991255
 31
0.0
  0
LINE
  5
118C3
330
118C1
100
AcDbEntity
  8
0
  6
CONTINUOUS
100
AcDbLine
 10
31.64199999996833
 20
7.861539080833412
 30
0.0
 11
32.54356091912618
 21
8.763099999991255
 31
0.0
  0
LINE
  5
118C4
330
118C1
100
AcDbEntity
  8
0
  6
CONTINUOUS
100
AcDbLine
 10
31.64199999996833
 20
7.188019871753226
 30
0.0
 11
33.08199999996839
 21
8.628019871753281
 31
0.0
  0
LINE
  5
118C5
330
118C1
100
AcDbEntity
  8
0
  6
CONTINUOUS
100
AcDbLine
 10
31.64199999996833
 20
6.51450066267304
 30
0.0
 11
33.08199999996839
 21
7.954500662673095
 31
0.0
  0
LINE
  5
118C6
330
118C1
100
AcDbEntity
  8
0
  6
CONTINUOUS
100
AcDbLine
 10
31.64199999996833
 20
5.840981453592853
 30
0.0
 11
33.08199999996839
 21
7.280981453592908
 31
0.0
  0
LINE
  5
118C7
330
118C1
100
AcDbEntity
  8
0
  6
CONTINUOUS
100
AcDbLine
 10
31.64199999996833
 20
5.167462244512667
 30
0.0
 11
33.08199999996839
 21
6.607462244512721
 31
0.0
  0
LINE
  5
118C8
330
118C1
100
AcDbEntity
  8
0
  6
CONTINUOUS
100
AcDbLine
 10
31.64199999996833
 20
4.493943035432481
 30
0.0
 11
33.08199999996839
 21
5.933943035432535
 31
0.0
  0
LINE
  5
118C9
330
118C1
100
AcDbEntity
  8
0
  6
CONTINUOUS
100
AcDbLine
 10
31.64199999996833
 20
3.820423826352293
 30
0.0
 11
33.08199999996839
 21
5.260423826352348
 31
0.0
  0
LINE
  5
118CA
330
118C1
100
AcDbEntity
  8
0
  6
CONTINUOUS
100
AcDbLine
 10
31.64199999996833
 20
3.146904617272106
 30
0.0
 11
33.08199999996839
 21
4.586904617272161
 31
0.0
  0
LINE
  5
118CB
330
118C1
100
AcDbEntity
  8
0
  6
CONTINUOUS
100
AcDbLine
 10
36.23199999996837
 20
8.410423826352325
 30
0.0
 11
36.5846761736073
 21
8.763099999991255
 31
0.0
  0
LINE
  5
118CC
330
118C1
100
AcDbEntity
  8
0
  6
CONTINUOUS
100
AcDbLine
 10
36.23199999996837
 20
7.73690461727214
 30
0.0
 11
37.25819538268748
 21
8.763099999991255
 31
0.0
  0
LINE
  5
118CD
330
118C1
100
AcDbEntity
  8
0
  6
CONTINUOUS
100
AcDbLine
 10
31.64257403601376
 20
2.473959444237348
 30
0.0
 11
33.08199999996839
 21
3.913385408191974
 31
0.0
  0
LINE
  5
118CE
330
118C1
100
AcDbEntity
  8
0
  6
CONTINUOUS
100
AcDbLine
 10
36.23199999996837
 20
7.063385408191953
 30
0.0
 11
37.67199999996831
 21
8.503385408191894
 31
0.0
  0
LINE
  5
118CF
330
118C1
100
AcDbEntity
  8
0
  6
CONTINUOUS
100
AcDbLine
 10
31.72013636841932
 20
1.87800256756272
 30
0.0
 11
33.08199999996839
 21
3.239866199111788
 31
0.0
  0
LINE
  5
118D0
330
118C1
100
AcDbEntity
  8
0
  6
CONTINUOUS
100
AcDbLine
 10
36.23199999996837
 20
6.389866199111767
 30
0.0
 11
37.67199999996831
 21
7.829866199111708
 31
0.0
  0
LINE
  5
118D1
330
118C1
100
AcDbEntity
  8
0
  6
CONTINUOUS
100
AcDbLine
 10
31.89042734314753
 20
1.374774333210744
 30
0.0
 11
33.08199999996839
 21
2.566346990031601
 31
0.0
  0
LINE
  5
118D2
330
118C1
100
AcDbEntity
  8
0
  6
CONTINUOUS
100
AcDbLine
 10
36.23199999996837
 20
5.71634699003158
 30
0.0
 11
37.67199999996831
 21
7.156346990031521
 31
0.0
  0
LINE
  5
118D3
330
118C1
100
AcDbEntity
  8
0
  6
CONTINUOUS
100
AcDbLine
 10
32.14210568064475
 20
0.952933461627778
 30
0.0
 11
33.18745552475986
 21
1.998283305742888
 31
0.0
  0
LINE
  5
118D4
330
118C1
100
AcDbEntity
  8
0
  6
CONTINUOUS
100
AcDbLine
 10
36.23199999996837
 20
5.042827780951393
 30
0.0
 11
37.67199999996831
 21
6.482827780951334
 31
0.0
  0
LINE
  5
118D5
330
118C1
100
AcDbEntity
  8
0
  6
CONTINUOUS
100
AcDbLine
 10
32.45820639400955
 20
0.5955149659123915
 30
0.0
 11
33.47242681921943
 21
1.60973539112227
 31
0.0
  0
LINE
  5
118D6
330
118C1
100
AcDbEntity
  8
0
  6
CONTINUOUS
100
AcDbLine
 10
36.23199999996837
 20
4.369308571871207
 30
0.0
 11
37.67199999996831
 21
5.809308571871147
 31
0.0
  0
LINE
  5
118D7
330
118C1
100
AcDbEntity
  8
0
  6
CONTINUOUS
100
AcDbLine
 10
32.83432456621412
 20
0.2981139290367771
 30
0.0
 11
33.89722476612215
 21
1.361014128944803
 31
0.0
  0
LINE
  5
118D8
330
118C1
100
AcDbEntity
  8
0
  6
CONTINUOUS
100
AcDbLine
 10
36.23199999996837
 20
3.69578936279102
 30
0.0
 11
37.67199999996831
 21
5.135789362790962
 31
0.0
  0
LINE
  5
118D9
330
118C1
100
AcDbEntity
  8
0
  6
CONTINUOUS
100
AcDbLine
 10
33.2711633111245
 20
0.0614334648669672
 30
0.0
 11
34.43247338014423
 21
1.222743533886696
 31
0.0
  0
LINE
  5
118DA
330
118C1
100
AcDbEntity
  8
0
  6
CONTINUOUS
100
AcDbLine
 10
36.23199999996837
 20
3.022270153710834
 30
0.0
 11
37.67199999996831
 21
4.462270153710775
 31
0.0
  0
LINE
  5
118DB
330
118C1
100
AcDbEntity
  8
0
  6
CONTINUOUS
100
AcDbLine
 10
33.76515245874577
 20
-0.1180965965919523
 30
0.0
 11
35.1587445516215
 21
1.27549549628378
 31
0.0
  0
LINE
  5
118DC
330
118C1
100
AcDbEntity
  8
0
  6
CONTINUOUS
100
AcDbLine
 10
36.21639478609585
 20
2.333145730758136
 30
0.0
 11
37.67199999996831
 21
3.788750944630588
 31
0.0
  0
LINE
  5
118DD
330
118C1
100
AcDbEntity
  8
0
  6
CONTINUOUS
100
AcDbLine
 10
34.34060583368432
 20
-0.2161624307335863
 30
0.0
 11
37.67199999996831
 21
3.115231735550401
 31
0.0
  0
LINE
  5
118DE
330
118C1
100
AcDbEntity
  8
0
  6
CONTINUOUS
100
AcDbLine
 10
35.01698193613905
 20
-0.2133055373590427
 30
0.0
 11
37.66876712070525
 21
2.438479647207154
 31
0.0
  0
LINE
  5
118DF
330
118C1
100
AcDbEntity
  8
0
  6
CONTINUOUS
100
AcDbLine
 10
35.90743367693304
 20
0.0036269943547609
 30
0.0
 11
37.51723902192366
 21
1.613432339345381
 31
0.0
  0
LINE
  5
118E0
330
118C1
100
AcDbEntity
  8
0
  6
CONTINUOUS
100
AcDbLine
 10
32.55309425579761
 20
0.5074718966376706
 30
0.0
 11
32.27784730925847
 21
0.7827188431768102
 31
0.0
  0
LINE
  5
118E1
330
118C1
100
AcDbEntity
  8
0
  6
CONTINUOUS
100
AcDbLine
 10
33.87496468909684
 20
-0.1408793275813673
 30
0.0
 11
31.67993083278052
 21
2.054154528734943
 31
0.0
  0
LINE
  5
118E2
330
118C1
100
AcDbEntity
  8
0
  6
CONTINUOUS
100
AcDbLine
 10
34.64362813207632
 20
-0.2360235614806649
 30
0.0
 11
31.64199999996833
 21
2.765604570627322
 31
0.0
  0
LINE
  5
118E3
330
118C1
100
AcDbEntity
  8
0
  6
CONTINUOUS
100
AcDbLine
 10
35.25801106796118
 20
-0.1768872882853429
 30
0.0
 11
31.64199999996833
 21
3.439123779707508
 31
0.0
  0
LINE
  5
118E4
330
118C1
100
AcDbEntity
  8
0
  6
CONTINUOUS
100
AcDbLine
 10
35.79065650332146
 20
-0.0360135145654361
 30
0.0
 11
34.54143210838231
 21
1.213210880373721
 31
0.0
  0
LINE
  5
118E5
330
118C1
100
AcDbEntity
  8
0
  6
CONTINUOUS
100
AcDbLine
 10
33.08199999996839
 20
2.67264298878764
 30
0.0
 11
31.64199999996833
 21
4.112642988787695
 31
0.0
  0
LINE
  5
118E6
330
118C1
100
AcDbEntity
  8
0
  6
CONTINUOUS
100
AcDbLine
 10
36.25975597779143
 20
0.1684062200447833
 30
0.0
 11
35.15395110240023
 21
1.274211095435983
 31
0.0
  0
LINE
  5
118E7
330
118C1
100
AcDbEntity
  8
0
  6
CONTINUOUS
100
AcDbLine
 10
33.08199999996839
 20
3.346162197867826
 30
0.0
 11
31.64199999996833
 21
4.786162197867881
 31
0.0
  0
LINE
  5
118E8
330
118C1
100
AcDbEntity
  8
0
  6
CONTINUOUS
100
AcDbLine
 10
36.67226329638774
 20
0.4294181105286579
 30
0.0
 11
35.63766478748767
 21
1.464016619428737
 31
0.0
  0
LINE
  5
118E9
330
118C1
100
AcDbEntity
  8
0
  6
CONTINUOUS
100
AcDbLine
 10
33.08199999996839
 20
4.019681406948012
 30
0.0
 11
31.64199999996833
 21
5.459681406948068
 31
0.0
  0
LINE
  5
118EA
330
118C1
100
AcDbEntity
  8
0
  6
CONTINUOUS
100
AcDbLine
 10
37.01677749710036
 20
0.7584231188962329
 30
0.0
 11
35.99563422741351
 21
1.779566388583076
 31
0.0
  0
LINE
  5
118EB
330
118C1
100
AcDbEntity
  8
0
  6
CONTINUOUS
100
AcDbLine
 10
33.08199999996839
 20
4.693200616028199
 30
0.0
 11
31.64199999996833
 21
6.133200616028255
 31
0.0
  0
LINE
  5
118EC
330
118C1
100
AcDbEntity
  8
0
  6
CONTINUOUS
100
AcDbLine
 10
37.29859977568887
 20
1.1501200493879
 30
0.0
 11
36.20680593341555
 21
2.241913891661226
 31
0.0
  0
LINE
  5
118ED
330
118C1
100
AcDbEntity
  8
0
  6
CONTINUOUS
100
AcDbLine
 10
33.08199999996839
 20
5.366719825108386
 30
0.0
 11
31.64199999996833
 21
6.80671982510844
 31
0.0
  0
LINE
  5
118EE
330
118C1
100
AcDbEntity
  8
0
  6
CONTINUOUS
100
AcDbLine
 10
37.5148623517228
 20
1.607376682434161
 30
0.0
 11
36.23199999996837
 21
2.890239034188594
 31
0.0
  0
LINE
  5
118EF
330
118C1
100
AcDbEntity
  8
0
  6
CONTINUOUS
100
AcDbLine
 10
33.08199999996839
 20
6.040239034188573
 30
0.0
 11
31.64199999996833
 21
7.480239034188627
 31
0.0
  0
LINE
  5
118F0
330
118C1
100
AcDbEntity
  8
0
  6
CONTINUOUS
100
AcDbLine
 10
37.64705163358367
 20
2.148706609653477
 30
0.0
 11
36.23199999996837
 21
3.56375824326878
 31
0.0
  0
LINE
  5
118F1
330
118C1
100
AcDbEntity
  8
0
  6
CONTINUOUS
100
AcDbLine
 10
33.08199999996839
 20
6.713758243268758
 30
0.0
 11
31.64199999996833
 21
8.153758243268815
 31
0.0
  0
LINE
  5
118F2
330
118C1
100
AcDbEntity
  8
0
  6
CONTINUOUS
100
AcDbLine
 10
37.67199999996831
 20
2.797277452349026
 30
0.0
 11
36.23199999996837
 21
4.237277452348967
 31
0.0
  0
LINE
  5
118F3
330
118C1
100
AcDbEntity
  8
0
  6
CONTINUOUS
100
AcDbLine
 10
37.67199999996831
 20
3.470796661429213
 30
0.0
 11
36.23199999996837
 21
4.910796661429154
 31
0.0
  0
LINE
  5
118F4
330
118C1
100
AcDbEntity
  8
0
  6
CONTINUOUS
100
AcDbLine
 10
37.67199999996831
 20
4.144315870509399
 30
0.0
 11
36.23199999996837
 21
5.58431587050934
 31
0.0
  0
LINE
  5
118F5
330
118C1
100
AcDbEntity
  8
0
  6
CONTINUOUS
100
AcDbLine
 10
33.08199999996839
 20
7.387277452348945
 30
0.0
 11
31.70617745232608
 21
8.763099999991255
 31
0.0
  0
LINE
  5
118F6
330
118C1
100
AcDbEntity
  8
0
  6
CONTINUOUS
100
AcDbLine
 10
33.08199999996839
 20
8.060796661429132
 30
0.0
 11
32.37969666140626
 21
8.763099999991255
 31
0.0
  0
LINE
  5
118F7
330
118C1
100
AcDbEntity
  8
0
  6
CONTINUOUS
100
AcDbLine
 10
33.08199999996839
 20
8.734315870509318
 30
0.0
 11
33.05321587048645
 21
8.763099999991255
 31
0.0
  0
LINE
  5
118F8
330
118C1
100
AcDbEntity
  8
0
  6
CONTINUOUS
100
AcDbLine
 10
37.67199999996831
 20
4.817835079589585
 30
0.0
 11
36.23199999996837
 21
6.257835079589526
 31
0.0
  0
LINE
  5
118F9
330
118C1
100
AcDbEntity
  8
0
  6
CONTINUOUS
100
AcDbLine
 10
37.67199999996831
 20
5.491354288669771
 30
0.0
 11
36.23199999996837
 21
6.931354288669713
 31
0.0
  0
LINE
  5
118FA
330
118C1
100
AcDbEntity
  8
0
  6
CONTINUOUS
100
AcDbLine
 10
37.67199999996831
 20
6.164873497749958
 30
0.0
 11
36.23199999996837
 21
7.6048734977499
 31
0.0
  0
LINE
  5
118FB
330
118C1
100
AcDbEntity
  8
0
  6
CONTINUOUS
100
AcDbLine
 10
37.67199999996831
 20
6.838392706830144
 30
0.0
 11
36.23199999996837
 21
8.278392706830086
 31
0.0
  0
LINE
  5
118FC
330
118C1
100
AcDbEntity
  8
0
  6
CONTINUOUS
100
AcDbLine
 10
37.67199999996831
 20
7.511911915910332
 30
0.0
 11
36.42081191588738
 21
8.763099999991255
 31
0.0
  0
LINE
  5
118FD
330
118C1
100
AcDbEntity
  8
0
  6
CONTINUOUS
100
AcDbLine
 10
37.67199999996831
 20
8.185431124990519
 30
0.0
 11
37.09433112496757
 21
8.763099999991255
 31
0.0
  0
ENDBLK
  5
11965
330
118C1
100
AcDbEntity
  8
0
100
AcDbBlockEnd
  0
BLOCK
  5
11966
330
118FE
100
AcDbEntity
  8
0
100
AcDbBlockBegin
  2
*X26
 70
     1
 10
0.0
 20
0.0
 30
0.0
  3
*X26
  1

  0
LINE
  5
118FF
330
118FE
100
AcDbEntity
  8
0
  6
CONTINUOUS
100
AcDbLine
 10
38.60499999996136
 20
8.762866199104765
 30
0.0
 11
38.71672554182345
 21
8.874591740966855
 31
0.0
  0
LINE
  5
11900
330
118FE
100
AcDbEntity
  8
0
  6
CONTINUOUS
100
AcDbLine
 10
38.60499999996136
 20
8.089346990024577
 30
0.0
 11
39.03418785440363
 21
8.518534844466847
 31
0.0
  0
LINE
  5
11901
330
118FE
100
AcDbEntity
  8
0
  6
CONTINUOUS
100
AcDbLine
 10
38.60499999996136
 20
7.41582778094439
 30
0.0
 11
39.35165016698382
 21
8.16247794796684
 31
0.0
  0
LINE
  5
11902
330
118FE
100
AcDbEntity
  8
0
  6
CONTINUOUS
100
AcDbLine
 10
38.60499999996136
 20
6.742308571864204
 30
0.0
 11
39.66911247956399
 21
7.806421051466834
 31
0.0
  0
LINE
  5
11903
330
118FE
100
AcDbEntity
  8
0
  6
CONTINUOUS
100
AcDbLine
 10
38.60499999996136
 20
6.068789362784018
 30
0.0
 11
39.98657479214418
 21
7.450364154966827
 31
0.0
  0
LINE
  5
11904
330
118FE
100
AcDbEntity
  8
0
  6
CONTINUOUS
100
AcDbLine
 10
38.60499999996136
 20
5.395270153703832
 30
0.0
 11
40.30403710472435
 21
7.09430725846682
 31
0.0
  0
LINE
  5
11905
330
118FE
100
AcDbEntity
  8
0
  6
CONTINUOUS
100
AcDbLine
 10
38.60499999996136
 20
4.721750944623645
 30
0.0
 11
40.62149941730453
 21
6.738250361966813
 31
0.0
  0
LINE
  5
11906
330
118FE
100
AcDbEntity
  8
0
  6
CONTINUOUS
100
AcDbLine
 10
38.60499999996136
 20
4.048231735543458
 30
0.0
 11
40.93896172988471
 21
6.382193465466806
 31
0.0
  0
LINE
  5
11907
330
118FE
100
AcDbEntity
  8
0
  6
CONTINUOUS
100
AcDbLine
 10
38.60499999996136
 20
3.374712526463272
 30
0.0
 11
40.02599999995994
 21
4.795712526461843
 31
0.0
  0
LINE
  5
11908
330
118FE
100
AcDbEntity
  8
0
  6
CONTINUOUS
100
AcDbLine
 10
38.60499999996136
 20
2.701193317383085
 30
0.0
 11
40.02599999995994
 21
4.122193317381657
 31
0.0
  0
LINE
  5
11909
330
118FE
100
AcDbEntity
  8
0
  6
CONTINUOUS
100
AcDbLine
 10
40.28339754687704
 20
5.053110073378947
 30
0.0
 11
41.25642404246489
 21
6.026136568966799
 31
0.0
  0
LINE
  5
1190A
330
118FE
100
AcDbEntity
  8
0
  6
CONTINUOUS
100
AcDbLine
 10
40.60085985945722
 20
4.697053176878939
 30
0.0
 11
41.57388635504507
 21
5.670079672466793
 31
0.0
  0
LINE
  5
1190B
330
118FE
100
AcDbEntity
  8
0
  6
CONTINUOUS
100
AcDbLine
 10
43.57899999995641
 20
8.348712526458318
 30
0.0
 11
43.99338747348935
 21
8.763099999991255
 31
0.0
  0
LINE
  5
1190C
330
118FE
100
AcDbEntity
  8
0
  6
CONTINUOUS
100
AcDbLine
 10
43.57899999995641
 20
7.675193317378131
 30
0.0
 11
44.66690668256953
 21
8.763099999991255
 31
0.0
  0
LINE
  5
1190D
330
118FE
100
AcDbEntity
  8
0
  6
CONTINUOUS
100
AcDbLine
 10
38.60499999996136
 20
2.027674108302898
 30
0.0
 11
40.02599999995994
 21
3.44867410830147
 31
0.0
  0
LINE
  5
1190E
330
118FE
100
AcDbEntity
  8
0
  6
CONTINUOUS
100
AcDbLine
 10
38.60499999996136
 20
1.354154899222712
 30
0.0
 11
40.02599999995994
 21
2.775154899221284
 31
0.0
  0
LINE
  5
1190F
330
118FE
100
AcDbEntity
  8
0
  6
CONTINUOUS
100
AcDbLine
 10
38.60499999996136
 20
0.6806356901425255
 30
0.0
 11
40.02599999995994
 21
2.101635690141098
 31
0.0
  0
LINE
  5
11910
330
118FE
100
AcDbEntity
  8
0
  6
CONTINUOUS
100
AcDbLine
 10
38.60499999996136
 20
0.0071164810623383
 30
0.0
 11
40.02599999995994
 21
1.428116481060911
 31
0.0
  0
LINE
  5
11911
330
118FE
100
AcDbEntity
  8
0
  6
CONTINUOUS
100
AcDbLine
 10
40.9183221720374
 20
4.340996280378933
 30
0.0
 11
41.89134866762525
 21
5.314022775966786
 31
0.0
  0
LINE
  5
11912
330
118FE
100
AcDbEntity
  8
0
  6
CONTINUOUS
100
AcDbLine
 10
41.23578448461758
 20
3.984939383878926
 30
0.0
 11
42.20881098020543
 21
4.957965879466778
 31
0.0
  0
LINE
  5
11913
330
118FE
100
AcDbEntity
  8
0
  6
CONTINUOUS
100
AcDbLine
 10
41.55324679719776
 20
3.628882487378919
 30
0.0
 11
42.52627329278561
 21
4.601908982966772
 31
0.0
  0
LINE
  5
11914
330
118FE
100
AcDbEntity
  8
0
  6
CONTINUOUS
100
AcDbLine
 10
41.87070910977793
 20
3.272825590878912
 30
0.0
 11
42.84373560536579
 21
4.245852086466765
 31
0.0
  0
LINE
  5
11915
330
118FE
100
AcDbEntity
  8
0
  6
CONTINUOUS
100
AcDbLine
 10
43.57899999995641
 20
7.001674108297943
 30
0.0
 11
44.99999999995498
 21
8.422674108296516
 31
0.0
  0
LINE
  5
11916
330
118FE
100
AcDbEntity
  8
0
  6
CONTINUOUS
100
AcDbLine
 10
43.57899999995641
 20
6.328154899217758
 30
0.0
 11
44.99999999995498
 21
7.749154899216329
 31
0.0
  0
LINE
  5
11917
330
118FE
100
AcDbEntity
  8
0
  6
CONTINUOUS
100
AcDbLine
 10
43.57899999995641
 20
5.654635690137571
 30
0.0
 11
44.99999999995498
 21
7.075635690136142
 31
0.0
  0
LINE
  5
11918
330
118FE
100
AcDbEntity
  8
0
  6
CONTINUOUS
100
AcDbLine
 10
43.57899999995641
 20
4.981116481057384
 30
0.0
 11
44.99999999995498
 21
6.402116481055955
 31
0.0
  0
LINE
  5
11919
330
118FE
100
AcDbEntity
  8
0
  6
CONTINUOUS
100
AcDbLine
 10
39.27140272797921
 20
-0.0000000000000009
 30
0.0
 11
40.02599999995994
 21
0.7545972719807246
 31
0.0
  0
LINE
  5
1191A
330
118FE
100
AcDbEntity
  8
0
  6
CONTINUOUS
100
AcDbLine
 10
39.9449219370594
 20
-0.0000000000000009
 30
0.0
 11
40.02599999995994
 21
0.0810780629005379
 31
0.0
  0
LINE
  5
1191B
330
118FE
100
AcDbEntity
  8
0
  6
CONTINUOUS
100
AcDbLine
 10
42.18817142235812
 20
2.916768694378905
 30
0.0
 11
43.16119791794597
 21
3.889795189966758
 31
0.0
  0
LINE
  5
1191C
330
118FE
100
AcDbEntity
  8
0
  6
CONTINUOUS
100
AcDbLine
 10
42.50563373493829
 20
2.560711797878898
 30
0.0
 11
43.47866023052615
 21
3.533738293466751
 31
0.0
  0
LINE
  5
1191D
330
118FE
100
AcDbEntity
  8
0
  6
CONTINUOUS
100
AcDbLine
 10
43.57899999995641
 20
4.307597271977198
 30
0.0
 11
44.99999999995498
 21
5.728597271975769
 31
0.0
  0
LINE
  5
1191E
330
118FE
100
AcDbEntity
  8
0
  6
CONTINUOUS
100
AcDbLine
 10
43.57899999995641
 20
3.634078062897011
 30
0.0
 11
44.99999999995498
 21
5.055078062895582
 31
0.0
  0
LINE
  5
1191F
330
118FE
100
AcDbEntity
  8
0
  6
CONTINUOUS
100
AcDbLine
 10
42.82309604751848
 20
2.204654901378891
 30
0.0
 11
44.99999999995498
 21
4.381558853815395
 31
0.0
  0
LINE
  5
11920
330
118FE
100
AcDbEntity
  8
0
  6
CONTINUOUS
100
AcDbLine
 10
43.14055836009865
 20
1.848598004878885
 30
0.0
 11
44.99999999995498
 21
3.70803964473521
 31
0.0
  0
LINE
  5
11921
330
118FE
100
AcDbEntity
  8
0
  6
CONTINUOUS
100
AcDbLine
 10
43.45802067267883
 20
1.492541108378878
 30
0.0
 11
44.99999999995498
 21
3.034520435655023
 31
0.0
  0
LINE
  5
11922
330
118FE
100
AcDbEntity
  8
0
  6
CONTINUOUS
100
AcDbLine
 10
43.77548298525902
 20
1.136484211878871
 30
0.0
 11
44.99999999995498
 21
2.361001226574837
 31
0.0
  0
LINE
  5
11923
330
118FE
100
AcDbEntity
  8
0
  6
CONTINUOUS
100
AcDbLine
 10
44.09294529783919
 20
0.7804273153788639
 30
0.0
 11
44.99999999995498
 21
1.687482017494649
 31
0.0
  0
LINE
  5
11924
330
118FE
100
AcDbEntity
  8
0
  6
CONTINUOUS
100
AcDbLine
 10
44.41040761041938
 20
0.4243704188788566
 30
0.0
 11
44.99999999995498
 21
1.013962808414463
 31
0.0
  0
LINE
  5
11925
330
118FE
100
AcDbEntity
  8
0
  6
CONTINUOUS
100
AcDbLine
 10
44.72786992299955
 20
0.0683135223788494
 30
0.0
 11
44.99999999995498
 21
0.340443599334276
 31
0.0
  0
LINE
  5
11926
330
118FE
100
AcDbEntity
  8
0
  6
CONTINUOUS
100
AcDbLine
 10
39.12223903415696
 20
-0.0000000000000009
 30
0.0
 11
38.60499999996136
 21
0.5172390341955961
 31
0.0
  0
LINE
  5
11927
330
118FE
100
AcDbEntity
  8
0
  6
CONTINUOUS
100
AcDbLine
 10
39.79575824323715
 20
-0.0000000000000009
 30
0.0
 11
38.60499999996136
 21
1.190758243275783
 31
0.0
  0
LINE
  5
11928
330
118FE
100
AcDbEntity
  8
0
  6
CONTINUOUS
100
AcDbLine
 10
40.02599999995994
 20
0.443277452357397
 30
0.0
 11
38.60499999996136
 21
1.864277452355969
 31
0.0
  0
LINE
  5
11929
330
118FE
100
AcDbEntity
  8
0
  6
CONTINUOUS
100
AcDbLine
 10
40.02599999995994
 20
1.116796661437583
 30
0.0
 11
38.60499999996136
 21
2.537796661436155
 31
0.0
  0
LINE
  5
1192A
330
118FE
100
AcDbEntity
  8
0
  6
CONTINUOUS
100
AcDbLine
 10
40.02599999995994
 20
1.79031587051777
 30
0.0
 11
38.60499999996136
 21
3.211315870516341
 31
0.0
  0
LINE
  5
1192B
330
118FE
100
AcDbEntity
  8
0
  6
CONTINUOUS
100
AcDbLine
 10
40.02599999995994
 20
2.463835079597956
 30
0.0
 11
38.60499999996136
 21
3.884835079596527
 31
0.0
  0
LINE
  5
1192C
330
118FE
100
AcDbEntity
  8
0
  6
CONTINUOUS
100
AcDbLine
 10
40.02599999995994
 20
3.137354288678143
 30
0.0
 11
38.60499999996136
 21
4.558354288676714
 31
0.0
  0
LINE
  5
1192D
330
118FE
100
AcDbEntity
  8
0
  6
CONTINUOUS
100
AcDbLine
 10
40.02599999995994
 20
3.810873497758329
 30
0.0
 11
38.60499999996136
 21
5.2318734977569
 31
0.0
  0
LINE
  5
1192E
330
118FE
100
AcDbEntity
  8
0
  6
CONTINUOUS
100
AcDbLine
 10
40.02599999995994
 20
4.484392706838515
 30
0.0
 11
38.60499999996136
 21
5.905392706837086
 31
0.0
  0
LINE
  5
1192F
330
118FE
100
AcDbEntity
  8
0
  6
CONTINUOUS
100
AcDbLine
 10
44.99999999995498
 20
0.183911915923658
 30
0.0
 11
41.53858364506288
 21
3.64532827081576
 31
0.0
  0
LINE
  5
11930
330
118FE
100
AcDbEntity
  8
0
  6
CONTINUOUS
100
AcDbLine
 10
40.02599999995994
 20
5.157911915918703
 30
0.0
 11
38.60499999996136
 21
6.578911915917274
 31
0.0
  0
LINE
  5
11931
330
118FE
100
AcDbEntity
  8
0
  6
CONTINUOUS
100
AcDbLine
 10
44.99999999995498
 20
0.8574311250038447
 30
0.0
 11
38.60499999996136
 21
7.25243112499746
 31
0.0
  0
LINE
  5
11932
330
118FE
100
AcDbEntity
  8
0
  6
CONTINUOUS
100
AcDbLine
 10
44.99999999995498
 20
1.530950334084031
 30
0.0
 11
38.60499999996136
 21
7.925950334077647
 31
0.0
  0
LINE
  5
11933
330
118FE
100
AcDbEntity
  8
0
  6
CONTINUOUS
100
AcDbLine
 10
44.99999999995498
 20
2.204469543164218
 30
0.0
 11
43.57899999995641
 21
3.625469543162789
 31
0.0
  0
LINE
  5
11934
330
118FE
100
AcDbEntity
  8
0
  6
CONTINUOUS
100
AcDbLine
 10
41.89876730984767
 20
5.305702233271528
 30
0.0
 11
38.60499999996136
 21
8.599469543157834
 31
0.0
  0
LINE
  5
11935
330
118FE
100
AcDbEntity
  8
0
  6
CONTINUOUS
100
AcDbLine
 10
44.99999999995498
 20
2.877988752244405
 30
0.0
 11
43.57899999995641
 21
4.298988752242975
 31
0.0
  0
LINE
  5
11936
330
118FE
100
AcDbEntity
  8
0
  6
CONTINUOUS
100
AcDbLine
 10
44.99999999995498
 20
3.551507961324591
 30
0.0
 11
43.57899999995641
 21
4.972507961323163
 31
0.0
  0
LINE
  5
11937
330
118FE
100
AcDbEntity
  8
0
  6
CONTINUOUS
100
AcDbLine
 10
44.99999999995498
 20
4.225027170404777
 30
0.0
 11
43.57899999995641
 21
5.646027170403348
 31
0.0
  0
LINE
  5
11938
330
118FE
100
AcDbEntity
  8
0
  6
CONTINUOUS
100
AcDbLine
 10
44.99999999995498
 20
4.898546379484964
 30
0.0
 11
43.57899999995641
 21
6.319546379483535
 31
0.0
  0
LINE
  5
11939
330
118FE
100
AcDbEntity
  8
0
  6
CONTINUOUS
100
AcDbLine
 10
44.99999999995498
 20
5.572065588565151
 30
0.0
 11
43.57899999995641
 21
6.993065588563722
 31
0.0
  0
LINE
  5
1193A
330
118FE
100
AcDbEntity
  8
0
  6
CONTINUOUS
100
AcDbLine
 10
44.99999999995498
 20
6.245584797645336
 30
0.0
 11
43.57899999995641
 21
7.666584797643908
 31
0.0
  0
LINE
  5
1193B
330
118FE
100
AcDbEntity
  8
0
  6
CONTINUOUS
100
AcDbLine
 10
44.99999999995498
 20
6.919104006725522
 30
0.0
 11
43.57899999995641
 21
8.340104006724093
 31
0.0
  0
LINE
  5
1193C
330
118FE
100
AcDbEntity
  8
0
  6
CONTINUOUS
100
AcDbLine
 10
44.99999999995498
 20
7.592623215805709
 30
0.0
 11
43.82952321576943
 21
8.763099999991255
 31
0.0
  0
LINE
  5
1193D
330
118FE
100
AcDbEntity
  8
0
  6
CONTINUOUS
100
AcDbLine
 10
44.99999999995498
 20
8.266142424885896
 30
0.0
 11
44.50304242484962
 21
8.763099999991255
 31
0.0
  0
ENDBLK
  5
11967
330
118FE
100
AcDbEntity
  8
0
100
AcDbBlockEnd
  0
BLOCK
  5
11968
330
1193E
100
AcDbEntity
  8
0
100
AcDbBlockBegin
  2
*X27
 70
     1
 10
0.0
 20
0.0
 30
0.0
  3
*X27
  1

  0
LINE
  5
1193F
330
1193E
100
AcDbEntity
  8
0
  6
CONTINUOUS
100
AcDbLine
 10
0.0
 20
8.548461116714023
 30
0.0
 11
0.2146388832772324
 21
8.763099999991255
 31
0.0
  0
LINE
  5
11940
330
1193E
100
AcDbEntity
  8
0
  6
CONTINUOUS
100
AcDbLine
 10
-0.0000000000000002
 20
7.874941907633837
 30
0.0
 11
0.8881580923574184
 21
8.763099999991255
 31
0.0
  0
LINE
  5
11941
330
1193E
100
AcDbEntity
  8
0
  6
CONTINUOUS
100
AcDbLine
 10
0.0
 20
7.20142269855365
 30
0.0
 11
1.420999999998572
 21
8.622422698552223
 31
0.0
  0
LINE
  5
11942
330
1193E
100
AcDbEntity
  8
0
  6
CONTINUOUS
100
AcDbLine
 10
-0.0000000000000001
 20
6.527903489473465
 30
0.0
 11
1.420999999998571
 21
7.948903489472036
 31
0.0
  0
LINE
  5
11943
330
1193E
100
AcDbEntity
  8
0
  6
CONTINUOUS
100
AcDbLine
 10
-0.0000000000000002
 20
5.854384280393278
 30
0.0
 11
1.420999999998571
 21
7.275384280391849
 31
0.0
  0
LINE
  5
11944
330
1193E
100
AcDbEntity
  8
0
  6
CONTINUOUS
100
AcDbLine
 10
-0.0000000000000002
 20
5.180865071313091
 30
0.0
 11
1.420999999998571
 21
6.601865071311663
 31
0.0
  0
LINE
  5
11945
330
1193E
100
AcDbEntity
  8
0
  6
CONTINUOUS
100
AcDbLine
 10
0.0
 20
4.507345862232905
 30
0.0
 11
1.420999999998571
 21
5.928345862231477
 31
0.0
  0
LINE
  5
11946
330
1193E
100
AcDbEntity
  8
0
  6
CONTINUOUS
100
AcDbLine
 10
-0.0000000000000003
 20
3.833826653152718
 30
0.0
 11
1.420999999998571
 21
5.25482665315129
 31
0.0
  0
LINE
  5
11947
330
1193E
100
AcDbEntity
  8
0
  6
CONTINUOUS
100
AcDbLine
 10
-0.0000000000000002
 20
3.160307444072532
 30
0.0
 11
1.420999999998571
 21
4.581307444071103
 31
0.0
  0
LINE
  5
11948
330
1193E
100
AcDbEntity
  8
0
  6
CONTINUOUS
100
AcDbLine
 10
-0.0000000000000001
 20
2.486788234992345
 30
0.0
 11
1.420999999998571
 21
3.907788234990917
 31
0.0
  0
LINE
  5
11949
330
1193E
100
AcDbEntity
  8
0
  6
CONTINUOUS
100
AcDbLine
 10
-0.0000000000000006
 20
1.813269025912159
 30
0.0
 11
1.420999999998571
 21
3.234269025910731
 31
0.0
  0
LINE
  5
1194A
330
1193E
100
AcDbEntity
  8
0
  6
CONTINUOUS
100
AcDbLine
 10
0.0
 20
1.139749816831973
 30
0.0
 11
1.420999999998571
 21
2.560749816830544
 31
0.0
  0
LINE
  5
1194B
330
1193E
100
AcDbEntity
  8
0
  6
CONTINUOUS
100
AcDbLine
 10
0.0000000000000002
 20
0.466230607751787
 30
0.0
 11
1.420999999998571
 21
1.887230607750358
 31
0.0
  0
LINE
  5
1194C
330
1193E
100
AcDbEntity
  8
0
  6
CONTINUOUS
100
AcDbLine
 10
0.2072886013284003
 20
-0.0000000000000009
 30
0.0
 11
1.420999999998571
 21
1.213711398670171
 31
0.0
  0
LINE
  5
1194D
330
1193E
100
AcDbEntity
  8
0
  6
CONTINUOUS
100
AcDbLine
 10
0.8808078104085864
 20
-0.0000000000000009
 30
0.0
 11
1.420999999998571
 21
0.5401921895899839
 31
0.0
  0
LINE
  5
1194E
330
1193E
100
AcDbEntity
  8
0
  6
CONTINUOUS
100
AcDbLine
 10
0.0581249075061505
 20
-0.0000000000000009
 30
0.0
 11
-0.0000000000000002
 21
0.0581249075061496
 31
0.0
  0
LINE
  5
1194F
330
1193E
100
AcDbEntity
  8
0
  6
CONTINUOUS
100
AcDbLine
 10
0.7316441165863372
 20
-0.0000000000000009
 30
0.0
 11
-0.0000000000000002
 21
0.7316441165863363
 31
0.0
  0
LINE
  5
11950
330
1193E
100
AcDbEntity
  8
0
  6
CONTINUOUS
100
AcDbLine
 10
1.405163325666523
 20
-0.0000000000000009
 30
0.0
 11
-0.0000000000000002
 21
1.405163325666523
 31
0.0
  0
LINE
  5
11951
330
1193E
100
AcDbEntity
  8
0
  6
CONTINUOUS
100
AcDbLine
 10
1.420999999998572
 20
0.6576825347481381
 30
0.0
 11
-0.0000000000000001
 21
2.07868253474671
 31
0.0
  0
LINE
  5
11952
330
1193E
100
AcDbEntity
  8
0
  6
CONTINUOUS
100
AcDbLine
 10
1.420999999998571
 20
1.331201743828324
 30
0.0
 11
-0.0000000000000001
 21
2.752201743826896
 31
0.0
  0
LINE
  5
11953
330
1193E
100
AcDbEntity
  8
0
  6
CONTINUOUS
100
AcDbLine
 10
1.420999999998571
 20
2.004720952908511
 30
0.0
 11
-0.0000000000000002
 21
3.425720952907082
 31
0.0
  0
LINE
  5
11954
330
1193E
100
AcDbEntity
  8
0
  6
CONTINUOUS
100
AcDbLine
 10
1.420999999998571
 20
2.678240161988697
 30
0.0
 11
-0.0000000000000001
 21
4.099240161987269
 31
0.0
  0
LINE
  5
11955
330
1193E
100
AcDbEntity
  8
0
  6
CONTINUOUS
100
AcDbLine
 10
1.420999999998572
 20
3.351759371068884
 30
0.0
 11
0.0
 21
4.772759371067455
 31
0.0
  0
LINE
  5
11956
330
1193E
100
AcDbEntity
  8
0
  6
CONTINUOUS
100
AcDbLine
 10
1.420999999998571
 20
4.02527858014907
 30
0.0
 11
-0.0000000000000003
 21
5.446278580147642
 31
0.0
  0
LINE
  5
11957
330
1193E
100
AcDbEntity
  8
0
  6
CONTINUOUS
100
AcDbLine
 10
1.420999999998571
 20
4.698797789229257
 30
0.0
 11
0.0
 21
6.119797789227828
 31
0.0
  0
LINE
  5
11958
330
1193E
100
AcDbEntity
  8
0
  6
CONTINUOUS
100
AcDbLine
 10
1.420999999998571
 20
5.372316998309444
 30
0.0
 11
-0.0000000000000001
 21
6.793316998308015
 31
0.0
  0
LINE
  5
11959
330
1193E
100
AcDbEntity
  8
0
  6
CONTINUOUS
100
AcDbLine
 10
1.420999999998572
 20
6.045836207389629
 30
0.0
 11
-0.0000000000000004
 21
7.466836207388202
 31
0.0
  0
LINE
  5
1195A
330
1193E
100
AcDbEntity
  8
0
  6
CONTINUOUS
100
AcDbLine
 10
1.420999999998571
 20
6.719355416469816
 30
0.0
 11
0.0
 21
8.140355416468388
 31
0.0
  0
LINE
  5
1195B
330
1193E
100
AcDbEntity
  8
0
  6
CONTINUOUS
100
AcDbLine
 10
1.420999999998571
 20
7.392874625550003
 30
0.0
 11
0.0507746255573185
 21
8.763099999991255
 31
0.0
  0
LINE
  5
1195C
330
1193E
100
AcDbEntity
  8
0
  6
CONTINUOUS
100
AcDbLine
 10
1.420999999998571
 20
8.06639383463019
 30
0.0
 11
0.7242938346375052
 21
8.763099999991255
 31
0.0
  0
LINE
  5
1195D
330
1193E
100
AcDbEntity
  8
0
  6
CONTINUOUS
100
AcDbLine
 10
1.420999999998571
 20
8.739913043710375
 30
0.0
 11
1.397813043717691
 21
8.763099999991255
 31
0.0
  0
ENDBLK
  5
11969
330
1193E
100
AcDbEntity
  8
0
100
AcDbBlockEnd
  0
ENDSEC
  0
SECTION
  2
ENTITIES
  0
LINE
  5
FC03
330
18
100
AcDbEntity
  8
01
100
AcDbLine
 10
7376.076839840121
 20
1384.185154360875
 30
0.0000000000563712
 11
7390.076839840121
 21
1384.185154360875
 31
0.0000000000563712
  0
LINE
  5
FC04
330
18
100
AcDbEntity
  8
01
100
AcDbLine
 10
7381.077724022181
 20
1596.185154359847
 30
0.0000000000563712
 11
7534.832104177214
 21
1596.185154359847
 31
0.0000000000563712
  0
LINE
  5
FC05
330
18
100
AcDbEntity
  8
01
  6
BYBLOCK
100
AcDbLine
 10
7381.077724022181
 20
1596.185154359847
 30
0.0000000000563712
 11
7381.077724022181
 21
1556.185154359847
 31
0.0000000000563712
  0
LINE
  5
FC09
330
18
100
AcDbEntity
  8
01
100
AcDbLine
 10
7432.076956179866
 20
1591.185154358818
 30
0.0000000000563712
 11
7432.076956179866
 21
1622.103234548067
 31
0.0000000000563712
  0
LINE
  5
FC0A
330
18
100
AcDbEntity
  8
01
  6
BYBLOCK
100
AcDbLine
 10
7382.576839840121
 20
1392.085154360876
 30
0.0000000000563712
 11
7382.576839840121
 21
1262.285154360876
 31
0.0000000000563712
  0
LINE
  5
FC0B
330
18
100
AcDbEntity
  8
01
  6
BYBLOCK
100
AcDbLine
 10
7382.576839840121
 20
1263.185154360875
 30
0.0000000000563712
 11
7385.076839840121
 21
1263.185154360875
 31
0.0000000000563712
  0
LINE
  5
FC0C
330
18
100
AcDbEntity
  8
01
  6
BYBLOCK
100
AcDbLine
 10
7385.076839840121
 20
1263.185154360875
 30
0.0000000000563712
 11
7385.076839840121
 21
1279.688098086028
 31
0.0000000000563712
  0
LINE
  5
FC0D
330
18
100
AcDbEntity
  8
01
  6
BYBLOCK
100
AcDbLine
 10
7381.076839840121
 20
1392.085154360876
 30
0.0000000000563712
 11
7381.076839840121
 21
1262.285154360876
 31
0.0000000000563712
  0
LINE
  5
FC0E
330
18
100
AcDbEntity
  8
01
  6
BYBLOCK
100
AcDbLine
 10
7381.076839840121
 20
1262.285154360876
 30
0.0000000000563712
 11
7382.576839840121
 21
1262.285154360876
 31
0.0000000000563712
  0
LINE
  5
FC0F
330
18
100
AcDbEntity
  8
01
  6
BYBLOCK
100
AcDbLine
 10
7382.576839840121
 20
1391.185154360875
 30
0.0000000000563712
 11
7385.076839840121
 21
1391.185154360875
 31
0.0000000000563712
  0
LINE
  5
FC10
330
18
100
AcDbEntity
  8
01
  6
BYBLOCK
100
AcDbLine
 10
7381.076839840121
 20
1392.085154360876
 30
0.0000000000563712
 11
7382.576839840121
 21
1392.085154360876
 31
0.0000000000563712
  0
LINE
  5
FC11
330
18
100
AcDbEntity
  8
01
  6
BYBLOCK
100
AcDbLine
 10
7382.576839840121
 20
1367.185154360875
 30
0.0000000000563712
 11
7383.77683984012
 21
1367.185154360875
 31
0.0000000000563712
  0
ARC
  5
FC12
330
18
100
AcDbEntity
  8
01
  6
BYBLOCK
100
AcDbCircle
 10
7449.076839840121
 20
1363.185154360875
 30
0.0000000000563712
 40
1.0
100
AcDbArc
 50
0.0
 51
90.0
  0
LINE
  5
FC13
330
18
100
AcDbEntity
  8
01
  6
BYBLOCK
100
AcDbLine
 10
7383.77683984012
 20
1372.885154360876
 30
0.0000000000563712
 11
7383.77683984012
 21
1281.485154360876
 31
0.0000000000563712
  0
LINE
  5
FC14
330
18
100
AcDbEntity
  8
01
  6
BYBLOCK
100
AcDbLine
 10
7383.876839840121
 20
1263.185154360875
 30
0.0000000000563712
 11
7383.876839840121
 21
1279.785154360876
 31
0.0000000000563712
  0
LINE
  5
FC15
330
18
100
AcDbEntity
  8
01
  6
BYBLOCK
100
AcDbLine
 10
7383.876839840121
 20
1279.785154360876
 30
0.0000000000563712
 11
7382.928311702697
 21
1280.733682498299
 31
0.0000000000563712
  0
LINE
  5
FC16
330
18
100
AcDbEntity
  8
01
  6
BYBLOCK
100
AcDbLine
 10
7384.725367977544
 20
1280.536626223452
 30
0.0000000000563712
 11
7383.77683984012
 21
1281.485154360876
 31
0.0000000000563712
  0
ARC
  5
FC17
330
18
100
AcDbEntity
  8
01
  6
BYBLOCK
100
AcDbCircle
 10
7383.876839840121
 20
1279.688098086028
 30
0.0000000000563712
 40
1.2
100
AcDbArc
 50
0.0
 51
45.00000000005527
  0
ARC
  5
FC18
330
18
100
AcDbEntity
  8
01
  6
BYBLOCK
100
AcDbCircle
 10
7383.77683984012
 20
1281.582210635724
 30
0.0000000000563712
 40
1.2
100
AcDbArc
 50
180.0
 51
225.0000000000553
  0
LINE
  5
FC19
330
18
100
AcDbEntity
  8
01
  6
BYBLOCK
100
AcDbLine
 10
7385.076839840121
 20
1391.185154360875
 30
0.0000000000563712
 11
7385.076839840121
 21
1374.682210635723
 31
0.0000000000563712
  0
LINE
  5
FC1A
330
18
100
AcDbEntity
  8
01
  6
BYBLOCK
100
AcDbLine
 10
7383.876839840121
 20
1391.185154360875
 30
0.0000000000563712
 11
7383.876839840121
 21
1374.585154360876
 31
0.0000000000563712
  0
LINE
  5
FC1B
330
18
100
AcDbEntity
  8
01
  6
BYBLOCK
100
AcDbLine
 10
7383.876839840121
 20
1374.585154360876
 30
0.0000000000563712
 11
7382.928311702697
 21
1373.636626223451
 31
0.0000000000563712
  0
LINE
  5
FC1C
330
18
100
AcDbEntity
  8
01
  6
BYBLOCK
100
AcDbLine
 10
7384.725367977544
 20
1373.833682498299
 30
0.0000000000563712
 11
7383.77683984012
 21
1372.885154360875
 31
0.0000000000563712
  0
ARC
  5
FC1D
330
18
100
AcDbEntity
  8
01
  6
BYBLOCK
100
AcDbCircle
 10
7383.876839840121
 20
1374.682210635723
 30
0.0000000000563712
 40
1.2
100
AcDbArc
 50
314.9999999999447
 51
0.0
  0
ARC
  5
FC1E
330
18
100
AcDbEntity
  8
01
  6
BYBLOCK
100
AcDbCircle
 10
7383.77683984012
 20
1372.788098086028
 30
0.0000000000563712
 40
1.2
100
AcDbArc
 50
134.9999999999447
 51
180.0
  0
CIRCLE
  5
FC1F
330
18
100
AcDbEntity
  8
01
  6
BYBLOCK
100
AcDbCircle
 10
7432.076839840121
 20
1356.185154360875
 30
0.0000000000563712
 40
4.75
  0
LINE
  5
FC20
330
18
100
AcDbEntity
  8
01
  6
BYBLOCK
100
AcDbLine
 10
7383.77683984012
 20
1290.185154360875
 30
0.0000000000563712
 11
7405.576839840125
 21
1290.185154360875
 31
0.0000000000563712
  0
ARC
  5
FC21
330
18
100
AcDbEntity
  8
01
  6
BYBLOCK
100
AcDbCircle
 10
7384.177724022182
 20
1579.746404902847
 30
0.0000000000563712
 40
1.6
100
AcDbArc
 50
115.944479772022
 51
180.0
  0
ARC
  5
FC22
330
18
100
AcDbEntity
  8
01
  6
BYBLOCK
100
AcDbCircle
 10
7384.177724022182
 20
1572.623903816847
 30
0.0000000000563712
 40
1.6
100
AcDbArc
 50
180.0
 51
244.055520227978
  0
ARC
  5
FC23
330
18
100
AcDbEntity
  8
01
  6
BYBLOCK
100
AcDbCircle
 10
7383.477724022181
 20
1571.346404902847
 30
0.0000000000563712
 40
1.6
100
AcDbArc
 50
0.0
 51
64.05552022797804
  0
ARC
  5
FC24
330
18
100
AcDbEntity
  8
01
  6
BYBLOCK
100
AcDbCircle
 10
7383.477724022181
 20
1581.023903816847
 30
0.0000000000563712
 40
1.6
100
AcDbArc
 50
295.944479772022
 51
0.0
  0
LINE
  5
FC25
330
18
100
AcDbEntity
  8
01
  6
BYBLOCK
100
AcDbLine
 10
7385.077724022181
 20
1581.023903816847
 30
0.0000000000563712
 11
7385.077724022181
 21
1588.385154359847
 31
0.0000000000563712
  0
LINE
  5
FC26
330
18
100
AcDbEntity
  8
01
  6
BYBLOCK
100
AcDbLine
 10
7384.177724022182
 20
1572.785154359847
 30
0.0000000000563712
 11
7384.177724022182
 21
1579.585154359847
 31
0.0000000000563712
  0
LINE
  5
FC27
330
18
100
AcDbEntity
  8
01
  6
BYBLOCK
100
AcDbLine
 10
7385.077724022181
 20
1564.185154359847
 30
0.0000000000563712
 11
7385.077724022181
 21
1571.346404902847
 31
0.0000000000563712
  0
LINE
  5
FC28
330
18
100
AcDbEntity
  8
01
  6
BYBLOCK
100
AcDbLine
 10
7383.477724022181
 20
1581.185154359847
 30
0.0000000000563712
 11
7383.477724022181
 21
1588.385154359847
 31
0.0000000000563712
  0
LINE
  5
FC29
330
18
100
AcDbEntity
  8
01
  6
BYBLOCK
100
AcDbLine
 10
7383.477724022181
 20
1571.185154359847
 30
0.0000000000563712
 11
7383.477724022181
 21
1564.085154359847
 31
0.0000000000563712
  0
ARC
  5
FC2A
330
18
100
AcDbEntity
  8
01
  6
BYBLOCK
100
AcDbCircle
 10
7448.477724022181
 20
1584.085154359847
 30
0.0000000000563712
 40
1.6
100
AcDbArc
 50
0.0
 51
90.0
  0
LINE
  5
FC2B
330
18
100
AcDbEntity
  8
01
  6
BYBLOCK
100
AcDbLine
 10
7382.577724022181
 20
1588.585154359847
 30
0.0000000000563712
 11
7382.577724022181
 21
1563.785154359847
 31
0.0000000000563712
  0
LINE
  5
FC2C
330
18
100
AcDbEntity
  8
01
  6
BYBLOCK
100
AcDbLine
 10
7448.477724022181
 20
1585.685154359847
 30
0.0000000000563712
 11
7385.077724022181
 21
1585.685154359847
 31
0.0000000000563712
  0
LINE
  5
FC2D
330
18
100
AcDbEntity
  8
01
  6
BYBLOCK
100
AcDbLine
 10
7448.477724022181
 20
1568.485154359847
 30
0.0000000000563712
 11
7448.477724022181
 21
1585.685154359847
 31
0.0000000000563712
  0
LINE
  5
FC2E
330
18
100
AcDbEntity
  8
01
  6
BYBLOCK
100
AcDbLine
 10
7450.077724022181
 20
1566.885154359847
 30
0.0000000000563712
 11
7450.077724022181
 21
1584.085154359847
 31
0.0000000000563712
  0
LINE
  5
FC2F
330
18
100
AcDbEntity
  8
01
  6
BYBLOCK
100
AcDbLine
 10
7382.577724022181
 20
1588.385154359847
 30
0.0000000000563712
 11
7385.077724022181
 21
1588.385154359847
 31
0.0000000000563712
  0
LINE
  5
FC30
330
18
100
AcDbEntity
  8
01
  6
BYBLOCK
100
AcDbLine
 10
7385.077724022181
 20
1564.185154359847
 30
0.0000000000563712
 11
7383.477724022181
 21
1564.185154359847
 31
0.0000000000563712
  0
LINE
  5
FC31
330
18
100
AcDbEntity
  8
01
  6
BYBLOCK
100
AcDbLine
 10
7383.477724022181
 20
1564.085154359847
 30
0.0000000000563712
 11
7382.577724022181
 21
1564.085154359847
 31
0.0000000000563712
  0
ARC
  5
FC32
330
18
100
AcDbEntity
  8
01
  6
BYBLOCK
100
AcDbCircle
 10
7379.77831894958
 20
1570.485154359847
 30
0.0000000000563712
 40
0.3000000000000051
100
AcDbArc
 50
232.8678058729389
 51
270.0
  0
LINE
  5
FC33
330
18
100
AcDbEntity
  8
01
  6
BYBLOCK
100
AcDbLine
 10
7380.577724022181
 20
1570.185154359848
 30
0.0000000000563712
 11
7379.77831894958
 21
1570.185154359848
 31
0.0000000000563712
  0
LINE
  5
FC34
330
18
100
AcDbEntity
  8
01
  6
BYBLOCK
100
AcDbLine
 10
7370.177724022182
 20
1579.858143226052
 30
0.0000000000563712
 11
7370.177724022182
 21
1579.687521170503
 31
0.0000000000563712
  0
ARC
  5
FC35
330
18
100
AcDbEntity
  8
01
  6
BYBLOCK
100
AcDbCircle
 10
7370.477724022181
 20
1579.687521170503
 30
0.0000000000563712
 40
0.3
100
AcDbArc
 50
180.0
 51
217.7405295629614
  0
ARC
  5
FC36
330
18
100
AcDbEntity
  8
01
  6
BYBLOCK
100
AcDbCircle
 10
7409.780024621465
 20
1610.108224114443
 30
0.0000000000563712
 40
50.00000000000002
100
AcDbArc
 50
217.7405295629717
 51
232.8678058730001
  0
LINE
  5
FC37
330
18
100
AcDbEntity
  8
01
  6
BYBLOCK
100
AcDbLine
 10
7369.977724022181
 20
1580.985154359847
 30
0.0000000000563712
 11
7369.977724022181
 21
1581.685154359847
 31
0.0000000000563712
  0
ARC
  5
FC38
330
18
100
AcDbEntity
  8
01
  6
BYBLOCK
100
AcDbCircle
 10
7370.477724022181
 20
1581.685154359847
 30
0.0000000000563712
 40
0.5000000000000142
100
AcDbArc
 50
90.0
 51
180.0
  0
LINE
  5
FC39
330
18
100
AcDbEntity
  8
01
  6
BYBLOCK
100
AcDbLine
 10
7380.577724022181
 20
1582.185154359847
 30
0.0000000000563712
 11
7370.477724022181
 21
1582.185154359847
 31
0.0000000000563712
  0
LINE
  5
FC3A
330
18
100
AcDbEntity
  8
01
  6
BYBLOCK
100
AcDbLine
 10
7369.977724022181
 20
1580.606474703407
 30
0.0000000000563712
 11
7369.977724022181
 21
1580.985154359847
 31
0.0000000000563712
  0
SPLINE
  5
FC3B
330
18
100
AcDbEntity
  8
01
  6
BYBLOCK
100
AcDbSpline
210
0.0
220
0.0
230
1.0
 70
     8
 71
     3
 72
     8
 73
     4
 74
     0
 42
0.0000000001
 43
0.0000000001
 40
0.0
 40
0.0
 40
0.0
 40
0.0
 40
1.0
 40
1.0
 40
1.0
 40
1.0
 10
7370.003456563445
 20
1580.329824273957
 30
0.0000000000563712
 10
7369.985988677334
 20
1580.422910469838
 30
0.0000000000563712
 10
7369.977724022181
 20
1580.516176480729
 30
0.0000000000563712
 10
7369.977724022181
 20
1580.606474703407
 30
0.0000000000563712
  0
ARC
  5
FC3C
330
18
100
AcDbEntity
  8
01
  6
BYBLOCK
100
AcDbCircle
 10
7371.477724022181
 20
1580.606474703407
 30
0.0000000000563712
 40
1.499999999999998
100
AcDbArc
 50
190.628112987605
 51
225.0000000000553
  0
LINE
  5
FC3D
330
18
100
AcDbEntity
  8
01
  6
BYBLOCK
100
AcDbLine
 10
7381.077724022181
 20
1583.035154359847
 30
0.0000000000563712
 11
7380.577724022181
 21
1583.035154359847
 31
0.0000000000563712
  0
LINE
  5
FC3E
330
18
100
AcDbEntity
  8
01
  6
BYBLOCK
100
AcDbLine
 10
7380.577724022181
 20
1569.335154359847
 30
0.0000000000563712
 11
7381.077724022181
 21
1569.335154359847
 31
0.0000000000563712
  0
LINE
  5
FC3F
330
18
100
AcDbEntity
  8
01
  6
BYBLOCK
100
AcDbLine
 10
7380.577724022181
 20
1569.335154359847
 30
0.0000000000563712
 11
7380.577724022181
 21
1583.035154359847
 31
0.0000000000563712
  0
LINE
  5
FC40
330
18
100
AcDbEntity
  8
01
  6
BYBLOCK
100
AcDbLine
 10
7381.077724022181
 20
1588.585154359847
 30
0.0000000000563712
 11
7382.577724022181
 21
1588.585154359847
 31
0.0000000000563712
  0
LINE
  5
FC41
330
18
100
AcDbEntity
  8
01
  6
BYBLOCK
100
AcDbLine
 10
7381.077724022181
 20
1563.785154359847
 30
0.0000000000563712
 11
7382.577724022181
 21
1563.785154359847
 31
0.0000000000563712
  0
LINE
  5
FC42
330
18
100
AcDbEntity
  8
01
  6
BYBLOCK
100
AcDbLine
 10
7381.077724022181
 20
1563.785154359847
 30
0.0000000000563712
 11
7381.077724022181
 21
1588.585154359847
 31
0.0000000000563712
  0
LINE
  5
FC43
330
18
100
AcDbEntity
  8
01
  6
BYBLOCK
100
AcDbLine
 10
7450.077724022181
 20
1568.485154359847
 30
0.0000000000563712
 11
7385.077724022181
 21
1568.485154359847
 31
0.0000000000563712
  0
LINE
  5
FC44
330
18
100
AcDbEntity
  8
01
  6
BYBLOCK
100
AcDbLine
 10
7450.077724022181
 20
1566.885154359847
 30
0.0000000000563712
 11
7399.677724022182
 21
1566.885154359847
 31
0.0000000000563712
  0
LINE
  5
FC45
330
18
100
AcDbEntity
  8
01
  6
BYBLOCK
100
AcDbLine
 10
7402.514982322384
 20
1566.885154359847
 30
0.0000000000563712
 11
7385.077724022181
 21
1566.885154359847
 31
0.0000000000563712
  0
LINE
  5
FC46
330
18
100
AcDbEntity
  8
01
  6
BYBLOCK
100
AcDbLine
 10
7379.631277412775
 20
1570.331600969253
 30
0.0000000000563712
 11
7370.4170638504
 21
1579.545814531627
 31
0.0000000000563712
  0
ARC
  5
FC47
330
18
100
AcDbEntity
  8
01
  6
BYBLOCK
100
AcDbCircle
 10
7379.984830803367
 20
1570.685154359847
 30
0.0000000000563712
 40
0.5
100
AcDbArc
 50
224.9999999999908
 51
270.0
  0
LINE
  5
FC48
330
18
100
AcDbEntity
  8
01
  6
BYBLOCK
100
AcDbLine
 10
7380.577724022181
 20
1570.185154359847
 30
0.0000000000563712
 11
7379.984830803367
 21
1570.185154359847
 31
0.0000000000563712
  0
LINE
  5
FC4A
330
18
100
AcDbEntity
  8
01
  6
BYBLOCK
100
AcDbLine
 10
7428.470595256069
 20
1356.185154360875
 30
0.0000000000563712
 11
7432.076839840121
 21
1359.791398944927
 31
0.0000000000563712
  0
LINE
  5
FC4B
330
18
100
AcDbEntity
  8
01
  6
BYBLOCK
100
AcDbLine
 10
7435.683084424172
 20
1356.185154360875
 30
0.0000000000563712
 11
7432.076839840121
 21
1359.791398944927
 31
0.0000000000563712
  0
LINE
  5
FC4C
330
18
100
AcDbEntity
  8
01
  6
BYBLOCK
100
AcDbLine
 10
7428.470595256069
 20
1356.185154360875
 30
0.0000000000563712
 11
7432.076839840121
 21
1352.578909776824
 31
0.0000000000563712
  0
LINE
  5
FC4D
330
18
100
AcDbEntity
  8
01
  6
BYBLOCK
100
AcDbLine
 10
7435.683084424172
 20
1356.185154360875
 30
0.0000000000563712
 11
7432.076839840121
 21
1352.578909776824
 31
0.0000000000563712
  0
LINE
  5
FC4E
330
18
100
AcDbEntity
  8
01
  6
BYBLOCK
100
AcDbLine
 10
7370.076839840121
 20
1337.216824627892
 30
0.0000000000563712
 11
7370.076839840121
 21
1319.153484093886
 31
0.0000000000563712
  0
LINE
  5
FC4F
330
18
100
AcDbEntity
  8
01
  6
BYBLOCK
100
AcDbLine
 10
7374.369733058935
 20
1338.185154360889
 30
0.0000000000563712
 11
7381.076839840121
 21
1338.185154360889
 31
0.0000000000563712
  0
LINE
  5
FC50
330
18
100
AcDbEntity
  8
01
  6
BYBLOCK
100
AcDbLine
 10
7374.369733058935
 20
1318.185154360889
 30
0.0000000000563712
 11
7381.076839840121
 21
1318.185154360889
 31
0.0000000000563712
  0
LINE
  5
FC51
330
18
100
AcDbEntity
  8
01
  6
BYBLOCK
100
AcDbLine
 10
7379.869733058935
 20
1333.435154360889
 30
0.0000000000563712
 11
7379.869733058935
 21
1322.935154360889
 31
0.0000000000563712
  0
ARC
  5
FC52
330
18
100
AcDbEntity
  8
01
  6
BYBLOCK
100
AcDbCircle
 10
7374.369733058935
 20
1328.185154360889
 30
0.0000000000563712
 40
10.00000000000009
100
AcDbArc
 50
53.13010235413383
 51
115.4224671781395
  0
ARC
  5
FC53
330
18
100
AcDbEntity
  8
01
  6
BYBLOCK
100
AcDbCircle
 10
7374.369733058935
 20
1328.185154360889
 30
0.0000000000563712
 40
10.00000000000009
100
AcDbArc
 50
244.5775328218606
 51
306.8698976458662
  0
LINE
  5
FC54
330
18
100
AcDbEntity
  8
01
  6
BYBLOCK
100
AcDbLine
 10
7380.369733058935
 20
1336.185154360889
 30
0.0000000000563712
 11
7380.369733058935
 21
1320.185154360889
 31
0.0000000000563712
  0
LINE
  5
FC55
330
18
100
AcDbEntity
  8
01
  6
BYBLOCK
100
AcDbLine
 10
7370.076839840121
 20
1333.435154360889
 30
0.0000000000563712
 11
7379.869733058935
 21
1333.435154360889
 31
0.0000000000563712
  0
LINE
  5
FC56
330
18
100
AcDbEntity
  8
01
  6
BYBLOCK
100
AcDbLine
 10
7370.076839840121
 20
1322.935154360889
 30
0.0000000000563712
 11
7379.869733058935
 21
1322.935154360889
 31
0.0000000000563712
  0
LINE
  5
FC57
330
18
100
AcDbEntity
  8
01
  6
BYBLOCK
100
AcDbLine
 10
7255.676956179866
 20
1392.085154360875
 30
0.0000000000563712
 11
7268.476956179866
 21
1392.085154360875
 31
0.0000000000563712
  0
LINE
  5
FC58
330
18
100
AcDbEntity
  8
01
  6
BYBLOCK
100
AcDbLine
 10
7255.676956179866
 20
1262.285154360875
 30
0.0000000000563712
 11
7268.476956179866
 21
1262.285154360875
 31
0.0000000000563712
  0
LINE
  5
FC59
330
18
100
AcDbEntity
  8
01
  6
BYBLOCK
100
AcDbLine
 10
7249.676956179866
 20
1386.085154360875
 30
0.0000000000563712
 11
7249.676956179866
 21
1268.285154360875
 31
0.0000000000563712
  0
LINE
  5
FC5A
330
18
100
AcDbEntity
  8
01
  6
BYBLOCK
100
AcDbLine
 10
7274.476956179866
 20
1386.085154360875
 30
0.0000000000563712
 11
7274.476956179866
 21
1268.285154360875
 31
0.0000000000563712
  0
ARC
  5
FC5B
330
18
100
AcDbEntity
  8
01
  6
BYBLOCK
100
AcDbCircle
 10
7255.676956179866
 20
1268.285154360875
 30
0.0000000000563712
 40
6.0
100
AcDbArc
 50
180.0
 51
270.0
  0
ARC
  5
FC5C
330
18
100
AcDbEntity
  8
01
  6
BYBLOCK
100
AcDbCircle
 10
7268.476956179866
 20
1268.285154360875
 30
0.0000000000563712
 40
6.0
100
AcDbArc
 50
270.0
 51
0.0
  0
ARC
  5
FC5D
330
18
100
AcDbEntity
  8
01
  6
BYBLOCK
100
AcDbCircle
 10
7255.676956179866
 20
1386.085154360875
 30
0.0000000000563712
 40
6.0
100
AcDbArc
 50
90.0
 51
180.0
  0
ARC
  5
FC5E
330
18
100
AcDbEntity
  8
01
  6
BYBLOCK
100
AcDbCircle
 10
7268.476956179866
 20
1386.085154360875
 30
0.0000000000563712
 40
6.0
100
AcDbArc
 50
0.0
 51
90.0
  0
CIRCLE
  5
FC5F
330
18
100
AcDbEntity
  8
01
  6
BYBLOCK
100
AcDbCircle
 10
7262.076956179866
 20
1270.185154360875
 30
0.0000000000563712
 40
2.75
  0
CIRCLE
  5
FC60
330
18
100
AcDbEntity
  8
01
  6
BYBLOCK
100
AcDbCircle
 10
7262.076956179866
 20
1270.185154360875
 30
0.0000000000563712
 40
4.25
  0
CIRCLE
  5
FC61
330
18
100
AcDbEntity
  8
01
  6
BYBLOCK
100
AcDbCircle
 10
7262.076956179866
 20
1384.185154360875
 30
0.0000000000563712
 40
2.75
  0
CIRCLE
  5
FC62
330
18
100
AcDbEntity
  8
01
  6
BYBLOCK
100
AcDbCircle
 10
7262.076956179866
 20
1384.185154360875
 30
0.0000000000563712
 40
4.25
  0
LINE
  5
FC63
330
18
100
AcDbEntity
  8
1CENTER
100
AcDbLine
 10
7267.951981587772
 20
1270.185154360875
 30
0.0000000000563712
 11
7256.20193077196
 21
1270.185154360875
 31
0.0000000000563712
  0
LINE
  5
FC64
330
18
100
AcDbEntity
  8
1CENTER
100
AcDbLine
 10
7262.076956179866
 20
1276.060179768781
 30
0.0000000000563712
 11
7262.076956179866
 21
1264.310128952969
 31
0.0000000000563712
  0
LINE
  5
FC65
330
18
100
AcDbEntity
  8
1CENTER
100
AcDbLine
 10
7267.951981587772
 20
1384.185154360875
 30
0.0000000000563712
 11
7256.20193077196
 21
1384.185154360875
 31
0.0000000000563712
  0
LINE
  5
FC66
330
18
100
AcDbEntity
  8
1CENTER
100
AcDbLine
 10
7262.076956179866
 20
1390.060179768781
 30
0.0000000000563712
 11
7262.076956179866
 21
1378.310128952969
 31
0.0000000000563712
  0
ARC
  5
FC67
330
18
100
AcDbEntity
  8
01
  6
BYBLOCK
100
AcDbCircle
 10
7262.076956179866
 20
1328.185154360875
 30
0.0000000000563712
 40
10.15
100
AcDbArc
 50
231.9925780701392
 51
308.0074219298607
  0
LINE
  5
FC68
330
18
100
AcDbEntity
  8
01
  6
BYBLOCK
100
AcDbLine
 10
7255.826956179866
 20
1336.182653970128
 30
0.0000000000563712
 11
7255.826956179866
 21
1320.187654751622
 31
0.0000000000563712
  0
LINE
  5
FC69
330
18
100
AcDbEntity
  8
01
  6
BYBLOCK
100
AcDbLine
 10
7268.326956179866
 20
1336.182653970128
 30
0.0000000000563712
 11
7268.326956179866
 21
1320.187654751622
 31
0.0000000000563712
  0
ARC
  5
FC6A
330
18
100
AcDbEntity
  8
01
  6
BYBLOCK
100
AcDbCircle
 10
7262.076956179866
 20
1328.185154360875
 30
0.0000000000563712
 40
10.15
100
AcDbArc
 50
51.99257807013929
 51
128.0074219298607
  0
LINE
  5
FC6B
330
18
100
AcDbEntity
  8
01
  6
BYBLOCK
100
AcDbLine
 10
7257.576956179866
 20
1333.435154360875
 30
0.0000000000563712
 11
7257.576956179866
 21
1322.935154360875
 31
0.0000000000563712
  0
LINE
  5
FC6C
330
18
100
AcDbEntity
  8
01
  6
BYBLOCK
100
AcDbLine
 10
7267.576956179866
 20
1333.435154360875
 30
0.0000000000563712
 11
7267.576956179866
 21
1322.935154360875
 31
0.0000000000563712
  0
LINE
  5
FC6D
330
18
100
AcDbEntity
  8
01
  6
BYBLOCK
100
AcDbLine
 10
7258.076956179866
 20
1337.513739462594
 30
0.0000000000563712
 11
7258.076956179866
 21
1333.435154360875
 31
0.0000000000563712
  0
LINE
  5
FC6E
330
18
100
AcDbEntity
  8
01
  6
BYBLOCK
100
AcDbLine
 10
7256.576956179866
 20
1333.435154360875
 30
0.0000000000563712
 11
7256.576956179866
 21
1322.935154360875
 31
0.0000000000563712
  0
LINE
  5
FC6F
330
18
100
AcDbEntity
  8
01
  6
BYBLOCK
100
AcDbLine
 10
7258.076956179866
 20
1322.935154360875
 30
0.0000000000563712
 11
7258.076956179866
 21
1318.856569259156
 31
0.0000000000563712
  0
LINE
  5
FC70
330
18
100
AcDbEntity
  8
01
  6
BYBLOCK
100
AcDbLine
 10
7256.576956179866
 20
1333.435154360875
 30
0.0000000000563712
 11
7267.576956179866
 21
1333.435154360875
 31
0.0000000000563712
  0
LINE
  5
FC71
330
18
100
AcDbEntity
  8
01
  6
BYBLOCK
100
AcDbLine
 10
7256.576956179866
 20
1322.935154360875
 30
0.0000000000563712
 11
7267.576956179866
 21
1322.935154360875
 31
0.0000000000563712
  0
LINE
  5
FC75
330
18
100
AcDbEntity
  8
01
100
AcDbLine
 10
7242.077072519609
 20
1426.185154360875
 30
0.0000000000563712
 11
7242.077072519609
 21
1236.185154360875
 31
0.0000000000563712
  0
LINE
  5
FC76
330
18
100
AcDbEntity
  8
01
100
AcDbLine
 10
7244.205357902041
 20
1306.185154360875
 30
0.0000000000563712
 11
7221.577072519609
 21
1306.185154360875
 31
0.0000000000563712
  0
POINT
  5
FC77
330
18
100
AcDbEntity
  8
01
100
AcDbPoint
 10
7227.576956179866
 20
1306.185154360875
 30
0.0000000000563712
 50
180.0
  0
CIRCLE
  5
FC78
330
18
100
AcDbEntity
  8
01
100
AcDbCircle
 10
7227.576956179866
 20
1306.185154360875
 30
0.0000000000563712
 40
2.5
  0
CIRCLE
  5
FC79
330
18
100
AcDbEntity
  8
01
100
AcDbCircle
 10
7227.576956179866
 20
1306.185154360875
 30
0.0000000000563712
 40
3.0
  0
LINE
  5
FC7B
330
18
100
AcDbEntity
  8
1CENTER
100
AcDbLine
 10
7227.576956179866
 20
1300.185154360875
 30
0.0000000000563712
 11
7227.576956179866
 21
1312.185154360875
 31
0.0000000000563712
  0
LINE
  5
FC7C
330
18
100
AcDbEntity
  8
01
100
AcDbLine
 10
7376.076839840409
 20
1270.185154361164
 30
0.0000000000563712
 11
7390.076839840409
 21
1270.185154361164
 31
0.0000000000563712
  0
LINE
  5
FC7D
330
18
100
AcDbEntity
  8
01
100
AcDbLine
 10
7443.388728107662
 20
1356.185154360875
 30
0.0000000000563712
 11
7420.764951572579
 21
1356.185154360875
 31
0.0000000000563712
  0
LINE
  5
FC7E
330
18
100
AcDbEntity
  8
01
100
AcDbLine
 10
7432.076839840121
 20
1367.497042628417
 30
0.0000000000563712
 11
7432.076839840121
 21
1344.873266093334
 31
0.0000000000563712
  0
LINE
  5
FC7F
330
18
100
AcDbEntity
  8
01
  6
BYBLOCK
100
AcDbLine
 10
7154.077072519611
 20
1337.216824627892
 30
0.0000000000563712
 11
7154.077072519611
 21
1319.153484093886
 31
0.0000000000563712
  0
LINE
  5
FC80
330
18
100
AcDbEntity
  8
01
  6
BYBLOCK
100
AcDbLine
 10
7149.784179300797
 20
1338.185154360889
 30
0.0000000000563712
 11
7143.077072519611
 21
1338.185154360889
 31
0.0000000000563712
  0
LINE
  5
FC81
330
18
100
AcDbEntity
  8
01
  6
BYBLOCK
100
AcDbLine
 10
7149.784179300797
 20
1318.185154360889
 30
0.0000000000563712
 11
7143.077072519611
 21
1318.185154360889
 31
0.0000000000563712
  0
ARC
  5
FC82
330
18
100
AcDbEntity
  8
01
  6
BYBLOCK
100
AcDbCircle
 10
7149.784179300797
 20
1328.185154360889
 30
0.0000000000563712
 40
10.00000000000009
100
AcDbArc
 50
64.57753282186054
 51
90.0
  0
LINE
  5
FC83
330
18
100
AcDbEntity
  8
01
  6
CONTINUOUS
100
AcDbLine
 10
7153.577072519611
 20
1319.870360168058
 30
0.0000000000563712
 11
7143.077072519611
 21
1319.870360168058
 31
0.0000000000563712
  0
ARC
  5
FC84
330
18
100
AcDbEntity
  8
01
  6
CONTINUOUS
100
AcDbCircle
 10
7153.615652766524
 20
1320.332499398864
 30
0.0000000000563712
 40
0.4637468103423796
100
AcDbArc
 50
265.2279066161988
 51
354.2577450626268
  0
LINE
  5
FC85
330
18
100
AcDbEntity
  8
01
  6
CONTINUOUS
100
AcDbLine
 10
7154.077072519611
 20
1335.668469134437
 30
0.0000000000563712
 11
7154.077072519611
 21
1320.701839587341
 31
0.0000000000563712
  0
ARC
  5
FC86
330
18
100
AcDbEntity
  8
01
  6
CONTINUOUS
100
AcDbCircle
 10
7153.615652766524
 20
1336.037809322913
 30
0.0000000000563712
 40
0.4637468103423387
100
AcDbArc
 50
5.742254937373203
 51
94.77209338380122
  0
ARC
  5
FC87
330
18
100
AcDbEntity
  8
01
  6
BYBLOCK
100
AcDbCircle
 10
7149.784179300797
 20
1328.185154360889
 30
0.0000000000563712
 40
10.00000000000009
100
AcDbArc
 50
270.0
 51
295.4224671781395
  0
LINE
  5
FC88
330
18
100
AcDbEntity
  8
01
  6
CONTINUOUS
100
AcDbLine
 10
7143.077072519611
 20
1336.49994855372
 30
0.0000000000563712
 11
7153.577072519611
 21
1336.49994855372
 31
0.0000000000563712
  0
LINE
  5
FC89
330
18
100
AcDbEntity
  8
01
100
AcDbLine
 10
7450.076839840121
 20
1328.686472673979
 30
0.0000000000563712
 11
7450.076839840121
 21
1291.185154360875
 31
0.0000000000563712
  0
ARC
  5
FC8A
330
18
100
AcDbEntity
  8
01
100
AcDbCircle
 10
7449.076839840121
 20
1291.185154360875
 30
0.0000000000563712
 40
1.0
100
AcDbArc
 50
270.0
 51
0.0
  0
LINE
  5
FC8B
330
18
100
AcDbEntity
  8
01
100
AcDbLine
 10
7405.576839840125
 20
1290.185154360875
 30
0.0000000000563712
 11
7449.076839840121
 21
1290.185154360875
 31
0.0000000000563712
  0
LINE
  5
FC8C
330
18
100
AcDbEntity
  8
01
100
AcDbLine
 10
7122.077072519611
 20
1306.185154360875
 30
0.0000000000563712
 11
7062.077072519611
 21
1306.185154360875
 31
0.0000000000563712
  0
LINE
  5
FC8D
330
18
100
AcDbEntity
  8
01
100
AcDbLine
 10
7092.077072519611
 20
1336.185154360875
 30
0.0000000000563712
 11
7092.077072519611
 21
1276.185154360875
 31
0.0000000000563712
  0
LINE
  5
FD4F
330
18
100
AcDbEntity
  8
01
  6
BYBLOCK
100
AcDbLine
 10
7450.076839840121
 20
1363.185154360875
 30
0.0000000000563712
 11
7450.076839840121
 21
1341.685154565002
 31
0.0000000000563712
  0
LINE
  5
FD50
330
18
100
AcDbEntity
  8
01
  6
BYBLOCK
100
AcDbLine
 10
7383.77683984012
 20
1364.185154360875
 30
0.0000000000563712
 11
7412.076839840123
 21
1364.185154360875
 31
0.0000000000563712
  0
LINE
  5
FD51
330
18
100
AcDbEntity
  8
01
  6
BYBLOCK
100
AcDbLine
 10
7412.076839840123
 20
1364.185154360875
 30
0.0000000000563712
 11
7449.076839840121
 21
1364.185154360875
 31
0.0000000000563712
  0
LINE
  5
FD52
330
18
100
AcDbEntity
  8
01
  6
BYBLOCK
100
AcDbLine
 10
7450.076839840123
 20
1363.185154360875
 30
0.0000000000563712
 11
7450.076839840123
 21
1328.686472673979
 31
0.0000000000563712
  0
LINE
  5
FD53
330
18
100
AcDbEntity
  8
01
100
AcDbLine
 10
7148.077072519611
 20
1384.185154360875
 30
0.0000000000563712
 11
7134.077072519611
 21
1384.185154360875
 31
0.0000000000563712
  0
LINE
  5
FD54
330
18
100
AcDbEntity
  8
01
  6
BYBLOCK
100
AcDbLine
 10
7141.577072519611
 20
1392.085154360876
 30
0.0000000000563712
 11
7141.577072519611
 21
1262.285154360876
 31
0.0000000000563712
  0
LINE
  5
FD55
330
18
100
AcDbEntity
  8
01
  6
BYBLOCK
100
AcDbLine
 10
7141.577072519611
 20
1263.185154360875
 30
0.0000000000563712
 11
7139.077072519611
 21
1263.185154360875
 31
0.0000000000563712
  0
LINE
  5
FD56
330
18
100
AcDbEntity
  8
01
  6
BYBLOCK
100
AcDbLine
 10
7139.077072519611
 20
1263.185154360875
 30
0.0000000000563712
 11
7139.077072519611
 21
1279.688098086028
 31
0.0000000000563712
  0
LINE
  5
FD57
330
18
100
AcDbEntity
  8
01
  6
BYBLOCK
100
AcDbLine
 10
7143.077072519611
 20
1392.085154360876
 30
0.0000000000563712
 11
7143.077072519611
 21
1262.285154360876
 31
0.0000000000563712
  0
LINE
  5
FD58
330
18
100
AcDbEntity
  8
01
  6
BYBLOCK
100
AcDbLine
 10
7143.077072519611
 20
1262.285154360876
 30
0.0000000000563712
 11
7141.577072519611
 21
1262.285154360876
 31
0.0000000000563712
  0
LINE
  5
FD59
330
18
100
AcDbEntity
  8
01
  6
BYBLOCK
100
AcDbLine
 10
7141.577072519611
 20
1391.185154360875
 30
0.0000000000563712
 11
7139.077072519611
 21
1391.185154360875
 31
0.0000000000563712
  0
LINE
  5
FD5A
330
18
100
AcDbEntity
  8
01
  6
BYBLOCK
100
AcDbLine
 10
7143.077072519611
 20
1392.085154360876
 30
0.0000000000563712
 11
7141.577072519611
 21
1392.085154360876
 31
0.0000000000563712
  0
LINE
  5
FD5B
330
18
100
AcDbEntity
  8
01
  6
BYBLOCK
100
AcDbLine
 10
7141.577072519611
 20
1367.185154360875
 30
0.0000000000563712
 11
7140.37707251961
 21
1367.185154360875
 31
0.0000000000563712
  0
ARC
  5
FD5C
330
18
100
AcDbEntity
  8
01
  6
BYBLOCK
100
AcDbCircle
 10
7075.077072519611
 20
1363.185154360875
 30
0.0000000000563712
 40
1.0
100
AcDbArc
 50
90.0
 51
180.0
  0
LINE
  5
FD5D
330
18
100
AcDbEntity
  8
01
  6
BYBLOCK
100
AcDbLine
 10
7140.37707251961
 20
1372.885154360876
 30
0.0000000000563712
 11
7140.37707251961
 21
1281.485154360876
 31
0.0000000000563712
  0
LINE
  5
FD5E
330
18
100
AcDbEntity
  8
01
  6
BYBLOCK
100
AcDbLine
 10
7140.27707251961
 20
1263.185154360875
 30
0.0000000000563712
 11
7140.27707251961
 21
1279.785154360876
 31
0.0000000000563712
  0
LINE
  5
FD5F
330
18
100
AcDbEntity
  8
01
  6
BYBLOCK
100
AcDbLine
 10
7140.27707251961
 20
1279.785154360876
 30
0.0000000000563712
 11
7141.225600657035
 21
1280.733682498299
 31
0.0000000000563712
  0
LINE
  5
FD60
330
18
100
AcDbEntity
  8
01
  6
BYBLOCK
100
AcDbLine
 10
7139.428544382186
 20
1280.536626223452
 30
0.0000000000563712
 11
7140.37707251961
 21
1281.485154360876
 31
0.0000000000563712
  0
ARC
  5
FD61
330
18
100
AcDbEntity
  8
01
  6
BYBLOCK
100
AcDbCircle
 10
7140.27707251961
 20
1279.688098086028
 30
0.0000000000563712
 40
1.2
100
AcDbArc
 50
134.9999999999447
 51
180.0
  0
ARC
  5
FD62
330
18
100
AcDbEntity
  8
01
  6
BYBLOCK
100
AcDbCircle
 10
7140.37707251961
 20
1281.582210635724
 30
0.0000000000563712
 40
1.2
100
AcDbArc
 50
314.9999999999447
 51
0.0
  0
LINE
  5
FD63
330
18
100
AcDbEntity
  8
01
  6
BYBLOCK
100
AcDbLine
 10
7139.077072519611
 20
1391.185154360875
 30
0.0000000000563712
 11
7139.077072519611
 21
1374.682210635723
 31
0.0000000000563712
  0
LINE
  5
FD64
330
18
100
AcDbEntity
  8
01
  6
BYBLOCK
100
AcDbLine
 10
7140.27707251961
 20
1391.185154360875
 30
0.0000000000563712
 11
7140.27707251961
 21
1374.585154360876
 31
0.0000000000563712
  0
LINE
  5
FD65
330
18
100
AcDbEntity
  8
01
  6
BYBLOCK
100
AcDbLine
 10
7140.27707251961
 20
1374.585154360876
 30
0.0000000000563712
 11
7141.225600657035
 21
1373.636626223451
 31
0.0000000000563712
  0
LINE
  5
FD66
330
18
100
AcDbEntity
  8
01
  6
BYBLOCK
100
AcDbLine
 10
7139.428544382186
 20
1373.833682498299
 30
0.0000000000563712
 11
7140.37707251961
 21
1372.885154360875
 31
0.0000000000563712
  0
ARC
  5
FD67
330
18
100
AcDbEntity
  8
01
  6
BYBLOCK
100
AcDbCircle
 10
7140.27707251961
 20
1374.682210635723
 30
0.0000000000563712
 40
1.2
100
AcDbArc
 50
180.0
 51
225.0000000000553
  0
ARC
  5
FD68
330
18
100
AcDbEntity
  8
01
  6
BYBLOCK
100
AcDbCircle
 10
7140.37707251961
 20
1372.788098086028
 30
0.0000000000563712
 40
1.2
100
AcDbArc
 50
0.0
 51
45.00000000005527
  0
CIRCLE
  5
FD69
330
18
100
AcDbEntity
  8
01
  6
BYBLOCK
100
AcDbCircle
 10
7092.077072519611
 20
1356.185154360875
 30
0.0000000000563712
 40
4.75
  0
LINE
  5
FD6A
330
18
100
AcDbEntity
  8
01
  6
BYBLOCK
100
AcDbLine
 10
7140.37707251961
 20
1290.185154360875
 30
0.0000000000563712
 11
7118.577072519607
 21
1290.185154360875
 31
0.0000000000563712
  0
LINE
  5
FD6B
330
18
100
AcDbEntity
  8
01
  6
BYBLOCK
100
AcDbLine
 10
7095.683317103661
 20
1356.185154360875
 30
0.0000000000563712
 11
7092.077072519611
 21
1359.791398944927
 31
0.0000000000563712
  0
LINE
  5
FD6C
330
18
100
AcDbEntity
  8
01
  6
BYBLOCK
100
AcDbLine
 10
7088.470827935558
 20
1356.185154360875
 30
0.0000000000563712
 11
7092.077072519611
 21
1359.791398944927
 31
0.0000000000563712
  0
LINE
  5
FD6D
330
18
100
AcDbEntity
  8
01
  6
BYBLOCK
100
AcDbLine
 10
7095.683317103661
 20
1356.185154360875
 30
0.0000000000563712
 11
7092.077072519611
 21
1352.578909776824
 31
0.0000000000563712
  0
LINE
  5
FD6E
330
18
100
AcDbEntity
  8
01
  6
BYBLOCK
100
AcDbLine
 10
7088.470827935558
 20
1356.185154360875
 30
0.0000000000563712
 11
7092.077072519611
 21
1352.578909776824
 31
0.0000000000563712
  0
LINE
  5
FD6F
330
18
100
AcDbEntity
  8
01
  6
BYBLOCK
100
AcDbLine
 10
7154.077072519611
 20
1337.216824627892
 30
0.0000000000563712
 11
7154.077072519611
 21
1319.153484093886
 31
0.0000000000563712
  0
LINE
  5
FD70
330
18
100
AcDbEntity
  8
01
  6
BYBLOCK
100
AcDbLine
 10
7149.784179300797
 20
1338.185154360889
 30
0.0000000000563712
 11
7143.077072519611
 21
1338.185154360889
 31
0.0000000000563712
  0
LINE
  5
FD71
330
18
100
AcDbEntity
  8
01
  6
BYBLOCK
100
AcDbLine
 10
7149.784179300797
 20
1318.185154360889
 30
0.0000000000563712
 11
7143.077072519611
 21
1318.185154360889
 31
0.0000000000563712
  0
LINE
  5
FD72
330
18
100
AcDbEntity
  8
01
100
AcDbLine
 10
7148.077072519323
 20
1270.185154361164
 30
0.0000000000563712
 11
7134.077072519323
 21
1270.185154361164
 31
0.0000000000563712
  0
LINE
  5
FD73
330
18
100
AcDbEntity
  8
01
  6
BYBLOCK
100
AcDbLine
 10
7074.077072519611
 20
1363.185154360875
 30
0.0000000000563712
 11
7074.077072519611
 21
1341.685154565002
 31
0.0000000000563712
  0
LINE
  5
FD74
330
18
100
AcDbEntity
  8
01
  6
BYBLOCK
100
AcDbLine
 10
7140.37707251961
 20
1364.185154360875
 30
0.0000000000563712
 11
7112.077072519609
 21
1364.185154360875
 31
0.0000000000563712
  0
LINE
  5
FD75
330
18
100
AcDbEntity
  8
01
  6
BYBLOCK
100
AcDbLine
 10
7112.077072519609
 20
1364.185154360875
 30
0.0000000000563712
 11
7075.077072519611
 21
1364.185154360875
 31
0.0000000000563712
  0
LINE
  5
FD76
330
18
100
AcDbEntity
  8
01
  6
BYBLOCK
100
AcDbLine
 10
7074.077072519607
 20
1363.185154360875
 30
0.0000000000563712
 11
7074.077072519607
 21
1328.686472673979
 31
0.0000000000563712
  0
TEXT
  5
FD77
330
18
100
AcDbEntity
  8
1TEXT
100
AcDbText
 10
7074.076972179866
 20
1587.685154360875
 30
0.0
 40
20.0
  1
1-KTV-X-LJ-2
100
AcDbText
  0
TEXT
  5
FD78
330
18
100
AcDbEntity
  8
1TEXT
100
AcDbText
 10
7086.276972179867
 20
1549.435154360875
 30
0.0
 40
6.0
  1
表面処理
 72
     1
 11
7100.176972179866
 21
1549.435154360875
 31
0.0
100
AcDbText
  0
TEXT
  5
FD79
330
18
100
AcDbEntity
  8
1TEXT
100
AcDbText
 10
7085.976972179867
 20
1539.182221371589
 30
0.0
 40
6.0
  1
クローム
 72
     1
 11
7100.176972179866
 21
1539.182221371589
 31
0.0
100
AcDbText
  0
LINE
  5
FD7A
330
18
100
AcDbEntity
  8
1DIM
100
AcDbLine
 10
7074.076972179866
 20
1557.685154360875
 30
0.0000000000563712
 11
7179.076972179866
 21
1557.685154360875
 31
0.0000000000563712
  0
LINE
  5
FD7B
330
18
100
AcDbEntity
  8
1DIM
100
AcDbLine
 10
7074.076972179866
 20
1547.185154360875
 30
0.0000000000563712
 11
7179.076972179866
 21
1547.185154360875
 31
0.0000000000563712
  0
LINE
  5
FD7C
330
18
100
AcDbEntity
  8
1DIM
100
AcDbLine
 10
7074.076972179866
 20
1536.685154360875
 30
0.0000000000563712
 11
7179.076972179866
 21
1536.685154360875
 31
0.0000000000563712
  0
LINE
  5
FD7D
330
18
100
AcDbEntity
  8
1DIM
100
AcDbLine
 10
7074.076972179866
 20
1536.685154360875
 30
0.0000000000563712
 11
7179.076972179866
 21
1536.685154360875
 31
0.0000000000563712
  0
LINE
  5
FD7E
330
18
100
AcDbEntity
  8
1DIM
100
AcDbLine
 10
7126.576972179866
 20
1557.685154360875
 30
0.0000000000563712
 11
7126.576972179866
 21
1536.685154360875
 31
0.0000000000563712
  0
TEXT
  5
FD7F
330
18
100
AcDbEntity
  8
1TEXT
100
AcDbText
 10
7128.176972179866
 20
1538.613618885402
 30
0.0
 40
6.0
  1
1-KTV-C-LJ-2
 41
0.6999999999999998
 72
     1
 11
7152.676972179866
 21
1538.613618885402
 31
0.0
100
AcDbText
  0
TEXT
  5
FD80
330
18
100
AcDbEntity
  8
1TEXT
100
AcDbText
 10
7142.376972179866
 20
1549.435154360875
 30
0.0
 40
6.0
  1
コード
 72
     1
 11
7152.676972179866
 21
1549.435154360875
 31
0.0
100
AcDbText
  0
LINE
  5
FD81
330
18
100
AcDbEntity
  8
1DIM
100
AcDbLine
 10
7179.076972179866
 20
1536.685154360875
 30
0.0000000000563712
 11
7179.076972179866
 21
1557.685154360875
 31
0.0000000000563712
  0
LINE
  5
FD82
330
18
100
AcDbEntity
  8
1DIM
100
AcDbLine
 10
7074.076972179866
 20
1536.685154360875
 30
0.0000000000563712
 11
7179.076972179866
 21
1536.685154360875
 31
0.0000000000563712
  0
LINE
  5
FD83
330
18
100
AcDbEntity
  8
1DIM
100
AcDbLine
 10
7126.576972179866
 20
1536.685154360875
 30
0.0000000000563712
 11
7126.576972179866
 21
1526.185154360875
 31
0.0000000000563712
  0
LINE
  5
FD84
330
18
100
AcDbEntity
  8
1DIM
100
AcDbLine
 10
7074.076972179866
 20
1526.185154360875
 30
0.0000000000563712
 11
7179.076972179866
 21
1526.185154360875
 31
0.0000000000563712
  0
TEXT
  5
FD85
330
18
100
AcDbEntity
  8
1TEXT
100
AcDbText
 10
7075.376972179866
 20
1528.718783943519
 30
0.0
 40
6.0
  1
サテンニッケル
 72
     1
 11
7100.176972179866
 21
1528.718783943519
 31
0.0
100
AcDbText
  0
LINE
  5
FD86
330
18
100
AcDbEntity
  8
1DIM
100
AcDbLine
 10
7074.076972179866
 20
1526.185154360875
 30
0.0000000000563712
 11
7074.076972179866
 21
1536.685154360875
 31
0.0000000000563712
  0
LINE
  5
FD87
330
18
100
AcDbEntity
  8
1DIM
100
AcDbLine
 10
7179.076972179866
 20
1526.185154360875
 30
0.0000000000563712
 11
7179.076972179866
 21
1536.685154360875
 31
0.0000000000563712
  0
TEXT
  5
FD88
330
18
100
AcDbEntity
  8
1TEXT
100
AcDbText
 10
7128.176972179866
 20
1528.113618885402
 30
0.0
 40
6.0
  1
1-KTV-N-LJ-2
 41
0.6999999999999998
 72
     1
 11
7152.676972179866
 21
1528.113618885402
 31
0.0
100
AcDbText
  0
LINE
  5
FD89
330
18
100
AcDbEntity
  8
1DIM
100
AcDbLine
 10
7074.076972179866
 20
1536.685154360875
 30
0.0000000000563712
 11
7074.076972179866
 21
1557.685154360875
 31
0.0000000000563712
  0
POINT
  5
10314
330
18
100
AcDbEntity
  8
01
100
AcDbPoint
 10
7296.576839840121
 20
1306.186472673979
 30
0.0000000000563712
  0
LINE
  5
10315
330
18
100
AcDbEntity
  8
01
100
AcDbLine
 10
7296.176839830123
 20
1304.436472673979
 30
0.0000000000563712
 11
7296.176839830123
 21
1305.286472693979
 31
0.0000000000563712
  0
LINE
  5
10316
330
18
100
AcDbEntity
  8
01
100
AcDbLine
 10
7296.976839850124
 20
1304.436472673979
 30
0.0000000000563712
 11
7296.976839850124
 21
1305.286472693979
 31
0.0000000000563712
  0
LINE
  5
10317
330
18
100
AcDbEntity
  8
01
100
AcDbLine
 10
7295.676839860122
 20
1305.786472663978
 30
0.0000000000563712
 11
7294.826839840121
 21
1305.786472663978
 31
0.0000000000563712
  0
LINE
  5
10318
330
18
100
AcDbEntity
  8
01
100
AcDbLine
 10
7295.676839860122
 20
1306.586472683978
 30
0.0000000000563712
 11
7294.826839840121
 21
1306.586472683978
 31
0.0000000000563712
  0
LINE
  5
10319
330
18
100
AcDbEntity
  8
01
100
AcDbLine
 10
7294.826839840121
 20
1305.786472663978
 30
0.0000000000563712
 11
7294.826839840121
 21
1306.586472683978
 31
0.0000000000563712
  0
LINE
  5
1031A
330
18
100
AcDbEntity
  8
01
100
AcDbLine
 10
7296.976839850124
 20
1304.436472673979
 30
0.0000000000563712
 11
7296.176839830123
 21
1304.436472673979
 31
0.0000000000563712
  0
LINE
  5
1031B
330
18
100
AcDbEntity
  8
01
100
AcDbLine
 10
7296.976839850124
 20
1307.936472673979
 30
0.0000000000563712
 11
7296.976839850124
 21
1307.086472653978
 31
0.0000000000563712
  0
LINE
  5
1031C
330
18
100
AcDbEntity
  8
01
100
AcDbLine
 10
7296.176839830123
 20
1307.936472673979
 30
0.0000000000563712
 11
7296.176839830123
 21
1307.086472653978
 31
0.0000000000563712
  0
LINE
  5
1031D
330
18
100
AcDbEntity
  8
01
100
AcDbLine
 10
7297.476839820121
 20
1306.586472683978
 30
0.0000000000563712
 11
7298.326839840121
 21
1306.586472683978
 31
0.0000000000563712
  0
LINE
  5
1031E
330
18
100
AcDbEntity
  8
01
100
AcDbLine
 10
7297.476839820121
 20
1305.786472663978
 30
0.0000000000563712
 11
7298.326839840121
 21
1305.786472663978
 31
0.0000000000563712
  0
LINE
  5
1031F
330
18
100
AcDbEntity
  8
01
100
AcDbLine
 10
7298.326839840121
 20
1306.586472683978
 30
0.0000000000563712
 11
7298.326839840121
 21
1305.786472663978
 31
0.0000000000563712
  0
LINE
  5
10320
330
18
100
AcDbEntity
  8
01
100
AcDbLine
 10
7296.176839830123
 20
1307.936472673979
 30
0.0000000000563712
 11
7296.976839850124
 21
1307.936472673979
 31
0.0000000000563712
  0
CIRCLE
  5
10321
330
18
100
AcDbEntity
  8
01
100
AcDbCircle
 10
7296.576839840121
 20
1306.186472673979
 30
0.0000000000563712
 40
2.5
  0
ARC
  5
10322
330
18
100
AcDbEntity
  8
01
100
AcDbCircle
 10
7297.476839820121
 20
1307.086472653978
 30
0.0000000000563712
 40
0.5
100
AcDbArc
 50
179.999989999999
 51
270.0
  0
ARC
  5
10323
330
18
100
AcDbEntity
  8
01
100
AcDbCircle
 10
7297.476839820121
 20
1305.286472693979
 30
0.0000000000563712
 40
0.5
100
AcDbArc
 50
90.00000299998466
 51
180.000010000001
  0
ARC
  5
10324
330
18
100
AcDbEntity
  8
01
100
AcDbCircle
 10
7295.676839860122
 20
1305.286472693979
 30
0.0000000000563712
 40
0.5
100
AcDbArc
 50
0.0
 51
90.00000299998466
  0
ARC
  5
10325
330
18
100
AcDbEntity
  8
01
100
AcDbCircle
 10
7295.676839860122
 20
1307.086472653978
 30
0.0000000000563712
 40
0.5
100
AcDbArc
 50
270.0
 51
0.0
  0
LINE
  5
10327
330
18
100
AcDbEntity
  8
1CENTER
100
AcDbLine
 10
7296.576839840121
 20
1300.186472673979
 30
0.0000000000563712
 11
7296.576839840121
 21
1312.186472673979
 31
0.0000000000563712
  0
LINE
  5
10328
330
18
100
AcDbEntity
  8
01
100
AcDbLine
 10
7279.948554457691
 20
1306.186472673979
 30
0.0000000000563712
 11
7302.576839840121
 21
1306.186472673979
 31
0.0000000000563712
  0
LINE
  5
10329
330
18
100
AcDbEntity
  8
01
  6
BYBLOCK
100
AcDbLine
 10
7381.077607682439
 20
1556.185154360876
 30
0.0000000001127424
 11
7534.83198783747
 21
1556.185154360876
 31
0.0000000001127424
  0
LINE
  5
1032A
330
18
100
AcDbEntity
  8
01
100
AcDbLine
 10
7432.076839840121
 20
1561.185154360876
 30
0.0000000001127424
 11
7432.076839840121
 21
1534.685154360876
 31
0.0000000001127424
  0
LINE
  5
1032E
330
18
100
AcDbEntity
  8
01
100
AcDbLine
 10
7282.076839840121
 20
1426.186472673979
 30
0.0000000000563712
 11
7282.076839840121
 21
1236.186472673979
 31
0.0000000000563712
  0
LINE
  5
1032F
330
18
100
AcDbEntity
  8
01
100
AcDbLine
 10
7402.076839840121
 20
1306.186472673979
 30
0.0000000000563712
 11
7462.076839840121
 21
1306.186472673979
 31
0.0000000000563712
  0
LINE
  5
10330
330
18
100
AcDbEntity
  8
01
100
AcDbLine
 10
7432.076839840121
 20
1336.186472673979
 30
0.0000000000563712
 11
7432.076839840121
 21
1276.186472673979
 31
0.0000000000563712
  0
LINE
  5
10331
330
18
100
AcDbEntity
  8
01
100
AcDbLine
 10
7282.076839840121
 20
1283.686472673979
 30
0.0000000000563712
 11
7282.076839840121
 21
1328.686472673979
 31
0.0000000000563712
  0
LINE
  5
10332
330
18
100
AcDbEntity
  8
01
100
AcDbLine
 10
7290.576839840121
 20
1284.186472673979
 30
0.0000000000563712
 11
7290.576839840121
 21
1328.186472673979
 31
0.0000000000563712
  0
LINE
  5
10333
330
18
100
AcDbEntity
  8
01
100
AcDbLine
 10
7282.076839840121
 20
1328.686472673979
 30
0.0
 11
7290.076839840121
 21
1328.686472673979
 31
0.0
  0
LINE
  5
10334
330
18
100
AcDbEntity
  8
01
100
AcDbLine
 10
7282.076839840121
 20
1283.686472673979
 30
0.0
 11
7290.076839840121
 21
1283.686472673979
 31
0.0
  0
ARC
  5
10335
330
18
100
AcDbEntity
  8
01
100
AcDbCircle
 10
7290.076839840121
 20
1284.186472673979
 30
0.0
 40
0.5
100
AcDbArc
 50
270.0
 51
0.0
  0
ARC
  5
10336
330
18
100
AcDbEntity
  8
01
100
AcDbCircle
 10
7290.076839840121
 20
1328.186472673979
 30
0.0
 40
0.5
100
AcDbArc
 50
0.0
 51
90.0
  0
LINE
  5
10337
330
18
100
AcDbEntity
  8
01
100
AcDbLine
 10
7405.576839840125
 20
1556.185154360876
 30
0.0000000001127424
 11
7505.576839840125
 21
1556.185154360876
 31
0.0000000001127424
  0
LINE
  5
10338
330
18
100
AcDbEntity
  8
01
100
AcDbLine
 10
7406.076839840125
 20
1547.685154360876
 30
0.0000000001127424
 11
7505.076839840125
 21
1547.685154360876
 31
0.0000000001127424
  0
LINE
  5
10339
330
18
100
AcDbEntity
  8
01
100
AcDbLine
 10
7505.576839840125
 20
1556.185154360876
 30
0.0
 11
7505.576839840125
 21
1548.185154360876
 31
0.0
  0
LINE
  5
1033A
330
18
100
AcDbEntity
  8
01
100
AcDbLine
 10
7405.576839840125
 20
1556.185154360876
 30
0.0000000001127424
 11
7405.576839840125
 21
1548.185154360876
 31
0.0000000001127424
  0
ARC
  5
1033B
330
18
100
AcDbEntity
  8
01
100
AcDbCircle
 10
7406.076839840125
 20
1548.185154360876
 30
0.0000000001127424
 40
0.5
100
AcDbArc
 50
180.0
 51
270.0
  0
ARC
  5
1033C
330
18
100
AcDbEntity
  8
01
100
AcDbCircle
 10
7505.076839840125
 20
1548.185154360876
 30
0.0
 40
0.5
100
AcDbArc
 50
270.0
 51
0.0
  0
LINE
  5
1033D
330
18
100
AcDbEntity
  8
01
100
AcDbLine
 10
7406.076839840125
 20
1283.686472673979
 30
0.0000000000563712
 11
7505.076839840125
 21
1283.686472673979
 31
0.0000000000563712
  0
ARC
  5
1033E
330
18
100
AcDbEntity
  8
01
100
AcDbCircle
 10
7406.076839840125
 20
1284.186472673979
 30
0.0000000000563712
 40
0.5
100
AcDbArc
 50
180.0
 51
270.0
  0
ARC
  5
1033F
330
18
100
AcDbEntity
  8
01
100
AcDbCircle
 10
7505.076839840125
 20
1284.186472673979
 30
0.0000000000563712
 40
0.5
100
AcDbArc
 50
270.0
 51
0.0
  0
LINE
  5
10340
330
18
100
AcDbEntity
  8
01
100
AcDbLine
 10
7406.076839840125
 20
1328.686472673979
 30
0.0000000000563712
 11
7505.076839840125
 21
1328.686472673979
 31
0.0000000000563712
  0
LINE
  5
10341
330
18
100
AcDbEntity
  8
01
100
AcDbLine
 10
7405.576839840125
 20
1328.186472673979
 30
0.0000000000563712
 11
7405.576839840125
 21
1284.186472673979
 31
0.0000000000563712
  0
ARC
  5
10342
330
18
100
AcDbEntity
  8
01
100
AcDbCircle
 10
7406.076839840125
 20
1328.186472673979
 30
0.0000000000563712
 40
0.5
100
AcDbArc
 50
90.0
 51
180.0
  0
LINE
  5
10343
330
18
100
AcDbEntity
  8
01
100
AcDbLine
 10
7505.576839840125
 20
1328.186472673979
 30
0.0000000000563712
 11
7505.576839840125
 21
1313.917900686798
 31
0.0000000000563712
  0
ARC
  5
10344
330
18
100
AcDbEntity
  8
01
100
AcDbCircle
 10
7505.076839840125
 20
1328.186472673979
 30
0.0000000000563712
 40
0.5
100
AcDbArc
 50
0.0
 51
90.0
  0
LINE
  5
10347
330
18
100
AcDbEntity
  8
01
100
AcDbLine
 10
7505.576839840125
 20
1298.455044661115
 30
0.0000000000563712
 11
7505.576839840125
 21
1284.186472673979
 31
0.0000000000563712
  0
LINE
  5
10348
330
18
100
AcDbEntity
  8
01
100
AcDbLine
 10
7422.020928118456
 20
1308.233873916444
 30
0.0000000000563712
 11
7550.160691017014
 21
1308.233873916452
 31
0.0000000000563712
  0
LINE
  5
10349
330
18
100
AcDbEntity
  8
01
100
AcDbLine
 10
7422.07289849773
 20
1304.139071431473
 30
0.0000000000563712
 11
7550.160691017014
 21
1304.139071431473
 31
0.0000000000563712
  0
ARC
  5
1034A
330
18
100
AcDbEntity
  8
01
100
AcDbCircle
 10
7442.111645651594
 20
1316.686472673977
 30
0.0000000000563712
 40
1.5
100
AcDbArc
 50
1.257375080859653
 51
90.0
  0
ARC
  5
1034B
330
18
100
AcDbEntity
  8
01
100
AcDbCircle
 10
6963.726863284928
 20
1306.186472673962
 30
0.0000000000563712
 40
480.0
100
AcDbArc
 50
358.7426249190101
 51
359.0770888513416
  0
ARC
  5
1034C
330
18
100
AcDbEntity
  8
01
100
AcDbCircle
 10
7442.111645651594
 20
1295.68647267397
 30
0.0000000000563712
 40
1.5
100
AcDbArc
 50
270.0
 51
358.7426249191403
  0
ARC
  5
1034D
330
18
100
AcDbEntity
  8
01
100
AcDbCircle
 10
7422.042034028613
 20
1295.68647267397
 30
0.0000000000563712
 40
1.5
100
AcDbArc
 50
181.2573750808596
 51
270.0000000002606
  0
ARC
  5
1034E
330
18
100
AcDbEntity
  8
01
100
AcDbCircle
 10
7422.042034028613
 20
1316.686472673977
 30
0.0000000000563712
 40
1.5
100
AcDbArc
 50
89.99999999973944
 51
178.7426249191404
  0
ARC
  5
1034F
330
18
100
AcDbEntity
  8
01
100
AcDbCircle
 10
7900.426816395278
 20
1306.186472673962
 30
0.0000000000563712
 40
480.0
100
AcDbArc
 50
178.7426249190101
 51
181.2573750809899
  0
LINE
  5
10350
330
18
100
AcDbEntity
  8
01
100
AcDbLine
 10
7550.179251525979
 20
1298.455044661121
 30
0.0000000000563712
 11
7443.664593642612
 21
1298.455044661107
 31
0.0000000000563712
  0
LINE
  5
10351
330
18
100
AcDbEntity
  8
01
100
AcDbLine
 10
7550.179251525979
 20
1313.917900686789
 30
0.0000000000563712
 11
7443.664593642612
 21
1313.917900686811
 31
0.0000000000563712
  0
LINE
  5
10352
330
18
100
AcDbEntity
  8
01
100
AcDbLine
 10
7422.04203402862
 20
1318.186472673977
 30
0.0000000000563712
 11
7442.111645651594
 21
1318.18647267397
 31
0.0000000000563712
  0
LINE
  5
10353
330
18
100
AcDbEntity
  8
01
100
AcDbLine
 10
7442.111645651594
 20
1294.186472673962
 30
0.0000000000563712
 11
7422.04203402862
 21
1294.186472673962
 31
0.0000000000563712
  0
ARC
  5
10354
330
18
100
AcDbEntity
  8
01
100
AcDbCircle
 10
6963.726863284928
 20
1306.186472673962
 30
0.0000000000563712
 40
480.0
100
AcDbArc
 50
0.9229111486583993
 51
1.257375080989897
  0
LINE
  5
10355
330
18
100
AcDbEntity
  8
01
100
AcDbLine
 10
7420.576839840103
 20
1307.185615418199
 30
0.0000000000563712
 11
7420.576839840103
 21
1305.18732992974
 31
0.0000000000563712
  0
LINE
  5
10356
330
18
100
AcDbEntity
  8
01
100
AcDbLine
 10
7551.626816395297
 20
1307.185615418199
 30
0.0000000000563712
 11
7551.626816395297
 21
1305.187329929653
 31
0.0000000000563712
  0
ELLIPSE
  5
10357
330
18
100
AcDbEntity
  8
01
100
AcDbEllipse
 10
7550.160691017014
 20
1307.185615418199
 30
0.0000000000563712
 11
1.466125378283323
 21
0.0
 31
0.0
210
0.0
220
0.0
230
1.0
 40
0.7149855761178042
 41
0.0
 42
1.570796326794897
  0
ELLIPSE
  5
10358
330
18
100
AcDbEntity
  8
01
100
AcDbEllipse
 10
7550.160691017014
 20
1305.187329929653
 30
0.0000000000563712
 11
1.466125378283323
 21
0.0
 31
0.0
210
0.0
220
0.0
230
-1.0
 40
0.7149855761178042
 41
0.0
 42
1.570796326794897
  0
ELLIPSE
  5
10359
330
18
100
AcDbEntity
  8
01
100
AcDbEllipse
 10
7422.07289849773
 20
1307.185615418199
 30
0.0000000000563712
 11
-1.496058657627145
 21
0.0
 31
0.0
210
0.0
220
0.0
230
1.0
 40
0.7006800788868608
 41
4.71238898038469
 42
6.283185307179586
  0
ELLIPSE
  5
1035A
330
18
100
AcDbEntity
  8
01
100
AcDbEllipse
 10
7422.07289849773
 20
1305.18732992974
 30
0.0000000000563712
 11
-1.496058657627145
 21
0.0
 31
0.0
210
0.0
220
0.0
230
-1.0
 40
0.7006800788868608
 41
4.71238898038469
 42
6.283185307179586
  0
ARC
  5
1035B
330
18
100
AcDbEntity
  8
01
100
AcDbCircle
 10
7550.179251525979
 20
1299.955044661121
 30
0.0000000000563712
 40
1.5
100
AcDbArc
 50
270.0
 51
358.1734270623115
  0
ARC
  5
1035C
330
18
100
AcDbEntity
  8
01
100
AcDbCircle
 10
7550.179251525979
 20
1312.417900686818
 30
0.0000000000563712
 40
1.5
100
AcDbArc
 50
1.826572937688503
 51
90.0
  0
ARC
  5
1035D
330
18
100
AcDbEntity
  8
01
100
AcDbCircle
 10
7354.778588003768
 20
1306.18647267397
 30
0.0000000000563712
 40
197.0
100
AcDbArc
 50
358.1734270624165
 51
1.826572937583505
  0
LINE
  5
1035E
330
18
100
AcDbEntity
  8
1CENTER
100
AcDbLine
 10
7415.993165076181
 20
1541.685162394129
 30
0.0000000001127424
 11
7424.126837438029
 21
1541.685154360879
 31
0.0000000001127424
  0
LINE
  5
10360
330
18
100
AcDbEntity
  8
1CENTER
100
AcDbLine
 10
7415.993165076181
 20
1541.685162394128
 30
0.0000000001127424
 11
7424.126837438029
 21
1541.685154360878
 31
0.0000000001127424
  0
ARC
  5
10361
330
18
100
AcDbEntity
  8
01
100
AcDbCircle
 10
7550.160691017029
 20
1491.664192904511
 30
0.0000000001127424
 40
1.5
100
AcDbArc
 50
270.0
 51
358.7729938891957
  0
ARC
  5
10362
330
18
100
AcDbEntity
  8
01
100
AcDbCircle
 10
7550.160691017014
 20
1513.684430881509
 30
0.0000000001127424
 40
1.5
100
AcDbArc
 50
1.227006111064828
 51
90.0
  0
ARC
  5
10363
330
18
100
AcDbEntity
  8
01
100
AcDbCircle
 10
7422.072898497745
 20
1491.664192904511
 30
0.0000000001127424
 40
1.5
100
AcDbArc
 50
180.1507461495316
 51
270.0
  0
ARC
  5
10364
330
18
100
AcDbEntity
  8
01
100
AcDbCircle
 10
7447.151889348073
 20
1518.684430881524
 30
0.0000000001127424
 40
3.5
100
AcDbArc
 50
179.8492538505465
 51
270.0
  0
LINE
  5
10365
330
18
100
AcDbEntity
  8
01
100
AcDbLine
 10
7443.726863284943
 20
1547.185154360876
 30
0.0000000001127424
 11
7443.633539637127
 21
1511.714670839011
 31
0.0000000001127424
  0
LINE
  5
10366
330
18
100
AcDbEntity
  8
01
100
AcDbLine
 10
7420.4268163953
 20
1547.185154360876
 30
0.0000000001127424
 11
7420.572903689432
 21
1491.660246384101
 31
0.0000000001127424
  0
ARC
  5
10367
330
18
100
AcDbEntity
  8
01
100
AcDbCircle
 10
7036.115239336234
 20
1502.674311892643
 30
0.0000000001127424
 40
515.6633486675555
100
AcDbArc
 50
358.7729938891435
 51
1.227006110960632
  0
LINE
  5
10368
330
18
100
AcDbEntity
  8
01
100
AcDbLine
 10
7550.160691017029
 20
1490.164192904519
 30
0.0000000001127424
 11
7422.072898497745
 21
1490.164192904511
 31
0.0000000001127424
  0
LINE
  5
10369
330
18
100
AcDbEntity
  8
01
100
AcDbLine
 10
7550.160691017014
 20
1515.184430881517
 30
0.0000000001127424
 11
7447.151889348073
 21
1515.184430881524
 31
0.0000000001127424
  0
LINE
  5
1036A
330
18
100
AcDbEntity
  8
01
100
AcDbLine
 10
7443.726863284943
 20
1547.185154360876
 30
0.0000000001127424
 11
7420.4268163953
 21
1547.185154360876
 31
0.0000000001127424
  0
ARC
  5
1036C
330
18
100
AcDbEntity
  8
01
100
AcDbCircle
 10
7291.076839840121
 20
1462.386472674665
 30
0.0000000000563712
 40
168.2
100
AcDbArc
 50
270.0
 51
289.4527672107872
  0
ARC
  5
1036D
330
18
100
AcDbEntity
  8
01
100
AcDbCircle
 10
7291.076839840121
 20
1149.986472674656
 30
0.0000000000563712
 40
168.2
100
AcDbArc
 50
70.54723278921273
 51
90.0
  0
LINE
  5
1036E
330
18
100
AcDbEntity
  8
01
100
AcDbLine
 10
7291.076839840121
 20
1318.186472673976
 30
0.0000000000563712
 11
7291.076839840121
 21
1294.186472675344
 31
0.0000000000563712
  0
ARC
  5
1036F
330
18
100
AcDbEntity
  8
01
100
AcDbCircle
 10
7346.59288461412
 20
1305.202317071594
 30
0.0000000000563712
 40
1.5
100
AcDbArc
 50
289.4527672106225
 51
359.4275238510782
  0
ARC
  5
10370
330
18
100
AcDbEntity
  8
01
100
AcDbCircle
 10
7346.59288461412
 20
1307.170628277734
 30
0.0000000000563712
 40
1.5
100
AcDbArc
 50
0.5724761489217947
 51
70.54723278926836
  0
ARC
  5
10371
330
18
100
AcDbEntity
  8
01
100
AcDbCircle
 10
7248.097801296479
 20
1306.186472674486
 30
0.0000000000563712
 40
100.0
100
AcDbArc
 50
359.4275238511564
 51
0.5724761490520638
  0
LINE
  5
10372
330
18
100
AcDbEntity
  8
01
100
AcDbLine
 10
7405.576839840125
 20
1596.185154358818
 30
0.0000000001127424
 11
7505.576839840125
 21
1596.185154358818
 31
0.0000000001127424
  0
LINE
  5
10373
330
18
100
AcDbEntity
  8
01
100
AcDbLine
 10
7406.076839840125
 20
1604.685154358818
 30
0.0000000001127424
 11
7505.076839840125
 21
1604.685154358818
 31
0.0000000001127424
  0
LINE
  5
10374
330
18
100
AcDbEntity
  8
01
100
AcDbLine
 10
7505.576839840125
 20
1596.185154358818
 30
0.0
 11
7505.576839840125
 21
1604.185154358818
 31
0.0
  0
LINE
  5
10375
330
18
100
AcDbEntity
  8
01
100
AcDbLine
 10
7405.576839840125
 20
1596.185154358818
 30
0.0000000001127424
 11
7405.576839840125
 21
1604.185154358818
 31
0.0000000001127424
  0
ARC
  5
10376
330
18
100
AcDbEntity
  8
01
100
AcDbCircle
 10
7406.076839840125
 20
1604.185154358818
 30
0.0000000001127424
 40
0.5
100
AcDbArc
 50
90.0
 51
180.0
  0
ARC
  5
10377
330
18
100
AcDbEntity
  8
01
100
AcDbCircle
 10
7505.076839840125
 20
1604.185154358818
 30
0.0
 40
0.5
100
AcDbArc
 50
0.0
 51
90.0
  0
LINE
  5
10378
330
18
100
AcDbEntity
  8
1CENTER
100
AcDbLine
 10
7415.993165076181
 20
1610.685146325565
 30
0.0000000001127424
 11
7424.126837438029
 21
1610.685154358815
 31
0.0000000001127424
  0
LINE
  5
10379
330
18
100
AcDbEntity
  8
1CENTER
100
AcDbLine
 10
7415.993165076181
 20
1610.685146325565
 30
0.0000000001127424
 11
7424.126837438029
 21
1610.685154358815
 31
0.0000000001127424
  0
ARC
  5
1037A
330
18
100
AcDbEntity
  8
01
100
AcDbCircle
 10
7550.160691017029
 20
1660.706115815182
 30
0.0000000001127424
 40
1.5
100
AcDbArc
 50
1.227006110804337
 51
90.0
  0
ARC
  5
1037B
330
18
100
AcDbEntity
  8
01
100
AcDbCircle
 10
7550.160691017014
 20
1638.685877838184
 30
0.0000000001127424
 40
1.5
100
AcDbArc
 50
270.0
 51
358.7729938889352
  0
ARC
  5
1037C
330
18
100
AcDbEntity
  8
01
100
AcDbCircle
 10
7422.072898497745
 20
1660.706115815182
 30
0.0000000001127424
 40
1.5
100
AcDbArc
 50
90.0
 51
179.8492538504684
  0
ARC
  5
1037D
330
18
100
AcDbEntity
  8
01
100
AcDbCircle
 10
7447.151889348073
 20
1633.68587783817
 30
0.0000000001127424
 40
3.5
100
AcDbArc
 50
90.0
 51
180.1507461494535
  0
LINE
  5
1037E
330
18
100
AcDbEntity
  8
01
100
AcDbLine
 10
7443.726863284943
 20
1605.185154358818
 30
0.0000000001127424
 11
7443.633539637127
 21
1640.655637880683
 31
0.0000000001127424
  0
LINE
  5
1037F
330
18
100
AcDbEntity
  8
01
100
AcDbLine
 10
7420.4268163953
 20
1605.185154358818
 30
0.0000000001127424
 11
7420.572903689432
 21
1660.710062335592
 31
0.0000000001127424
  0
ARC
  5
10380
330
18
100
AcDbEntity
  8
01
100
AcDbCircle
 10
7036.115239336234
 20
1649.695996827051
 30
0.0000000001127424
 40
515.6633486675555
100
AcDbArc
 50
358.7729938890394
 51
1.227006110856435
  0
LINE
  5
10381
330
18
100
AcDbEntity
  8
01
100
AcDbLine
 10
7550.160691017029
 20
1662.206115815175
 30
0.0000000001127424
 11
7422.072898497745
 21
1662.206115815182
 31
0.0000000001127424
  0
LINE
  5
10382
330
18
100
AcDbEntity
  8
01
100
AcDbLine
 10
7550.160691017014
 20
1637.185877838177
 30
0.0000000001127424
 11
7447.151889348073
 21
1637.18587783817
 31
0.0000000001127424
  0
LINE
  5
10383
330
18
100
AcDbEntity
  8
01
100
AcDbLine
 10
7443.726863284943
 20
1605.185154358818
 30
0.0000000001127424
 11
7420.4268163953
 21
1605.185154358818
 31
0.0000000001127424
  0
ARC
  5
10384
330
18
100
AcDbEntity
  8
01
100
AcDbCircle
 10
7233.077072519611
 20
1462.386472674665
 30
0.0000000000563712
 40
168.2
100
AcDbArc
 50
250.5472327892128
 51
270.0
  0
ARC
  5
10385
330
18
100
AcDbEntity
  8
01
100
AcDbCircle
 10
7233.077072519611
 20
1149.986472674656
 30
0.0000000000563712
 40
168.2
100
AcDbArc
 50
90.0
 51
109.4527672107873
  0
LINE
  5
10386
330
18
100
AcDbEntity
  8
01
100
AcDbLine
 10
7233.077072519611
 20
1318.186472673976
 30
0.0000000000563712
 11
7233.077072519611
 21
1294.186472675344
 31
0.0000000000563712
  0
ARC
  5
10387
330
18
100
AcDbEntity
  8
01
100
AcDbCircle
 10
7177.561027745613
 20
1305.202317071594
 30
0.0000000000563712
 40
1.5
100
AcDbArc
 50
180.5724761489218
 51
250.5472327893775
  0
ARC
  5
10388
330
18
100
AcDbEntity
  8
01
100
AcDbCircle
 10
7177.561027745613
 20
1307.170628277734
 30
0.0000000000563712
 40
1.5
100
AcDbArc
 50
109.4527672107316
 51
179.4275238510782
  0
ARC
  5
10389
330
18
100
AcDbEntity
  8
01
100
AcDbCircle
 10
7276.056111063253
 20
1306.186472674486
 30
0.0000000000563712
 40
100.0
100
AcDbArc
 50
179.4275238509479
 51
180.5724761488436
  0
LINE
  5
1038A
330
18
100
AcDbEntity
  8
01
100
AcDbLine
 10
7118.077072519607
 20
1283.686472673979
 30
0.0000000000563712
 11
7019.077072519607
 21
1283.686472673979
 31
0.0000000000563712
  0
ARC
  5
1038B
330
18
100
AcDbEntity
  8
01
100
AcDbCircle
 10
7118.077072519607
 20
1284.186472673979
 30
0.0000000000563712
 40
0.5
100
AcDbArc
 50
270.0
 51
0.0
  0
ARC
  5
1038C
330
18
100
AcDbEntity
  8
01
100
AcDbCircle
 10
7019.077072519607
 20
1284.186472673979
 30
0.0000000000563712
 40
0.5
100
AcDbArc
 50
180.0
 51
270.0
  0
LINE
  5
1038D
330
18
100
AcDbEntity
  8
01
100
AcDbLine
 10
7118.077072519607
 20
1328.686472673979
 30
0.0000000000563712
 11
7019.077072519607
 21
1328.686472673979
 31
0.0000000000563712
  0
LINE
  5
1038E
330
18
100
AcDbEntity
  8
01
100
AcDbLine
 10
7118.577072519607
 20
1328.186472673979
 30
0.0000000000563712
 11
7118.577072519607
 21
1284.186472673979
 31
0.0000000000563712
  0
ARC
  5
1038F
330
18
100
AcDbEntity
  8
01
100
AcDbCircle
 10
7118.077072519607
 20
1328.186472673979
 30
0.0000000000563712
 40
0.5
100
AcDbArc
 50
0.0
 51
90.0
  0
LINE
  5
10390
330
18
100
AcDbEntity
  8
01
100
AcDbLine
 10
7018.577072519607
 20
1328.186472673979
 30
0.0000000000563712
 11
7018.577072519607
 21
1313.917900686798
 31
0.0000000000563712
  0
ARC
  5
10391
330
18
100
AcDbEntity
  8
01
100
AcDbCircle
 10
7019.077072519607
 20
1328.186472673979
 30
0.0000000000563712
 40
0.5
100
AcDbArc
 50
90.0
 51
180.0
  0
LINE
  5
10392
330
18
100
AcDbEntity
  8
01
100
AcDbLine
 10
7018.577072519607
 20
1298.455044661115
 30
0.0000000000563712
 11
7018.577072519607
 21
1284.186472673979
 31
0.0000000000563712
  0
LINE
  5
10393
330
18
100
AcDbEntity
  8
01
100
AcDbLine
 10
7102.132984241276
 20
1308.233873916444
 30
0.0000000000563712
 11
6973.993221342718
 21
1308.233873916452
 31
0.0000000000563712
  0
LINE
  5
10394
330
18
100
AcDbEntity
  8
01
100
AcDbLine
 10
7102.081013862002
 20
1304.139071431473
 30
0.0000000000563712
 11
6973.993221342718
 21
1304.139071431473
 31
0.0000000000563712
  0
ARC
  5
10395
330
18
100
AcDbEntity
  8
01
100
AcDbCircle
 10
7082.042266708138
 20
1316.686472673977
 30
0.0000000000563712
 40
1.5
100
AcDbArc
 50
90.0
 51
178.7426249191404
  0
ARC
  5
10396
330
18
100
AcDbEntity
  8
01
100
AcDbCircle
 10
7560.427049074804
 20
1306.186472673962
 30
0.0000000000563712
 40
480.0
100
AcDbArc
 50
180.9229111486584
 51
181.2573750809899
  0
ARC
  5
10397
330
18
100
AcDbEntity
  8
01
100
AcDbCircle
 10
7082.042266708138
 20
1295.68647267397
 30
0.0000000000563712
 40
1.5
100
AcDbArc
 50
181.2573750808596
 51
270.0
  0
ARC
  5
10398
330
18
100
AcDbEntity
  8
01
100
AcDbCircle
 10
7102.111878331119
 20
1295.68647267397
 30
0.0000000000563712
 40
1.5
100
AcDbArc
 50
269.9999999997394
 51
358.7426249191403
  0
ARC
  5
10399
330
18
100
AcDbEntity
  8
01
100
AcDbCircle
 10
7102.111878331119
 20
1316.686472673977
 30
0.0000000000563712
 40
1.5
100
AcDbArc
 50
1.257375080859653
 51
90.00000000026056
  0
ARC
  5
1039A
330
18
100
AcDbEntity
  8
01
100
AcDbCircle
 10
6623.727095964454
 20
1306.186472673962
 30
0.0000000000563712
 40
480.0
100
AcDbArc
 50
358.7426249190101
 51
1.257375080989897
  0
LINE
  5
1039B
330
18
100
AcDbEntity
  8
01
100
AcDbLine
 10
6973.974660833754
 20
1298.455044661121
 30
0.0000000000563712
 11
7080.48931871712
 21
1298.455044661107
 31
0.0000000000563712
  0
LINE
  5
1039C
330
18
100
AcDbEntity
  8
01
100
AcDbLine
 10
6973.974660833754
 20
1313.917900686789
 30
0.0000000000563712
 11
7080.48931871712
 21
1313.917900686811
 31
0.0000000000563712
  0
LINE
  5
1039D
330
18
100
AcDbEntity
  8
01
100
AcDbLine
 10
7102.111878331112
 20
1318.186472673977
 30
0.0000000000563712
 11
7082.042266708138
 21
1318.18647267397
 31
0.0000000000563712
  0
LINE
  5
1039E
330
18
100
AcDbEntity
  8
01
100
AcDbLine
 10
7082.042266708138
 20
1294.186472673962
 30
0.0000000000563712
 11
7102.111878331112
 21
1294.186472673962
 31
0.0000000000563712
  0
ARC
  5
1039F
330
18
100
AcDbEntity
  8
01
100
AcDbCircle
 10
7560.427049074804
 20
1306.186472673962
 30
0.0000000000563712
 40
480.0
100
AcDbArc
 50
178.7426249190101
 51
179.0770888513416
  0
LINE
  5
103A0
330
18
100
AcDbEntity
  8
01
100
AcDbLine
 10
7103.577072519629
 20
1307.185615418199
 30
0.0000000000563712
 11
7103.577072519629
 21
1305.18732992974
 31
0.0000000000563712
  0
LINE
  5
103A1
330
18
100
AcDbEntity
  8
01
100
AcDbLine
 10
6972.527095964435
 20
1307.185615418199
 30
0.0000000000563712
 11
6972.527095964435
 21
1305.187329929653
 31
0.0000000000563712
  0
ELLIPSE
  5
103A2
330
18
100
AcDbEntity
  8
01
100
AcDbEllipse
 10
6973.993221342718
 20
1307.185615418199
 30
0.0000000000563712
 11
-1.466125378283323
 21
0.0
 31
0.0
210
0.0
220
0.0
230
-1.0
 40
0.7149855761178042
 41
0.0
 42
1.570796326794897
  0
ELLIPSE
  5
103A3
330
18
100
AcDbEntity
  8
01
100
AcDbEllipse
 10
6973.993221342718
 20
1305.187329929653
 30
0.0000000000563712
 11
-1.466125378283323
 21
0.0
 31
0.0
210
0.0
220
0.0
230
1.0
 40
0.7149855761178042
 41
0.0
 42
1.570796326794897
  0
ELLIPSE
  5
103A4
330
18
100
AcDbEntity
  8
01
100
AcDbEllipse
 10
7102.081013862002
 20
1307.185615418199
 30
0.0000000000563712
 11
1.496058657627145
 21
0.0
 31
0.0
210
0.0
220
0.0
230
-1.0
 40
0.7006800788868608
 41
4.71238898038469
 42
6.283185307179586
  0
ELLIPSE
  5
103A5
330
18
100
AcDbEntity
  8
01
100
AcDbEllipse
 10
7102.081013862002
 20
1305.18732992974
 30
0.0000000000563712
 11
1.496058657627145
 21
0.0
 31
0.0
210
0.0
220
0.0
230
1.0
 40
0.7006800788868608
 41
4.71238898038469
 42
6.283185307179586
  0
ARC
  5
103A6
330
18
100
AcDbEntity
  8
01
100
AcDbCircle
 10
6973.974660833754
 20
1299.955044661121
 30
0.0000000000563712
 40
1.5
100
AcDbArc
 50
181.8265729376885
 51
270.0
  0
ARC
  5
103A7
330
18
100
AcDbEntity
  8
01
100
AcDbCircle
 10
6973.974660833754
 20
1312.417900686818
 30
0.0000000000563712
 40
1.5
100
AcDbArc
 50
90.0
 51
178.1734270623115
  0
ARC
  5
103A8
330
18
100
AcDbEntity
  8
01
100
AcDbCircle
 10
7169.375324355964
 20
1306.18647267397
 30
0.0000000000563712
 40
197.0
100
AcDbArc
 50
178.1734270624165
 51
181.8265729375835
  0
LINE
  5
103A9
330
18
100
AcDbEntity
  8
01
100
AcDbLine
 10
7242.077072519611
 20
1283.686472673979
 30
0.0000000000563712
 11
7242.077072519611
 21
1328.686472673979
 31
0.0000000000563712
  0
LINE
  5
103AA
330
18
100
AcDbEntity
  8
01
100
AcDbLine
 10
7233.577072519611
 20
1284.186472673979
 30
0.0000000000563712
 11
7233.577072519611
 21
1328.186472673979
 31
0.0000000000563712
  0
LINE
  5
103AB
330
18
100
AcDbEntity
  8
01
100
AcDbLine
 10
7242.077072519611
 20
1328.686472673979
 30
0.0
 11
7234.077072519611
 21
1328.686472673979
 31
0.0
  0
LINE
  5
103AC
330
18
100
AcDbEntity
  8
01
100
AcDbLine
 10
7242.077072519611
 20
1283.686472673979
 30
0.0
 11
7234.077072519611
 21
1283.686472673979
 31
0.0
  0
ARC
  5
103AD
330
18
100
AcDbEntity
  8
01
100
AcDbCircle
 10
7234.077072519611
 20
1284.186472673979
 30
0.0
 40
0.5
100
AcDbArc
 50
180.0
 51
270.0
  0
ARC
  5
103AE
330
18
100
AcDbEntity
  8
01
100
AcDbCircle
 10
7234.077072519611
 20
1328.186472673979
 30
0.0
 40
0.5
100
AcDbArc
 50
90.0
 51
180.0
  0
TEXT
  5
116FE
330
18
100
AcDbEntity
  8
01
  6
CONTINUOUS
100
AcDbText
 10
7343.08000093314
 20
1518.76848769318
 30
0.0000000000563712
 40
4.55
  1
材質：亜鉛ダイキャスト
100
AcDbText
  0
TEXT
  5
116FF
330
18
100
AcDbEntity
  8
01
  6
CONTINUOUS
100
AcDbText
 10
7353.393334266473
 20
1511.185154359847
 30
0.0000000000563712
 40
4.55
  1
仕上げ：各種メッキ
100
AcDbText
  0
LINE
  5
11700
330
18
100
AcDbEntity
  8
01
100
AcDbLine
 10
7370.076839840121
 20
1334.185153662744
 30
0.0
 11
7370.076839840121
 21
1436.906646445563
 31
0.0
1001
ACAD
1000
DSTYLE
1002
{
1070
    40
1040
1.3
1070
    45
1040
0.5
1002
}
  0
LINE
  5
11701
330
18
100
AcDbEntity
  8
01
100
AcDbLine
 10
7381.076839840121
 20
1392.056471712033
 30
0.0
 11
7381.076839840121
 21
1436.906646445563
 31
0.0
1001
ACAD
1000
DSTYLE
1002
{
1070
    40
1040
1.3
1070
    45
1040
0.5
1002
}
  0
LINE
  5
11702
330
18
100
AcDbEntity
  8
01
100
AcDbLine
 10
7372.676839840122
 20
1435.606646445563
 30
0.0
 11
7378.476839840121
 21
1435.606646445563
 31
0.0
1001
ACAD
1000
DSTYLE
1002
{
1070
    40
1040
1.3
1070
    45
1040
0.5
1002
}
  0
LINE
  5
11706
330
18
100
AcDbEntity
  8
01
100
AcDbLine
 10
7450.076839840121
 20
1364.177781853267
 30
0.0
 11
7478.376839840122
 21
1364.177781853267
 31
0.0
1001
ACAD
1000
DSTYLE
1002
{
1070
    40
1040
1.3
1070
    45
1040
0.5
1002
}
  0
LINE
  5
11707
330
18
100
AcDbEntity
  8
01
100
AcDbLine
 10
7450.076839840121
 20
1290.185154360875
 30
0.0
 11
7478.376839840122
 21
1290.185154360875
 31
0.0
1001
ACAD
1000
DSTYLE
1002
{
1070
    40
1040
1.3
1070
    45
1040
0.5
1002
}
  0
LINE
  5
11708
330
18
100
AcDbEntity
  8
01
100
AcDbLine
 10
7477.076839840121
 20
1361.577781853267
 30
0.0
 11
7477.076839840121
 21
1292.785154360875
 31
0.0
1001
ACAD
1000
DSTYLE
1002
{
1070
    40
1040
1.3
1070
    45
1040
0.5
1002
}
  0
LINE
  5
1170C
330
18
100
AcDbEntity
  8
01
100
AcDbLine
 10
7450.076839840121
 20
1364.177781853267
 30
0.0
 11
7450.076839840121
 21
1446.986513913612
 31
0.0
1001
ACAD
1000
DSTYLE
1002
{
1070
    40
1040
1.3
1070
    45
1040
0.5
1002
}
  0
LINE
  5
1170D
330
18
100
AcDbEntity
  8
01
100
AcDbLine
 10
7381.076839840121
 20
1392.056471712033
 30
0.0
 11
7381.076839840121
 21
1446.986513913612
 31
0.0
1001
ACAD
1000
DSTYLE
1002
{
1070
    40
1040
1.3
1070
    45
1040
0.5
1002
}
  0
LINE
  5
1170E
330
18
100
AcDbEntity
  8
01
100
AcDbLine
 10
7447.476839840121
 20
1445.686513913612
 30
0.0
 11
7383.676839840122
 21
1445.686513913612
 31
0.0
1001
ACAD
1000
DSTYLE
1002
{
1070
    40
1040
1.3
1070
    45
1040
0.5
1002
}
  0
LINE
  5
11712
330
18
100
AcDbEntity
  8
01
100
AcDbLine
 10
7381.076839840121
 20
1392.056471712033
 30
0.0
 11
7381.076839840121
 21
1436.906646445563
 31
0.0
1001
ACAD
1000
DSTYLE
1002
{
1070
    40
1040
1.3
1070
    45
1040
0.5
1002
}
  0
LINE
  5
11713
330
18
100
AcDbEntity
  8
01
100
AcDbLine
 10
7432.076839840121
 20
1356.185154360875
 30
0.0
 11
7432.076839840121
 21
1436.906646445563
 31
0.0
1001
ACAD
1000
DSTYLE
1002
{
1070
    40
1040
1.3
1070
    45
1040
0.5
1002
}
  0
LINE
  5
11714
330
18
100
AcDbEntity
  8
01
100
AcDbLine
 10
7383.676839840122
 20
1435.606646445563
 30
0.0
 11
7429.476839840121
 21
1435.606646445563
 31
0.0
1001
ACAD
1000
DSTYLE
1002
{
1070
    40
1040
1.3
1070
    45
1040
0.5
1002
}
  0
LINE
  5
11718
330
18
100
AcDbEntity
  8
01
100
AcDbLine
 10
7267.951981587772
 20
1384.185154360875
 30
0.0
 11
7348.238112755979
 21
1384.185154360875
 31
0.0
1001
ACAD
1000
DSTYLE
1002
{
1070
    40
1040
1.3
1070
    45
1040
0.5
1002
}
  0
LINE
  5
11719
330
18
100
AcDbEntity
  8
01
100
AcDbLine
 10
7267.951981587772
 20
1270.185154360875
 30
0.0
 11
7348.238112755979
 21
1270.185154360875
 31
0.0
1001
ACAD
1000
DSTYLE
1002
{
1070
    40
1040
1.3
1070
    45
1040
0.5
1002
}
  0
LINE
  5
1171A
330
18
100
AcDbEntity
  8
01
100
AcDbLine
 10
7346.938112755979
 20
1381.585154360875
 30
0.0
 11
7346.938112755979
 21
1272.785154360874
 31
0.0
1001
ACAD
1000
DSTYLE
1002
{
1070
    40
1040
1.3
1070
    45
1040
0.5
1002
}
  0
LINE
  5
1171E
330
18
100
AcDbEntity
  8
01
100
AcDbLine
 10
7268.550041984536
 20
1392.084709216459
 30
0.0
 11
7357.602446922204
 21
1392.084709216459
 31
0.0
1001
ACAD
1000
DSTYLE
1002
{
1070
    40
1040
1.3
1070
    45
1040
0.5
1002
}
  0
LINE
  5
1171F
330
18
100
AcDbEntity
  8
01
100
AcDbLine
 10
7268.476956179866
 20
1262.285154360875
 30
0.0
 11
7357.602446922204
 21
1262.285154360875
 31
0.0
1001
ACAD
1000
DSTYLE
1002
{
1070
    40
1040
1.3
1070
    45
1040
0.5
1002
}
  0
LINE
  5
11720
330
18
100
AcDbEntity
  8
01
100
AcDbLine
 10
7356.302446922204
 20
1389.484709216459
 30
0.0
 11
7356.302446922204
 21
1264.885154360875
 31
0.0
1001
ACAD
1000
DSTYLE
1002
{
1070
    40
1040
1.3
1070
    45
1040
0.5
1002
}
  0
LINE
  5
11724
330
18
100
AcDbEntity
  8
01
100
AcDbLine
 10
7249.576956179866
 20
1386.185154360875
 30
0.0
 11
7249.576956179866
 21
1436.906646445563
 31
0.0
1001
ACAD
1000
DSTYLE
1002
{
1070
    40
1040
1.3
1070
    45
1040
0.5
1002
}
  0
LINE
  5
11725
330
18
100
AcDbEntity
  8
01
100
AcDbLine
 10
7274.576956179866
 20
1386.185154360875
 30
0.0
 11
7274.576956179866
 21
1436.906646445563
 31
0.0
1001
ACAD
1000
DSTYLE
1002
{
1070
    40
1040
1.3
1070
    45
1040
0.5
1002
}
  0
LINE
  5
11726
330
18
100
AcDbEntity
  8
01
100
AcDbLine
 10
7252.176956179866
 20
1435.606646445563
 30
0.0
 11
7271.976956179866
 21
1435.606646445563
 31
0.0
1001
ACAD
1000
DSTYLE
1002
{
1070
    40
1040
1.3
1070
    45
1040
0.5
1002
}
  0
LINE
  5
1172A
330
18
100
AcDbEntity
  8
01
100
AcDbLine
 10
7228.875994285543
 20
1306.935154360875
 30
0.0
 11
7227.576956179866
 21
1307.685154360875
 31
0.0
  0
LINE
  5
1172B
330
18
100
AcDbEntity
  8
01
100
AcDbLine
 10
7227.576956179866
 20
1307.685154360875
 30
0.0
 11
7226.277918074189
 21
1306.935154360875
 31
0.0
  0
LINE
  5
1172C
330
18
100
AcDbEntity
  8
01
100
AcDbLine
 10
7226.277918074189
 20
1306.935154360875
 30
0.0
 11
7226.277918074189
 21
1305.435154360875
 31
0.0
  0
LINE
  5
1172D
330
18
100
AcDbEntity
  8
01
100
AcDbLine
 10
7226.277918074189
 20
1305.435154360875
 30
0.0
 11
7227.576956179866
 21
1304.685154360875
 31
0.0
  0
LINE
  5
1172E
330
18
100
AcDbEntity
  8
01
100
AcDbLine
 10
7227.576956179866
 20
1304.685154360875
 30
0.0
 11
7228.875994285543
 21
1305.435154360875
 31
0.0
  0
LINE
  5
1172F
330
18
100
AcDbEntity
  8
01
100
AcDbLine
 10
7228.875994285543
 20
1305.435154360875
 30
0.0
 11
7228.875994285543
 21
1306.935154360875
 31
0.0
  0
CIRCLE
  5
11730
330
18
100
AcDbEntity
  8
01
100
AcDbCircle
 10
7296.576839840121
 20
1306.186472673979
 30
0.0000000000563712
 40
3.0
  0
LINE
  5
11731
330
18
100
AcDbEntity
  8
01
  6
BYBLOCK
100
AcDbLine
 10
7372.676839840122
 20
1434.909978551563
 30
0.0
 11
7370.076839840121
 21
1435.606646445563
 31
0.0
  0
LINE
  5
11732
330
18
100
AcDbEntity
  8
01
  6
BYBLOCK
100
AcDbLine
 10
7370.076839840121
 20
1435.606646445563
 30
0.0
 11
7372.676839840122
 21
1436.303314339563
 31
0.0
  0
LINE
  5
11733
330
18
100
AcDbEntity
  8
01
  6
BYBLOCK
100
AcDbLine
 10
7370.076839840121
 20
1435.606646445563
 30
0.0
 11
7372.676839840122
 21
1435.606646445563
 31
0.0
  0
LINE
  5
11734
330
18
100
AcDbEntity
  8
01
  6
BYBLOCK
100
AcDbLine
 10
7378.476839840121
 20
1436.303314339563
 30
0.0
 11
7381.076839840121
 21
1435.606646445563
 31
0.0
  0
LINE
  5
11735
330
18
100
AcDbEntity
  8
01
  6
BYBLOCK
100
AcDbLine
 10
7381.076839840121
 20
1435.606646445563
 30
0.0
 11
7378.476839840121
 21
1434.909978551563
 31
0.0
  0
LINE
  5
11736
330
18
100
AcDbEntity
  8
01
  6
BYBLOCK
100
AcDbLine
 10
7381.076839840121
 20
1435.606646445563
 30
0.0
 11
7378.476839840121
 21
1435.606646445563
 31
0.0
  0
TEXT
  5
11737
330
18
100
AcDbEntity
  8
01
  6
CONTINUOUS
100
AcDbText
 10
7373.301839840122
 20
1436.516646445564
 30
0.0
 40
4.55
  1
11
100
AcDbText
1001
ACAD
1000
DSTYLE
1002
{
1070
    40
1040
1.3
1070
    45
1040
0.5
1002
}
  0
LINE
  5
11738
330
18
100
AcDbEntity
  8
01
  6
BYBLOCK
100
AcDbLine
 10
7476.380171946122
 20
1361.577781853267
 30
0.0
 11
7477.076839840121
 21
1364.177781853267
 31
0.0
  0
LINE
  5
11739
330
18
100
AcDbEntity
  8
01
  6
BYBLOCK
100
AcDbLine
 10
7477.076839840121
 20
1364.177781853267
 30
0.0
 11
7477.773507734121
 21
1361.577781853267
 31
0.0
  0
LINE
  5
1173A
330
18
100
AcDbEntity
  8
01
  6
BYBLOCK
100
AcDbLine
 10
7477.076839840121
 20
1364.177781853267
 30
0.0
 11
7477.076839840121
 21
1361.577781853267
 31
0.0
  0
LINE
  5
1173B
330
18
100
AcDbEntity
  8
01
  6
BYBLOCK
100
AcDbLine
 10
7477.773507734121
 20
1292.785154360875
 30
0.0
 11
7477.076839840121
 21
1290.185154360875
 31
0.0
  0
LINE
  5
1173C
330
18
100
AcDbEntity
  8
01
  6
BYBLOCK
100
AcDbLine
 10
7477.076839840121
 20
1290.185154360875
 30
0.0
 11
7476.380171946122
 21
1292.785154360875
 31
0.0
  0
LINE
  5
1173D
330
18
100
AcDbEntity
  8
01
  6
BYBLOCK
100
AcDbLine
 10
7477.076839840121
 20
1290.185154360875
 30
0.0
 11
7477.076839840121
 21
1292.785154360875
 31
0.0
  0
TEXT
  5
1173E
330
18
100
AcDbEntity
  8
01
  6
CONTINUOUS
100
AcDbText
 10
7476.166839840121
 20
1345.156498446893
 30
0.0
 40
4.55
  1
74
 50
90.0
100
AcDbText
1001
ACAD
1000
DSTYLE
1002
{
1070
    40
1040
1.3
1070
    45
1040
0.5
1002
}
  0
LINE
  5
1173F
330
18
100
AcDbEntity
  8
01
  6
BYBLOCK
100
AcDbLine
 10
7447.476839840121
 20
1446.383181807612
 30
0.0
 11
7450.076839840121
 21
1445.686513913612
 31
0.0
  0
LINE
  5
11740
330
18
100
AcDbEntity
  8
01
  6
BYBLOCK
100
AcDbLine
 10
7450.076839840121
 20
1445.686513913612
 30
0.0
 11
7447.476839840121
 21
1444.989846019612
 31
0.0
  0
LINE
  5
11741
330
18
100
AcDbEntity
  8
01
  6
BYBLOCK
100
AcDbLine
 10
7450.076839840121
 20
1445.686513913612
 30
0.0
 11
7447.476839840121
 21
1445.686513913612
 31
0.0
  0
LINE
  5
11742
330
18
100
AcDbEntity
  8
01
  6
BYBLOCK
100
AcDbLine
 10
7383.676839840122
 20
1444.989846019612
 30
0.0
 11
7381.076839840121
 21
1445.686513913612
 31
0.0
  0
LINE
  5
11743
330
18
100
AcDbEntity
  8
01
  6
BYBLOCK
100
AcDbLine
 10
7381.076839840121
 20
1445.686513913612
 30
0.0
 11
7383.676839840122
 21
1446.383181807612
 31
0.0
  0
LINE
  5
11744
330
18
100
AcDbEntity
  8
01
  6
BYBLOCK
100
AcDbLine
 10
7381.076839840121
 20
1445.686513913612
 30
0.0
 11
7383.676839840122
 21
1445.686513913612
 31
0.0
  0
TEXT
  5
11745
330
18
100
AcDbEntity
  8
01
  6
CONTINUOUS
100
AcDbText
 10
7411.768321321603
 20
1446.596513913612
 30
0.0
 40
4.55
  1
69
100
AcDbText
1001
ACAD
1000
DSTYLE
1002
{
1070
    40
1040
1.3
1070
    45
1040
0.5
1002
}
  0
LINE
  5
11746
330
18
100
AcDbEntity
  8
01
  6
BYBLOCK
100
AcDbLine
 10
7383.676839840122
 20
1434.909978551563
 30
0.0
 11
7381.076839840121
 21
1435.606646445563
 31
0.0
  0
LINE
  5
11747
330
18
100
AcDbEntity
  8
01
  6
BYBLOCK
100
AcDbLine
 10
7381.076839840121
 20
1435.606646445563
 30
0.0
 11
7383.676839840122
 21
1436.303314339563
 31
0.0
  0
LINE
  5
11748
330
18
100
AcDbEntity
  8
01
  6
BYBLOCK
100
AcDbLine
 10
7381.076839840121
 20
1435.606646445563
 30
0.0
 11
7383.676839840122
 21
1435.606646445563
 31
0.0
  0
LINE
  5
11749
330
18
100
AcDbEntity
  8
01
  6
BYBLOCK
100
AcDbLine
 10
7429.476839840121
 20
1436.303314339563
 30
0.0
 11
7432.076839840121
 21
1435.606646445563
 31
0.0
  0
LINE
  5
1174A
330
18
100
AcDbEntity
  8
01
  6
BYBLOCK
100
AcDbLine
 10
7432.076839840121
 20
1435.606646445563
 30
0.0
 11
7429.476839840121
 21
1434.909978551563
 31
0.0
  0
LINE
  5
1174B
330
18
100
AcDbEntity
  8
01
  6
BYBLOCK
100
AcDbLine
 10
7432.076839840121
 20
1435.606646445563
 30
0.0
 11
7429.476839840121
 21
1435.606646445563
 31
0.0
  0
TEXT
  5
1174C
330
18
100
AcDbEntity
  8
01
  6
CONTINUOUS
100
AcDbText
 10
7403.527707895677
 20
1436.516646445564
 30
0.0
 40
4.55
  1
51
100
AcDbText
1001
ACAD
1000
DSTYLE
1002
{
1070
    40
1040
1.3
1070
    45
1040
0.5
1002
}
  0
LINE
  5
1174D
330
18
100
AcDbEntity
  8
01
  6
BYBLOCK
100
AcDbLine
 10
7346.241444861979
 20
1381.585154360875
 30
0.0
 11
7346.938112755979
 21
1384.185154360875
 31
0.0
  0
LINE
  5
1174E
330
18
100
AcDbEntity
  8
01
  6
BYBLOCK
100
AcDbLine
 10
7346.938112755979
 20
1384.185154360875
 30
0.0
 11
7347.634780649979
 21
1381.585154360875
 31
0.0
  0
LINE
  5
1174F
330
18
100
AcDbEntity
  8
01
  6
BYBLOCK
100
AcDbLine
 10
7346.938112755979
 20
1384.185154360875
 30
0.0
 11
7346.938112755979
 21
1381.585154360875
 31
0.0
  0
LINE
  5
11750
330
18
100
AcDbEntity
  8
01
  6
BYBLOCK
100
AcDbLine
 10
7347.634780649979
 20
1272.785154360874
 30
0.0
 11
7346.938112755979
 21
1270.185154360875
 31
0.0
  0
LINE
  5
11751
330
18
100
AcDbEntity
  8
01
  6
BYBLOCK
100
AcDbLine
 10
7346.938112755979
 20
1270.185154360875
 30
0.0
 11
7346.241444861979
 21
1272.785154360874
 31
0.0
  0
LINE
  5
11752
330
18
100
AcDbEntity
  8
01
  6
BYBLOCK
100
AcDbLine
 10
7346.938112755979
 20
1270.185154360875
 30
0.0
 11
7346.938112755979
 21
1272.785154360874
 31
0.0
  0
TEXT
  5
11753
330
18
100
AcDbEntity
  8
01
  6
CONTINUOUS
100
AcDbText
 10
7346.028112755979
 20
1351.768176708796
 30
0.0
 40
4.55
  1
114
 50
90.0
100
AcDbText
1001
ACAD
1000
DSTYLE
1002
{
1070
    40
1040
1.3
1070
    45
1040
0.5
1002
}
  0
LINE
  5
11754
330
18
100
AcDbEntity
  8
01
  6
BYBLOCK
100
AcDbLine
 10
7355.605779028204
 20
1389.484709216459
 30
0.0
 11
7356.302446922204
 21
1392.084709216459
 31
0.0
  0
LINE
  5
11755
330
18
100
AcDbEntity
  8
01
  6
BYBLOCK
100
AcDbLine
 10
7356.302446922204
 20
1392.084709216459
 30
0.0
 11
7356.999114816203
 21
1389.484709216459
 31
0.0
  0
LINE
  5
11756
330
18
100
AcDbEntity
  8
01
  6
BYBLOCK
100
AcDbLine
 10
7356.302446922204
 20
1392.084709216459
 30
0.0
 11
7356.302446922204
 21
1389.484709216459
 31
0.0
  0
LINE
  5
11757
330
18
100
AcDbEntity
  8
01
  6
BYBLOCK
100
AcDbLine
 10
7356.999114816203
 20
1264.885154360875
 30
0.0
 11
7356.302446922204
 21
1262.285154360875
 31
0.0
  0
LINE
  5
11758
330
18
100
AcDbEntity
  8
01
  6
BYBLOCK
100
AcDbLine
 10
7356.302446922204
 20
1262.285154360875
 30
0.0
 11
7355.605779028204
 21
1264.885154360875
 31
0.0
  0
LINE
  5
11759
330
18
100
AcDbEntity
  8
01
  6
BYBLOCK
100
AcDbLine
 10
7356.302446922204
 20
1262.285154360875
 30
0.0
 11
7356.302446922204
 21
1264.885154360875
 31
0.0
  0
TEXT
  5
1175A
330
18
100
AcDbEntity
  8
01
  6
CONTINUOUS
100
AcDbText
 10
7355.392446922204
 20
1350.983612705989
 30
0.0
 40
4.55
  1
130
 50
90.0
100
AcDbText
1001
ACAD
1000
DSTYLE
1002
{
1070
    40
1040
1.3
1070
    45
1040
0.5
1002
}
  0
LINE
  5
1175B
330
18
100
AcDbEntity
  8
01
  6
BYBLOCK
100
AcDbLine
 10
7252.176956179866
 20
1434.909978551563
 30
0.0
 11
7249.576956179866
 21
1435.606646445563
 31
0.0
  0
LINE
  5
1175C
330
18
100
AcDbEntity
  8
01
  6
BYBLOCK
100
AcDbLine
 10
7249.576956179866
 20
1435.606646445563
 30
0.0
 11
7252.176956179866
 21
1436.303314339563
 31
0.0
  0
LINE
  5
1175D
330
18
100
AcDbEntity
  8
01
  6
BYBLOCK
100
AcDbLine
 10
7249.576956179866
 20
1435.606646445563
 30
0.0
 11
7252.176956179866
 21
1435.606646445563
 31
0.0
  0
LINE
  5
1175E
330
18
100
AcDbEntity
  8
01
  6
BYBLOCK
100
AcDbLine
 10
7271.976956179866
 20
1436.303314339563
 30
0.0
 11
7274.576956179866
 21
1435.606646445563
 31
0.0
  0
LINE
  5
1175F
330
18
100
AcDbEntity
  8
01
  6
BYBLOCK
100
AcDbLine
 10
7274.576956179866
 20
1435.606646445563
 30
0.0
 11
7271.976956179866
 21
1434.909978551563
 31
0.0
  0
LINE
  5
11760
330
18
100
AcDbEntity
  8
01
  6
BYBLOCK
100
AcDbLine
 10
7274.576956179866
 20
1435.606646445563
 30
0.0
 11
7271.976956179866
 21
1435.606646445563
 31
0.0
  0
TEXT
  5
11761
330
18
100
AcDbEntity
  8
01
  6
CONTINUOUS
100
AcDbText
 10
7258.285289513199
 20
1436.516646445564
 30
0.0
 40
4.55
  1
25
100
AcDbText
1001
ACAD
1000
DSTYLE
1002
{
1070
    40
1040
1.3
1070
    45
1040
0.5
1002
}
  0
SOLID
  5
11762
330
18
100
AcDbEntity
  8
1DIM
100
AcDbTrace
 10
7429.446689194868
 20
1530.134397305932
 30
0.0000000000563712
 11
7431.817441080182
 21
1531.286488133972
 31
0.0000000000563712
 12
7429.94848902479
 22
1529.42777998248
 32
0.0000000000563712
 13
7429.94848902479
 23
1529.42777998248
 33
0.0000000000563712
1001
ACAD
1000
DSTYLE
1002
{
1070
    40
1040
1.3
1070
    45
1040
0.5
1002
}
  0
LINE
  5
11763
330
18
100
AcDbEntity
  8
1DIM
100
AcDbLine
 10
7429.697589109828
 20
1529.781088644206
 30
0.0000000000563712
 11
7402.230000933139
 21
1510.275154359847
 31
0.0000000000563712
1001
ACAD
1000
DSTYLE
1002
{
1070
    40
1040
1.3
1070
    45
1040
0.5
1002
}
  0
LINE
  5
11764
330
18
100
AcDbEntity
  8
1DIM
100
AcDbLine
 10
7448.477724022181
 20
1585.685154359847
 30
0.0
 11
7469.038114781894
 21
1585.685154359847
 31
0.0
1001
ACAD
1000
DSTYLE
1002
{
1070
    45
1040
0.5
1070
    40
1040
1.3
1002
}
  0
LINE
  5
11765
330
18
100
AcDbEntity
  8
1DIM
100
AcDbLine
 10
7450.077724022181
 20
1566.885154359847
 30
0.0
 11
7469.038114781894
 21
1566.885154359847
 31
0.0
1001
ACAD
1000
DSTYLE
1002
{
1070
    45
1040
0.5
1070
    40
1040
1.3
1002
}
  0
LINE
  5
11766
330
18
100
AcDbEntity
  8
1DIM
100
AcDbLine
 10
7467.738114781894
 20
1583.085154359847
 30
0.0
 11
7467.738114781894
 21
1569.485154359847
 31
0.0
1001
ACAD
1000
DSTYLE
1002
{
1070
    45
1040
0.5
1070
    40
1040
1.3
1002
}
  0
LINE
  5
1176A
330
18
100
AcDbEntity
  8
1DIM
100
AcDbLine
 10
7550.160691017014
 20
1515.184430881509
 30
0.0000000001127424
 11
7588.376839840122
 21
1515.184430881509
 31
0.0000000001127424
1001
ACAD
1000
DSTYLE
1002
{
1070
    40
1040
1.3
1070
    45
1040
0.5
1002
}
  0
LINE
  5
1176B
330
18
100
AcDbEntity
  8
1DIM
100
AcDbLine
 10
7534.83198783747
 20
1556.185154360876
 30
0.0000000001127424
 11
7588.376839840122
 21
1556.185154360876
 31
0.0000000001127424
1001
ACAD
1000
DSTYLE
1002
{
1070
    40
1040
1.3
1070
    45
1040
0.5
1002
}
  0
LINE
  5
1176C
330
18
100
AcDbEntity
  8
1DIM
100
AcDbLine
 10
7587.076839840121
 20
1517.784430881509
 30
0.0000000001127424
 11
7587.076839840121
 21
1553.585154360876
 31
0.0000000001127424
1001
ACAD
1000
DSTYLE
1002
{
1070
    40
1040
1.3
1070
    45
1040
0.5
1002
}
  0
LINE
  5
11770
330
18
100
AcDbEntity
  8
1DIM
100
AcDbLine
 10
7550.160691017029
 20
1490.164192904511
 30
0.0000000001127424
 11
7598.376839840122
 21
1490.164192904511
 31
0.0000000001127424
1001
ACAD
1000
DSTYLE
1002
{
1070
    40
1040
1.3
1070
    45
1040
0.5
1002
}
  0
LINE
  5
11771
330
18
100
AcDbEntity
  8
1DIM
100
AcDbLine
 10
7534.83198783747
 20
1556.185154360876
 30
0.0000000001127424
 11
7598.376839840122
 21
1556.185154360876
 31
0.0000000001127424
1001
ACAD
1000
DSTYLE
1002
{
1070
    40
1040
1.3
1070
    45
1040
0.5
1002
}
  0
LINE
  5
11772
330
18
100
AcDbEntity
  8
1DIM
100
AcDbLine
 10
7597.076839840121
 20
1492.764192904511
 30
0.0000000001127424
 11
7597.076839840121
 21
1553.585154360876
 31
0.0000000001127424
1001
ACAD
1000
DSTYLE
1002
{
1070
    40
1040
1.3
1070
    45
1040
0.5
1002
}
  0
LINE
  5
11776
330
18
100
AcDbEntity
  8
1DIM
100
AcDbLine
 10
7550.179251525979
 20
1298.455044661121
 30
0.0
 11
7588.376839840122
 21
1298.455044661121
 31
0.0
1001
ACAD
1000
DSTYLE
1002
{
1070
    40
1040
1.3
1070
    45
1040
0.5
1002
}
  0
LINE
  5
11777
330
18
100
AcDbEntity
  8
1DIM
100
AcDbLine
 10
7550.179251525979
 20
1313.917900686818
 30
0.0
 11
7588.376839840122
 21
1313.917900686818
 31
0.0
1001
ACAD
1000
DSTYLE
1002
{
1070
    40
1040
1.3
1070
    45
1040
0.5
1002
}
  0
LINE
  5
11778
330
18
100
AcDbEntity
  8
1DIM
100
AcDbLine
 10
7587.076839840121
 20
1301.055044661121
 30
0.0
 11
7587.076839840121
 21
1311.317900686818
 31
0.0
1001
ACAD
1000
DSTYLE
1002
{
1070
    40
1040
1.3
1070
    45
1040
0.5
1002
}
  0
LINE
  5
1177C
330
18
100
AcDbEntity
  8
1DIM
100
AcDbLine
 10
7405.576839840125
 20
1328.686472673979
 30
0.0
 11
7392.225917761763
 21
1328.686472673979
 31
0.0
1001
ACAD
1000
DSTYLE
1002
{
1070
    40
1040
1.3
1002
}
  0
LINE
  5
1177D
330
18
100
AcDbEntity
  8
1DIM
100
AcDbLine
 10
7405.576839840125
 20
1283.686472673979
 30
0.0
 11
7392.225917761763
 21
1283.686472673979
 31
0.0
1001
ACAD
1000
DSTYLE
1002
{
1070
    40
1040
1.3
1002
}
  0
LINE
  5
1177E
330
18
100
AcDbEntity
  8
1DIM
100
AcDbLine
 10
7393.525917761763
 20
1326.086472673979
 30
0.0
 11
7393.525917761763
 21
1286.286472673979
 31
0.0
1001
ACAD
1000
DSTYLE
1002
{
1070
    40
1040
1.3
1002
}
  0
LINE
  5
11782
330
18
100
AcDbEntity
  8
1DIM
100
AcDbLine
 10
7405.576839840125
 20
1284.186472673979
 30
0.0
 11
7405.576839840125
 21
1262.222960524673
 31
0.0
1001
ACAD
1000
DSTYLE
1002
{
1070
    40
1040
1.3
1002
}
  0
LINE
  5
11783
330
18
100
AcDbEntity
  8
1DIM
100
AcDbLine
 10
7505.576839840125
 20
1284.186472673979
 30
0.0
 11
7505.576839840125
 21
1262.222960524673
 31
0.0
1001
ACAD
1000
DSTYLE
1002
{
1070
    40
1040
1.3
1002
}
  0
LINE
  5
11784
330
18
100
AcDbEntity
  8
1DIM
100
AcDbLine
 10
7408.176839840125
 20
1263.522960524673
 30
0.0
 11
7502.976839840125
 21
1263.522960524673
 31
0.0
1001
ACAD
1000
DSTYLE
1002
{
1070
    40
1040
1.3
1002
}
  0
LINE
  5
11788
330
18
100
AcDbEntity
  8
1DIM
100
AcDbLine
 10
7420.4268163953
 20
1547.185154360876
 30
0.0000000001127424
 11
7420.4268163953
 21
1459.885154360876
 31
0.0000000001127424
1001
ACAD
1000
DSTYLE
1002
{
1070
    40
1040
1.3
1070
    45
1040
0.5
1002
}
  0
LINE
  5
11789
330
18
100
AcDbEntity
  8
1DIM
100
AcDbLine
 10
7551.778588003788
 20
1502.674311892643
 30
0.0000000001127424
 11
7551.778588003788
 21
1459.885154360876
 31
0.0000000001127424
1001
ACAD
1000
DSTYLE
1002
{
1070
    40
1040
1.3
1070
    45
1040
0.5
1002
}
  0
LINE
  5
1178A
330
18
100
AcDbEntity
  8
1DIM
100
AcDbLine
 10
7423.026816395301
 20
1461.185154360876
 30
0.0000000001127424
 11
7549.178588003788
 21
1461.185154360876
 31
0.0000000001127424
1001
ACAD
1000
DSTYLE
1002
{
1070
    40
1040
1.3
1070
    45
1040
0.5
1002
}
  0
LINE
  5
1178E
330
18
100
AcDbEntity
  8
1DIM
100
AcDbLine
 10
7432.076839840121
 20
1534.685154360876
 30
0.0
 11
7432.076839840121
 21
1471.149323859782
 31
0.0
1001
ACAD
1000
DSTYLE
1002
{
1070
    40
1040
1.3
1070
   271
1070
     0
1002
}
  0
LINE
  5
1178F
330
18
100
AcDbEntity
  8
1DIM
100
AcDbLine
 10
7551.778588003788
 20
1502.674311892643
 30
0.0
 11
7551.778588003788
 21
1471.149323859782
 31
0.0
1001
ACAD
1000
DSTYLE
1002
{
1070
    40
1040
1.3
1070
   271
1070
     0
1002
}
  0
LINE
  5
11790
330
18
100
AcDbEntity
  8
1DIM
100
AcDbLine
 10
7434.676839840122
 20
1472.449323859782
 30
0.0
 11
7549.178588003788
 21
1472.449323859782
 31
0.0
1001
ACAD
1000
DSTYLE
1002
{
1070
    40
1040
1.3
1070
   271
1070
     0
1002
}
  0
LINE
  5
11794
330
18
100
AcDbEntity
  8
0
  6
BYBLOCK
100
AcDbLine
 10
7467.041446887894
 20
1583.085154359847
 30
0.0
 11
7467.738114781894
 21
1585.685154359847
 31
0.0
  0
LINE
  5
11795
330
18
100
AcDbEntity
  8
0
  6
BYBLOCK
100
AcDbLine
 10
7467.738114781894
 20
1585.685154359847
 30
0.0
 11
7468.434782675894
 21
1583.085154359847
 31
0.0
  0
LINE
  5
11796
330
18
100
AcDbEntity
  8
0
  6
BYBLOCK
100
AcDbLine
 10
7467.738114781894
 20
1585.685154359847
 30
0.0
 11
7467.738114781894
 21
1583.085154359847
 31
0.0
  0
LINE
  5
11797
330
18
100
AcDbEntity
  8
0
  6
BYBLOCK
100
AcDbLine
 10
7468.434782675894
 20
1569.485154359847
 30
0.0
 11
7467.738114781894
 21
1566.885154359847
 31
0.0
  0
LINE
  5
11798
330
18
100
AcDbEntity
  8
0
  6
BYBLOCK
100
AcDbLine
 10
7467.738114781894
 20
1566.885154359847
 30
0.0
 11
7467.041446887894
 21
1569.485154359847
 31
0.0
  0
LINE
  5
11799
330
18
100
AcDbEntity
  8
0
  6
BYBLOCK
100
AcDbLine
 10
7467.738114781894
 20
1566.885154359847
 30
0.0
 11
7467.738114781894
 21
1569.485154359847
 31
0.0
  0
TEXT
  5
1179A
330
18
100
AcDbEntity
  8
1DIM
  6
CONTINUOUS
100
AcDbText
 10
7466.828114781893
 20
1573.250767785773
 30
0.0
 40
4.55
  1
19
 50
90.0
100
AcDbText
1001
ACAD
1000
DSTYLE
1002
{
1070
    45
1040
0.5
1070
    40
1040
1.3
1002
}
  0
LINE
  5
1179B
330
18
100
AcDbEntity
  8
0
  6
BYBLOCK
100
AcDbLine
 10
7587.773507734121
 20
1517.784430881509
 30
0.0000000001127424
 11
7587.076839840121
 21
1515.184430881509
 31
0.0000000001127424
  0
LINE
  5
1179C
330
18
100
AcDbEntity
  8
0
  6
BYBLOCK
100
AcDbLine
 10
7587.076839840121
 20
1515.184430881509
 30
0.0000000001127424
 11
7586.380171946122
 21
1517.784430881509
 31
0.0000000001127424
  0
LINE
  5
1179D
330
18
100
AcDbEntity
  8
0
  6
BYBLOCK
100
AcDbLine
 10
7587.076839840121
 20
1515.184430881509
 30
0.0000000001127424
 11
7587.076839840121
 21
1517.784430881509
 31
0.0000000001127424
  0
LINE
  5
1179E
330
18
100
AcDbEntity
  8
0
  6
BYBLOCK
100
AcDbLine
 10
7586.380171946122
 20
1553.585154360876
 30
0.0000000001127424
 11
7587.076839840121
 21
1556.185154360876
 31
0.0000000001127424
  0
LINE
  5
1179F
330
18
100
AcDbEntity
  8
0
  6
BYBLOCK
100
AcDbLine
 10
7587.076839840121
 20
1556.185154360876
 30
0.0000000001127424
 11
7587.773507734121
 21
1553.585154360876
 31
0.0000000001127424
  0
LINE
  5
117A0
330
18
100
AcDbEntity
  8
0
  6
BYBLOCK
100
AcDbLine
 10
7587.076839840121
 20
1556.185154360876
 30
0.0000000001127424
 11
7587.076839840121
 21
1553.585154360876
 31
0.0000000001127424
  0
TEXT
  5
117A1
330
18
100
AcDbEntity
  8
1DIM
  6
CONTINUOUS
100
AcDbText
 10
7586.166839840121
 20
1532.65145928786
 30
0.0000000001127424
 40
4.55
  1
41
 50
90.0
100
AcDbText
1001
ACAD
1000
DSTYLE
1002
{
1070
    40
1040
1.3
1070
    45
1040
0.5
1002
}
  0
LINE
  5
117A2
330
18
100
AcDbEntity
  8
0
  6
BYBLOCK
100
AcDbLine
 10
7597.773507734121
 20
1492.764192904511
 30
0.0000000001127424
 11
7597.076839840121
 21
1490.164192904511
 31
0.0000000001127424
  0
LINE
  5
117A3
330
18
100
AcDbEntity
  8
0
  6
BYBLOCK
100
AcDbLine
 10
7597.076839840121
 20
1490.164192904511
 30
0.0000000001127424
 11
7596.380171946122
 21
1492.764192904511
 31
0.0000000001127424
  0
LINE
  5
117A4
330
18
100
AcDbEntity
  8
0
  6
BYBLOCK
100
AcDbLine
 10
7597.076839840121
 20
1490.164192904511
 30
0.0000000001127424
 11
7597.076839840121
 21
1492.764192904511
 31
0.0000000001127424
  0
LINE
  5
117A5
330
18
100
AcDbEntity
  8
0
  6
BYBLOCK
100
AcDbLine
 10
7596.380171946122
 20
1553.585154360876
 30
0.0000000001127424
 11
7597.076839840121
 21
1556.185154360876
 31
0.0000000001127424
  0
LINE
  5
117A6
330
18
100
AcDbEntity
  8
0
  6
BYBLOCK
100
AcDbLine
 10
7597.076839840121
 20
1556.185154360876
 30
0.0000000001127424
 11
7597.773507734121
 21
1553.585154360876
 31
0.0000000001127424
  0
LINE
  5
117A7
330
18
100
AcDbEntity
  8
0
  6
BYBLOCK
100
AcDbLine
 10
7597.076839840121
 20
1556.185154360876
 30
0.0000000001127424
 11
7597.076839840121
 21
1553.585154360876
 31
0.0000000001127424
  0
TEXT
  5
117A8
330
18
100
AcDbEntity
  8
1DIM
  6
CONTINUOUS
100
AcDbText
 10
7596.166839840121
 20
1519.367208354917
 30
0.0000000001127424
 40
4.55
  1
66
 50
90.0
100
AcDbText
1001
ACAD
1000
DSTYLE
1002
{
1070
    40
1040
1.3
1070
    45
1040
0.5
1002
}
  0
LINE
  5
117A9
330
18
100
AcDbEntity
  8
0
  6
BYBLOCK
100
AcDbLine
 10
7587.773507734121
 20
1301.055044661121
 30
0.0
 11
7587.076839840121
 21
1298.455044661121
 31
0.0
  0
LINE
  5
117AA
330
18
100
AcDbEntity
  8
0
  6
BYBLOCK
100
AcDbLine
 10
7587.076839840121
 20
1298.455044661121
 30
0.0
 11
7586.380171946122
 21
1301.055044661121
 31
0.0
  0
LINE
  5
117AB
330
18
100
AcDbEntity
  8
0
  6
BYBLOCK
100
AcDbLine
 10
7587.076839840121
 20
1298.455044661121
 30
0.0
 11
7587.076839840121
 21
1301.055044661121
 31
0.0
  0
LINE
  5
117AC
330
18
100
AcDbEntity
  8
0
  6
BYBLOCK
100
AcDbLine
 10
7586.380171946122
 20
1311.317900686818
 30
0.0
 11
7587.076839840121
 21
1313.917900686818
 31
0.0
  0
LINE
  5
117AD
330
18
100
AcDbEntity
  8
0
  6
BYBLOCK
100
AcDbLine
 10
7587.076839840121
 20
1313.917900686818
 30
0.0
 11
7587.773507734121
 21
1311.317900686818
 31
0.0
  0
LINE
  5
117AE
330
18
100
AcDbEntity
  8
0
  6
BYBLOCK
100
AcDbLine
 10
7587.076839840121
 20
1313.917900686818
 30
0.0
 11
7587.076839840121
 21
1311.317900686818
 31
0.0
  0
TEXT
  5
117AF
330
18
100
AcDbEntity
  8
1DIM
  6
CONTINUOUS
100
AcDbText
 10
7586.166839840122
 20
1300.104007396193
 30
0.0
 40
4.55
  1
15.5
 50
90.0
100
AcDbText
1001
ACAD
1000
DSTYLE
1002
{
1070
    40
1040
1.3
1070
    45
1040
0.5
1002
}
  0
LINE
  5
117B0
330
18
100
AcDbEntity
  8
0
  6
BYBLOCK
100
AcDbLine
 10
7392.829249867763
 20
1326.086472673979
 30
0.0
 11
7393.525917761763
 21
1328.686472673979
 31
0.0
  0
LINE
  5
117B1
330
18
100
AcDbEntity
  8
0
  6
BYBLOCK
100
AcDbLine
 10
7393.525917761763
 20
1328.686472673979
 30
0.0
 11
7394.222585655762
 21
1326.086472673979
 31
0.0
  0
LINE
  5
117B2
330
18
100
AcDbEntity
  8
0
  6
BYBLOCK
100
AcDbLine
 10
7393.525917761763
 20
1328.686472673979
 30
0.0
 11
7393.525917761763
 21
1326.086472673979
 31
0.0
  0
LINE
  5
117B3
330
18
100
AcDbEntity
  8
0
  6
BYBLOCK
100
AcDbLine
 10
7394.222585655762
 20
1286.286472673979
 30
0.0
 11
7393.525917761763
 21
1283.686472673979
 31
0.0
  0
LINE
  5
117B4
330
18
100
AcDbEntity
  8
0
  6
BYBLOCK
100
AcDbLine
 10
7393.525917761763
 20
1283.686472673979
 30
0.0
 11
7392.829249867763
 21
1286.286472673979
 31
0.0
  0
LINE
  5
117B5
330
18
100
AcDbEntity
  8
0
  6
BYBLOCK
100
AcDbLine
 10
7393.525917761763
 20
1283.686472673979
 30
0.0
 11
7393.525917761763
 21
1286.286472673979
 31
0.0
  0
TEXT
  5
117B6
330
18
100
AcDbEntity
  8
1DIM
  6
CONTINUOUS
100
AcDbText
 10
7392.615917761762
 20
1302.394806007312
 30
0.0
 40
4.55
  1
45
 50
90.0
100
AcDbText
1001
ACAD
1000
DSTYLE
1002
{
1070
    40
1040
1.3
1002
}
  0
LINE
  5
117B7
330
18
100
AcDbEntity
  8
0
  6
BYBLOCK
100
AcDbLine
 10
7408.176839840125
 20
1262.826292630673
 30
0.0
 11
7405.576839840125
 21
1263.522960524673
 31
0.0
  0
LINE
  5
117B8
330
18
100
AcDbEntity
  8
0
  6
BYBLOCK
100
AcDbLine
 10
7405.576839840125
 20
1263.522960524673
 30
0.0
 11
7408.176839840125
 21
1264.219628418673
 31
0.0
  0
LINE
  5
117B9
330
18
100
AcDbEntity
  8
0
  6
BYBLOCK
100
AcDbLine
 10
7405.576839840125
 20
1263.522960524673
 30
0.0
 11
7408.176839840125
 21
1263.522960524673
 31
0.0
  0
LINE
  5
117BA
330
18
100
AcDbEntity
  8
0
  6
BYBLOCK
100
AcDbLine
 10
7502.976839840125
 20
1264.219628418673
 30
0.0
 11
7505.576839840125
 21
1263.522960524673
 31
0.0
  0
LINE
  5
117BB
330
18
100
AcDbEntity
  8
0
  6
BYBLOCK
100
AcDbLine
 10
7505.576839840125
 20
1263.522960524673
 30
0.0
 11
7502.976839840125
 21
1262.826292630673
 31
0.0
  0
LINE
  5
117BC
330
18
100
AcDbEntity
  8
0
  6
BYBLOCK
100
AcDbLine
 10
7505.576839840125
 20
1263.522960524673
 30
0.0
 11
7502.976839840125
 21
1263.522960524673
 31
0.0
  0
TEXT
  5
117BD
330
18
100
AcDbEntity
  8
1DIM
  6
CONTINUOUS
100
AcDbText
 10
7450.932048173458
 20
1264.432960524673
 30
0.0
 40
4.55
  1
100
100
AcDbText
1001
ACAD
1000
DSTYLE
1002
{
1070
    40
1040
1.3
1002
}
  0
LINE
  5
117BE
330
18
100
AcDbEntity
  8
0
  6
BYBLOCK
100
AcDbLine
 10
7423.026816395301
 20
1460.488486466876
 30
0.0000000001127424
 11
7420.4268163953
 21
1461.185154360876
 31
0.0000000001127424
  0
LINE
  5
117BF
330
18
100
AcDbEntity
  8
0
  6
BYBLOCK
100
AcDbLine
 10
7420.4268163953
 20
1461.185154360876
 30
0.0000000001127424
 11
7423.026816395301
 21
1461.881822254876
 31
0.0000000001127424
  0
LINE
  5
117C0
330
18
100
AcDbEntity
  8
0
  6
BYBLOCK
100
AcDbLine
 10
7420.4268163953
 20
1461.185154360876
 30
0.0000000001127424
 11
7423.026816395301
 21
1461.185154360876
 31
0.0000000001127424
  0
LINE
  5
117C1
330
18
100
AcDbEntity
  8
0
  6
BYBLOCK
100
AcDbLine
 10
7549.178588003788
 20
1461.881822254876
 30
0.0000000001127424
 11
7551.778588003788
 21
1461.185154360876
 31
0.0000000001127424
  0
LINE
  5
117C2
330
18
100
AcDbEntity
  8
0
  6
BYBLOCK
100
AcDbLine
 10
7551.778588003788
 20
1461.185154360876
 30
0.0000000001127424
 11
7549.178588003788
 21
1460.488486466876
 31
0.0000000001127424
  0
LINE
  5
117C3
330
18
100
AcDbEntity
  8
0
  6
BYBLOCK
100
AcDbLine
 10
7551.778588003788
 20
1461.185154360876
 30
0.0000000001127424
 11
7549.178588003788
 21
1461.185154360876
 31
0.0000000001127424
  0
TEXT
  5
117C4
330
18
100
AcDbEntity
  8
1DIM
  6
CONTINUOUS
100
AcDbText
 10
7481.552702199544
 20
1462.095154360876
 30
0.0000000001127424
 40
4.55
  1
131
100
AcDbText
1001
ACAD
1000
DSTYLE
1002
{
1070
    40
1040
1.3
1070
    45
1040
0.5
1002
}
  0
LINE
  5
117C5
330
18
100
AcDbEntity
  8
0
  6
BYBLOCK
100
AcDbLine
 10
7434.676839840122
 20
1471.752655965782
 30
0.0
 11
7432.076839840121
 21
1472.449323859782
 31
0.0
  0
LINE
  5
117C6
330
18
100
AcDbEntity
  8
0
  6
BYBLOCK
100
AcDbLine
 10
7432.076839840121
 20
1472.449323859782
 30
0.0
 11
7434.676839840122
 21
1473.145991753782
 31
0.0
  0
LINE
  5
117C7
330
18
100
AcDbEntity
  8
0
  6
BYBLOCK
100
AcDbLine
 10
7432.076839840121
 20
1472.449323859782
 30
0.0
 11
7434.676839840122
 21
1472.449323859782
 31
0.0
  0
LINE
  5
117C8
330
18
100
AcDbEntity
  8
0
  6
BYBLOCK
100
AcDbLine
 10
7549.178588003788
 20
1473.145991753782
 30
0.0
 11
7551.778588003788
 21
1472.449323859782
 31
0.0
  0
LINE
  5
117C9
330
18
100
AcDbEntity
  8
0
  6
BYBLOCK
100
AcDbLine
 10
7551.778588003788
 20
1472.449323859782
 30
0.0
 11
7549.178588003788
 21
1471.752655965782
 31
0.0
  0
LINE
  5
117CA
330
18
100
AcDbEntity
  8
0
  6
BYBLOCK
100
AcDbLine
 10
7551.778588003788
 20
1472.449323859782
 30
0.0
 11
7549.178588003788
 21
1472.449323859782
 31
0.0
  0
TEXT
  5
117CB
330
18
100
AcDbEntity
  8
1DIM
  6
CONTINUOUS
100
AcDbText
 10
7486.903755588622
 20
1473.359323859782
 30
0.0
 40
4.55
  1
120
100
AcDbText
1001
ACAD
1000
DSTYLE
1002
{
1070
    40
1040
1.3
1070
   271
1070
     0
1002
}
  0
VIEWPORT
  5
57
330
15
100
AcDbEntity
 67
     1
  8
0
100
AcDbViewport
 68
     1
 10
0.0
 20
0.0
 30
0.0
 40
535.5106132075472
 41
297.0
 68
     1
 69
     1
1001
ACAD
1000
MVIEW
1002
{
1070
    16
1010
0.0
1020
0.0
1030
0.0
1010
0.0
1020
0.0
1030
1.0
1040
0.0
1040
297.0
1040
5.728000000000009
1040
25.339
1040
50.0
1040
0.0
1040
0.0
1070
    16
1070
   100
1070
     0
1070
     1
1070
     0
1070
     0
1070
     0
1070
     0
1040
0.0
1040
0.0
1040
0.0
1040
10.0
1040
10.0
1040
10.0
1040
10.0
1070
     0
1002
{
1002
}
1002
}
  0
ENDSEC
  0
SECTION
  2
OBJECTS
  0
DICTIONARY
  5
C
330
0
100
AcDbDictionary
  3
ACAD_CIP_PREVIOUS_PRODUCT_INFO
350
AEA8
  3
ACAD_COLOR
350
18D
  3
ACAD_GROUP
350
D
  3
ACAD_LAYOUT
350
18E
  3
ACAD_MATERIAL
350
18C
  3
ACAD_MLEADERSTYLE
350
9583
  3
ACAD_MLINESTYLE
350
1B
  3
ACAD_PLOTSETTINGS
350
18F
  3
ACAD_SCALELIST
350
9561
  3
ACAD_VISUALSTYLE
350
9550
  3
ACDBHEADERROUNDTRIPXREC
350
117CC
  3
ACDBVARIABLEDICTIONARY
350
37
  3
CONTENTDICTIONARY
350
D8
  3
DRAWINGVARIABLESDICT
350
20
  3
DWGPROPS
350
117CF
1001
ACAD
1000
TREAT_AS_HARD
1070
     0
  0
DICTIONARY
  5
96D9
330
2
100
AcDbDictionary
  3
ACAD_LAYERSTATES
360
96DA
1001
ACAD
1000
TREAT_AS_HARD
1070
     1
  0
DICTIONARY
  5
9593
330
E
100
AcDbDictionary
  3
ADSK_XREC_LAYER_RECONCILED
360
9594
1001
ACAD
1000
TREAT_AS_HARD
1070
     1
  0
DICTIONARY
  5
9595
330
29
100
AcDbDictionary
  3
ADSK_XREC_LAYER_RECONCILED
360
9596
1001
ACAD
1000
TREAT_AS_HARD
1070
     1
  0
DICTIONARY
  5
9597
330
31
100
AcDbDictionary
  3
ADSK_XREC_LAYER_RECONCILED
360
9598
1001
ACAD
1000
TREAT_AS_HARD
1070
     1
  0
DICTIONARY
  5
959D
330
243
100
AcDbDictionary
  3
ADSK_XREC_LAYER_RECONCILED
360
959E
1001
ACAD
1000
TREAT_AS_HARD
1070
     1
  0
DICTIONARY
  5
95A3
330
24E
100
AcDbDictionary
  3
ADSK_XREC_LAYER_RECONCILED
360
95A4
1001
ACAD
1000
TREAT_AS_HARD
1070
     1
  0
DICTIONARY
  5
88F
330
18
100
AcDbDictionary
  3
ACAD_SORTENTS
360
890
1001
ACAD
1000
TREAT_AS_HARD
1070
     1
  0
XRECORD
  5
AEA8
102
{ACAD_REACTORS
330
C
102
}
330
C
100
AcDbXrecord
300
ACDLT
300
2012
300
ACDLT_F_S
  0
DICTIONARY
  5
18D
102
{ACAD_REACTORS
330
C
102
}
330
C
100
AcDbDictionary
1001
ACAD
1000
TREAT_AS_HARD
1070
     0
  0
DICTIONARY
  5
D
102
{ACAD_REACTORS
330
C
102
}
330
C
100
AcDbDictionary
1001
ACAD
1000
TREAT_AS_HARD
1070
     0
  0
DICTIONARY
  5
18E
102
{ACAD_REACTORS
330
C
102
}
330
C
100
AcDbDictionary
1001
ACAD
1000
TREAT_AS_HARD
1070
     0
  0
DICTIONARY
  5
18C
102
{ACAD_REACTORS
330
C
102
}
330
C
100
AcDbDictionary
  3
BYBLOCK
350
9540
  3
BYLAYER
350
9538
  3
GLOBAL
350
9548
1001
ACAD
1000
TREAT_AS_HARD
1070
     0
  0
DICTIONARY
  5
9583
102
{ACAD_REACTORS
330
C
102
}
330
C
100
AcDbDictionary
  3
STANDARD
350
9584
1001
ACAD
1000
TREAT_AS_HARD
1070
     0
  0
DICTIONARY
  5
1B
102
{ACAD_REACTORS
330
C
102
}
330
C
100
AcDbDictionary
  3
STANDARD
350
1C
1001
ACAD
1000
TREAT_AS_HARD
1070
     0
  0
DICTIONARY
  5
18F
102
{ACAD_REACTORS
330
C
102
}
330
C
100
AcDbDictionary
1001
ACAD
1000
TREAT_AS_HARD
1070
     0
  0
DICTIONARY
  5
9561
102
{ACAD_REACTORS
330
C
102
}
330
C
100
AcDbDictionary
  3
A0
350
9562
  3
A1
350
9563
  3
A2
350
9564
  3
A3
350
9565
  3
A4
350
9566
  3
A5
350
9567
  3
A6
350
9568
  3
A7
350
9569
  3
A8
350
956A
  3
A9
350
956B
  3
B0
350
956C
  3
B1
350
956D
  3
B2
350
956E
  3
B3
350
956F
  3
B4
350
9570
  3
B5
350
9571
  3
B6
350
9572
  3
B7
350
9573
  3
B8
350
9574
  3
B9
350
9575
  3
C0
350
9576
  3
C1
350
9577
  3
C2
350
9578
  3
C3
350
9579
  3
C4
350
957A
  3
C5
350
957B
  3
C6
350
957C
  3
C7
350
957D
  3
C8
350
957E
  3
C9
350
957F
  3
D0
350
9580
  3
D1
350
9581
  3
D2
350
9582
1001
ACAD
1000
TREAT_AS_HARD
1070
     0
  0
DICTIONARY
  5
9550
102
{ACAD_REACTORS
330
C
102
}
330
C
100
AcDbDictionary
  3
2DWIREFRAME
350
9556
  3
3D_HIDDEN
350
9558
  3
3DWIREFRAME
350
9557
  3
BASIC
350
9555
  3
BRIGHTEN
350
955C
  3
COLORCHANGE
350
9560
  3
CONCEPTUAL
350
9559
  3
DIM
350
955B
  3
EDGECOLOROFF
350
A211
  3
FACEPATTERN
350
955F
  3
FLAT
350
9551
  3
FLATWITHEDGES
350
9552
  3
GOURAUD
350
9553
  3
GOURAUDWITHEDGES
350
9554
  3
HIDDEN
350
A260
  3
JITTEROFF
350
A20F
  3
LINEPATTERN
350
955E
  3
MODELING
350
A266
  3
OVERHANGOFF
350
A210
  3
REALISTIC
350
955A
  3
SHADED
350
A265
  3
SHADED_WITH_EDGES
350
A264
  3
SHADES_OF_GRAY
350
A261
  3
SKETCHY
350
A262
  3
THICKEN
350
955D
  3
WIREFRAME
350
A25F
  3
X-RAY
350
A263
1001
ACAD
1000
TREAT_AS_HARD
1070
     0
  0
DICTIONARY
  5
117CC
102
{ACAD_REACTORS
330
C
102
}
330
C
100
AcDbDictionary
  3
COLORDICT
350
117CD
  3
MATERIALDICT
350
117CE
1001
ACAD
1000
TREAT_AS_HARD
1070
     0
  0
DICTIONARY
  5
37
102
{ACAD_REACTORS
330
C
102
}
330
C
100
AcDbDictionary
  3
CANNOSCALE
350
AAE0
  3
CMLEADERSTYLE
350
9627
  3
CTABLESTYLE
350
29E
  3
DIMADEC
350
38
  3
DIMASSOC
350
1CE
  3
HIDETEXT
350
704E
  3
INDEXCTL
350
962A
  3
INTERSECTIONCOLOR
350
7052
  3
INTERSECTIONDISPLAY
350
7051
  3
MSLTSCALE
350
AB30
  3
OBSCOLOR
350
704F
  3
OBSLTYPE
350
7050
  3
PROJECTNAME
350
1CF
  3
SORTENTS
350
9629
  3
XCLIPFRAME
350
115EE
1001
ACAD
1000
TREAT_AS_HARD
1070
     0
  0
DICTIONARY
  5
D8
102
{ACAD_REACTORS
330
C
102
}
330
C
100
AcDbDictionary
1001
ACAD
1000
TREAT_AS_HARD
1070
     0
  0
DICTIONARY
  5
20
102
{ACAD_REACTORS
330
C
102
}
330
C
100
AcDbDictionary
1001
DRAWINGVARIABLESXDATA
1000
POLARANG
1000
0.261799387799149410000000
1000
POLARMODE
1000
1
1000
POLARSTYLE
1000
1
1001
ACAD
1000
TREAT_AS_HARD
1070
     0
  0
XRECORD
  5
117CF
102
{ACAD_REACTORS
330
C
102
}
330
C
100
AcDbXrecord
  1
DWGPROPS COOKIE
  2

  3

  4

  6

  7

  8
3684
  9

300
=
301
=
302
=
303
=
304
=
305
=
306
=
307
=
308
=
309
=
 40
0.0
 41
2451318.246352917
 42
2458967.195479479
  1

 90
        0
  0
DICTIONARY
  5
96DA
102
{ACAD_REACTORS
330
96D9
102
}
330
96D9
100
AcDbDictionary
1001
ACAD
1000
TREAT_AS_HARD
1070
     0
  0
ACAD_PROXY_OBJECT
  5
9594
102
{ACAD_REACTORS
330
9593
102
}
330
9593
100
AcDbZombieObject
 90
      499
 91
      514
 93
       34
310
40C8804040
  0
ACAD_PROXY_OBJECT
  5
9596
102
{ACAD_REACTORS
330
9595
102
}
330
9595
100
AcDbZombieObject
 90
      499
 91
      514
 93
       34
310
40C8804040
  0
ACAD_PROXY_OBJECT
  5
9598
102
{ACAD_REACTORS
330
9597
102
}
330
9597
100
AcDbZombieObject
 90
      499
 91
      514
 93
       34
310
40C8804040
  0
ACAD_PROXY_OBJECT
  5
959E
102
{ACAD_REACTORS
330
959D
102
}
330
959D
100
AcDbZombieObject
 90
      499
 91
      514
 93
       34
310
40C8804040
  0
ACAD_PROXY_OBJECT
  5
95A4
102
{ACAD_REACTORS
330
95A3
102
}
330
95A3
100
AcDbZombieObject
 90
      499
 91
      514
 93
       34
310
40C8804040
  0
SORTENTSTABLE
  5
890
102
{ACAD_REACTORS
330
88F
102
}
330
88F
100
AcDbSortentsTable
330
18
331
0
  5
FC04
331
FC03
  5
FC1D
331
FC04
  5
FC1E
331
FC05
  5
FC1F
331
FC09
  5
FC41
331
FC0A
  5
FC42
331
FC0B
  5
FC43
331
FC0C
  5
FC44
331
FC0D
  5
FC45
331
FC0E
  5
FC46
331
FC0F
  5
FC47
331
FC10
  5
FC48
331
FC11
  5
FC49
331
FC12
  5
FC4A
331
FC13
  5
FC4B
331
FC14
  5
FC4C
331
FC15
  5
FC4D
331
FC16
  5
FC4E
331
FC17
  5
FC4F
331
FC18
  5
FC50
331
FC19
  5
FC51
331
FC1A
  5
FC52
331
FC1B
  5
FC53
331
FC1C
  5
FC54
331
FC1D
  5
FC55
331
FC1E
  5
FC56
331
FC1F
  5
FC57
331
FC20
  5
FC58
331
FC21
  5
FC59
331
FC22
  5
FC5A
331
FC23
  5
FC5B
331
FC24
  5
FC5C
331
FC25
  5
FC5D
331
FC26
  5
FC5E
331
FC27
  5
FC5F
331
FC28
  5
FC60
331
FC29
  5
FC61
331
FC2A
  5
FC62
331
FC2B
  5
FC63
331
FC2C
  5
FC64
331
FC2D
  5
FC65
331
FC2E
  5
FC66
331
FC2F
  5
FC67
331
FC30
  5
FC68
331
FC31
  5
FC69
331
FC32
  5
FC6A
331
FC33
  5
FC6B
331
FC34
  5
FC6C
331
FC35
  5
FC6D
331
FC36
  5
FC6E
331
FC37
  5
FC6F
331
FC38
  5
FC70
331
FC39
  5
FC71
331
FC3A
  5
FC75
331
FC3B
  5
FC76
331
FC3C
  5
FC77
331
FC3D
  5
FC78
331
FC3E
  5
FC79
331
FC3F
  5
FC7B
331
FC40
  5
FC7C
331
FC41
  5
FC7D
331
FC42
  5
FC7E
331
FC43
  5
FC7F
331
FC44
  5
FC80
331
FC45
  5
FC81
331
FC46
  5
FC82
331
FC47
  5
FC84
331
FC48
  5
FC85
331
0
  5
FC83
331
FC4A
  5
FD57
331
FC4B
  5
FD58
331
FC4C
  5
FD59
331
FC4D
  5
FD5D
331
FC4E
  5
FD5E
331
FC4F
  5
FD5F
331
FC50
  5
FD63
331
FC51
  5
FD64
331
FC52
  5
FD65
331
FC53
  5
FD66
331
FC54
  5
FD67
331
FC55
  5
FD68
331
FC56
  5
FD69
331
FC57
  5
FD6A
331
FC58
  5
FD6B
331
FC59
  5
FD6C
331
FC5A
  5
FD6D
331
FC5B
  5
FD6E
331
FC5C
  5
FD6F
331
FC5D
  5
FD70
331
FC5E
  5
FD71
331
FC5F
  5
FD72
331
FC60
  5
FD73
331
FC61
  5
FD74
331
FC62
  5
FD75
331
FC63
  5
FD76
331
FC64
  5
FD77
331
FC65
  5
FD78
331
FC66
  5
FD79
331
FC67
  5
FD7A
331
FC68
  5
FD7B
331
FC69
  5
FD7C
331
FC6A
  5
FD7D
331
FC6B
  5
FD7E
331
FC6C
  5
FD7F
331
FC6D
  5
FD80
331
FC6E
  5
FD81
331
FC6F
  5
FD82
331
FC70
  5
FD83
331
FC71
  5
FD84
331
FC75
  5
1032E
331
FC76
  5
1032F
331
FC77
  5
10330
331
FC78
  5
10331
331
FC79
  5
10332
331
FC7B
  5
10339
331
FC7C
  5
1033A
331
FC7D
  5
1033B
331
FC7E
  5
1033C
331
FC7F
  5
1033D
331
FC80
  5
1033E
331
FC81
  5
1033F
331
FC82
  5
10340
331
FC83
  5
10341
331
FC84
  5
10342
331
FC85
  5
10343
331
FC86
  5
10344
331
FC87
  5
10345
331
FC88
  5
10346
331
FC89
  5
10347
331
FC8A
  5
10348
331
FC8B
  5
10349
331
FC8C
  5
1034A
331
FC8D
  5
1034B
331
FD4F
  5
1034C
331
FD50
  5
1034D
331
FD51
  5
1034E
331
FD52
  5
1034F
331
FD53
  5
10350
331
FD54
  5
10351
331
FD55
  5
10352
331
FD56
  5
10353
331
FD57
  5
10354
331
FD58
  5
10355
331
FD59
  5
10356
331
FD5A
  5
10357
331
FD5B
  5
10358
331
FD5C
  5
10359
331
FD5D
  5
1035A
331
FD5E
  5
1035B
331
FD5F
  5
1035C
331
FD60
  5
1035D
331
FD61
  5
1035E
331
FD62
  5
1035F
331
FD63
  5
10360
331
FD64
  5
10361
331
FD65
  5
10362
331
FD66
  5
10363
331
FD67
  5
10364
331
FD68
  5
10365
331
FD69
  5
10366
331
FD6A
  5
10367
331
FD6B
  5
10368
331
FD6C
  5
10369
331
FD6D
  5
1036A
331
FD6E
  5
1036B
331
FD6F
  5
1036C
331
FD70
  5
1036D
331
FD71
  5
1036E
331
FD72
  5
1036F
331
FD73
  5
10370
331
FD74
  5
10371
331
FD75
  5
10372
331
FD76
  5
10373
331
FD77
  5
10374
331
FD78
  5
10375
331
FD79
  5
10376
331
FD7A
  5
10377
331
FD7B
  5
10378
331
FD7C
  5
10379
331
FD7D
  5
1037A
331
FD7E
  5
1037B
331
FD7F
  5
1037C
331
FD80
  5
1037D
331
FD81
  5
1037E
331
FD82
  5
1037F
331
FD83
  5
10380
331
FD84
  5
10381
331
FD85
  5
10382
331
FD86
  5
10383
331
FD87
  5
10384
331
FD88
  5
10385
331
FD89
  5
10386
331
10314
  5
10387
331
10315
  5
10388
331
10316
  5
10389
331
10317
  5
1038A
331
10318
  5
1038B
331
10319
  5
1038C
331
1031A
  5
1038D
331
1031B
  5
1038E
331
1031C
  5
10392
331
1031D
  5
10393
331
1031E
  5
10394
331
1031F
  5
10395
331
10320
  5
10396
331
10321
  5
10397
331
10322
  5
10398
331
10323
  5
10399
331
10324
  5
1039A
331
10325
  5
1039B
331
10327
  5
103A0
331
10328
  5
103A1
331
10329
  5
103A2
331
1032A
  5
103A6
331
0
  5
1038F
331
0
  5
10390
331
0
  5
10391
331
1032E
  5
1171D
331
1032F
  5
11722
331
10330
  5
11723
331
10331
  5
11724
331
10332
  5
11725
331
10333
  5
11726
331
10334
  5
11727
331
10335
  5
11728
331
10336
  5
11729
331
10337
  5
1172A
331
10338
  5
1172B
331
10339
  5
1172C
331
1033A
  5
1172D
331
1033B
  5
1172E
331
1033C
  5
1172F
331
1033D
  5
11730
331
1033E
  5
11731
331
1033F
  5
11732
331
10340
  5
11733
331
10341
  5
11734
331
10342
  5
11735
331
10343
  5
11736
331
10344
  5
11737
331
0
  5
103A9
331
0
  5
103AA
331
10347
  5
11752
331
10348
  5
11753
331
10349
  5
11754
331
1034A
  5
11755
331
1034B
  5
11756
331
1034C
  5
11757
331
1034D
  5
11758
331
1034E
  5
11759
331
1034F
  5
1175A
331
10350
  5
1175B
331
10351
  5
1175C
331
10352
  5
1175D
331
10353
  5
1175E
331
10354
  5
1175F
331
10355
  5
11760
331
10356
  5
11761
331
10357
  5
11762
331
10358
  5
11763
331
10359
  5
11764
331
1035A
  5
11765
331
1035B
  5
11766
331
1035C
  5
11767
331
1035D
  5
11768
331
1035E
  5
11769
331
0
  5
11712
331
10360
  5
11774
331
10361
  5
11775
331
10362
  5
11776
331
10363
  5
11777
331
10364
  5
11778
331
10365
  5
11779
331
10366
  5
1177A
331
10367
  5
1177B
331
10368
  5
1177C
331
10369
  5
1177D
331
1036A
  5
1177E
331
0
  5
1171E
331
1036C
  5
11789
331
1036D
  5
1178A
331
1036E
  5
1178B
331
1036F
  5
1178C
331
10370
  5
1178D
331
10371
  5
1178E
331
10372
  5
1178F
331
10373
  5
11790
331
10374
  5
11791
331
10375
  5
11792
331
10376
  5
11793
331
10377
  5
11794
331
10378
  5
11795
331
10379
  5
11796
331
1037A
  5
11797
331
1037B
  5
11798
331
1037C
  5
11799
331
1037D
  5
1179A
331
1037E
  5
1179B
331
1037F
  5
1179C
331
10380
  5
1179D
331
10381
  5
1179E
331
10382
  5
1179F
331
10383
  5
117A0
331
10384
  5
117A1
331
10385
  5
117A2
331
10386
  5
117A3
331
10387
  5
117A4
331
10388
  5
117A5
331
10389
  5
117A6
331
1038A
  5
117A7
331
1038B
  5
117A8
331
1038C
  5
117A9
331
1038D
  5
117AA
331
1038E
  5
117AB
331
1038F
  5
117AC
331
10390
  5
117AD
331
10391
  5
117AE
331
10392
  5
117AF
331
10393
  5
117B0
331
10394
  5
117B1
331
10395
  5
117B2
331
10396
  5
117B3
331
10397
  5
117B4
331
10398
  5
117B5
331
10399
  5
117B6
331
1039A
  5
117B7
331
1039B
  5
117B8
331
1039C
  5
117B9
331
1039D
  5
117BA
331
1039E
  5
117BB
331
1039F
  5
117BC
331
103A0
  5
117BD
331
103A1
  5
117BE
331
103A2
  5
117BF
331
103A3
  5
117C0
331
103A4
  5
117C1
331
103A5
  5
117C2
331
103A6
  5
117C3
331
103A7
  5
117C4
331
103A8
  5
117C5
331
103A9
  5
117C6
331
103AA
  5
117C7
331
103AB
  5
117C8
331
103AC
  5
117C9
331
103AD
  5
117CA
331
103AE
  5
117CB
331
116FE
  5
FB73
331
116FF
  5
FC03
331
11700
  5
FC0A
331
11701
  5
FC0E
331
11702
  5
FC0F
331
0
  5
FC0B
331
0
  5
FC0C
331
0
  5
FC0D
331
11706
  5
FC23
331
11707
  5
FC24
331
11708
  5
FC25
331
0
  5
FC14
331
0
  5
FC15
331
0
  5
FC16
331
1170C
  5
FC2D
331
1170D
  5
FC2E
331
1170E
  5
FC2F
331
0
  5
FC1A
331
0
  5
FC1B
331
0
  5
FC1C
331
11712
  5
FC37
331
11713
  5
FC38
331
11714
  5
FC39
331
0
  5
FC20
331
0
  5
FC21
331
0
  5
FC22
331
11718
  5
FD85
331
11719
  5
FD86
331
1171A
  5
FD87
331
0
  5
FD54
331
0
  5
FD55
331
0
  5
FD56
331
1171E
  5
10319
331
1171F
  5
1031A
331
11720
  5
1031B
331
0
  5
FD5A
331
0
  5
FD5B
331
0
  5
FD5C
331
11724
  5
10323
331
11725
  5
10324
331
11726
  5
10325
331
0
  5
FD60
331
0
  5
FD61
331
0
  5
FD62
331
1172A
  5
10333
331
1172B
  5
10334
331
1172C
  5
10335
331
1172D
  5
10336
331
1172E
  5
10337
331
1172F
  5
10338
331
11730
  5
1039C
331
11731
  5
FC10
331
11732
  5
FC11
331
11733
  5
FC12
331
11734
  5
FC13
331
11735
  5
FC17
331
11736
  5
FC18
331
11737
  5
FC19
331
11738
  5
FC26
331
11739
  5
FC27
331
1173A
  5
FC28
331
1173B
  5
FC29
331
1173C
  5
FC2A
331
1173D
  5
FC2B
331
1173E
  5
FC2C
331
1173F
  5
FC30
331
11740
  5
FC31
331
11741
  5
FC32
331
11742
  5
FC33
331
11743
  5
FC34
331
11744
  5
FC35
331
11745
  5
FC36
331
11746
  5
FC3A
331
11747
  5
FC3B
331
11748
  5
FC3C
331
11749
  5
FC3D
331
1174A
  5
FC3E
331
1174B
  5
FC3F
331
1174C
  5
FC40
331
1174D
  5
FD88
331
1174E
  5
FD89
331
1174F
  5
10314
331
11750
  5
10315
331
11751
  5
10316
331
11752
  5
10317
331
11753
  5
10318
331
11754
  5
1031C
331
11755
  5
1031D
331
11756
  5
1031E
331
11757
  5
1031F
331
11758
  5
10320
331
11759
  5
10321
331
1175A
  5
10322
331
1175B
  5
10327
331
1175C
  5
10328
331
1175D
  5
10329
331
1175E
  5
1032A
331
1175F
  5
1032B
331
11760
  5
1032C
331
11761
  5
1032D
331
11762
  5
FC05
331
11763
  5
FC09
331
11764
  5
FC86
331
11765
  5
FC87
331
11766
  5
FC88
331
0
  5
FC89
331
0
  5
FC8A
331
0
  5
FC8B
331
1176A
  5
103A7
331
1176B
  5
103A8
331
1176C
  5
103AE
331
0
  5
1039D
331
0
  5
1039E
331
0
  5
1039F
331
11770
  5
11705
331
11771
  5
11706
331
11772
  5
11707
331
0
  5
103A3
331
0
  5
103A4
331
0
  5
103A5
331
11776
  5
1170F
331
11777
  5
11710
331
11778
  5
11711
331
0
  5
103AB
331
0
  5
103AC
331
0
  5
103AD
331
1177C
  5
11738
331
1177D
  5
11739
331
1177E
  5
1173A
331
0
  5
11718
331
0
  5
11719
331
0
  5
1171A
331
11782
  5
11745
331
11783
  5
11746
331
11784
  5
11747
331
0
  5
1171F
331
0
  5
11720
331
0
  5
11721
331
11788
  5
1176A
331
11789
  5
1176B
331
1178A
  5
1176C
331
0
  5
1173D
331
0
  5
1173E
331
0
  5
1173F
331
1178E
  5
1177F
331
1178F
  5
11780
331
11790
  5
11781
331
0
  5
1174E
331
0
  5
1174F
331
0
  5
11750
331
11794
  5
FC8C
331
11795
  5
FC8D
331
11796
  5
FD4F
331
11797
  5
FD50
331
11798
  5
FD51
331
11799
  5
FD52
331
1179A
  5
FD53
331
1179B
  5
116FE
331
1179C
  5
116FF
331
1179D
  5
11700
331
1179E
  5
11701
331
1179F
  5
11702
331
117A0
  5
11703
331
117A1
  5
11704
331
117A2
  5
11708
331
117A3
  5
11709
331
117A4
  5
1170A
331
117A5
  5
1170B
331
117A6
  5
1170C
331
117A7
  5
1170D
331
117A8
  5
1170E
331
117A9
  5
11713
331
117AA
  5
11714
331
117AB
  5
11715
331
117AC
  5
11716
331
117AD
  5
11717
331
117AE
  5
1171B
331
117AF
  5
1171C
331
117B0
  5
1173B
331
117B1
  5
1173C
331
117B2
  5
11740
331
117B3
  5
11741
331
117B4
  5
11742
331
117B5
  5
11743
331
117B6
  5
11744
331
117B7
  5
11748
331
117B8
  5
11749
331
117B9
  5
1174A
331
117BA
  5
1174B
331
117BB
  5
1174C
331
117BC
  5
1174D
331
117BD
  5
11751
331
117BE
  5
1176D
331
117BF
  5
1176E
331
117C0
  5
1176F
331
117C1
  5
11770
331
117C2
  5
11771
331
117C3
  5
11772
331
117C4
  5
11773
331
117C5
  5
11782
331
117C6
  5
11783
331
117C7
  5
11784
331
117C8
  5
11785
331
117C9
  5
11786
331
117CA
  5
11787
331
117CB
  5
11788
  0
MATERIAL
  5
9540
102
{ACAD_REACTORS
330
18C
102
}
102
{ACAD_XDICTIONARY
360
1196A
102
}
330
18C
100
AcDbMaterial
  1
BYBLOCK
 72
     0
 73
     2
 43
0.0208333333333333
 43
0.0
 43
0.0
 43
0.0
 43
0.0
 43
0.0208333333333333
 43
0.0
 43
0.0
 43
0.0
 43
0.0
 43
1.0
 43
0.0
 43
0.0
 43
0.0
 43
0.0
 43
1.0
 77
     0
 78
     2
 47
0.0208333333333333
 47
0.0
 47
0.0
 47
0.0
 47
0.0
 47
0.0208333333333333
 47
0.0
 47
0.0
 47
0.0
 47
0.0
 47
1.0
 47
0.0
 47
0.0
 47
0.0
 47
0.0
 47
1.0
171
     0
172
     2
 49
0.0208333333333333
 49
0.0
 49
0.0
 49
0.0
 49
0.0
 49
0.0208333333333333
 49
0.0
 49
0.0
 49
0.0
 49
0.0
 49
1.0
 49
0.0
 49
0.0
 49
0.0
 49
0.0
 49
1.0
175
     0
176
     2
142
0.0208333333333333
142
0.0
142
0.0
142
0.0
142
0.0
142
0.0208333333333333
142
0.0
142
0.0
142
0.0
142
0.0
142
1.0
142
0.0
142
0.0
142
0.0
142
0.0
142
1.0
179
     0
270
     2
144
0.0208333333333333
144
0.0
144
0.0
144
0.0
144
0.0
144
0.0208333333333333
144
0.0
144
0.0
144
0.0
144
0.0
144
1.0
144
0.0
144
0.0
144
0.0
144
0.0
144
1.0
274
     2
147
0.0208333333333333
147
0.0
147
0.0
147
0.0
147
0.0
147
0.0208333333333333
147
0.0
147
0.0
147
0.0
147
0.0
147
1.0
147
0.0
147
0.0
147
0.0
147
0.0
147
1.0
  0
MATERIAL
  5
9538
102
{ACAD_REACTORS
330
18C
102
}
102
{ACAD_XDICTIONARY
360
1196C
102
}
330
18C
100
AcDbMaterial
  1
BYLAYER
 72
     0
 73
     2
 43
0.0208333333333333
 43
0.0
 43
0.0
 43
0.0
 43
0.0
 43
0.0208333333333333
 43
0.0
 43
0.0
 43
0.0
 43
0.0
 43
1.0
 43
0.0
 43
0.0
 43
0.0
 43
0.0
 43
1.0
 77
     0
 78
     2
 47
0.0208333333333333
 47
0.0
 47
0.0
 47
0.0
 47
0.0
 47
0.0208333333333333
 47
0.0
 47
0.0
 47
0.0
 47
0.0
 47
1.0
 47
0.0
 47
0.0
 47
0.0
 47
0.0
 47
1.0
171
     0
172
     2
 49
0.0208333333333333
 49
0.0
 49
0.0
 49
0.0
 49
0.0
 49
0.0208333333333333
 49
0.0
 49
0.0
 49
0.0
 49
0.0
 49
1.0
 49
0.0
 49
0.0
 49
0.0
 49
0.0
 49
1.0
175
     0
176
     2
142
0.0208333333333333
142
0.0
142
0.0
142
0.0
142
0.0
142
0.0208333333333333
142
0.0
142
0.0
142
0.0
142
0.0
142
1.0
142
0.0
142
0.0
142
0.0
142
0.0
142
1.0
179
     0
270
     2
144
0.0208333333333333
144
0.0
144
0.0
144
0.0
144
0.0
144
0.0208333333333333
144
0.0
144
0.0
144
0.0
144
0.0
144
1.0
144
0.0
144
0.0
144
0.0
144
0.0
144
1.0
274
     2
147
0.0208333333333333
147
0.0
147
0.0
147
0.0
147
0.0
147
0.0208333333333333
147
0.0
147
0.0
147
0.0
147
0.0
147
1.0
147
0.0
147
0.0
147
0.0
147
0.0
147
1.0
  0
MATERIAL
  5
9548
102
{ACAD_REACTORS
330
18C
102
}
102
{ACAD_XDICTIONARY
360
1196E
102
}
330
18C
100
AcDbMaterial
  1
GLOBAL
 72
     0
 73
     2
 43
0.0208333333333333
 43
0.0
 43
0.0
 43
0.0
 43
0.0
 43
0.0208333333333333
 43
0.0
 43
0.0
 43
0.0
 43
0.0
 43
1.0
 43
0.0
 43
0.0
 43
0.0
 43
0.0
 43
1.0
 77
     0
 78
     2
 47
0.0208333333333333
 47
0.0
 47
0.0
 47
0.0
 47
0.0
 47
0.0208333333333333
 47
0.0
 47
0.0
 47
0.0
 47
0.0
 47
1.0
 47
0.0
 47
0.0
 47
0.0
 47
0.0
 47
1.0
171
     0
172
     2
 49
0.0208333333333333
 49
0.0
 49
0.0
 49
0.0
 49
0.0
 49
0.0208333333333333
 49
0.0
 49
0.0
 49
0.0
 49
0.0
 49
1.0
 49
0.0
 49
0.0
 49
0.0
 49
0.0
 49
1.0
175
     0
176
     2
142
0.0208333333333333
142
0.0
142
0.0
142
0.0
142
0.0
142
0.0208333333333333
142
0.0
142
0.0
142
0.0
142
0.0
142
1.0
142
0.0
142
0.0
142
0.0
142
0.0
142
1.0
179
     0
270
     2
144
0.0208333333333333
144
0.0
144
0.0
144
0.0
144
0.0
144
0.0208333333333333
144
0.0
144
0.0
144
0.0
144
0.0
144
1.0
144
0.0
144
0.0
144
0.0
144
0.0
144
1.0
274
     2
147
0.0208333333333333
147
0.0
147
0.0
147
0.0
147
0.0
147
0.0208333333333333
147
0.0
147
0.0
147
0.0
147
0.0
147
1.0
147
0.0
147
0.0
147
0.0
147
0.0
147
1.0
  0
ACAD_PROXY_OBJECT
  5
9584
102
{ACAD_REACTORS
330
9583
102
}
330
9583
100
AcDbZombieObject
 90
      499
 91
      511
 93
      610
310
40901902A4063FBFFFFFE000000000000002040AD7A3703D0AD73F4214DD185B99185C990000000000000104090141901A00000000000004100000000000000041025764000000000000300FC0
340
12
340
0
340
F
340
0
 94
        0
1001
ACAD_MLEADERVER
1070
     2
  0
MLINESTYLE
  5
1C
102
{ACAD_REACTORS
330
1B
102
}
330
1B
100
AcDbMlineStyle
  2
STANDARD
 70
     0
  3

 62
   256
 51
90.0
 52
90.0
 71
     2
 49
0.5
 62
   256
  6
BYLAYER
 49
-0.5
 62
   256
  6
BYLAYER
  0
ACAD_PROXY_OBJECT
  5
9562
102
{ACAD_REACTORS
330
9561
102
}
330
9561
100
AcDbZombieObject
 90
      499
 91
      510
 93
       41
310
903313A31580
  0
ACAD_PROXY_OBJECT
  5
9563
102
{ACAD_REACTORS
330
9561
102
}
330
9561
100
AcDbZombieObject
 90
      499
 91
      510
 93
      105
310
903313A324000000000000004000
  0
ACAD_PROXY_OBJECT
  5
9564
102
{ACAD_REACTORS
330
9561
102
}
330
9561
100
AcDbZombieObject
 90
      499
 91
      510
 93
      105
310
903313A344000000000000104000
  0
ACAD_PROXY_OBJECT
  5
9565
102
{ACAD_REACTORS
330
9561
102
}
330
9561
100
AcDbZombieObject
 90
      499
 91
      510
 93
      105
310
903313A354000000000000144000
  0
ACAD_PROXY_OBJECT
  5
9566
102
{ACAD_REACTORS
330
9561
102
}
330
9561
100
AcDbZombieObject
 90
      499
 91
      510
 93
      105
310
903313A384000000000000204000
  0
ACAD_PROXY_OBJECT
  5
9567
102
{ACAD_REACTORS
330
9561
102
}
330
9561
100
AcDbZombieObject
 90
      499
 91
      510
 93
      113
310
904313A31304000000000000244000
  0
ACAD_PROXY_OBJECT
  5
9568
102
{ACAD_REACTORS
330
9561
102
}
330
9561
100
AcDbZombieObject
 90
      499
 91
      510
 93
      113
310
904313A31364000000000000304000
  0
ACAD_PROXY_OBJECT
  5
9569
102
{ACAD_REACTORS
330
9561
102
}
330
9561
100
AcDbZombieObject
 90
      499
 91
      510
 93
      113
310
904313A32304000000000000344000
  0
ACAD_PROXY_OBJECT
  5
956A
102
{ACAD_REACTORS
330
9561
102
}
330
9561
100
AcDbZombieObject
 90
      499
 91
      510
 93
      113
310
904313A333040000000000003E4000
  0
ACAD_PROXY_OBJECT
  5
956B
102
{ACAD_REACTORS
330
9561
102
}
330
9561
100
AcDbZombieObject
 90
      499
 91
      510
 93
      113
310
904313A34304000000000000444000
  0
ACAD_PROXY_OBJECT
  5
956C
102
{ACAD_REACTORS
330
9561
102
}
330
9561
100
AcDbZombieObject
 90
      499
 91
      510
 93
      113
310
904313A35304000000000000494000
  0
ACAD_PROXY_OBJECT
  5
956D
102
{ACAD_REACTORS
330
9561
102
}
330
9561
100
AcDbZombieObject
 90
      499
 91
      510
 93
      121
310
905313A3130304000000000000594000
  0
ACAD_PROXY_OBJECT
  5
956E
102
{ACAD_REACTORS
330
9561
102
}
330
9561
100
AcDbZombieObject
 90
      499
 91
      510
 93
      105
310
903323A310000000000000010100
  0
ACAD_PROXY_OBJECT
  5
956F
102
{ACAD_REACTORS
330
9561
102
}
330
9561
100
AcDbZombieObject
 90
      499
 91
      510
 93
      105
310
903343A310000000000000410100
  0
ACAD_PROXY_OBJECT
  5
9570
102
{ACAD_REACTORS
330
9561
102
}
330
9561
100
AcDbZombieObject
 90
      499
 91
      510
 93
      105
310
903383A310000000000000810100
  0
ACAD_PROXY_OBJECT
  5
9571
102
{ACAD_REACTORS
330
9561
102
}
330
9561
100
AcDbZombieObject
 90
      499
 91
      510
 93
      113
310
90431303A310000000000000910100
  0
ACAD_PROXY_OBJECT
  5
9572
102
{ACAD_REACTORS
330
9561
102
}
330
9561
100
AcDbZombieObject
 90
      499
 91
      510
 93
      121
310
9053130303A310000000000001650100
  0
ACAD_PROXY_OBJECT
  5
9573
102
{ACAD_REACTORS
330
9561
102
}
330
9561
100
AcDbZombieObject
 90
      499
 91
      510
 93
      257
310
90E312F31323822203D2031272D3022000000000000200FC000000000000284000
  0
ACAD_PROXY_OBJECT
  5
9574
102
{ACAD_REACTORS
330
9561
102
}
330
9561
100
AcDbZombieObject
 90
      499
 91
      510
 93
      249
310
90D312F363422203D2031272D3022000000000000240FC000000000000284000
  0
ACAD_PROXY_OBJECT
  5
9575
102
{ACAD_REACTORS
330
9561
102
}
330
9561
100
AcDbZombieObject
 90
      499
 91
      510
 93
      249
310
90D312F333222203D2031272D3022000000000000280FC000000000000284000
  0
ACAD_PROXY_OBJECT
  5
9576
102
{ACAD_REACTORS
330
9561
102
}
330
9561
100
AcDbZombieObject
 90
      499
 91
      510
 93
      249
310
90D312F313622203D2031272D30220000000000002C0FC000000000000284000
  0
ACAD_PROXY_OBJECT
  5
9577
102
{ACAD_REACTORS
330
9561
102
}
330
9561
100
AcDbZombieObject
 90
      499
 91
      510
 93
      249
310
90D332F333222203D2031272D30220000000000002E0FC000000000000284000
  0
ACAD_PROXY_OBJECT
  5
9578
102
{ACAD_REACTORS
330
9561
102
}
330
9561
100
AcDbZombieObject
 90
      499
 91
      510
 93
      241
310
90C312F3822203D2031272D3022000000000000300FC000000000000284000
  0
ACAD_PROXY_OBJECT
  5
9579
102
{ACAD_REACTORS
330
9561
102
}
330
9561
100
AcDbZombieObject
 90
      499
 91
      510
 93
      249
310
90D332F313622203D2031272D3022000000000000320FC000000000000284000
  0
ACAD_PROXY_OBJECT
  5
957A
102
{ACAD_REACTORS
330
9561
102
}
330
9561
100
AcDbZombieObject
 90
      499
 91
      510
 93
      241
310
90C312F3422203D2031272D3022000000000000340FC000000000000284000
  0
ACAD_PROXY_OBJECT
  5
957B
102
{ACAD_REACTORS
330
9561
102
}
330
9561
100
AcDbZombieObject
 90
      499
 91
      510
 93
      241
310
90C332F3822203D2031272D3022000000000000360FC000000000000284000
  0
ACAD_PROXY_OBJECT
  5
957C
102
{ACAD_REACTORS
330
9561
102
}
330
9561
100
AcDbZombieObject
 90
      499
 91
      510
 93
      241
310
90C312F3222203D2031272D3022000000000000380FC000000000000284000
  0
ACAD_PROXY_OBJECT
  5
957D
102
{ACAD_REACTORS
330
9561
102
}
330
9561
100
AcDbZombieObject
 90
      499
 91
      510
 93
      241
310
90C332F3422203D2031272D30220000000000003A0FC000000000000284000
  0
ACAD_PROXY_OBJECT
  5
957E
102
{ACAD_REACTORS
330
9561
102
}
330
9561
100
AcDbZombieObject
 90
      499
 91
      510
 93
      161
310
90A3122203D2031272D30224000000000000284000
  0
ACAD_PROXY_OBJECT
  5
957F
102
{ACAD_REACTORS
330
9561
102
}
330
9561
100
AcDbZombieObject
 90
      499
 91
      510
 93
      257
310
90E312D312F3222203D2031272D30220000000000003E0FC000000000000284000
  0
ACAD_PROXY_OBJECT
  5
9580
102
{ACAD_REACTORS
330
9561
102
}
330
9561
100
AcDbZombieObject
 90
      499
 91
      510
 93
      225
310
90A3322203D2031272D302200000000000002100000000000000284000
  0
ACAD_PROXY_OBJECT
  5
9581
102
{ACAD_REACTORS
330
9561
102
}
330
9561
100
AcDbZombieObject
 90
      499
 91
      510
 93
      225
310
90A3622203D2031272D302200000000000006100000000000000284000
  0
ACAD_PROXY_OBJECT
  5
9582
102
{ACAD_REACTORS
330
9561
102
}
330
9561
100
AcDbZombieObject
 90
      499
 91
      510
 93
      249
310
90D31272D3022203D2031272D30220000000000000A100000000000000284000
  0
ACAD_PROXY_OBJECT
  5
9556
102
{ACAD_REACTORS
330
9550
102
}
330
9550
100
AcDbZombieObject
 90
      499
 91
      509
 93
      436
310
42CC9915DA5C99599C985B595049028333333333333E3BF0000000000000FB0107901411070040501600405405064090741402480A0340
1001
ACAD
1000
AcDbSavedByObjectVersion
1070
     0
  0
ACAD_PROXY_OBJECT
  5
9558
102
{ACAD_REACTORS
330
9550
102
}
330
9550
100
AcDbZombieObject
 90
      499
 91
      509
 93
      500
310
424CD108121A5919195B90640502408333333333333E3BF0000000000000FB01079024090700405020000000000001110200405405064090740C02480A0340
1001
ACAD
1000
AcDbSavedByObjectVersion
1070
     0
  0
ACAD_PROXY_OBJECT
  5
9557
102
{ACAD_REACTORS
330
9550
102
}
330
9550
100
AcDbZombieObject
 90
      499
 91
      509
 93
      436
310
42CCD915DA5C99599C985B595059028333333333333E3BF0000000000000FB0107901411070040501600405405064090741402480A0340
1001
ACAD
1000
AcDbSavedByObjectVersion
1070
     0
  0
ACAD_PROXY_OBJECT
  5
9555
102
{ACAD_REACTORS
330
9550
102
}
330
9550
100
AcDbZombieObject
 90
      499
 91
      509
 93
      388
310
4150985CDA58D07406404333333333333E3BF0000000000000FB0107A41107004050150841D405064090741402480A0350
1001
ACAD
1000
AcDbSavedByObjectVersion
1070
     0
  0
ACAD_PROXY_OBJECT
  5
955C
102
{ACAD_REACTORS
330
9550
102
}
330
9550
100
AcDbZombieObject
 90
      499
 91
      509
 93
      428
310
42109C9A59DA1D195B90C409028333333333333E3BF0000000000000FB010790141107004050150841D405064090741402480A029950
1001
ACAD
1000
AcDbSavedByObjectVersion
1070
     0
  0
ACAD_PROXY_OBJECT
  5
9560
102
{ACAD_REACTORS
330
9550
102
}
330
9550
100
AcDbZombieObject
 90
      499
 91
      509
 93
      452
310
42D0DBDB1BDC90DA185B99D95104090240C333333333333E3BF0000000000000FB0108901411070040501508421405064090741402480A0350
1001
ACAD
1000
AcDbSavedByObjectVersion
1070
     0
  0
ACAD_PROXY_OBJECT
  5
9559
102
{ACAD_REACTORS
330
9550
102
}
330
9550
100
AcDbZombieObject
 90
      499
 91
      509
 93
      500
310
4290DBDB98D95C1D1D585B10940D028333333333333E3BF0000000000000FB0107902409070040501000000000000111010841D405064090740C02480A0340
1001
ACAD
1000
AcDbSavedByObjectVersion
1070
     0
  0
ACAD_PROXY_OBJECT
  5
955B
102
{ACAD_REACTORS
330
9550
102
}
330
9550
100
AcDbZombieObject
 90
      499
 91
      509
 93
      412
310
40D11A5B50B409028333333333333E3BF0000000000000FB010790141107004050150841D405064090741402480A02677FFFFFD0
1001
ACAD
1000
AcDbSavedByObjectVersion
1070
     0
  0
ACAD_PROXY_OBJECT
  5
A211
102
{ACAD_REACTORS
330
9550
102
}
330
9550
100
AcDbZombieObject
 90
      499
 91
      509
 93
      452
310
43115919D950DBDB1BDC93D999916409028333333333333E3BF0000000000000FB010790141107004050150841D405064090741402480A0350
1001
ACAD
1000
AcDbSavedByObjectVersion
1070
     0
  0
ACAD_PROXY_OBJECT
  5
955F
102
{ACAD_REACTORS
330
9550
102
}
330
9550
100
AcDbZombieObject
 90
      499
 91
      509
 93
      444
310
42D19858D95C185D1D195C9B90F409028333333333333E3BF0000000000000FB010790141107004050150841D405064090741402480A0350
1001
ACAD
1000
AcDbSavedByObjectVersion
1070
     0
  0
ACAD_PROXY_OBJECT
  5
9551
102
{ACAD_REACTORS
330
9550
102
}
330
9550
100
AcDbZombieObject
 90
      499
 91
      509
 93
      388
310
41119B185D240901404333333333333E3BF0000000000000F9010740A41107004050150841D405064090741402480A1B50
1001
ACAD
1000
AcDbSavedByObjectVersion
1070
     0
  0
ACAD_PROXY_OBJECT
  5
9552
102
{ACAD_REACTORS
330
9550
102
}
330
9550
100
AcDbZombieObject
 90
      499
 91
      509
 93
      476
310
43519B185D15DA5D1A115919D95CD0140901404333333333333E3BF0000000000000F9010740901411070040501600405405064090741402480A1B50
1001
ACAD
1000
AcDbSavedByObjectVersion
1070
     0
  0
ACAD_PROXY_OBJECT
  5
9553
102
{ACAD_REACTORS
330
9550
102
}
330
9550
100
AcDbZombieObject
 90
      499
 91
      509
 93
      412
310
41D1DBDD5C985D5910240902404333333333333E3BF0000000000000F9010740A411070040501641D405064090741402480A1B50
1001
ACAD
1000
AcDbSavedByObjectVersion
1070
     0
  0
ACAD_PROXY_OBJECT
  5
9554
102
{ACAD_REACTORS
330
9550
102
}
330
9550
100
AcDbZombieObject
 90
      499
 91
      509
 93
      500
310
4411DBDD5C985D5915DA5D1A115919D95CD0340902404333333333333E3BF0000000000000F9010740901411070040501600405405064090741402480A1B50
1001
ACAD
1000
AcDbSavedByObjectVersion
1070
     0
  0
ACAD_PROXY_OBJECT
  5
A260
102
{ACAD_REACTORS
330
9550
102
}
330
9550
100
AcDbZombieObject
 90
      499
 91
      509
 93
      476
310
41921A5919195B90640502408333333333333E3BF0000000000000FB01079024090700405020000000000001110200405405064090740C02480A0340
1001
ACAD
1000
AcDbSavedByObjectVersion
1070
     0
  0
ACAD_PROXY_OBJECT
  5
A20F
102
{ACAD_REACTORS
330
9550
102
}
330
9550
100
AcDbZombieObject
 90
      499
 91
      509
 93
      428
310
42529A5D1D195C93D999914409028333333333333E3BF0000000000000FB010790141107004050150A41D405064090741402480A0350
1001
ACAD
1000
AcDbSavedByObjectVersion
1070
     0
  0
ACAD_PROXY_OBJECT
  5
955E
102
{ACAD_REACTORS
330
9550
102
}
330
9550
100
AcDbZombieObject
 90
      499
 91
      509
 93
      444
310
42D31A5B995C185D1D195C9B90E409028333333333333E3BF0000000000000FB010790141107004050750841D405064090741402483A0350
1001
ACAD
1000
AcDbSavedByObjectVersion
1070
     0
  0
ACAD_PROXY_OBJECT
  5
A266
102
{ACAD_REACTORS
330
9550
102
}
330
9550
100
AcDbZombieObject
 90
      499
 91
      509
 93
      484
310
42135BD9195B1A5B99D0A409028333333333333E3BF0000000000000F901074090290700405010000000000201990108421405064090741402480A1B40
1001
ACAD
1000
AcDbSavedByObjectVersion
1070
     0
  0
ACAD_PROXY_OBJECT
  5
A210
102
{ACAD_REACTORS
330
9550
102
}
330
9550
100
AcDbZombieObject
 90
      499
 91
      509
 93
      444
310
42D3DD995C9A185B99D3D999915409028333333333333E3BF0000000000000FB010790141107004050150941D405064090741402480A0350
1001
ACAD
1000
AcDbSavedByObjectVersion
1070
     0
  0
ACAD_PROXY_OBJECT
  5
955A
102
{ACAD_REACTORS
330
9550
102
}
330
9550
100
AcDbZombieObject
 90
      499
 91
      509
 93
      420
310
425499585B1A5CDD1A58D08409028333333333333E3BF0000000000000FB01079019070040501508421405064090741402480A1B40
1001
ACAD
1000
AcDbSavedByObjectVersion
1070
     0
  0
ACAD_PROXY_OBJECT
  5
A265
102
{ACAD_REACTORS
330
9550
102
}
330
9550
100
AcDbZombieObject
 90
      499
 91
      509
 93
      420
310
4194DA1859195911B40902404333333333333E3BF0000000000000F9010740A41107004050150800405405064090840C02480A0B40
1001
ACAD
1000
AcDbSavedByObjectVersion
1070
     0
  0
ACAD_PROXY_OBJECT
  5
A264
102
{ACAD_REACTORS
330
9550
102
}
330
9550
100
AcDbZombieObject
 90
      499
 91
      509
 93
      516
310
4454DA18591959081DDA5D1A08195919D95CD1A40902404333333333333E3BF0000000000000F901074090142907004050250800405405064090740C02480A0B40
1001
ACAD
1000
AcDbSavedByObjectVersion
1070
     0
  0
ACAD_PROXY_OBJECT
  5
A261
102
{ACAD_REACTORS
330
9550
102
}
330
9550
100
AcDbZombieObject
 90
      499
 91
      509
 93
      532
310
4394DA1859195CC81BD98811DC985E5174090240C333333333333E3BF0000000000000FB01079024090741D01000000000000111010841D405064090740C02480A0340
1001
ACAD
1000
AcDbSavedByObjectVersion
1070
     0
  0
ACAD_PROXY_OBJECT
  5
A262
102
{ACAD_REACTORS
330
9550
102
}
330
9550
100
AcDbZombieObject
 90
      499
 91
      509
 93
      476
310
41D4DAD95D18DA1E51840502408333333333333E3BF0000000000000FB01079024090741D01000000000000111010B41D405064090741802480A0340
1001
ACAD
1000
AcDbSavedByObjectVersion
1070
     0
  0
ACAD_PROXY_OBJECT
  5
955D
102
{ACAD_REACTORS
330
9550
102
}
330
9550
100
AcDbZombieObject
 90
      499
 91
      509
 93
      412
310
41D51A1A58DAD95B90D409028333333333333E3BF0000000000000FB010790141107004050150C41D405064090741402480A0350
1001
ACAD
1000
AcDbSavedByObjectVersion
1070
     0
  0
ACAD_PROXY_OBJECT
  5
A25F
102
{ACAD_REACTORS
330
9550
102
}
330
9550
100
AcDbZombieObject
 90
      499
 91
      509
 93
      420
310
4255DA5C99599C985B595059028333333333333E3BF0000000000000FB0107901411070040501600405405064090740C02480A0340
1001
ACAD
1000
AcDbSavedByObjectVersion
1070
     0
  0
ACAD_PROXY_OBJECT
  5
A263
102
{ACAD_REACTORS
330
9550
102
}
330
9550
100
AcDbZombieObject
 90
      499
 91
      509
 93
      404
310
41560B54985E51940902404000000000000E03F0000000000000FB010740501907004050150841D405064090740C02480A1B40
1001
ACAD
1000
AcDbSavedByObjectVersion
1070
     0
  0
XRECORD
  5
117CD
102
{ACAD_REACTORS
330
117CC
102
}
330
117CC
100
AcDbXrecord
340
18D
  0
XRECORD
  5
117CE
102
{ACAD_REACTORS
330
117CC
102
}
330
117CC
100
AcDbXrecord
340
18C
  0
DICTIONARYVAR
  5
AAE0
102
{ACAD_REACTORS
330
37
102
}
330
37
100
DictionaryVariables
280
     0
  1
1:1
  0
DICTIONARYVAR
  5
9627
102
{ACAD_REACTORS
330
37
102
}
330
37
100
DictionaryVariables
280
     0
  1
Standard
  0
DICTIONARYVAR
  5
29E
102
{ACAD_REACTORS
330
37
102
}
330
37
100
DictionaryVariables
280
     0
  1
Standard
  0
DICTIONARYVAR
  5
38
102
{ACAD_REACTORS
330
37
102
}
330
37
100
DictionaryVariables
280
     0
  1
-1
  0
DICTIONARYVAR
  5
1CE
102
{ACAD_REACTORS
330
37
102
}
330
37
100
DictionaryVariables
280
     0
  1
2
  0
DICTIONARYVAR
  5
704E
102
{ACAD_REACTORS
330
37
102
}
330
37
100
DictionaryVariables
280
     0
  1
1
  0
DICTIONARYVAR
  5
962A
102
{ACAD_REACTORS
330
37
102
}
330
37
100
DictionaryVariables
280
     0
  1
0
  0
DICTIONARYVAR
  5
7052
102
{ACAD_REACTORS
330
37
102
}
330
37
100
DictionaryVariables
280
     0
  1
8
  0
DICTIONARYVAR
  5
7051
102
{ACAD_REACTORS
330
37
102
}
330
37
100
DictionaryVariables
280
     0
  1
1
  0
DICTIONARYVAR
  5
AB30
102
{ACAD_REACTORS
330
37
102
}
330
37
100
DictionaryVariables
280
     0
  1
0
  0
DICTIONARYVAR
  5
704F
102
{ACAD_REACTORS
330
37
102
}
330
37
100
DictionaryVariables
280
     0
  1
8
  0
DICTIONARYVAR
  5
7050
102
{ACAD_REACTORS
330
37
102
}
330
37
100
DictionaryVariables
280
     0
  1
2
  0
DICTIONARYVAR
  5
1CF
102
{ACAD_REACTORS
330
37
102
}
330
37
100
DictionaryVariables
280
     0
  1

  0
DICTIONARYVAR
  5
9629
102
{ACAD_REACTORS
330
37
102
}
330
37
100
DictionaryVariables
280
     0
  1
127
  0
DICTIONARYVAR
  5
115EE
102
{ACAD_REACTORS
330
37
102
}
330
37
100
DictionaryVariables
280
     0
  1
2
  0
DICTIONARY
  5
1196A
330
9540
100
AcDbDictionary
  3
ACAD_XREC_ROUNDTRIP
360
1196B
1001
ACAD
1000
TREAT_AS_HARD
1070
     1
  0
DICTIONARY
  5
1196C
330
9538
100
AcDbDictionary
  3
ACAD_XREC_ROUNDTRIP
360
1196D
1001
ACAD
1000
TREAT_AS_HARD
1070
     1
  0
DICTIONARY
  5
1196E
330
9548
100
AcDbDictionary
  3
ACAD_XREC_ROUNDTRIP
360
1196F
1001
ACAD
1000
TREAT_AS_HARD
1070
     1
  0
XRECORD
  5
1196B
102
{ACAD_REACTORS
330
1196A
102
}
330
1196A
100
AcDbXrecord
102
MATERIAL
148
0.0
149
0.0
149
0.0
 93
        0
 94
      127
282
     0
 72
     0
 77
     0
171
     0
175
     0
179
     0
273
     0
  0
XRECORD
  5
1196D
102
{ACAD_REACTORS
330
1196C
102
}
330
1196C
100
AcDbXrecord
102
MATERIAL
148
0.0
149
0.0
149
0.0
 93
        0
 94
      127
282
     0
 72
     0
 77
     0
171
     0
175
     0
179
     0
273
     0
  0
XRECORD
  5
1196F
102
{ACAD_REACTORS
330
1196E
102
}
330
1196E
100
AcDbXrecord
102
MATERIAL
148
0.0
149
0.0
149
0.0
 93
        0
 94
      127
282
     0
 72
     0
 77
     0
171
     0
175
     0
179
     0
273
     0
  0
ENDSEC
  0
EOF
