  0
SECTION
  2
HEADER
  9
$ACADVER
  1
AC1009
  9
$INSBASE
 10
0.0
 20
0.0
 30
0.0
  9
$EXTMIN
 10
544.93767316632443
 20
8043.6375197264952
 30
0.0
  9
$EXTMAX
 10
1149.73778150607
 20
8447.4734597248535
 30
0.0
  9
$LIMMIN
 10
0.0
 20
0.0
  9
$LIMMAX
 10
420.0
 20
297.0
  9
$ORTHOMODE
 70
     0
  9
$REGENMODE
 70
     1
  9
$FILLMODE
 70
     1
  9
$QTEXTMODE
 70
     0
  9
$MIRRTEXT
 70
     0
  9
$DRAGMODE
 70
     2
  9
$LTSCALE
 40
0.5
  9
$OSMODE
 70
  2175
  9
$ATTMODE
 70
     1
  9
$TEXTSIZE
 40
4.0
  9
$TRACEWID
 40
1.0
  9
$TEXTSTYLE
  7
STANDARD
  9
$CLAYER
  8
1TEXT
  9
$CELTYPE
  6
BYLAYER
  9
$CECOLOR
 62
   256
  9
$DIMSCALE
 40
1.0
  9
$DIMASZ
 40
2.0
  9
$DIMEXO
 40
0.0
  9
$DIMDLI
 40
7.0
  9
$DIMRND
 40
0.0
  9
$DIMDLE
 40
0.0
  9
$DIMEXE
 40
1.0
  9
$DIMTP
 40
0.0
  9
$DIMTM
 40
0.0
  9
$DIMTXT
 40
3.5
  9
$DIMCEN
 40
0.0
  9
$DIMTSZ
 40
0.0
  9
$DIMTOL
 70
     0
  9
$DIMLIM
 70
     0
  9
$DIMTIH
 70
     0
  9
$DIMTOH
 70
     0
  9
$DIMSE1
 70
     0
  9
$DIMSE2
 70
     0
  9
$DIMTAD
 70
     1
  9
$DIMZIN
 70
     8
  9
$DIMBLK
  1

  9
$DIMASO
 70
     1
  9
$DIMSHO
 70
     1
  9
$DIMPOST
  1
 
  9
$DIMAPOST
  1

  9
$DIMALT
 70
     0
  9
$DIMALTD
 70
     2
  9
$DIMALTF
 40
25.399999999999999
  9
$DIMLFAC
 40
1.0
  9
$DIMTOFL
 70
     1
  9
$DIMTVP
 40
0.0
  9
$DIMTIX
 70
     0
  9
$DIMSOXD
 70
     0
  9
$DIMSAH
 70
     1
  9
$DIMBLK1
  1
OPEN30
  9
$DIMBLK2
  1
OPEN30
  9
$DIMSTYLE
  2
NEWX10
  9
$DIMCLRD
 70
   256
  9
$DIMCLRE
 70
   256
  9
$DIMCLRT
 70
   201
  9
$DIMTFAC
 40
0.7
  9
$DIMGAP
 40
0.7
  9
$LUNITS
 70
     2
  9
$LUPREC
 70
     4
  9
$SKETCHINC
 40
1.0
  9
$FILLETRAD
 40
0.5
  9
$AUNITS
 70
     0
  9
$AUPREC
 70
     2
  9
$MENU
  1
acad
  9
$ELEVATION
 40
0.0
  9
$PELEVATION
 40
0.0
  9
$THICKNESS
 40
0.0
  9
$LIMCHECK
 70
     0
  9
$BLIPMODE
 70
     0
  9
$CHAMFERA
 40
10.0
  9
$CHAMFERB
 40
10.0
  9
$SKPOLY
 70
     0
  9
$TDCREATE
 40
2451318.621352917
  9
$TDUPDATE
 40
2456015.8046976272
  9
$TDINDWG
 40
0.6420967824
  9
$TDUSRTIMER
 40
0.6420967824
  9
$USRTIMER
 70
     1
  9
$ANGBASE
 50
0.0
  9
$ANGDIR
 70
     0
  9
$PDMODE
 70
     0
  9
$PDSIZE
 40
0.0
  9
$PLINEWID
 40
0.0
  9
$COORDS
 70
     2
  9
$SPLFRAME
 70
     0
  9
$SPLINETYPE
 70
     6
  9
$SPLINESEGS
 70
     8
  9
$ATTDIA
 70
     0
  9
$ATTREQ
 70
     1
  9
$HANDLING
 70
     1
  9
$HANDSEED
  5
16B4E
  9
$SURFTAB1
 70
     6
  9
$SURFTAB2
 70
     6
  9
$SURFTYPE
 70
     6
  9
$SURFU
 70
     6
  9
$SURFV
 70
     6
  9
$UCSNAME
  2

  9
$UCSORG
 10
0.0
 20
0.0
 30
0.0
  9
$UCSXDIR
 10
1.0
 20
0.0
 30
0.0
  9
$UCSYDIR
 10
0.0
 20
1.0
 30
0.0
  9
$PUCSNAME
  2

  9
$PUCSORG
 10
0.0
 20
0.0
 30
0.0
  9
$PUCSXDIR
 10
1.0
 20
0.0
 30
0.0
  9
$PUCSYDIR
 10
0.0
 20
1.0
 30
0.0
  9
$USERI1
 70
     0
  9
$USERI2
 70
     0
  9
$USERI3
 70
     0
  9
$USERI4
 70
     0
  9
$USERI5
 70
     0
  9
$USERR1
 40
0.0
  9
$USERR2
 40
0.0
  9
$USERR3
 40
0.0
  9
$USERR4
 40
0.0
  9
$USERR5
 40
0.0
  9
$WORLDVIEW
 70
     1
  9
$SHADEDGE
 70
     3
  9
$SHADEDIF
 70
    70
  9
$TILEMODE
 70
     1
  9
$MAXACTVP
 70
    48
  9
$PLIMCHECK
 70
     0
  9
$PEXTMIN
 10
1.0000000000000000E+020
 20
1.0000000000000000E+020
 30
1.0000000000000000E+020
  9
$PEXTMAX
 10
-1.0000000000000000E+020
 20
-1.0000000000000000E+020
 30
-1.0000000000000000E+020
  9
$PLIMMIN
 10
0.0
 20
0.0
  9
$PLIMMAX
 10
420.0
 20
297.0
  9
$UNITMODE
 70
     0
  9
$VISRETAIN
 70
     1
  9
$PLINEGEN
 70
     0
  9
$PSLTSCALE
 70
     1
  0
ENDSEC
  0
SECTION
  2
TABLES
  0
TABLE
  2
VPORT
 70
     1
  0
VPORT
  2
*ACTIVE
 70
     0
 10
0.0
 20
0.0
 11
1.0
 21
1.0
 12
847.3210993561197
 22
8245.6833275018489
 13
0.0
 23
0.0
 14
10.0
 24
10.0
 15
10.0
 25
10.0
 16
0.0
 26
0.0
 36
1.0
 17
0.0
 27
0.0
 37
0.0
 40
428.8364617465183
 41
1.53950953678474
 42
50.0
 43
0.0
 44
0.0
 50
0.0
 51
0.0
 71
     0
 72
   100
 73
     1
 74
     1
 75
     0
 76
     0
 77
     0
 78
     0
  0
ENDTAB
  0
TABLE
  2
LTYPE
 70
    12
  0
LTYPE
  2
CONTINUOUS
 70
     0
  3
Solid line
 72
    65
 73
     0
 40
0.0
  0
LTYPE
  2
XREF1|CENTER2
 70
    48
  3
Center (.5x) ___ _ ___ _ ___ _ ___ _ ___ _ ___
 72
    65
 73
     4
 40
28.574999999999999
 49
19.050000000000001
 49
-3.1749999999999989
 49
3.1749999999999989
 49
-3.1749999999999989
  0
LTYPE
  2
A3WAKUDAKE|CENTER2
 70
    48
  3
Center (.5x) ___ _ ___ _ ___ _ ___ _ ___ _ ___
 72
    65
 73
     4
 40
28.574999999999999
 49
19.050000000000001
 49
-3.1749999999999989
 49
3.1749999999999989
 49
-3.1749999999999989
  0
ENDTAB
  0
TABLE
  2
LAYER
 70
    36
  0
LAYER
  2
0
 70
     0
 62
     7
  6
CONTINUOUS
  0
LAYER
  2
1TEXT
 70
     0
 62
     7
  6
CONTINUOUS
  0
LAYER
  2
01
 70
     0
 62
     1
  6
CONTINUOUS
  0
LAYER
  2
A3WAKUDAKE|THICK
 70
    48
 62
     7
  6
CONTINUOUS
  0
LAYER
  2
A3WAKUDAKE|POINT
 70
    48
 62
     7
  6
CONTINUOUS
  0
LAYER
  2
A3WAKUDAKE|1CENTER
 70
    48
 62
     7
  6
A3WAKUDAKE|CENTER2
  0
LAYER
  2
A3WAKUDAKE|0-6
 70
    48
 62
     7
  6
CONTINUOUS
  0
LAYER
  2
A3WAKUDAKE|1DIM
 70
    48
 62
     7
  6
CONTINUOUS
  0
LAYER
  2
XREF1|1CENTER
 70
    48
 62
     7
  6
XREF1|CENTER2
  0
ENDTAB
  0
TABLE
  2
STYLE
 70
     4
  0
STYLE
  2
STANDARD
 70
     0
 40
0.0
 41
1.0
 50
0.0
 71
     0
 42
4.0
  3
romans.shx
  4
extfont2.shx
  0
ENDTAB
  0
TABLE
  2
VIEW
 70
     5
  0
ENDTAB
  0
TABLE
  2
UCS
 70
     0
  0
ENDTAB
  0
TABLE
  2
APPID
 70
     9
  0
APPID
  2
ACAD
 70
     0
  0
APPID
  2
DRAWINGVARIABLESXDATA
 70
     0
  0
APPID
  2
CONTENTTABDATA
 70
     0
  0
APPID
  2
CONTENTCURRENTTAB
 70
     0
  0
APPID
  2
CONTENTBLOCKDESCRIPTION
 70
     0
  0
APPID
  2
CONTENTBLOCKICON
 70
     0
  0
APPID
  2
CONTENTLONGBLOCKNAME
 70
     0
  0
APPID
  2
ACAD_PSEXT
 70
     0
  0
APPID
  2
ACAD_MLEADERVER
 70
     0
  0
ENDTAB
  0
TABLE
  2
DIMSTYLE
 70
     5
  0
DIMSTYLE
  2
NEWX10
 70
     0
  3
 
  4

  5

  6
OPEN30
  7
OPEN30
 40
1.0
 41
2.0
 42
0.0
 43
7.0
 44
1.0
 45
0.0
 46
0.0
 47
0.0
 48
0.0
140
3.5
141
0.0
142
0.0
143
25.399999999999999
144
1.0
145
0.0
146
0.7
147
0.7
 71
     0
 72
     0
 73
     0
 74
     0
 75
     0
 76
     0
 77
     1
 78
     8
170
     0
171
     2
172
     1
173
     1
174
     0
175
     0
176
   256
177
   256
178
   201
  0
ENDTAB
  0
ENDSEC
  0
SECTION
  2
BLOCKS
  0
BLOCK
  8
0
  2
$MODEL_SPACE
 70
     0
 10
0.0
 20
0.0
 30
0.0
  3
$MODEL_SPACE
  1

  0
ENDBLK
  5
1A
  8
0
  0
BLOCK
 67
     1
  8
0
  2
$PAPER_SPACE
 70
     0
 10
0.0
 20
0.0
 30
0.0
  3
$PAPER_SPACE
  1

  0
ENDBLK
  5
17
 67
     1
  8
0
  0
BLOCK
  8
0
  2
_OPEN30
 70
     0
 10
0.0
 20
0.0
 30
0.0
  3
_OPEN30
  1

  0
LINE
  5
44
  8
0
  6
BYBLOCK
 62
     0
 10
-1.0
 20
0.26794919
 30
0.0
 11
0.0
 21
0.0
 31
0.0
  0
LINE
  5
45
  8
0
  6
BYBLOCK
 62
     0
 10
0.0
 20
0.0
 30
0.0
 11
-1.0
 21
-0.26794919
 31
0.0
  0
LINE
  5
46
  8
0
  6
BYBLOCK
 62
     0
 10
0.0
 20
0.0
 30
0.0
 11
-1.0
 21
0.0
 31
0.0
  0
ENDBLK
  5
47
  8
0
  0
BLOCK
  8
0
  2
XREF1
 70
    36
 10
0.0
 20
0.0
 30
0.0
  3
XREF1
  1
D:\ACLT\FORMAT\KAWAJUN(9)図面用.dwg
  0
ENDBLK
  5
5D
  8
0
  0
BLOCK
  8
0
  2
A3WAKUDAKE
 70
    36
 10
0.0
 20
0.0
 30
0.0
  3
A3WAKUDAKE
  1
D:\ACLT\FORMAT\A3WAKUdake.dwg
  0
ENDBLK
  5
6A0
  8
0
  0
BLOCK
  8
0
  2
*U21
 70
     1
 10
0.0
 20
0.0
 30
0.0
  3
*U21
  1

  0
TEXT
  5
16A3D
  8
1TEXT
 62
   201
 10
1043.348940108096
 20
8366.1401263921307
 30
0.0
 40
3.5
  1
20.5
 50
90.0
  0
ENDBLK
  5
16A3F
  8
0
  0
BLOCK
  8
0
  2
*U22
 70
     1
 10
0.0
 20
0.0
 30
0.0
  3
*U22
  1

  0
TEXT
  5
16A41
  8
1TEXT
 62
   201
 10
5506.9158361993859
 20
-1203.61055353047
 30
0.0
 40
4.5499999999999989
  1
20.5
 50
90.0
  0
ENDBLK
  5
16A43
  8
0
  0
ENDSEC
  0
SECTION
  2
ENTITIES
  0
LINE
  5
14989
  8
01
 10
854.18766916632489
 20
8190.970839726494
 30
0.0
 11
854.18766916632489
 21
8043.6375197264952
 31
0.0
  0
LINE
  5
1498A
  8
01
 10
814.18766916632489
 20
8190.970839726494
 30
0.0
 11
814.18766916632489
 21
8043.6375197264952
 31
0.0
  0
LINE
  5
1498B
  8
01
 10
712.78767516632536
 20
8184.4734597264951
 30
0.0
 11
712.78767516632536
 21
8161.3734897264949
 31
0.0
  0
LINE
  5
1498C
  8
01
 10
711.18766916632478
 20
8184.4734597264951
 30
0.0
 11
711.18766916632478
 21
8161.4734597264942
 31
0.0
  0
LINE
  5
1498D
  8
01
 10
713.58767816632565
 20
8184.4734597264951
 30
0.0
 11
713.58767816632565
 21
8054.4734597264942
 31
0.0
  0
LINE
  5
1498E
  8
01
 10
715.18766916632489
 20
8184.4734597264951
 30
0.0
 11
715.18766916632489
 21
8054.4734597264942
 31
0.0
  0
LINE
  5
14990
  8
01
 10
712.18766916632478
 20
8082.4734597264951
 30
0.0
 11
683.39704587862343
 21
8082.4734597264951
 31
0.0
  0
LINE
  5
14992
  8
01
 10
721.18766916632296
 20
8130.4734597264933
 30
0.0
 11
715.18766916632489
 21
8130.4734597264933
 31
0.0
  0
LINE
  5
14993
  8
01
 10
726.18766916632489
 20
8125.4734597264942
 30
0.0
 11
716.18766916632478
 21
8125.4734597264942
 31
0.0
  0
POLYLINE
  5
14994
  8
01
 10
726.18766916632489
 20
8126.9050397264937
 30
0.0
 66
     1
 70
     8
  0
VERTEX
  8
01
  5
16A4A
 10
726.188
 20
8126.91
 30
0.000000
  70
    32
  0
VERTEX
  8
01
  5
16A4B
 10
726.186
 20
8126.99
 30
0.000000
  70
    32
  0
VERTEX
  8
01
  5
16A4C
 10
726.182
 20
8127.08
 30
0.000000
  70
    32
  0
VERTEX
  8
01
  5
16A4D
 10
726.174
 20
8127.17
 30
0.000000
  70
    32
  0
VERTEX
  8
01
  5
16A4E
 10
726.164
 20
8127.25
 30
0.000000
  70
    32
  0
VERTEX
  8
01
  5
16A4F
 10
726.150
 20
8127.34
 30
0.000000
  70
    32
  0
VERTEX
  8
01
  5
16A50
 10
726.134
 20
8127.43
 30
0.000000
  70
    32
  0
VERTEX
  8
01
  5
16A51
 10
726.114
 20
8127.52
 30
0.000000
  70
    32
  0
VERTEX
  8
01
  5
16A52
 10
726.092
 20
8127.60
 30
0.000000
  70
    32
  0
VERTEX
  8
01
  5
16A53
 10
726.066
 20
8127.69
 30
0.000000
  70
    32
  0
VERTEX
  8
01
  5
16A54
 10
726.038
 20
8127.77
 30
0.000000
  70
    32
  0
VERTEX
  8
01
  5
16A55
 10
726.007
 20
8127.86
 30
0.000000
  70
    32
  0
VERTEX
  8
01
  5
16A56
 10
725.972
 20
8127.94
 30
0.000000
  70
    32
  0
VERTEX
  8
01
  5
16A57
 10
725.935
 20
8128.02
 30
0.000000
  70
    32
  0
VERTEX
  8
01
  5
16A58
 10
725.895
 20
8128.11
 30
0.000000
  70
    32
  0
VERTEX
  8
01
  5
16A59
 10
725.853
 20
8128.19
 30
0.000000
  70
    32
  0
VERTEX
  8
01
  5
16A5A
 10
725.807
 20
8128.27
 30
0.000000
  70
    32
  0
VERTEX
  8
01
  5
16A5B
 10
725.759
 20
8128.35
 30
0.000000
  70
    32
  0
VERTEX
  8
01
  5
16A5C
 10
725.708
 20
8128.43
 30
0.000000
  70
    32
  0
VERTEX
  8
01
  5
16A5D
 10
725.654
 20
8128.51
 30
0.000000
  70
    32
  0
VERTEX
  8
01
  5
16A5E
 10
725.597
 20
8128.59
 30
0.000000
  70
    32
  0
VERTEX
  8
01
  5
16A5F
 10
725.538
 20
8128.66
 30
0.000000
  70
    32
  0
VERTEX
  8
01
  5
16A60
 10
725.476
 20
8128.74
 30
0.000000
  70
    32
  0
VERTEX
  8
01
  5
16A61
 10
725.412
 20
8128.81
 30
0.000000
  70
    32
  0
VERTEX
  8
01
  5
16A62
 10
725.345
 20
8128.89
 30
0.000000
  70
    32
  0
VERTEX
  8
01
  5
16A63
 10
725.276
 20
8128.96
 30
0.000000
  70
    32
  0
VERTEX
  8
01
  5
16A64
 10
725.204
 20
8129.03
 30
0.000000
  70
    32
  0
VERTEX
  8
01
  5
16A65
 10
725.129
 20
8129.10
 30
0.000000
  70
    32
  0
VERTEX
  8
01
  5
16A66
 10
725.053
 20
8129.17
 30
0.000000
  70
    32
  0
VERTEX
  8
01
  5
16A67
 10
724.974
 20
8129.24
 30
0.000000
  70
    32
  0
VERTEX
  8
01
  5
16A68
 10
724.892
 20
8129.30
 30
0.000000
  70
    32
  0
VERTEX
  8
01
  5
16A69
 10
724.809
 20
8129.37
 30
0.000000
  70
    32
  0
VERTEX
  8
01
  5
16A6A
 10
724.723
 20
8129.43
 30
0.000000
  70
    32
  0
VERTEX
  8
01
  5
16A6B
 10
724.635
 20
8129.49
 30
0.000000
  70
    32
  0
VERTEX
  8
01
  5
16A6C
 10
724.545
 20
8129.55
 30
0.000000
  70
    32
  0
VERTEX
  8
01
  5
16A6D
 10
724.454
 20
8129.61
 30
0.000000
  70
    32
  0
VERTEX
  8
01
  5
16A6E
 10
724.360
 20
8129.66
 30
0.000000
  70
    32
  0
VERTEX
  8
01
  5
16A6F
 10
724.264
 20
8129.72
 30
0.000000
  70
    32
  0
VERTEX
  8
01
  5
16A70
 10
724.166
 20
8129.77
 30
0.000000
  70
    32
  0
VERTEX
  8
01
  5
16A71
 10
724.067
 20
8129.82
 30
0.000000
  70
    32
  0
VERTEX
  8
01
  5
16A72
 10
723.966
 20
8129.87
 30
0.000000
  70
    32
  0
VERTEX
  8
01
  5
16A73
 10
723.863
 20
8129.92
 30
0.000000
  70
    32
  0
VERTEX
  8
01
  5
16A74
 10
723.758
 20
8129.97
 30
0.000000
  70
    32
  0
VERTEX
  8
01
  5
16A75
 10
723.652
 20
8130.01
 30
0.000000
  70
    32
  0
VERTEX
  8
01
  5
16A76
 10
723.545
 20
8130.05
 30
0.000000
  70
    32
  0
VERTEX
  8
01
  5
16A77
 10
723.436
 20
8130.09
 30
0.000000
  70
    32
  0
VERTEX
  8
01
  5
16A78
 10
723.325
 20
8130.13
 30
0.000000
  70
    32
  0
VERTEX
  8
01
  5
16A79
 10
723.214
 20
8130.17
 30
0.000000
  70
    32
  0
VERTEX
  8
01
  5
16A7A
 10
723.101
 20
8130.20
 30
0.000000
  70
    32
  0
VERTEX
  8
01
  5
16A7B
 10
722.987
 20
8130.23
 30
0.000000
  70
    32
  0
VERTEX
  8
01
  5
16A7C
 10
722.872
 20
8130.26
 30
0.000000
  70
    32
  0
VERTEX
  8
01
  5
16A7D
 10
722.756
 20
8130.29
 30
0.000000
  70
    32
  0
VERTEX
  8
01
  5
16A7E
 10
722.639
 20
8130.32
 30
0.000000
  70
    32
  0
VERTEX
  8
01
  5
16A7F
 10
722.521
 20
8130.34
 30
0.000000
  70
    32
  0
VERTEX
  8
01
  5
16A80
 10
722.403
 20
8130.37
 30
0.000000
  70
    32
  0
VERTEX
  8
01
  5
16A81
 10
722.283
 20
8130.39
 30
0.000000
  70
    32
  0
VERTEX
  8
01
  5
16A82
 10
722.163
 20
8130.40
 30
0.000000
  70
    32
  0
VERTEX
  8
01
  5
16A83
 10
722.042
 20
8130.42
 30
0.000000
  70
    32
  0
VERTEX
  8
01
  5
16A84
 10
721.921
 20
8130.43
 30
0.000000
  70
    32
  0
VERTEX
  8
01
  5
16A85
 10
721.800
 20
8130.45
 30
0.000000
  70
    32
  0
VERTEX
  8
01
  5
16A86
 10
721.678
 20
8130.46
 30
0.000000
  70
    32
  0
VERTEX
  8
01
  5
16A87
 10
721.555
 20
8130.46
 30
0.000000
  70
    32
  0
VERTEX
  8
01
  5
16A88
 10
721.433
 20
8130.47
 30
0.000000
  70
    32
  0
VERTEX
  8
01
  5
16A89
 10
721.310
 20
8130.47
 30
0.000000
  70
    32
  0
VERTEX
  8
01
  5
16A8A
 10
721.188
 20
8130.47
 30
0.000000
  70
    32
  0
VERTEX
  8
01
  5
16A8B
 10
721.065
 20
8130.47
 30
0.000000
  70
    32
  0
VERTEX
  8
01
  5
16A8C
 10
720.942
 20
8130.47
 30
0.000000
  70
    32
  0
VERTEX
  8
01
  5
16A8D
 10
720.820
 20
8130.46
 30
0.000000
  70
    32
  0
VERTEX
  8
01
  5
16A8E
 10
720.698
 20
8130.46
 30
0.000000
  70
    32
  0
VERTEX
  8
01
  5
16A8F
 10
720.576
 20
8130.45
 30
0.000000
  70
    32
  0
VERTEX
  8
01
  5
16A90
 10
720.454
 20
8130.43
 30
0.000000
  70
    32
  0
VERTEX
  8
01
  5
16A91
 10
720.333
 20
8130.42
 30
0.000000
  70
    32
  0
VERTEX
  8
01
  5
16A92
 10
720.212
 20
8130.40
 30
0.000000
  70
    32
  0
VERTEX
  8
01
  5
16A93
 10
720.092
 20
8130.39
 30
0.000000
  70
    32
  0
VERTEX
  8
01
  5
16A94
 10
719.973
 20
8130.37
 30
0.000000
  70
    32
  0
VERTEX
  8
01
  5
16A95
 10
719.854
 20
8130.34
 30
0.000000
  70
    32
  0
VERTEX
  8
01
  5
16A96
 10
719.736
 20
8130.32
 30
0.000000
  70
    32
  0
VERTEX
  8
01
  5
16A97
 10
719.619
 20
8130.29
 30
0.000000
  70
    32
  0
VERTEX
  8
01
  5
16A98
 10
719.503
 20
8130.26
 30
0.000000
  70
    32
  0
VERTEX
  8
01
  5
16A99
 10
719.388
 20
8130.23
 30
0.000000
  70
    32
  0
VERTEX
  8
01
  5
16A9A
 10
719.274
 20
8130.20
 30
0.000000
  70
    32
  0
VERTEX
  8
01
  5
16A9B
 10
719.161
 20
8130.17
 30
0.000000
  70
    32
  0
VERTEX
  8
01
  5
16A9C
 10
719.050
 20
8130.13
 30
0.000000
  70
    32
  0
VERTEX
  8
01
  5
16A9D
 10
718.940
 20
8130.09
 30
0.000000
  70
    32
  0
VERTEX
  8
01
  5
16A9E
 10
718.831
 20
8130.05
 30
0.000000
  70
    32
  0
VERTEX
  8
01
  5
16A9F
 10
718.723
 20
8130.01
 30
0.000000
  70
    32
  0
VERTEX
  8
01
  5
16AA0
 10
718.617
 20
8129.97
 30
0.000000
  70
    32
  0
VERTEX
  8
01
  5
16AA1
 10
718.513
 20
8129.92
 30
0.000000
  70
    32
  0
VERTEX
  8
01
  5
16AA2
 10
718.410
 20
8129.87
 30
0.000000
  70
    32
  0
VERTEX
  8
01
  5
16AA3
 10
718.309
 20
8129.82
 30
0.000000
  70
    32
  0
VERTEX
  8
01
  5
16AA4
 10
718.209
 20
8129.77
 30
0.000000
  70
    32
  0
VERTEX
  8
01
  5
16AA5
 10
718.112
 20
8129.72
 30
0.000000
  70
    32
  0
VERTEX
  8
01
  5
16AA6
 10
718.016
 20
8129.66
 30
0.000000
  70
    32
  0
VERTEX
  8
01
  5
16AA7
 10
717.922
 20
8129.61
 30
0.000000
  70
    32
  0
VERTEX
  8
01
  5
16AA8
 10
717.830
 20
8129.55
 30
0.000000
  70
    32
  0
VERTEX
  8
01
  5
16AA9
 10
717.740
 20
8129.49
 30
0.000000
  70
    32
  0
VERTEX
  8
01
  5
16AAA
 10
717.652
 20
8129.43
 30
0.000000
  70
    32
  0
VERTEX
  8
01
  5
16AAB
 10
717.566
 20
8129.37
 30
0.000000
  70
    32
  0
VERTEX
  8
01
  5
16AAC
 10
717.483
 20
8129.30
 30
0.000000
  70
    32
  0
VERTEX
  8
01
  5
16AAD
 10
717.402
 20
8129.24
 30
0.000000
  70
    32
  0
VERTEX
  8
01
  5
16AAE
 10
717.323
 20
8129.17
 30
0.000000
  70
    32
  0
VERTEX
  8
01
  5
16AAF
 10
717.246
 20
8129.10
 30
0.000000
  70
    32
  0
VERTEX
  8
01
  5
16AB0
 10
717.172
 20
8129.03
 30
0.000000
  70
    32
  0
VERTEX
  8
01
  5
16AB1
 10
717.100
 20
8128.96
 30
0.000000
  70
    32
  0
VERTEX
  8
01
  5
16AB2
 10
717.030
 20
8128.89
 30
0.000000
  70
    32
  0
VERTEX
  8
01
  5
16AB3
 10
716.963
 20
8128.81
 30
0.000000
  70
    32
  0
VERTEX
  8
01
  5
16AB4
 10
716.899
 20
8128.74
 30
0.000000
  70
    32
  0
VERTEX
  8
01
  5
16AB5
 10
716.837
 20
8128.66
 30
0.000000
  70
    32
  0
VERTEX
  8
01
  5
16AB6
 10
716.778
 20
8128.59
 30
0.000000
  70
    32
  0
VERTEX
  8
01
  5
16AB7
 10
716.722
 20
8128.51
 30
0.000000
  70
    32
  0
VERTEX
  8
01
  5
16AB8
 10
716.668
 20
8128.43
 30
0.000000
  70
    32
  0
VERTEX
  8
01
  5
16AB9
 10
716.617
 20
8128.35
 30
0.000000
  70
    32
  0
VERTEX
  8
01
  5
16ABA
 10
716.568
 20
8128.27
 30
0.000000
  70
    32
  0
VERTEX
  8
01
  5
16ABB
 10
716.523
 20
8128.19
 30
0.000000
  70
    32
  0
VERTEX
  8
01
  5
16ABC
 10
716.480
 20
8128.11
 30
0.000000
  70
    32
  0
VERTEX
  8
01
  5
16ABD
 10
716.440
 20
8128.02
 30
0.000000
  70
    32
  0
VERTEX
  8
01
  5
16ABE
 10
716.403
 20
8127.94
 30
0.000000
  70
    32
  0
VERTEX
  8
01
  5
16ABF
 10
716.369
 20
8127.86
 30
0.000000
  70
    32
  0
VERTEX
  8
01
  5
16AC0
 10
716.338
 20
8127.77
 30
0.000000
  70
    32
  0
VERTEX
  8
01
  5
16AC1
 10
716.309
 20
8127.69
 30
0.000000
  70
    32
  0
VERTEX
  8
01
  5
16AC2
 10
716.284
 20
8127.60
 30
0.000000
  70
    32
  0
VERTEX
  8
01
  5
16AC3
 10
716.261
 20
8127.52
 30
0.000000
  70
    32
  0
VERTEX
  8
01
  5
16AC4
 10
716.242
 20
8127.43
 30
0.000000
  70
    32
  0
VERTEX
  8
01
  5
16AC5
 10
716.225
 20
8127.34
 30
0.000000
  70
    32
  0
VERTEX
  8
01
  5
16AC6
 10
716.212
 20
8127.25
 30
0.000000
  70
    32
  0
VERTEX
  8
01
  5
16AC7
 10
716.201
 20
8127.17
 30
0.000000
  70
    32
  0
VERTEX
  8
01
  5
16AC8
 10
716.194
 20
8127.08
 30
0.000000
  70
    32
  0
VERTEX
  8
01
  5
16AC9
 10
716.189
 20
8126.99
 30
0.000000
  70
    32
  0
VERTEX
  8
01
  5
16ACA
 10
716.188
 20
8126.91
 30
0.000000
  70
    32
  0
SEQEND
  8
01
  5
16ACB
  0
LINE
  5
14995
  8
01
 10
721.18766916632489
 20
8110.4734597264942
 30
0.0
 11
715.18766916632489
 21
8110.4734597264942
 31
0.0
  0
LINE
  5
14996
  8
01
 10
726.18766916632489
 20
8115.4734597264942
 30
0.0
 11
716.18766916632478
 21
8115.4734597264942
 31
0.0
  0
POLYLINE
  5
14997
  8
01
 10
726.18766916632489
 20
8114.0418797264938
 30
0.0
 66
     1
 70
     8
  0
VERTEX
  8
01
  5
16ACC
 10
726.188
 20
8114.04
 30
0.000000
  70
    32
  0
VERTEX
  8
01
  5
16ACD
 10
726.186
 20
8113.95
 30
0.000000
  70
    32
  0
VERTEX
  8
01
  5
16ACE
 10
726.182
 20
8113.87
 30
0.000000
  70
    32
  0
VERTEX
  8
01
  5
16ACF
 10
726.174
 20
8113.78
 30
0.000000
  70
    32
  0
VERTEX
  8
01
  5
16AD0
 10
726.164
 20
8113.69
 30
0.000000
  70
    32
  0
VERTEX
  8
01
  5
16AD1
 10
726.150
 20
8113.61
 30
0.000000
  70
    32
  0
VERTEX
  8
01
  5
16AD2
 10
726.134
 20
8113.52
 30
0.000000
  70
    32
  0
VERTEX
  8
01
  5
16AD3
 10
726.114
 20
8113.43
 30
0.000000
  70
    32
  0
VERTEX
  8
01
  5
16AD4
 10
726.092
 20
8113.35
 30
0.000000
  70
    32
  0
VERTEX
  8
01
  5
16AD5
 10
726.066
 20
8113.26
 30
0.000000
  70
    32
  0
VERTEX
  8
01
  5
16AD6
 10
726.038
 20
8113.17
 30
0.000000
  70
    32
  0
VERTEX
  8
01
  5
16AD7
 10
726.007
 20
8113.09
 30
0.000000
  70
    32
  0
VERTEX
  8
01
  5
16AD8
 10
725.972
 20
8113.01
 30
0.000000
  70
    32
  0
VERTEX
  8
01
  5
16AD9
 10
725.935
 20
8112.92
 30
0.000000
  70
    32
  0
VERTEX
  8
01
  5
16ADA
 10
725.895
 20
8112.84
 30
0.000000
  70
    32
  0
VERTEX
  8
01
  5
16ADB
 10
725.853
 20
8112.76
 30
0.000000
  70
    32
  0
VERTEX
  8
01
  5
16ADC
 10
725.807
 20
8112.68
 30
0.000000
  70
    32
  0
VERTEX
  8
01
  5
16ADD
 10
725.759
 20
8112.60
 30
0.000000
  70
    32
  0
VERTEX
  8
01
  5
16ADE
 10
725.708
 20
8112.52
 30
0.000000
  70
    32
  0
VERTEX
  8
01
  5
16ADF
 10
725.654
 20
8112.44
 30
0.000000
  70
    32
  0
VERTEX
  8
01
  5
16AE0
 10
725.597
 20
8112.36
 30
0.000000
  70
    32
  0
VERTEX
  8
01
  5
16AE1
 10
725.538
 20
8112.28
 30
0.000000
  70
    32
  0
VERTEX
  8
01
  5
16AE2
 10
725.476
 20
8112.21
 30
0.000000
  70
    32
  0
VERTEX
  8
01
  5
16AE3
 10
725.412
 20
8112.13
 30
0.000000
  70
    32
  0
VERTEX
  8
01
  5
16AE4
 10
725.345
 20
8112.06
 30
0.000000
  70
    32
  0
VERTEX
  8
01
  5
16AE5
 10
725.276
 20
8111.99
 30
0.000000
  70
    32
  0
VERTEX
  8
01
  5
16AE6
 10
725.204
 20
8111.92
 30
0.000000
  70
    32
  0
VERTEX
  8
01
  5
16AE7
 10
725.129
 20
8111.85
 30
0.000000
  70
    32
  0
VERTEX
  8
01
  5
16AE8
 10
725.053
 20
8111.78
 30
0.000000
  70
    32
  0
VERTEX
  8
01
  5
16AE9
 10
724.974
 20
8111.71
 30
0.000000
  70
    32
  0
VERTEX
  8
01
  5
16AEA
 10
724.892
 20
8111.65
 30
0.000000
  70
    32
  0
VERTEX
  8
01
  5
16AEB
 10
724.809
 20
8111.58
 30
0.000000
  70
    32
  0
VERTEX
  8
01
  5
16AEC
 10
724.723
 20
8111.52
 30
0.000000
  70
    32
  0
VERTEX
  8
01
  5
16AED
 10
724.635
 20
8111.46
 30
0.000000
  70
    32
  0
VERTEX
  8
01
  5
16AEE
 10
724.545
 20
8111.40
 30
0.000000
  70
    32
  0
VERTEX
  8
01
  5
16AEF
 10
724.454
 20
8111.34
 30
0.000000
  70
    32
  0
VERTEX
  8
01
  5
16AF0
 10
724.360
 20
8111.28
 30
0.000000
  70
    32
  0
VERTEX
  8
01
  5
16AF1
 10
724.264
 20
8111.23
 30
0.000000
  70
    32
  0
VERTEX
  8
01
  5
16AF2
 10
724.166
 20
8111.18
 30
0.000000
  70
    32
  0
VERTEX
  8
01
  5
16AF3
 10
724.067
 20
8111.12
 30
0.000000
  70
    32
  0
VERTEX
  8
01
  5
16AF4
 10
723.966
 20
8111.07
 30
0.000000
  70
    32
  0
VERTEX
  8
01
  5
16AF5
 10
723.863
 20
8111.03
 30
0.000000
  70
    32
  0
VERTEX
  8
01
  5
16AF6
 10
723.758
 20
8110.98
 30
0.000000
  70
    32
  0
VERTEX
  8
01
  5
16AF7
 10
723.652
 20
8110.94
 30
0.000000
  70
    32
  0
VERTEX
  8
01
  5
16AF8
 10
723.545
 20
8110.89
 30
0.000000
  70
    32
  0
VERTEX
  8
01
  5
16AF9
 10
723.436
 20
8110.85
 30
0.000000
  70
    32
  0
VERTEX
  8
01
  5
16AFA
 10
723.325
 20
8110.82
 30
0.000000
  70
    32
  0
VERTEX
  8
01
  5
16AFB
 10
723.214
 20
8110.78
 30
0.000000
  70
    32
  0
VERTEX
  8
01
  5
16AFC
 10
723.101
 20
8110.75
 30
0.000000
  70
    32
  0
VERTEX
  8
01
  5
16AFD
 10
722.987
 20
8110.71
 30
0.000000
  70
    32
  0
VERTEX
  8
01
  5
16AFE
 10
722.872
 20
8110.68
 30
0.000000
  70
    32
  0
VERTEX
  8
01
  5
16AFF
 10
722.756
 20
8110.65
 30
0.000000
  70
    32
  0
VERTEX
  8
01
  5
16B00
 10
722.639
 20
8110.63
 30
0.000000
  70
    32
  0
VERTEX
  8
01
  5
16B01
 10
722.521
 20
8110.60
 30
0.000000
  70
    32
  0
VERTEX
  8
01
  5
16B02
 10
722.403
 20
8110.58
 30
0.000000
  70
    32
  0
VERTEX
  8
01
  5
16B03
 10
722.283
 20
8110.56
 30
0.000000
  70
    32
  0
VERTEX
  8
01
  5
16B04
 10
722.163
 20
8110.54
 30
0.000000
  70
    32
  0
VERTEX
  8
01
  5
16B05
 10
722.042
 20
8110.53
 30
0.000000
  70
    32
  0
VERTEX
  8
01
  5
16B06
 10
721.921
 20
8110.51
 30
0.000000
  70
    32
  0
VERTEX
  8
01
  5
16B07
 10
721.800
 20
8110.50
 30
0.000000
  70
    32
  0
VERTEX
  8
01
  5
16B08
 10
721.678
 20
8110.49
 30
0.000000
  70
    32
  0
VERTEX
  8
01
  5
16B09
 10
721.555
 20
8110.48
 30
0.000000
  70
    32
  0
VERTEX
  8
01
  5
16B0A
 10
721.433
 20
8110.48
 30
0.000000
  70
    32
  0
VERTEX
  8
01
  5
16B0B
 10
721.310
 20
8110.47
 30
0.000000
  70
    32
  0
VERTEX
  8
01
  5
16B0C
 10
721.188
 20
8110.47
 30
0.000000
  70
    32
  0
VERTEX
  8
01
  5
16B0D
 10
721.065
 20
8110.47
 30
0.000000
  70
    32
  0
VERTEX
  8
01
  5
16B0E
 10
720.942
 20
8110.48
 30
0.000000
  70
    32
  0
VERTEX
  8
01
  5
16B0F
 10
720.820
 20
8110.48
 30
0.000000
  70
    32
  0
VERTEX
  8
01
  5
16B10
 10
720.698
 20
8110.49
 30
0.000000
  70
    32
  0
VERTEX
  8
01
  5
16B11
 10
720.576
 20
8110.50
 30
0.000000
  70
    32
  0
VERTEX
  8
01
  5
16B12
 10
720.454
 20
8110.51
 30
0.000000
  70
    32
  0
VERTEX
  8
01
  5
16B13
 10
720.333
 20
8110.53
 30
0.000000
  70
    32
  0
VERTEX
  8
01
  5
16B14
 10
720.212
 20
8110.54
 30
0.000000
  70
    32
  0
VERTEX
  8
01
  5
16B15
 10
720.092
 20
8110.56
 30
0.000000
  70
    32
  0
VERTEX
  8
01
  5
16B16
 10
719.973
 20
8110.58
 30
0.000000
  70
    32
  0
VERTEX
  8
01
  5
16B17
 10
719.854
 20
8110.60
 30
0.000000
  70
    32
  0
VERTEX
  8
01
  5
16B18
 10
719.736
 20
8110.63
 30
0.000000
  70
    32
  0
VERTEX
  8
01
  5
16B19
 10
719.619
 20
8110.65
 30
0.000000
  70
    32
  0
VERTEX
  8
01
  5
16B1A
 10
719.503
 20
8110.68
 30
0.000000
  70
    32
  0
VERTEX
  8
01
  5
16B1B
 10
719.388
 20
8110.71
 30
0.000000
  70
    32
  0
VERTEX
  8
01
  5
16B1C
 10
719.274
 20
8110.75
 30
0.000000
  70
    32
  0
VERTEX
  8
01
  5
16B1D
 10
719.161
 20
8110.78
 30
0.000000
  70
    32
  0
VERTEX
  8
01
  5
16B1E
 10
719.050
 20
8110.82
 30
0.000000
  70
    32
  0
VERTEX
  8
01
  5
16B1F
 10
718.940
 20
8110.85
 30
0.000000
  70
    32
  0
VERTEX
  8
01
  5
16B20
 10
718.831
 20
8110.89
 30
0.000000
  70
    32
  0
VERTEX
  8
01
  5
16B21
 10
718.723
 20
8110.94
 30
0.000000
  70
    32
  0
VERTEX
  8
01
  5
16B22
 10
718.617
 20
8110.98
 30
0.000000
  70
    32
  0
VERTEX
  8
01
  5
16B23
 10
718.513
 20
8111.03
 30
0.000000
  70
    32
  0
VERTEX
  8
01
  5
16B24
 10
718.410
 20
8111.07
 30
0.000000
  70
    32
  0
VERTEX
  8
01
  5
16B25
 10
718.309
 20
8111.12
 30
0.000000
  70
    32
  0
VERTEX
  8
01
  5
16B26
 10
718.209
 20
8111.18
 30
0.000000
  70
    32
  0
VERTEX
  8
01
  5
16B27
 10
718.112
 20
8111.23
 30
0.000000
  70
    32
  0
VERTEX
  8
01
  5
16B28
 10
718.016
 20
8111.28
 30
0.000000
  70
    32
  0
VERTEX
  8
01
  5
16B29
 10
717.922
 20
8111.34
 30
0.000000
  70
    32
  0
VERTEX
  8
01
  5
16B2A
 10
717.830
 20
8111.40
 30
0.000000
  70
    32
  0
VERTEX
  8
01
  5
16B2B
 10
717.740
 20
8111.46
 30
0.000000
  70
    32
  0
VERTEX
  8
01
  5
16B2C
 10
717.652
 20
8111.52
 30
0.000000
  70
    32
  0
VERTEX
  8
01
  5
16B2D
 10
717.566
 20
8111.58
 30
0.000000
  70
    32
  0
VERTEX
  8
01
  5
16B2E
 10
717.483
 20
8111.65
 30
0.000000
  70
    32
  0
VERTEX
  8
01
  5
16B2F
 10
717.402
 20
8111.71
 30
0.000000
  70
    32
  0
VERTEX
  8
01
  5
16B30
 10
717.323
 20
8111.78
 30
0.000000
  70
    32
  0
VERTEX
  8
01
  5
16B31
 10
717.246
 20
8111.85
 30
0.000000
  70
    32
  0
VERTEX
  8
01
  5
16B32
 10
717.172
 20
8111.92
 30
0.000000
  70
    32
  0
VERTEX
  8
01
  5
16B33
 10
717.100
 20
8111.99
 30
0.000000
  70
    32
  0
VERTEX
  8
01
  5
16B34
 10
717.030
 20
8112.06
 30
0.000000
  70
    32
  0
VERTEX
  8
01
  5
16B35
 10
716.963
 20
8112.13
 30
0.000000
  70
    32
  0
VERTEX
  8
01
  5
16B36
 10
716.899
 20
8112.21
 30
0.000000
  70
    32
  0
VERTEX
  8
01
  5
16B37
 10
716.837
 20
8112.28
 30
0.000000
  70
    32
  0
VERTEX
  8
01
  5
16B38
 10
716.778
 20
8112.36
 30
0.000000
  70
    32
  0
VERTEX
  8
01
  5
16B39
 10
716.722
 20
8112.44
 30
0.000000
  70
    32
  0
VERTEX
  8
01
  5
16B3A
 10
716.668
 20
8112.52
 30
0.000000
  70
    32
  0
VERTEX
  8
01
  5
16B3B
 10
716.617
 20
8112.60
 30
0.000000
  70
    32
  0
VERTEX
  8
01
  5
16B3C
 10
716.568
 20
8112.68
 30
0.000000
  70
    32
  0
VERTEX
  8
01
  5
16B3D
 10
716.523
 20
8112.76
 30
0.000000
  70
    32
  0
VERTEX
  8
01
  5
16B3E
 10
716.480
 20
8112.84
 30
0.000000
  70
    32
  0
VERTEX
  8
01
  5
16B3F
 10
716.440
 20
8112.92
 30
0.000000
  70
    32
  0
VERTEX
  8
01
  5
16B40
 10
716.403
 20
8113.01
 30
0.000000
  70
    32
  0
VERTEX
  8
01
  5
16B41
 10
716.369
 20
8113.09
 30
0.000000
  70
    32
  0
VERTEX
  8
01
  5
16B42
 10
716.338
 20
8113.17
 30
0.000000
  70
    32
  0
VERTEX
  8
01
  5
16B43
 10
716.309
 20
8113.26
 30
0.000000
  70
    32
  0
VERTEX
  8
01
  5
16B44
 10
716.284
 20
8113.35
 30
0.000000
  70
    32
  0
VERTEX
  8
01
  5
16B45
 10
716.261
 20
8113.43
 30
0.000000
  70
    32
  0
VERTEX
  8
01
  5
16B46
 10
716.242
 20
8113.52
 30
0.000000
  70
    32
  0
VERTEX
  8
01
  5
16B47
 10
716.225
 20
8113.61
 30
0.000000
  70
    32
  0
VERTEX
  8
01
  5
16B48
 10
716.212
 20
8113.69
 30
0.000000
  70
    32
  0
VERTEX
  8
01
  5
16B49
 10
716.201
 20
8113.78
 30
0.000000
  70
    32
  0
VERTEX
  8
01
  5
16B4A
 10
716.194
 20
8113.87
 30
0.000000
  70
    32
  0
VERTEX
  8
01
  5
16B4B
 10
716.189
 20
8113.95
 30
0.000000
  70
    32
  0
VERTEX
  8
01
  5
16B4C
 10
716.188
 20
8114.04
 30
0.000000
  70
    32
  0
SEQEND
  8
01
  5
16B4D
  0
LINE
  5
14998
  8
01
 10
726.18766916632489
 20
8126.9050397264937
 30
0.0
 11
726.18766916632489
 21
8114.0418797264938
 31
0.0
  0
LINE
  5
14999
  8
01
 10
716.18766916632478
 20
8126.9050397264937
 30
0.0
 11
716.18766916632478
 21
8114.0418797264983
 31
0.0
  0
LINE
  5
1499A
  8
01
 10
712.18765416632527
 20
8160.4734597264942
 30
0.0
 11
711.18765416632516
 21
8161.4734597264942
 31
0.0
  0
LINE
  5
1499B
  8
01
 10
713.58767116632521
 20
8160.5734397264941
 30
0.0
 11
712.78769016632509
 21
8161.3734197264939
 31
0.0
  0
LINE
  5
1499C
  8
01
 10
713.58767116632521
 20
8078.373449726495
 30
0.0
 11
712.78766816632492
 21
8077.5734697264952
 31
0.0
  0
LINE
  5
1499D
  8
01
 10
712.18761616632514
 20
8078.4734297264949
 30
0.0
 11
711.18763116632465
 21
8077.4734297264949
 31
0.0
  0
LINE
  5
1499E
  8
01
 10
715.18766916632489
 20
8054.4734597264942
 30
0.0
 11
711.18766916632478
 21
8054.4734597264942
 31
0.0
  0
LINE
  5
1499F
  8
01
 10
712.78767516632536
 20
8054.4734597264942
 30
0.0
 11
712.78767516632536
 21
8077.5734697264952
 31
0.0
  0
LINE
  5
149A0
  8
01
 10
711.18766916632478
 20
8054.4734597264942
 30
0.0
 11
711.18766916632478
 21
8077.4734597264942
 31
0.0
  0
LINE
  5
149A1
  8
01
 10
712.18766916632478
 20
8160.4734597264942
 30
0.0
 11
712.18766916632478
 21
8078.4734597264933
 31
0.0
  0
LINE
  5
149A2
  8
01
 10
715.18766916632489
 20
8184.4734597264951
 30
0.0
 11
711.18766916632478
 21
8184.4734597264951
 31
0.0
  0
LINE
  5
149A5
  8
01
 10
821.68766916632478
 20
8178.4734597264951
 30
0.0
 11
821.68766916632478
 21
8060.4734597264933
 31
0.0
  0
LINE
  5
149A6
  8
01
 10
846.68766916632478
 20
8178.4734597264951
 30
0.0
 11
846.68766916632478
 21
8060.4734597264933
 31
0.0
  0
ARC
  5
149A7
  8
01
 10
840.68766916632489
 20
8060.4734597264933
 30
0.0
 40
6.0
 50
270.0
 51
0.0
  0
ARC
  5
149A8
  8
01
 10
827.68766916632489
 20
8060.4734597264933
 30
0.0
 40
6.0
 50
180.0
 51
270.0
  0
LINE
  5
149A9
  8
01
 10
841.93766916632489
 20
8126.9050397264937
 30
0.0
 11
841.93766916632489
 21
8114.0418797264938
 31
0.0
  0
LINE
  5
149AA
  8
01
 10
840.93766916632489
 20
8125.4734597264942
 30
0.0
 11
840.93766916632489
 21
8115.4734597264942
 31
0.0
  0
LINE
  5
149AB
  8
01
 10
827.43766916632489
 20
8125.4734597264942
 30
0.0
 11
827.43766916632489
 21
8115.4734597264942
 31
0.0
  0
LINE
  5
149AC
  8
01
 10
826.43766916632489
 20
8126.9050397264937
 30
0.0
 11
826.43766916632489
 21
8114.0418797264938
 31
0.0
  0
ARC
  5
149AD
  8
01
 10
834.18766916632478
 20
8120.6734697264947
 30
0.0
 40
10.199999999999999
 50
220.55307999999039
 51
319.44692000000953
  0
LINE
  5
149AE
  8
01
 10
827.43766916632489
 20
8115.4734597264942
 30
0.0
 11
840.93766916632489
 21
8115.4734597264942
 31
0.0
  0
LINE
  5
149AF
  8
01
 10
827.43766916632489
 20
8125.4734597264942
 30
0.0
 11
840.93766916632489
 21
8125.4734597264942
 31
0.0
  0
ARC
  5
149B0
  8
01
 10
834.18766916632478
 20
8120.2734497264946
 30
0.0
 40
10.199999999999999
 50
40.553083999997327
 51
139.4469200000095
  0
CIRCLE
  5
149B1
  8
01
 10
834.18766916632478
 20
8062.4734597264951
 30
0.0
 40
4.5
  0
CIRCLE
  5
149B2
  8
01
 10
834.18766916632478
 20
8062.4734597264951
 30
0.0
 40
2.75
  0
LINE
  5
149B3
  8
01
 10
827.68766916632489
 20
8054.4734597264942
 30
0.0
 11
840.68766916632489
 21
8054.4734597264942
 31
0.0
  0
ARC
  5
149B4
  8
01
 10
840.68766916632489
 20
8178.4734597264951
 30
0.0
 40
6.0
 50
0.0
 51
90.0
  0
ARC
  5
149B6
  8
01
 10
827.68766916632489
 20
8178.4734597264951
 30
0.0
 40
6.0
 50
90.0
 51
180.0
  0
LINE
  5
149B7
  8
01
 10
827.68766916632489
 20
8184.4734597264951
 30
0.0
 11
840.68766916632489
 21
8184.4734597264951
 31
0.0
  0
CIRCLE
  5
149B8
  8
01
 10
834.18766916632478
 20
8176.4734597264942
 30
0.0
 40
4.5
  0
CIRCLE
  5
149B9
  8
01
 10
834.18766916632478
 20
8176.4734597264942
 30
0.0
 40
2.75
  0
TEXT
  5
149BA
  8
01
 10
649.18768516632485
 20
8383.4734597264924
 30
0.0
 40
20.0
  1
1-L3C-X-LW
  0
LINE
  5
149BE
  8
01
 10
955.58767516632463
 20
8184.4734597264951
 30
0.0
 11
955.58767516632463
 21
8161.3734897264949
 31
0.0
  0
LINE
  5
149BF
  8
01
 10
957.18766516632536
 20
8184.4734597264951
 30
0.0
 11
957.18766516632536
 21
8161.4734597264942
 31
0.0
  0
LINE
  5
149C0
  8
01
 10
954.78767516632536
 20
8184.4734597264951
 30
0.0
 11
954.78767516632536
 21
8054.4734597264942
 31
0.0
  0
LINE
  5
149C1
  8
01
 10
953.18766516632525
 20
8184.4734597264951
 30
0.0
 11
953.18766516632525
 21
8054.4734597264942
 31
0.0
  0
LINE
  5
149C3
  8
01
 10
956.18766516632525
 20
8082.4734597264951
 30
0.0
 11
984.9782924540267
 21
8082.4734597264951
 31
0.0
  0
LINE
  5
149C4
  8
01
 10
956.18767516632499
 20
8160.4734597264942
 30
0.0
 11
957.18767516632522
 21
8161.4734597264942
 31
0.0
  0
LINE
  5
149C5
  8
01
 10
954.78766516632572
 20
8160.5734397264941
 30
0.0
 11
955.58767516632463
 21
8161.3734897264949
 31
0.0
  0
LINE
  5
149C6
  8
01
 10
946.18766516632525
 20
8130.4734597264933
 30
0.0
 11
953.18766516632525
 21
8130.4734597264933
 31
0.0
  0
LINE
  5
149C7
  8
01
 10
946.18766516632525
 20
8110.4734597264942
 30
0.0
 11
953.18766516632525
 21
8110.4734597264942
 31
0.0
  0
LINE
  5
149C8
  8
01
 10
942.26976516632499
 20
8113.6671897264951
 30
0.0
 11
953.18766516632525
 21
8113.6671897264951
 31
0.0
  0
LINE
  5
149C9
  8
01
 10
942.26976516632499
 20
8127.279739726494
 30
0.0
 11
953.18766516632525
 21
8127.279739726494
 31
0.0
  0
LINE
  5
149CA
  8
01
 10
942.18766516632536
 20
8126.4734597264951
 30
0.0
 11
942.18766516632536
 21
8114.4734597264951
 31
0.0
  0
ARC
  5
149CB
  8
01
 10
946.18766516632525
 20
8114.4734597264951
 30
0.0
 40
4.0
 50
179.999989999999
 51
270.0
  0
ARC
  5
149CC
  8
01
 10
946.18766516632525
 20
8126.4734597264951
 30
0.0
 40
4.0
 50
90.000002999984645
 51
180.000010000001
  0
LINE
  5
149CD
  8
01
 10
954.78766516632572
 20
8078.373449726495
 30
0.0
 11
955.58767516632463
 21
8077.5734697264952
 31
0.0
  0
LINE
  5
149CE
  8
01
 10
956.1877151663258
 20
8078.4734297264949
 30
0.0
 11
957.18769516632449
 21
8077.4734597264942
 31
0.0
  0
LINE
  5
149CF
  8
01
 10
948.18766516632536
 20
8062.4734597264951
 30
0.0
 11
962.18766516632525
 21
8062.4734597264951
 31
0.0
  0
LINE
  5
149D0
  8
01
 10
953.18766516632525
 20
8054.4734597264942
 30
0.0
 11
957.18766516632536
 21
8054.4734597264942
 31
0.0
  0
LINE
  5
149D1
  8
01
 10
955.58767516632463
 20
8054.4734597264942
 30
0.0
 11
955.58767516632463
 21
8077.5734697264952
 31
0.0
  0
LINE
  5
149D2
  8
01
 10
957.18766516632536
 20
8054.4734597264942
 30
0.0
 11
957.18766516632536
 21
8077.4734597264942
 31
0.0
  0
LINE
  5
149D3
  8
01
 10
956.18766516632525
 20
8160.4734597264942
 30
0.0
 11
956.18766516632525
 21
8078.4734597264933
 31
0.0
  0
LINE
  5
149D6
  8
01
 10
953.18766516632525
 20
8184.4734597264951
 30
0.0
 11
957.18766516632536
 21
8184.4734597264951
 31
0.0
  0
LINE
  5
149D7
  8
01
 10
948.18766516632536
 20
8176.4734597264942
 30
0.0
 11
962.18766516632525
 21
8176.4734597264942
 31
0.0
  0
LINE
  5
149D9
  8
01
 10
957.18854934838521
 20
8377.9734597254646
 30
0.0
 11
1023.188549348385
 21
8377.9734597254646
 31
0.0
  0
LINE
  5
149DA
  8
01
 10
957.18854934838521
 20
8376.3734897254635
 30
0.0
 11
1023.188549348385
 21
8376.3734897254635
 31
0.0
  0
LINE
  5
149DB
  8
01
 10
954.78855934838543
 20
8358.9734597254646
 30
0.0
 11
1023.188549348385
 21
8358.9734597254646
 31
0.0
  0
LINE
  5
149DC
  8
01
 10
956.3885393483863
 20
8373.4734597254646
 30
0.0
 11
957.18854934838521
 21
8374.2734797254652
 31
0.0
  0
LINE
  5
149DD
  8
01
 10
957.18854934838521
 20
8378.9734597254646
 30
0.0
 11
957.18854934838521
 21
8374.2734797254652
 31
0.0
  0
LINE
  5
149DE
  8
01
 10
954.78855934838543
 20
8373.4734897254657
 30
0.0
 11
955.58854934838678
 21
8374.273449725466
 31
0.0
  0
LINE
  5
149DF
  8
01
 10
942.18854934838544
 20
8360.7234597254646
 30
0.0
 11
953.18854934838532
 21
8360.7234597254646
 31
0.0
  0
LINE
  5
149E0
  8
01
 10
942.18854934838544
 20
8360.7234597254646
 30
0.0
 11
942.18854934838544
 21
8362.7234597254628
 31
0.0
  0
LINE
  5
149E1
  8
01
 10
953.18854934838532
 20
8380.9734597254646
 30
0.0
 11
954.78855934838543
 21
8380.9734597254646
 31
0.0
  0
LINE
  5
149E2
  8
01
 10
954.78855934838543
 20
8380.9734597254646
 30
0.0
 11
954.78855934838543
 21
8373.4734597254646
 31
0.0
  0
LINE
  5
149E3
  8
01
 10
955.58855934838641
 20
8378.9734597254646
 30
0.0
 11
955.58855934838641
 21
8374.2734797254652
 31
0.0
  0
LINE
  5
149E4
  8
01
 10
954.78855934838543
 20
8378.9734597254646
 30
0.0
 11
957.18854934838521
 21
8378.9734597254646
 31
0.0
  0
LINE
  5
149E5
  8
01
 10
957.18854934838521
 20
8362.6734697254633
 30
0.0
 11
957.18854934838521
 21
8358.9734597254646
 31
0.0
  0
LINE
  5
149E6
  8
01
 10
956.3885593483858
 20
8363.4734897254657
 30
0.0
 11
957.18854934838521
 21
8362.6734697254633
 31
0.0
  0
LINE
  5
149E7
  8
01
 10
957.18854934838521
 20
8360.5734697254666
 30
0.0
 11
961.78855934838555
 21
8360.5734697254666
 31
0.0
  0
LINE
  5
149E8
  8
01
 10
954.78854934838569
 20
8363.4734897254657
 30
0.0
 11
955.58855934838641
 21
8362.6734697254633
 31
0.0
  0
LINE
  5
149E9
  8
01
 10
954.78855934838543
 20
8363.4734597254646
 30
0.0
 11
954.78855934838543
 21
8355.9734597254646
 31
0.0
  0
LINE
  5
149EA
  8
01
 10
953.18854934838532
 20
8355.9734597254646
 30
0.0
 11
954.78855934838543
 21
8355.9734597254646
 31
0.0
  0
LINE
  5
149EB
  8
01
 10
955.58855934838641
 20
8362.6734697254633
 30
0.0
 11
955.58855934838641
 21
8358.9734597254646
 31
0.0
  0
LINE
  5
149EC
  8
01
 10
953.18854934838532
 20
8388.4734597254646
 30
0.0
 11
953.18854934838532
 21
8348.4734597254646
 31
0.0
  0
LINE
  5
149ED
  8
01
 10
961.78855934838555
 20
8376.3734897254635
 30
0.0
 11
961.78855934838555
 21
8358.9734597254646
 31
0.0
  0
LINE
  5
149EE
  8
01
 10
956.38854934838605
 20
8373.4734597254646
 30
0.0
 11
956.38854934838605
 21
8363.4734597254646
 31
0.0
  0
LINE
  5
149EF
  8
01
 10
954.78855934838543
 20
8373.4734597254646
 30
0.0
 11
954.78855934838543
 21
8363.4734597254646
 31
0.0
  0
ARC
  5
149F0
  8
01
 10
985.85804934838518
 20
8338.3723797254661
 30
0.0
 40
50.0
 50
130.7976900000059
 51
150.85500000003009
  0
LINE
  5
149F1
  8
01
 10
985.54989789461717
 20
8333.9734287254669
 30
0.0
 11
1001.172534506069
 21
8333.9734287254669
 31
0.0
  0
LINE
  5
149F2
  8
01
 10
1021.588549348386
 20
8376.3734897254635
 30
0.0
 11
1021.588549348386
 21
8358.9734597254646
 31
0.0
  0
LINE
  5
149F3
  8
01
 10
1023.188549348385
 20
8377.9734597254646
 30
0.0
 11
1023.188549348385
 21
8358.9734597254646
 31
0.0
  0
LINE
  5
149F4
  8
01
 10
985.54989789461717
 20
8402.9734907254642
 30
0.0
 11
1001.172534506069
 21
8402.9734907254642
 31
0.0
  0
POINT
  5
149F5
  8
01
 10
854.18766916632489
 20
8098.4734597264951
 30
0.0
  0
LINE
  5
149F6
  8
01
 10
854.18766916632489
 20
8073.4734597264942
 30
0.0
 11
854.18766916632489
 21
8123.473359726494
 31
0.0
  0
LINE
  5
149F7
  8
01
 10
720.18767316632443
 20
8062.4734597264951
 30
0.0
 11
706.18767316632443
 21
8062.4734597264951
 31
0.0
  0
LINE
  5
149F8
  8
01
 10
720.18767316632443
 20
8176.4734597264942
 30
0.0
 11
706.18767316632443
 21
8176.4734597264942
 31
0.0
  0
LINE
  5
149F9
  8
01
 10
840.68766916632489
 20
8176.4734597264942
 30
0.0
 11
827.68766916632489
 21
8176.4734597264942
 31
0.0
  0
LINE
  5
149FA
  8
01
 10
834.18766916632478
 20
8182.9734597264951
 30
0.0
 11
834.18766916632478
 21
8169.9734597264951
 31
0.0
  0
LINE
  5
149FB
  8
01
 10
840.68766916632489
 20
8062.4734597264951
 30
0.0
 11
827.68766916632489
 21
8062.4734597264951
 31
0.0
  0
LINE
  5
149FC
  8
01
 10
834.18766916632478
 20
8068.9734597264942
 30
0.0
 11
834.18766916632478
 21
8055.9734597264942
 31
0.0
  0
LINE
  5
149FD
  8
01
 10
694.18767316632443
 20
8098.4734597264951
 30
0.0
 11
634.18767316632443
 21
8098.4734597264951
 31
0.0
  0
LINE
  5
149FE
  8
01
 10
664.18767316632443
 20
8128.4734597264942
 30
0.0
 11
664.18767316632443
 21
8068.4734597264951
 31
0.0
  0
LINE
  5
149FF
  8
01
 10
974.18766516632536
 20
8098.4734597264951
 30
0.0
 11
1034.1876651663249
 21
8098.4734597264951
 31
0.0
  0
LINE
  5
14A00
  8
01
 10
1004.187665166325
 20
8128.4734597264942
 30
0.0
 11
1004.187665166325
 21
8068.4734597264951
 31
0.0
  0
POINT
  5
14A01
  8
01
 10
868.68766916632489
 20
8098.4734597264951
 30
0.0
  0
LINE
  5
14A02
  8
01
 10
868.28766915632491
 20
8096.7234597264951
 30
0.0
 11
868.28766915632491
 21
8097.5734597464952
 31
0.0
  0
LINE
  5
14A03
  8
01
 10
869.08766917632477
 20
8096.7234597264951
 30
0.0
 11
869.08766917632477
 21
8097.5734597464952
 31
0.0
  0
LINE
  5
14A04
  8
01
 10
867.78766918632505
 20
8098.0734597164928
 30
0.0
 11
866.93766916632489
 21
8098.0734597164928
 31
0.0
  0
LINE
  5
14A05
  8
01
 10
867.78766918632505
 20
8098.8734597364946
 30
0.0
 11
866.93766916632489
 21
8098.8734597364946
 31
0.0
  0
LINE
  5
14A06
  8
01
 10
866.93766916632489
 20
8098.0734597164928
 30
0.0
 11
866.93766916632489
 21
8098.8734597364946
 31
0.0
  0
LINE
  5
14A07
  8
01
 10
869.08766917632477
 20
8096.7234597264951
 30
0.0
 11
868.28766915632491
 21
8096.7234597264951
 31
0.0
  0
LINE
  5
14A08
  8
01
 10
869.08766917632477
 20
8100.2234597264942
 30
0.0
 11
869.08766917632477
 21
8099.3734597064949
 31
0.0
  0
LINE
  5
14A09
  8
01
 10
868.28766915632491
 20
8100.2234597264942
 30
0.0
 11
868.28766915632491
 21
8099.3734597064949
 31
0.0
  0
LINE
  5
14A0A
  8
01
 10
869.58766914632474
 20
8098.8734597364946
 30
0.0
 11
870.43766916632489
 21
8098.8734597364946
 31
0.0
  0
LINE
  5
14A0B
  8
01
 10
869.58766914632474
 20
8098.0734597164928
 30
0.0
 11
870.43766916632489
 21
8098.0734597164928
 31
0.0
  0
LINE
  5
14A0C
  8
01
 10
870.43766916632489
 20
8098.8734597364946
 30
0.0
 11
870.43766916632489
 21
8098.0734597164928
 31
0.0
  0
LINE
  5
14A0D
  8
01
 10
868.28766915632491
 20
8100.2234597264942
 30
0.0
 11
869.08766917632477
 21
8100.2234597264942
 31
0.0
  0
CIRCLE
  5
14A0E
  8
01
 10
868.68766916632489
 20
8098.4734597264951
 30
0.0
 40
2.5
  0
ARC
  5
14A0F
  8
01
 10
869.58766914632474
 20
8099.3734597064949
 30
0.0
 40
0.5
 50
179.999989999999
 51
270.0
  0
ARC
  5
14A10
  8
01
 10
869.58766914632474
 20
8097.5734597464952
 30
0.0
 40
0.5
 50
90.000003000000945
 51
180.000010000001
  0
ARC
  5
14A11
  8
01
 10
867.78766918632505
 20
8097.5734597464952
 30
0.0
 40
0.5
 50
0.0
 51
90.000003000000945
  0
ARC
  5
14A12
  8
01
 10
867.78766918632505
 20
8099.3734597064949
 30
0.0
 40
0.5
 50
270.0
 51
0.0
  0
POINT
  5
14A14
  8
01
 10
799.68766916632478
 20
8098.4734597264951
 30
0.0
 50
180.0
  0
CIRCLE
  5
14A15
  8
01
 10
799.68766916632478
 20
8098.4734597264951
 30
0.0
 40
2.5
  0
LINE
  5
14A18
  8
01
 10
1004.18778150607
 20
8418.4734597254646
 30
0.0
 11
1004.18778150607
 21
8383.4734597254646
 31
0.0
  0
LINE
  5
14A19
  8
01
 10
1004.18778150607
 20
8353.4734597254646
 30
0.0
 11
1004.18778150607
 21
8318.4734597254646
 31
0.0
  0
LINE
  5
14A1A
  8
01
 10
784.18766916632489
 20
8098.4734597264951
 30
0.0
 11
819.18766916632489
 21
8098.4734597264951
 31
0.0
  0
LINE
  5
14A1B
  8
01
 10
849.18766916632478
 20
8098.4734597264951
 30
0.0
 11
884.18766916632478
 21
8098.4734597264951
 31
0.0
  0
LINE
  5
14A21
  8
01
 10
953.18854934838532
 20
8348.4734597254646
 30
0.0
 11
1106.942929503417
 21
8348.4734597254646
 31
0.0
  0
LINE
  5
14A22
  8
01
 10
953.18854934838532
 20
8388.4734597254646
 30
0.0
 11
1106.942929503417
 21
8388.4734597254646
 31
0.0
  0
POINT
  5
14BEC
  8
01
 10
1004.187789006072
 20
8339.4734597254665
 30
0.0
  0
LINE
  5
14FC0
  8
01
 10
649.18768516632349
 20
8321.9734597264942
 30
0.0
 11
754.18768516632349
 21
8321.9734597264942
 31
0.0
  0
TEXT
  5
14FC1
  8
01
 10
650.88768516632285
 20
8324.5070893091379
 30
0.0
 40
6.0
  1
パールクローム
 72
     1
 11
675.28768516632294
 21
8324.5070893091379
 31
0.0
  0
TEXT
  5
14FC2
  8
01
 10
661.68768516632292
 20
8345.2234597264942
 30
0.0
 40
6.0
  1
表面処理
 72
     1
 11
675.28768516632294
 21
8345.2234597264942
 31
0.0
  0
TEXT
  5
14FC3
  8
01
 10
661.68768516632292
 20
8334.9705267372083
 30
0.0
 40
6.0
  1
クローム
 72
     1
 11
675.28768516632294
 21
8334.9705267372083
 31
0.0
  0
LINE
  5
14FC4
  8
01
 10
649.18768516632349
 20
8353.4734597264942
 30
0.0
 11
754.18768516632349
 21
8353.4734597264942
 31
0.0
  0
LINE
  5
14FC5
  8
01
 10
649.18768516632349
 20
8342.9734597264924
 30
0.0
 11
754.18768516632349
 21
8342.9734597264924
 31
0.0
  0
LINE
  5
14FC6
  8
01
 10
649.18768516632349
 20
8332.4734597264942
 30
0.0
 11
754.18768516632349
 21
8332.4734597264942
 31
0.0
  0
LINE
  5
14FC7
  8
01
 10
649.18768516632349
 20
8332.4734597264942
 30
0.0
 11
754.18768516632349
 21
8332.4734597264942
 31
0.0
  0
LINE
  5
14FC8
  8
01
 10
701.68768516632338
 20
8353.4734597264942
 30
0.0
 11
701.68768516632338
 21
8311.4734597264942
 31
0.0
  0
TEXT
  5
14FC9
  8
01
 10
705.58768516632415
 20
8334.4019242510203
 30
0.0
 40
6.0
  1
1-L3C-C-LW
 41
0.7
 72
     1
 11
727.78768516632431
 21
8334.4019242510203
 31
0.0
  0
TEXT
  5
14FCA
  8
01
 10
717.78768516632294
 20
8345.2234597264942
 30
0.0
 40
6.0
  1
コード
 72
     1
 11
727.78768516632294
 21
8345.2234597264942
 31
0.0
  0
LINE
  5
14FCB
  8
01
 10
649.18768516632349
 20
8311.4734597264942
 30
0.0
 11
754.18768516632349
 21
8311.4734597264942
 31
0.0
  0
TEXT
  5
14FCC
  8
01
 10
650.88768516632285
 20
8314.0070893091379
 30
0.0
 40
6.0
  1
サテンニッケル
 72
     1
 11
675.28768516632294
 21
8314.0070893091379
 31
0.0
  0
LINE
  5
14FCD
  8
01
 10
649.18768516632349
 20
8311.4734597264942
 30
0.0
 11
649.18768516632349
 21
8353.4734597264942
 31
0.0
  0
LINE
  5
14FCE
  8
01
 10
754.18768516632349
 20
8311.4734597264942
 30
0.0
 11
754.18768516632349
 21
8353.4734597264942
 31
0.0
  0
TEXT
  5
14FCF
  8
01
 10
705.58768516632415
 20
8323.9019242510203
 30
0.0
 40
6.0
  1
1-L3C-B-LW
 41
0.7
 72
     1
 11
727.78768516632431
 21
8323.9019242510203
 31
0.0
  0
TEXT
  5
14FD0
  8
01
 10
705.48768516632435
 20
8313.4019242510203
 30
0.0
 40
6.0
  1
1-L3C-N-LW
 41
0.7
 72
     1
 11
727.78768516632431
 21
8313.4019242510203
 31
0.0
  0
LINE
  5
160D0
  8
01
 10
863.18766916510879
 20
8087.7234597264905
 30
0.0
 11
863.18766916610753
 21
8109.2234597264905
 31
0.0
  0
LINE
  5
160D1
  8
01
 10
913.18766916509969
 20
8088.2234597264942
 30
0.0
 11
913.18766916509969
 21
8108.7234597264905
 31
0.0
  0
LINE
  5
160D2
  8
01
 10
863.18766916490881
 20
8087.7234597264905
 30
0.0
 11
912.68766916509981
 21
8087.7234597264933
 31
0.0
  0
ARC
  5
160D3
  8
01
 10
912.68766916509981
 20
8088.2234597264942
 30
0.0
 40
0.5
 50
270.0
 51
0.0
  0
LINE
  5
160D4
  8
01
 10
863.18766916610753
 20
8109.2234597264905
 30
0.0
 11
912.68766916509981
 21
8109.2234597264905
 31
0.0
  0
ARC
  5
160D5
  8
01
 10
912.68766916509981
 20
8108.7234597264905
 30
0.0
 40
0.5
 50
0.0
 51
90.0
  0
LINE
  5
160D6
  8
01
 10
862.68766916632478
 20
8073.9734597264933
 30
0.0
 11
862.68766916632501
 21
8122.9734597264933
 31
0.0
  0
LINE
  5
160D7
  8
01
 10
854.18766916632489
 20
8073.4734597264942
 30
0.0
 11
862.18766916632489
 21
8073.4734597264942
 31
0.0
  0
LINE
  5
160D9
  8
01
 10
854.18766916632489
 20
8123.4734597264951
 30
0.0
 11
862.18766916632489
 21
8123.4734597264951
 31
0.0
  0
LINE
  5
160DD
  8
01
 10
805.18766916754078
 20
8087.7234597264905
 30
0.0
 11
805.18766916654226
 21
8109.2234597264905
 31
0.0
  0
LINE
  5
160DE
  8
01
 10
755.18766916754998
 20
8088.2234597264942
 30
0.0
 11
755.18766916754998
 21
8108.7234597264905
 31
0.0
  0
LINE
  5
160DF
  8
01
 10
805.18766916774098
 20
8087.7234597264905
 30
0.0
 11
755.68766916754987
 21
8087.7234597264933
 31
0.0
  0
ARC
  5
160E0
  8
01
 10
755.68766916754987
 20
8088.2234597264942
 30
0.0
 40
0.5
 50
180.0
 51
270.0
  0
LINE
  5
160E1
  8
01
 10
805.18766916654226
 20
8109.2234597264905
 30
0.0
 11
755.68766916754987
 21
8109.2234597264905
 31
0.0
  0
ARC
  5
160E2
  8
01
 10
755.68766916754987
 20
8108.7234597264905
 30
0.0
 40
0.5
 50
90.0
 51
180.0
  0
LINE
  5
160E3
  8
01
 10
805.68766916632501
 20
8073.9734597264933
 30
0.0
 11
805.68766916632478
 21
8122.9734597264933
 31
0.0
  0
LINE
  5
160E4
  8
01
 10
814.18766916632489
 20
8073.4734597264942
 30
0.0
 11
806.18766916632501
 21
8073.4734597264942
 31
0.0
  0
LINE
  5
160E6
  8
01
 10
814.18766916632489
 20
8123.4734597264951
 30
0.0
 11
806.18766916632489
 21
8123.4734597264951
 31
0.0
  0
LINE
  5
160EB
  8
01
 10
993.93766516632536
 20
8109.2234597264933
 30
0.0
 11
1122.9376651663249
 21
8109.2234597264887
 31
0.0
  0
ARC
  5
160EC
  8
01
 10
1122.9376651663249
 20
8108.7234597264887
 30
0.0
 40
0.5
 50
0.0
 51
90.0
  0
LINE
  5
160ED
  8
01
 10
993.93766516632536
 20
8087.7234597264951
 30
0.0
 11
1122.9376651663249
 21
8087.7234597264878
 31
0.0
  0
ARC
  5
160EE
  8
01
 10
1122.9376651663249
 20
8088.2234597264887
 30
0.0
 40
0.5
 50
270.0
 51
0.0
  0
ARC
  5
160EF
  8
01
 10
993.93766516632536
 20
8088.223459726496
 30
0.0
 40
0.5
 50
180.0
 51
270.0
  0
LINE
  5
160F0
  8
01
 10
993.43766516632525
 20
8108.7234597264942
 30
0.0
 11
993.43766516632525
 21
8088.223459726496
 31
0.0
  0
ARC
  5
160F1
  8
01
 10
993.93766516632536
 20
8108.7234597264942
 30
0.0
 40
0.5
 50
90.0
 51
180.0
  0
LINE
  5
160F2
  8
01
 10
1123.4376651663249
 20
8088.2234597264887
 30
0.0
 11
1123.4376651663249
 21
8108.7234597264887
 31
0.0
  0
ARC
  5
160F3
  8
01
 10
1004.187665166325
 20
8098.4734597264951
 30
0.0
 40
25.0
 50
25.467560142436479
 51
334.53243985756347
  0
LINE
  5
1610B
  8
01
 10
674.43767316632443
 20
8109.2234597264933
 30
0.0
 11
545.43767316632443
 21
8109.2234597264887
 31
0.0
  0
ARC
  5
1610C
  8
01
 10
545.43767316632443
 20
8108.7234597264887
 30
0.0
 40
0.5
 50
90.0
 51
180.0
  0
LINE
  5
1610D
  8
01
 10
674.43767316632443
 20
8087.7234597264951
 30
0.0
 11
545.43767316632443
 21
8087.7234597264878
 31
0.0
  0
ARC
  5
1610E
  8
01
 10
545.43767316632443
 20
8088.2234597264887
 30
0.0
 40
0.5
 50
180.0
 51
270.0
  0
ARC
  5
1610F
  8
01
 10
674.43767316632443
 20
8088.223459726496
 30
0.0
 40
0.5
 50
270.0
 51
0.000000000000007
  0
LINE
  5
16110
  8
01
 10
674.93767316632443
 20
8108.7234597264942
 30
0.0
 11
674.93767316632443
 21
8088.223459726496
 31
0.0
  0
ARC
  5
16111
  8
01
 10
674.43767316632443
 20
8108.7234597264942
 30
0.0
 40
0.5
 50
0.000000000000007
 51
90.0
  0
LINE
  5
16112
  8
01
 10
544.93767316632443
 20
8088.2234597264887
 30
0.0
 11
544.93767316632443
 21
8108.7234597264887
 31
0.0
  0
ARC
  5
16113
  8
01
 10
664.18767316632443
 20
8098.4734597264951
 30
0.0
 40
25.0
 50
205.4675601424363
 51
154.5324398575637
  0
LINE
  5
16117
  8
01
 10
1123.43778245607
 20
8299.9734597260758
 30
0.0
 11
1123.43778245607
 21
8289.9734597260758
 31
0.0
  0
LINE
  5
16118
  8
01
 10
993.93778245607177
 20
8289.4734597260758
 30
0.0
 11
1122.93778245607
 21
8289.4734597260758
 31
0.0
  0
ARC
  5
16119
  8
01
 10
1122.93778245607
 20
8289.9734597260758
 30
0.0
 40
0.5
 50
270.0
 51
0.0
  0
ARC
  5
1611A
  8
01
 10
993.93778245607177
 20
8289.9734597260758
 30
0.0
 40
0.5
 50
180.0
 51
270.0
  0
LINE
  5
1611B
  8
01
 10
1015.43778245607
 20
8300.4734597260795
 30
0.0
 11
1122.93778245607
 21
8300.4734597260758
 31
0.0
  0
ARC
  5
1611C
  8
01
 10
1015.43778245607
 20
8300.9734597260795
 30
0.0
 40
0.5
 50
180.0
 51
270.0
  0
ARC
  5
1611D
  8
01
 10
1122.93778245607
 20
8299.9734597260758
 30
0.0
 40
0.5
 50
0.0
 51
90.0
  0
LINE
  5
1611E
  8
01
 10
993.43778245606995
 20
8339.4734597260631
 30
0.0
 11
1014.93778245607
 21
8339.4734597248662
 31
0.0
  0
LINE
  5
1611F
  8
01
 10
993.43778245606995
 20
8339.4734597260631
 30
0.0
 11
993.43778245607166
 21
8289.9734597260758
 31
0.0
  0
LINE
  5
16120
  8
01
 10
1014.93778245607
 20
8339.4734597248662
 30
0.0
 11
1014.93778245607
 21
8300.9734597260795
 31
0.0
  0
POINT
  5
16121
  8
01
 10
1004.18778150607
 20
8339.4734597254665
 30
0.0
  0
LINE
  5
16126
  8
01
 10
979.68778150606977
 20
8339.9734597254646
 30
0.0
 11
1028.68778150607
 21
8339.9734597254646
 31
0.0
  0
LINE
  5
16127
  8
01
 10
979.18778150606988
 20
8348.4734597254646
 30
0.0
 11
979.18778150606988
 21
8340.4734597254646
 31
0.0
  0
LINE
  5
16129
  8
01
 10
1029.18778150607
 20
8348.4734597254646
 30
0.0
 11
1029.18778150607
 21
8340.4734597254646
 31
0.0
  0
LINE
  5
16180
  8
01
 10
1123.43778245607
 20
8436.9734597248535
 30
0.0
 11
1123.43778245607
 21
8446.9734597248535
 31
0.0
  0
LINE
  5
16181
  8
01
 10
993.93778245607177
 20
8447.4734597248535
 30
0.0
 11
1122.93778245607
 21
8447.4734597248535
 31
0.0
  0
ARC
  5
16182
  8
01
 10
1122.93778245607
 20
8446.9734597248535
 30
0.0
 40
0.5
 50
0.0
 51
90.000000000000028
  0
ARC
  5
16183
  8
01
 10
993.93778245607177
 20
8446.9734597248535
 30
0.0
 40
0.5
 50
90.000000000000028
 51
180.0
  0
LINE
  5
16184
  8
01
 10
1015.43778245607
 20
8436.4734597248498
 30
0.0
 11
1122.93778245607
 21
8436.4734597248535
 31
0.0
  0
ARC
  5
16185
  8
01
 10
1015.43778245607
 20
8435.9734597248498
 30
0.0
 40
0.5
 50
90.000000000000028
 51
180.0
  0
ARC
  5
16186
  8
01
 10
1122.93778245607
 20
8436.9734597248535
 30
0.0
 40
0.5
 50
270.0
 51
0.0
  0
LINE
  5
16187
  8
01
 10
993.43778245606995
 20
8397.4734597248662
 30
0.0
 11
1014.93778245607
 21
8397.4734597260631
 31
0.0
  0
LINE
  5
16188
  8
01
 10
993.43778245606995
 20
8397.4734597248662
 30
0.0
 11
993.43778245607166
 21
8446.9734597248535
 31
0.0
  0
LINE
  5
16189
  8
01
 10
1014.93778245607
 20
8397.4734597260631
 30
0.0
 11
1014.93778245607
 21
8435.9734597248498
 31
0.0
  0
POINT
  5
1618A
  8
01
 10
1004.18778150607
 20
8397.4734597254665
 30
0.0
  0
LINE
  5
1618B
  8
01
 10
979.68778150607
 20
8396.9734597254628
 30
0.0
 11
1028.68778150607
 21
8396.9734597254628
 31
0.0
  0
LINE
  5
1618C
  8
01
 10
979.18778150606988
 20
8388.4734597254646
 30
0.0
 11
979.18778150606988
 21
8396.4734597254646
 31
0.0
  0
LINE
  5
1618E
  8
01
 10
1029.18778150607
 20
8388.4734597254646
 30
0.0
 11
1029.18778150607
 21
8396.4734597254646
 31
0.0
  0
ARC
  5
165BA
  8
01
 10
1028.68778150607
 20
8396.4734597254646
 30
0.0
 40
0.5
 50
0.0
 51
90.0
  0
ARC
  5
165BB
  8
01
 10
979.68778150607
 20
8396.4734597254646
 30
0.0
 40
0.5
 50
90.0
 51
180.0
  0
ARC
  5
165BC
  8
01
 10
979.68778150606977
 20
8340.4734597254646
 30
0.0
 40
0.5
 50
180.0
 51
270.0
  0
ARC
  5
165BD
  8
01
 10
1028.68778150607
 20
8340.4734597254646
 30
0.0
 40
0.5
 50
270.0
 51
0.0
  0
ARC
  5
165BE
  8
01
 10
862.18766916632489
 20
8122.9734597264933
 30
0.0
 40
0.5
 50
0.0
 51
90.0
  0
ARC
  5
165BF
  8
01
 10
862.18766916632489
 20
8073.9734597264933
 30
0.0
 40
0.5
 50
270.0
 51
359.99999999999989
  0
ARC
  5
165C0
  8
01
 10
806.18766916632501
 20
8073.9734597264933
 30
0.0
 40
0.5
 50
180.0
 51
270.0
  0
ARC
  5
165C1
  8
01
 10
806.18766916632489
 20
8122.9734597264933
 30
0.0
 40
0.5
 50
90.0
 51
180.00000000000011
  0
LINE
  5
165C2
  8
01
 10
984.9782924540267
 20
8082.4734597264951
 30
0.0
 11
1022.187665166325
 21
8082.4734597264951
 31
0.0
  0
LINE
  5
165C3
  8
01
 10
1022.187665166325
 20
8115.8228112993911
 30
0.0
 11
1022.187665166325
 21
8082.4734597264951
 31
0.0
  0
LINE
  5
167C0
  8
01
 10
646.18768516632485
 20
8156.9734597264942
 30
0.0
 11
646.18768516632485
 21
8115.8227488505236
 31
0.0
  0
LINE
  5
167C2
  8
01
 10
1022.187665166325
 20
8156.9734597264942
 30
0.0
 11
1022.187665166325
 21
8115.8227364004988
 31
0.0
  0
LINE
  5
167C3
  8
01
  6
BYBLOCK
 10
1001.187665166325
 20
8156.9734597264942
 30
0.0
 11
1007.187665166325
 21
8156.9734597264942
 31
0.0
  0
LINE
  5
167C4
  8
01
  6
BYBLOCK
 10
1014.187665166325
 20
8156.9734597264942
 30
0.0
 11
1022.187665166325
 21
8156.9734597264942
 31
0.0
  0
LINE
  5
167C5
  8
01
  6
BYBLOCK
 10
1001.187665166325
 20
8155.9734597264942
 30
0.0
 11
1001.187665166325
 21
8156.9734597264942
 31
0.0
  0
LINE
  5
167C6
  8
01
  6
BYBLOCK
 10
1007.187665166325
 20
8155.9734597264942
 30
0.0
 11
1007.187665166325
 21
8156.9734597264942
 31
0.0
  0
ARC
  5
167C7
  8
01
  6
BYBLOCK
 10
997.68766516632525
 20
8155.9734597264942
 30
0.0
 40
3.5
 50
180.0
 51
0.0
  0
ARC
  5
167C8
  8
01
  6
BYBLOCK
 10
1010.687665166325
 20
8155.9734597264942
 30
0.0
 40
3.5
 50
180.0
 51
0.0
  0
CIRCLE
  5
167C9
  8
01
  6
BYBLOCK
 10
1004.187665166036
 20
8148.4734597262041
 30
0.0
 40
6.0
  0
LINE
  5
167CA
  8
01
  6
BYBLOCK
 10
994.18766516632513
 20
8156.9734597264942
 30
0.0
 11
956.18766516632525
 21
8156.9734597264942
 31
0.0
  0
LINE
  5
167CB
  8
01
  6
BYBLOCK
 10
994.18766516632479
 20
8155.9734597264942
 30
0.0
 11
994.18766516632513
 21
8156.9734597264942
 31
0.0
  0
LINE
  5
167CC
  8
01
  6
BYBLOCK
 10
1014.187665166325
 20
8155.9734597264942
 30
0.0
 11
1014.187665166325
 21
8156.9734597264942
 31
0.0
  0
LINE
  5
167CD
  8
01
  6
BYBLOCK
 10
1004.187665166036
 20
8144.9234598195226
 30
0.0
 11
1007.737665072718
 21
8148.4734597262041
 31
0.0
  0
LINE
  5
167CE
  8
01
  6
BYBLOCK
 10
1007.737665072718
 20
8148.4734597262041
 30
0.0
 11
1004.187665166036
 21
8152.0234596328864
 31
0.0
  0
LINE
  5
167CF
  8
01
  6
BYBLOCK
 10
1000.637665259355
 20
8148.4734597262041
 30
0.0
 11
1004.187665166036
 21
8144.9234598195226
 31
0.0
  0
LINE
  5
167D0
  8
01
  6
BYBLOCK
 10
1004.187665166036
 20
8152.0234596328864
 30
0.0
 11
1000.637665259355
 21
8148.4734597262041
 31
0.0
  0
LINE
  5
167D1
  8
01
  6
BYBLOCK
 10
667.18767316632454
 20
8156.9734597264942
 30
0.0
 11
661.18767316632443
 21
8156.9734597264942
 31
0.0
  0
LINE
  5
167D2
  8
01
  6
BYBLOCK
 10
654.18767316632443
 20
8156.9734597264942
 30
0.0
 11
646.18768516632485
 21
8156.9734597264942
 31
0.0
  0
LINE
  5
167D3
  8
01
  6
BYBLOCK
 10
667.18767316632443
 20
8155.9734597264942
 30
0.0
 11
667.18767316632454
 21
8156.9734597264942
 31
0.0
  0
LINE
  5
167D4
  8
01
  6
BYBLOCK
 10
661.18767316632443
 20
8155.9734597264942
 30
0.0
 11
661.18767316632443
 21
8156.9734597264942
 31
0.0
  0
ARC
  5
167D5
  8
01
  6
BYBLOCK
 10
670.68767316632454
 20
8155.9734597264942
 30
0.0
 40
3.5
 50
180.0
 51
0.0
  0
ARC
  5
167D6
  8
01
  6
BYBLOCK
 10
657.68767316632443
 20
8155.9734597264942
 30
0.0
 40
3.5
 50
180.0
 51
0.0
  0
CIRCLE
  5
167D7
  8
01
  6
BYBLOCK
 10
664.18767316661319
 20
8148.4734597262041
 30
0.0
 40
6.0
  0
LINE
  5
167D8
  8
01
  6
BYBLOCK
 10
674.18767316632454
 20
8156.9734597264942
 30
0.0
 11
712.18767316632443
 21
8156.9734597264942
 31
0.0
  0
LINE
  5
167D9
  8
01
  6
BYBLOCK
 10
674.18767316632477
 20
8155.9734597264942
 30
0.0
 11
674.18767316632454
 21
8156.9734597264942
 31
0.0
  0
LINE
  5
167DA
  8
01
  6
BYBLOCK
 10
654.18767316632443
 20
8155.9734597264942
 30
0.0
 11
654.18767316632443
 21
8156.9734597264942
 31
0.0
  0
LINE
  5
167DB
  8
01
  6
BYBLOCK
 10
664.18767316661319
 20
8144.9234598195226
 30
0.0
 11
660.63767325993172
 21
8148.4734597262041
 31
0.0
  0
LINE
  5
167DC
  8
01
  6
BYBLOCK
 10
660.63767325993172
 20
8148.4734597262041
 30
0.0
 11
664.18767316661319
 21
8152.0234596328864
 31
0.0
  0
LINE
  5
167DD
  8
01
  6
BYBLOCK
 10
667.7376730732949
 20
8148.4734597262041
 30
0.0
 11
664.18767316661319
 21
8144.9234598195226
 31
0.0
  0
LINE
  5
167DE
  8
01
  6
BYBLOCK
 10
664.18767316661319
 20
8152.0234596328864
 30
0.0
 11
667.7376730732949
 21
8148.4734597262041
 31
0.0
  0
LINE
  5
167DF
  8
01
  6
BYBLOCK
 10
1010.188549348096
 20
8378.7234597254646
 30
0.0
 11
998.18854934809656
 21
8378.7234597254646
 31
0.0
  0
LINE
  5
167E0
  8
01
  6
BYBLOCK
 10
998.18854934809656
 20
8358.2234597254646
 30
0.0
 11
1010.188549348096
 21
8358.2234597254646
 31
0.0
  0
LINE
  5
167E1
  8
01
  6
BYBLOCK
 10
998.18854934809656
 20
8358.2234597254646
 30
0.0
 11
998.18854934809656
 21
8358.9734597254665
 31
0.0
  0
LINE
  5
167E2
  8
01
  6
BYBLOCK
 10
998.18854934809656
 20
8377.9734597254646
 30
0.0
 11
998.18854934809656
 21
8378.7234597254646
 31
0.0
  0
LINE
  5
167E3
  8
01
  6
BYBLOCK
 10
1010.188549348096
 20
8358.2234597254646
 30
0.0
 11
1010.188549348096
 21
8358.9734597254665
 31
0.0
  0
LINE
  5
167E4
  8
01
  6
BYBLOCK
 10
1010.188549348096
 20
8377.9734597254646
 30
0.0
 11
1010.188549348096
 21
8378.7234597254646
 31
0.0
  0
LINE
  5
167E6
  8
01
 10
1015.4995534335779
 20
8148.4734597262041
 30
0.0
 11
992.87577689849491
 21
8148.4734597262041
 31
0.0
  0
LINE
  5
167E7
  8
01
 10
1004.187665166036
 20
8159.7853479937457
 30
0.0
 11
1004.187665166036
 21
8137.1615714586642
 31
0.0
  0
LINE
  5
1692A
  8
01
 10
1010.188549348096
 20
8378.7234597254646
 30
0.0
 11
1045.3489401080981
 21
8378.7234597254646
 31
0.0
  0
LINE
  5
1692B
  8
01
 10
1010.188549348096
 20
8358.2234597254646
 30
0.0
 11
1045.3489401080981
 21
8358.2234597254646
 31
0.0
  0
LINE
  5
1692C
  8
01
 10
1044.0489401080979
 20
8376.1234597254643
 30
0.0
 11
1044.0489401080979
 21
8360.8234597254632
 31
0.0
  0
TEXT
  5
16930
  8
01
 10
914.58415959267518
 20
8318.0567930587986
 30
0.0
 40
4.5499999999999989
  1
材質：亜鉛ダイキャスト
  0
TEXT
  5
16931
  8
01
 10
925.50415959267525
 20
8310.4734597254646
 30
0.0
 40
4.5499999999999989
  1
仕上げ：各種メッキ
  0
SOLID
  5
16932
  8
01
 10
1001.610520805609
 20
8329.3194715855534
 30
0.0
 11
1003.928266406386
 21
8330.5747934995888
 31
0.0
 12
1002.142935783176
 22
8328.6356255482224
 32
0.0
 13
1002.142935783176
 23
8328.6356255482224
 33
0.0
1001
ACAD
1000
DSTYLE
1002
{
1070
    40
1040
1.3
1002
}
  0
LINE
  5
16934
  8
01
 10
1022.187665166325
 20
8156.9734597264942
 30
0.0
 11
1050.4876651663251
 21
8156.9734597264942
 31
0.0
  0
LINE
  5
16935
  8
01
 10
1022.187665166325
 20
8082.4734597264951
 30
0.0
 11
1050.4876651663251
 21
8082.4734597264951
 31
0.0
  0
LINE
  5
16936
  8
01
 10
1049.1876651663249
 20
8154.3734597264938
 30
0.0
 11
1049.1876651663249
 21
8085.0734597264936
 31
0.0
  0
LINE
  5
1693A
  8
01
 10
993.43778245606825
 20
8289.9734597258739
 30
0.0
 11
993.43778245606825
 21
8263.1734597258728
 31
0.0
  0
LINE
  5
1693B
  8
01
 10
1123.43778245607
 20
8289.9734597258739
 30
0.0
 11
1123.43778245607
 21
8263.1734597258728
 31
0.0
  0
LINE
  5
1693C
  8
01
 10
996.03778245606816
 20
8264.4734597258721
 30
0.0
 11
1120.83778245607
 21
8264.4734597258721
 31
0.0
  0
LINE
  5
16940
  8
01
 10
1004.18778150607
 20
8327.9734597254646
 30
0.0
 11
1004.18778150607
 21
8273.1734597258728
 31
0.0
  0
LINE
  5
16941
  8
01
 10
1123.43778245607
 20
8289.9734597258739
 30
0.0
 11
1123.43778245607
 21
8273.1734597258728
 31
0.0
  0
LINE
  5
16942
  8
01
 10
1006.78778150607
 20
8274.4734597258739
 30
0.0
 11
1120.83778245607
 21
8274.4734597258739
 31
0.0
  0
LINE
  5
16946
  8
01
 10
1106.942929503417
 20
8348.4734597254646
 30
0.0
 11
1149.73778150607
 21
8348.4734597254646
 31
0.0
  0
LINE
  5
16947
  8
01
 10
1122.93778245607
 20
8289.4734597258721
 30
0.0
 11
1149.73778150607
 21
8289.4734597258721
 31
0.0
  0
LINE
  5
16948
  8
01
 10
1148.43778150607
 20
8345.8734597254643
 30
0.0
 11
1148.43778150607
 21
8292.0734597258725
 31
0.0
  0
LINE
  5
1694C
  8
01
 10
1106.942929503417
 20
8348.4734597254646
 30
0.0
 11
1139.73778150607
 21
8348.4734597254646
 31
0.0
  0
LINE
  5
1694D
  8
01
 10
1122.93778245607
 20
8300.4734597260758
 30
0.0
 11
1139.73778150607
 21
8300.4734597260758
 31
0.0
  0
LINE
  5
1694E
  8
01
 10
1138.43778150607
 20
8345.8734597254643
 30
0.0
 11
1138.43778150607
 21
8303.0734597260762
 31
0.0
  0
LINE
  5
16952
  8
01
 10
1122.937665166324
 20
8087.7234597264951
 30
0.0
 11
1139.7376651663251
 21
8087.7234597264951
 31
0.0
  0
LINE
  5
16953
  8
01
 10
1122.937665166326
 20
8109.2234597264951
 30
0.0
 11
1139.7376651663251
 21
8109.2234597264951
 31
0.0
  0
LINE
  5
16954
  8
01
 10
1138.4376651663249
 20
8090.3234597264936
 30
0.0
 11
1138.4376651663249
 21
8106.6234597264938
 31
0.0
  0
LINE
  5
16958
  8
01
 10
1004.187665166325
 20
8073.4734597264942
 30
0.0
 11
967.88766516632529
 21
8073.4734597264942
 31
0.0
  0
LINE
  5
16959
  8
01
 10
1004.187665166325
 20
8123.4734597264951
 30
0.0
 11
967.88766516632529
 21
8123.4734597264951
 31
0.0
  0
LINE
  5
1695A
  8
01
 10
969.18766516632525
 20
8076.0734597264936
 30
0.0
 11
969.18766516632525
 21
8120.8734597264938
 31
0.0
  0
LINE
  5
1695E
  8
01
 10
800.98670727200135
 20
8099.2234597264933
 30
0.0
 11
799.68766916632478
 21
8099.9734597264951
 31
0.0
  0
LINE
  5
1695F
  8
01
 10
799.68766916632478
 20
8099.9734597264951
 30
0.0
 11
798.38863106064809
 21
8099.2234597264933
 31
0.0
  0
LINE
  5
16960
  8
01
 10
798.38863106064809
 20
8099.2234597264933
 30
0.0
 11
798.38863106064809
 21
8097.7234597264933
 31
0.0
  0
LINE
  5
16961
  8
01
 10
798.38863106064809
 20
8097.7234597264933
 30
0.0
 11
799.68766916632478
 21
8096.9734597264951
 31
0.0
  0
LINE
  5
16962
  8
01
 10
799.68766916632478
 20
8096.9734597264951
 30
0.0
 11
800.98670727200135
 21
8097.7234597264933
 31
0.0
  0
LINE
  5
16963
  8
01
 10
800.98670727200135
 20
8097.7234597264933
 30
0.0
 11
800.98670727200135
 21
8099.2234597264933
 31
0.0
  0
CIRCLE
  5
16964
  8
01
 10
799.68766916632478
 20
8098.4734597264951
 30
0.0
 40
3.0
  0
CIRCLE
  5
16965
  8
01
 10
868.68766916632489
 20
8098.4734597264951
 30
0.0
 40
3.0
  0
LINE
  5
16966
  8
01
 10
953.18766516632525
 20
8184.4734597264951
 30
0.0
 11
953.18766516632525
 21
8205.7734597264935
 31
0.0
  0
LINE
  5
16967
  8
01
 10
1004.187665166325
 20
8129.0038238173311
 30
0.0
 11
1004.187665166325
 21
8205.7734597264935
 31
0.0
  0
LINE
  5
16968
  8
01
 10
955.78766516632527
 20
8204.4734597264942
 30
0.0
 11
1001.587665166325
 21
8204.4734597264942
 31
0.0
  0
LINE
  5
1696C
  8
01
 10
1022.187665166325
 20
8156.4734597264951
 30
0.0
 11
1022.187665166325
 21
8215.7734597264935
 31
0.0
  0
LINE
  5
1696D
  8
01
 10
953.18766516632525
 20
8184.4734597264951
 30
0.0
 11
953.18766516632525
 21
8215.7734597264935
 31
0.0
  0
LINE
  5
1696E
  8
01
 10
1019.587665166325
 20
8214.4734597264942
 30
0.0
 11
955.78766516632527
 21
8214.4734597264942
 31
0.0
  0
LINE
  5
16972
  8
01
 10
942.18766516632536
 20
8126.4734590283642
 30
0.0
 11
942.18766516632536
 21
8205.7734597264935
 31
0.0
  0
LINE
  5
16973
  8
01
 10
953.18766516632525
 20
8184.4734597264951
 30
0.0
 11
953.18766516632525
 21
8205.7734597264935
 31
0.0
  0
LINE
  5
16974
  8
01
 10
944.78766516632527
 20
8204.4734597264942
 30
0.0
 11
950.58766516632534
 21
8204.4734597264942
 31
0.0
  0
LINE
  5
16978
  8
01
 10
821.68766916632478
 20
8178.4734597264951
 30
0.0
 11
821.68766916632478
 21
8205.7734597264935
 31
0.0
  0
LINE
  5
16979
  8
01
 10
846.68766916632478
 20
8178.4734597264951
 30
0.0
 11
846.68766916632478
 21
8205.7734597264935
 31
0.0
  0
LINE
  5
1697A
  8
01
 10
824.28766916632503
 20
8204.4734597264942
 30
0.0
 11
844.08766916632476
 21
8204.4734597264942
 31
0.0
  0
LINE
  5
1697E
  8
01
 10
840.68766916632489
 20
8184.4734597264951
 30
0.0
 11
895.48766916632621
 21
8184.4734597264951
 31
0.0
  0
LINE
  5
1697F
  8
01
 10
840.68766916632489
 20
8054.4734597264942
 30
0.0
 11
895.48766916632621
 21
8054.4734597264942
 31
0.0
  0
LINE
  5
16980
  8
01
 10
894.18766916632615
 20
8181.8734597264938
 30
0.0
 11
894.18766916632615
 21
8057.0734597264936
 31
0.0
  0
LINE
  5
16984
  8
01
 10
840.68766916632489
 20
8176.4734597264942
 30
0.0
 11
879.99126020288315
 21
8176.4734597264942
 31
0.0
  0
LINE
  5
16985
  8
01
 10
840.68766916632489
 20
8062.4734597264951
 30
0.0
 11
879.99126020288315
 21
8062.4734597264951
 31
0.0
  0
LINE
  5
16986
  8
01
 10
878.69126020288309
 20
8173.8734597264929
 30
0.0
 11
878.69126020288309
 21
8065.0734597264945
 31
0.0
  0
TEXT
  5
1698A
  8
01
 10
877.78126020288164
 20
8130.3538470734766
 30
0.0
 40
4.5499999999999989
  1
114
 50
90.0
  0
LINE
  5
1698B
  8
01
  6
BYBLOCK
 10
879.387928096883
 20
8065.0734597264945
 30
0.0
 11
878.69126020288309
 21
8062.4734597264951
 31
0.0
  0
LINE
  5
1698C
  8
01
  6
BYBLOCK
 10
878.69126020288309
 20
8062.4734597264951
 30
0.0
 11
877.99459230888294
 21
8065.0734597264945
 31
0.0
  0
LINE
  5
1698D
  8
01
  6
BYBLOCK
 10
878.69126020288309
 20
8062.4734597264951
 30
0.0
 11
878.69126020288309
 21
8065.0734597264945
 31
0.0
  0
LINE
  5
1698E
  8
01
  6
BYBLOCK
 10
877.99459230888294
 20
8173.8734597264929
 30
0.0
 11
878.69126020288309
 21
8176.4734597264942
 31
0.0
  0
LINE
  5
1698F
  8
01
  6
BYBLOCK
 10
878.69126020288309
 20
8176.4734597264942
 30
0.0
 11
879.387928096883
 21
8173.8734597264929
 31
0.0
  0
LINE
  5
16990
  8
01
  6
BYBLOCK
 10
878.69126020288309
 20
8176.4734597264942
 30
0.0
 11
878.69126020288309
 21
8173.8734597264929
 31
0.0
  0
TEXT
  5
16991
  8
01
 10
893.27766916632493
 20
8130.4621804068092
 30
0.0
 40
4.5499999999999989
  1
130
 50
90.0
  0
LINE
  5
16992
  8
01
  6
BYBLOCK
 10
894.88433706032629
 20
8057.0734597264936
 30
0.0
 11
894.18766916632615
 21
8054.4734597264942
 31
0.0
  0
LINE
  5
16993
  8
01
  6
BYBLOCK
 10
894.18766916632615
 20
8054.4734597264942
 30
0.0
 11
893.49100127232623
 21
8057.0734597264936
 31
0.0
  0
LINE
  5
16994
  8
01
  6
BYBLOCK
 10
894.18766916632615
 20
8054.4734597264942
 30
0.0
 11
894.18766916632615
 21
8057.0734597264936
 31
0.0
  0
LINE
  5
16995
  8
01
  6
BYBLOCK
 10
893.49100127232623
 20
8181.8734597264938
 30
0.0
 11
894.18766916632615
 21
8184.4734597264951
 31
0.0
  0
LINE
  5
16996
  8
01
  6
BYBLOCK
 10
894.18766916632615
 20
8184.4734597264951
 30
0.0
 11
894.88433706032629
 21
8181.8734597264938
 31
0.0
  0
LINE
  5
16997
  8
01
  6
BYBLOCK
 10
894.18766916632615
 20
8184.4734597264951
 30
0.0
 11
894.18766916632615
 21
8181.8734597264938
 31
0.0
  0
TEXT
  5
16998
  8
01
 10
829.85433583299175
 20
8205.383459726494
 30
0.0
 40
4.5499999999999989
  1
25
  0
LINE
  5
16999
  8
01
  6
BYBLOCK
 10
844.08766916632476
 20
8205.1701276204967
 30
0.0
 11
846.68766916632478
 21
8204.4734597264942
 31
0.0
  0
LINE
  5
1699A
  8
01
  6
BYBLOCK
 10
846.68766916632478
 20
8204.4734597264942
 30
0.0
 11
844.08766916632476
 21
8203.7767918324935
 31
0.0
  0
LINE
  5
1699B
  8
01
  6
BYBLOCK
 10
846.68766916632478
 20
8204.4734597264942
 30
0.0
 11
844.08766916632476
 21
8204.4734597264942
 31
0.0
  0
LINE
  5
1699C
  8
01
  6
BYBLOCK
 10
824.28766916632503
 20
8203.7767918324935
 30
0.0
 11
821.68766916632478
 21
8204.4734597264942
 31
0.0
  0
LINE
  5
1699D
  8
01
  6
BYBLOCK
 10
821.68766916632478
 20
8204.4734597264942
 30
0.0
 11
824.28766916632503
 21
8205.1701276204967
 31
0.0
  0
LINE
  5
1699E
  8
01
  6
BYBLOCK
 10
821.68766916632478
 20
8204.4734597264942
 30
0.0
 11
824.28766916632503
 21
8204.4734597264942
 31
0.0
  0
TEXT
  5
1699F
  8
01
 10
943.67933183299203
 20
8205.383459726494
 30
0.0
 40
4.5499999999999989
  1
11
  0
LINE
  5
169A0
  8
01
  6
BYBLOCK
 10
950.58766516632534
 20
8205.1701276204967
 30
0.0
 11
953.18766516632525
 21
8204.4734597264942
 31
0.0
  0
LINE
  5
169A1
  8
01
  6
BYBLOCK
 10
953.18766516632525
 20
8204.4734597264942
 30
0.0
 11
950.58766516632534
 21
8203.7767918324935
 31
0.0
  0
LINE
  5
169A2
  8
01
  6
BYBLOCK
 10
953.18766516632525
 20
8204.4734597264942
 30
0.0
 11
950.58766516632534
 21
8204.4734597264942
 31
0.0
  0
LINE
  5
169A3
  8
01
  6
BYBLOCK
 10
944.78766516632527
 20
8203.7767918324935
 30
0.0
 11
942.18766516632536
 21
8204.4734597264942
 31
0.0
  0
LINE
  5
169A4
  8
01
  6
BYBLOCK
 10
942.18766516632536
 20
8204.4734597264942
 30
0.0
 11
944.78766516632527
 21
8205.1701276204967
 31
0.0
  0
LINE
  5
169A5
  8
01
  6
BYBLOCK
 10
942.18766516632536
 20
8204.4734597264942
 30
0.0
 11
944.78766516632527
 21
8204.4734597264942
 31
0.0
  0
TEXT
  5
169A6
  8
01
 10
983.35433183299187
 20
8215.383459726494
 30
0.0
 40
4.5499999999999989
  1
69
  0
LINE
  5
169A7
  8
01
  6
BYBLOCK
 10
955.78766516632527
 20
8213.7767918324935
 30
0.0
 11
953.18766516632525
 21
8214.4734597264942
 31
0.0
  0
LINE
  5
169A8
  8
01
  6
BYBLOCK
 10
953.18766516632525
 20
8214.4734597264942
 30
0.0
 11
955.78766516632527
 21
8215.1701276204949
 31
0.0
  0
LINE
  5
169A9
  8
01
  6
BYBLOCK
 10
953.18766516632525
 20
8214.4734597264942
 30
0.0
 11
955.78766516632527
 21
8214.4734597264942
 31
0.0
  0
LINE
  5
169AA
  8
01
  6
BYBLOCK
 10
1019.587665166325
 20
8215.1701276204949
 30
0.0
 11
1022.187665166325
 21
8214.4734597264942
 31
0.0
  0
LINE
  5
169AB
  8
01
  6
BYBLOCK
 10
1022.187665166325
 20
8214.4734597264942
 30
0.0
 11
1019.587665166325
 21
8213.7767918324935
 31
0.0
  0
LINE
  5
169AC
  8
01
  6
BYBLOCK
 10
1022.187665166325
 20
8214.4734597264942
 30
0.0
 11
1019.587665166325
 21
8214.4734597264942
 31
0.0
  0
TEXT
  5
169AD
  8
01
 10
975.00433183299197
 20
8205.383459726494
 30
0.0
 40
4.5499999999999989
  1
51
  0
LINE
  5
169AE
  8
01
  6
BYBLOCK
 10
1001.587665166325
 20
8205.1701276204967
 30
0.0
 11
1004.187665166325
 21
8204.4734597264942
 31
0.0
  0
LINE
  5
169AF
  8
01
  6
BYBLOCK
 10
1004.187665166325
 20
8204.4734597264942
 30
0.0
 11
1001.587665166325
 21
8203.7767918324935
 31
0.0
  0
LINE
  5
169B0
  8
01
  6
BYBLOCK
 10
1004.187665166325
 20
8204.4734597264942
 30
0.0
 11
1001.587665166325
 21
8204.4734597264942
 31
0.0
  0
LINE
  5
169B1
  8
01
  6
BYBLOCK
 10
955.78766516632527
 20
8203.7767918324935
 30
0.0
 11
953.18766516632525
 21
8204.4734597264942
 31
0.0
  0
LINE
  5
169B2
  8
01
  6
BYBLOCK
 10
953.18766516632525
 20
8204.4734597264942
 30
0.0
 11
955.78766516632527
 21
8205.1701276204967
 31
0.0
  0
LINE
  5
169B3
  8
01
  6
BYBLOCK
 10
953.18766516632525
 20
8204.4734597264942
 30
0.0
 11
955.78766516632527
 21
8204.4734597264942
 31
0.0
  0
TEXT
  5
169B4
  8
01
 10
968.27766516632414
 20
8091.2801263931606
 30
0.0
 40
4.5499999999999989
  1
\U+03C650
 50
90.0
  0
LINE
  5
169B5
  8
01
  6
BYBLOCK
 10
968.49099727232544
 20
8120.8734597264938
 30
0.0
 11
969.18766516632525
 21
8123.4734597264951
 31
0.0
  0
LINE
  5
169B6
  8
01
  6
BYBLOCK
 10
969.18766516632525
 20
8123.4734597264951
 30
0.0
 11
969.88433306032528
 21
8120.8734597264938
 31
0.0
  0
LINE
  5
169B7
  8
01
  6
BYBLOCK
 10
969.18766516632525
 20
8123.4734597264951
 30
0.0
 11
969.18766516632525
 21
8120.8734597264938
 31
0.0
  0
LINE
  5
169B8
  8
01
  6
BYBLOCK
 10
969.88433306032528
 20
8076.0734597264936
 30
0.0
 11
969.18766516632525
 21
8073.4734597264942
 31
0.0
  0
LINE
  5
169B9
  8
01
  6
BYBLOCK
 10
969.18766516632525
 20
8073.4734597264942
 30
0.0
 11
968.49099727232544
 21
8076.0734597264936
 31
0.0
  0
LINE
  5
169BA
  8
01
  6
BYBLOCK
 10
969.18766516632525
 20
8073.4734597264942
 30
0.0
 11
969.18766516632525
 21
8076.0734597264936
 31
0.0
  0
TEXT
  5
169BB
  8
01
 10
1137.5276651663239
 20
8090.8901263931602
 30
0.0
 40
4.5499999999999989
  1
21.5
 50
90.0
  0
LINE
  5
169BC
  8
01
  6
BYBLOCK
 10
1137.7409972723251
 20
8106.6234597264938
 30
0.0
 11
1138.4376651663249
 21
8109.2234597264951
 31
0.0
  0
LINE
  5
169BD
  8
01
  6
BYBLOCK
 10
1138.4376651663249
 20
8109.2234597264951
 30
0.0
 11
1139.1343330603249
 21
8106.6234597264938
 31
0.0
  0
LINE
  5
169BE
  8
01
  6
BYBLOCK
 10
1138.4376651663249
 20
8109.2234597264951
 30
0.0
 11
1138.4376651663249
 21
8106.6234597264938
 31
0.0
  0
LINE
  5
169BF
  8
01
  6
BYBLOCK
 10
1139.1343330603249
 20
8090.3234597264936
 30
0.0
 11
1138.4376651663249
 21
8087.7234597264951
 31
0.0
  0
LINE
  5
169C0
  8
01
  6
BYBLOCK
 10
1138.4376651663249
 20
8087.7234597264951
 30
0.0
 11
1137.7409972723251
 21
8090.3234597264936
 31
0.0
  0
LINE
  5
169C1
  8
01
  6
BYBLOCK
 10
1138.4376651663249
 20
8087.7234597264951
 30
0.0
 11
1138.4376651663249
 21
8090.3234597264936
 31
0.0
  0
TEXT
  5
169C2
  8
01
 10
1137.5277815060681
 20
8320.1401263924381
 30
0.0
 40
4.5499999999999989
  1
48
 50
90.0
  0
LINE
  5
169C3
  8
01
  6
BYBLOCK
 10
1139.13444940007
 20
8303.0734597260762
 30
0.0
 11
1138.43778150607
 21
8300.4734597260758
 31
0.0
  0
LINE
  5
169C4
  8
01
  6
BYBLOCK
 10
1138.43778150607
 20
8300.4734597260758
 30
0.0
 11
1137.74111361207
 21
8303.0734597260762
 31
0.0
  0
LINE
  5
169C5
  8
01
  6
BYBLOCK
 10
1138.43778150607
 20
8300.4734597260758
 30
0.0
 11
1138.43778150607
 21
8303.0734597260762
 31
0.0
  0
LINE
  5
169C6
  8
01
  6
BYBLOCK
 10
1137.74111361207
 20
8345.8734597254643
 30
0.0
 11
1138.43778150607
 21
8348.4734597254646
 31
0.0
  0
LINE
  5
169C7
  8
01
  6
BYBLOCK
 10
1138.43778150607
 20
8348.4734597254646
 30
0.0
 11
1139.13444940007
 21
8345.8734597254643
 31
0.0
  0
LINE
  5
169C8
  8
01
  6
BYBLOCK
 10
1138.43778150607
 20
8348.4734597254646
 30
0.0
 11
1138.43778150607
 21
8345.8734597254643
 31
0.0
  0
TEXT
  5
169C9
  8
01
 10
1147.5277815060681
 20
8314.748459725668
 30
0.0
 40
4.5499999999999989
  1
59
 50
90.0
  0
LINE
  5
169CA
  8
01
  6
BYBLOCK
 10
1149.13444940007
 20
8292.0734597258725
 30
0.0
 11
1148.43778150607
 21
8289.4734597258721
 31
0.0
  0
LINE
  5
169CB
  8
01
  6
BYBLOCK
 10
1148.43778150607
 20
8289.4734597258721
 30
0.0
 11
1147.74111361207
 21
8292.0734597258725
 31
0.0
  0
LINE
  5
169CC
  8
01
  6
BYBLOCK
 10
1148.43778150607
 20
8289.4734597258721
 30
0.0
 11
1148.43778150607
 21
8292.0734597258725
 31
0.0
  0
LINE
  5
169CD
  8
01
  6
BYBLOCK
 10
1147.74111361207
 20
8345.8734597254643
 30
0.0
 11
1148.43778150607
 21
8348.4734597254646
 31
0.0
  0
LINE
  5
169CE
  8
01
  6
BYBLOCK
 10
1148.43778150607
 20
8348.4734597254646
 30
0.0
 11
1149.13444940007
 21
8345.8734597254643
 31
0.0
  0
LINE
  5
169CF
  8
01
  6
BYBLOCK
 10
1148.43778150607
 20
8348.4734597254646
 30
0.0
 11
1148.43778150607
 21
8345.8734597254643
 31
0.0
  0
TEXT
  5
169D0
  8
01
 10
1057.0961153144031
 20
8275.3834597258701
 30
0.0
 40
4.5499999999999989
  1
119
  0
LINE
  5
169D1
  8
01
  6
BYBLOCK
 10
1120.83778245607
 20
8275.1701276198728
 30
0.0
 11
1123.43778245607
 21
8274.4734597258739
 31
0.0
  0
LINE
  5
169D2
  8
01
  6
BYBLOCK
 10
1123.43778245607
 20
8274.4734597258739
 30
0.0
 11
1120.83778245607
 21
8273.7767918318696
 31
0.0
  0
LINE
  5
169D3
  8
01
  6
BYBLOCK
 10
1123.43778245607
 20
8274.4734597258739
 30
0.0
 11
1120.83778245607
 21
8274.4734597258739
 31
0.0
  0
LINE
  5
169D4
  8
01
  6
BYBLOCK
 10
1006.78778150607
 20
8273.7767918318696
 30
0.0
 11
1004.18778150607
 21
8274.4734597258739
 31
0.0
  0
LINE
  5
169D5
  8
01
  6
BYBLOCK
 10
1004.18778150607
 20
8274.4734597258739
 30
0.0
 11
1006.78778150607
 21
8275.1701276198728
 31
0.0
  0
LINE
  5
169D6
  8
01
  6
BYBLOCK
 10
1004.18778150607
 20
8274.4734597258739
 30
0.0
 11
1006.78778150607
 21
8274.4734597258739
 31
0.0
  0
TEXT
  5
169D7
  8
01
 10
1048.8627834060701
 20
8265.3834597258738
 30
0.0
 40
4.5499999999999989
  1
130
  0
LINE
  5
169D8
  8
01
  6
BYBLOCK
 10
1120.83778245607
 20
8265.1701276198728
 30
0.0
 11
1123.43778245607
 21
8264.4734597258721
 31
0.0
  0
LINE
  5
169D9
  8
01
  6
BYBLOCK
 10
1123.43778245607
 20
8264.4734597258721
 30
0.0
 11
1120.83778245607
 21
8263.7767918318714
 31
0.0
  0
LINE
  5
169DA
  8
01
  6
BYBLOCK
 10
1123.43778245607
 20
8264.4734597258721
 30
0.0
 11
1120.83778245607
 21
8264.4734597258721
 31
0.0
  0
LINE
  5
169DB
  8
01
  6
BYBLOCK
 10
996.03778245606816
 20
8263.7767918318714
 30
0.0
 11
993.43778245606825
 21
8264.4734597258721
 31
0.0
  0
LINE
  5
169DC
  8
01
  6
BYBLOCK
 10
993.43778245606825
 20
8264.4734597258721
 30
0.0
 11
996.03778245606816
 21
8265.1701276198728
 31
0.0
  0
LINE
  5
169DD
  8
01
  6
BYBLOCK
 10
993.43778245606825
 20
8264.4734597258721
 30
0.0
 11
996.03778245606816
 21
8264.4734597258721
 31
0.0
  0
TEXT
  5
169DE
  8
01
 10
1048.2776651663239
 20
8112.1401263931621
 30
0.0
 40
4.5499999999999989
  1
74.5
 50
90.0
  0
LINE
  5
169DF
  8
01
  6
BYBLOCK
 10
1049.8843330603249
 20
8085.0734597264936
 30
0.0
 11
1049.1876651663249
 21
8082.4734597264951
 31
0.0
  0
LINE
  5
169E0
  8
01
  6
BYBLOCK
 10
1049.1876651663249
 20
8082.4734597264951
 30
0.0
 11
1048.4909972723251
 21
8085.0734597264936
 31
0.0
  0
LINE
  5
169E1
  8
01
  6
BYBLOCK
 10
1049.1876651663249
 20
8082.4734597264951
 30
0.0
 11
1049.1876651663249
 21
8085.0734597264936
 31
0.0
  0
LINE
  5
169E2
  8
01
  6
BYBLOCK
 10
1048.4909972723251
 20
8154.3734597264938
 30
0.0
 11
1049.1876651663249
 21
8156.9734597264942
 31
0.0
  0
LINE
  5
169E3
  8
01
  6
BYBLOCK
 10
1049.1876651663249
 20
8156.9734597264942
 30
0.0
 11
1049.8843330603249
 21
8154.3734597264938
 31
0.0
  0
LINE
  5
169E4
  8
01
  6
BYBLOCK
 10
1049.1876651663249
 20
8156.9734597264942
 30
0.0
 11
1049.1876651663249
 21
8154.3734597264938
 31
0.0
  0
LINE
  5
169E5
  8
01
 10
1001.876728294393
 20
8328.977548566887
 30
0.0
 11
976.94082625934186
 21
8309.5634597254648
 31
0.0
1001
ACAD
1000
DSTYLE
1002
{
1070
    40
1040
1.3
1002
}
  0
LINE
  5
169E6
  8
01
 10
976.94082625934186
 20
8309.5634597254648
 30
0.0
 11
973.43082625934187
 21
8309.5634597254648
 31
0.0
1001
ACAD
1000
DSTYLE
1002
{
1070
    40
1040
1.3
1002
}
  0
TEXT
  5
169E7
  8
01
 10
1043.1389401080969
 20
8360.8901263921325
 30
0.0
 40
4.5499999999999989
  1
20.5
 50
90.0
  0
LINE
  5
169E8
  8
01
  6
BYBLOCK
 10
1044.7456080020979
 20
8360.8234597254632
 30
0.0
 11
1044.0489401080979
 21
8358.2234597254646
 31
0.0
  0
LINE
  5
169E9
  8
01
  6
BYBLOCK
 10
1044.0489401080979
 20
8358.2234597254646
 30
0.0
 11
1043.3522722140981
 21
8360.8234597254632
 31
0.0
  0
LINE
  5
169EA
  8
01
  6
BYBLOCK
 10
1044.0489401080979
 20
8358.2234597254646
 30
0.0
 11
1044.0489401080979
 21
8360.8234597254632
 31
0.0
  0
LINE
  5
169EB
  8
01
  6
BYBLOCK
 10
1043.3522722140981
 20
8376.1234597254643
 30
0.0
 11
1044.0489401080979
 21
8378.7234597254646
 31
0.0
  0
LINE
  5
169EC
  8
01
  6
BYBLOCK
 10
1044.0489401080979
 20
8378.7234597254646
 30
0.0
 11
1044.7456080020979
 21
8376.1234597254643
 31
0.0
  0
LINE
  5
169ED
  8
01
  6
BYBLOCK
 10
1044.0489401080979
 20
8378.7234597254646
 30
0.0
 11
1044.0489401080979
 21
8376.1234597254643
 31
0.0
  0
VIEWPORT
  5
57
 67
     1
  8
0
 10
14.9353454354879
 20
17.638766238460601
 30
0.0
 40
440.94886011083361
 41
286.42164895694862
 68
     1
 69
     1
1001
ACAD
1000
MVIEW
1002
{
1070
    16
1010
0.0
1020
0.0
1030
0.0
1010
0.0
1020
0.0
1030
1.0
1040
0.0
1040
286.42164895694862
1040
14.9353454354879
1040
17.638766238460601
1040
50.0
1040
0.0
1040
0.0
1070
     0
1070
   100
1070
     1
1070
     1
1070
     0
1070
     0
1070
     0
1070
     0
1040
0.0
1040
0.0
1040
0.0
1040
10.0
1040
10.0
1040
10.0
1040
10.0
1070
     0
1002
{
1002
}
1002
}
  0
ENDSEC
  0
EOF
