  0
SECTION
  2
HEADER
  9
$ACADVER
  1
AC1012
  9
$DWGCODEPAGE
  3
ansi_932
  9
$INSBASE
 10
0.0
 20
0.0
 30
0.0
  9
$EXTMIN
 10
1918.060446158299
 20
-732.8056809512708
 30
-0.0000000000000563
  9
$EXTMAX
 10
2539.660438158273
 20
-313.8056809522935
 30
0.0000000000001223
  9
$LIMMIN
 10
0.0
 20
0.0
  9
$LIMMAX
 10
420.0
 20
297.0
  9
$ORTHOMODE
 70
     0
  9
$REGENMODE
 70
     1
  9
$FILLMODE
 70
     1
  9
$QTEXTMODE
 70
     0
  9
$MIRRTEXT
 70
     0
  9
$DRAGMODE
 70
     2
  9
$LTSCALE
 40
0.5
  9
$OSMODE
 70
 16383
  9
$ATTMODE
 70
     1
  9
$TEXTSIZE
 40
4.0
  9
$TRACEWID
 40
1.0
  9
$TEXTSTYLE
  7
STANDARD
  9
$CLAYER
  8
1TEXT
  9
$CELTYPE
  6
BYLAYER
  9
$CECOLOR
 62
   256
  9
$CELTSCALE
 40
1.0
  9
$DELOBJ
 70
     1
  9
$DISPSILH
 70
     0
  9
$DIMSCALE
 40
1.0
  9
$DIMASZ
 40
2.0
  9
$DIMEXO
 40
0.0
  9
$DIMDLI
 40
7.0
  9
$DIMRND
 40
0.0
  9
$DIMDLE
 40
0.0
  9
$DIMEXE
 40
1.0
  9
$DIMTP
 40
0.0
  9
$DIMTM
 40
0.0
  9
$DIMTXT
 40
3.5
  9
$DIMCEN
 40
0.0
  9
$DIMTSZ
 40
0.0
  9
$DIMTOL
 70
     0
  9
$DIMLIM
 70
     0
  9
$DIMTIH
 70
     0
  9
$DIMTOH
 70
     0
  9
$DIMSE1
 70
     0
  9
$DIMSE2
 70
     0
  9
$DIMTAD
 70
     1
  9
$DIMZIN
 70
     8
  9
$DIMBLK
  1

  9
$DIMASO
 70
     1
  9
$DIMSHO
 70
     1
  9
$DIMPOST
  1
 
  9
$DIMAPOST
  1

  9
$DIMALT
 70
     0
  9
$DIMALTD
 70
     2
  9
$DIMALTF
 40
25.4
  9
$DIMLFAC
 40
1.0
  9
$DIMTOFL
 70
     1
  9
$DIMTVP
 40
0.0
  9
$DIMTIX
 70
     0
  9
$DIMSOXD
 70
     0
  9
$DIMSAH
 70
     1
  9
$DIMBLK1
  1
OPEN30
  9
$DIMBLK2
  1
OPEN30
  9
$DIMSTYLE
  2
NEWX10
  9
$DIMCLRD
 70
   256
  9
$DIMCLRE
 70
   256
  9
$DIMCLRT
 70
   201
  9
$DIMTFAC
 40
0.7
  9
$DIMGAP
 40
0.7
  9
$DIMJUST
 70
     0
  9
$DIMSD1
 70
     0
  9
$DIMSD2
 70
     0
  9
$DIMTOLJ
 70
     1
  9
$DIMTZIN
 70
     8
  9
$DIMALTZ
 70
     0
  9
$DIMALTTZ
 70
     0
  9
$DIMFIT
 70
     2
  9
$DIMUPT
 70
     0
  9
$DIMUNIT
 70
     2
  9
$DIMDEC
 70
     2
  9
$DIMTDEC
 70
     4
  9
$DIMALTU
 70
     2
  9
$DIMALTTD
 70
     2
  9
$DIMTXSTY
  7
STANDARD
  9
$DIMAUNIT
 70
     0
  9
$LUNITS
 70
     2
  9
$LUPREC
 70
     4
  9
$SKETCHINC
 40
1.0
  9
$FILLETRAD
 40
0.0
  9
$AUNITS
 70
     0
  9
$AUPREC
 70
     2
  9
$MENU
  1
acad
  9
$ELEVATION
 40
0.0
  9
$PELEVATION
 40
0.0
  9
$THICKNESS
 40
0.0
  9
$LIMCHECK
 70
     0
  9
$CHAMFERA
 40
10.0
  9
$CHAMFERB
 40
10.0
  9
$CHAMFERC
 40
20.0
  9
$CHAMFERD
 40
0.0
  9
$SKPOLY
 70
     0
  9
$TDCREATE
 40
2451318.621352917
  9
$TDUPDATE
 40
2458808.367064815
  9
$TDINDWG
 40
1.6592247222
  9
$TDUSRTIMER
 40
1.6592247222
  9
$USRTIMER
 70
     1
  9
$ANGBASE
 50
0.0
  9
$ANGDIR
 70
     0
  9
$PDMODE
 70
     0
  9
$PDSIZE
 40
0.0
  9
$PLINEWID
 40
0.0
  9
$COORDS
 70
     2
  9
$SPLFRAME
 70
     0
  9
$SPLINETYPE
 70
     6
  9
$SPLINESEGS
 70
     8
  9
$ATTDIA
 70
     0
  9
$ATTREQ
 70
     1
  9
$HANDLING
 70
     1
  9
$HANDSEED
  5
1B691
  9
$SURFTAB1
 70
     6
  9
$SURFTAB2
 70
     6
  9
$SURFTYPE
 70
     6
  9
$SURFU
 70
     6
  9
$SURFV
 70
     6
  9
$UCSNAME
  2

  9
$UCSORG
 10
0.0
 20
0.0
 30
0.0
  9
$UCSXDIR
 10
1.0
 20
0.0
 30
0.0
  9
$UCSYDIR
 10
0.0
 20
1.0
 30
0.0
  9
$PUCSNAME
  2

  9
$PUCSORG
 10
0.0
 20
0.0
 30
0.0
  9
$PUCSXDIR
 10
1.0
 20
0.0
 30
0.0
  9
$PUCSYDIR
 10
0.0
 20
1.0
 30
0.0
  9
$USERI1
 70
     0
  9
$USERI2
 70
     0
  9
$USERI3
 70
     0
  9
$USERI4
 70
     0
  9
$USERI5
 70
     0
  9
$USERR1
 40
0.0
  9
$USERR2
 40
0.0
  9
$USERR3
 40
0.0
  9
$USERR4
 40
0.0
  9
$USERR5
 40
0.0
  9
$WORLDVIEW
 70
     1
  9
$SHADEDGE
 70
     3
  9
$SHADEDIF
 70
    70
  9
$TILEMODE
 70
     1
  9
$MAXACTVP
 70
    48
  9
$PINSBASE
 10
0.0
 20
0.0
 30
0.0
  9
$PLIMCHECK
 70
     0
  9
$PEXTMIN
 10
1.000000000000000E+20
 20
1.000000000000000E+20
 30
1.000000000000000E+20
  9
$PEXTMAX
 10
-1.000000000000000E+20
 20
-1.000000000000000E+20
 30
-1.000000000000000E+20
  9
$PLIMMIN
 10
0.0
 20
0.0
  9
$PLIMMAX
 10
420.0
 20
297.0
  9
$UNITMODE
 70
     0
  9
$VISRETAIN
 70
     1
  9
$PLINEGEN
 70
     0
  9
$PSLTSCALE
 70
     1
  9
$TREEDEPTH
 70
  3020
  9
$PICKSTYLE
 70
     1
  9
$CMLSTYLE
  2
STANDARD
  9
$CMLJUST
 70
     0
  9
$CMLSCALE
 40
20.0
  9
$SAVEIMAGES
 70
     1
  0
ENDSEC
  0
SECTION
  2
CLASSES
  0
CLASS
  1
DICTIONARYVAR
  2
AcDbDictionaryVar
  3
ObjectDBX Classes
 90
        0
280
     0
281
     0
  0
CLASS
  1
IDBUFFER
  2
AcDbIdBuffer
  3
ObjectDBX Classes
 90
    32768
280
     0
281
     0
  0
CLASS
  1
LWPOLYLINE
  2
AcDbPolyline
  3
ObjectDBX Classes
 90
    32768
280
     0
281
     1
  0
CLASS
  1
ACDBDICTIONARYWDFLT
  2
AcDbDictionaryWithDefault
  3
ObjectDBX Classes
 90
    32768
280
     0
281
     0
  0
CLASS
  1
ACDBPLACEHOLDER
  2
AcDbPlaceHolder
  3
ObjectDBX Classes
 90
        0
280
     0
281
     0
  0
CLASS
  1
LAYOUT
  2
AcDbLayout
  3
ObjectDBX Classes
 90
        0
280
     0
281
     0
  0
CLASS
  1
TABLESTYLE
  2
AcDbTableStyle
  3
ObjectDBX Classes
 90
     4095
280
     0
281
     0
  0
CLASS
  1
SORTENTSTABLE
  2
AcDbSortentsTable
  3
ObjectDBX Classes
 90
    32768
280
     0
281
     0
  0
CLASS
  1
MATERIAL
  2
AcDbMaterial
  3
ObjectDBX Classes
 90
     1153
280
     0
281
     0
  0
CLASS
  1
VISUALSTYLE
  2
AcDbVisualStyle
  3
ObjectDBX Classes
 90
     4095
280
     0
281
     0
  0
CLASS
  1
SCALE
  2
AcDbScale
  3
ObjectDBX Classes
 90
     1153
280
     0
281
     0
  0
CLASS
  1
MLEADERSTYLE
  2
AcDbMLeaderStyle
  3
ACDB_MLEADERSTYLE_CLASS
 90
     4095
280
     0
281
     0
  0
CLASS
  1
CELLSTYLEMAP
  2
AcDbCellStyleMap
  3
ObjectDBX Classes
 90
     1152
280
     0
281
     0
  0
CLASS
  1
SUN
  2
AcDbSun
  3
SCENEOE
 90
     1153
280
     0
281
     0
  0
CLASS
  1
XRECORD
  2
AcDbXrecord
  3
ObjectDBX Classes
 90
    32768
280
     0
281
     0
  0
CLASS
  1
HATCH
  2
AcDbHatch
  3
ObjectDBX Classes
 90
    32768
280
     0
281
     1
  0
ENDSEC
  0
SECTION
  2
TABLES
  0
TABLE
  2
VPORT
  5
8
330
0
100
AcDbSymbolTable
 70
     1
  0
VPORT
  5
D991
330
8
100
AcDbSymbolTableRecord
100
AcDbViewportTableRecord
  2
*ACTIVE
 70
     0
 10
0.0
 20
0.0
 11
1.0
 21
1.0
 12
2228.860442158286
 22
-523.3056809517822
 13
0.0
 23
0.0
 14
10.0
 24
10.0
 15
10.0
 25
10.0
 16
0.0
 26
0.0
 36
1.0
 17
0.0
 27
0.0
 37
0.0
 40
449.8736842094282
 41
2.152122641509434
 42
50.0
 43
0.0
 44
0.0
 50
0.0
 51
0.0
 71
    16
 72
   100
 73
     1
 74
     1
 75
     0
 76
     0
 77
     0
 78
     0
1001
ACAD_NAV_VCDISPLAY
1070
     3
  0
ENDTAB
  0
TABLE
  2
LTYPE
  5
5
330
0
100
AcDbSymbolTable
 70
     2
  0
LTYPE
  5
12
330
5
100
AcDbSymbolTableRecord
100
AcDbLinetypeTableRecord
  2
BYBLOCK
 70
     0
  3

 72
    65
 73
     0
 40
0.0
  0
LTYPE
  5
13
330
5
100
AcDbSymbolTableRecord
100
AcDbLinetypeTableRecord
  2
BYLAYER
 70
     0
  3

 72
    65
 73
     0
 40
0.0
  0
LTYPE
  5
14
330
5
100
AcDbSymbolTableRecord
100
AcDbLinetypeTableRecord
  2
CONTINUOUS
 70
     0
  3
Solid line
 72
    65
 73
     0
 40
0.0
  0
LTYPE
  5
13839
330
5
100
AcDbSymbolTableRecord
100
AcDbLinetypeTableRecord
  2
CENTER2
 70
     0
  3
Center (.5x) ___ _ ___ _ ___ _ ___ _ ___ _ ___
 72
    65
 73
     4
 40
28.575
 49
19.05
 74
     0
 49
-3.175
 74
     0
 49
3.175
 74
     0
 49
-3.175
 74
     0
  0
ENDTAB
  0
TABLE
  2
LAYER
  5
2
102
{ACAD_XDICTIONARY
360
E6A6
102
}
330
0
100
AcDbSymbolTable
 70
     5
  0
LAYER
  5
E
102
{ACAD_XDICTIONARY
360
DA05
102
}
330
2
100
AcDbSymbolTableRecord
100
AcDbLayerTableRecord
  2
0
 70
     0
 62
     7
  6
CONTINUOUS
  0
LAYER
  5
29
102
{ACAD_XDICTIONARY
360
DA07
102
}
330
2
100
AcDbSymbolTableRecord
100
AcDbLayerTableRecord
  2
1CENTER
 70
     0
 62
     7
  6
CENTER2
  0
LAYER
  5
31
102
{ACAD_XDICTIONARY
360
DA09
102
}
330
2
100
AcDbSymbolTableRecord
100
AcDbLayerTableRecord
  2
1TEXT
 70
     0
 62
     7
  6
CONTINUOUS
  0
LAYER
  5
243
102
{ACAD_XDICTIONARY
360
DA0F
102
}
330
2
100
AcDbSymbolTableRecord
100
AcDbLayerTableRecord
  2
01
 70
     0
 62
     1
  6
CONTINUOUS
  0
LAYER
  5
24E
102
{ACAD_XDICTIONARY
360
DA15
102
}
330
2
100
AcDbSymbolTableRecord
100
AcDbLayerTableRecord
  2
1DIM
 70
     0
 62
     7
  6
CONTINUOUS
  0
ENDTAB
  0
TABLE
  2
STYLE
  5
3
330
0
100
AcDbSymbolTable
 70
     1
  0
STYLE
  5
F
330
3
100
AcDbSymbolTableRecord
100
AcDbTextStyleTableRecord
  2
STANDARD
 70
     0
 40
0.0
 41
1.0
 50
0.0
 71
     0
 42
4.0
  3
txt.shx
  4
extfont.shx
  0
ENDTAB
  0
TABLE
  2
VIEW
  5
6
330
0
100
AcDbSymbolTable
 70
     0
  0
ENDTAB
  0
TABLE
  2
UCS
  5
7
330
0
100
AcDbSymbolTable
 70
     0
  0
ENDTAB
  0
TABLE
  2
APPID
  5
9
330
0
100
AcDbSymbolTable
 70
    16
  0
APPID
  5
10
330
9
100
AcDbSymbolTableRecord
100
AcDbRegAppTableRecord
  2
ACAD
 70
     0
  0
APPID
  5
21
330
9
100
AcDbSymbolTableRecord
100
AcDbRegAppTableRecord
  2
DRAWINGVARIABLESXDATA
 70
     0
  0
APPID
  5
64
330
9
100
AcDbSymbolTableRecord
100
AcDbRegAppTableRecord
  2
CONTENTTABDATA
 70
     0
  0
APPID
  5
65
330
9
100
AcDbSymbolTableRecord
100
AcDbRegAppTableRecord
  2
CONTENTCURRENTTAB
 70
     0
  0
APPID
  5
66
330
9
100
AcDbSymbolTableRecord
100
AcDbRegAppTableRecord
  2
CONTENTBLOCKDESCRIPTION
 70
     0
  0
APPID
  5
67
330
9
100
AcDbSymbolTableRecord
100
AcDbRegAppTableRecord
  2
CONTENTBLOCKICON
 70
     0
  0
APPID
  5
68
330
9
100
AcDbSymbolTableRecord
100
AcDbRegAppTableRecord
  2
CONTENTLONGBLOCKNAME
 70
     0
  0
APPID
  5
2AE
330
9
100
AcDbSymbolTableRecord
100
AcDbRegAppTableRecord
  2
ACAD_PSEXT
 70
     0
  0
APPID
  5
D9E9
330
9
100
AcDbSymbolTableRecord
100
AcDbRegAppTableRecord
  2
ACAD_MLEADERVER
 70
     0
  0
APPID
  5
19CF0
330
9
100
AcDbSymbolTableRecord
100
AcDbRegAppTableRecord
  2
ACADANNOTATIVE
 70
     0
  0
APPID
  5
19CF1
330
9
100
AcDbSymbolTableRecord
100
AcDbRegAppTableRecord
  2
ACDBBLOCKREPETAG
 70
     0
  0
APPID
  5
19CF2
330
9
100
AcDbSymbolTableRecord
100
AcDbRegAppTableRecord
  2
ACLAYERTOOLS
 70
     0
  0
APPID
  5
19CF3
330
9
100
AcDbSymbolTableRecord
100
AcDbRegAppTableRecord
  2
ACAD_NAV_VCDISPLAY
 70
     0
  0
APPID
  5
1A86C
330
9
100
AcDbSymbolTableRecord
100
AcDbRegAppTableRecord
  2
ACAD_OBJECT_CHANGE_GUID
 70
     0
  0
APPID
  5
1AA0C
330
9
100
AcDbSymbolTableRecord
100
AcDbRegAppTableRecord
  2
ACAECLAYERSTANDARD
 70
     0
  0
APPID
  5
1B1E9
330
9
100
AcDbSymbolTableRecord
100
AcDbRegAppTableRecord
  2
ACAD_EXEMPT_FROM_CAD_STAND
 70
     0
  0
ENDTAB
  0
TABLE
  2
DIMSTYLE
  5
A
330
0
100
AcDbSymbolTable
 70
     1
  0
DIMSTYLE
105
48
330
A
100
AcDbSymbolTableRecord
100
AcDbDimStyleTableRecord
  2
NEWX10
 70
     0
  3
 
  4

  5

  6
OPEN30
  7
OPEN30
 40
1.0
 41
2.0
 42
0.0
 43
7.0
 44
1.0
 45
0.0
 46
0.0
 47
0.0
 48
0.0
140
3.5
141
0.0
142
0.0
143
25.4
144
1.0
145
0.0
146
0.7
147
0.7
 71
     0
 72
     0
 73
     0
 74
     0
 75
     0
 76
     0
 77
     1
 78
     8
170
     0
171
     2
172
     1
173
     1
174
     0
175
     0
176
   256
177
   256
178
   201
179
     2
270
     2
271
     2
272
     4
273
     2
274
     2
340
F
275
     0
280
     0
281
     0
282
     0
283
     1
284
     8
285
     0
286
     0
287
     2
288
     0
  0
ENDTAB
  0
TABLE
  2
BLOCK_RECORD
  5
1
330
0
100
AcDbSymbolTable
 70
     8
  0
BLOCK_RECORD
  5
18
102
{ACAD_XDICTIONARY
360
88F
102
}
330
1
100
AcDbSymbolTableRecord
100
AcDbBlockTableRecord
  2
*MODEL_SPACE
  0
BLOCK_RECORD
  5
15
330
1
100
AcDbSymbolTableRecord
100
AcDbBlockTableRecord
  2
*PAPER_SPACE
  0
BLOCK_RECORD
  5
42
330
1
100
AcDbSymbolTableRecord
100
AcDbBlockTableRecord
  2
_OPEN30
  0
BLOCK_RECORD
  5
19D42
330
1
100
AcDbSymbolTableRecord
100
AcDbBlockTableRecord
  2
A3WAKUKAWAJUN2017_HYOUDAI_
  0
BLOCK_RECORD
  5
1B4F1
330
1
100
AcDbSymbolTableRecord
100
AcDbBlockTableRecord
  2
*X39
  0
BLOCK_RECORD
  5
1B53F
330
1
100
AcDbSymbolTableRecord
100
AcDbBlockTableRecord
  2
*X40
  0
BLOCK_RECORD
  5
1B591
330
1
100
AcDbSymbolTableRecord
100
AcDbBlockTableRecord
  2
*X41
  0
BLOCK_RECORD
  5
1B5E2
330
1
100
AcDbSymbolTableRecord
100
AcDbBlockTableRecord
  2
*X42
  0
BLOCK_RECORD
  5
1B61F
330
1
100
AcDbSymbolTableRecord
100
AcDbBlockTableRecord
  2
*X43
  0
BLOCK_RECORD
  5
1B65F
330
1
100
AcDbSymbolTableRecord
100
AcDbBlockTableRecord
  2
*X44
  0
ENDTAB
  0
ENDSEC
  0
SECTION
  2
BLOCKS
  0
BLOCK
  5
19
330
18
100
AcDbEntity
  8
0
100
AcDbBlockBegin
  2
*MODEL_SPACE
 70
     0
 10
0.0
 20
0.0
 30
0.0
  3
*MODEL_SPACE
  1

  0
ENDBLK
  5
1A
330
18
100
AcDbEntity
  8
0
100
AcDbBlockEnd
  0
BLOCK
  5
16
330
15
100
AcDbEntity
 67
     1
  8
0
100
AcDbBlockBegin
  2
*PAPER_SPACE
 70
     0
 10
0.0
 20
0.0
 30
0.0
  3
*PAPER_SPACE
  1

  0
ENDBLK
  5
17
330
15
100
AcDbEntity
 67
     1
  8
0
100
AcDbBlockEnd
  0
BLOCK
  5
43
330
42
100
AcDbEntity
  8
0
100
AcDbBlockBegin
  2
_OPEN30
 70
     0
 10
0.0
 20
0.0
 30
0.0
  3
_OPEN30
  1

  0
LINE
  5
44
330
42
100
AcDbEntity
  8
0
  6
BYBLOCK
 62
     0
100
AcDbLine
 10
-1.0
 20
0.26794919
 30
0.0
 11
0.0
 21
0.0
 31
0.0
  0
LINE
  5
45
330
42
100
AcDbEntity
  8
0
  6
BYBLOCK
 62
     0
100
AcDbLine
 10
0.0
 20
0.0
 30
0.0
 11
-1.0
 21
-0.26794919
 31
0.0
  0
LINE
  5
46
330
42
100
AcDbEntity
  8
0
  6
BYBLOCK
 62
     0
100
AcDbLine
 10
0.0
 20
0.0
 30
0.0
 11
-1.0
 21
0.0
 31
0.0
  0
ENDBLK
  5
47
330
42
100
AcDbEntity
  8
0
100
AcDbBlockEnd
  0
BLOCK
  5
1A550
330
19D42
100
AcDbEntity
  8
0
100
AcDbBlockBegin
  2
A3WAKUKAWAJUN2017_HYOUDAI_
 70
     0
 10
0.0
 20
0.0
 30
0.0
  3
A3WAKUKAWAJUN2017_HYOUDAI_
  1

  0
LINE
  5
19D44
330
19D42
100
AcDbEntity
  8
0
100
AcDbLine
 10
13.26299999998673
 20
-0.0001000000000317
 30
0.0
 11
9.236999999990758
 21
8.999899999990987
 31
0.0
1001
ACAD
1000
ASC_BOUNDS
1002
{
1070
    19
1005
19D85
1002
}
  0
LINE
  5
19D45
330
19D42
100
AcDbEntity
  8
0
100
AcDbLine
 10
5.657999999994331
 20
0.9999999999989768
 30
0.0
 11
9.236999999990758
 21
8.999999999991019
 31
0.0
1001
ACAD
1000
ASC_BOUNDS
1002
{
1070
    19
1005
19D85
1002
}
  0
LINE
  5
19D46
330
19D42
100
AcDbEntity
  8
0
100
AcDbLine
 10
18.59199999998134
 20
-0.2368999999997641
 30
0.0
 11
16.46099999998353
 21
5.432899999994561
 31
0.0
1001
ACAD
1000
ASC_BOUNDS
1002
{
1070
    19
1005
19D86
1002
}
  0
LINE
  5
19D47
330
19D42
100
AcDbEntity
  8
0
100
AcDbLine
 10
18.59199999998134
 20
-0.2368999999997641
 30
0.0
 11
22.38199999997767
 21
8.763099999991255
 31
0.0
1001
ACAD
1000
ASC_BOUNDS
1002
{
1070
    19
1005
19D86
1002
}
  0
LINE
  5
19D48
330
19D42
100
AcDbEntity
  8
0
100
AcDbLine
 10
14.32899999998563
 20
-0.2368999999997641
 30
0.0
 11
16.46099999998353
 21
5.432899999994561
 31
0.0
1001
ACAD
1000
ASC_BOUNDS
1002
{
1070
    19
1005
19D86
1002
}
  0
LINE
  5
19D49
330
19D42
100
AcDbEntity
  8
0
100
AcDbLine
 10
14.32899999998563
 20
-0.2368999999997641
 30
0.0
 11
10.53899999998941
 21
8.763099999991255
 31
0.0
1001
ACAD
1000
ASC_BOUNDS
1002
{
1070
    19
1005
19D86
1002
}
  0
LINE
  5
19D4A
330
19D42
100
AcDbEntity
  8
0
100
AcDbLine
 10
19.53899999998043
 20
-0.0001000000000317
 30
0.0
 11
23.56599999997638
 21
8.999899999990987
 31
0.0
1001
ACAD
1000
ASC_BOUNDS
1002
{
1070
    19
1005
19D87
1002
}
  0
LINE
  5
19D4B
330
19D42
100
AcDbEntity
  8
0
100
AcDbLine
 10
26.97358892824991
 20
1.383099999991202
 30
0.0
 11
23.56599999997638
 21
8.999899999990987
 31
0.0
1001
ACAD
1000
ASC_BOUNDS
1002
{
1070
    19
1005
19D87
1002
}
  0
LINE
  5
19D4C
330
19D42
100
AcDbEntity
  8
0
100
AcDbLine
 10
5.657999999994331
 20
0.9999999999989768
 30
0.0
 11
3.181999999996833
 21
4.668599999995308
 31
0.0
1001
ACAD
1000
ASC_BOUNDS
1002
{
1070
    19
1005
19D85
1002
}
  0
LINE
  5
19D4D
330
19D42
100
AcDbEntity
  8
0
100
AcDbLine
 10
4.617999999995391
 20
-0.0001000000000317
 30
0.0
 11
1.420999999998571
 21
4.736799999995242
 31
0.0
1001
ACAD
1000
ASC_BOUNDS
1002
{
1070
    19
1005
19D85
1002
}
  0
LINE
  5
19D4E
330
19D42
100
AcDbEntity
  8
0
100
AcDbLine
 10
1.420999999998571
 20
8.763099999991255
 30
0.0
 11
1.420999999998571
 21
0.0
 31
0.0
1001
ACAD
1000
ASC_BOUNDS
1002
{
1070
    19
1005
19D8A
1002
}
  0
LINE
  5
19D4F
330
19D42
100
AcDbEntity
  8
0
100
AcDbLine
 10
0.0
 20
8.763099999991255
 30
0.0
 11
0.0
 21
0.0
 31
0.0
1001
ACAD
1000
ASC_BOUNDS
1002
{
1070
    19
1005
19D8A
1002
}
  0
LINE
  5
19D50
330
19D42
100
AcDbEntity
  8
0
100
AcDbLine
 10
6.766999999993232
 20
-0.0001000000000317
 30
0.0
 11
7.826999999992154
 21
2.368399999997621
 31
0.0
1001
ACAD
1000
ASC_BOUNDS
1002
{
1070
    19
1005
19D85
1002
}
  0
LINE
  5
19D51
330
19D42
100
AcDbEntity
  8
0
100
AcDbLine
 10
0.0
 20
0.0
 30
0.0
 11
1.420999999998571
 21
0.0
 31
0.0
1001
ACAD
1000
ASC_BOUNDS
1002
{
1070
    19
1005
19D8A
1002
}
  0
LINE
  5
19D52
330
19D42
100
AcDbEntity
  8
0
100
AcDbLine
 10
4.617999999995391
 20
0.0
 30
0.0
 11
6.766999999993232
 21
0.0
 31
0.0
1001
ACAD
1000
ASC_BOUNDS
1002
{
1070
    19
1005
19D85
1002
}
  0
LINE
  5
19D53
330
19D42
100
AcDbEntity
  8
0
100
AcDbLine
 10
11.70599999998831
 20
-0.0001000000000317
 30
0.0
 11
10.64699999998936
 21
2.368399999997621
 31
0.0
1001
ACAD
1000
ASC_BOUNDS
1002
{
1070
    19
1005
19D85
1002
}
  0
LINE
  5
19D54
330
19D42
100
AcDbEntity
  8
0
100
AcDbLine
 10
7.826999999992154
 20
2.368399999997621
 30
0.0
 11
10.64699999998936
 21
2.368399999997621
 31
0.0
1001
ACAD
1000
ASC_BOUNDS
1002
{
1070
    19
1005
19D85
1002
}
  0
LINE
  5
19D55
330
19D42
100
AcDbEntity
  8
0
100
AcDbLine
 10
11.70599999998831
 20
0.0
 30
0.0
 11
13.26299999998673
 21
0.0
 31
0.0
1001
ACAD
1000
ASC_BOUNDS
1002
{
1070
    19
1005
19D85
1002
}
  0
LINE
  5
19D56
330
19D42
100
AcDbEntity
  8
0
100
AcDbLine
 10
22.15599999997789
 20
2.368399999997621
 30
0.0
 11
24.97599999997499
 21
2.368399999997621
 31
0.0
1001
ACAD
1000
ASC_BOUNDS
1002
{
1070
    19
1005
19D87
1002
}
  0
LINE
  5
19D57
330
19D42
100
AcDbEntity
  8
0
100
AcDbLine
 10
19.53899999998043
 20
0.0
 30
0.0
 11
21.09599999997886
 21
0.0
 31
0.0
1001
ACAD
1000
ASC_BOUNDS
1002
{
1070
    19
1005
19D87
1002
}
  0
LINE
  5
19D58
330
19D42
100
AcDbEntity
  8
0
100
AcDbLine
 10
21.09599999997886
 20
-0.0001000000000317
 30
0.0
 11
22.15599999997789
 21
2.368399999997621
 31
0.0
1001
ACAD
1000
ASC_BOUNDS
1002
{
1070
    19
1005
19D87
1002
}
  0
LINE
  5
19D59
330
19D42
100
AcDbEntity
  8
0
100
AcDbLine
 10
26.02015566812236
 20
0.0330999999912365
 30
0.0
 11
24.97599999997499
 21
2.368399999997621
 31
0.0
1001
ACAD
1000
ASC_BOUNDS
1002
{
1070
    19
1005
19D87
1002
}
  0
LINE
  5
19D5A
330
19D42
100
AcDbEntity
  8
0
100
AcDbLine
 10
14.32399999998563
 20
3.315799999996671
 30
0.0
 11
16.46099999998353
 21
8.999899999990987
 31
0.0
1001
ACAD
1000
ASC_BOUNDS
1002
{
1070
    19
1005
19D86
1002
}
  0
LINE
  5
19D5B
330
19D42
100
AcDbEntity
  8
0
100
AcDbLine
 10
6.432999999993513
 20
8.763099999991255
 30
0.0
 11
3.181999999996833
 21
4.668599999995308
 31
0.0
1001
ACAD
1000
ASC_BOUNDS
1002
{
1070
    19
1005
19D85
1002
}
  0
LINE
  5
19D5C
330
19D42
100
AcDbEntity
  8
0
100
AcDbLine
 10
4.617999999995391
 20
8.763099999991255
 30
0.0
 11
1.420999999998571
 21
4.736799999995242
 31
0.0
1001
ACAD
1000
ASC_BOUNDS
1002
{
1070
    19
1005
19D85
1002
}
  0
LINE
  5
19D5D
330
19D42
100
AcDbEntity
  8
0
100
AcDbLine
 10
0.0
 20
8.763099999991255
 30
0.0
 11
1.420999999998571
 21
8.763099999991255
 31
0.0
1001
ACAD
1000
ASC_BOUNDS
1002
{
1070
    19
1005
19D8A
1002
}
  0
LINE
  5
19D5E
330
19D42
100
AcDbEntity
  8
0
100
AcDbLine
 10
4.617999999995391
 20
8.763099999991255
 30
0.0
 11
6.432999999993513
 21
8.763099999991255
 31
0.0
1001
ACAD
1000
ASC_BOUNDS
1002
{
1070
    19
1005
19D85
1002
}
  0
LINE
  5
19D5F
330
19D42
100
AcDbEntity
  8
0
100
AcDbLine
 10
14.32399999998563
 20
3.315799999996671
 30
0.0
 11
12.02999999998792
 21
8.763099999991255
 31
0.0
1001
ACAD
1000
ASC_BOUNDS
1002
{
1070
    19
1005
19D86
1002
}
  0
LINE
  5
19D60
330
19D42
100
AcDbEntity
  8
0
100
AcDbLine
 10
10.06399999998996
 20
3.670999999996297
 30
0.0
 11
9.236999999990758
 21
5.5200999999945
 31
0.0
1001
ACAD
1000
ASC_BOUNDS
1002
{
1070
    19
1005
19D85
1002
}
  0
LINE
  5
19D61
330
19D42
100
AcDbEntity
  8
0
100
AcDbLine
 10
8.409999999991555
 20
3.670999999996297
 30
0.0
 11
9.236999999990758
 21
5.5200999999945
 31
0.0
1001
ACAD
1000
ASC_BOUNDS
1002
{
1070
    19
1005
19D85
1002
}
  0
LINE
  5
19D62
330
19D42
100
AcDbEntity
  8
0
100
AcDbLine
 10
8.409999999991555
 20
3.670999999996297
 30
0.0
 11
10.06399999998996
 21
3.670999999996297
 31
0.0
1001
ACAD
1000
ASC_BOUNDS
1002
{
1070
    19
1005
19D85
1002
}
  0
LINE
  5
19D63
330
19D42
100
AcDbEntity
  8
0
100
AcDbLine
 10
10.53899999998941
 20
8.763099999991255
 30
0.0
 11
12.02999999998792
 21
8.763099999991255
 31
0.0
1001
ACAD
1000
ASC_BOUNDS
1002
{
1070
    19
1005
19D86
1002
}
  0
LINE
  5
19D64
330
19D42
100
AcDbEntity
  8
0
100
AcDbLine
 10
22.7389999999773
 20
3.670999999996297
 30
0.0
 11
23.56599999997638
 21
5.5200999999945
 31
0.0
1001
ACAD
1000
ASC_BOUNDS
1002
{
1070
    19
1005
19D87
1002
}
  0
LINE
  5
19D65
330
19D42
100
AcDbEntity
  8
0
100
AcDbLine
 10
22.7389999999773
 20
3.670999999996297
 30
0.0
 11
24.39299999997559
 21
3.670999999996297
 31
0.0
1001
ACAD
1000
ASC_BOUNDS
1002
{
1070
    19
1005
19D87
1002
}
  0
LINE
  5
19D66
330
19D42
100
AcDbEntity
  8
0
100
AcDbLine
 10
18.59799999998143
 20
3.315799999996671
 30
0.0
 11
20.89099999997916
 21
8.763099999991255
 31
0.0
1001
ACAD
1000
ASC_BOUNDS
1002
{
1070
    19
1005
19D86
1002
}
  0
LINE
  5
19D67
330
19D42
100
AcDbEntity
  8
0
100
AcDbLine
 10
18.59799999998143
 20
3.315799999996671
 30
0.0
 11
16.46099999998353
 21
8.999899999990987
 31
0.0
1001
ACAD
1000
ASC_BOUNDS
1002
{
1070
    19
1005
19D86
1002
}
  0
LINE
  5
19D68
330
19D42
100
AcDbEntity
  8
0
100
AcDbLine
 10
20.89099999997916
 20
8.763099999991255
 30
0.0
 11
22.38199999997767
 21
8.763099999991255
 31
0.0
1001
ACAD
1000
ASC_BOUNDS
1002
{
1070
    19
1005
19D86
1002
}
  0
LINE
  5
19D69
330
19D42
100
AcDbEntity
  8
0
100
AcDbLine
 10
24.39299999997559
 20
3.670999999996297
 30
0.0
 11
23.56599999997638
 21
5.5200999999945
 31
0.0
1001
ACAD
1000
ASC_BOUNDS
1002
{
1070
    19
1005
19D87
1002
}
  0
LINE
  5
19D6A
330
19D42
100
AcDbEntity
  8
0
100
AcDbLine
 10
44.99999999995498
 20
-0.2368999999997641
 30
0.0
 11
40.02599999995994
 21
5.341799999994635
 31
0.0
1001
ACAD
1000
ASC_BOUNDS
1002
{
1070
    19
1005
19D89
1002
}
  0
LINE
  5
19D6B
330
19D42
100
AcDbEntity
  8
0
100
AcDbLine
 10
40.02599999995994
 20
5.341799999994635
 30
0.0
 11
40.02599999995994
 21
0.0
 31
0.0
1001
ACAD
1000
ASC_BOUNDS
1002
{
1070
    19
1005
19D89
1002
}
  0
LINE
  5
19D6C
330
19D42
100
AcDbEntity
  8
0
100
AcDbLine
 10
38.60499999996136
 20
8.999999999991019
 30
0.0
 11
38.60499999996136
 21
0.0
 31
0.0
1001
ACAD
1000
ASC_BOUNDS
1002
{
1070
    19
1005
19D89
1002
}
  0
LINE
  5
19D6D
330
19D42
100
AcDbEntity
  8
0
100
AcDbLine
 10
44.99999999995498
 20
8.763099999991255
 30
0.0
 11
44.99999999995498
 21
-0.2368999999997641
 31
0.0
1001
ACAD
1000
ASC_BOUNDS
1002
{
1070
    19
1005
19D89
1002
}
  0
LINE
  5
19D6E
330
19D42
100
AcDbEntity
  8
0
100
AcDbLine
 10
38.60499999996136
 20
0.0
 30
0.0
 11
40.02599999995994
 21
0.0
 31
0.0
1001
ACAD
1000
ASC_BOUNDS
1002
{
1070
    19
1005
19D89
1002
}
  0
LINE
  5
19D6F
330
19D42
100
AcDbEntity
  8
0
100
AcDbLine
 10
43.57899999995641
 20
3.421199999996588
 30
0.0
 11
38.60499999996136
 21
8.999899999990987
 31
0.0
1001
ACAD
1000
ASC_BOUNDS
1002
{
1070
    19
1005
19D89
1002
}
  0
LINE
  5
19D70
330
19D42
100
AcDbEntity
  8
0
100
AcDbLine
 10
43.57899999995641
 20
8.763099999991255
 30
0.0
 11
43.57899999995641
 21
3.421199999996588
 31
0.0
1001
ACAD
1000
ASC_BOUNDS
1002
{
1070
    19
1005
19D89
1002
}
  0
LINE
  5
19D71
330
19D42
100
AcDbEntity
  8
0
100
AcDbLine
 10
43.57899999995641
 20
8.763099999991255
 30
0.0
 11
44.99999999995498
 21
8.763099999991255
 31
0.0
1001
ACAD
1000
ASC_BOUNDS
1002
{
1070
    19
1005
19D89
1002
}
  0
LINE
  5
19D72
330
19D42
100
AcDbEntity
  8
0
100
AcDbLine
 10
37.67199999996831
 20
8.763099999991255
 30
0.0
 11
36.23199999996837
 21
8.763099999991255
 31
0.0
  0
LINE
  5
19D73
330
19D42
100
AcDbEntity
  8
0
100
AcDbLine
 10
31.64199999996833
 20
8.763099999991255
 30
0.0
 11
31.64199999996833
 21
2.481619422925121
 31
0.0
  0
LINE
  5
19D74
330
19D42
100
AcDbEntity
  8
0
100
AcDbLine
 10
37.67199999996831
 20
8.763099999991255
 30
0.0
 11
37.67199999996831
 21
2.481619422925121
 31
0.0
  0
LINE
  5
19D75
330
19D42
100
AcDbEntity
  8
0
100
AcDbLine
 10
36.23199999996837
 20
8.763099999991255
 30
0.0
 11
36.23199999996837
 21
2.481619422925064
 31
0.0
  0
LINE
  5
19D76
330
19D42
100
AcDbEntity
  8
0
100
AcDbLine
 10
33.08199999996839
 20
8.763099999991255
 30
0.0
 11
33.08199999996839
 21
2.481619422925121
 31
0.0
  0
ARC
  5
19D77
330
19D42
100
AcDbEntity
  8
0
100
AcDbCircle
 10
34.65699999996832
 20
3.183099999991214
 30
0.0
 40
3.420000000000007
100
AcDbArc
 50
240.0000000000255
 51
299.9999999999766
  0
ARC
  5
19D78
330
19D42
100
AcDbEntity
  8
0
100
AcDbCircle
 10
34.65699999996832
 20
3.183099999991214
 30
0.0
 40
1.97999999999999
100
AcDbArc
 50
240.000000000026
 51
299.9999999999703
  0
LINE
  5
19D79
330
19D42
100
AcDbEntity
  8
0
100
AcDbLine
 10
33.08199999996828
 20
8.763099999991255
 30
0.0
 11
31.64199999996833
 21
8.763099999991255
 31
0.0
  0
ARC
  5
19D7A
330
19D42
100
AcDbEntity
  8
0
100
AcDbCircle
 10
35.06199999996829
 20
2.481619422925064
 30
0.0
 40
1.17
100
AcDbArc
 50
299.9999999999699
 51
0.0
  0
ARC
  5
19D7B
330
19D42
100
AcDbEntity
  8
0
100
AcDbCircle
 10
34.25199999996835
 20
2.481619422925121
 30
0.0
 40
1.17
100
AcDbArc
 50
180.0
 51
240.0000000000238
  0
ARC
  5
19D7C
330
19D42
100
AcDbEntity
  8
0
100
AcDbCircle
 10
35.06199999996841
 20
2.481619422925121
 30
0.0
 40
2.61
100
AcDbArc
 50
299.9999999999756
 51
0.0
  0
ARC
  5
19D7D
330
19D42
100
AcDbEntity
  8
0
100
AcDbCircle
 10
34.25199999996835
 20
2.481619422925121
 30
0.0
 40
2.61
100
AcDbArc
 50
180.0
 51
240.0000000000244
  0
LINE
  5
19D7E
330
19D42
100
AcDbEntity
  8
0
100
AcDbLine
 10
29.30199999996933
 20
8.763099999991255
 30
0.0
 11
30.74199999996927
 21
8.763099999991255
 31
0.0
1001
ACAD
1000
ASC_BOUNDS
1002
{
1070
    19
1005
19D87
1002
}
  0
LINE
  5
19D7F
330
19D42
100
AcDbEntity
  8
0
100
AcDbLine
 10
30.74199999996927
 20
8.763099999991255
 30
0.0
 11
30.74199999996927
 21
2.373099999991211
 31
0.0
1001
ACAD
1000
ASC_BOUNDS
1002
{
1070
    19
1005
19D87
1002
}
  0
LINE
  5
19D80
330
19D42
100
AcDbEntity
  8
0
100
AcDbLine
 10
26.02015566812236
 20
0.0330999999912365
 30
0.0
 11
28.40199999996923
 21
0.0330999999912365
 31
0.0
1001
ACAD
1000
ASC_BOUNDS
1002
{
1070
    19
1005
19D87
1002
}
  0
LINE
  5
19D81
330
19D42
100
AcDbEntity
  8
0
100
AcDbLine
 10
29.30199999996933
 20
8.763099999991255
 30
0.0
 11
29.30199999996933
 21
2.283099999991236
 31
0.0
1001
ACAD
1000
ASC_BOUNDS
1002
{
1070
    19
1005
19D87
1002
}
  0
LINE
  5
19D82
330
19D42
100
AcDbEntity
  8
0
100
AcDbLine
 10
26.97358892824991
 20
1.383099999991202
 30
0.0
 11
28.40199999996923
 21
1.383099999991202
 31
0.0
1001
ACAD
1000
ASC_BOUNDS
1002
{
1070
    19
1005
19D87
1002
}
  0
ARC
  5
19D83
330
19D42
100
AcDbEntity
  8
0
100
AcDbCircle
 10
28.40199999996923
 20
2.283099999991236
 30
0.0
 40
0.9
100
AcDbArc
 50
270.0
 51
0.0
1001
ACAD
1000
ASC_BOUNDS
1002
{
1070
    19
1005
19D87
1002
}
  0
ARC
  5
19D84
330
19D42
100
AcDbEntity
  8
0
100
AcDbCircle
 10
28.40199999996923
 20
2.373099999991211
 30
0.0
 40
2.34
100
AcDbArc
 50
270.0
 51
0.0
1001
ACAD
1000
ASC_BOUNDS
1002
{
1070
    19
1005
19D87
1002
}
  0
INSERT
  5
19D85
330
19D42
100
AcDbEntity
  8
0
100
AcDbBlockReference
  2
*X39
 10
0.0
 20
0.0
 30
0.0
1001
ACAD
1000
HATCH
1002
{
1070
    19
1000
ANSI37
1040
0.15
1040
0.0
1000
ASC_BOUNDS
1070
     2
1070
     2
1070
    12
1005
19D44
1005
19D45
1005
19D4C
1005
19D5B
1005
19D5E
1005
19D5C
1005
19D4D
1005
19D52
1005
19D50
1005
19D54
1005
19D53
1005
19D55
1070
     2
1070
     3
1005
19D60
1005
19D62
1005
19D61
1000
ASC_SEEDPOINT
1011
3.614004224891801
1021
2.996669441146025
1031
0.0
1000
R14_HATCH_DATA
1000
19D85
1011
1.0
1021
0.0
1031
0.0
1011
0.0
1021
1.0
1031
0.0
1011
0.0
1021
0.0
1031
1.0
1040
0.0
1010
0.0
1020
0.0
1030
1.0
1000
ANSI37
1070
     0
1070
     1
1071
        2
1071
        7
1070
     0
1070
     1
1071
       17
1040
13.26299999998673
1040
-0.0001000000000317
1040
9.236999999990758
1040
8.999899999990987
1040
9.236999999990758
1040
8.999999999991019
1040
5.657999999994331
1040
0.9999999999989768
1040
3.181999999996833
1040
4.668599999995308
1040
6.432999999993513
1040
8.763099999991255
1040
4.617999999995391
1040
8.763099999991255
1040
1.420999999998571
1040
4.736799999995242
1040
4.617999999995391
1040
-0.0001000000000317
1040
4.617999999995391
1040
0.0
1040
6.766999999993232
1040
0.0
1040
6.766999999993232
1040
-0.0001000000000317
1040
7.826999999992154
1040
2.368399999997621
1040
10.64699999998936
1040
2.368399999997621
1040
11.70599999998831
1040
-0.0001000000000317
1040
11.70599999998831
1040
0.0
1040
13.26299999998673
1040
0.0
1071
       12
1005
19D44
1005
19D45
1005
19D4C
1005
19D5B
1005
19D5E
1005
19D5C
1005
19D4D
1005
19D52
1005
19D50
1005
19D54
1005
19D53
1005
19D55
1071
       22
1070
     0
1070
     1
1071
        3
1040
9.236999999990758
1040
5.5200999999945
1040
10.06399999998996
1040
3.670999999996297
1040
8.409999999991555
1040
3.670999999996297
1071
        3
1005
19D60
1005
19D62
1005
19D61
1070
     0
1070
     1
1040
0.0
1040
0.15
1070
     0
1070
     2
1040
0.7853981633974483
1040
49.29960901727088
1040
-10.17736998311392
1040
-0.3367596045400932
1040
0.3367596045400932
1070
     0
1040
2.356194490192345
1040
49.29960901727088
1040
-10.17736998311392
1040
-0.3367596045400932
1040
-0.3367596045400932
1070
     0
1040
0.0110235143455945
1071
        2
1040
3.614004224891801
1040
2.996669441146025
1040
0.0
1040
3.614004224891801
1040
2.996669441146025
1040
0.0
1002
}
  0
INSERT
  5
19D86
330
19D42
100
AcDbEntity
  8
0
100
AcDbBlockReference
  2
*X40
 10
0.0
 20
0.0
 30
0.0
1001
ACAD
1000
HATCH
1002
{
1070
    19
1000
ANSI37
1040
0.15
1040
0.0
1000
ASC_BOUNDS
1070
     1
1070
     2
1070
    10
1005
19D46
1005
19D47
1005
19D68
1005
19D66
1005
19D67
1005
19D5A
1005
19D5F
1005
19D63
1005
19D49
1005
19D48
1000
ASC_SEEDPOINT
1011
14.73245321214324
1021
2.798246178283421
1031
0.0
1000
R14_HATCH_DATA
1000
19D86
1011
1.0
1021
0.0
1031
0.0
1011
0.0
1021
1.0
1031
0.0
1011
0.0
1021
0.0
1031
1.0
1040
0.0
1010
0.0
1020
0.0
1030
1.0
1000
ANSI37
1070
     0
1070
     1
1071
        1
1071
        7
1070
     0
1070
     1
1071
       10
1040
16.46099999998353
1040
5.432899999994561
1040
18.59199999998134
1040
-0.2368999999997641
1040
22.38199999997767
1040
8.763099999991255
1040
20.89099999997916
1040
8.763099999991255
1040
18.59799999998143
1040
3.315799999996671
1040
16.46099999998353
1040
8.999899999990987
1040
14.32399999998563
1040
3.315799999996671
1040
12.02999999998792
1040
8.763099999991255
1040
10.53899999998941
1040
8.763099999991255
1040
14.32899999998563
1040
-0.2368999999997641
1071
       10
1005
19D46
1005
19D47
1005
19D68
1005
19D66
1005
19D67
1005
19D5A
1005
19D5F
1005
19D63
1005
19D49
1005
19D48
1070
     0
1070
     1
1040
0.0
1040
0.15
1070
     0
1070
     2
1040
0.7853981633974483
1040
49.29960901727088
1040
-10.17736998311392
1040
-0.3367596045400932
1040
0.3367596045400932
1070
     0
1040
2.356194490192345
1040
49.29960901727088
1040
-10.17736998311392
1040
-0.3367596045400932
1040
-0.3367596045400932
1070
     0
1040
0.0110235143455945
1071
        1
1040
14.73245321214324
1040
2.798246178283421
1040
0.0
1002
}
  0
INSERT
  5
19D87
330
19D42
100
AcDbEntity
  8
0
100
AcDbBlockReference
  2
*X41
 10
0.0
 20
0.0
 30
0.0
1001
ACAD
1000
HATCH
1002
{
1070
    19
1000
ANSI37
1040
0.15
1040
0.0
1000
ASC_BOUNDS
1070
     2
1070
     2
1070
    13
1005
19D4A
1005
19D57
1005
19D58
1005
19D56
1005
19D59
1005
19D80
1005
19D84
1005
19D7F
1005
19D7E
1005
19D81
1005
19D83
1005
19D82
1005
19D4B
1070
     2
1070
     3
1005
19D64
1005
19D69
1005
19D65
1000
ASC_SEEDPOINT
1011
21.97929957367762
1021
3.294304244259308
1031
0.0
1000
R14_HATCH_DATA
1000
19D87
1011
1.0
1021
0.0
1031
0.0
1011
0.0
1021
1.0
1031
0.0
1011
0.0
1021
0.0
1031
1.0
1040
0.0
1010
0.0
1020
0.0
1030
1.0
1000
ANSI37
1070
     0
1070
     1
1071
        2
1071
        7
1070
     1
1070
     1
1071
       15
1040
23.56599999997638
1040
8.999899999990987
1040
0.0
1040
19.53899999998043
1040
-0.0001000000000317
1040
0.0
1040
19.53899999998043
1040
0.0
1040
0.0
1040
21.09599999997886
1040
0.0
1040
0.0
1040
21.09599999997886
1040
-0.0001000000000317
1040
0.0
1040
22.15599999997789
1040
2.368399999997621
1040
0.0
1040
24.97599999997499
1040
2.368399999997621
1040
0.0
1040
26.02015566812236
1040
0.0330999999912365
1040
0.0
1040
28.40199999996923
1040
0.0330999999912365
1040
0.414213562373095
1040
30.74199999996923
1040
2.373099999991211
1040
0.0
1040
30.74199999996927
1040
8.763099999991255
1040
0.0
1040
29.30199999996933
1040
8.763099999991255
1040
0.0
1040
29.30199999996933
1040
2.283099999991236
1040
-0.414213562373095
1040
28.40199999996923
1040
1.383099999991237
1040
0.0
1040
26.97358892824991
1040
1.383099999991202
1040
0.0
1071
       13
1005
19D4A
1005
19D57
1005
19D58
1005
19D56
1005
19D59
1005
19D80
1005
19D84
1005
19D7F
1005
19D7E
1005
19D81
1005
19D83
1005
19D82
1005
19D4B
1071
       22
1070
     0
1070
     1
1071
        3
1040
22.7389999999773
1040
3.670999999996297
1040
23.56599999997638
1040
5.5200999999945
1040
24.39299999997559
1040
3.670999999996297
1071
        3
1005
19D64
1005
19D69
1005
19D65
1070
     0
1070
     1
1040
0.0
1040
0.15
1070
     0
1070
     2
1040
0.7853981633974483
1040
49.29960901727088
1040
-10.17736998311392
1040
-0.3367596045400932
1040
0.3367596045400932
1070
     0
1040
2.356194490192345
1040
49.29960901727088
1040
-10.17736998311392
1040
-0.3367596045400932
1040
-0.3367596045400932
1070
     0
1040
0.0110235143455945
1071
        2
1040
21.97929957367762
1040
3.294304244259308
1040
0.0
1040
21.97929957367762
1040
3.294304244259308
1040
0.0
1002
}
  0
INSERT
  5
19D88
330
19D42
100
AcDbEntity
  8
0
100
AcDbBlockReference
  2
*X42
 10
0.0
 20
0.0
 30
0.0
1001
ACAD
1000
HATCH
1002
{
1070
    19
1000
ANSI37
1040
0.15
1040
0.0
1000
R14_HATCH_DATA
1000
19D88
1011
1.0
1021
0.0
1031
0.0
1011
0.0
1021
1.0
1031
0.0
1011
0.0
1021
0.0
1031
1.0
1040
0.0
1010
0.0
1020
0.0
1030
1.0
1000
ANSI37
1070
     0
1070
     1
1071
        1
1071
        7
1070
     1
1070
     1
1071
       12
1040
31.64199999996833
1040
2.481619422925121
1040
0.2679491924310942
1040
32.94699999997067
1040
0.2212931190493919
1040
0.2679491924301353
1040
36.36699999995983
1040
0.2212931190459813
1040
0.2679491924321411
1040
37.67199999996831
1040
2.481619422928361
1040
0.0
1040
37.67199999996831
1040
8.763099999991255
1040
0.0
1040
36.23199999996837
1040
8.763099999991255
1040
0.0
1040
36.23199999996837
1040
2.481619422925064
1040
-0.2679491924310291
1040
35.64699999996708
1040
1.468369700498386
1040
-0.267949192430519
1040
33.66699999997093
1040
1.468369700497703
1040
-0.267949192431809
1040
33.08199999996839
1040
2.481619422926997
1040
0.0
1040
33.08199999996839
1040
8.763099999991255
1040
0.0
1040
31.64199999996833
1040
8.763099999991255
1040
0.0
1071
        0
1070
     0
1070
     1
1040
0.0
1040
0.15
1070
     0
1070
     2
1040
0.7853981633974483
1040
49.29960901727088
1040
-10.17736998311392
1040
-0.3367596045400932
1040
0.3367596045400932
1070
     0
1040
2.356194490192345
1040
49.29960901727088
1040
-10.17736998311392
1040
-0.3367596045400932
1040
-0.3367596045400932
1070
     0
1040
0.0110235143455945
1071
        1
1040
32.30357378967278
1040
3.988785755459219
1040
0.0
1002
}
  0
INSERT
  5
19D89
330
19D42
100
AcDbEntity
  8
0
100
AcDbBlockReference
  2
*X43
 10
0.0
 20
0.0
 30
0.0
1001
ACAD
1000
HATCH
1002
{
1070
    19
1000
ANSI37
1040
0.15
1040
0.0
1000
ASC_BOUNDS
1070
     1
1070
     2
1070
     8
1005
19D6A
1005
19D6D
1005
19D71
1005
19D70
1005
19D6F
1005
19D6C
1005
19D6E
1005
19D6B
1000
ASC_SEEDPOINT
1011
39.74896370716704
1021
4.484843821435049
1031
0.0
1000
R14_HATCH_DATA
1000
19D89
1011
1.0
1021
0.0
1031
0.0
1011
0.0
1021
1.0
1031
0.0
1011
0.0
1021
0.0
1031
1.0
1040
0.0
1010
0.0
1020
0.0
1030
1.0
1000
ANSI37
1070
     0
1070
     1
1071
        1
1071
        7
1070
     0
1070
     1
1071
        9
1040
40.02599999995994
1040
5.341799999994635
1040
44.99999999995498
1040
-0.2368999999997641
1040
44.99999999995498
1040
8.763099999991255
1040
43.57899999995641
1040
8.763099999991255
1040
43.57899999995641
1040
3.421199999996588
1040
38.60499999996136
1040
8.999899999990987
1040
38.60499999996136
1040
8.999999999991019
1040
38.60499999996136
1040
0.0
1040
40.02599999995994
1040
0.0
1071
        8
1005
19D6A
1005
19D6D
1005
19D71
1005
19D70
1005
19D6F
1005
19D6C
1005
19D6E
1005
19D6B
1070
     0
1070
     1
1040
0.0
1040
0.15
1070
     0
1070
     2
1040
0.7853981633974483
1040
49.29960901727088
1040
-10.17736998311392
1040
-0.3367596045400932
1040
0.3367596045400932
1070
     0
1040
2.356194490192345
1040
49.29960901727088
1040
-10.17736998311392
1040
-0.3367596045400932
1040
-0.3367596045400932
1070
     0
1040
0.0110235143455945
1071
        1
1040
39.74896370716704
1040
4.484843821435049
1040
0.0
1002
}
  0
INSERT
  5
19D8A
330
19D42
100
AcDbEntity
  8
0
100
AcDbBlockReference
  2
*X44
 10
0.0
 20
0.0
 30
0.0
1001
ACAD
1000
HATCH
1002
{
1070
    19
1000
ANSI37
1040
0.15
1040
0.0
1000
ASC_BOUNDS
1070
     1
1070
     2
1070
     4
1005
19D4E
1005
19D5D
1005
19D4F
1005
19D51
1000
ASC_SEEDPOINT
1011
1.079051535452663
1021
4.148538732891836
1031
0.0
1000
R14_HATCH_DATA
1000
19D8A
1011
1.0
1021
0.0
1031
0.0
1011
0.0
1021
1.0
1031
0.0
1011
0.0
1021
0.0
1031
1.0
1040
0.0
1010
0.0
1020
0.0
1030
1.0
1000
ANSI37
1070
     0
1070
     1
1071
        1
1071
        7
1070
     0
1070
     1
1071
        4
1040
1.420999999998571
1040
0.0
1040
1.420999999998571
1040
8.763099999991255
1040
0.0
1040
8.763099999991255
1040
0.0
1040
0.0
1071
        4
1005
19D4E
1005
19D5D
1005
19D4F
1005
19D51
1070
     0
1070
     1
1040
0.0
1040
0.15
1070
     0
1070
     2
1040
0.7853981633974483
1040
49.29960901727088
1040
-10.17736998311392
1040
-0.3367596045400932
1040
0.3367596045400932
1070
     0
1040
2.356194490192345
1040
49.29960901727088
1040
-10.17736998311392
1040
-0.3367596045400932
1040
-0.3367596045400932
1070
     0
1040
0.0053004257112761
1071
        1
1040
1.079051535452663
1040
4.148538732891836
1040
0.0
1002
}
  0
ENDBLK
  5
1A551
330
19D42
100
AcDbEntity
  8
0
100
AcDbBlockEnd
  0
BLOCK
  5
1B67F
330
1B4F1
100
AcDbEntity
  8
0
100
AcDbBlockBegin
  2
*X39
 70
     1
 10
0.0
 20
0.0
 30
0.0
  3
*X39
  1

  0
LINE
  5
1B4F2
330
1B4F1
100
AcDbEntity
  8
0
  6
CONTINUOUS
100
AcDbLine
 10
3.418023043697893
 20
7.251849696850613
 30
0.0
 11
4.929273346838536
 21
8.763099999991255
 31
0.0
  0
LINE
  5
1B4F3
330
1B4F1
100
AcDbEntity
  8
0
  6
CONTINUOUS
100
AcDbLine
 10
1.483656411257782
 20
4.643963855330318
 30
0.0
 11
5.60279255591872
 21
8.763099999991255
 31
0.0
  0
LINE
  5
1B4F4
330
1B4F1
100
AcDbEntity
  8
0
  6
CONTINUOUS
100
AcDbLine
 10
1.755053947328235
 20
4.241842182320584
 30
0.0
 11
6.276311764998907
 21
8.763099999991255
 31
0.0
  0
LINE
  5
1B4F5
330
1B4F1
100
AcDbEntity
  8
0
  6
CONTINUOUS
100
AcDbLine
 10
2.026451483398688
 20
3.839720509310849
 30
0.0
 11
4.441040904851878
 21
6.254309930764039
 31
0.0
  0
LINE
  5
1B4F6
330
1B4F1
100
AcDbEntity
  8
0
  6
CONTINUOUS
100
AcDbLine
 10
2.297849019469139
 20
3.437598836301114
 30
0.0
 11
3.321765168359338
 21
4.461514985191313
 31
0.0
  0
LINE
  5
1B4F7
330
1B4F1
100
AcDbEntity
  8
0
  6
CONTINUOUS
100
AcDbLine
 10
2.569246555539591
 20
3.03547716329138
 30
0.0
 11
3.593163397972743
 21
4.059394005724531
 31
0.0
  0
LINE
  5
1B4F8
330
1B4F1
100
AcDbEntity
  8
0
  6
CONTINUOUS
100
AcDbLine
 10
2.840644091610043
 20
2.633355490281646
 30
0.0
 11
3.864561627586149
 21
3.657273026257751
 31
0.0
  0
LINE
  5
1B4F9
330
1B4F1
100
AcDbEntity
  8
0
  6
CONTINUOUS
100
AcDbLine
 10
3.112041627680496
 20
2.231233817271911
 30
0.0
 11
4.135959857199554
 21
3.25515204679097
 31
0.0
  0
LINE
  5
1B4FA
330
1B4F1
100
AcDbEntity
  8
0
  6
CONTINUOUS
100
AcDbLine
 10
3.383439163750948
 20
1.829112144262177
 30
0.0
 11
4.40735808681296
 21
2.853031067324189
 31
0.0
  0
LINE
  5
1B4FB
330
1B4F1
100
AcDbEntity
  8
0
  6
CONTINUOUS
100
AcDbLine
 10
3.654836699821399
 20
1.426990471252442
 30
0.0
 11
4.678756316426365
 21
2.450910087857407
 31
0.0
  0
LINE
  5
1B4FC
330
1B4F1
100
AcDbEntity
  8
0
  6
CONTINUOUS
100
AcDbLine
 10
3.926234235891853
 20
1.024868798242709
 30
0.0
 11
4.95015454603977
 21
2.048789108390626
 31
0.0
  0
LINE
  5
1B4FD
330
1B4F1
100
AcDbEntity
  8
0
  6
CONTINUOUS
100
AcDbLine
 10
4.197631771962304
 20
0.6227471252329737
 30
0.0
 11
5.221552775653176
 21
1.646668128923846
 31
0.0
  0
LINE
  5
1B4FE
330
1B4F1
100
AcDbEntity
  8
0
  6
CONTINUOUS
100
AcDbLine
 10
8.715877546767851
 20
7.835069736359266
 30
0.0
 11
9.435953450375058
 21
8.555145639966472
 31
0.0
  0
LINE
  5
1B4FF
330
1B4F1
100
AcDbEntity
  8
0
  6
CONTINUOUS
100
AcDbLine
 10
8.170620868422267
 20
6.616293848933497
 30
0.0
 11
9.644120833743461
 21
8.08979381425469
 31
0.0
  0
LINE
  5
1B500
330
1B4F1
100
AcDbEntity
  8
0
  6
CONTINUOUS
100
AcDbLine
 10
7.625364190076684
 20
5.397517961507727
 30
0.0
 11
9.852288217111864
 21
7.624441988542907
 31
0.0
  0
LINE
  5
1B501
330
1B4F1
100
AcDbEntity
  8
0
  6
CONTINUOUS
100
AcDbLine
 10
7.080107511731101
 20
4.178742074081957
 30
0.0
 11
10.06045560048027
 21
7.159090162831124
 31
0.0
  0
LINE
  5
1B502
330
1B4F1
100
AcDbEntity
  8
0
  6
CONTINUOUS
100
AcDbLine
 10
6.534850833385518
 20
2.959966186656187
 30
0.0
 11
10.26862298384867
 21
6.693738337119342
 31
0.0
  0
LINE
  5
1B503
330
1B4F1
100
AcDbEntity
  8
0
  6
CONTINUOUS
100
AcDbLine
 10
4.469029308032756
 20
0.2206254522232385
 30
0.0
 11
5.492951005266582
 21
1.244547149457064
 31
0.0
  0
LINE
  5
1B504
330
1B4F1
100
AcDbEntity
  8
0
  6
CONTINUOUS
100
AcDbLine
 10
5.989594155039935
 20
1.741190299230417
 30
0.0
 11
8.806950407233131
 21
4.558546551423613
 31
0.0
  0
LINE
  5
1B505
330
1B4F1
100
AcDbEntity
  8
0
  6
CONTINUOUS
100
AcDbLine
 10
9.401251593263643
 20
5.152847737454126
 30
0.0
 11
10.47679036721708
 21
6.228386511407559
 31
0.0
  0
LINE
  5
1B506
330
1B4F1
100
AcDbEntity
  8
0
  6
CONTINUOUS
100
AcDbLine
 10
4.921837203428691
 20
-0.0000858614610131
 30
0.0
 11
8.592923064886001
 21
3.670999999996297
 31
0.0
  0
LINE
  5
1B507
330
1B4F1
100
AcDbEntity
  8
0
  6
CONTINUOUS
100
AcDbLine
 10
9.609390446785305
 20
4.6874673818956
 30
0.0
 11
10.68495775058548
 21
5.763034685695775
 31
0.0
  0
LINE
  5
1B508
330
1B4F1
100
AcDbEntity
  8
0
  6
CONTINUOUS
100
AcDbLine
 10
5.595387755019432
 20
-0.0000545189504582
 30
0.0
 11
7.716137258923768
 21
2.120694984953879
 31
0.0
  0
LINE
  5
1B509
330
1B4F1
100
AcDbEntity
  8
0
  6
CONTINUOUS
100
AcDbLine
 10
6.268938306610172
 20
-0.000023176439905
 30
0.0
 11
7.170485805526503
 21
0.9015243224764267
 31
0.0
  0
LINE
  5
1B50A
330
1B4F1
100
AcDbEntity
  8
0
  6
CONTINUOUS
100
AcDbLine
 10
7.963842273967511
 20
2.368399999997621
 30
0.0
 11
9.266442273966188
 21
3.670999999996297
 31
0.0
  0
LINE
  5
1B50B
330
1B4F1
100
AcDbEntity
  8
0
  6
CONTINUOUS
100
AcDbLine
 10
8.637361483047696
 20
2.368399999997621
 30
0.0
 11
9.939961483046375
 21
3.670999999996297
 31
0.0
  0
LINE
  5
1B50C
330
1B4F1
100
AcDbEntity
  8
0
  6
CONTINUOUS
100
AcDbLine
 10
9.817529300306965
 20
4.222087026337075
 30
0.0
 11
10.89312513395388
 21
5.297682859983993
 31
0.0
  0
LINE
  5
1B50D
330
1B4F1
100
AcDbEntity
  8
0
  6
CONTINUOUS
100
AcDbLine
 10
10.02566815382863
 20
3.756706670778549
 30
0.0
 11
11.10129251732229
 21
4.832331034272211
 31
0.0
  0
LINE
  5
1B50E
330
1B4F1
100
AcDbEntity
  8
0
  6
CONTINUOUS
100
AcDbLine
 10
9.310880692127883
 20
2.368399999997621
 30
0.0
 11
11.30945990069069
 21
4.366979208560428
 31
0.0
  0
LINE
  5
1B50F
330
1B4F1
100
AcDbEntity
  8
0
  6
CONTINUOUS
100
AcDbLine
 10
9.98439990120807
 20
2.36839999999762
 30
0.0
 11
11.5176272840591
 21
3.901627382848645
 31
0.0
  0
LINE
  5
1B510
330
1B4F1
100
AcDbEntity
  8
0
  6
CONTINUOUS
100
AcDbLine
 10
10.65037369446246
 20
2.36085458417182
 30
0.0
 11
11.7257946674275
 21
3.436275557136862
 31
0.0
  0
LINE
  5
1B511
330
1B4F1
100
AcDbEntity
  8
0
  6
CONTINUOUS
100
AcDbLine
 10
10.85847197087848
 20
1.895433651507656
 30
0.0
 11
11.9339620507959
 21
2.97092373142508
 31
0.0
  0
LINE
  5
1B512
330
1B4F1
100
AcDbEntity
  8
0
  6
CONTINUOUS
100
AcDbLine
 10
11.0665702472945
 20
1.430012718843491
 30
0.0
 11
12.14212943416431
 21
2.505571905713296
 31
0.0
  0
LINE
  5
1B513
330
1B4F1
100
AcDbEntity
  8
0
  6
CONTINUOUS
100
AcDbLine
 10
11.27466852371052
 20
0.9645917861793256
 30
0.0
 11
12.35029681753271
 21
2.040220080001513
 31
0.0
  0
LINE
  5
1B514
330
1B4F1
100
AcDbEntity
  8
0
  6
CONTINUOUS
100
AcDbLine
 10
11.48276680012654
 20
0.4991708535151611
 30
0.0
 11
12.55846420090111
 21
1.57486825428973
 31
0.0
  0
LINE
  5
1B515
330
1B4F1
100
AcDbEntity
  8
0
  6
CONTINUOUS
100
AcDbLine
 10
11.69086507654257
 20
0.0337499208509957
 30
0.0
 11
12.76663158426952
 21
1.109516428577947
 31
0.0
  0
LINE
  5
1B516
330
1B4F1
100
AcDbEntity
  8
0
  6
CONTINUOUS
100
AcDbLine
 10
12.33057447873954
 20
-0.0000598860322123
 30
0.0
 11
12.97479896763792
 21
0.6441646028661663
 31
0.0
  0
LINE
  5
1B517
330
1B4F1
100
AcDbEntity
  8
0
  6
CONTINUOUS
100
AcDbLine
 10
13.00413694809395
 20
-0.0000166257579952
 30
0.0
 11
13.18296635100632
 21
0.1788127771543824
 31
0.0
  0
LINE
  5
1B518
330
1B4F1
100
AcDbEntity
  8
0
  6
CONTINUOUS
100
AcDbLine
 10
4.772852165289667
 20
-0.000092794222212
 30
0.0
 11
4.296495091028902
 21
0.4762642800385528
 31
0.0
  0
LINE
  5
1B519
330
1B4F1
100
AcDbEntity
  8
0
  6
CONTINUOUS
100
AcDbLine
 10
5.446340034776103
 20
-0.0000614546284616
 30
0.0
 11
2.898195908335625
 21
2.548082671812017
 31
0.0
  0
LINE
  5
1B51A
330
1B4F1
100
AcDbEntity
  8
0
  6
CONTINUOUS
100
AcDbLine
 10
6.119827904262539
 20
-0.0000301150347113
 30
0.0
 11
1.499896725642348
 21
4.61990106358548
 31
0.0
  0
LINE
  5
1B51B
330
1B4F1
100
AcDbEntity
  8
0
  6
CONTINUOUS
100
AcDbLine
 10
6.775136745476159
 20
0.0181802528318542
 30
0.0
 11
5.699826040202669
 21
1.093490958105344
 31
0.0
  0
LINE
  5
1B51C
330
1B4F1
100
AcDbEntity
  8
0
  6
CONTINUOUS
100
AcDbLine
 10
6.983376846288489
 20
0.4834593610997118
 30
0.0
 11
5.908008617934405
 21
1.558827589453796
 31
0.0
  0
LINE
  5
1B51D
330
1B4F1
100
AcDbEntity
  8
0
  6
CONTINUOUS
100
AcDbLine
 10
5.377063484962296
 20
1.416253513345719
 30
0.0
 11
1.702276957014131
 21
5.091040041293883
 31
0.0
  0
LINE
  5
1B51E
330
1B4F1
100
AcDbEntity
  8
0
  6
CONTINUOUS
100
AcDbLine
 10
3.978745891735324
 20
3.488090315652877
 30
0.0
 11
2.000373521109399
 21
5.466462686278803
 31
0.0
  0
LINE
  5
1B51F
330
1B4F1
100
AcDbEntity
  8
0
  6
CONTINUOUS
100
AcDbLine
 10
7.191616947100819
 20
0.948738469367568
 30
0.0
 11
6.11619119566614
 21
2.024164220802247
 31
0.0
  0
LINE
  5
1B520
330
1B4F1
100
AcDbEntity
  8
0
  6
CONTINUOUS
100
AcDbLine
 10
7.399857047913149
 20
1.414017577635424
 30
0.0
 11
6.324373773397875
 21
2.489500852150698
 31
0.0
  0
LINE
  5
1B521
330
1B4F1
100
AcDbEntity
  8
0
  6
CONTINUOUS
100
AcDbLine
 10
7.608097148725479
 20
1.879296685903281
 30
0.0
 11
6.53255635112961
 21
2.95483748349915
 31
0.0
  0
LINE
  5
1B522
330
1B4F1
100
AcDbEntity
  8
0
  6
CONTINUOUS
100
AcDbLine
 10
7.816337249537808
 20
2.344575794171138
 30
0.0
 11
6.740738928861345
 21
3.420174114847601
 31
0.0
  0
LINE
  5
1B523
330
1B4F1
100
AcDbEntity
  8
0
  6
CONTINUOUS
100
AcDbLine
 10
3.310241080789734
 20
4.830114335678653
 30
0.0
 11
2.298470085204666
 21
5.84188533126372
 31
0.0
  0
LINE
  5
1B524
330
1B4F1
100
AcDbEntity
  8
0
  6
CONTINUOUS
100
AcDbLine
 10
3.60832983563551
 20
5.205544789913063
 30
0.0
 11
2.596566649299935
 21
6.217307976248638
 31
0.0
  0
LINE
  5
1B525
330
1B4F1
100
AcDbEntity
  8
0
  6
CONTINUOUS
100
AcDbLine
 10
3.906418590481286
 20
5.580975244147473
 30
0.0
 11
2.894663213395203
 21
6.592730621233557
 31
0.0
  0
LINE
  5
1B526
330
1B4F1
100
AcDbEntity
  8
0
  6
CONTINUOUS
100
AcDbLine
 10
4.204507345327062
 20
5.956405698381884
 30
0.0
 11
3.192759777490472
 21
6.968153266218474
 31
0.0
  0
LINE
  5
1B527
330
1B4F1
100
AcDbEntity
  8
0
  6
CONTINUOUS
100
AcDbLine
 10
8.466032252791512
 20
2.368399999997621
 30
0.0
 11
6.948921506593081
 21
3.885510746196053
 31
0.0
  0
LINE
  5
1B528
330
1B4F1
100
AcDbEntity
  8
0
  6
CONTINUOUS
100
AcDbLine
 10
9.139551461871699
 20
2.36839999999762
 30
0.0
 11
7.157104084324816
 21
4.350847377544504
 31
0.0
  0
LINE
  5
1B529
330
1B4F1
100
AcDbEntity
  8
0
  6
CONTINUOUS
100
AcDbLine
 10
4.502596100172839
 20
6.331836152616295
 30
0.0
 11
3.49085634158574
 21
7.343575911203393
 31
0.0
  0
LINE
  5
1B52A
330
1B4F1
100
AcDbEntity
  8
0
  6
CONTINUOUS
100
AcDbLine
 10
4.800684855018615
 20
6.707266606850705
 30
0.0
 11
3.788952905681008
 21
7.718998556188312
 31
0.0
  0
LINE
  5
1B52B
330
1B4F1
100
AcDbEntity
  8
0
  6
CONTINUOUS
100
AcDbLine
 10
12.18154012887317
 20
-0.0000694579236642
 30
0.0
 11
11.32140332908496
 21
0.8600673418645499
 31
0.0
  0
LINE
  5
1B52C
330
1B4F1
100
AcDbEntity
  8
0
  6
CONTINUOUS
100
AcDbLine
 10
12.85501608323566
 20
-0.0000262032059659
 30
0.0
 11
10.77672456435345
 21
2.078265315676246
 31
0.0
  0
LINE
  5
1B52D
330
1B4F1
100
AcDbEntity
  8
0
  6
CONTINUOUS
100
AcDbLine
 10
9.813070670951886
 20
2.36839999999762
 30
0.0
 11
8.51047067095321
 21
3.670999999996297
 31
0.0
  0
LINE
  5
1B52E
330
1B4F1
100
AcDbEntity
  8
0
  6
CONTINUOUS
100
AcDbLine
 10
10.48658988003207
 20
2.36839999999762
 30
0.0
 11
9.183989880033396
 21
3.670999999996297
 31
0.0
  0
LINE
  5
1B52F
330
1B4F1
100
AcDbEntity
  8
0
  6
CONTINUOUS
100
AcDbLine
 10
8.441048632286794
 20
3.740422038662712
 30
0.0
 11
7.365286662056551
 21
4.816184008892956
 31
0.0
  0
LINE
  5
1B530
330
1B4F1
100
AcDbEntity
  8
0
  6
CONTINUOUS
100
AcDbLine
 10
8.649187485808454
 20
4.205802394221237
 30
0.0
 11
7.573469239788285
 21
5.281520640241407
 31
0.0
  0
LINE
  5
1B531
330
1B4F1
100
AcDbEntity
  8
0
  6
CONTINUOUS
100
AcDbLine
 10
5.098773609864391
 20
7.082697061085115
 30
0.0
 11
4.087049469776277
 21
8.09442120117323
 31
0.0
  0
LINE
  5
1B532
330
1B4F1
100
AcDbEntity
  8
0
  6
CONTINUOUS
100
AcDbLine
 10
5.396862364710167
 20
7.458127515319526
 30
0.0
 11
4.385146033871544
 21
8.469843846158149
 31
0.0
  0
LINE
  5
1B533
330
1B4F1
100
AcDbEntity
  8
0
  6
CONTINUOUS
100
AcDbLine
 10
13.04801363231285
 20
0.4804954567970334
 30
0.0
 11
9.85750908911358
 21
3.670999999996297
 31
0.0
  0
LINE
  5
1B534
330
1B4F1
100
AcDbEntity
  8
0
  6
CONTINUOUS
100
AcDbLine
 10
8.857326339330116
 20
4.671182749779763
 30
0.0
 11
7.781651817520021
 21
5.746857271589858
 31
0.0
  0
LINE
  5
1B535
330
1B4F1
100
AcDbEntity
  8
0
  6
CONTINUOUS
100
AcDbLine
 10
5.694951119555943
 20
7.833557969553937
 30
0.0
 11
4.765409089118624
 21
8.763099999991255
 31
0.0
  0
LINE
  5
1B536
330
1B4F1
100
AcDbEntity
  8
0
  6
CONTINUOUS
100
AcDbLine
 10
12.50286117236978
 20
1.699167125820288
 30
0.0
 11
9.68611877250287
 21
4.515909525687196
 31
0.0
  0
LINE
  5
1B537
330
1B4F1
100
AcDbEntity
  8
0
  6
CONTINUOUS
100
AcDbLine
 10
9.065465192851777
 20
5.136563105338288
 30
0.0
 11
7.989834395251757
 21
6.21219390293831
 31
0.0
  0
LINE
  5
1B538
330
1B4F1
100
AcDbEntity
  8
0
  6
CONTINUOUS
100
AcDbLine
 10
5.993039874401719
 20
8.208988423788346
 30
0.0
 11
5.43892829819881
 21
8.763099999991255
 31
0.0
  0
LINE
  5
1B539
330
1B4F1
100
AcDbEntity
  8
0
  6
CONTINUOUS
100
AcDbLine
 10
11.95770871242671
 20
2.917838794843543
 30
0.0
 11
8.19801697298349
 21
6.677530534286761
 31
0.0
  0
LINE
  5
1B53A
330
1B4F1
100
AcDbEntity
  8
0
  6
CONTINUOUS
100
AcDbLine
 10
6.291128629247495
 20
8.584418878022756
 30
0.0
 11
6.112447507278997
 21
8.763099999991255
 31
0.0
  0
LINE
  5
1B53B
330
1B4F1
100
AcDbEntity
  8
0
  6
CONTINUOUS
100
AcDbLine
 10
11.41255625248364
 20
4.136510463866797
 30
0.0
 11
8.406199550715227
 21
7.142867165635211
 31
0.0
  0
LINE
  5
1B53C
330
1B4F1
100
AcDbEntity
  8
0
  6
CONTINUOUS
100
AcDbLine
 10
10.86740379254057
 20
5.355182132890051
 30
0.0
 11
8.614382128446962
 21
7.608203796983664
 31
0.0
  0
LINE
  5
1B53D
330
1B4F1
100
AcDbEntity
  8
0
  6
CONTINUOUS
100
AcDbLine
 10
10.3222513325975
 20
6.573853801913305
 30
0.0
 11
8.822564706178696
 21
8.073540428332114
 31
0.0
  0
LINE
  5
1B53E
330
1B4F1
100
AcDbEntity
  8
0
  6
CONTINUOUS
100
AcDbLine
 10
9.777098872654436
 20
7.792525470936562
 30
0.0
 11
9.030747283910433
 21
8.538877059680566
 31
0.0
  0
ENDBLK
  5
1B680
330
1B4F1
100
AcDbEntity
  8
0
100
AcDbBlockEnd
  0
BLOCK
  5
1B681
330
1B53F
100
AcDbEntity
  8
0
100
AcDbBlockBegin
  2
*X40
 70
     1
 10
0.0
 20
0.0
 30
0.0
  3
*X40
  1

  0
LINE
  5
1B540
330
1B53F
100
AcDbEntity
  8
0
  6
CONTINUOUS
100
AcDbLine
 10
10.67292308101235
 20
8.445076852443387
 30
0.0
 11
10.99094622856022
 21
8.763099999991255
 31
0.0
  0
LINE
  5
1B541
330
1B53F
100
AcDbEntity
  8
0
  6
CONTINUOUS
100
AcDbLine
 10
10.87250383178748
 20
7.971138394138331
 30
0.0
 11
11.6644654376404
 21
8.763099999991255
 31
0.0
  0
LINE
  5
1B542
330
1B53F
100
AcDbEntity
  8
0
  6
CONTINUOUS
100
AcDbLine
 10
11.07208458256261
 20
7.497199935833273
 30
0.0
 11
12.12126590876355
 21
8.546381262034211
 31
0.0
  0
LINE
  5
1B543
330
1B53F
100
AcDbEntity
  8
0
  6
CONTINUOUS
100
AcDbLine
 10
11.27166533333774
 20
7.023261477528216
 30
0.0
 11
12.32085164573666
 21
8.072447789927136
 31
0.0
  0
LINE
  5
1B544
330
1B53F
100
AcDbEntity
  8
0
  6
CONTINUOUS
100
AcDbLine
 10
11.47124608411287
 20
6.549323019223158
 30
0.0
 11
12.52043738270977
 21
7.59851431782006
 31
0.0
  0
LINE
  5
1B545
330
1B53F
100
AcDbEntity
  8
0
  6
CONTINUOUS
100
AcDbLine
 10
11.670826834888
 20
6.075384560918101
 30
0.0
 11
12.72002311968288
 21
7.124580845712984
 31
0.0
  0
LINE
  5
1B546
330
1B53F
100
AcDbEntity
  8
0
  6
CONTINUOUS
100
AcDbLine
 10
11.87040758566313
 20
5.601446102613043
 30
0.0
 11
12.91960885665599
 21
6.650647373605907
 31
0.0
  0
LINE
  5
1B547
330
1B53F
100
AcDbEntity
  8
0
  6
CONTINUOUS
100
AcDbLine
 10
12.06998833643825
 20
5.127507644307986
 30
0.0
 11
13.1191945936291
 21
6.176713901498832
 31
0.0
  0
LINE
  5
1B548
330
1B53F
100
AcDbEntity
  8
0
  6
CONTINUOUS
100
AcDbLine
 10
12.26956908721338
 20
4.65356918600293
 30
0.0
 11
13.31878033060221
 21
5.702780429391757
 31
0.0
  0
LINE
  5
1B549
330
1B53F
100
AcDbEntity
  8
0
  6
CONTINUOUS
100
AcDbLine
 10
12.46914983798851
 20
4.179630727697873
 30
0.0
 11
13.51836606757532
 21
5.228846957284683
 31
0.0
  0
LINE
  5
1B54A
330
1B53F
100
AcDbEntity
  8
0
  6
CONTINUOUS
100
AcDbLine
 10
12.66873058876364
 20
3.705692269392816
 30
0.0
 11
13.71795180454843
 21
4.754913485177607
 31
0.0
  0
LINE
  5
1B54B
330
1B53F
100
AcDbEntity
  8
0
  6
CONTINUOUS
100
AcDbLine
 10
12.86831133953877
 20
3.231753811087759
 30
0.0
 11
13.91753754152154
 21
4.280980013070531
 31
0.0
  0
LINE
  5
1B54C
330
1B53F
100
AcDbEntity
  8
0
  6
CONTINUOUS
100
AcDbLine
 10
13.0678920903139
 20
2.757815352782702
 30
0.0
 11
14.11712327849465
 21
3.807046540963456
 31
0.0
  0
LINE
  5
1B54D
330
1B53F
100
AcDbEntity
  8
0
  6
CONTINUOUS
100
AcDbLine
 10
13.26747284108903
 20
2.283876894477644
 30
0.0
 11
14.31670901546777
 21
3.333113068856379
 31
0.0
  0
LINE
  5
1B54E
330
1B53F
100
AcDbEntity
  8
0
  6
CONTINUOUS
100
AcDbLine
 10
16.36767838827179
 20
8.751678487061342
 30
0.0
 11
16.50332410898388
 21
8.887324207773432
 31
0.0
  0
LINE
  5
1B54F
330
1B53F
100
AcDbEntity
  8
0
  6
CONTINUOUS
100
AcDbLine
 10
15.96190732182191
 20
7.67238821153127
 30
0.0
 11
16.68735328004734
 21
8.397834169756699
 31
0.0
  0
LINE
  5
1B550
330
1B53F
100
AcDbEntity
  8
0
  6
CONTINUOUS
100
AcDbLine
 10
15.55613625537202
 20
6.593097936001196
 30
0.0
 11
16.87138245111079
 21
7.908344131739965
 31
0.0
  0
LINE
  5
1B551
330
1B53F
100
AcDbEntity
  8
0
  6
CONTINUOUS
100
AcDbLine
 10
15.15036518892213
 20
5.513807660471122
 30
0.0
 11
17.05541162217424
 21
7.418854093723231
 31
0.0
  0
LINE
  5
1B552
330
1B53F
100
AcDbEntity
  8
0
  6
CONTINUOUS
100
AcDbLine
 10
14.74459412247225
 20
4.434517384941048
 30
0.0
 11
17.2394407932377
 21
6.929364055706499
 31
0.0
  0
LINE
  5
1B553
330
1B53F
100
AcDbEntity
  8
0
  6
CONTINUOUS
100
AcDbLine
 10
14.33882305602236
 20
3.355227109410975
 30
0.0
 11
17.42346996430115
 21
6.439874017689766
 31
0.0
  0
LINE
  5
1B554
330
1B53F
100
AcDbEntity
  8
0
  6
CONTINUOUS
100
AcDbLine
 10
13.46705359186416
 20
1.809938436172586
 30
0.0
 11
16.0819338255367
 21
4.424818669845129
 31
0.0
  0
LINE
  5
1B555
330
1B53F
100
AcDbEntity
  8
0
  6
CONTINUOUS
100
AcDbLine
 10
16.63283254238972
 20
4.975717386698149
 30
0.0
 11
17.60749913536461
 21
5.950383979673033
 31
0.0
  0
LINE
  5
1B556
330
1B53F
100
AcDbEntity
  8
0
  6
CONTINUOUS
100
AcDbLine
 10
13.66663434263929
 20
1.335999977867529
 30
0.0
 11
15.67604797733754
 21
3.345413612565779
 31
0.0
  0
LINE
  5
1B557
330
1B53F
100
AcDbEntity
  8
0
  6
CONTINUOUS
100
AcDbLine
 10
13.86621509341442
 20
0.8620615195624723
 30
0.0
 11
15.27016212913838
 21
2.26600855528643
 31
0.0
  0
LINE
  5
1B558
330
1B53F
100
AcDbEntity
  8
0
  6
CONTINUOUS
100
AcDbLine
 10
16.81682257348267
 20
4.486188208710908
 30
0.0
 11
17.79152830642806
 21
5.460893941656299
 31
0.0
  0
LINE
  5
1B559
330
1B53F
100
AcDbEntity
  8
0
  6
CONTINUOUS
100
AcDbLine
 10
17.00081260457561
 20
3.996659030723667
 30
0.0
 11
17.97555747749151
 21
4.971403903639565
 31
0.0
  0
LINE
  5
1B55A
330
1B53F
100
AcDbEntity
  8
0
  6
CONTINUOUS
100
AcDbLine
 10
20.74362343514722
 20
8.412989070375462
 30
0.0
 11
21.09373436476302
 21
8.763099999991256
 31
0.0
  0
LINE
  5
1B55B
330
1B53F
100
AcDbEntity
  8
0
  6
CONTINUOUS
100
AcDbLine
 10
20.25401257174777
 20
7.249858997895826
 30
0.0
 11
21.7672535738432
 21
8.763099999991255
 31
0.0
  0
LINE
  5
1B55C
330
1B53F
100
AcDbEntity
  8
0
  6
CONTINUOUS
100
AcDbLine
 10
14.06579584418955
 20
0.3881230612574149
 30
0.0
 11
14.86427628093921
 21
1.186603498007082
 31
0.0
  0
LINE
  5
1B55D
330
1B53F
100
AcDbEntity
  8
0
  6
CONTINUOUS
100
AcDbLine
 10
14.26537659496467
 20
-0.0858153970476412
 30
0.0
 11
14.45839043274005
 21
0.1071984407277329
 31
0.0
  0
LINE
  5
1B55E
330
1B53F
100
AcDbEntity
  8
0
  6
CONTINUOUS
100
AcDbLine
 10
17.18480263566856
 20
3.507129852736426
 30
0.0
 11
18.15958664855496
 21
4.481913865622833
 31
0.0
  0
LINE
  5
1B55F
330
1B53F
100
AcDbEntity
  8
0
  6
CONTINUOUS
100
AcDbLine
 10
17.3687926667615
 20
3.017600674749186
 30
0.0
 11
18.34361581961842
 21
3.9924238276061
 31
0.0
  0
LINE
  5
1B560
330
1B53F
100
AcDbEntity
  8
0
  6
CONTINUOUS
100
AcDbLine
 10
19.76440170834832
 20
6.086728925416191
 30
0.0
 11
22.33924590259489
 21
8.661573119662755
 31
0.0
  0
LINE
  5
1B561
330
1B53F
100
AcDbEntity
  8
0
  6
CONTINUOUS
100
AcDbLine
 10
19.27479084494887
 20
4.923598852936555
 30
0.0
 11
21.84929622842713
 21
7.498104236414807
 31
0.0
  0
LINE
  5
1B562
330
1B53F
100
AcDbEntity
  8
0
  6
CONTINUOUS
100
AcDbLine
 10
17.55278269785445
 20
2.528071496761945
 30
0.0
 11
18.52764499068187
 21
3.502933789589366
 31
0.0
  0
LINE
  5
1B563
330
1B53F
100
AcDbEntity
  8
0
  6
CONTINUOUS
100
AcDbLine
 10
18.78517998154942
 20
3.760468780456919
 30
0.0
 11
21.35934655425936
 21
6.33463535316686
 31
0.0
  0
LINE
  5
1B564
330
1B53F
100
AcDbEntity
  8
0
  6
CONTINUOUS
100
AcDbLine
 10
17.73677272894739
 20
2.038542318774704
 30
0.0
 11
20.8693968800916
 21
5.171166469918914
 31
0.0
  0
LINE
  5
1B565
330
1B53F
100
AcDbEntity
  8
0
  6
CONTINUOUS
100
AcDbLine
 10
17.92076276004034
 20
1.549013140787464
 30
0.0
 11
20.37944720592384
 21
4.007697586670968
 31
0.0
  0
LINE
  5
1B566
330
1B53F
100
AcDbEntity
  8
0
  6
CONTINUOUS
100
AcDbLine
 10
18.10475279113329
 20
1.059483962800223
 30
0.0
 11
19.88949753175608
 21
2.84422870342302
 31
0.0
  0
LINE
  5
1B567
330
1B53F
100
AcDbEntity
  8
0
  6
CONTINUOUS
100
AcDbLine
 10
18.28874282222623
 20
0.5699547848129822
 30
0.0
 11
19.39954785758832
 21
1.680759820175074
 31
0.0
  0
LINE
  5
1B568
330
1B53F
100
AcDbEntity
  8
0
  6
CONTINUOUS
100
AcDbLine
 10
18.47273285331918
 20
0.0804256068257416
 30
0.0
 11
18.90959818342056
 21
0.517290936927127
 31
0.0
  0
LINE
  5
1B569
330
1B53F
100
AcDbEntity
  8
0
  6
CONTINUOUS
100
AcDbLine
 10
14.3590401358224
 20
-0.1570118376323384
 30
0.0
 11
14.24903296539946
 21
-0.0470046672093929
 31
0.0
  0
LINE
  5
1B56A
330
1B53F
100
AcDbEntity
  8
0
  6
CONTINUOUS
100
AcDbLine
 10
14.54309291258661
 20
0.332454594683643
 30
0.0
 11
13.75908329123172
 21
1.116464216038529
 31
0.0
  0
LINE
  5
1B56B
330
1B53F
100
AcDbEntity
  8
0
  6
CONTINUOUS
100
AcDbLine
 10
14.72714568935081
 20
0.8219210269996244
 30
0.0
 11
13.26913361706399
 21
2.27993309928645
 31
0.0
  0
LINE
  5
1B56C
330
1B53F
100
AcDbEntity
  8
0
  6
CONTINUOUS
100
AcDbLine
 10
14.91119846611502
 20
1.311387459315606
 30
0.0
 11
12.77918394289625
 21
3.443401982534371
 31
0.0
  0
LINE
  5
1B56D
330
1B53F
100
AcDbEntity
  8
0
  6
CONTINUOUS
100
AcDbLine
 10
15.09525124287922
 20
1.800853891631587
 30
0.0
 11
12.28923426872852
 21
4.606870865782293
 31
0.0
  0
LINE
  5
1B56E
330
1B53F
100
AcDbEntity
  8
0
  6
CONTINUOUS
100
AcDbLine
 10
15.27930401964343
 20
2.290320323947569
 30
0.0
 11
11.79928459456078
 21
5.770339749030213
 31
0.0
  0
LINE
  5
1B56F
330
1B53F
100
AcDbEntity
  8
0
  6
CONTINUOUS
100
AcDbLine
 10
15.46335679640763
 20
2.77978675626355
 30
0.0
 11
14.48885470994921
 21
3.754288842721972
 31
0.0
  0
LINE
  5
1B570
330
1B53F
100
AcDbEntity
  8
0
  6
CONTINUOUS
100
AcDbLine
 10
13.88507249233704
 20
4.358071060334137
 30
0.0
 11
11.30933492039305
 21
6.933808632278135
 31
0.0
  0
LINE
  5
1B571
330
1B53F
100
AcDbEntity
  8
0
  6
CONTINUOUS
100
AcDbLine
 10
18.75840522805855
 20
0.1582575336928151
 30
0.0
 11
18.25383727664818
 21
0.6628254851031863
 31
0.0
  0
LINE
  5
1B572
330
1B53F
100
AcDbEntity
  8
0
  6
CONTINUOUS
100
AcDbLine
 10
15.64740957317184
 20
3.269253188579531
 30
0.0
 11
14.67288388101266
 21
4.243778880738705
 31
0.0
  0
LINE
  5
1B573
330
1B53F
100
AcDbEntity
  8
0
  6
CONTINUOUS
100
AcDbLine
 10
13.39509276772158
 20
5.521569994029786
 30
0.0
 11
10.81938524622531
 21
8.097277515526056
 31
0.0
  0
LINE
  5
1B574
330
1B53F
100
AcDbEntity
  8
0
  6
CONTINUOUS
100
AcDbLine
 10
18.95798597883369
 20
0.6321959919978686
 30
0.0
 11
17.84825644852853
 21
1.741925522303024
 31
0.0
  0
LINE
  5
1B575
330
1B53F
100
AcDbEntity
  8
0
  6
CONTINUOUS
100
AcDbLine
 10
19.15756672960882
 20
1.106134450302922
 30
0.0
 11
17.44267562040888
 21
2.821025559502861
 31
0.0
  0
LINE
  5
1B576
330
1B53F
100
AcDbEntity
  8
0
  6
CONTINUOUS
100
AcDbLine
 10
15.83146234993604
 20
3.758719620895513
 30
0.0
 11
14.85691305207612
 21
4.733268918755439
 31
0.0
  0
LINE
  5
1B577
330
1B53F
100
AcDbEntity
  8
0
  6
CONTINUOUS
100
AcDbLine
 10
16.01551512670025
 20
4.248186053211494
 30
0.0
 11
15.04094222313957
 21
5.222758956772172
 31
0.0
  0
LINE
  5
1B578
330
1B53F
100
AcDbEntity
  8
0
  6
CONTINUOUS
100
AcDbLine
 10
12.90511304310612
 20
6.685068927725435
 30
0.0
 11
10.8270819708403
 21
8.763099999991255
 31
0.0
  0
LINE
  5
1B579
330
1B53F
100
AcDbEntity
  8
0
  6
CONTINUOUS
100
AcDbLine
 10
12.41513331849066
 20
7.848567861421083
 30
0.0
 11
11.50060117992049
 21
8.763099999991255
 31
0.0
  0
LINE
  5
1B57A
330
1B53F
100
AcDbEntity
  8
0
  6
CONTINUOUS
100
AcDbLine
 10
19.35714748038395
 20
1.580072908607975
 30
0.0
 11
17.03709479228923
 21
3.900125596702697
 31
0.0
  0
LINE
  5
1B57B
330
1B53F
100
AcDbEntity
  8
0
  6
CONTINUOUS
100
AcDbLine
 10
19.55672823115909
 20
2.054011366913028
 30
0.0
 11
16.63151396416958
 21
4.979225633902534
 31
0.0
  0
LINE
  5
1B57C
330
1B53F
100
AcDbEntity
  8
0
  6
CONTINUOUS
100
AcDbLine
 10
16.19956790346445
 20
4.737652485527476
 30
0.0
 11
15.22497139420302
 21
5.712248994788904
 31
0.0
  0
LINE
  5
1B57D
330
1B53F
100
AcDbEntity
  8
0
  6
CONTINUOUS
100
AcDbLine
 10
16.38362068022866
 20
5.227118917843457
 30
0.0
 11
15.40900056526648
 21
6.201739032805637
 31
0.0
  0
LINE
  5
1B57E
330
1B53F
100
AcDbEntity
  8
0
  6
CONTINUOUS
100
AcDbLine
 10
19.75630898193422
 20
2.527949825218081
 30
0.0
 11
18.70774536448286
 21
3.576513442669441
 31
0.0
  0
LINE
  5
1B57F
330
1B53F
100
AcDbEntity
  8
0
  6
CONTINUOUS
100
AcDbLine
 10
19.95588973270936
 20
3.001888283523134
 30
0.0
 11
18.90726987211446
 21
4.050508144118028
 31
0.0
  0
LINE
  5
1B580
330
1B53F
100
AcDbEntity
  8
0
  6
CONTINUOUS
100
AcDbLine
 10
20.15547048348449
 20
3.475826741828186
 30
0.0
 11
19.10679437974606
 21
4.524502845566614
 31
0.0
  0
LINE
  5
1B581
330
1B53F
100
AcDbEntity
  8
0
  6
CONTINUOUS
100
AcDbLine
 10
20.35505123425962
 20
3.94976520013324
 30
0.0
 11
19.30631888737766
 21
4.998497547015201
 31
0.0
  0
LINE
  5
1B582
330
1B53F
100
AcDbEntity
  8
0
  6
CONTINUOUS
100
AcDbLine
 10
20.55463198503475
 20
4.423703658438292
 30
0.0
 11
19.50584339500926
 21
5.472492248463787
 31
0.0
  0
LINE
  5
1B583
330
1B53F
100
AcDbEntity
  8
0
  6
CONTINUOUS
100
AcDbLine
 10
18.37481191085755
 20
3.909446896294752
 30
0.0
 11
15.59302973632993
 21
6.691229070822371
 31
0.0
  0
LINE
  5
1B584
330
1B53F
100
AcDbEntity
  8
0
  6
CONTINUOUS
100
AcDbLine
 10
17.96904084440766
 20
4.988737171824825
 30
0.0
 11
15.77705890739338
 21
7.180719108839104
 31
0.0
  0
LINE
  5
1B585
330
1B53F
100
AcDbEntity
  8
0
  6
CONTINUOUS
100
AcDbLine
 10
17.56326977795777
 20
6.068027447354899
 30
0.0
 11
15.96108807845684
 21
7.670209146855838
 31
0.0
  0
LINE
  5
1B586
330
1B53F
100
AcDbEntity
  8
0
  6
CONTINUOUS
100
AcDbLine
 10
17.15749871150789
 20
7.147317722884972
 30
0.0
 11
16.14511724952029
 21
8.15969918487257
 31
0.0
  0
LINE
  5
1B587
330
1B53F
100
AcDbEntity
  8
0
  6
CONTINUOUS
100
AcDbLine
 10
16.751727645058
 20
8.226607998415046
 30
0.0
 11
16.32914642058374
 21
8.649189222889303
 31
0.0
  0
LINE
  5
1B588
330
1B53F
100
AcDbEntity
  8
0
  6
CONTINUOUS
100
AcDbLine
 10
20.75421273580989
 20
4.897642116743345
 30
0.0
 11
19.70536790264086
 21
5.946486949912374
 31
0.0
  0
LINE
  5
1B589
330
1B53F
100
AcDbEntity
  8
0
  6
CONTINUOUS
100
AcDbLine
 10
20.95379348658502
 20
5.371580575048398
 30
0.0
 11
19.90489241027246
 21
6.42048165136096
 31
0.0
  0
LINE
  5
1B58A
330
1B53F
100
AcDbEntity
  8
0
  6
CONTINUOUS
100
AcDbLine
 10
21.15337423736015
 20
5.845519033353452
 30
0.0
 11
20.10441691790406
 21
6.894476352809547
 31
0.0
  0
LINE
  5
1B58B
330
1B53F
100
AcDbEntity
  8
0
  6
CONTINUOUS
100
AcDbLine
 10
21.35295498813529
 20
6.319457491658505
 30
0.0
 11
20.30394142553566
 21
7.368471054258134
 31
0.0
  0
LINE
  5
1B58C
330
1B53F
100
AcDbEntity
  8
0
  6
CONTINUOUS
100
AcDbLine
 10
21.55253573891042
 20
6.793395949963558
 30
0.0
 11
20.50346593316726
 21
7.842465755706721
 31
0.0
  0
LINE
  5
1B58D
330
1B53F
100
AcDbEntity
  8
0
  6
CONTINUOUS
100
AcDbLine
 10
21.75211648968556
 20
7.267334408268612
 30
0.0
 11
20.70299044079886
 21
8.316460457155308
 31
0.0
  0
LINE
  5
1B58E
330
1B53F
100
AcDbEntity
  8
0
  6
CONTINUOUS
100
AcDbLine
 10
21.95169724046069
 20
7.741272866573663
 30
0.0
 11
20.9298701070431
 21
8.763099999991256
 31
0.0
  0
LINE
  5
1B58F
330
1B53F
100
AcDbEntity
  8
0
  6
CONTINUOUS
100
AcDbLine
 10
22.15127799123582
 20
8.215211324878716
 30
0.0
 11
21.60338931612328
 21
8.763099999991256
 31
0.0
  0
LINE
  5
1B590
330
1B53F
100
AcDbEntity
  8
0
  6
CONTINUOUS
100
AcDbLine
 10
22.35085874201096
 20
8.689149783183769
 30
0.0
 11
22.27690852520347
 21
8.763099999991255
 31
0.0
  0
ENDBLK
  5
1B682
330
1B53F
100
AcDbEntity
  8
0
100
AcDbBlockEnd
  0
BLOCK
  5
1B683
330
1B591
100
AcDbEntity
  8
0
100
AcDbBlockBegin
  2
*X41
 70
     1
 10
0.0
 20
0.0
 30
0.0
  3
*X41
  1

  0
LINE
  5
1B592
330
1B591
100
AcDbEntity
  8
0
  6
CONTINUOUS
100
AcDbLine
 10
23.19462913593892
 20
8.169917934846424
 30
0.0
 11
23.70775465517246
 21
8.683043454079957
 31
0.0
  0
LINE
  5
1B593
330
1B591
100
AcDbEntity
  8
0
  6
CONTINUOUS
100
AcDbLine
 10
22.64923161835078
 20
6.951001208178088
 30
0.0
 11
23.9159364069932
 21
8.217705996820516
 31
0.0
  0
LINE
  5
1B594
330
1B591
100
AcDbEntity
  8
0
  6
CONTINUOUS
100
AcDbLine
 10
22.10383410076263
 20
5.732084481509751
 30
0.0
 11
24.12411815881395
 21
7.752368539561078
 31
0.0
  0
LINE
  5
1B595
330
1B591
100
AcDbEntity
  8
0
  6
CONTINUOUS
100
AcDbLine
 10
21.55843658317447
 20
4.513167754841414
 30
0.0
 11
24.3322999106347
 21
7.287031082301639
 31
0.0
  0
LINE
  5
1B596
330
1B591
100
AcDbEntity
  8
0
  6
CONTINUOUS
100
AcDbLine
 10
21.01303906558632
 20
3.294251028173077
 30
0.0
 11
24.54048166245544
 21
6.821693625042199
 31
0.0
  0
LINE
  5
1B597
330
1B591
100
AcDbEntity
  8
0
  6
CONTINUOUS
100
AcDbLine
 10
20.46764154799817
 20
2.075334301504738
 30
0.0
 11
23.28571549467848
 21
4.89340824818505
 31
0.0
  0
LINE
  5
1B598
330
1B591
100
AcDbEntity
  8
0
  6
CONTINUOUS
100
AcDbLine
 10
19.92224403041002
 20
0.8564175748364002
 30
0.0
 11
22.74075865492779
 21
3.674932199354171
 31
0.0
  0
LINE
  5
1B599
330
1B591
100
AcDbEntity
  8
0
  6
CONTINUOUS
100
AcDbLine
 10
23.67305085490148
 20
5.280743608408048
 30
0.0
 11
24.74866341427619
 21
6.356356167782759
 31
0.0
  0
LINE
  5
1B59A
330
1B591
100
AcDbEntity
  8
0
  6
CONTINUOUS
100
AcDbLine
 10
23.88118970842314
 20
4.815363252849522
 30
0.0
 11
24.95684516609694
 21
5.89101871052332
 31
0.0
  0
LINE
  5
1B59B
330
1B591
100
AcDbEntity
  8
0
  6
CONTINUOUS
100
AcDbLine
 10
19.73925852647308
 20
-0.0000871381807288
 30
0.0
 11
23.4103456646501
 21
3.670999999996297
 31
0.0
  0
LINE
  5
1B59C
330
1B591
100
AcDbEntity
  8
0
  6
CONTINUOUS
100
AcDbLine
 10
24.0893285619448
 20
4.349982897290997
 30
0.0
 11
25.16502691791769
 21
5.42568125326388
 31
0.0
  0
LINE
  5
1B59D
330
1B591
100
AcDbEntity
  8
0
  6
CONTINUOUS
100
AcDbLine
 10
20.41282099582748
 20
-0.0000438779065108
 30
0.0
 11
21.64944178675636
 21
1.236576913022366
 31
0.0
  0
LINE
  5
1B59E
330
1B591
100
AcDbEntity
  8
0
  6
CONTINUOUS
100
AcDbLine
 10
22.78126487373161
 20
2.36839999999762
 30
0.0
 11
24.08386487373029
 21
3.670999999996297
 31
0.0
  0
LINE
  5
1B59F
330
1B591
100
AcDbEntity
  8
0
  6
CONTINUOUS
100
AcDbLine
 10
24.29746741546646
 20
3.884602541732471
 30
0.0
 11
25.37320866973843
 21
4.960343796004441
 31
0.0
  0
LINE
  5
1B5A0
330
1B591
100
AcDbEntity
  8
0
  6
CONTINUOUS
100
AcDbLine
 10
21.08638346518189
 20
-0.0000006176322938
 30
0.0
 11
21.10379033335899
 21
0.0174062505448083
 31
0.0
  0
LINE
  5
1B5A1
330
1B591
100
AcDbEntity
  8
0
  6
CONTINUOUS
100
AcDbLine
 10
23.4547840828118
 20
2.36839999999762
 30
0.0
 11
25.58139042155918
 21
4.495006338745002
 31
0.0
  0
LINE
  5
1B5A2
330
1B591
100
AcDbEntity
  8
0
  6
CONTINUOUS
100
AcDbLine
 10
29.30199999996933
 20
8.215615917155148
 30
0.0
 11
29.84948408280543
 21
8.763099999991255
 31
0.0
  0
LINE
  5
1B5A3
330
1B591
100
AcDbEntity
  8
0
  6
CONTINUOUS
100
AcDbLine
 10
24.12830329189199
 20
2.36839999999762
 30
0.0
 11
25.78957217337993
 21
4.029668881485562
 31
0.0
  0
LINE
  5
1B5A4
330
1B591
100
AcDbEntity
  8
0
  6
CONTINUOUS
100
AcDbLine
 10
29.30199999996933
 20
7.54209670807496
 30
0.0
 11
30.52300329188562
 21
8.763099999991255
 31
0.0
  0
LINE
  5
1B5A5
330
1B591
100
AcDbEntity
  8
0
  6
CONTINUOUS
100
AcDbLine
 10
24.80182250097217
 20
2.36839999999762
 30
0.0
 11
25.99775392520067
 21
3.564331424226122
 31
0.0
  0
LINE
  5
1B5A6
330
1B591
100
AcDbEntity
  8
0
  6
CONTINUOUS
100
AcDbLine
 10
29.30199999996933
 20
6.868577498994774
 30
0.0
 11
30.74199999996926
 21
8.308577498994712
 31
0.0
  0
LINE
  5
1B5A7
330
1B591
100
AcDbEntity
  8
0
  6
CONTINUOUS
100
AcDbLine
 10
25.13028238392013
 20
2.023340673865392
 30
0.0
 11
26.20593567702142
 21
3.098993966966683
 31
0.0
  0
LINE
  5
1B5A8
330
1B591
100
AcDbEntity
  8
0
  6
CONTINUOUS
100
AcDbLine
 10
25.33838066033617
 20
1.557919741201244
 30
0.0
 11
26.41411742884217
 21
2.633656509707244
 31
0.0
  0
LINE
  5
1B5A9
330
1B591
100
AcDbEntity
  8
0
  6
CONTINUOUS
100
AcDbLine
 10
25.54647893675221
 20
1.092498808537098
 30
0.0
 11
26.62229918066291
 21
2.168319052447804
 31
0.0
  0
LINE
  5
1B5AA
330
1B591
100
AcDbEntity
  8
0
  6
CONTINUOUS
100
AcDbLine
 10
25.75457721316825
 20
0.62707787587295
 30
0.0
 11
26.83048093248366
 21
1.702981595188365
 31
0.0
  0
LINE
  5
1B5AB
330
1B591
100
AcDbEntity
  8
0
  6
CONTINUOUS
100
AcDbLine
 10
29.30199999996933
 20
6.195058289914587
 30
0.0
 11
30.74199999996926
 21
7.635058289914522
 31
0.0
  0
LINE
  5
1B5AC
330
1B591
100
AcDbEntity
  8
0
  6
CONTINUOUS
100
AcDbLine
 10
29.30199999996933
 20
5.521539080834401
 30
0.0
 11
30.74199999996926
 21
6.961539080834331
 31
0.0
  0
LINE
  5
1B5AD
330
1B591
100
AcDbEntity
  8
0
  6
CONTINUOUS
100
AcDbLine
 10
29.30199999996933
 20
4.848019871754214
 30
0.0
 11
30.74199999996925
 21
6.288019871754143
 31
0.0
  0
LINE
  5
1B5AE
330
1B591
100
AcDbEntity
  8
0
  6
CONTINUOUS
100
AcDbLine
 10
29.30199999996933
 20
4.174500662674028
 30
0.0
 11
30.74199999996925
 21
5.614500662673953
 31
0.0
  0
LINE
  5
1B5AF
330
1B591
100
AcDbEntity
  8
0
  6
CONTINUOUS
100
AcDbLine
 10
25.96267548958429
 20
0.1616569432088024
 30
0.0
 11
27.18411854636669
 21
1.383099999991207
 31
0.0
  0
LINE
  5
1B5B0
330
1B591
100
AcDbEntity
  8
0
  6
CONTINUOUS
100
AcDbLine
 10
29.30199999996933
 20
3.500981453593841
 30
0.0
 11
30.74199999996925
 21
4.940981453593762
 31
0.0
  0
LINE
  5
1B5B1
330
1B591
100
AcDbEntity
  8
0
  6
CONTINUOUS
100
AcDbLine
 10
26.50763775544691
 20
0.0330999999912356
 30
0.0
 11
27.85763775544689
 21
1.383099999991223
 31
0.0
  0
LINE
  5
1B5B2
330
1B591
100
AcDbEntity
  8
0
  6
CONTINUOUS
100
AcDbLine
 10
29.30199999996933
 20
2.827462244513656
 30
0.0
 11
30.74199999996925
 21
4.267462244513574
 31
0.0
  0
LINE
  5
1B5B3
330
1B591
100
AcDbEntity
  8
0
  6
CONTINUOUS
100
AcDbLine
 10
27.18115696452709
 20
0.0330999999912356
 30
0.0
 11
28.55073879889363
 21
1.402681834357775
 31
0.0
  0
LINE
  5
1B5B4
330
1B591
100
AcDbEntity
  8
0
  6
CONTINUOUS
100
AcDbLine
 10
29.28241816560272
 20
2.134361201066866
 30
0.0
 11
30.74199999996924
 21
3.593943035433383
 31
0.0
  0
LINE
  5
1B5B5
330
1B591
100
AcDbEntity
  8
0
  6
CONTINUOUS
100
AcDbLine
 10
27.85467617360728
 20
0.0330999999912356
 30
0.0
 11
30.74199999996924
 21
2.920423826353195
 31
0.0
  0
LINE
  5
1B5B6
330
1B591
100
AcDbEntity
  8
0
  6
CONTINUOUS
100
AcDbLine
 10
28.53897559587887
 20
0.0438802131826428
 30
0.0
 11
30.73121978677781
 21
2.236124404081585
 31
0.0
  0
LINE
  5
1B5B7
330
1B591
100
AcDbEntity
  8
0
  6
CONTINUOUS
100
AcDbLine
 10
29.45140055588722
 20
0.2827859641107988
 30
0.0
 11
30.49231403584965
 21
1.323699444073236
 31
0.0
  0
LINE
  5
1B5B8
330
1B591
100
AcDbEntity
  8
0
  6
CONTINUOUS
100
AcDbLine
 10
19.59027867740337
 20
-0.0000967065718083
 30
0.0
 11
19.55485265190471
 21
0.035329318926844
 31
0.0
  0
LINE
  5
1B5B9
330
1B591
100
AcDbEntity
  8
0
  6
CONTINUOUS
100
AcDbLine
 10
20.26375463176586
 20
-0.0000534518541091
 30
0.0
 11
19.76305575737534
 21
0.5006454225364014
 31
0.0
  0
LINE
  5
1B5BA
330
1B591
100
AcDbEntity
  8
0
  6
CONTINUOUS
100
AcDbLine
 10
20.93723058612834
 20
-0.0000101971364099
 30
0.0
 11
19.97125886284597
 21
0.965961526145958
 31
0.0
  0
LINE
  5
1B5BB
330
1B591
100
AcDbEntity
  8
0
  6
CONTINUOUS
100
AcDbLine
 10
21.25514828313686
 20
0.355591314935257
 30
0.0
 11
20.1794619683166
 21
1.431277629755512
 31
0.0
  0
LINE
  5
1B5BC
330
1B591
100
AcDbEntity
  8
0
  6
CONTINUOUS
100
AcDbLine
 10
21.46338838394921
 20
0.8208704232030986
 30
0.0
 11
20.38766507378723
 21
1.896593733365069
 31
0.0
  0
LINE
  5
1B5BD
330
1B591
100
AcDbEntity
  8
0
  6
CONTINUOUS
100
AcDbLine
 10
21.67162848476155
 20
1.28614953147094
 30
0.0
 11
20.59586817925786
 21
2.361909836974626
 31
0.0
  0
LINE
  5
1B5BE
330
1B591
100
AcDbEntity
  8
0
  6
CONTINUOUS
100
AcDbLine
 10
21.8798685855739
 20
1.751428639738782
 30
0.0
 11
20.80407128472849
 21
2.827225940584183
 31
0.0
  0
LINE
  5
1B5BF
330
1B591
100
AcDbEntity
  8
0
  6
CONTINUOUS
100
AcDbLine
 10
22.08810868638624
 20
2.216707748006623
 30
0.0
 11
21.01227439019912
 21
3.292542044193739
 31
0.0
  0
LINE
  5
1B5C0
330
1B591
100
AcDbEntity
  8
0
  6
CONTINUOUS
100
AcDbLine
 10
22.60993564347543
 20
2.36839999999762
 30
0.0
 11
21.22047749566975
 21
3.757858147803296
 31
0.0
  0
LINE
  5
1B5C1
330
1B591
100
AcDbEntity
  8
0
  6
CONTINUOUS
100
AcDbLine
 10
23.28345485255561
 20
2.36839999999762
 30
0.0
 11
21.42868060114038
 21
4.223174251412853
 31
0.0
  0
LINE
  5
1B5C2
330
1B591
100
AcDbEntity
  8
0
  6
CONTINUOUS
100
AcDbLine
 10
26.29227406164219
 20
0.0330999999912356
 30
0.0
 11
25.80009199592872
 21
0.5252820657046957
 31
0.0
  0
LINE
  5
1B5C3
330
1B591
100
AcDbEntity
  8
0
  6
CONTINUOUS
100
AcDbLine
 10
23.9569740616358
 20
2.36839999999762
 30
0.0
 11
21.63688370661101
 21
4.688490355022409
 31
0.0
  0
LINE
  5
1B5C4
330
1B591
100
AcDbEntity
  8
0
  6
CONTINUOUS
100
AcDbLine
 10
26.96579327072237
 20
0.0330999999912356
 30
0.0
 11
25.2554132311971
 21
1.743480039516508
 31
0.0
  0
LINE
  5
1B5C5
330
1B591
100
AcDbEntity
  8
0
  6
CONTINUOUS
100
AcDbLine
 10
24.63049327071599
 20
2.36839999999762
 30
0.0
 11
23.32789327071731
 21
3.670999999996297
 31
0.0
  0
LINE
  5
1B5C6
330
1B591
100
AcDbEntity
  8
0
  6
CONTINUOUS
100
AcDbLine
 10
22.92098674744635
 20
4.077906523267254
 30
0.0
 11
21.84508681208164
 21
5.153806458631966
 31
0.0
  0
LINE
  5
1B5C7
330
1B591
100
AcDbEntity
  8
0
  6
CONTINUOUS
100
AcDbLine
 10
27.63931247980256
 20
0.0330999999912356
 30
0.0
 11
24.0014124797975
 21
3.670999999996297
 31
0.0
  0
LINE
  5
1B5C8
330
1B591
100
AcDbEntity
  8
0
  6
CONTINUOUS
100
AcDbLine
 10
23.129125600968
 20
4.5432868788258
 30
0.0
 11
22.05328991755227
 21
5.619122562241522
 31
0.0
  0
LINE
  5
1B5C9
330
1B591
100
AcDbEntity
  8
0
  6
CONTINUOUS
100
AcDbLine
 10
28.31283168888275
 20
0.0330999999912356
 30
0.0
 11
24.16488385994816
 21
4.181047828925828
 31
0.0
  0
LINE
  5
1B5CA
330
1B591
100
AcDbEntity
  8
0
  6
CONTINUOUS
100
AcDbLine
 10
23.33726445448964
 20
5.008667234384345
 30
0.0
 11
22.2614930230229
 21
6.084438665851079
 31
0.0
  0
LINE
  5
1B5CB
330
1B591
100
AcDbEntity
  8
0
  6
CONTINUOUS
100
AcDbLine
 10
28.92085740005492
 20
0.0985934978992438
 30
0.0
 11
27.63635089796295
 21
1.383099999991217
 31
0.0
  0
LINE
  5
1B5CC
330
1B591
100
AcDbEntity
  8
0
  6
CONTINUOUS
100
AcDbLine
 10
26.43704649509776
 20
2.582404402856405
 30
0.0
 11
23.61992702019732
 21
5.399523877756844
 31
0.0
  0
LINE
  5
1B5CD
330
1B591
100
AcDbEntity
  8
0
  6
CONTINUOUS
100
AcDbLine
 10
23.54540330801128
 20
5.47404758994289
 30
0.0
 11
22.46969612849353
 21
6.549754769460635
 31
0.0
  0
LINE
  5
1B5CE
330
1B591
100
AcDbEntity
  8
0
  6
CONTINUOUS
100
AcDbLine
 10
29.42225615078443
 20
0.2707139562499279
 30
0.0
 11
28.30987010704312
 21
1.383099999991234
 31
0.0
  0
LINE
  5
1B5CF
330
1B591
100
AcDbEntity
  8
0
  6
CONTINUOUS
100
AcDbLine
 10
25.89179548232307
 20
3.801174624711282
 30
0.0
 11
22.67789923396416
 21
7.015070873070191
 31
0.0
  0
LINE
  5
1B5D0
330
1B591
100
AcDbEntity
  8
0
  6
CONTINUOUS
100
AcDbLine
 10
29.83624534690007
 20
0.5302439692144705
 30
0.0
 11
28.85811781497101
 21
1.508371501143527
 31
0.0
  0
LINE
  5
1B5D1
330
1B591
100
AcDbEntity
  8
0
  6
CONTINUOUS
100
AcDbLine
 10
25.34654446954838
 20
5.01994484656616
 30
0.0
 11
22.88610233943479
 21
7.480386976679748
 31
0.0
  0
LINE
  5
1B5D2
330
1B591
100
AcDbEntity
  8
0
  6
CONTINUOUS
100
AcDbLine
 10
30.17865975401872
 20
0.8613487711760022
 30
0.0
 11
29.18888744090175
 21
1.851121084292977
 31
0.0
  0
LINE
  5
1B5D3
330
1B591
100
AcDbEntity
  8
0
  6
CONTINUOUS
100
AcDbLine
 10
24.80129345677369
 20
6.238715068421037
 30
0.0
 11
23.09430544490542
 21
7.945703080289305
 31
0.0
  0
LINE
  5
1B5D4
330
1B591
100
AcDbEntity
  8
0
  6
CONTINUOUS
100
AcDbLine
 10
30.45496647202376
 20
1.258561262251155
 30
0.0
 11
29.30199999996933
 21
2.411527734305588
 31
0.0
  0
LINE
  5
1B5D5
330
1B591
100
AcDbEntity
  8
0
  6
CONTINUOUS
100
AcDbLine
 10
24.256042443999
 20
7.457485290275915
 30
0.0
 11
23.30250855037605
 21
8.411019183898862
 31
0.0
  0
LINE
  5
1B5D6
330
1B591
100
AcDbEntity
  8
0
  6
CONTINUOUS
100
AcDbLine
 10
30.64868582078271
 20
1.738361122572387
 30
0.0
 11
29.30199999996933
 21
3.085046943385775
 31
0.0
  0
LINE
  5
1B5D7
330
1B591
100
AcDbEntity
  8
0
  6
CONTINUOUS
100
AcDbLine
 10
23.71079143122431
 20
8.676255512130794
 30
0.0
 11
23.51071165584668
 21
8.876335287508416
 31
0.0
  0
LINE
  5
1B5D8
330
1B591
100
AcDbEntity
  8
0
  6
CONTINUOUS
100
AcDbLine
 10
30.73802122914428
 20
2.322544923291007
 30
0.0
 11
29.30199999996933
 21
3.758566152465961
 31
0.0
  0
LINE
  5
1B5D9
330
1B591
100
AcDbEntity
  8
0
  6
CONTINUOUS
100
AcDbLine
 10
30.74199999996924
 20
2.992085361546236
 30
0.0
 11
29.30199999996933
 21
4.432085361546148
 31
0.0
  0
LINE
  5
1B5DA
330
1B591
100
AcDbEntity
  8
0
  6
CONTINUOUS
100
AcDbLine
 10
30.74199999996924
 20
3.665604570626419
 30
0.0
 11
29.30199999996933
 21
5.105604570626333
 31
0.0
  0
LINE
  5
1B5DB
330
1B591
100
AcDbEntity
  8
0
  6
CONTINUOUS
100
AcDbLine
 10
30.74199999996925
 20
4.339123779706602
 30
0.0
 11
29.30199999996933
 21
5.77912377970652
 31
0.0
  0
LINE
  5
1B5DC
330
1B591
100
AcDbEntity
  8
0
  6
CONTINUOUS
100
AcDbLine
 10
30.74199999996925
 20
5.012642988786785
 30
0.0
 11
29.30199999996933
 21
6.452642988786707
 31
0.0
  0
LINE
  5
1B5DD
330
1B591
100
AcDbEntity
  8
0
  6
CONTINUOUS
100
AcDbLine
 10
30.74199999996925
 20
5.68616219786697
 30
0.0
 11
29.30199999996933
 21
7.126162197866894
 31
0.0
  0
LINE
  5
1B5DE
330
1B591
100
AcDbEntity
  8
0
  6
CONTINUOUS
100
AcDbLine
 10
30.74199999996925
 20
6.359681406947153
 30
0.0
 11
29.30199999996933
 21
7.799681406947081
 31
0.0
  0
LINE
  5
1B5DF
330
1B591
100
AcDbEntity
  8
0
  6
CONTINUOUS
100
AcDbLine
 10
30.74199999996926
 20
7.033200616027337
 30
0.0
 11
29.30199999996933
 21
8.473200616027269
 31
0.0
  0
LINE
  5
1B5E0
330
1B591
100
AcDbEntity
  8
0
  6
CONTINUOUS
100
AcDbLine
 10
30.74199999996926
 20
7.706719825107518
 30
0.0
 11
29.68561982508552
 21
8.763099999991255
 31
0.0
  0
LINE
  5
1B5E1
330
1B591
100
AcDbEntity
  8
0
  6
CONTINUOUS
100
AcDbLine
 10
30.74199999996926
 20
8.380239034187703
 30
0.0
 11
30.35913903416571
 21
8.763099999991255
 31
0.0
  0
ENDBLK
  5
1B684
330
1B591
100
AcDbEntity
  8
0
100
AcDbBlockEnd
  0
BLOCK
  5
1B685
330
1B5E2
100
AcDbEntity
  8
0
100
AcDbBlockBegin
  2
*X42
 70
     1
 10
0.0
 20
0.0
 30
0.0
  3
*X42
  1

  0
LINE
  5
1B5E3
330
1B5E2
100
AcDbEntity
  8
0
  6
CONTINUOUS
100
AcDbLine
 10
31.64199999996833
 20
8.535058289913598
 30
0.0
 11
31.87004171004599
 21
8.763099999991255
 31
0.0
  0
LINE
  5
1B5E4
330
1B5E2
100
AcDbEntity
  8
0
  6
CONTINUOUS
100
AcDbLine
 10
31.64199999996833
 20
7.861539080833412
 30
0.0
 11
32.54356091912618
 21
8.763099999991255
 31
0.0
  0
LINE
  5
1B5E5
330
1B5E2
100
AcDbEntity
  8
0
  6
CONTINUOUS
100
AcDbLine
 10
31.64199999996833
 20
7.188019871753226
 30
0.0
 11
33.08199999996839
 21
8.628019871753281
 31
0.0
  0
LINE
  5
1B5E6
330
1B5E2
100
AcDbEntity
  8
0
  6
CONTINUOUS
100
AcDbLine
 10
31.64199999996833
 20
6.51450066267304
 30
0.0
 11
33.08199999996839
 21
7.954500662673095
 31
0.0
  0
LINE
  5
1B5E7
330
1B5E2
100
AcDbEntity
  8
0
  6
CONTINUOUS
100
AcDbLine
 10
31.64199999996833
 20
5.840981453592853
 30
0.0
 11
33.08199999996839
 21
7.280981453592908
 31
0.0
  0
LINE
  5
1B5E8
330
1B5E2
100
AcDbEntity
  8
0
  6
CONTINUOUS
100
AcDbLine
 10
31.64199999996833
 20
5.167462244512667
 30
0.0
 11
33.08199999996839
 21
6.607462244512721
 31
0.0
  0
LINE
  5
1B5E9
330
1B5E2
100
AcDbEntity
  8
0
  6
CONTINUOUS
100
AcDbLine
 10
31.64199999996833
 20
4.493943035432481
 30
0.0
 11
33.08199999996839
 21
5.933943035432535
 31
0.0
  0
LINE
  5
1B5EA
330
1B5E2
100
AcDbEntity
  8
0
  6
CONTINUOUS
100
AcDbLine
 10
31.64199999996833
 20
3.820423826352293
 30
0.0
 11
33.08199999996839
 21
5.260423826352348
 31
0.0
  0
LINE
  5
1B5EB
330
1B5E2
100
AcDbEntity
  8
0
  6
CONTINUOUS
100
AcDbLine
 10
31.64199999996833
 20
3.146904617272106
 30
0.0
 11
33.08199999996839
 21
4.586904617272161
 31
0.0
  0
LINE
  5
1B5EC
330
1B5E2
100
AcDbEntity
  8
0
  6
CONTINUOUS
100
AcDbLine
 10
36.23199999996837
 20
8.410423826352325
 30
0.0
 11
36.5846761736073
 21
8.763099999991255
 31
0.0
  0
LINE
  5
1B5ED
330
1B5E2
100
AcDbEntity
  8
0
  6
CONTINUOUS
100
AcDbLine
 10
36.23199999996837
 20
7.73690461727214
 30
0.0
 11
37.25819538268748
 21
8.763099999991255
 31
0.0
  0
LINE
  5
1B5EE
330
1B5E2
100
AcDbEntity
  8
0
  6
CONTINUOUS
100
AcDbLine
 10
31.64257403601376
 20
2.473959444237348
 30
0.0
 11
33.08199999996839
 21
3.913385408191974
 31
0.0
  0
LINE
  5
1B5EF
330
1B5E2
100
AcDbEntity
  8
0
  6
CONTINUOUS
100
AcDbLine
 10
36.23199999996837
 20
7.063385408191953
 30
0.0
 11
37.67199999996831
 21
8.503385408191894
 31
0.0
  0
LINE
  5
1B5F0
330
1B5E2
100
AcDbEntity
  8
0
  6
CONTINUOUS
100
AcDbLine
 10
31.72013636841932
 20
1.87800256756272
 30
0.0
 11
33.08199999996839
 21
3.239866199111788
 31
0.0
  0
LINE
  5
1B5F1
330
1B5E2
100
AcDbEntity
  8
0
  6
CONTINUOUS
100
AcDbLine
 10
36.23199999996837
 20
6.389866199111767
 30
0.0
 11
37.67199999996831
 21
7.829866199111708
 31
0.0
  0
LINE
  5
1B5F2
330
1B5E2
100
AcDbEntity
  8
0
  6
CONTINUOUS
100
AcDbLine
 10
31.89042734314753
 20
1.374774333210744
 30
0.0
 11
33.08199999996839
 21
2.566346990031601
 31
0.0
  0
LINE
  5
1B5F3
330
1B5E2
100
AcDbEntity
  8
0
  6
CONTINUOUS
100
AcDbLine
 10
36.23199999996837
 20
5.71634699003158
 30
0.0
 11
37.67199999996831
 21
7.156346990031521
 31
0.0
  0
LINE
  5
1B5F4
330
1B5E2
100
AcDbEntity
  8
0
  6
CONTINUOUS
100
AcDbLine
 10
32.14210568064475
 20
0.952933461627778
 30
0.0
 11
33.18745552475986
 21
1.998283305742888
 31
0.0
  0
LINE
  5
1B5F5
330
1B5E2
100
AcDbEntity
  8
0
  6
CONTINUOUS
100
AcDbLine
 10
36.23199999996837
 20
5.042827780951393
 30
0.0
 11
37.67199999996831
 21
6.482827780951334
 31
0.0
  0
LINE
  5
1B5F6
330
1B5E2
100
AcDbEntity
  8
0
  6
CONTINUOUS
100
AcDbLine
 10
32.45820639400955
 20
0.5955149659123915
 30
0.0
 11
33.47242681921943
 21
1.60973539112227
 31
0.0
  0
LINE
  5
1B5F7
330
1B5E2
100
AcDbEntity
  8
0
  6
CONTINUOUS
100
AcDbLine
 10
36.23199999996837
 20
4.369308571871207
 30
0.0
 11
37.67199999996831
 21
5.809308571871147
 31
0.0
  0
LINE
  5
1B5F8
330
1B5E2
100
AcDbEntity
  8
0
  6
CONTINUOUS
100
AcDbLine
 10
32.83432456621412
 20
0.2981139290367771
 30
0.0
 11
33.89722476612215
 21
1.361014128944803
 31
0.0
  0
LINE
  5
1B5F9
330
1B5E2
100
AcDbEntity
  8
0
  6
CONTINUOUS
100
AcDbLine
 10
36.23199999996837
 20
3.69578936279102
 30
0.0
 11
37.67199999996831
 21
5.135789362790962
 31
0.0
  0
LINE
  5
1B5FA
330
1B5E2
100
AcDbEntity
  8
0
  6
CONTINUOUS
100
AcDbLine
 10
33.2711633111245
 20
0.0614334648669672
 30
0.0
 11
34.43247338014423
 21
1.222743533886696
 31
0.0
  0
LINE
  5
1B5FB
330
1B5E2
100
AcDbEntity
  8
0
  6
CONTINUOUS
100
AcDbLine
 10
36.23199999996837
 20
3.022270153710834
 30
0.0
 11
37.67199999996831
 21
4.462270153710775
 31
0.0
  0
LINE
  5
1B5FC
330
1B5E2
100
AcDbEntity
  8
0
  6
CONTINUOUS
100
AcDbLine
 10
33.76515245874577
 20
-0.1180965965919523
 30
0.0
 11
35.1587445516215
 21
1.27549549628378
 31
0.0
  0
LINE
  5
1B5FD
330
1B5E2
100
AcDbEntity
  8
0
  6
CONTINUOUS
100
AcDbLine
 10
36.21639478609585
 20
2.333145730758136
 30
0.0
 11
37.67199999996831
 21
3.788750944630588
 31
0.0
  0
LINE
  5
1B5FE
330
1B5E2
100
AcDbEntity
  8
0
  6
CONTINUOUS
100
AcDbLine
 10
34.34060583368432
 20
-0.2161624307335863
 30
0.0
 11
37.67199999996831
 21
3.115231735550401
 31
0.0
  0
LINE
  5
1B5FF
330
1B5E2
100
AcDbEntity
  8
0
  6
CONTINUOUS
100
AcDbLine
 10
35.01698193613905
 20
-0.2133055373590427
 30
0.0
 11
37.66876712070525
 21
2.438479647207154
 31
0.0
  0
LINE
  5
1B600
330
1B5E2
100
AcDbEntity
  8
0
  6
CONTINUOUS
100
AcDbLine
 10
35.90743367693304
 20
0.0036269943547609
 30
0.0
 11
37.51723902192366
 21
1.613432339345381
 31
0.0
  0
LINE
  5
1B601
330
1B5E2
100
AcDbEntity
  8
0
  6
CONTINUOUS
100
AcDbLine
 10
32.55309425579761
 20
0.5074718966376706
 30
0.0
 11
32.27784730925847
 21
0.7827188431768102
 31
0.0
  0
LINE
  5
1B602
330
1B5E2
100
AcDbEntity
  8
0
  6
CONTINUOUS
100
AcDbLine
 10
33.87496468909684
 20
-0.1408793275813673
 30
0.0
 11
31.67993083278052
 21
2.054154528734943
 31
0.0
  0
LINE
  5
1B603
330
1B5E2
100
AcDbEntity
  8
0
  6
CONTINUOUS
100
AcDbLine
 10
34.64362813207632
 20
-0.2360235614806649
 30
0.0
 11
31.64199999996833
 21
2.765604570627322
 31
0.0
  0
LINE
  5
1B604
330
1B5E2
100
AcDbEntity
  8
0
  6
CONTINUOUS
100
AcDbLine
 10
35.25801106796118
 20
-0.1768872882853429
 30
0.0
 11
31.64199999996833
 21
3.439123779707508
 31
0.0
  0
LINE
  5
1B605
330
1B5E2
100
AcDbEntity
  8
0
  6
CONTINUOUS
100
AcDbLine
 10
35.79065650332146
 20
-0.0360135145654361
 30
0.0
 11
34.54143210838231
 21
1.213210880373721
 31
0.0
  0
LINE
  5
1B606
330
1B5E2
100
AcDbEntity
  8
0
  6
CONTINUOUS
100
AcDbLine
 10
33.08199999996839
 20
2.67264298878764
 30
0.0
 11
31.64199999996833
 21
4.112642988787695
 31
0.0
  0
LINE
  5
1B607
330
1B5E2
100
AcDbEntity
  8
0
  6
CONTINUOUS
100
AcDbLine
 10
36.25975597779143
 20
0.1684062200447833
 30
0.0
 11
35.15395110240023
 21
1.274211095435983
 31
0.0
  0
LINE
  5
1B608
330
1B5E2
100
AcDbEntity
  8
0
  6
CONTINUOUS
100
AcDbLine
 10
33.08199999996839
 20
3.346162197867826
 30
0.0
 11
31.64199999996833
 21
4.786162197867881
 31
0.0
  0
LINE
  5
1B609
330
1B5E2
100
AcDbEntity
  8
0
  6
CONTINUOUS
100
AcDbLine
 10
36.67226329638774
 20
0.4294181105286579
 30
0.0
 11
35.63766478748767
 21
1.464016619428737
 31
0.0
  0
LINE
  5
1B60A
330
1B5E2
100
AcDbEntity
  8
0
  6
CONTINUOUS
100
AcDbLine
 10
33.08199999996839
 20
4.019681406948012
 30
0.0
 11
31.64199999996833
 21
5.459681406948068
 31
0.0
  0
LINE
  5
1B60B
330
1B5E2
100
AcDbEntity
  8
0
  6
CONTINUOUS
100
AcDbLine
 10
37.01677749710036
 20
0.7584231188962329
 30
0.0
 11
35.99563422741351
 21
1.779566388583076
 31
0.0
  0
LINE
  5
1B60C
330
1B5E2
100
AcDbEntity
  8
0
  6
CONTINUOUS
100
AcDbLine
 10
33.08199999996839
 20
4.693200616028199
 30
0.0
 11
31.64199999996833
 21
6.133200616028255
 31
0.0
  0
LINE
  5
1B60D
330
1B5E2
100
AcDbEntity
  8
0
  6
CONTINUOUS
100
AcDbLine
 10
37.29859977568887
 20
1.1501200493879
 30
0.0
 11
36.20680593341555
 21
2.241913891661226
 31
0.0
  0
LINE
  5
1B60E
330
1B5E2
100
AcDbEntity
  8
0
  6
CONTINUOUS
100
AcDbLine
 10
33.08199999996839
 20
5.366719825108386
 30
0.0
 11
31.64199999996833
 21
6.80671982510844
 31
0.0
  0
LINE
  5
1B60F
330
1B5E2
100
AcDbEntity
  8
0
  6
CONTINUOUS
100
AcDbLine
 10
37.5148623517228
 20
1.607376682434161
 30
0.0
 11
36.23199999996837
 21
2.890239034188594
 31
0.0
  0
LINE
  5
1B610
330
1B5E2
100
AcDbEntity
  8
0
  6
CONTINUOUS
100
AcDbLine
 10
33.08199999996839
 20
6.040239034188573
 30
0.0
 11
31.64199999996833
 21
7.480239034188627
 31
0.0
  0
LINE
  5
1B611
330
1B5E2
100
AcDbEntity
  8
0
  6
CONTINUOUS
100
AcDbLine
 10
37.64705163358367
 20
2.148706609653477
 30
0.0
 11
36.23199999996837
 21
3.56375824326878
 31
0.0
  0
LINE
  5
1B612
330
1B5E2
100
AcDbEntity
  8
0
  6
CONTINUOUS
100
AcDbLine
 10
33.08199999996839
 20
6.713758243268758
 30
0.0
 11
31.64199999996833
 21
8.153758243268815
 31
0.0
  0
LINE
  5
1B613
330
1B5E2
100
AcDbEntity
  8
0
  6
CONTINUOUS
100
AcDbLine
 10
37.67199999996831
 20
2.797277452349026
 30
0.0
 11
36.23199999996837
 21
4.237277452348967
 31
0.0
  0
LINE
  5
1B614
330
1B5E2
100
AcDbEntity
  8
0
  6
CONTINUOUS
100
AcDbLine
 10
37.67199999996831
 20
3.470796661429213
 30
0.0
 11
36.23199999996837
 21
4.910796661429154
 31
0.0
  0
LINE
  5
1B615
330
1B5E2
100
AcDbEntity
  8
0
  6
CONTINUOUS
100
AcDbLine
 10
37.67199999996831
 20
4.144315870509399
 30
0.0
 11
36.23199999996837
 21
5.58431587050934
 31
0.0
  0
LINE
  5
1B616
330
1B5E2
100
AcDbEntity
  8
0
  6
CONTINUOUS
100
AcDbLine
 10
33.08199999996839
 20
7.387277452348945
 30
0.0
 11
31.70617745232608
 21
8.763099999991255
 31
0.0
  0
LINE
  5
1B617
330
1B5E2
100
AcDbEntity
  8
0
  6
CONTINUOUS
100
AcDbLine
 10
33.08199999996839
 20
8.060796661429132
 30
0.0
 11
32.37969666140626
 21
8.763099999991255
 31
0.0
  0
LINE
  5
1B618
330
1B5E2
100
AcDbEntity
  8
0
  6
CONTINUOUS
100
AcDbLine
 10
33.08199999996839
 20
8.734315870509318
 30
0.0
 11
33.05321587048645
 21
8.763099999991255
 31
0.0
  0
LINE
  5
1B619
330
1B5E2
100
AcDbEntity
  8
0
  6
CONTINUOUS
100
AcDbLine
 10
37.67199999996831
 20
4.817835079589585
 30
0.0
 11
36.23199999996837
 21
6.257835079589526
 31
0.0
  0
LINE
  5
1B61A
330
1B5E2
100
AcDbEntity
  8
0
  6
CONTINUOUS
100
AcDbLine
 10
37.67199999996831
 20
5.491354288669771
 30
0.0
 11
36.23199999996837
 21
6.931354288669713
 31
0.0
  0
LINE
  5
1B61B
330
1B5E2
100
AcDbEntity
  8
0
  6
CONTINUOUS
100
AcDbLine
 10
37.67199999996831
 20
6.164873497749958
 30
0.0
 11
36.23199999996837
 21
7.6048734977499
 31
0.0
  0
LINE
  5
1B61C
330
1B5E2
100
AcDbEntity
  8
0
  6
CONTINUOUS
100
AcDbLine
 10
37.67199999996831
 20
6.838392706830144
 30
0.0
 11
36.23199999996837
 21
8.278392706830086
 31
0.0
  0
LINE
  5
1B61D
330
1B5E2
100
AcDbEntity
  8
0
  6
CONTINUOUS
100
AcDbLine
 10
37.67199999996831
 20
7.511911915910332
 30
0.0
 11
36.42081191588738
 21
8.763099999991255
 31
0.0
  0
LINE
  5
1B61E
330
1B5E2
100
AcDbEntity
  8
0
  6
CONTINUOUS
100
AcDbLine
 10
37.67199999996831
 20
8.185431124990519
 30
0.0
 11
37.09433112496757
 21
8.763099999991255
 31
0.0
  0
ENDBLK
  5
1B686
330
1B5E2
100
AcDbEntity
  8
0
100
AcDbBlockEnd
  0
BLOCK
  5
1B687
330
1B61F
100
AcDbEntity
  8
0
100
AcDbBlockBegin
  2
*X43
 70
     1
 10
0.0
 20
0.0
 30
0.0
  3
*X43
  1

  0
LINE
  5
1B620
330
1B61F
100
AcDbEntity
  8
0
  6
CONTINUOUS
100
AcDbLine
 10
38.60499999996136
 20
8.762866199104765
 30
0.0
 11
38.71672554182345
 21
8.874591740966855
 31
0.0
  0
LINE
  5
1B621
330
1B61F
100
AcDbEntity
  8
0
  6
CONTINUOUS
100
AcDbLine
 10
38.60499999996136
 20
8.089346990024577
 30
0.0
 11
39.03418785440363
 21
8.518534844466847
 31
0.0
  0
LINE
  5
1B622
330
1B61F
100
AcDbEntity
  8
0
  6
CONTINUOUS
100
AcDbLine
 10
38.60499999996136
 20
7.41582778094439
 30
0.0
 11
39.35165016698382
 21
8.16247794796684
 31
0.0
  0
LINE
  5
1B623
330
1B61F
100
AcDbEntity
  8
0
  6
CONTINUOUS
100
AcDbLine
 10
38.60499999996136
 20
6.742308571864204
 30
0.0
 11
39.66911247956399
 21
7.806421051466834
 31
0.0
  0
LINE
  5
1B624
330
1B61F
100
AcDbEntity
  8
0
  6
CONTINUOUS
100
AcDbLine
 10
38.60499999996136
 20
6.068789362784018
 30
0.0
 11
39.98657479214418
 21
7.450364154966827
 31
0.0
  0
LINE
  5
1B625
330
1B61F
100
AcDbEntity
  8
0
  6
CONTINUOUS
100
AcDbLine
 10
38.60499999996136
 20
5.395270153703832
 30
0.0
 11
40.30403710472435
 21
7.09430725846682
 31
0.0
  0
LINE
  5
1B626
330
1B61F
100
AcDbEntity
  8
0
  6
CONTINUOUS
100
AcDbLine
 10
38.60499999996136
 20
4.721750944623645
 30
0.0
 11
40.62149941730453
 21
6.738250361966813
 31
0.0
  0
LINE
  5
1B627
330
1B61F
100
AcDbEntity
  8
0
  6
CONTINUOUS
100
AcDbLine
 10
38.60499999996136
 20
4.048231735543458
 30
0.0
 11
40.93896172988471
 21
6.382193465466806
 31
0.0
  0
LINE
  5
1B628
330
1B61F
100
AcDbEntity
  8
0
  6
CONTINUOUS
100
AcDbLine
 10
38.60499999996136
 20
3.374712526463272
 30
0.0
 11
40.02599999995994
 21
4.795712526461843
 31
0.0
  0
LINE
  5
1B629
330
1B61F
100
AcDbEntity
  8
0
  6
CONTINUOUS
100
AcDbLine
 10
38.60499999996136
 20
2.701193317383085
 30
0.0
 11
40.02599999995994
 21
4.122193317381657
 31
0.0
  0
LINE
  5
1B62A
330
1B61F
100
AcDbEntity
  8
0
  6
CONTINUOUS
100
AcDbLine
 10
40.28339754687704
 20
5.053110073378947
 30
0.0
 11
41.25642404246489
 21
6.026136568966799
 31
0.0
  0
LINE
  5
1B62B
330
1B61F
100
AcDbEntity
  8
0
  6
CONTINUOUS
100
AcDbLine
 10
40.60085985945722
 20
4.697053176878939
 30
0.0
 11
41.57388635504507
 21
5.670079672466793
 31
0.0
  0
LINE
  5
1B62C
330
1B61F
100
AcDbEntity
  8
0
  6
CONTINUOUS
100
AcDbLine
 10
43.57899999995641
 20
8.348712526458318
 30
0.0
 11
43.99338747348935
 21
8.763099999991255
 31
0.0
  0
LINE
  5
1B62D
330
1B61F
100
AcDbEntity
  8
0
  6
CONTINUOUS
100
AcDbLine
 10
43.57899999995641
 20
7.675193317378131
 30
0.0
 11
44.66690668256953
 21
8.763099999991255
 31
0.0
  0
LINE
  5
1B62E
330
1B61F
100
AcDbEntity
  8
0
  6
CONTINUOUS
100
AcDbLine
 10
38.60499999996136
 20
2.027674108302898
 30
0.0
 11
40.02599999995994
 21
3.44867410830147
 31
0.0
  0
LINE
  5
1B62F
330
1B61F
100
AcDbEntity
  8
0
  6
CONTINUOUS
100
AcDbLine
 10
38.60499999996136
 20
1.354154899222712
 30
0.0
 11
40.02599999995994
 21
2.775154899221284
 31
0.0
  0
LINE
  5
1B630
330
1B61F
100
AcDbEntity
  8
0
  6
CONTINUOUS
100
AcDbLine
 10
38.60499999996136
 20
0.6806356901425255
 30
0.0
 11
40.02599999995994
 21
2.101635690141098
 31
0.0
  0
LINE
  5
1B631
330
1B61F
100
AcDbEntity
  8
0
  6
CONTINUOUS
100
AcDbLine
 10
38.60499999996136
 20
0.0071164810623383
 30
0.0
 11
40.02599999995994
 21
1.428116481060911
 31
0.0
  0
LINE
  5
1B632
330
1B61F
100
AcDbEntity
  8
0
  6
CONTINUOUS
100
AcDbLine
 10
40.9183221720374
 20
4.340996280378933
 30
0.0
 11
41.89134866762525
 21
5.314022775966786
 31
0.0
  0
LINE
  5
1B633
330
1B61F
100
AcDbEntity
  8
0
  6
CONTINUOUS
100
AcDbLine
 10
41.23578448461758
 20
3.984939383878926
 30
0.0
 11
42.20881098020543
 21
4.957965879466778
 31
0.0
  0
LINE
  5
1B634
330
1B61F
100
AcDbEntity
  8
0
  6
CONTINUOUS
100
AcDbLine
 10
41.55324679719776
 20
3.628882487378919
 30
0.0
 11
42.52627329278561
 21
4.601908982966772
 31
0.0
  0
LINE
  5
1B635
330
1B61F
100
AcDbEntity
  8
0
  6
CONTINUOUS
100
AcDbLine
 10
41.87070910977793
 20
3.272825590878912
 30
0.0
 11
42.84373560536579
 21
4.245852086466765
 31
0.0
  0
LINE
  5
1B636
330
1B61F
100
AcDbEntity
  8
0
  6
CONTINUOUS
100
AcDbLine
 10
43.57899999995641
 20
7.001674108297943
 30
0.0
 11
44.99999999995498
 21
8.422674108296516
 31
0.0
  0
LINE
  5
1B637
330
1B61F
100
AcDbEntity
  8
0
  6
CONTINUOUS
100
AcDbLine
 10
43.57899999995641
 20
6.328154899217758
 30
0.0
 11
44.99999999995498
 21
7.749154899216329
 31
0.0
  0
LINE
  5
1B638
330
1B61F
100
AcDbEntity
  8
0
  6
CONTINUOUS
100
AcDbLine
 10
43.57899999995641
 20
5.654635690137571
 30
0.0
 11
44.99999999995498
 21
7.075635690136142
 31
0.0
  0
LINE
  5
1B639
330
1B61F
100
AcDbEntity
  8
0
  6
CONTINUOUS
100
AcDbLine
 10
43.57899999995641
 20
4.981116481057384
 30
0.0
 11
44.99999999995498
 21
6.402116481055955
 31
0.0
  0
LINE
  5
1B63A
330
1B61F
100
AcDbEntity
  8
0
  6
CONTINUOUS
100
AcDbLine
 10
39.27140272797921
 20
-0.0000000000000009
 30
0.0
 11
40.02599999995994
 21
0.7545972719807246
 31
0.0
  0
LINE
  5
1B63B
330
1B61F
100
AcDbEntity
  8
0
  6
CONTINUOUS
100
AcDbLine
 10
39.9449219370594
 20
-0.0000000000000009
 30
0.0
 11
40.02599999995994
 21
0.0810780629005379
 31
0.0
  0
LINE
  5
1B63C
330
1B61F
100
AcDbEntity
  8
0
  6
CONTINUOUS
100
AcDbLine
 10
42.18817142235812
 20
2.916768694378905
 30
0.0
 11
43.16119791794597
 21
3.889795189966758
 31
0.0
  0
LINE
  5
1B63D
330
1B61F
100
AcDbEntity
  8
0
  6
CONTINUOUS
100
AcDbLine
 10
42.50563373493829
 20
2.560711797878898
 30
0.0
 11
43.47866023052615
 21
3.533738293466751
 31
0.0
  0
LINE
  5
1B63E
330
1B61F
100
AcDbEntity
  8
0
  6
CONTINUOUS
100
AcDbLine
 10
43.57899999995641
 20
4.307597271977198
 30
0.0
 11
44.99999999995498
 21
5.728597271975769
 31
0.0
  0
LINE
  5
1B63F
330
1B61F
100
AcDbEntity
  8
0
  6
CONTINUOUS
100
AcDbLine
 10
43.57899999995641
 20
3.634078062897011
 30
0.0
 11
44.99999999995498
 21
5.055078062895582
 31
0.0
  0
LINE
  5
1B640
330
1B61F
100
AcDbEntity
  8
0
  6
CONTINUOUS
100
AcDbLine
 10
42.82309604751848
 20
2.204654901378891
 30
0.0
 11
44.99999999995498
 21
4.381558853815395
 31
0.0
  0
LINE
  5
1B641
330
1B61F
100
AcDbEntity
  8
0
  6
CONTINUOUS
100
AcDbLine
 10
43.14055836009865
 20
1.848598004878885
 30
0.0
 11
44.99999999995498
 21
3.70803964473521
 31
0.0
  0
LINE
  5
1B642
330
1B61F
100
AcDbEntity
  8
0
  6
CONTINUOUS
100
AcDbLine
 10
43.45802067267883
 20
1.492541108378878
 30
0.0
 11
44.99999999995498
 21
3.034520435655023
 31
0.0
  0
LINE
  5
1B643
330
1B61F
100
AcDbEntity
  8
0
  6
CONTINUOUS
100
AcDbLine
 10
43.77548298525902
 20
1.136484211878871
 30
0.0
 11
44.99999999995498
 21
2.361001226574837
 31
0.0
  0
LINE
  5
1B644
330
1B61F
100
AcDbEntity
  8
0
  6
CONTINUOUS
100
AcDbLine
 10
44.09294529783919
 20
0.7804273153788639
 30
0.0
 11
44.99999999995498
 21
1.687482017494649
 31
0.0
  0
LINE
  5
1B645
330
1B61F
100
AcDbEntity
  8
0
  6
CONTINUOUS
100
AcDbLine
 10
44.41040761041938
 20
0.4243704188788566
 30
0.0
 11
44.99999999995498
 21
1.013962808414463
 31
0.0
  0
LINE
  5
1B646
330
1B61F
100
AcDbEntity
  8
0
  6
CONTINUOUS
100
AcDbLine
 10
44.72786992299955
 20
0.0683135223788494
 30
0.0
 11
44.99999999995498
 21
0.340443599334276
 31
0.0
  0
LINE
  5
1B647
330
1B61F
100
AcDbEntity
  8
0
  6
CONTINUOUS
100
AcDbLine
 10
39.12223903415696
 20
-0.0000000000000009
 30
0.0
 11
38.60499999996136
 21
0.5172390341955961
 31
0.0
  0
LINE
  5
1B648
330
1B61F
100
AcDbEntity
  8
0
  6
CONTINUOUS
100
AcDbLine
 10
39.79575824323715
 20
-0.0000000000000009
 30
0.0
 11
38.60499999996136
 21
1.190758243275783
 31
0.0
  0
LINE
  5
1B649
330
1B61F
100
AcDbEntity
  8
0
  6
CONTINUOUS
100
AcDbLine
 10
40.02599999995994
 20
0.443277452357397
 30
0.0
 11
38.60499999996136
 21
1.864277452355969
 31
0.0
  0
LINE
  5
1B64A
330
1B61F
100
AcDbEntity
  8
0
  6
CONTINUOUS
100
AcDbLine
 10
40.02599999995994
 20
1.116796661437583
 30
0.0
 11
38.60499999996136
 21
2.537796661436155
 31
0.0
  0
LINE
  5
1B64B
330
1B61F
100
AcDbEntity
  8
0
  6
CONTINUOUS
100
AcDbLine
 10
40.02599999995994
 20
1.79031587051777
 30
0.0
 11
38.60499999996136
 21
3.211315870516341
 31
0.0
  0
LINE
  5
1B64C
330
1B61F
100
AcDbEntity
  8
0
  6
CONTINUOUS
100
AcDbLine
 10
40.02599999995994
 20
2.463835079597956
 30
0.0
 11
38.60499999996136
 21
3.884835079596527
 31
0.0
  0
LINE
  5
1B64D
330
1B61F
100
AcDbEntity
  8
0
  6
CONTINUOUS
100
AcDbLine
 10
40.02599999995994
 20
3.137354288678143
 30
0.0
 11
38.60499999996136
 21
4.558354288676714
 31
0.0
  0
LINE
  5
1B64E
330
1B61F
100
AcDbEntity
  8
0
  6
CONTINUOUS
100
AcDbLine
 10
40.02599999995994
 20
3.810873497758329
 30
0.0
 11
38.60499999996136
 21
5.2318734977569
 31
0.0
  0
LINE
  5
1B64F
330
1B61F
100
AcDbEntity
  8
0
  6
CONTINUOUS
100
AcDbLine
 10
40.02599999995994
 20
4.484392706838515
 30
0.0
 11
38.60499999996136
 21
5.905392706837086
 31
0.0
  0
LINE
  5
1B650
330
1B61F
100
AcDbEntity
  8
0
  6
CONTINUOUS
100
AcDbLine
 10
44.99999999995498
 20
0.183911915923658
 30
0.0
 11
41.53858364506288
 21
3.64532827081576
 31
0.0
  0
LINE
  5
1B651
330
1B61F
100
AcDbEntity
  8
0
  6
CONTINUOUS
100
AcDbLine
 10
40.02599999995994
 20
5.157911915918703
 30
0.0
 11
38.60499999996136
 21
6.578911915917274
 31
0.0
  0
LINE
  5
1B652
330
1B61F
100
AcDbEntity
  8
0
  6
CONTINUOUS
100
AcDbLine
 10
44.99999999995498
 20
0.8574311250038447
 30
0.0
 11
38.60499999996136
 21
7.25243112499746
 31
0.0
  0
LINE
  5
1B653
330
1B61F
100
AcDbEntity
  8
0
  6
CONTINUOUS
100
AcDbLine
 10
44.99999999995498
 20
1.530950334084031
 30
0.0
 11
38.60499999996136
 21
7.925950334077647
 31
0.0
  0
LINE
  5
1B654
330
1B61F
100
AcDbEntity
  8
0
  6
CONTINUOUS
100
AcDbLine
 10
44.99999999995498
 20
2.204469543164218
 30
0.0
 11
43.57899999995641
 21
3.625469543162789
 31
0.0
  0
LINE
  5
1B655
330
1B61F
100
AcDbEntity
  8
0
  6
CONTINUOUS
100
AcDbLine
 10
41.89876730984767
 20
5.305702233271528
 30
0.0
 11
38.60499999996136
 21
8.599469543157834
 31
0.0
  0
LINE
  5
1B656
330
1B61F
100
AcDbEntity
  8
0
  6
CONTINUOUS
100
AcDbLine
 10
44.99999999995498
 20
2.877988752244405
 30
0.0
 11
43.57899999995641
 21
4.298988752242975
 31
0.0
  0
LINE
  5
1B657
330
1B61F
100
AcDbEntity
  8
0
  6
CONTINUOUS
100
AcDbLine
 10
44.99999999995498
 20
3.551507961324591
 30
0.0
 11
43.57899999995641
 21
4.972507961323163
 31
0.0
  0
LINE
  5
1B658
330
1B61F
100
AcDbEntity
  8
0
  6
CONTINUOUS
100
AcDbLine
 10
44.99999999995498
 20
4.225027170404777
 30
0.0
 11
43.57899999995641
 21
5.646027170403348
 31
0.0
  0
LINE
  5
1B659
330
1B61F
100
AcDbEntity
  8
0
  6
CONTINUOUS
100
AcDbLine
 10
44.99999999995498
 20
4.898546379484964
 30
0.0
 11
43.57899999995641
 21
6.319546379483535
 31
0.0
  0
LINE
  5
1B65A
330
1B61F
100
AcDbEntity
  8
0
  6
CONTINUOUS
100
AcDbLine
 10
44.99999999995498
 20
5.572065588565151
 30
0.0
 11
43.57899999995641
 21
6.993065588563722
 31
0.0
  0
LINE
  5
1B65B
330
1B61F
100
AcDbEntity
  8
0
  6
CONTINUOUS
100
AcDbLine
 10
44.99999999995498
 20
6.245584797645336
 30
0.0
 11
43.57899999995641
 21
7.666584797643908
 31
0.0
  0
LINE
  5
1B65C
330
1B61F
100
AcDbEntity
  8
0
  6
CONTINUOUS
100
AcDbLine
 10
44.99999999995498
 20
6.919104006725522
 30
0.0
 11
43.57899999995641
 21
8.340104006724093
 31
0.0
  0
LINE
  5
1B65D
330
1B61F
100
AcDbEntity
  8
0
  6
CONTINUOUS
100
AcDbLine
 10
44.99999999995498
 20
7.592623215805709
 30
0.0
 11
43.82952321576943
 21
8.763099999991255
 31
0.0
  0
LINE
  5
1B65E
330
1B61F
100
AcDbEntity
  8
0
  6
CONTINUOUS
100
AcDbLine
 10
44.99999999995498
 20
8.266142424885896
 30
0.0
 11
44.50304242484962
 21
8.763099999991255
 31
0.0
  0
ENDBLK
  5
1B688
330
1B61F
100
AcDbEntity
  8
0
100
AcDbBlockEnd
  0
BLOCK
  5
1B689
330
1B65F
100
AcDbEntity
  8
0
100
AcDbBlockBegin
  2
*X44
 70
     1
 10
0.0
 20
0.0
 30
0.0
  3
*X44
  1

  0
LINE
  5
1B660
330
1B65F
100
AcDbEntity
  8
0
  6
CONTINUOUS
100
AcDbLine
 10
0.0
 20
8.548461116714023
 30
0.0
 11
0.2146388832772324
 21
8.763099999991255
 31
0.0
  0
LINE
  5
1B661
330
1B65F
100
AcDbEntity
  8
0
  6
CONTINUOUS
100
AcDbLine
 10
-0.0000000000000002
 20
7.874941907633837
 30
0.0
 11
0.8881580923574184
 21
8.763099999991255
 31
0.0
  0
LINE
  5
1B662
330
1B65F
100
AcDbEntity
  8
0
  6
CONTINUOUS
100
AcDbLine
 10
0.0
 20
7.20142269855365
 30
0.0
 11
1.420999999998572
 21
8.622422698552223
 31
0.0
  0
LINE
  5
1B663
330
1B65F
100
AcDbEntity
  8
0
  6
CONTINUOUS
100
AcDbLine
 10
-0.0000000000000001
 20
6.527903489473465
 30
0.0
 11
1.420999999998571
 21
7.948903489472036
 31
0.0
  0
LINE
  5
1B664
330
1B65F
100
AcDbEntity
  8
0
  6
CONTINUOUS
100
AcDbLine
 10
-0.0000000000000002
 20
5.854384280393278
 30
0.0
 11
1.420999999998571
 21
7.275384280391849
 31
0.0
  0
LINE
  5
1B665
330
1B65F
100
AcDbEntity
  8
0
  6
CONTINUOUS
100
AcDbLine
 10
-0.0000000000000002
 20
5.180865071313091
 30
0.0
 11
1.420999999998571
 21
6.601865071311663
 31
0.0
  0
LINE
  5
1B666
330
1B65F
100
AcDbEntity
  8
0
  6
CONTINUOUS
100
AcDbLine
 10
0.0
 20
4.507345862232905
 30
0.0
 11
1.420999999998571
 21
5.928345862231477
 31
0.0
  0
LINE
  5
1B667
330
1B65F
100
AcDbEntity
  8
0
  6
CONTINUOUS
100
AcDbLine
 10
-0.0000000000000003
 20
3.833826653152718
 30
0.0
 11
1.420999999998571
 21
5.25482665315129
 31
0.0
  0
LINE
  5
1B668
330
1B65F
100
AcDbEntity
  8
0
  6
CONTINUOUS
100
AcDbLine
 10
-0.0000000000000002
 20
3.160307444072532
 30
0.0
 11
1.420999999998571
 21
4.581307444071103
 31
0.0
  0
LINE
  5
1B669
330
1B65F
100
AcDbEntity
  8
0
  6
CONTINUOUS
100
AcDbLine
 10
-0.0000000000000001
 20
2.486788234992345
 30
0.0
 11
1.420999999998571
 21
3.907788234990917
 31
0.0
  0
LINE
  5
1B66A
330
1B65F
100
AcDbEntity
  8
0
  6
CONTINUOUS
100
AcDbLine
 10
-0.0000000000000006
 20
1.813269025912159
 30
0.0
 11
1.420999999998571
 21
3.234269025910731
 31
0.0
  0
LINE
  5
1B66B
330
1B65F
100
AcDbEntity
  8
0
  6
CONTINUOUS
100
AcDbLine
 10
0.0
 20
1.139749816831973
 30
0.0
 11
1.420999999998571
 21
2.560749816830544
 31
0.0
  0
LINE
  5
1B66C
330
1B65F
100
AcDbEntity
  8
0
  6
CONTINUOUS
100
AcDbLine
 10
0.0000000000000002
 20
0.466230607751787
 30
0.0
 11
1.420999999998571
 21
1.887230607750358
 31
0.0
  0
LINE
  5
1B66D
330
1B65F
100
AcDbEntity
  8
0
  6
CONTINUOUS
100
AcDbLine
 10
0.2072886013284003
 20
-0.0000000000000009
 30
0.0
 11
1.420999999998571
 21
1.213711398670171
 31
0.0
  0
LINE
  5
1B66E
330
1B65F
100
AcDbEntity
  8
0
  6
CONTINUOUS
100
AcDbLine
 10
0.8808078104085864
 20
-0.0000000000000009
 30
0.0
 11
1.420999999998571
 21
0.5401921895899839
 31
0.0
  0
LINE
  5
1B66F
330
1B65F
100
AcDbEntity
  8
0
  6
CONTINUOUS
100
AcDbLine
 10
0.0581249075061505
 20
-0.0000000000000009
 30
0.0
 11
-0.0000000000000002
 21
0.0581249075061496
 31
0.0
  0
LINE
  5
1B670
330
1B65F
100
AcDbEntity
  8
0
  6
CONTINUOUS
100
AcDbLine
 10
0.7316441165863372
 20
-0.0000000000000009
 30
0.0
 11
-0.0000000000000002
 21
0.7316441165863363
 31
0.0
  0
LINE
  5
1B671
330
1B65F
100
AcDbEntity
  8
0
  6
CONTINUOUS
100
AcDbLine
 10
1.405163325666523
 20
-0.0000000000000009
 30
0.0
 11
-0.0000000000000002
 21
1.405163325666523
 31
0.0
  0
LINE
  5
1B672
330
1B65F
100
AcDbEntity
  8
0
  6
CONTINUOUS
100
AcDbLine
 10
1.420999999998572
 20
0.6576825347481381
 30
0.0
 11
-0.0000000000000001
 21
2.07868253474671
 31
0.0
  0
LINE
  5
1B673
330
1B65F
100
AcDbEntity
  8
0
  6
CONTINUOUS
100
AcDbLine
 10
1.420999999998571
 20
1.331201743828324
 30
0.0
 11
-0.0000000000000001
 21
2.752201743826896
 31
0.0
  0
LINE
  5
1B674
330
1B65F
100
AcDbEntity
  8
0
  6
CONTINUOUS
100
AcDbLine
 10
1.420999999998571
 20
2.004720952908511
 30
0.0
 11
-0.0000000000000002
 21
3.425720952907082
 31
0.0
  0
LINE
  5
1B675
330
1B65F
100
AcDbEntity
  8
0
  6
CONTINUOUS
100
AcDbLine
 10
1.420999999998571
 20
2.678240161988697
 30
0.0
 11
-0.0000000000000001
 21
4.099240161987269
 31
0.0
  0
LINE
  5
1B676
330
1B65F
100
AcDbEntity
  8
0
  6
CONTINUOUS
100
AcDbLine
 10
1.420999999998572
 20
3.351759371068884
 30
0.0
 11
0.0
 21
4.772759371067455
 31
0.0
  0
LINE
  5
1B677
330
1B65F
100
AcDbEntity
  8
0
  6
CONTINUOUS
100
AcDbLine
 10
1.420999999998571
 20
4.02527858014907
 30
0.0
 11
-0.0000000000000003
 21
5.446278580147642
 31
0.0
  0
LINE
  5
1B678
330
1B65F
100
AcDbEntity
  8
0
  6
CONTINUOUS
100
AcDbLine
 10
1.420999999998571
 20
4.698797789229257
 30
0.0
 11
0.0
 21
6.119797789227828
 31
0.0
  0
LINE
  5
1B679
330
1B65F
100
AcDbEntity
  8
0
  6
CONTINUOUS
100
AcDbLine
 10
1.420999999998571
 20
5.372316998309444
 30
0.0
 11
-0.0000000000000001
 21
6.793316998308015
 31
0.0
  0
LINE
  5
1B67A
330
1B65F
100
AcDbEntity
  8
0
  6
CONTINUOUS
100
AcDbLine
 10
1.420999999998572
 20
6.045836207389629
 30
0.0
 11
-0.0000000000000004
 21
7.466836207388202
 31
0.0
  0
LINE
  5
1B67B
330
1B65F
100
AcDbEntity
  8
0
  6
CONTINUOUS
100
AcDbLine
 10
1.420999999998571
 20
6.719355416469816
 30
0.0
 11
0.0
 21
8.140355416468388
 31
0.0
  0
LINE
  5
1B67C
330
1B65F
100
AcDbEntity
  8
0
  6
CONTINUOUS
100
AcDbLine
 10
1.420999999998571
 20
7.392874625550003
 30
0.0
 11
0.0507746255573185
 21
8.763099999991255
 31
0.0
  0
LINE
  5
1B67D
330
1B65F
100
AcDbEntity
  8
0
  6
CONTINUOUS
100
AcDbLine
 10
1.420999999998571
 20
8.06639383463019
 30
0.0
 11
0.7242938346375052
 21
8.763099999991255
 31
0.0
  0
LINE
  5
1B67E
330
1B65F
100
AcDbEntity
  8
0
  6
CONTINUOUS
100
AcDbLine
 10
1.420999999998571
 20
8.739913043710375
 30
0.0
 11
1.397813043717691
 21
8.763099999991255
 31
0.0
  0
ENDBLK
  5
1B68A
330
1B65F
100
AcDbEntity
  8
0
100
AcDbBlockEnd
  0
ENDSEC
  0
SECTION
  2
ENTITIES
  0
LINE
  5
1AC61
330
18
100
AcDbEntity
  8
01
100
AcDbLine
 10
2328.06043815829
 20
-584.8056809512703
 30
0.0000000000000087
 11
2342.06043815829
 21
-584.8056809512703
 31
0.0000000000000087
  0
LINE
  5
1AC62
330
18
100
AcDbEntity
  8
01
100
AcDbLine
 10
2333.06132234035
 20
-372.805680952299
 30
0.0000000000000087
 11
2486.815702495383
 21
-372.805680952299
 31
0.0000000000000087
  0
LINE
  5
1AC63
330
18
100
AcDbEntity
  8
01
  6
BYBLOCK
100
AcDbLine
 10
2333.06132234035
 20
-372.805680952299
 30
0.0000000000000087
 11
2333.06132234035
 21
-412.805680952299
 31
0.0000000000000087
  0
LINE
  5
1AC67
330
18
100
AcDbEntity
  8
01
  6
BYBLOCK
100
AcDbLine
 10
2334.56043815829
 20
-576.9056809512703
 30
0.0000000000000087
 11
2334.56043815829
 21
-706.7056809512702
 31
0.0000000000000087
  0
LINE
  5
1AC68
330
18
100
AcDbEntity
  8
01
  6
BYBLOCK
100
AcDbLine
 10
2334.56043815829
 20
-705.8056809512703
 30
0.0000000000000087
 11
2337.06043815829
 21
-705.8056809512703
 31
0.0000000000000087
  0
LINE
  5
1AC69
330
18
100
AcDbEntity
  8
01
  6
BYBLOCK
100
AcDbLine
 10
2337.06043815829
 20
-705.8056809512703
 30
0.0000000000000087
 11
2337.06043815829
 21
-689.302737226118
 31
0.0000000000000087
  0
LINE
  5
1AC6A
330
18
100
AcDbEntity
  8
01
  6
BYBLOCK
100
AcDbLine
 10
2333.06043815829
 20
-576.9056809512703
 30
0.0000000000000087
 11
2333.06043815829
 21
-706.7056809512702
 31
0.0000000000000087
  0
LINE
  5
1AC6B
330
18
100
AcDbEntity
  8
01
  6
BYBLOCK
100
AcDbLine
 10
2333.06043815829
 20
-706.7056809512702
 30
0.0000000000000087
 11
2334.56043815829
 21
-706.7056809512702
 31
0.0000000000000087
  0
LINE
  5
1AC6C
330
18
100
AcDbEntity
  8
01
  6
BYBLOCK
100
AcDbLine
 10
2334.56043815829
 20
-577.8056809512703
 30
0.0000000000000087
 11
2337.06043815829
 21
-577.8056809512703
 31
0.0000000000000087
  0
LINE
  5
1AC6D
330
18
100
AcDbEntity
  8
01
  6
BYBLOCK
100
AcDbLine
 10
2333.06043815829
 20
-576.9056809512703
 30
0.0000000000000087
 11
2334.56043815829
 21
-576.9056809512703
 31
0.0000000000000087
  0
LINE
  5
1AC6E
330
18
100
AcDbEntity
  8
01
  6
BYBLOCK
100
AcDbLine
 10
2334.56043815829
 20
-601.8056809512703
 30
0.0000000000000087
 11
2335.76043815829
 21
-601.8056809512703
 31
0.0000000000000087
  0
LINE
  5
1AC6F
330
18
100
AcDbEntity
  8
01
  6
BYBLOCK
100
AcDbLine
 10
2335.76043815829
 20
-596.1056809512701
 30
0.0000000000000087
 11
2335.76043815829
 21
-687.5056809512702
 31
0.0000000000000087
  0
LINE
  5
1AC70
330
18
100
AcDbEntity
  8
01
  6
BYBLOCK
100
AcDbLine
 10
2335.86043815829
 20
-705.8056809512703
 30
0.0000000000000087
 11
2335.86043815829
 21
-689.2056809512702
 31
0.0000000000000087
  0
LINE
  5
1AC71
330
18
100
AcDbEntity
  8
01
  6
BYBLOCK
100
AcDbLine
 10
2335.86043815829
 20
-689.2056809512702
 30
0.0000000000000087
 11
2334.911910020865
 21
-688.2571528138463
 31
0.0000000000000087
  0
LINE
  5
1AC72
330
18
100
AcDbEntity
  8
01
  6
BYBLOCK
100
AcDbLine
 10
2336.708966295713
 20
-688.454209088694
 30
0.0000000000000087
 11
2335.76043815829
 21
-687.5056809512702
 31
0.0000000000000087
  0
ARC
  5
1AC73
330
18
100
AcDbEntity
  8
01
  6
BYBLOCK
100
AcDbCircle
 10
2335.86043815829
 20
-689.302737226118
 30
0.0000000000000087
 40
1.2
100
AcDbArc
 50
0.0
 51
45.00000000003838
  0
ARC
  5
1AC74
330
18
100
AcDbEntity
  8
01
  6
BYBLOCK
100
AcDbCircle
 10
2335.76043815829
 20
-687.4086246764224
 30
0.0000000000000087
 40
1.2
100
AcDbArc
 50
180.0
 51
225.0000000000384
  0
LINE
  5
1AC75
330
18
100
AcDbEntity
  8
01
  6
BYBLOCK
100
AcDbLine
 10
2337.06043815829
 20
-577.8056809512703
 30
0.0000000000000087
 11
2337.06043815829
 21
-594.3086246764225
 31
0.0000000000000087
  0
LINE
  5
1AC76
330
18
100
AcDbEntity
  8
01
  6
BYBLOCK
100
AcDbLine
 10
2335.86043815829
 20
-577.8056809512703
 30
0.0000000000000087
 11
2335.86043815829
 21
-594.4056809512703
 31
0.0000000000000087
  0
LINE
  5
1AC77
330
18
100
AcDbEntity
  8
01
  6
BYBLOCK
100
AcDbLine
 10
2335.86043815829
 20
-594.4056809512703
 30
0.0000000000000087
 11
2334.911910020865
 21
-595.3542090886941
 31
0.0000000000000087
  0
LINE
  5
1AC78
330
18
100
AcDbEntity
  8
01
  6
BYBLOCK
100
AcDbLine
 10
2336.708966295713
 20
-595.1571528138464
 30
0.0000000000000087
 11
2335.76043815829
 21
-596.1056809512703
 31
0.0000000000000087
  0
ARC
  5
1AC79
330
18
100
AcDbEntity
  8
01
  6
BYBLOCK
100
AcDbCircle
 10
2335.86043815829
 20
-594.3086246764225
 30
0.0000000000000087
 40
1.2
100
AcDbArc
 50
314.9999999999616
 51
0.0
  0
ARC
  5
1AC7A
330
18
100
AcDbEntity
  8
01
  6
BYBLOCK
100
AcDbCircle
 10
2335.76043815829
 20
-596.2027372261181
 30
0.0000000000000087
 40
1.2
100
AcDbArc
 50
134.9999999999616
 51
180.0
  0
CIRCLE
  5
1AC7B
330
18
100
AcDbEntity
  8
01
  6
BYBLOCK
100
AcDbCircle
 10
2384.06043815829
 20
-612.8056809512703
 30
0.0000000000000087
 40
4.75
  0
LINE
  5
1AC7C
330
18
100
AcDbEntity
  8
01
  6
BYBLOCK
100
AcDbLine
 10
2335.76043815829
 20
-678.8056809512706
 30
0.0000000000000087
 11
2366.848523680232
 21
-678.8056809512703
 31
0.0000000000000087
  0
ARC
  5
1AC7D
330
18
100
AcDbEntity
  8
01
  6
BYBLOCK
100
AcDbCircle
 10
2336.16132234035
 20
-389.2444304092991
 30
0.0000000000000087
 40
1.6
100
AcDbArc
 50
115.9444797720007
 51
180.0
  0
ARC
  5
1AC7E
330
18
100
AcDbEntity
  8
01
  6
BYBLOCK
100
AcDbCircle
 10
2336.16132234035
 20
-396.3669314952989
 30
0.0000000000000087
 40
1.6
100
AcDbArc
 50
180.0
 51
244.0555202279993
  0
ARC
  5
1AC7F
330
18
100
AcDbEntity
  8
01
  6
BYBLOCK
100
AcDbCircle
 10
2335.461322340349
 20
-397.6444304092989
 30
0.0000000000000087
 40
1.6
100
AcDbArc
 50
0.0
 51
64.05552022799934
  0
ARC
  5
1AC80
330
18
100
AcDbEntity
  8
01
  6
BYBLOCK
100
AcDbCircle
 10
2335.461322340349
 20
-387.966931495299
 30
0.0000000000000087
 40
1.6
100
AcDbArc
 50
295.9444797720006
 51
0.0
  0
LINE
  5
1AC81
330
18
100
AcDbEntity
  8
01
  6
BYBLOCK
100
AcDbLine
 10
2337.06132234035
 20
-387.966931495299
 30
0.0000000000000087
 11
2337.06132234035
 21
-380.6056809522989
 31
0.0000000000000087
  0
LINE
  5
1AC82
330
18
100
AcDbEntity
  8
01
  6
BYBLOCK
100
AcDbLine
 10
2336.16132234035
 20
-396.2056809522991
 30
0.0000000000000087
 11
2336.16132234035
 21
-389.4056809522989
 31
0.0000000000000087
  0
LINE
  5
1AC83
330
18
100
AcDbEntity
  8
01
  6
BYBLOCK
100
AcDbLine
 10
2337.06132234035
 20
-404.805680952299
 30
0.0000000000000087
 11
2337.06132234035
 21
-397.6444304092989
 31
0.0000000000000087
  0
LINE
  5
1AC84
330
18
100
AcDbEntity
  8
01
  6
BYBLOCK
100
AcDbLine
 10
2335.461322340349
 20
-387.805680952299
 30
0.0000000000000087
 11
2335.46132234035
 21
-380.6056809522989
 31
0.0000000000000087
  0
LINE
  5
1AC85
330
18
100
AcDbEntity
  8
01
  6
BYBLOCK
100
AcDbLine
 10
2335.461322340349
 20
-397.805680952299
 30
0.0000000000000087
 11
2335.461322340349
 21
-404.9056809522989
 31
0.0000000000000087
  0
ARC
  5
1AC86
330
18
100
AcDbEntity
  8
01
  6
BYBLOCK
100
AcDbCircle
 10
2400.461322340349
 20
-384.9056809522989
 30
0.0000000000000087
 40
1.6
100
AcDbArc
 50
0.0
 51
90.0
  0
LINE
  5
1AC87
330
18
100
AcDbEntity
  8
01
  6
BYBLOCK
100
AcDbLine
 10
2334.56132234035
 20
-380.4056809522989
 30
0.0000000000000087
 11
2334.56132234035
 21
-405.2056809522988
 31
0.0000000000000087
  0
LINE
  5
1AC88
330
18
100
AcDbEntity
  8
01
  6
BYBLOCK
100
AcDbLine
 10
2400.461322340349
 20
-383.305680952299
 30
0.0000000000000087
 11
2337.06132234035
 21
-383.305680952299
 31
0.0000000000000087
  0
LINE
  5
1AC89
330
18
100
AcDbEntity
  8
01
  6
BYBLOCK
100
AcDbLine
 10
2400.461322340349
 20
-400.505680952299
 30
0.0000000000000087
 11
2400.461322340349
 21
-383.305680952299
 31
0.0000000000000087
  0
LINE
  5
1AC8A
330
18
100
AcDbEntity
  8
01
  6
BYBLOCK
100
AcDbLine
 10
2402.06132234035
 20
-402.1056809522989
 30
0.0000000000000087
 11
2402.06132234035
 21
-384.9056809522989
 31
0.0000000000000087
  0
LINE
  5
1AC8B
330
18
100
AcDbEntity
  8
01
  6
BYBLOCK
100
AcDbLine
 10
2334.56132234035
 20
-380.6056809522989
 30
0.0000000000000087
 11
2337.06132234035
 21
-380.6056809522989
 31
0.0000000000000087
  0
LINE
  5
1AC8C
330
18
100
AcDbEntity
  8
01
  6
BYBLOCK
100
AcDbLine
 10
2337.06132234035
 20
-404.805680952299
 30
0.0000000000000087
 11
2335.461322340349
 21
-404.805680952299
 31
0.0000000000000087
  0
LINE
  5
1AC8D
330
18
100
AcDbEntity
  8
01
  6
BYBLOCK
100
AcDbLine
 10
2335.461322340349
 20
-404.9056809522989
 30
0.0000000000000087
 11
2334.56132234035
 21
-404.9056809522989
 31
0.0000000000000087
  0
ARC
  5
1AC8E
330
18
100
AcDbEntity
  8
01
  6
BYBLOCK
100
AcDbCircle
 10
2331.761917267749
 20
-398.5056809522983
 30
0.0000000000000087
 40
0.3000000000000051
100
AcDbArc
 50
232.8678058729955
 51
270.0
  0
LINE
  5
1AC8F
330
18
100
AcDbEntity
  8
01
  6
BYBLOCK
100
AcDbLine
 10
2332.56132234035
 20
-398.8056809522983
 30
0.0000000000000087
 11
2331.761917267749
 21
-398.8056809522983
 31
0.0000000000000087
  0
LINE
  5
1AC90
330
18
100
AcDbEntity
  8
01
  6
BYBLOCK
100
AcDbLine
 10
2322.16132234035
 20
-389.1326920860942
 30
0.0000000000000087
 11
2322.16132234035
 21
-389.3033141416432
 31
0.0000000000000087
  0
ARC
  5
1AC91
330
18
100
AcDbEntity
  8
01
  6
BYBLOCK
100
AcDbCircle
 10
2322.461322340349
 20
-389.3033141416432
 30
0.0000000000000087
 40
0.3
100
AcDbArc
 50
180.0
 51
217.7405295629668
  0
ARC
  5
1AC92
330
18
100
AcDbEntity
  8
01
  6
BYBLOCK
100
AcDbCircle
 10
2361.763622939634
 20
-358.8826111977024
 30
0.0000000000000087
 40
50.00000000000002
100
AcDbArc
 50
217.7405295629802
 51
232.8678058729729
  0
LINE
  5
1AC93
330
18
100
AcDbEntity
  8
01
  6
BYBLOCK
100
AcDbLine
 10
2321.961322340349
 20
-388.0056809522988
 30
0.0000000000000087
 11
2321.961322340349
 21
-387.305680952299
 31
0.0000000000000087
  0
ARC
  5
1AC94
330
18
100
AcDbEntity
  8
01
  6
BYBLOCK
100
AcDbCircle
 10
2322.461322340349
 20
-387.305680952299
 30
0.0000000000000087
 40
0.5000000000000142
100
AcDbArc
 50
90.0
 51
180.0
  0
LINE
  5
1AC95
330
18
100
AcDbEntity
  8
01
  6
BYBLOCK
100
AcDbLine
 10
2332.56132234035
 20
-386.805680952299
 30
0.0000000000000087
 11
2322.461322340349
 21
-386.805680952299
 31
0.0000000000000087
  0
LINE
  5
1AC96
330
18
100
AcDbEntity
  8
01
  6
BYBLOCK
100
AcDbLine
 10
2321.961322340349
 20
-388.3843606087393
 30
0.0000000000000087
 11
2321.961322340349
 21
-388.0056809522988
 31
0.0000000000000087
  0
SPLINE
  5
1AC97
330
18
100
AcDbEntity
  8
01
  6
BYBLOCK
100
AcDbSpline
210
0.0
220
0.0
230
1.0
 70
     8
 71
     3
 72
     8
 73
     4
 74
     0
 42
0.0000000001
 43
0.0000000001
 40
0.0
 40
0.0
 40
0.0
 40
0.0
 40
1.0
 40
1.0
 40
1.0
 40
1.0
 10
2321.987054881614
 20
-388.6610110381883
 30
0.0000000000000087
 10
2321.969586995503
 20
-388.5679248423079
 30
0.0000000000000087
 10
2321.961322340349
 20
-388.4746588314164
 30
0.0000000000000087
 10
2321.961322340349
 20
-388.3843606087388
 30
0.0000000000000087
  0
ARC
  5
1AC98
330
18
100
AcDbEntity
  8
01
  6
BYBLOCK
100
AcDbCircle
 10
2323.461322340349
 20
-388.3843606087393
 30
0.0000000000000087
 40
1.499999999999998
100
AcDbArc
 50
190.628112987605
 51
225.0000000000369
  0
LINE
  5
1AC99
330
18
100
AcDbEntity
  8
01
  6
BYBLOCK
100
AcDbLine
 10
2333.06132234035
 20
-385.9556809522988
 30
0.0000000000000087
 11
2332.56132234035
 21
-385.9556809522988
 31
0.0000000000000087
  0
LINE
  5
1AC9A
330
18
100
AcDbEntity
  8
01
  6
BYBLOCK
100
AcDbLine
 10
2332.56132234035
 20
-399.6556809522989
 30
0.0000000000000087
 11
2333.06132234035
 21
-399.6556809522989
 31
0.0000000000000087
  0
LINE
  5
1AC9B
330
18
100
AcDbEntity
  8
01
  6
BYBLOCK
100
AcDbLine
 10
2332.56132234035
 20
-399.6556809522989
 30
0.0000000000000087
 11
2332.56132234035
 21
-385.9556809522988
 31
0.0000000000000087
  0
LINE
  5
1AC9C
330
18
100
AcDbEntity
  8
01
  6
BYBLOCK
100
AcDbLine
 10
2333.06132234035
 20
-380.4056809522989
 30
0.0000000000000087
 11
2334.56132234035
 21
-380.4056809522989
 31
0.0000000000000087
  0
LINE
  5
1AC9D
330
18
100
AcDbEntity
  8
01
  6
BYBLOCK
100
AcDbLine
 10
2333.06132234035
 20
-405.2056809522988
 30
0.0000000000000087
 11
2334.56132234035
 21
-405.2056809522988
 31
0.0000000000000087
  0
LINE
  5
1AC9E
330
18
100
AcDbEntity
  8
01
  6
BYBLOCK
100
AcDbLine
 10
2333.06132234035
 20
-405.2056809522988
 30
0.0000000000000087
 11
2333.06132234035
 21
-380.4056809522989
 31
0.0000000000000087
  0
LINE
  5
1AC9F
330
18
100
AcDbEntity
  8
01
  6
BYBLOCK
100
AcDbLine
 10
2402.06132234035
 20
-400.505680952299
 30
0.0000000000000087
 11
2337.06132234035
 21
-400.505680952299
 31
0.0000000000000087
  0
LINE
  5
1ACA0
330
18
100
AcDbEntity
  8
01
  6
BYBLOCK
100
AcDbLine
 10
2402.06132234035
 20
-402.1056809522989
 30
0.0000000000000087
 11
2351.66132234035
 21
-402.1056809522989
 31
0.0000000000000087
  0
LINE
  5
1ACA1
330
18
100
AcDbEntity
  8
01
  6
BYBLOCK
100
AcDbLine
 10
2354.498580640553
 20
-402.1056809522989
 30
0.0000000000000087
 11
2337.06132234035
 21
-402.1056809522989
 31
0.0000000000000087
  0
LINE
  5
1ACA2
330
18
100
AcDbEntity
  8
01
  6
BYBLOCK
100
AcDbLine
 10
2331.614875730943
 20
-398.6592343428923
 30
0.0000000000000087
 11
2322.400662168569
 21
-389.4450207805193
 31
0.0000000000000087
  0
ARC
  5
1ACA3
330
18
100
AcDbEntity
  8
01
  6
BYBLOCK
100
AcDbCircle
 10
2331.968429121536
 20
-398.305680952299
 30
0.0000000000000087
 40
0.5
100
AcDbArc
 50
225.0000000000323
 51
270.0
  0
LINE
  5
1ACA4
330
18
100
AcDbEntity
  8
01
  6
BYBLOCK
100
AcDbLine
 10
2332.56132234035
 20
-398.805680952299
 30
0.0000000000000087
 11
2331.968429121536
 21
-398.805680952299
 31
0.0000000000000087
  0
LINE
  5
1ACA6
330
18
100
AcDbEntity
  8
01
  6
BYBLOCK
100
AcDbLine
 10
2380.454193574238
 20
-612.8056809512703
 30
0.0000000000000087
 11
2384.06043815829
 21
-609.1994363672189
 31
0.0000000000000087
  0
LINE
  5
1ACA7
330
18
100
AcDbEntity
  8
01
  6
BYBLOCK
100
AcDbLine
 10
2387.666682742341
 20
-612.8056809512703
 30
0.0000000000000087
 11
2384.06043815829
 21
-609.1994363672189
 31
0.0000000000000087
  0
LINE
  5
1ACA8
330
18
100
AcDbEntity
  8
01
  6
BYBLOCK
100
AcDbLine
 10
2380.454193574238
 20
-612.8056809512703
 30
0.0000000000000087
 11
2384.06043815829
 21
-616.4119255353215
 31
0.0000000000000087
  0
LINE
  5
1ACA9
330
18
100
AcDbEntity
  8
01
  6
BYBLOCK
100
AcDbLine
 10
2387.666682742341
 20
-612.8056809512703
 30
0.0000000000000087
 11
2384.06043815829
 21
-616.4119255353215
 31
0.0000000000000087
  0
LINE
  5
1ACAA
330
18
100
AcDbEntity
  8
01
  6
BYBLOCK
100
AcDbLine
 10
2322.06043815829
 20
-631.7740106842542
 30
0.0000000000000087
 11
2322.06043815829
 21
-649.8373512182601
 31
0.0000000000000087
  0
LINE
  5
1ACAB
330
18
100
AcDbEntity
  8
01
  6
BYBLOCK
100
AcDbLine
 10
2326.353331377103
 20
-630.8056809512572
 30
0.0000000000000087
 11
2333.06043815829
 21
-630.8056809512572
 31
0.0000000000000087
  0
LINE
  5
1ACAC
330
18
100
AcDbEntity
  8
01
  6
BYBLOCK
100
AcDbLine
 10
2326.353331377103
 20
-650.8056809512572
 30
0.0000000000000087
 11
2333.06043815829
 21
-650.8056809512572
 31
0.0000000000000087
  0
LINE
  5
1ACAD
330
18
100
AcDbEntity
  8
01
  6
BYBLOCK
100
AcDbLine
 10
2331.853331377104
 20
-635.5556809512572
 30
0.0000000000000087
 11
2331.853331377103
 21
-646.0556809512572
 31
0.0000000000000087
  0
ARC
  5
1ACAE
330
18
100
AcDbEntity
  8
01
  6
BYBLOCK
100
AcDbCircle
 10
2326.353331377103
 20
-640.8056809512572
 30
0.0000000000000087
 40
10.00000000000009
100
AcDbArc
 50
53.13010235415025
 51
115.4224671781178
  0
ARC
  5
1ACAF
330
18
100
AcDbEntity
  8
01
  6
BYBLOCK
100
AcDbCircle
 10
2326.353331377103
 20
-640.8056809512569
 30
0.0000000000000087
 40
10.00000000000009
100
AcDbArc
 50
244.5775328218822
 51
306.8698976458433
  0
LINE
  5
1ACB0
330
18
100
AcDbEntity
  8
01
  6
BYBLOCK
100
AcDbLine
 10
2332.353331377104
 20
-632.8056809512572
 30
0.0000000000000087
 11
2332.353331377104
 21
-648.8056809512572
 31
0.0000000000000087
  0
LINE
  5
1ACB1
330
18
100
AcDbEntity
  8
01
  6
BYBLOCK
100
AcDbLine
 10
2322.06043815829
 20
-635.5556809512572
 30
0.0000000000000087
 11
2331.853331377104
 21
-635.5556809512572
 31
0.0000000000000087
  0
LINE
  5
1ACB2
330
18
100
AcDbEntity
  8
01
  6
BYBLOCK
100
AcDbLine
 10
2322.06043815829
 20
-646.0556809512572
 30
0.0000000000000087
 11
2331.853331377104
 21
-646.0556809512572
 31
0.0000000000000087
  0
LINE
  5
1ACB3
330
18
100
AcDbEntity
  8
01
  6
BYBLOCK
100
AcDbLine
 10
2207.660554498035
 20
-576.9056809512709
 30
0.0000000000000087
 11
2220.460554498034
 21
-576.9056809512709
 31
0.0000000000000087
  0
LINE
  5
1ACB4
330
18
100
AcDbEntity
  8
01
  6
BYBLOCK
100
AcDbLine
 10
2207.660554498035
 20
-706.7056809512709
 30
0.0000000000000087
 11
2220.460554498034
 21
-706.7056809512709
 31
0.0000000000000087
  0
LINE
  5
1ACB5
330
18
100
AcDbEntity
  8
01
  6
BYBLOCK
100
AcDbLine
 10
2201.660554498035
 20
-582.9056809512709
 30
0.0000000000000087
 11
2201.660554498035
 21
-700.7056809512709
 31
0.0000000000000087
  0
LINE
  5
1ACB6
330
18
100
AcDbEntity
  8
01
  6
BYBLOCK
100
AcDbLine
 10
2226.460554498034
 20
-582.9056809512709
 30
0.0000000000000087
 11
2226.460554498034
 21
-700.7056809512709
 31
0.0000000000000087
  0
ARC
  5
1ACB7
330
18
100
AcDbEntity
  8
01
  6
BYBLOCK
100
AcDbCircle
 10
2207.660554498035
 20
-700.7056809512709
 30
0.0000000000000087
 40
6.0
100
AcDbArc
 50
180.0
 51
270.0
  0
ARC
  5
1ACB8
330
18
100
AcDbEntity
  8
01
  6
BYBLOCK
100
AcDbCircle
 10
2220.460554498034
 20
-700.7056809512709
 30
0.0000000000000087
 40
6.0
100
AcDbArc
 50
270.0
 51
0.0
  0
ARC
  5
1ACB9
330
18
100
AcDbEntity
  8
01
  6
BYBLOCK
100
AcDbCircle
 10
2207.660554498035
 20
-582.9056809512709
 30
0.0000000000000087
 40
6.0
100
AcDbArc
 50
90.0
 51
180.0
  0
ARC
  5
1ACBA
330
18
100
AcDbEntity
  8
01
  6
BYBLOCK
100
AcDbCircle
 10
2220.460554498034
 20
-582.9056809512709
 30
0.0000000000000087
 40
6.0
100
AcDbArc
 50
0.0
 51
90.0
  0
CIRCLE
  5
1ACBB
330
18
100
AcDbEntity
  8
01
  6
BYBLOCK
100
AcDbCircle
 10
2214.060554498034
 20
-698.8056809512708
 30
0.0000000000000087
 40
2.75
  0
CIRCLE
  5
1ACBC
330
18
100
AcDbEntity
  8
01
  6
BYBLOCK
100
AcDbCircle
 10
2214.060554498034
 20
-698.8056809512708
 30
0.0000000000000087
 40
4.25
  0
CIRCLE
  5
1ACBD
330
18
100
AcDbEntity
  8
01
  6
BYBLOCK
100
AcDbCircle
 10
2214.060554498034
 20
-584.805680951271
 30
0.0000000000000087
 40
2.75
  0
CIRCLE
  5
1ACBE
330
18
100
AcDbEntity
  8
01
  6
BYBLOCK
100
AcDbCircle
 10
2214.060554498034
 20
-584.805680951271
 30
0.0000000000000087
 40
4.25
  0
LINE
  5
1ACBF
330
18
100
AcDbEntity
  8
1CENTER
100
AcDbLine
 10
2219.93557990594
 20
-698.805680951271
 30
0.0000000000000087
 11
2208.185529090129
 21
-698.805680951271
 31
0.0000000000000087
  0
LINE
  5
1ACC0
330
18
100
AcDbEntity
  8
1CENTER
100
AcDbLine
 10
2214.060554498034
 20
-692.9306555433647
 30
0.0000000000000087
 11
2214.060554498034
 21
-704.6807063591772
 31
0.0000000000000087
  0
LINE
  5
1ACC1
330
18
100
AcDbEntity
  8
1CENTER
100
AcDbLine
 10
2219.93557990594
 20
-584.805680951271
 30
0.0000000000000087
 11
2208.185529090129
 21
-584.805680951271
 31
0.0000000000000087
  0
LINE
  5
1ACC2
330
18
100
AcDbEntity
  8
1CENTER
100
AcDbLine
 10
2214.060554498034
 20
-578.9306555433647
 30
0.0000000000000087
 11
2214.060554498034
 21
-590.6807063591772
 31
0.0000000000000087
  0
ARC
  5
1ACC3
330
18
100
AcDbEntity
  8
01
  6
BYBLOCK
100
AcDbCircle
 10
2214.060554498034
 20
-640.8056809512708
 30
0.0000000000000087
 40
10.15
100
AcDbArc
 50
231.9925780701389
 51
308.0074219298635
  0
LINE
  5
1ACC4
330
18
100
AcDbEntity
  8
01
  6
BYBLOCK
100
AcDbLine
 10
2207.810554498034
 20
-632.808181342018
 30
0.0000000000000087
 11
2207.810554498034
 21
-648.8031805605236
 31
0.0000000000000087
  0
LINE
  5
1ACC5
330
18
100
AcDbEntity
  8
01
  6
BYBLOCK
100
AcDbLine
 10
2220.310554498034
 20
-632.808181342018
 30
0.0000000000000087
 11
2220.310554498034
 21
-648.8031805605236
 31
0.0000000000000087
  0
ARC
  5
1ACC6
330
18
100
AcDbEntity
  8
01
  6
BYBLOCK
100
AcDbCircle
 10
2214.060554498034
 20
-640.8056809512708
 30
0.0000000000000087
 40
10.15
100
AcDbArc
 50
51.99257807014049
 51
128.0074219298575
  0
LINE
  5
1ACC7
330
18
100
AcDbEntity
  8
01
  6
BYBLOCK
100
AcDbLine
 10
2209.560554498034
 20
-635.5556809512708
 30
0.0000000000000087
 11
2209.560554498034
 21
-646.0556809512708
 31
0.0000000000000087
  0
LINE
  5
1ACC8
330
18
100
AcDbEntity
  8
01
  6
BYBLOCK
100
AcDbLine
 10
2219.560554498034
 20
-635.5556809512708
 30
0.0000000000000087
 11
2219.560554498034
 21
-646.0556809512708
 31
0.0000000000000087
  0
LINE
  5
1ACC9
330
18
100
AcDbEntity
  8
01
  6
BYBLOCK
100
AcDbLine
 10
2210.060554498034
 20
-631.4770958495525
 30
0.0000000000000087
 11
2210.060554498034
 21
-635.555680951271
 31
0.0000000000000087
  0
LINE
  5
1ACCA
330
18
100
AcDbEntity
  8
01
  6
BYBLOCK
100
AcDbLine
 10
2208.560554498034
 20
-635.555680951271
 30
0.0000000000000087
 11
2208.560554498034
 21
-646.0556809512708
 31
0.0000000000000087
  0
LINE
  5
1ACCB
330
18
100
AcDbEntity
  8
01
  6
BYBLOCK
100
AcDbLine
 10
2210.060554498034
 20
-646.0556809512708
 30
0.0000000000000087
 11
2210.060554498034
 21
-650.1342660529891
 31
0.0000000000000087
  0
LINE
  5
1ACCC
330
18
100
AcDbEntity
  8
01
  6
BYBLOCK
100
AcDbLine
 10
2208.560554498034
 20
-635.5556809512708
 30
0.0000000000000087
 11
2219.560554498034
 21
-635.5556809512708
 31
0.0000000000000087
  0
LINE
  5
1ACCD
330
18
100
AcDbEntity
  8
01
  6
BYBLOCK
100
AcDbLine
 10
2208.560554498034
 20
-646.0556809512708
 30
0.0000000000000087
 11
2219.560554498034
 21
-646.0556809512708
 31
0.0000000000000087
  0
LINE
  5
1ACCF
330
18
100
AcDbEntity
  8
01
100
AcDbLine
 10
2194.060670837777
 20
-542.8056809512706
 30
0.0000000000000087
 11
2194.060670837777
 21
-732.8056809512708
 31
0.0000000000000087
  0
LINE
  5
1ACD0
330
18
100
AcDbEntity
  8
01
100
AcDbLine
 10
2328.060438158577
 20
-698.8056809509816
 30
0.0000000000000087
 11
2342.060438158577
 21
-698.8056809509816
 31
0.0000000000000087
  0
LINE
  5
1ACD1
330
18
100
AcDbEntity
  8
01
100
AcDbLine
 10
2395.372326425831
 20
-612.8056809512703
 30
0.0000000000000087
 11
2372.748549890747
 21
-612.8056809512703
 31
0.0000000000000087
  0
LINE
  5
1ACD2
330
18
100
AcDbEntity
  8
01
100
AcDbLine
 10
2384.06043815829
 20
-601.4937926837287
 30
0.0000000000000087
 11
2384.06043815829
 21
-624.117569218812
 31
0.0000000000000087
  0
LINE
  5
1ACD3
330
18
100
AcDbEntity
  8
01
  6
BYBLOCK
100
AcDbLine
 10
2106.060670837781
 20
-631.7740106842542
 30
0.0000000000000087
 11
2106.060670837781
 21
-649.8373512182601
 31
0.0000000000000087
  0
LINE
  5
1ACD4
330
18
100
AcDbEntity
  8
01
  6
BYBLOCK
100
AcDbLine
 10
2101.767777618968
 20
-630.8056809512572
 30
0.0000000000000087
 11
2095.060670837781
 21
-630.8056809512572
 31
0.0000000000000087
  0
LINE
  5
1ACD5
330
18
100
AcDbEntity
  8
01
  6
BYBLOCK
100
AcDbLine
 10
2101.767777618968
 20
-650.8056809512572
 30
0.0000000000000087
 11
2095.060670837781
 21
-650.8056809512572
 31
0.0000000000000087
  0
ARC
  5
1ACD6
330
18
100
AcDbEntity
  8
01
  6
BYBLOCK
100
AcDbCircle
 10
2101.767777618968
 20
-640.8056809512572
 30
0.0000000000000087
 40
10.00000000000009
100
AcDbArc
 50
64.57753282188216
 51
90.0
  0
LINE
  5
1ACD7
330
18
100
AcDbEntity
  8
01
  6
CONTINUOUS
100
AcDbLine
 10
2105.560670837781
 20
-649.1204751440879
 30
0.0000000000000087
 11
2095.060670837781
 21
-649.1204751440879
 31
0.0000000000000087
  0
ARC
  5
1ACD8
330
18
100
AcDbEntity
  8
01
  6
CONTINUOUS
100
AcDbCircle
 10
2105.599251084695
 20
-648.6583359132811
 30
0.0000000000000087
 40
0.4637468103423796
100
AcDbArc
 50
265.2279066161926
 51
354.2577450626297
  0
LINE
  5
1ACD9
330
18
100
AcDbEntity
  8
01
  6
CONTINUOUS
100
AcDbLine
 10
2106.060670837781
 20
-633.3223661777091
 30
0.0000000000000087
 11
2106.060670837781
 21
-648.288995724805
 31
0.0000000000000087
  0
ARC
  5
1ACDA
330
18
100
AcDbEntity
  8
01
  6
CONTINUOUS
100
AcDbCircle
 10
2105.599251084695
 20
-632.9530259892327
 30
0.0000000000000087
 40
0.4637468103423387
100
AcDbArc
 50
5.742254937370304
 51
94.77209338380747
  0
ARC
  5
1ACDB
330
18
100
AcDbEntity
  8
01
  6
BYBLOCK
100
AcDbCircle
 10
2101.767777618968
 20
-640.8056809512569
 30
0.0000000000000087
 40
10.00000000000009
100
AcDbArc
 50
270.0
 51
295.4224671781178
  0
LINE
  5
1ACDC
330
18
100
AcDbEntity
  8
01
  6
CONTINUOUS
100
AcDbLine
 10
2095.060670837781
 20
-632.490886758426
 30
0.0000000000000087
 11
2105.560670837781
 21
-632.490886758426
 31
0.0000000000000087
  0
LINE
  5
1ACDD
330
18
100
AcDbEntity
  8
01
100
AcDbLine
 10
2402.06043815829
 20
-647.6977360215323
 30
0.0000000000000087
 11
2402.06043815829
 21
-677.6056809512703
 31
0.0000000000000087
  0
LINE
  5
1ACDF
330
18
100
AcDbEntity
  8
01
100
AcDbLine
 10
2366.848523680232
 20
-678.8056809512703
 30
0.0000000000000087
 11
2401.06043815829
 21
-678.8056809512701
 31
0.0000000000000087
  0
LINE
  5
1ACE2
330
18
100
AcDbEntity
  8
01
  6
BYBLOCK
100
AcDbLine
 10
2402.06043815829
 20
-616.023561983692
 30
0.0000000000001223
 11
2402.06043815829
 21
-647.6977360215323
 31
0.0
  0
LINE
  5
1ACE3
330
18
100
AcDbEntity
  8
01
  6
BYBLOCK
100
AcDbLine
 10
2335.76043815829
 20
-604.8056809512703
 30
0.0000000000000087
 11
2364.217335080307
 21
-604.8056809512703
 31
0.0000000000001223
  0
ARC
  5
1ACE4
330
18
100
AcDbEntity
  8
01
  6
BYBLOCK
100
AcDbCircle
 10
2401.06043815829
 20
-605.8056809512703
 30
0.0000000000000087
 40
1.0
100
AcDbArc
 50
0.0
 51
90.0
  0
LINE
  5
1ACE5
330
18
100
AcDbEntity
  8
01
  6
BYBLOCK
100
AcDbLine
 10
2364.217335080307
 20
-604.8056809512703
 30
0.0000000000001223
 11
2401.06043815829
 21
-604.8056809512703
 31
0.0000000000000087
  0
LINE
  5
1ACE6
330
18
100
AcDbEntity
  8
01
  6
BYBLOCK
100
AcDbLine
 10
2402.06043815829
 20
-605.8056809512703
 30
0.0000000000000087
 11
2402.06043815829
 21
-616.023561983692
 31
0.0000000000001223
  0
LINE
  5
1ACE7
330
18
100
AcDbEntity
  8
01
100
AcDbLine
 10
2100.060670837781
 20
-584.8056809512703
 30
0.0000000000000087
 11
2086.060670837781
 21
-584.8056809512703
 31
0.0000000000000087
  0
LINE
  5
1ACE8
330
18
100
AcDbEntity
  8
01
  6
BYBLOCK
100
AcDbLine
 10
2093.560670837781
 20
-576.9056809512703
 30
0.0000000000000087
 11
2093.560670837781
 21
-706.7056809512702
 31
0.0000000000000087
  0
LINE
  5
1ACE9
330
18
100
AcDbEntity
  8
01
  6
BYBLOCK
100
AcDbLine
 10
2093.560670837781
 20
-705.8056809512703
 30
0.0000000000000087
 11
2091.060670837781
 21
-705.8056809512703
 31
0.0000000000000087
  0
LINE
  5
1ACEA
330
18
100
AcDbEntity
  8
01
  6
BYBLOCK
100
AcDbLine
 10
2091.060670837781
 20
-705.8056809512703
 30
0.0000000000000087
 11
2091.060670837781
 21
-689.302737226118
 31
0.0000000000000087
  0
LINE
  5
1ACEB
330
18
100
AcDbEntity
  8
01
  6
BYBLOCK
100
AcDbLine
 10
2095.060670837781
 20
-576.9056809512703
 30
0.0000000000000087
 11
2095.060670837781
 21
-706.7056809512702
 31
0.0000000000000087
  0
LINE
  5
1ACEC
330
18
100
AcDbEntity
  8
01
  6
BYBLOCK
100
AcDbLine
 10
2095.060670837781
 20
-706.7056809512702
 30
0.0000000000000087
 11
2093.560670837781
 21
-706.7056809512702
 31
0.0000000000000087
  0
LINE
  5
1ACED
330
18
100
AcDbEntity
  8
01
  6
BYBLOCK
100
AcDbLine
 10
2093.560670837781
 20
-577.8056809512703
 30
0.0000000000000087
 11
2091.060670837781
 21
-577.8056809512703
 31
0.0000000000000087
  0
LINE
  5
1ACEE
330
18
100
AcDbEntity
  8
01
  6
BYBLOCK
100
AcDbLine
 10
2095.060670837781
 20
-576.9056809512703
 30
0.0000000000000087
 11
2093.560670837781
 21
-576.9056809512703
 31
0.0000000000000087
  0
LINE
  5
1ACEF
330
18
100
AcDbEntity
  8
01
  6
BYBLOCK
100
AcDbLine
 10
2093.560670837781
 20
-601.8056809512703
 30
0.0000000000000087
 11
2092.360670837781
 21
-601.8056809512703
 31
0.0000000000000087
  0
LINE
  5
1ACF0
330
18
100
AcDbEntity
  8
01
  6
BYBLOCK
100
AcDbLine
 10
2092.360670837781
 20
-596.1056809512701
 30
0.0000000000000087
 11
2092.360670837781
 21
-687.5056809512702
 31
0.0000000000000087
  0
LINE
  5
1ACF1
330
18
100
AcDbEntity
  8
01
  6
BYBLOCK
100
AcDbLine
 10
2092.260670837781
 20
-705.8056809512703
 30
0.0000000000000087
 11
2092.260670837781
 21
-689.2056809512702
 31
0.0000000000000087
  0
LINE
  5
1ACF2
330
18
100
AcDbEntity
  8
01
  6
BYBLOCK
100
AcDbLine
 10
2092.260670837781
 20
-689.2056809512702
 30
0.0000000000000087
 11
2093.209198975205
 21
-688.2571528138463
 31
0.0000000000000087
  0
LINE
  5
1ACF3
330
18
100
AcDbEntity
  8
01
  6
BYBLOCK
100
AcDbLine
 10
2091.412142700357
 20
-688.454209088694
 30
0.0000000000000087
 11
2092.360670837781
 21
-687.5056809512702
 31
0.0000000000000087
  0
ARC
  5
1ACF4
330
18
100
AcDbEntity
  8
01
  6
BYBLOCK
100
AcDbCircle
 10
2092.260670837781
 20
-689.302737226118
 30
0.0000000000000087
 40
1.2
100
AcDbArc
 50
134.9999999999616
 51
180.0
  0
ARC
  5
1ACF5
330
18
100
AcDbEntity
  8
01
  6
BYBLOCK
100
AcDbCircle
 10
2092.360670837781
 20
-687.4086246764224
 30
0.0000000000000087
 40
1.2
100
AcDbArc
 50
314.9999999999769
 51
0.0
  0
LINE
  5
1ACF6
330
18
100
AcDbEntity
  8
01
  6
BYBLOCK
100
AcDbLine
 10
2091.060670837781
 20
-577.8056809512703
 30
0.0000000000000087
 11
2091.060670837781
 21
-594.3086246764225
 31
0.0000000000000087
  0
LINE
  5
1ACF7
330
18
100
AcDbEntity
  8
01
  6
BYBLOCK
100
AcDbLine
 10
2092.260670837781
 20
-577.8056809512703
 30
0.0000000000000087
 11
2092.260670837781
 21
-594.4056809512703
 31
0.0000000000000087
  0
LINE
  5
1ACF8
330
18
100
AcDbEntity
  8
01
  6
BYBLOCK
100
AcDbLine
 10
2092.260670837781
 20
-594.4056809512703
 30
0.0000000000000087
 11
2093.209198975205
 21
-595.3542090886941
 31
0.0000000000000087
  0
LINE
  5
1ACF9
330
18
100
AcDbEntity
  8
01
  6
BYBLOCK
100
AcDbLine
 10
2091.412142700357
 20
-595.1571528138464
 30
0.0000000000000087
 11
2092.360670837781
 21
-596.1056809512703
 31
0.0000000000000087
  0
ARC
  5
1ACFA
330
18
100
AcDbEntity
  8
01
  6
BYBLOCK
100
AcDbCircle
 10
2092.260670837781
 20
-594.3086246764225
 30
0.0000000000000087
 40
1.2
100
AcDbArc
 50
180.0
 51
225.0000000000384
  0
ARC
  5
1ACFB
330
18
100
AcDbEntity
  8
01
  6
BYBLOCK
100
AcDbCircle
 10
2092.360670837781
 20
-596.2027372261181
 30
0.0000000000000087
 40
1.2
100
AcDbArc
 50
0.0
 51
45.00000000002303
  0
CIRCLE
  5
1ACFC
330
18
100
AcDbEntity
  8
01
  6
BYBLOCK
100
AcDbCircle
 10
2044.060670837781
 20
-612.8056809512703
 30
0.0000000000000087
 40
4.749999999999998
  0
LINE
  5
1ACFD
330
18
100
AcDbEntity
  8
01
  6
BYBLOCK
100
AcDbLine
 10
2092.360670837781
 20
-678.8056809512706
 30
0.0000000000000087
 11
2061.272585315838
 21
-678.8056809512705
 31
0.0000000000000087
  0
LINE
  5
1ACFE
330
18
100
AcDbEntity
  8
01
  6
BYBLOCK
100
AcDbLine
 10
2047.666915421833
 20
-612.8056809512703
 30
0.0000000000000087
 11
2044.060670837781
 21
-609.1994363672189
 31
0.0000000000000087
  0
LINE
  5
1ACFF
330
18
100
AcDbEntity
  8
01
  6
BYBLOCK
100
AcDbLine
 10
2040.454426253729
 20
-612.8056809512703
 30
0.0000000000000087
 11
2044.060670837781
 21
-609.1994363672189
 31
0.0000000000000087
  0
LINE
  5
1AD00
330
18
100
AcDbEntity
  8
01
  6
BYBLOCK
100
AcDbLine
 10
2047.666915421833
 20
-612.8056809512703
 30
0.0000000000000087
 11
2044.060670837781
 21
-616.4119255353215
 31
0.0000000000000087
  0
LINE
  5
1AD01
330
18
100
AcDbEntity
  8
01
  6
BYBLOCK
100
AcDbLine
 10
2040.454426253729
 20
-612.8056809512703
 30
0.0000000000000087
 11
2044.060670837781
 21
-616.4119255353215
 31
0.0000000000000087
  0
LINE
  5
1AD02
330
18
100
AcDbEntity
  8
01
  6
BYBLOCK
100
AcDbLine
 10
2101.767777618968
 20
-630.8056809512572
 30
0.0000000000000087
 11
2095.060670837781
 21
-630.8056809512572
 31
0.0000000000000087
  0
LINE
  5
1AD03
330
18
100
AcDbEntity
  8
01
  6
BYBLOCK
100
AcDbLine
 10
2101.767777618968
 20
-650.8056809512572
 30
0.0000000000000087
 11
2095.060670837781
 21
-650.8056809512572
 31
0.0000000000000087
  0
LINE
  5
1AD04
330
18
100
AcDbEntity
  8
01
100
AcDbLine
 10
2100.060670837493
 20
-698.8056809509816
 30
0.0000000000000087
 11
2086.060670837493
 21
-698.8056809509816
 31
0.0000000000000087
  0
LINE
  5
1AD05
330
18
100
AcDbEntity
  8
01
  6
BYBLOCK
100
AcDbLine
 10
2026.060670837781
 20
-616.023561983692
 30
0.0000000000001223
 11
2026.060670837781
 21
-647.6977360215301
 31
0.0000000000000322
  0
LINE
  5
1AD06
330
18
100
AcDbEntity
  8
01
  6
BYBLOCK
100
AcDbLine
 10
2092.360670837781
 20
-604.8056809512703
 30
0.0000000000000087
 11
2063.903773915764
 21
-604.8056809512703
 31
0.0000000000001223
  0
ARC
  5
1AD07
330
18
100
AcDbEntity
  8
01
  6
BYBLOCK
100
AcDbCircle
 10
2027.060670837781
 20
-605.8056809512703
 30
0.0000000000000087
 40
0.9999999999999996
100
AcDbArc
 50
90.0
 51
180.0
  0
LINE
  5
1AD08
330
18
100
AcDbEntity
  8
01
  6
BYBLOCK
100
AcDbLine
 10
2063.903773915764
 20
-604.8056809512703
 30
0.0000000000001223
 11
2027.060670837781
 21
-604.8056809512703
 31
0.0000000000000087
  0
LINE
  5
1AD09
330
18
100
AcDbEntity
  8
01
  6
BYBLOCK
100
AcDbLine
 10
2026.060670837781
 20
-605.8056809512703
 30
0.0000000000000087
 11
2026.060670837781
 21
-616.023561983692
 31
0.0000000000001223
  0
TEXT
  5
1AD0C
330
18
100
AcDbEntity
  8
1TEXT
100
AcDbText
 10
2029.060682837782
 20
-377.8056809512703
 30
0.0
 40
20.0
  1
1-M9C-X-LJ
100
AcDbText
  0
LINE
  5
1AD34
330
18
100
AcDbEntity
  8
01
  6
BYBLOCK
100
AcDbLine
 10
2333.061206000607
 20
-412.8069992643731
 30
0.0000000000000087
 11
2486.815586155638
 21
-412.8069992643731
 31
0.0000000000000087
  0
LINE
  5
1AD35
330
18
100
AcDbEntity
  8
01
100
AcDbLine
 10
2234.06043815829
 20
-542.8056809512703
 30
0.0000000000000087
 11
2234.06043815829
 21
-732.8056809512703
 31
0.0000000000000087
  0
LINE
  5
1AD36
330
18
100
AcDbEntity
  8
01
100
AcDbLine
 10
2354.06043815829
 20
-662.8056809512703
 30
0.0000000000000087
 11
2414.06043815829
 21
-662.8056809512703
 31
0.0000000000000087
  0
LINE
  5
1AD37
330
18
100
AcDbEntity
  8
01
100
AcDbLine
 10
2384.06043815829
 20
-632.8056809512703
 30
0.0000000000000087
 11
2384.06043815829
 21
-692.8056809512703
 31
0.0000000000000087
  0
LINE
  5
1B07C
330
18
100
AcDbEntity
  8
1CENTER
100
AcDbLine
 10
2074.060446158289
 20
-662.8056809512703
 30
0.0000000000000087
 11
2014.060446158289
 21
-662.8056809512703
 31
0.0000000000000087
  0
LINE
  5
1B07D
330
18
100
AcDbEntity
  8
1CENTER
100
AcDbLine
 10
2044.060446158289
 20
-632.8056809512703
 30
0.0000000000000087
 11
2044.060446158289
 21
-692.8056809512703
 31
0.0000000000000087
  0
LINE
  5
1B07E
330
18
100
AcDbEntity
  8
1CENTER
100
AcDbLine
 10
2354.06043815829
 20
-662.8056809512703
 30
0.0000000000000087
 11
2414.06043815829
 21
-662.8056809512703
 31
0.0000000000000087
  0
LINE
  5
1B07F
330
18
100
AcDbEntity
  8
1CENTER
100
AcDbLine
 10
2384.06043815829
 20
-632.8056809512703
 30
0.0000000000000087
 11
2384.06043815829
 21
-692.8056809512703
 31
0.0000000000000087
  0
LINE
  5
1B080
330
18
100
AcDbEntity
  8
1CENTER
100
AcDbLine
 10
2384.060554498034
 20
-342.805680952299
 30
0.0000000000000087
 11
2384.060554498034
 21
-377.8056809522988
 31
0.0000000000000087
  0
LINE
  5
1B081
330
18
100
AcDbEntity
  8
1CENTER
100
AcDbLine
 10
2164.060442158289
 20
-662.8056809512703
 30
0.0000000000000087
 11
2199.060442158289
 21
-662.8056809512703
 31
0.0000000000000087
  0
LINE
  5
1B082
330
18
100
AcDbEntity
  8
1CENTER
100
AcDbLine
 10
2229.060442158289
 20
-662.8056809512703
 30
0.0000000000000087
 11
2264.060442158289
 21
-662.8056809512703
 31
0.0000000000000087
  0
LINE
  5
1B083
330
18
100
AcDbEntity
  8
1CENTER
100
AcDbLine
 10
2353.779207124808
 20
-427.3056809522967
 30
0.0000000000000087
 11
2381.045307498033
 21
-427.3057119522977
 31
0.0000000000000087
  0
LINE
  5
1B084
330
18
100
AcDbEntity
  8
1CENTER
100
AcDbLine
 10
2354.06043815829
 20
-662.8056809512703
 30
0.0000000000000087
 11
2414.06043815829
 21
-662.8056809512703
 31
0.0000000000000087
  0
LINE
  5
1B085
330
18
100
AcDbEntity
  8
1CENTER
100
AcDbLine
 10
2164.060442158289
 20
-662.8056809512703
 30
0.0000000000000087
 11
2199.060442158289
 21
-662.8056809512703
 31
0.0000000000000087
  0
LINE
  5
1B088
330
18
100
AcDbEntity
  8
1CENTER
100
AcDbLine
 10
2353.779207124808
 20
-358.3056809523013
 30
0.0000000000000087
 11
2381.045307498033
 21
-358.3056499523003
 31
0.0000000000000087
  0
ARC
  5
1B089
330
18
100
AcDbEntity
  8
01
100
AcDbCircle
 10
2358.060554498028
 20
-419.3056809523081
 30
0.0000000000000087
 40
0.5
100
AcDbArc
 50
90.0
 51
180.0
  0
ARC
  5
1B08A
330
18
100
AcDbEntity
  8
01
100
AcDbCircle
 10
2358.060554498028
 20
-419.3056809523081
 30
0.0000000000000087
 40
0.5
100
AcDbArc
 50
90.0
 51
180.0
  0
ARC
  5
1B08B
330
18
100
AcDbEntity
  8
01
100
AcDbCircle
 10
2359.560554498017
 20
-469.8056809523044
 30
0.0000000000000087
 40
2.0
100
AcDbArc
 50
180.0
 51
270.0
  0
LINE
  5
1B08C
330
18
100
AcDbEntity
  8
01
100
AcDbLine
 10
2357.560554498028
 20
-419.305680952308
 30
0.0000000000000087
 11
2357.560554498017
 21
-469.8056809523044
 31
0.0000000000000087
  0
LINE
  5
1B08D
330
18
100
AcDbEntity
  8
01
100
AcDbLine
 10
2393.860554498025
 20
-449.8056809522972
 30
0.0000000000000087
 11
2393.860554498025
 21
-447.8056809522972
 31
0.0000000000000087
  0
ARC
  5
1B08E
330
18
100
AcDbEntity
  8
01
100
AcDbCircle
 10
2398.860554498025
 20
-449.8056809522972
 30
0.0000000000000087
 40
5.0
100
AcDbArc
 50
180.0
 51
270.0
  0
LINE
  5
1B08F
330
18
100
AcDbEntity
  8
01
100
AcDbLine
 10
2398.860554498028
 20
-454.8056809522972
 30
0.0000000000000087
 11
2413.060554498038
 21
-454.8056809522972
 31
0.0000000000000087
  0
LINE
  5
1B090
330
18
100
AcDbEntity
  8
01
100
AcDbLine
 10
2359.560554498017
 20
-471.8056809523044
 30
0.0000000000000087
 11
2413.060554498053
 21
-471.8056809523046
 31
0.0000000000000087
  0
LINE
  5
1B091
330
18
100
AcDbEntity
  8
01
100
AcDbLine
 10
2360.560554498034
 20
-412.8056809522972
 30
0.0000000000000087
 11
2360.560554498034
 21
-418.3056809523008
 31
0.0000000000000087
  0
LINE
  5
1B092
330
18
100
AcDbEntity
  8
01
100
AcDbLine
 10
2407.560554498034
 20
-418.3056809523008
 30
0.0000000000000087
 11
2360.560554498034
 21
-418.3056809523008
 31
0.0000000000000087
  0
LINE
  5
1B093
330
18
100
AcDbEntity
  8
01
100
AcDbLine
 10
2360.560554498034
 20
-412.8056809522972
 30
0.0000000000000087
 11
2407.560554498034
 21
-412.8056809523008
 31
0.0000000000000087
  0
LINE
  5
1B094
330
18
100
AcDbEntity
  8
01
100
AcDbLine
 10
2407.560554498034
 20
-418.3056809523008
 30
0.0000000000000087
 11
2407.560554498034
 21
-412.8056809523008
 31
0.0000000000000087
  0
LINE
  5
1B095
330
18
100
AcDbEntity
  8
01
100
AcDbLine
 10
2358.060554498028
 20
-418.8056809523089
 30
0.0000000000000087
 11
2407.560554498033
 21
-418.8056809522935
 31
0.0000000000000087
  0
LINE
  5
1B096
330
18
100
AcDbEntity
  8
01
100
AcDbLine
 10
2361.760554498037
 20
-447.8056809522972
 30
0.0000000000000087
 11
2406.560554498035
 21
-447.8056809522972
 31
0.0000000000000087
  0
LINE
  5
1B097
330
18
100
AcDbEntity
  8
01
100
AcDbLine
 10
2407.560554498035
 20
-446.8056809522972
 30
0.0000000000000087
 11
2407.560554498032
 21
-418.8056809522935
 31
0.0000000000000087
  0
ARC
  5
1B098
330
18
100
AcDbEntity
  8
01
100
AcDbCircle
 10
2406.560554498035
 20
-446.8056809522972
 30
0.0000000000000087
 40
1.0
100
AcDbArc
 50
270.0
 51
0.0
  0
ARC
  5
1B099
330
18
100
AcDbEntity
  8
01
100
AcDbCircle
 10
2361.760554498037
 20
-446.8056809522972
 30
0.0000000000000087
 40
1.0
100
AcDbArc
 50
180.0
 51
270.0
  0
LINE
  5
1B09A
330
18
100
AcDbEntity
  8
01
100
AcDbLine
 10
2360.760554498038
 20
-446.8056809522969
 30
0.0000000000000087
 11
2360.760554498045
 21
-418.8056809522985
 31
0.0000000000000087
  0
ARC
  5
1B09B
330
18
100
AcDbEntity
  8
01
100
AcDbCircle
 10
2358.060554498028
 20
-366.3056809522899
 30
0.0000000000000087
 40
0.5
100
AcDbArc
 50
180.0
 51
270.0
  0
ARC
  5
1B09C
330
18
100
AcDbEntity
  8
01
100
AcDbCircle
 10
2358.060554498028
 20
-366.3056809522899
 30
0.0000000000000087
 40
0.5
100
AcDbArc
 50
180.0
 51
270.0
  0
ARC
  5
1B09D
330
18
100
AcDbEntity
  8
01
100
AcDbCircle
 10
2359.560554498017
 20
-315.8056809522935
 30
0.0000000000000087
 40
2.0
100
AcDbArc
 50
90.0
 51
180.0
  0
LINE
  5
1B09E
330
18
100
AcDbEntity
  8
01
100
AcDbLine
 10
2357.560554498028
 20
-366.30568095229
 30
0.0000000000000087
 11
2357.560554498017
 21
-315.8056809522935
 31
0.0000000000000087
  0
LINE
  5
1B09F
330
18
100
AcDbEntity
  8
01
100
AcDbLine
 10
2393.860554498025
 20
-335.8056809523008
 30
0.0000000000000087
 11
2393.860554498025
 21
-337.8056809523008
 31
0.0000000000000087
  0
ARC
  5
1B0A0
330
18
100
AcDbEntity
  8
01
100
AcDbCircle
 10
2398.860554498025
 20
-335.8056809523008
 30
0.0000000000000087
 40
5.0
100
AcDbArc
 50
90.0
 51
180.0
  0
LINE
  5
1B0A1
330
18
100
AcDbEntity
  8
01
100
AcDbLine
 10
2398.860554498028
 20
-330.8056809523008
 30
0.0000000000000087
 11
2413.860554498032
 21
-330.8056809523008
 31
0.0000000000000087
  0
LINE
  5
1B0A2
330
18
100
AcDbEntity
  8
01
100
AcDbLine
 10
2359.560554498017
 20
-313.8056809522935
 30
0.0000000000000087
 11
2413.060554498053
 21
-313.8056809523005
 31
0.0000000000000087
  0
LINE
  5
1B0A3
330
18
100
AcDbEntity
  8
01
100
AcDbLine
 10
2360.560554498034
 20
-372.8056809523008
 30
0.0000000000000087
 11
2360.560554498034
 21
-367.3056809522972
 31
0.0000000000000087
  0
LINE
  5
1B0A4
330
18
100
AcDbEntity
  8
01
100
AcDbLine
 10
2407.560554498034
 20
-367.3056809522972
 30
0.0000000000000087
 11
2360.560554498034
 21
-367.3056809522972
 31
0.0000000000000087
  0
LINE
  5
1B0A5
330
18
100
AcDbEntity
  8
01
100
AcDbLine
 10
2360.560554498034
 20
-372.8056809523008
 30
0.0000000000000087
 11
2407.560554498034
 21
-372.8056809522972
 31
0.0000000000000087
  0
LINE
  5
1B0A6
330
18
100
AcDbEntity
  8
01
100
AcDbLine
 10
2407.560554498034
 20
-367.3056809522972
 30
0.0000000000000087
 11
2407.560554498034
 21
-372.8056809522972
 31
0.0000000000000087
  0
LINE
  5
1B0A7
330
18
100
AcDbEntity
  8
01
100
AcDbLine
 10
2358.060554498028
 20
-366.8056809522891
 30
0.0000000000000087
 11
2407.560554498033
 21
-366.8056809523045
 31
0.0000000000000087
  0
LINE
  5
1B0A8
330
18
100
AcDbEntity
  8
01
100
AcDbLine
 10
2361.760554498037
 20
-337.8056809523008
 30
0.0000000000000087
 11
2406.560554498035
 21
-337.8056809523008
 31
0.0000000000000087
  0
LINE
  5
1B0A9
330
18
100
AcDbEntity
  8
01
100
AcDbLine
 10
2407.560554498035
 20
-338.8056809523008
 30
0.0000000000000087
 11
2407.560554498032
 21
-366.8056809523044
 31
0.0000000000000087
  0
ARC
  5
1B0AA
330
18
100
AcDbEntity
  8
01
100
AcDbCircle
 10
2406.560554498035
 20
-338.8056809523008
 30
0.0000000000000087
 40
1.0
100
AcDbArc
 50
0.0
 51
90.0
  0
ARC
  5
1B0AB
330
18
100
AcDbEntity
  8
01
100
AcDbCircle
 10
2361.760554498037
 20
-338.8056809523008
 30
0.0000000000000087
 40
1.0
100
AcDbArc
 50
90.0
 51
180.0
  0
LINE
  5
1B0AC
330
18
100
AcDbEntity
  8
01
100
AcDbLine
 10
2360.760554498038
 20
-338.8056809523011
 30
0.0000000000000087
 11
2360.760554498045
 21
-366.8056809522994
 31
0.0000000000000087
  0
LINE
  5
1B0AD
330
18
100
AcDbEntity
  8
01
100
AcDbLine
 10
2357.560438158283
 20
-665.8056792544006
 30
0.0000000000000087
 11
2357.560438158293
 21
-659.8056792316451
 31
0.0000000000000087
  0
ARC
  5
1B0AE
330
18
100
AcDbEntity
  8
01
100
AcDbCircle
 10
2384.06043815829
 20
-662.8056809512703
 30
0.0000000000000087
 40
23.5
100
AcDbArc
 50
189.800185878519
 51
350.1998100548664
  0
ARC
  5
1B0AF
330
18
100
AcDbEntity
  8
01
100
AcDbCircle
 10
2384.06043815829
 20
-662.8056809512703
 30
0.0000000000000087
 40
23.5
100
AcDbArc
 50
9.800189945107642
 51
170.1998058001683
  0
LINE
  5
1B0B0
330
18
100
AcDbEntity
  8
01
100
AcDbLine
 10
2358.560438158286
 20
-666.8056809512703
 30
0.0000000000000087
 11
2412.151398022112
 21
-666.805680951279
 31
0.0000000000000087
  0
LINE
  5
1B0B1
330
18
100
AcDbEntity
  8
01
100
AcDbLine
 10
2413.651398022112
 20
-666.8056809512792
 30
0.0000000000000087
 11
2509.06043815828
 21
-666.8056809512948
 31
0.0000000000000087
  0
ARC
  5
1B0B2
330
18
100
AcDbEntity
  8
01
100
AcDbCircle
 10
2358.560438158275
 20
-659.805680951274
 30
0.0000000000000087
 40
1.0
100
AcDbArc
 50
90.0
 51
180.0
  0
ARC
  5
1B0B3
330
18
100
AcDbEntity
  8
01
100
AcDbCircle
 10
2358.560438158286
 20
-665.8056809512703
 30
0.0000000000000087
 40
1.0
100
AcDbArc
 50
180.0
 51
270.0
  0
LINE
  5
1B0B4
330
18
100
AcDbEntity
  8
01
100
AcDbLine
 10
2358.560438158275
 20
-658.805680951274
 30
0.0000000000000087
 11
2412.151398022112
 21
-658.805680951274
 31
0.0000000000000087
  0
LINE
  5
1B0B5
330
18
100
AcDbEntity
  8
01
100
AcDbLine
 10
2413.651398022112
 20
-658.805680951274
 30
0.0000000000000087
 11
2509.06043815828
 21
-658.805680951274
 31
0.0000000000000087
  0
LINE
  5
1B0B6
330
18
100
AcDbEntity
  8
01
100
AcDbLine
 10
2510.06043815828
 20
-659.8056809512703
 30
0.0000000000000087
 11
2510.06043815828
 21
-665.8056809512703
 31
0.0000000000000087
  0
LINE
  5
1B0B7
330
18
100
AcDbEntity
  8
01
100
AcDbLine
 10
2269.060442158295
 20
-666.8056809512631
 30
0.0000000000000087
 11
2269.060442158294
 21
-685.3056809512703
 31
0.0000000000000087
  0
ARC
  5
1B0B8
330
18
100
AcDbEntity
  8
01
100
AcDbCircle
 10
2268.060442158294
 20
-685.3056809512703
 30
0.0000000000000087
 40
1.0
100
AcDbArc
 50
270.0
 51
0.0
  0
ARC
  5
1B0B9
330
18
100
AcDbEntity
  8
01
100
AcDbCircle
 10
2268.060442158294
 20
-640.3056809512703
 30
0.0000000000000087
 40
1.0
100
AcDbArc
 50
0.0
 51
90.0
  0
LINE
  5
1B0BA
330
18
100
AcDbEntity
  8
01
100
AcDbLine
 10
2240.060442158294
 20
-639.3056809512703
 30
0.0000000000000087
 11
2268.060442158294
 21
-639.3056809512703
 31
0.0000000000000087
  0
LINE
  5
1B0BB
330
18
100
AcDbEntity
  8
01
100
AcDbLine
 10
2240.060442158294
 20
-686.3056809512703
 30
0.0000000000000087
 11
2268.060442158294
 21
-686.3056809512703
 31
0.0000000000000087
  0
LINE
  5
1B0BC
330
18
100
AcDbEntity
  8
01
100
AcDbLine
 10
2239.560442158293
 20
-639.3056809512703
 30
0.0000000000000087
 11
2239.560442158293
 21
-686.3056809512703
 31
0.0000000000000087
  0
LINE
  5
1B0BD
330
18
100
AcDbEntity
  8
01
100
AcDbLine
 10
2269.060442158294
 20
-640.3056809512703
 30
0.0000000000000087
 11
2269.060442158295
 21
-658.8056809512703
 31
0.0000000000000087
  0
LINE
  5
1B0BE
330
18
100
AcDbEntity
  8
01
100
AcDbLine
 10
2234.060442158289
 20
-639.3056809512703
 30
0.0000000000000087
 11
2239.560442158293
 21
-639.3056809512703
 31
0.0000000000000087
  0
LINE
  5
1B0BF
330
18
100
AcDbEntity
  8
01
100
AcDbLine
 10
2234.060442158289
 20
-686.3056809512703
 30
0.0000000000000087
 11
2239.560442158293
 21
-686.3056809512703
 31
0.0000000000000087
  0
LINE
  5
1B0C0
330
18
100
AcDbEntity
  8
01
100
AcDbLine
 10
2240.060442158294
 20
-686.3056809512703
 30
0.0000000000000087
 11
2240.060442158294
 21
-639.3056809512703
 31
0.0000000000000087
  0
LINE
  5
1B0C1
330
18
100
AcDbEntity
  8
01
100
AcDbLine
 10
2240.060442158294
 20
-658.8056809512703
 30
0.0000000000000087
 11
2292.060442158294
 21
-658.8056809512703
 31
0.0000000000000087
  0
LINE
  5
1B0C2
330
18
100
AcDbEntity
  8
01
100
AcDbLine
 10
2240.06044215829
 20
-666.8056809512631
 30
0.0000000000000087
 11
2292.060442158287
 21
-666.8056809512631
 31
0.0000000000000087
  0
ARC
  5
1B0C3
330
18
100
AcDbEntity
  8
01
100
AcDbCircle
 10
2292.060442158287
 20
-665.8056809512594
 30
0.0000000000000087
 40
1.0
100
AcDbArc
 50
270.0
 51
0.0
  0
ARC
  5
1B0C4
330
18
100
AcDbEntity
  8
01
100
AcDbCircle
 10
2292.060442158294
 20
-659.8056809512703
 30
0.0000000000000087
 40
1.0
100
AcDbArc
 50
0.0
 51
90.0
  0
LINE
  5
1B0C5
330
18
100
AcDbEntity
  8
01
100
AcDbLine
 10
2293.060442158294
 20
-659.8056809512703
 30
0.0000000000000087
 11
2293.060442158294
 21
-665.8056809512594
 31
0.0000000000000087
  0
LINE
  5
1B0C6
330
18
100
AcDbEntity
  8
01
100
AcDbLine
 10
2234.060442158289
 20
-686.3056809512703
 30
0.0000000000000087
 11
2234.060442158289
 21
-639.3056809512703
 31
0.0000000000000087
  0
LINE
  5
1B0C7
330
18
100
AcDbEntity
  8
1CENTER
100
AcDbLine
 10
2074.060446158288
 20
-662.8056809512703
 30
0.0000000000000087
 11
2014.060446158288
 21
-662.8056809512703
 31
0.0000000000000087
  0
LINE
  5
1B0C8
330
18
100
AcDbEntity
  8
1CENTER
100
AcDbLine
 10
2044.060446158288
 20
-632.8056809512703
 30
0.0000000000000087
 11
2044.060446158288
 21
-692.8056809512703
 31
0.0000000000000087
  0
LINE
  5
1B0C9
330
18
100
AcDbEntity
  8
1CENTER
100
AcDbLine
 10
2199.060442158288
 20
-662.8056809512703
 30
0.0000000000000087
 11
2164.060442158288
 21
-662.8056809512703
 31
0.0000000000000087
  0
LINE
  5
1B0CA
330
18
100
AcDbEntity
  8
1CENTER
100
AcDbLine
 10
2074.060446158288
 20
-662.8056809512703
 30
0.0000000000000087
 11
2014.060446158288
 21
-662.8056809512703
 31
0.0000000000000087
  0
LINE
  5
1B0CB
330
18
100
AcDbEntity
  8
01
100
AcDbLine
 10
2070.560446158295
 20
-665.8056792544006
 30
0.0000000000000087
 11
2070.560446158284
 21
-659.8056792316451
 31
0.0000000000000087
  0
ARC
  5
1B0CC
330
18
100
AcDbEntity
  8
01
100
AcDbCircle
 10
2044.060446158288
 20
-662.8056809512703
 30
0.0000000000000087
 40
23.5
100
AcDbArc
 50
189.8001899451336
 51
350.199814121481
  0
ARC
  5
1B0CD
330
18
100
AcDbEntity
  8
01
100
AcDbCircle
 10
2044.060446158288
 20
-662.8056809512703
 30
0.0000000000000087
 40
23.5
100
AcDbArc
 50
9.800194199831658
 51
170.1998100548924
  0
LINE
  5
1B0CE
330
18
100
AcDbEntity
  8
01
100
AcDbLine
 10
2069.560446158292
 20
-666.8056809512703
 30
0.0000000000000087
 11
2015.969486294467
 21
-666.805680951279
 31
0.0000000000000087
  0
LINE
  5
1B0CF
330
18
100
AcDbEntity
  8
01
100
AcDbLine
 10
2014.469486294467
 20
-666.8056809512792
 30
0.0000000000000087
 11
1918.260446158297
 21
-666.8056809512949
 31
0.0000000000000087
  0
ARC
  5
1B0D0
330
18
100
AcDbEntity
  8
01
100
AcDbCircle
 10
2069.560446158303
 20
-659.805680951274
 30
0.0000000000000087
 40
1.0
100
AcDbArc
 50
0.0
 51
90.0
  0
ARC
  5
1B0D1
330
18
100
AcDbEntity
  8
01
100
AcDbCircle
 10
2069.560446158292
 20
-665.8056809512703
 30
0.0000000000000087
 40
1.0
100
AcDbArc
 50
270.0
 51
0.0
  0
LINE
  5
1B0D2
330
18
100
AcDbEntity
  8
01
100
AcDbLine
 10
2069.560446158303
 20
-658.805680951274
 30
0.0000000000000087
 11
2015.969486294467
 21
-658.805680951274
 31
0.0000000000000087
  0
LINE
  5
1B0D3
330
18
100
AcDbEntity
  8
01
100
AcDbLine
 10
2014.469486294467
 20
-658.805680951274
 30
0.0000000000000087
 11
1918.260446158297
 21
-658.805680951274
 31
0.0000000000000087
  0
LINE
  5
1B0D4
330
18
100
AcDbEntity
  8
01
100
AcDbLine
 10
2159.060442158283
 20
-666.8056809512631
 30
0.0000000000000087
 11
2159.060442158284
 21
-685.3056809512703
 31
0.0000000000000087
  0
ARC
  5
1B0D5
330
18
100
AcDbEntity
  8
01
100
AcDbCircle
 10
2160.060442158284
 20
-685.3056809512703
 30
0.0000000000000087
 40
1.0
100
AcDbArc
 50
180.0
 51
270.0
  0
ARC
  5
1B0D6
330
18
100
AcDbEntity
  8
01
100
AcDbCircle
 10
2160.060442158284
 20
-640.3056809512703
 30
0.0000000000000087
 40
1.0
100
AcDbArc
 50
90.0
 51
180.0
  0
LINE
  5
1B0D7
330
18
100
AcDbEntity
  8
01
100
AcDbLine
 10
2188.060442158284
 20
-639.3056809512703
 30
0.0000000000000087
 11
2160.060442158284
 21
-639.3056809512703
 31
0.0000000000000087
  0
LINE
  5
1B0D8
330
18
100
AcDbEntity
  8
01
100
AcDbLine
 10
2188.060442158284
 20
-686.3056809512703
 30
0.0000000000000087
 11
2160.060442158284
 21
-686.3056809512703
 31
0.0000000000000087
  0
LINE
  5
1B0D9
330
18
100
AcDbEntity
  8
01
100
AcDbLine
 10
2188.560442158285
 20
-639.3056809512703
 30
0.0000000000000087
 11
2188.560442158285
 21
-686.3056809512703
 31
0.0000000000000087
  0
LINE
  5
1B0DA
330
18
100
AcDbEntity
  8
01
100
AcDbLine
 10
2159.060442158284
 20
-640.3056809512703
 30
0.0000000000000087
 11
2159.060442158283
 21
-658.8056809512703
 31
0.0000000000000087
  0
LINE
  5
1B0DB
330
18
100
AcDbEntity
  8
01
100
AcDbLine
 10
2194.060442158288
 20
-639.3056809512703
 30
0.0000000000000087
 11
2188.560442158285
 21
-639.3056809512703
 31
0.0000000000000087
  0
LINE
  5
1B0DC
330
18
100
AcDbEntity
  8
01
100
AcDbLine
 10
2194.060442158288
 20
-686.3056809512703
 30
0.0000000000000087
 11
2188.560442158285
 21
-686.3056809512703
 31
0.0000000000000087
  0
LINE
  5
1B0DD
330
18
100
AcDbEntity
  8
01
100
AcDbLine
 10
2188.060442158284
 20
-686.3056809512703
 30
0.0000000000000087
 11
2188.060442158284
 21
-639.3056809512703
 31
0.0000000000000087
  0
LINE
  5
1B0DE
330
18
100
AcDbEntity
  8
01
100
AcDbLine
 10
2188.060442158284
 20
-658.8056809512703
 30
0.0000000000000087
 11
2136.060442158284
 21
-658.8056809512703
 31
0.0000000000000087
  0
LINE
  5
1B0DF
330
18
100
AcDbEntity
  8
01
100
AcDbLine
 10
2188.060442158288
 20
-666.8056809512631
 30
0.0000000000000087
 11
2136.060442158291
 21
-666.8056809512631
 31
0.0000000000000087
  0
ARC
  5
1B0E0
330
18
100
AcDbEntity
  8
01
100
AcDbCircle
 10
2136.060442158291
 20
-665.8056809512594
 30
0.0000000000000087
 40
1.0
100
AcDbArc
 50
180.0
 51
270.0
  0
ARC
  5
1B0E1
330
18
100
AcDbEntity
  8
01
100
AcDbCircle
 10
2136.060442158284
 20
-659.8056809512703
 30
0.0000000000000087
 40
1.0
100
AcDbArc
 50
90.0
 51
180.0
  0
LINE
  5
1B0E2
330
18
100
AcDbEntity
  8
01
100
AcDbLine
 10
2135.060442158284
 20
-659.8056809512703
 30
0.0000000000000087
 11
2135.060442158284
 21
-665.8056809512594
 31
0.0000000000000087
  0
LINE
  5
1B0E3
330
18
100
AcDbEntity
  8
01
100
AcDbLine
 10
2194.060442158288
 20
-686.3056809512703
 30
0.0000000000000087
 11
2194.060442158288
 21
-639.3056809512703
 31
0.0000000000000087
  0
POINT
  5
1B0E8
330
18
100
AcDbEntity
  8
01
100
AcDbPoint
 10
2179.560442158288
 20
-679.4227256644933
 30
0.0000000000000087
 50
180.0
  0
LINE
  5
1B0E9
330
18
100
AcDbEntity
  8
01
100
AcDbLine
 10
2179.560442158288
 20
-680.1727256644933
 30
0.0000000000000087
 11
2180.859480263965
 21
-679.7977256644933
 31
0.0000000000000087
  0
LINE
  5
1B0EA
330
18
100
AcDbEntity
  8
01
100
AcDbLine
 10
2178.261404052611
 20
-679.7977256644933
 30
0.0000000000000087
 11
2179.560442158288
 21
-680.1727256644933
 31
0.0000000000000087
  0
LINE
  5
1B0EB
330
18
100
AcDbEntity
  8
01
100
AcDbLine
 10
2178.261404052611
 20
-679.0477256644933
 30
0.0000000000000087
 11
2178.261404052611
 21
-679.7977256644933
 31
0.0000000000000087
  0
LINE
  5
1B0EC
330
18
100
AcDbEntity
  8
01
100
AcDbLine
 10
2179.560442158288
 20
-678.6727256644933
 30
0.0000000000000087
 11
2178.261404052611
 21
-679.0477256644933
 31
0.0000000000000087
  0
LINE
  5
1B0ED
330
18
100
AcDbEntity
  8
01
100
AcDbLine
 10
2180.859480263965
 20
-679.0477256644933
 30
0.0000000000000087
 11
2179.560442158288
 21
-678.6727256644933
 31
0.0000000000000087
  0
POINT
  5
1B0EE
330
18
100
AcDbEntity
  8
01
100
AcDbPoint
 10
2248.560442158289
 20
-679.4227256644933
 30
0.0000000000000087
  0
LINE
  5
1B0EF
330
18
100
AcDbEntity
  8
01
100
AcDbLine
 10
2248.16044214829
 20
-680.6477256644934
 30
0.0000000000000087
 11
2248.16044214829
 21
-680.0527256504932
 31
0.0000000000000087
  0
LINE
  5
1B0F0
330
18
100
AcDbEntity
  8
01
100
AcDbLine
 10
2248.960442168289
 20
-680.6477256644934
 30
0.0000000000000087
 11
2248.960442168289
 21
-680.0527256504932
 31
0.0000000000000087
  0
LINE
  5
1B0F1
330
18
100
AcDbEntity
  8
01
100
AcDbLine
 10
2247.660442178289
 20
-679.7027256714933
 30
0.0000000000000087
 11
2246.810442158289
 21
-679.7027256714933
 31
0.0000000000000087
  0
LINE
  5
1B0F2
330
18
100
AcDbEntity
  8
01
100
AcDbLine
 10
2247.660442178289
 20
-679.1427256574933
 30
0.0000000000000087
 11
2246.810442158289
 21
-679.1427256574933
 31
0.0000000000000087
  0
LINE
  5
1B0F3
330
18
100
AcDbEntity
  8
01
100
AcDbLine
 10
2246.810442158289
 20
-679.7027256714933
 30
0.0000000000000087
 11
2246.810442158289
 21
-679.1427256574933
 31
0.0000000000000087
  0
LINE
  5
1B0F4
330
18
100
AcDbEntity
  8
01
100
AcDbLine
 10
2248.960442168289
 20
-680.6477256644934
 30
0.0000000000000087
 11
2248.16044214829
 21
-680.6477256644934
 31
0.0000000000000087
  0
LINE
  5
1B0F5
330
18
100
AcDbEntity
  8
01
100
AcDbLine
 10
2248.960442168289
 20
-678.1977256644933
 30
0.0000000000000087
 11
2248.960442168289
 21
-678.7927256784934
 31
0.0000000000000087
  0
LINE
  5
1B0F6
330
18
100
AcDbEntity
  8
01
100
AcDbLine
 10
2248.16044214829
 20
-678.1977256644933
 30
0.0000000000000087
 11
2248.16044214829
 21
-678.7927256784934
 31
0.0000000000000087
  0
LINE
  5
1B0F7
330
18
100
AcDbEntity
  8
01
100
AcDbLine
 10
2249.460442138289
 20
-679.1427256574933
 30
0.0000000000000087
 11
2250.310442158289
 21
-679.1427256574933
 31
0.0000000000000087
  0
LINE
  5
1B0F8
330
18
100
AcDbEntity
  8
01
100
AcDbLine
 10
2249.460442138289
 20
-679.7027256714933
 30
0.0000000000000087
 11
2250.310442158289
 21
-679.7027256714933
 31
0.0000000000000087
  0
LINE
  5
1B0F9
330
18
100
AcDbEntity
  8
01
100
AcDbLine
 10
2250.310442158289
 20
-679.1427256574933
 30
0.0000000000000087
 11
2250.310442158289
 21
-679.7027256714933
 31
0.0000000000000087
  0
LINE
  5
1B0FA
330
18
100
AcDbEntity
  8
01
100
AcDbLine
 10
2248.16044214829
 20
-678.1977256644933
 30
0.0000000000000087
 11
2248.960442168289
 21
-678.1977256644933
 31
0.0000000000000087
  0
ELLIPSE
  5
1B0FB
330
18
100
AcDbEntity
  8
01
100
AcDbEllipse
 10
2249.460442138289
 20
-678.7927256784934
 30
0.0000000000000087
 11
-0.5000000000000077
 21
7.136042516446670E-15
 31
0.0
210
0.0
220
0.0
230
1.0
 40
0.7000000000000347
 41
-0.0000001745329874
 42
1.570796326794906
  0
ELLIPSE
  5
1B0FC
330
18
100
AcDbEntity
  8
01
100
AcDbEllipse
 10
2249.460442138289
 20
-680.0527256504932
 30
0.0000000000000087
 11
0.5000000000000077
 21
2.568252007546482E-13
 31
0.0
210
0.0
220
0.0
230
1.0
 40
0.7000000000000356
 41
1.570796379154147
 42
3.141592828122067
  0
ELLIPSE
  5
1B0FD
330
18
100
AcDbEntity
  8
01
100
AcDbEllipse
 10
2247.660442178289
 20
-680.0527256504932
 30
0.0000000000000087
 11
0.5
 21
3.758411089944611E-13
 31
0.0
210
0.0
220
0.0
230
1.0
 40
0.7000000000000465
 41
-0.0000000000010738
 42
1.57079637915398
  0
ELLIPSE
  5
1B0FE
330
18
100
AcDbEntity
  8
01
100
AcDbEllipse
 10
2247.660442178289
 20
-678.7927256784934
 30
0.0000000000000087
 11
-0.5
 21
1.241535493119381E-13
 31
0.0
210
0.0
220
0.0
230
1.0
 40
0.7000000000000454
 41
1.57079632679507
 42
3.141592653590147
  0
ELLIPSE
  5
1B0FF
330
18
100
AcDbEntity
  8
01
100
AcDbEllipse
 10
2248.560442158289
 20
-679.4227256644933
 30
0.0000000000000087
 11
-3.0
 21
0.0
 31
0.0
210
0.0
220
0.0
230
1.0
 40
0.6999264741693878
 41
0.0
 42
6.283185307179586
  0
SPLINE
  5
1B100
330
18
100
AcDbEntity
  8
01
100
AcDbSpline
210
0.0
220
0.0
230
1.0
 70
     9
 71
     3
 72
    36
 73
    32
 74
     0
 42
0.0000000001
 43
0.0000000001
 40
0.0
 40
0.0
 40
0.0
 40
0.0
 40
0.4404128364159207
 40
0.4404128364159207
 40
0.8808256728318414
 40
0.8808256728318414
 40
1.321238509247762
 40
1.321238509247762
 40
1.761651345663683
 40
1.761651345663683
 40
2.202064182079603
 40
2.202064182079603
 40
2.642477018495524
 40
2.642477018495524
 40
3.082889854911445
 40
3.082889854911445
 40
3.523302691327366
 40
3.523302691327366
 40
3.963715527743287
 40
3.963715527743287
 40
4.404128364159207
 40
4.404128364159207
 40
4.844541200575128
 40
4.844541200575128
 40
5.284954036991048
 40
5.284954036991048
 40
5.725366873406969
 40
5.725366873406969
 40
6.16577970982289
 40
6.16577970982289
 40
6.283185307179586
 40
6.283185307179586
 40
6.283185307179586
 40
6.283185307179586
 10
2245.91044215829
 20
-679.4227256644934
 30
0.0000000000000087
 10
2245.910442158289
 20
-679.6575724181191
 30
0.0000000000000087
 10
2245.983759037389
 20
-679.8947671181693
 30
0.0000000000000087
 10
2246.290312834868
 20
-680.3500439392176
 30
0.0000000000000087
 10
2246.52554321145
 20
-680.5656052450888
 30
0.0000000000000087
 10
2247.126385543737
 20
-680.9126758456352
 30
0.0000000000000087
 10
2247.490753820212
 20
-681.0432839436268
 30
0.0000000000000087
 10
2248.271210408298
 20
-681.1825103230784
 30
0.0000000000000087
 10
2248.686523122113
 20
-681.1911013856505
 30
0.0000000000000087
 10
2249.478744494254
 20
-681.0839689463013
 30
0.0000000000000087
 10
2249.85491336093
 20
-680.9682581574556
 30
0.0000000000000087
 10
2250.488121126686
 20
-680.6442539009527
 30
0.0000000000000087
 10
2250.74395157909
 20
-680.4366063915205
 30
0.0000000000000087
 10
2251.092717011745
 20
-679.9888249818423
 30
0.0000000000000087
 10
2251.186783733498
 20
-679.7514670612774
 30
0.0000000000000087
 10
2251.226220149776
 20
-679.2817981734868
 30
0.0000000000000087
 10
2251.17306091494
 20
-679.0450893925183
 30
0.0000000000000087
 10
2250.90876563015
 20
-678.5842306818375
 30
0.0000000000000087
 10
2250.694797523453
 20
-678.3620022262279
 30
0.0000000000000087
 10
2250.128469480967
 20
-677.9937095446044
 30
0.0000000000000087
 10
2249.777334072562
 20
-677.8488601999883
 30
0.0000000000000087
 10
2249.0116912576
 20
-677.6782259143107
 30
0.0000000000000087
 10
2248.598006201706
 20
-677.6524930302324
 30
0.0000000000000087
 10
2247.797118011188
 20
-677.7270069364341
 30
0.0000000000000087
 10
2247.410629186801
 20
-677.8272486897018
 30
0.0000000000000087
 10
2246.747391254035
 20
-678.1264804144793
 30
0.0000000000000087
 10
2246.471785254511
 20
-678.3250226718869
 30
0.0000000000000087
 10
2246.081161996104
 20
-678.7632357750011
 30
0.0000000000000087
 10
2245.965789794661
 20
-679.0001610170655
 30
0.0000000000000087
 10
2245.915682099459
 20
-679.2975097916599
 30
0.0000000000000087
 10
2245.910442158289
 20
-679.3601200337831
 30
0.0000000000000087
 10
2245.91044215829
 20
-679.4227256644934
 30
0.0000000000000087
  0
ELLIPSE
  5
1B101
330
18
100
AcDbEntity
  8
01
100
AcDbEllipse
 10
2179.560442158289
 20
-679.4227256644933
 30
0.0000000000000087
 11
3.0
 21
0.0
 31
0.0
210
0.0
220
0.0
230
-1.0
 40
0.6999264741693878
 41
0.0
 42
6.283185307179586
  0
SPLINE
  5
1B102
330
18
100
AcDbEntity
  8
01
100
AcDbSpline
210
0.0
220
0.0
230
1.0
 70
     9
 71
     3
 72
    36
 73
    32
 74
     0
 42
0.0000000001
 43
0.0000000001
 40
0.0
 40
0.0
 40
0.0
 40
0.0
 40
0.4404128364159207
 40
0.4404128364159207
 40
0.8808256728318414
 40
0.8808256728318414
 40
1.321238509247762
 40
1.321238509247762
 40
1.761651345663683
 40
1.761651345663683
 40
2.202064182079603
 40
2.202064182079603
 40
2.642477018495524
 40
2.642477018495524
 40
3.082889854911445
 40
3.082889854911445
 40
3.523302691327366
 40
3.523302691327366
 40
3.963715527743287
 40
3.963715527743287
 40
4.404128364159207
 40
4.404128364159207
 40
4.844541200575128
 40
4.844541200575128
 40
5.284954036991048
 40
5.284954036991048
 40
5.725366873406969
 40
5.725366873406969
 40
6.16577970982289
 40
6.16577970982289
 40
6.283185307179586
 40
6.283185307179586
 40
6.283185307179586
 40
6.283185307179586
 10
2182.210442158289
 20
-679.4227256644934
 30
0.0000000000000087
 10
2182.21044215829
 20
-679.6575724181191
 30
0.0000000000000087
 10
2182.13712527919
 20
-679.8947671181693
 30
0.0000000000000087
 10
2181.830571481711
 20
-680.3500439392176
 30
0.0000000000000087
 10
2181.595341105129
 20
-680.5656052450888
 30
0.0000000000000087
 10
2180.994498772841
 20
-680.9126758456352
 30
0.0000000000000087
 10
2180.630130496366
 20
-681.0432839436268
 30
0.0000000000000087
 10
2179.84967390828
 20
-681.1825103230784
 30
0.0000000000000087
 10
2179.434361194466
 20
-681.1911013856505
 30
0.0000000000000087
 10
2178.642139822325
 20
-681.0839689463013
 30
0.0000000000000087
 10
2178.265970955648
 20
-680.9682581574556
 30
0.0000000000000087
 10
2177.632763189893
 20
-680.6442539009527
 30
0.0000000000000087
 10
2177.376932737488
 20
-680.4366063915205
 30
0.0000000000000087
 10
2177.028167304834
 20
-679.9888249818423
 30
0.0000000000000087
 10
2176.934100583081
 20
-679.7514670612774
 30
0.0000000000000087
 10
2176.894664166803
 20
-679.2817981734868
 30
0.0000000000000087
 10
2176.947823401639
 20
-679.0450893925183
 30
0.0000000000000087
 10
2177.212118686429
 20
-678.5842306818375
 30
0.0000000000000087
 10
2177.426086793125
 20
-678.3620022262279
 30
0.0000000000000087
 10
2177.992414835611
 20
-677.9937095446044
 30
0.0000000000000087
 10
2178.343550244017
 20
-677.8488601999883
 30
0.0000000000000087
 10
2179.109193058979
 20
-677.6782259143107
 30
0.0000000000000087
 10
2179.522878114873
 20
-677.6524930302324
 30
0.0000000000000087
 10
2180.323766305391
 20
-677.7270069364341
 30
0.0000000000000087
 10
2180.710255129778
 20
-677.8272486897018
 30
0.0000000000000087
 10
2181.373493062543
 20
-678.1264804144793
 30
0.0000000000000087
 10
2181.649099062068
 20
-678.3250226718869
 30
0.0000000000000087
 10
2182.039722320475
 20
-678.7632357750011
 30
0.0000000000000087
 10
2182.155094521918
 20
-679.0001610170655
 30
0.0000000000000087
 10
2182.205202217119
 20
-679.2975097916599
 30
0.0000000000000087
 10
2182.21044215829
 20
-679.3601200337831
 30
0.0000000000000087
 10
2182.210442158289
 20
-679.4227256644934
 30
0.0000000000000087
  0
LINE
  5
1B103
330
18
100
AcDbEntity
  8
01
100
AcDbLine
 10
2180.859480263965
 20
-679.7977256644933
 30
0.0000000000000087
 11
2180.859480263965
 21
-679.0477256644933
 31
0.0000000000000087
  0
LINE
  5
1B108
330
18
100
AcDbEntity
  8
01
100
AcDbLine
 10
2414.060554498024
 20
-448.8056809522902
 30
0.0000000000000087
 11
2414.060554498045
 21
-471.3056809522975
 31
0.0000000000000087
  0
LINE
  5
1B109
330
18
100
AcDbEntity
  8
01
100
AcDbLine
 10
2413.560554498038
 20
-455.3056809522902
 30
0.0000000000000087
 11
2413.560554498053
 21
-471.3056809522975
 31
0.0000000000000087
  0
ARC
  5
1B10A
330
18
100
AcDbEntity
  8
01
100
AcDbCircle
 10
2416.060554498024
 20
-448.8056809522902
 30
0.0000000000000087
 40
2.0
100
AcDbArc
 50
90.0
 51
180.0
  0
ARC
  5
1B10B
330
18
100
AcDbEntity
  8
01
100
AcDbCircle
 10
2413.060554498053
 20
-471.3056809522975
 30
0.0000000000000087
 40
0.5
100
AcDbArc
 50
270.0
 51
0.0
  0
LINE
  5
1B10C
330
18
100
AcDbEntity
  8
01
100
AcDbLine
 10
2414.560554498045
 20
-471.8056809522975
 30
0.0000000000000087
 11
2509.060554498024
 21
-471.8056809516099
 31
0.0000000000000087
  0
ARC
  5
1B10D
330
18
100
AcDbEntity
  8
01
100
AcDbCircle
 10
2509.060554498017
 20
-470.8056809516099
 30
0.0000000000000087
 40
1.0
100
AcDbArc
 50
270.0000000004169
 51
359.9999999999479
  0
ARC
  5
1B10E
330
18
100
AcDbEntity
  8
01
100
AcDbCircle
 10
2414.560554498045
 20
-471.3056809522975
 30
0.0000000000000087
 40
0.5
100
AcDbArc
 50
180.0
 51
270.0
  0
LINE
  5
1B10F
330
18
100
AcDbEntity
  8
01
100
AcDbLine
 10
2413.560554498053
 20
-471.3056809522975
 30
0.0000000000000087
 11
2414.060554498053
 21
-471.3056809522975
 31
0.0000000000000087
  0
ARC
  5
1B110
330
18
100
AcDbEntity
  8
01
100
AcDbCircle
 10
2413.060554498038
 20
-455.3056809522902
 30
0.0000000000000087
 40
0.5
100
AcDbArc
 50
0.0
 51
90.0
  0
LINE
  5
1B111
330
18
100
AcDbEntity
  8
01
100
AcDbLine
 10
2413.560554498031
 20
-455.3056809522902
 30
0.0000000000000087
 11
2414.060554498031
 21
-455.3056809522902
 31
0.0000000000000087
  0
LINE
  5
1B112
330
18
100
AcDbEntity
  8
01
100
AcDbLine
 10
2416.060554498024
 20
-446.8056809522902
 30
0.0000000000000087
 11
2508.060554498038
 21
-446.8056809522902
 31
0.0000000000000087
  0
LINE
  5
1B113
330
18
100
AcDbEntity
  8
01
100
AcDbLine
 10
2510.060554498017
 20
-470.8056809516109
 30
0.0000000000000087
 11
2510.060554498038
 21
-448.8056809522902
 31
0.0000000000000087
  0
ARC
  5
1B114
330
18
100
AcDbEntity
  8
01
100
AcDbCircle
 10
2508.060554498038
 20
-448.8056809522902
 30
0.0000000000000087
 40
2.0
100
AcDbArc
 50
0.0
 51
90.0
  0
ARC
  5
1B115
330
18
100
AcDbEntity
  8
01
100
AcDbCircle
 10
2412.151398022112
 20
-659.3056809512703
 30
0.0000000000000087
 40
0.5
100
AcDbArc
 50
0.0
 51
90.0
  0
ARC
  5
1B116
330
18
100
AcDbEntity
  8
01
100
AcDbCircle
 10
2413.651398022112
 20
-659.3056809512703
 30
0.0000000000000087
 40
0.5
100
AcDbArc
 50
90.0
 51
180.0
  0
LINE
  5
1B117
330
18
100
AcDbEntity
  8
01
100
AcDbLine
 10
2412.651398022112
 20
-659.3056809512703
 30
0.0000000000000087
 11
2413.151398022112
 21
-659.3056809512703
 31
0.0000000000000087
  0
ARC
  5
1B118
330
18
100
AcDbEntity
  8
01
100
AcDbCircle
 10
2509.06043815828
 20
-659.8056809512703
 30
0.0000000000000087
 40
1.0
100
AcDbArc
 50
0.0
 51
90.0
  0
LINE
  5
1B119
330
18
100
AcDbEntity
  8
01
100
AcDbLine
 10
2413.151398022112
 20
-659.3056809512703
 30
0.0000000000000087
 11
2413.151398022112
 21
-666.3056809512703
 31
0.0000000000000087
  0
LINE
  5
1B11A
330
18
100
AcDbEntity
  8
01
100
AcDbLine
 10
2412.651398022112
 20
-659.3056809512703
 30
0.0000000000000087
 11
2412.651398022112
 21
-666.3056809512703
 31
0.0000000000000087
  0
ARC
  5
1B11B
330
18
100
AcDbEntity
  8
01
100
AcDbCircle
 10
2412.151398022112
 20
-666.3056809512703
 30
0.0000000000000087
 40
0.5
100
AcDbArc
 50
270.0
 51
0.0
  0
ARC
  5
1B11C
330
18
100
AcDbEntity
  8
01
100
AcDbCircle
 10
2413.651398022112
 20
-666.3056809512703
 30
0.0000000000000087
 40
0.5
100
AcDbArc
 50
180.0
 51
270.0
  0
LINE
  5
1B11D
330
18
100
AcDbEntity
  8
01
100
AcDbLine
 10
2412.651398022112
 20
-666.3056809512703
 30
0.0000000000000087
 11
2413.151398022112
 21
-666.3056809512703
 31
0.0000000000000087
  0
ARC
  5
1B11E
330
18
100
AcDbEntity
  8
01
100
AcDbCircle
 10
2509.06043815828
 20
-665.8056809512703
 30
0.0000000000000087
 40
1.0
100
AcDbArc
 50
270.0
 51
0.0
  0
LINE
  5
1B11F
330
18
100
AcDbEntity
  8
01
100
AcDbLine
 10
1918.060446158299
 20
-659.8056809512793
 30
0.0000000000000087
 11
1918.060446158299
 21
-665.8056809512793
 31
0.0000000000000087
  0
ARC
  5
1B120
330
18
100
AcDbEntity
  8
01
100
AcDbCircle
 10
2015.969486294467
 20
-659.3056809512764
 30
0.0000000000000087
 40
0.5
100
AcDbArc
 50
90.0
 51
180.0
  0
ARC
  5
1B121
330
18
100
AcDbEntity
  8
01
100
AcDbCircle
 10
2014.469486294467
 20
-659.3056809512764
 30
0.0000000000000087
 40
0.5
100
AcDbArc
 50
0.0
 51
90.0
  0
LINE
  5
1B122
330
18
100
AcDbEntity
  8
01
100
AcDbLine
 10
2015.469486294467
 20
-659.3056809512764
 30
0.0000000000000087
 11
2014.969486294467
 21
-659.3056809512764
 31
0.0000000000000087
  0
ARC
  5
1B123
330
18
100
AcDbEntity
  8
01
100
AcDbCircle
 10
1919.060446158299
 20
-659.8056809512793
 30
0.0000000000000087
 40
1.0
100
AcDbArc
 50
90.0
 51
180.0
  0
LINE
  5
1B124
330
18
100
AcDbEntity
  8
01
100
AcDbLine
 10
2014.969486294467
 20
-659.3056809512764
 30
0.0000000000000087
 11
2014.969486294467
 21
-666.3056809512764
 31
0.0000000000000087
  0
LINE
  5
1B125
330
18
100
AcDbEntity
  8
01
100
AcDbLine
 10
2015.469486294467
 20
-659.3056809512764
 30
0.0000000000000087
 11
2015.469486294467
 21
-666.3056809512764
 31
0.0000000000000087
  0
ARC
  5
1B126
330
18
100
AcDbEntity
  8
01
100
AcDbCircle
 10
2015.969486294467
 20
-666.3056809512764
 30
0.0000000000000087
 40
0.5
100
AcDbArc
 50
180.0
 51
270.0
  0
ARC
  5
1B127
330
18
100
AcDbEntity
  8
01
100
AcDbCircle
 10
2014.469486294467
 20
-666.3056809512764
 30
0.0000000000000087
 40
0.5
100
AcDbArc
 50
270.0
 51
0.0
  0
LINE
  5
1B128
330
18
100
AcDbEntity
  8
01
100
AcDbLine
 10
2015.469486294467
 20
-666.3056809512764
 30
0.0000000000000087
 11
2014.969486294467
 21
-666.3056809512764
 31
0.0000000000000087
  0
ARC
  5
1B129
330
18
100
AcDbEntity
  8
01
100
AcDbCircle
 10
1919.060446158299
 20
-665.8056809512793
 30
0.0000000000000087
 40
1.0
100
AcDbArc
 50
180.0
 51
270.0
  0
LINE
  5
1B12A
330
18
100
AcDbEntity
  8
01
100
AcDbLine
 10
2414.060554498024
 20
-336.8056809523077
 30
0.0000000000000087
 11
2414.060554498045
 21
-314.3056809523005
 31
0.0000000000000087
  0
LINE
  5
1B12B
330
18
100
AcDbEntity
  8
01
100
AcDbLine
 10
2413.560554498038
 20
-330.3056809523077
 30
0.0000000000000087
 11
2413.560554498053
 21
-314.3056809523005
 31
0.0000000000000087
  0
ARC
  5
1B12C
330
18
100
AcDbEntity
  8
01
100
AcDbCircle
 10
2416.060554498024
 20
-336.8056809523077
 30
0.0000000000000087
 40
2.0
100
AcDbArc
 50
180.0
 51
270.0
  0
ARC
  5
1B12D
330
18
100
AcDbEntity
  8
01
100
AcDbCircle
 10
2413.060554498053
 20
-314.3056809523005
 30
0.0000000000000087
 40
0.5
100
AcDbArc
 50
0.0
 51
90.0
  0
LINE
  5
1B12E
330
18
100
AcDbEntity
  8
01
100
AcDbLine
 10
2414.560554498045
 20
-313.8056809523005
 30
0.0000000000000087
 11
2509.060554498024
 21
-313.805680952988
 31
0.0000000000000087
  0
ARC
  5
1B12F
330
18
100
AcDbEntity
  8
01
100
AcDbCircle
 10
2414.560554498045
 20
-314.3056809523005
 30
0.0000000000000087
 40
0.5
100
AcDbArc
 50
90.0
 51
180.0
  0
LINE
  5
1B130
330
18
100
AcDbEntity
  8
01
100
AcDbLine
 10
2413.560554498053
 20
-314.3056809523005
 30
0.0000000000000087
 11
2414.060554498053
 21
-314.3056809523005
 31
0.0000000000000087
  0
ARC
  5
1B131
330
18
100
AcDbEntity
  8
01
100
AcDbCircle
 10
2413.060554498038
 20
-330.3056809523077
 30
0.0000000000000087
 40
0.5
100
AcDbArc
 50
270.0
 51
0.0
  0
LINE
  5
1B132
330
18
100
AcDbEntity
  8
01
100
AcDbLine
 10
2413.560554498031
 20
-330.3056809523077
 30
0.0000000000000087
 11
2414.060554498031
 21
-330.3056809523077
 31
0.0000000000000087
  0
LINE
  5
1B133
330
18
100
AcDbEntity
  8
01
100
AcDbLine
 10
2416.060554498024
 20
-338.8056809523077
 30
0.0000000000000087
 11
2508.060554498038
 21
-338.8056809523077
 31
0.0000000000000087
  0
LINE
  5
1B134
330
18
100
AcDbEntity
  8
01
100
AcDbLine
 10
2510.060554498017
 20
-314.8056809529871
 30
0.0000000000000087
 11
2510.060554498038
 21
-336.8056809523077
 31
0.0000000000000087
  0
ARC
  5
1B135
330
18
100
AcDbEntity
  8
01
100
AcDbCircle
 10
2509.060554498017
 20
-314.805680952988
 30
0.0000000000000087
 40
1.0
100
AcDbArc
 50
0.0000000000521102
 51
89.99999999958311
  0
ARC
  5
1B136
330
18
100
AcDbEntity
  8
01
100
AcDbCircle
 10
2508.060554498038
 20
-336.8056809523077
 30
0.0000000000000087
 40
2.0
100
AcDbArc
 50
270.0
 51
0.0
  0
LINE
  5
1B1B7
330
18
100
AcDbEntity
  8
01
  6
BYBLOCK
100
AcDbLine
 10
2026.848756359721
 20
-678.8056809512701
 30
0.0000000000000087
 11
2026.060670837781
 21
-678.8056809512701
 31
0.0000000000000087
  0
LINE
  5
1B1B8
330
18
100
AcDbEntity
  8
01
  6
BYBLOCK
100
AcDbLine
 10
2026.060670837781
 20
-677.9136258810108
 30
-0.0000000000000538
 11
2026.060670837781
 21
-678.8056809512701
 31
-0.0000000000000563
  0
TEXT
  5
1B1D4
330
18
100
AcDbEntity
  8
1TEXT
100
AcDbText
 10
2048.176905148401
 20
-421.3086723176997
 30
0.0
 40
6.0
  1
クローム
 72
     4
 11
2062.376905148401
 21
-418.2086723176997
 31
0.0
100
AcDbText
  0
TEXT
  5
1B1D5
330
18
100
AcDbEntity
  8
1TEXT
100
AcDbText
 10
2038.0769051484
 20
-441.5902274387062
 30
0.0
 40
6.0
  1
ダークアンバー
 72
     4
 11
2062.3769051484
 21
-438.3902274387062
 31
0.0
100
AcDbText
  0
LINE
  5
1B1D6
330
18
100
AcDbEntity
  8
1DIM
100
AcDbLine
 10
2036.1269051484
 20
-401.8772412814553
 30
0.0
 11
2193.626905148401
 21
-401.8772412814553
 31
0.0
  0
LINE
  5
1B1D7
330
18
100
AcDbEntity
  8
1DIM
100
AcDbLine
 10
2193.626905148401
 20
-401.8772412814553
 30
0.0
 11
2193.626905148401
 21
-443.8772412814553
 31
0.0
  0
LINE
  5
1B1D8
330
18
100
AcDbEntity
  8
1DIM
100
AcDbLine
 10
2036.1269051484
 20
-443.8772412814553
 30
0.0
 11
2036.1269051484
 21
-401.8772412814553
 31
0.0
  0
LINE
  5
1B1D9
330
18
100
AcDbEntity
  8
1DIM
100
AcDbLine
 10
2036.1269051484
 20
-412.3772412814553
 30
0.0
 11
2193.626905148401
 21
-412.3772412814553
 31
0.0
  0
LINE
  5
1B1DA
330
18
100
AcDbEntity
  8
1DIM
100
AcDbLine
 10
2141.126905148404
 20
-443.8772412814553
 30
0.0
 11
2141.126905148405
 21
-401.8772412814553
 31
0.0
  0
LINE
  5
1B1DB
330
18
100
AcDbEntity
  8
1DIM
100
AcDbLine
 10
2088.6269051484
 20
-401.8772412814553
 30
0.0
 11
2088.626905148401
 21
-443.8772412814553
 31
0.0
  0
LINE
  5
1B1DC
330
18
100
AcDbEntity
  8
1DIM
100
AcDbLine
 10
2036.1269051484
 20
-422.8772412814554
 30
0.0
 11
2193.626905148401
 21
-422.8772412814553
 31
0.0
  0
LINE
  5
1B1DD
330
18
100
AcDbEntity
  8
1DIM
100
AcDbLine
 10
2036.1269051484
 20
-433.3772412814553
 30
0.0
 11
2193.626905148401
 21
-433.3772412814553
 31
0.0
  0
TEXT
  5
1B1DE
330
18
100
AcDbEntity
  8
1TEXT
100
AcDbText
 10
2037.526905148401
 20
-410.1272412814553
 30
0.0
 40
6.0
  1
表面処理：脚部
 72
     1
 11
2062.226905148401
 21
-410.1272412814553
 31
0.0
100
AcDbText
  0
TEXT
  5
1B1DF
330
18
100
AcDbEntity
  8
1TEXT
100
AcDbText
 10
2156.926905148401
 20
-410.1272412814553
 30
0.0
 40
6.0
  1
コード
 72
     1
 11
2167.226905148401
 21
-410.1272412814553
 31
0.0
100
AcDbText
  0
TEXT
  5
1B1E0
330
18
100
AcDbEntity
  8
1TEXT
100
AcDbText
 10
2090.826905148401
 20
-410.1272412814553
 30
0.0
 40
6.0
  1
表面処理：握り
 72
     1
 11
2114.726905148401
 21
-410.1272412814553
 31
0.0
100
AcDbText
  0
TEXT
  5
1B1E1
330
18
100
AcDbEntity
  8
1TEXT
100
AcDbText
 10
2100.526905148402
 20
-420.9487767569296
 30
0.0
 40
6.0
  1
クローム
 72
     1
 11
2114.726905148402
 21
-420.9487767569296
 31
0.0
100
AcDbText
  0
TEXT
  5
1B1E2
330
18
100
AcDbEntity
  8
1TEXT
100
AcDbText
 10
2147.62593292618
 20
-420.9487767569306
 30
0.0
 40
6.0
  1
1-M9C-C-LJ
 41
0.7
 72
     1
 11
2167.226905148402
 21
-420.9487767569306
 31
0.0
100
AcDbText
  0
TEXT
  5
1B1E3
330
18
100
AcDbEntity
  8
1TEXT
100
AcDbText
 10
2147.62593292618
 20
-431.4487767569306
 30
0.0
 40
6.0
  1
1-M9C-N-LJ
 41
0.7
 72
     1
 11
2167.226905148402
 21
-431.4487767569306
 31
0.0
100
AcDbText
  0
LINE
  5
1B1E4
330
18
100
AcDbEntity
  8
1DIM
100
AcDbLine
 10
2036.1269051484
 20
-443.8772412814553
 30
0.0
 11
2193.626905148401
 21
-443.8772412814553
 31
0.0
  0
TEXT
  5
1B1E5
330
18
100
AcDbEntity
  8
1TEXT
100
AcDbText
 10
2145.525932926178
 20
-441.9487767569306
 30
0.0
 40
6.0
  1
1-M9C-4Q-LJ
 41
0.7
 72
     1
 11
2167.226905148401
 21
-441.9487767569306
 31
0.0
100
AcDbText
  0
TEXT
  5
1B1E6
330
18
100
AcDbEntity
  8
1TEXT
100
AcDbText
 10
2037.5769051484
 20
-431.5598752841721
 30
0.0
 40
6.0
  1
サテンニッケル
 72
     4
 11
2062.3769051484
 21
-428.6598752841721
 31
0.0
100
AcDbText
  0
TEXT
  5
1B1E7
330
18
100
AcDbEntity
  8
1TEXT
100
AcDbText
 10
2090.576905148399
 20
-441.5902274387062
 30
0.0
 40
6.0
  1
ダークアンバー
 72
     4
 11
2114.8769051484
 21
-438.3902274387062
 31
0.0
100
AcDbText
  0
TEXT
  5
1B1E8
330
18
100
AcDbEntity
  8
1TEXT
100
AcDbText
 10
2090.076905148399
 20
-431.5598752841721
 30
0.0
 40
6.0
  1
サテンニッケル
 72
     4
 11
2114.8769051484
 21
-428.6598752841721
 31
0.0
100
AcDbText
  0
LINE
  5
1B1F9
330
18
100
AcDbEntity
  8
1CENTER
100
AcDbLine
 10
2384.060554498034
 20
-442.8056809522988
 30
0.0000000000000087
 11
2384.060554498034
 21
-407.805680952299
 31
0.0000000000000087
  0
TEXT
  5
1B42F
330
18
100
AcDbEntity
  8
01
  6
CONTINUOUS
100
AcDbText
 10
2295.063599251308
 20
-438.1316322685125
 30
0.0000000000000087
 40
4.55
  1
材質：亜鉛ダイキャスト
100
AcDbText
  0
TEXT
  5
1B430
330
18
100
AcDbEntity
  8
01
  6
CONTINUOUS
100
AcDbText
 10
2305.376932584641
 20
-445.7149656018458
 30
0.0000000000000087
 40
4.55
  1
仕上げ：各種メッキ
100
AcDbText
  0
LINE
  5
1B431
330
18
100
AcDbEntity
  8
01
100
AcDbLine
 10
2322.06043815829
 20
-634.8056816494017
 30
0.0
 11
2322.06043815829
 21
-532.0841888665824
 31
0.0
1001
ACAD
1000
DSTYLE
1002
{
1070
    40
1040
1.3
1070
    45
1040
0.5
1002
}
  0
LINE
  5
1B432
330
18
100
AcDbEntity
  8
01
100
AcDbLine
 10
2333.06043815829
 20
-576.9343636001128
 30
0.0
 11
2333.06043815829
 21
-532.0841888665824
 31
0.0
1001
ACAD
1000
DSTYLE
1002
{
1070
    40
1040
1.3
1070
    45
1040
0.5
1002
}
  0
LINE
  5
1B433
330
18
100
AcDbEntity
  8
01
100
AcDbLine
 10
2324.66043815829
 20
-533.3841888665823
 30
0.0
 11
2330.46043815829
 21
-533.3841888665823
 31
0.0
1001
ACAD
1000
DSTYLE
1002
{
1070
    40
1040
1.3
1070
    45
1040
0.5
1002
}
  0
LINE
  5
1B437
330
18
100
AcDbEntity
  8
01
100
AcDbLine
 10
2402.06043815829
 20
-604.8056809512703
 30
0.0
 11
2430.36043815829
 21
-604.8056809512703
 31
0.0
1001
ACAD
1000
DSTYLE
1002
{
1070
    40
1040
1.3
1070
    45
1040
0.5
1002
}
  0
LINE
  5
1B438
330
18
100
AcDbEntity
  8
01
100
AcDbLine
 10
2402.06043815829
 20
-678.8056809512708
 30
0.0
 11
2430.36043815829
 21
-678.8056809512708
 31
0.0
1001
ACAD
1000
DSTYLE
1002
{
1070
    40
1040
1.3
1070
    45
1040
0.5
1002
}
  0
LINE
  5
1B439
330
18
100
AcDbEntity
  8
01
100
AcDbLine
 10
2429.06043815829
 20
-607.4056809512704
 30
0.0
 11
2429.06043815829
 21
-676.2056809512708
 31
0.0
1001
ACAD
1000
DSTYLE
1002
{
1070
    40
1040
1.3
1070
    45
1040
0.5
1002
}
  0
LINE
  5
1B43D
330
18
100
AcDbEntity
  8
01
100
AcDbLine
 10
2402.06043815829
 20
-604.8056809512703
 30
0.0
 11
2402.06043815829
 21
-522.0043213985342
 31
0.0
1001
ACAD
1000
DSTYLE
1002
{
1070
    40
1040
1.3
1070
    45
1040
0.5
1002
}
  0
LINE
  5
1B43E
330
18
100
AcDbEntity
  8
01
100
AcDbLine
 10
2333.06043815829
 20
-576.9343636001128
 30
0.0
 11
2333.06043815829
 21
-522.0043213985342
 31
0.0
1001
ACAD
1000
DSTYLE
1002
{
1070
    40
1040
1.3
1070
    45
1040
0.5
1002
}
  0
LINE
  5
1B43F
330
18
100
AcDbEntity
  8
01
100
AcDbLine
 10
2399.46043815829
 20
-523.3043213985342
 30
0.0
 11
2335.66043815829
 21
-523.3043213985342
 31
0.0
1001
ACAD
1000
DSTYLE
1002
{
1070
    40
1040
1.3
1070
    45
1040
0.5
1002
}
  0
LINE
  5
1B443
330
18
100
AcDbEntity
  8
01
100
AcDbLine
 10
2333.06043815829
 20
-576.9343636001128
 30
0.0
 11
2333.06043815829
 21
-532.0841888665824
 31
0.0
1001
ACAD
1000
DSTYLE
1002
{
1070
    40
1040
1.3
1070
    45
1040
0.5
1002
}
  0
LINE
  5
1B444
330
18
100
AcDbEntity
  8
01
100
AcDbLine
 10
2384.06043815829
 20
-612.8056809512703
 30
0.0
 11
2384.06043815829
 21
-532.0841888665824
 31
0.0
1001
ACAD
1000
DSTYLE
1002
{
1070
    40
1040
1.3
1070
    45
1040
0.5
1002
}
  0
LINE
  5
1B445
330
18
100
AcDbEntity
  8
01
100
AcDbLine
 10
2335.66043815829
 20
-533.3841888665823
 30
0.0
 11
2381.46043815829
 21
-533.3841888665823
 31
0.0
1001
ACAD
1000
DSTYLE
1002
{
1070
    40
1040
1.3
1070
    45
1040
0.5
1002
}
  0
LINE
  5
1B449
330
18
100
AcDbEntity
  8
01
100
AcDbLine
 10
2201.560554498034
 20
-582.8056809512708
 30
0.0
 11
2201.560554498034
 21
-532.0841888665826
 31
0.0
1001
ACAD
1000
DSTYLE
1002
{
1070
    40
1040
1.3
1070
    45
1040
0.5
1002
}
  0
LINE
  5
1B44A
330
18
100
AcDbEntity
  8
01
100
AcDbLine
 10
2226.560554498034
 20
-582.8056809512708
 30
0.0
 11
2226.560554498034
 21
-532.0841888665826
 31
0.0
1001
ACAD
1000
DSTYLE
1002
{
1070
    40
1040
1.3
1070
    45
1040
0.5
1002
}
  0
LINE
  5
1B44B
330
18
100
AcDbEntity
  8
01
100
AcDbLine
 10
2204.160554498034
 20
-533.3841888665826
 30
0.0
 11
2223.960554498035
 21
-533.3841888665826
 31
0.0
1001
ACAD
1000
DSTYLE
1002
{
1070
    40
1040
1.3
1070
    45
1040
0.5
1002
}
  0
LINE
  5
1B44F
330
18
100
AcDbEntity
  8
01
100
AcDbLine
 10
2219.86249410127
 20
-584.8052358068545
 30
0.0
 11
2300.148625269479
 21
-584.8052358068545
 31
0.0
1001
ACAD
1000
DSTYLE
1002
{
1070
    40
1040
1.3
1070
    45
1040
0.5
1002
}
  0
LINE
  5
1B450
330
18
100
AcDbEntity
  8
01
100
AcDbLine
 10
2219.86249410127
 20
-698.8052358068545
 30
0.0
 11
2300.148625269479
 21
-698.8052358068545
 31
0.0
1001
ACAD
1000
DSTYLE
1002
{
1070
    40
1040
1.3
1070
    45
1040
0.5
1002
}
  0
LINE
  5
1B451
330
18
100
AcDbEntity
  8
01
100
AcDbLine
 10
2298.848625269478
 20
-587.4052358068545
 30
0.0
 11
2298.848625269478
 21
-696.2052358068545
 31
0.0
1001
ACAD
1000
DSTYLE
1002
{
1070
    40
1040
1.3
1070
    45
1040
0.5
1002
}
  0
LINE
  5
1B455
330
18
100
AcDbEntity
  8
01
100
AcDbLine
 10
2220.460554498034
 20
-576.9056809512709
 30
0.0
 11
2309.512959435703
 21
-576.9056809512709
 31
0.0
1001
ACAD
1000
DSTYLE
1002
{
1070
    40
1040
1.3
1070
    45
1040
0.5
1002
}
  0
LINE
  5
1B456
330
18
100
AcDbEntity
  8
01
100
AcDbLine
 10
2220.387468693364
 20
-706.7052358068544
 30
0.0
 11
2309.512959435703
 21
-706.7052358068544
 31
0.0
1001
ACAD
1000
DSTYLE
1002
{
1070
    40
1040
1.3
1070
    45
1040
0.5
1002
}
  0
LINE
  5
1B457
330
18
100
AcDbEntity
  8
01
100
AcDbLine
 10
2308.212959435703
 20
-579.505680951271
 30
0.0
 11
2308.212959435703
 21
-704.1052358068544
 31
0.0
1001
ACAD
1000
DSTYLE
1002
{
1070
    40
1040
1.3
1070
    45
1040
0.5
1002
}
  0
TEXT
  5
1B45B
330
18
100
AcDbEntity
  8
01
  6
CONTINUOUS
100
AcDbText
 10
2295.063482911563
 20
-467.2344962700051
 30
0.0000000000000087
 40
4.55
  1
材質：亜鉛ダイキャスト
100
AcDbText
  0
TEXT
  5
1B45C
330
18
100
AcDbEntity
  8
01
  6
CONTINUOUS
100
AcDbText
 10
2305.376816244896
 20
-474.8178296033385
 30
0.0000000000000087
 40
4.55
  1
仕上げ：各種メッキ
100
AcDbText
  0
LINE
  5
1B45D
330
18
100
AcDbEntity
  8
01
  6
BYBLOCK
100
AcDbLine
 10
2324.66043815829
 20
-534.0808567605824
 30
0.0
 11
2322.06043815829
 21
-533.3841888665823
 31
0.0
  0
LINE
  5
1B45E
330
18
100
AcDbEntity
  8
01
  6
BYBLOCK
100
AcDbLine
 10
2322.06043815829
 20
-533.3841888665823
 30
0.0
 11
2324.66043815829
 21
-532.6875209725823
 31
0.0
  0
LINE
  5
1B45F
330
18
100
AcDbEntity
  8
01
  6
BYBLOCK
100
AcDbLine
 10
2322.06043815829
 20
-533.3841888665823
 30
0.0
 11
2324.66043815829
 21
-533.3841888665823
 31
0.0
  0
LINE
  5
1B460
330
18
100
AcDbEntity
  8
01
  6
BYBLOCK
100
AcDbLine
 10
2330.46043815829
 20
-532.6875209725823
 30
0.0
 11
2333.06043815829
 21
-533.3841888665823
 31
0.0
  0
LINE
  5
1B461
330
18
100
AcDbEntity
  8
01
  6
BYBLOCK
100
AcDbLine
 10
2333.06043815829
 20
-533.3841888665823
 30
0.0
 11
2330.46043815829
 21
-534.0808567605824
 31
0.0
  0
LINE
  5
1B462
330
18
100
AcDbEntity
  8
01
  6
BYBLOCK
100
AcDbLine
 10
2333.06043815829
 20
-533.3841888665823
 30
0.0
 11
2330.46043815829
 21
-533.3841888665823
 31
0.0
  0
TEXT
  5
1B463
330
18
100
AcDbEntity
  8
01
  6
CONTINUOUS
100
AcDbText
 10
2325.28543815829
 20
-532.4741888665824
 30
0.0
 40
4.55
  1
11
100
AcDbText
1001
ACAD
1000
DSTYLE
1002
{
1070
    40
1040
1.3
1070
    45
1040
0.5
1002
}
  0
LINE
  5
1B464
330
18
100
AcDbEntity
  8
01
  6
BYBLOCK
100
AcDbLine
 10
2428.36377026429
 20
-607.4056809512704
 30
0.0
 11
2429.06043815829
 21
-604.8056809512703
 31
0.0
  0
LINE
  5
1B465
330
18
100
AcDbEntity
  8
01
  6
BYBLOCK
100
AcDbLine
 10
2429.06043815829
 20
-604.8056809512703
 30
0.0
 11
2429.75710605229
 21
-607.4056809512704
 31
0.0
  0
LINE
  5
1B466
330
18
100
AcDbEntity
  8
01
  6
BYBLOCK
100
AcDbLine
 10
2429.06043815829
 20
-604.8056809512703
 30
0.0
 11
2429.06043815829
 21
-607.4056809512704
 31
0.0
  0
LINE
  5
1B467
330
18
100
AcDbEntity
  8
01
  6
BYBLOCK
100
AcDbLine
 10
2429.75710605229
 20
-676.2056809512708
 30
0.0
 11
2429.06043815829
 21
-678.8056809512708
 31
0.0
  0
LINE
  5
1B468
330
18
100
AcDbEntity
  8
01
  6
BYBLOCK
100
AcDbLine
 10
2429.06043815829
 20
-678.8056809512708
 30
0.0
 11
2428.36377026429
 21
-676.2056809512708
 31
0.0
  0
LINE
  5
1B469
330
18
100
AcDbEntity
  8
01
  6
BYBLOCK
100
AcDbLine
 10
2429.06043815829
 20
-678.8056809512708
 30
0.0
 11
2429.06043815829
 21
-676.2056809512708
 31
0.0
  0
TEXT
  5
1B46A
330
18
100
AcDbEntity
  8
01
  6
CONTINUOUS
100
AcDbText
 10
2428.15043815829
 20
-623.8343368652518
 30
0.0
 40
4.55
  1
74
 50
90.0
100
AcDbText
1001
ACAD
1000
DSTYLE
1002
{
1070
    40
1040
1.3
1070
    45
1040
0.5
1002
}
  0
LINE
  5
1B46B
330
18
100
AcDbEntity
  8
01
  6
BYBLOCK
100
AcDbLine
 10
2399.46043815829
 20
-522.6076535045341
 30
0.0
 11
2402.06043815829
 21
-523.3043213985342
 31
0.0
  0
LINE
  5
1B46C
330
18
100
AcDbEntity
  8
01
  6
BYBLOCK
100
AcDbLine
 10
2402.06043815829
 20
-523.3043213985342
 30
0.0
 11
2399.46043815829
 21
-524.0009892925342
 31
0.0
  0
LINE
  5
1B46D
330
18
100
AcDbEntity
  8
01
  6
BYBLOCK
100
AcDbLine
 10
2402.06043815829
 20
-523.3043213985342
 30
0.0
 11
2399.46043815829
 21
-523.3043213985342
 31
0.0
  0
LINE
  5
1B46E
330
18
100
AcDbEntity
  8
01
  6
BYBLOCK
100
AcDbLine
 10
2335.66043815829
 20
-524.0009892925342
 30
0.0
 11
2333.06043815829
 21
-523.3043213985342
 31
0.0
  0
LINE
  5
1B46F
330
18
100
AcDbEntity
  8
01
  6
BYBLOCK
100
AcDbLine
 10
2333.06043815829
 20
-523.3043213985342
 30
0.0
 11
2335.66043815829
 21
-522.6076535045341
 31
0.0
  0
LINE
  5
1B470
330
18
100
AcDbEntity
  8
01
  6
BYBLOCK
100
AcDbLine
 10
2333.06043815829
 20
-523.3043213985342
 30
0.0
 11
2335.66043815829
 21
-523.3043213985342
 31
0.0
  0
TEXT
  5
1B471
330
18
100
AcDbEntity
  8
01
  6
CONTINUOUS
100
AcDbText
 10
2363.751919639771
 20
-522.3943213985342
 30
0.0
 40
4.55
  1
69
100
AcDbText
1001
ACAD
1000
DSTYLE
1002
{
1070
    40
1040
1.3
1070
    45
1040
0.5
1002
}
  0
LINE
  5
1B472
330
18
100
AcDbEntity
  8
01
  6
BYBLOCK
100
AcDbLine
 10
2335.66043815829
 20
-534.0808567605824
 30
0.0
 11
2333.06043815829
 21
-533.3841888665823
 31
0.0
  0
LINE
  5
1B473
330
18
100
AcDbEntity
  8
01
  6
BYBLOCK
100
AcDbLine
 10
2333.06043815829
 20
-533.3841888665823
 30
0.0
 11
2335.66043815829
 21
-532.6875209725823
 31
0.0
  0
LINE
  5
1B474
330
18
100
AcDbEntity
  8
01
  6
BYBLOCK
100
AcDbLine
 10
2333.06043815829
 20
-533.3841888665823
 30
0.0
 11
2335.66043815829
 21
-533.3841888665823
 31
0.0
  0
LINE
  5
1B475
330
18
100
AcDbEntity
  8
01
  6
BYBLOCK
100
AcDbLine
 10
2381.46043815829
 20
-532.6875209725823
 30
0.0
 11
2384.06043815829
 21
-533.3841888665823
 31
0.0
  0
LINE
  5
1B476
330
18
100
AcDbEntity
  8
01
  6
BYBLOCK
100
AcDbLine
 10
2384.06043815829
 20
-533.3841888665823
 30
0.0
 11
2381.46043815829
 21
-534.0808567605824
 31
0.0
  0
LINE
  5
1B477
330
18
100
AcDbEntity
  8
01
  6
BYBLOCK
100
AcDbLine
 10
2384.06043815829
 20
-533.3841888665823
 30
0.0
 11
2381.46043815829
 21
-533.3841888665823
 31
0.0
  0
TEXT
  5
1B478
330
18
100
AcDbEntity
  8
01
  6
CONTINUOUS
100
AcDbText
 10
2355.511306213845
 20
-532.4741888665824
 30
0.0
 40
4.55
  1
51
100
AcDbText
1001
ACAD
1000
DSTYLE
1002
{
1070
    40
1040
1.3
1070
    45
1040
0.5
1002
}
  0
LINE
  5
1B479
330
18
100
AcDbEntity
  8
01
  6
BYBLOCK
100
AcDbLine
 10
2204.160554498034
 20
-534.0808567605826
 30
0.0
 11
2201.560554498034
 21
-533.3841888665826
 31
0.0
  0
LINE
  5
1B47A
330
18
100
AcDbEntity
  8
01
  6
BYBLOCK
100
AcDbLine
 10
2201.560554498034
 20
-533.3841888665826
 30
0.0
 11
2204.160554498034
 21
-532.6875209725825
 31
0.0
  0
LINE
  5
1B47B
330
18
100
AcDbEntity
  8
01
  6
BYBLOCK
100
AcDbLine
 10
2201.560554498034
 20
-533.3841888665826
 30
0.0
 11
2204.160554498034
 21
-533.3841888665826
 31
0.0
  0
LINE
  5
1B47C
330
18
100
AcDbEntity
  8
01
  6
BYBLOCK
100
AcDbLine
 10
2223.960554498035
 20
-532.6875209725825
 30
0.0
 11
2226.560554498034
 21
-533.3841888665826
 31
0.0
  0
LINE
  5
1B47D
330
18
100
AcDbEntity
  8
01
  6
BYBLOCK
100
AcDbLine
 10
2226.560554498034
 20
-533.3841888665826
 30
0.0
 11
2223.960554498035
 21
-534.0808567605826
 31
0.0
  0
LINE
  5
1B47E
330
18
100
AcDbEntity
  8
01
  6
BYBLOCK
100
AcDbLine
 10
2226.560554498034
 20
-533.3841888665826
 30
0.0
 11
2223.960554498035
 21
-533.3841888665826
 31
0.0
  0
TEXT
  5
1B47F
330
18
100
AcDbEntity
  8
01
  6
CONTINUOUS
100
AcDbText
 10
2210.268887831368
 20
-532.4741888665826
 30
0.0
 40
4.55
  1
25
100
AcDbText
1001
ACAD
1000
DSTYLE
1002
{
1070
    40
1040
1.3
1070
    45
1040
0.5
1002
}
  0
LINE
  5
1B480
330
18
100
AcDbEntity
  8
01
  6
BYBLOCK
100
AcDbLine
 10
2298.151957375479
 20
-587.4052358068545
 30
0.0
 11
2298.848625269478
 21
-584.8052358068545
 31
0.0
  0
LINE
  5
1B481
330
18
100
AcDbEntity
  8
01
  6
BYBLOCK
100
AcDbLine
 10
2298.848625269478
 20
-584.8052358068545
 30
0.0
 11
2299.545293163478
 21
-587.4052358068545
 31
0.0
  0
LINE
  5
1B482
330
18
100
AcDbEntity
  8
01
  6
BYBLOCK
100
AcDbLine
 10
2298.848625269478
 20
-584.8052358068545
 30
0.0
 11
2298.848625269478
 21
-587.4052358068545
 31
0.0
  0
LINE
  5
1B483
330
18
100
AcDbEntity
  8
01
  6
BYBLOCK
100
AcDbLine
 10
2299.545293163478
 20
-696.2052358068545
 30
0.0
 11
2298.848625269478
 21
-698.8052358068545
 31
0.0
  0
LINE
  5
1B484
330
18
100
AcDbEntity
  8
01
  6
BYBLOCK
100
AcDbLine
 10
2298.848625269478
 20
-698.8052358068545
 30
0.0
 11
2298.151957375479
 21
-696.2052358068545
 31
0.0
  0
LINE
  5
1B485
330
18
100
AcDbEntity
  8
01
  6
BYBLOCK
100
AcDbLine
 10
2298.848625269478
 20
-698.8052358068545
 30
0.0
 11
2298.848625269478
 21
-696.2052358068545
 31
0.0
  0
TEXT
  5
1B486
330
18
100
AcDbEntity
  8
01
  6
CONTINUOUS
100
AcDbText
 10
2297.938625269479
 20
-617.2222134589329
 30
0.0
 40
4.55
  1
114
 50
90.0
100
AcDbText
1001
ACAD
1000
DSTYLE
1002
{
1070
    40
1040
1.3
1070
    45
1040
0.5
1002
}
  0
LINE
  5
1B487
330
18
100
AcDbEntity
  8
01
  6
BYBLOCK
100
AcDbLine
 10
2307.516291541703
 20
-579.505680951271
 30
0.0
 11
2308.212959435703
 21
-576.9056809512709
 31
0.0
  0
LINE
  5
1B488
330
18
100
AcDbEntity
  8
01
  6
BYBLOCK
100
AcDbLine
 10
2308.212959435703
 20
-576.9056809512709
 30
0.0
 11
2308.909627329703
 21
-579.505680951271
 31
0.0
  0
LINE
  5
1B489
330
18
100
AcDbEntity
  8
01
  6
BYBLOCK
100
AcDbLine
 10
2308.212959435703
 20
-576.9056809512709
 30
0.0
 11
2308.212959435703
 21
-579.505680951271
 31
0.0
  0
LINE
  5
1B48A
330
18
100
AcDbEntity
  8
01
  6
BYBLOCK
100
AcDbLine
 10
2308.909627329703
 20
-704.1052358068544
 30
0.0
 11
2308.212959435703
 21
-706.7052358068544
 31
0.0
  0
LINE
  5
1B48B
330
18
100
AcDbEntity
  8
01
  6
BYBLOCK
100
AcDbLine
 10
2308.212959435703
 20
-706.7052358068544
 30
0.0
 11
2307.516291541703
 21
-704.1052358068544
 31
0.0
  0
LINE
  5
1B48C
330
18
100
AcDbEntity
  8
01
  6
BYBLOCK
100
AcDbLine
 10
2308.212959435703
 20
-706.7052358068544
 30
0.0
 11
2308.212959435703
 21
-704.1052358068544
 31
0.0
  0
TEXT
  5
1B48D
330
18
100
AcDbEntity
  8
01
  6
CONTINUOUS
100
AcDbText
 10
2307.302959435703
 20
-618.0067774617405
 30
0.0
 40
4.55
  1
130
 50
90.0
100
AcDbText
1001
ACAD
1000
DSTYLE
1002
{
1070
    40
1040
1.3
1070
    45
1040
0.5
1002
}
  0
SOLID
  5
1B48E
330
18
100
AcDbEntity
  8
1DIM
100
AcDbTrace
 10
2381.430287513036
 20
-426.7657226557611
 30
0.0000000000000087
 11
2383.80103939835
 21
-425.6136318277207
 31
0.0000000000000087
 12
2381.932087342958
 22
-427.4723399792123
 32
0.0000000000000087
 13
2381.932087342958
 23
-427.4723399792123
 33
0.0000000000000087
1001
ACAD
1000
DSTYLE
1002
{
1070
    40
1040
1.3
1070
    45
1040
0.5
1002
}
  0
LINE
  5
1B48F
330
18
100
AcDbEntity
  8
1DIM
100
AcDbLine
 10
2381.681187427997
 20
-427.1190313174866
 30
0.0000000000000087
 11
2354.213599251308
 21
-446.6249656018459
 31
0.0000000000000087
1001
ACAD
1000
DSTYLE
1002
{
1070
    40
1040
1.3
1070
    45
1040
0.5
1002
}
  0
LINE
  5
1B490
330
18
100
AcDbEntity
  8
1DIM
100
AcDbLine
 10
2400.461322340349
 20
-383.305680952299
 30
0.0
 11
2421.021713100063
 21
-383.305680952299
 31
0.0
1001
ACAD
1000
DSTYLE
1002
{
1070
    45
1040
0.5
1070
    40
1040
1.3
1002
}
  0
LINE
  5
1B491
330
18
100
AcDbEntity
  8
1DIM
100
AcDbLine
 10
2402.06132234035
 20
-402.1056809522989
 30
0.0
 11
2421.021713100063
 21
-402.1056809522989
 31
0.0
1001
ACAD
1000
DSTYLE
1002
{
1070
    45
1040
0.5
1070
    40
1040
1.3
1002
}
  0
LINE
  5
1B492
330
18
100
AcDbEntity
  8
1DIM
100
AcDbLine
 10
2419.721713100063
 20
-385.905680952299
 30
0.0
 11
2419.721713100063
 21
-399.5056809522989
 31
0.0
1001
ACAD
1000
DSTYLE
1002
{
1070
    45
1040
0.5
1070
    40
1040
1.3
1002
}
  0
LINE
  5
1B496
330
18
100
AcDbEntity
  8
1DIM
100
AcDbLine
 10
2509.860438158281
 20
-471.8069992643785
 30
0.0
 11
2539.660438158273
 21
-471.8069992643785
 31
0.0
1001
ACAD
1000
DSTYLE
1002
{
1070
    40
1040
1.3
1002
}
  0
LINE
  5
1B497
330
18
100
AcDbEntity
  8
1DIM
100
AcDbLine
 10
2487.015586155636
 20
-412.8069992643731
 30
0.0
 11
2539.660438158273
 21
-412.8069992643731
 31
0.0
1001
ACAD
1000
DSTYLE
1002
{
1070
    40
1040
1.3
1002
}
  0
LINE
  5
1B498
330
18
100
AcDbEntity
  8
1DIM
100
AcDbLine
 10
2538.360438158273
 20
-469.2069992643785
 30
0.0
 11
2538.360438158273
 21
-415.4069992643731
 31
0.0
1001
ACAD
1000
DSTYLE
1002
{
1070
    40
1040
1.3
1002
}
  0
LINE
  5
1B49C
330
18
100
AcDbEntity
  8
1DIM
100
AcDbLine
 10
2508.860438158289
 20
-446.8069992643781
 30
0.0
 11
2529.660438158273
 21
-446.8069992643781
 31
0.0
1001
ACAD
1000
DSTYLE
1002
{
1070
    40
1040
1.3
1002
}
  0
LINE
  5
1B49D
330
18
100
AcDbEntity
  8
1DIM
100
AcDbLine
 10
2487.015586155636
 20
-412.8069992643731
 30
0.0
 11
2529.660438158273
 21
-412.8069992643731
 31
0.0
1001
ACAD
1000
DSTYLE
1002
{
1070
    40
1040
1.3
1002
}
  0
LINE
  5
1B49E
330
18
100
AcDbEntity
  8
1DIM
100
AcDbLine
 10
2528.360438158273
 20
-444.2069992643781
 30
0.0
 11
2528.360438158273
 21
-415.4069992643731
 31
0.0
1001
ACAD
1000
DSTYLE
1002
{
1070
    40
1040
1.3
1002
}
  0
LINE
  5
1B4A2
330
18
100
AcDbEntity
  8
1DIM
100
AcDbLine
 10
2384.06043815829
 20
-439.3617387998319
 30
0.0
 11
2384.06043815829
 21
-486.6069992643976
 31
0.0
1001
ACAD
1000
DSTYLE
1002
{
1070
    45
1040
0.5
1070
    40
1040
1.3
1002
}
  0
LINE
  5
1B4A3
330
18
100
AcDbEntity
  8
1DIM
100
AcDbLine
 10
2509.860438158281
 20
-471.8069992643785
 30
0.0
 11
2509.860438158281
 21
-486.6069992643976
 31
0.0
1001
ACAD
1000
DSTYLE
1002
{
1070
    45
1040
0.5
1070
    40
1040
1.3
1002
}
  0
LINE
  5
1B4A4
330
18
100
AcDbEntity
  8
1DIM
100
AcDbLine
 10
2386.66043815829
 20
-485.3069992643976
 30
0.0
 11
2507.260438158281
 21
-485.3069992643976
 31
0.0
1001
ACAD
1000
DSTYLE
1002
{
1070
    45
1040
0.5
1070
    40
1040
1.3
1002
}
  0
LINE
  5
1B4A8
330
18
100
AcDbEntity
  8
1DIM
100
AcDbLine
 10
2357.360438158274
 20
-469.8069992643785
 30
0.0
 11
2357.360438158274
 21
-493.106999264379
 31
0.0
1001
ACAD
1000
DSTYLE
1002
{
1070
    40
1040
1.3
1002
}
  0
LINE
  5
1B4A9
330
18
100
AcDbEntity
  8
1DIM
100
AcDbLine
 10
2509.860438158281
 20
-471.8069992643785
 30
0.0
 11
2509.860438158281
 21
-493.106999264379
 31
0.0
1001
ACAD
1000
DSTYLE
1002
{
1070
    40
1040
1.3
1002
}
  0
LINE
  5
1B4AA
330
18
100
AcDbEntity
  8
1DIM
100
AcDbLine
 10
2359.960438158274
 20
-491.806999264379
 30
0.0
 11
2507.260438158281
 21
-491.806999264379
 31
0.0
1001
ACAD
1000
DSTYLE
1002
{
1070
    40
1040
1.3
1002
}
  0
LINE
  5
1B4AE
330
18
100
AcDbEntity
  8
1DIM
100
AcDbLine
 10
2384.06043815829
 20
-639.3056809512703
 30
0.0
 11
2346.260438158288
 21
-639.3056809512703
 31
0.0
1001
ACAD
1000
DSTYLE
1002
{
1070
     3
1000
φ<>
1070
    40
1040
1.3
1002
}
  0
LINE
  5
1B4AF
330
18
100
AcDbEntity
  8
1DIM
100
AcDbLine
 10
2384.06043815829
 20
-686.3056809512703
 30
0.0
 11
2346.260438158288
 21
-686.3056809512703
 31
0.0
1001
ACAD
1000
DSTYLE
1002
{
1070
     3
1000
φ<>
1070
    40
1040
1.3
1002
}
  0
LINE
  5
1B4B0
330
18
100
AcDbEntity
  8
1DIM
100
AcDbLine
 10
2347.560438158288
 20
-641.9056809512704
 30
0.0
 11
2347.560438158288
 21
-683.7056809512703
 31
0.0
1001
ACAD
1000
DSTYLE
1002
{
1070
     3
1000
φ<>
1070
    40
1040
1.3
1002
}
  0
LINE
  5
1B4B4
330
18
100
AcDbEntity
  8
1DIM
100
AcDbLine
 10
2509.860438158281
 20
-666.8056809512942
 30
0.0
 11
2529.660395869593
 21
-666.8056809512942
 31
0.0
1001
ACAD
1000
DSTYLE
1002
{
1070
    40
1040
1.3
1002
}
  0
LINE
  5
1B4B5
330
18
100
AcDbEntity
  8
1DIM
100
AcDbLine
 10
2509.860438158281
 20
-658.805680951274
 30
0.0
 11
2529.660395869593
 21
-658.805680951274
 31
0.0
1001
ACAD
1000
DSTYLE
1002
{
1070
    40
1040
1.3
1002
}
  0
LINE
  5
1B4B6
330
18
100
AcDbEntity
  8
1DIM
100
AcDbLine
 10
2528.360395869593
 20
-664.2056809512942
 30
0.0
 11
2528.360395869593
 21
-661.405680951274
 31
0.0
1001
ACAD
1000
DSTYLE
1002
{
1070
    40
1040
1.3
1002
}
  0
SOLID
  5
1B4BA
330
18
100
AcDbEntity
  8
1DIM
100
AcDbTrace
 10
2381.430171173293
 20
-455.8685866572536
 30
0.0000000000000087
 11
2383.800923058608
 21
-454.7164958292134
 31
0.0000000000000087
 12
2381.931971003215
 22
-456.5752039807049
 32
0.0000000000000087
 13
2381.931971003215
 23
-456.5752039807049
 33
0.0000000000000087
1001
ACAD
1000
DSTYLE
1002
{
1070
    40
1040
1.3
1002
}
  0
LINE
  5
1B4BB
330
18
100
AcDbEntity
  8
1DIM
100
AcDbLine
 10
2381.681071088254
 20
-456.2218953189793
 30
0.0000000000000087
 11
2354.213482911563
 21
-475.7278296033385
 31
0.0000000000000087
1001
ACAD
1000
DSTYLE
1002
{
1070
    40
1040
1.3
1002
}
  0
LINE
  5
1B4BC
330
18
100
AcDbEntity
  8
0
  6
BYBLOCK
100
AcDbLine
 10
2419.025045206063
 20
-385.905680952299
 30
0.0
 11
2419.721713100063
 21
-383.305680952299
 31
0.0
  0
LINE
  5
1B4BD
330
18
100
AcDbEntity
  8
0
  6
BYBLOCK
100
AcDbLine
 10
2419.721713100063
 20
-383.305680952299
 30
0.0
 11
2420.418380994062
 21
-385.905680952299
 31
0.0
  0
LINE
  5
1B4BE
330
18
100
AcDbEntity
  8
0
  6
BYBLOCK
100
AcDbLine
 10
2419.721713100063
 20
-383.305680952299
 30
0.0
 11
2419.721713100063
 21
-385.905680952299
 31
0.0
  0
LINE
  5
1B4BF
330
18
100
AcDbEntity
  8
0
  6
BYBLOCK
100
AcDbLine
 10
2420.418380994062
 20
-399.5056809522989
 30
0.0
 11
2419.721713100063
 21
-402.1056809522989
 31
0.0
  0
LINE
  5
1B4C0
330
18
100
AcDbEntity
  8
0
  6
BYBLOCK
100
AcDbLine
 10
2419.721713100063
 20
-402.1056809522989
 30
0.0
 11
2419.025045206063
 21
-399.5056809522989
 31
0.0
  0
LINE
  5
1B4C1
330
18
100
AcDbEntity
  8
0
  6
BYBLOCK
100
AcDbLine
 10
2419.721713100063
 20
-402.1056809522989
 30
0.0
 11
2419.721713100063
 21
-399.5056809522989
 31
0.0
  0
TEXT
  5
1B4C2
330
18
100
AcDbEntity
  8
1DIM
  6
CONTINUOUS
100
AcDbText
 10
2418.811713100063
 20
-395.7400675263734
 30
0.0
 40
4.55
  1
19
 50
90.0
100
AcDbText
1001
ACAD
1000
DSTYLE
1002
{
1070
    45
1040
0.5
1070
    40
1040
1.3
1002
}
  0
LINE
  5
1B4C3
330
18
100
AcDbEntity
  8
0
  6
BYBLOCK
100
AcDbLine
 10
2539.057106052273
 20
-469.2069992643785
 30
0.0
 11
2538.360438158273
 21
-471.8069992643785
 31
0.0
  0
LINE
  5
1B4C4
330
18
100
AcDbEntity
  8
0
  6
BYBLOCK
100
AcDbLine
 10
2538.360438158273
 20
-471.8069992643785
 30
0.0
 11
2537.663770264273
 21
-469.2069992643785
 31
0.0
  0
LINE
  5
1B4C5
330
18
100
AcDbEntity
  8
0
  6
BYBLOCK
100
AcDbLine
 10
2538.360438158273
 20
-471.8069992643785
 30
0.0
 11
2538.360438158273
 21
-469.2069992643785
 31
0.0
  0
LINE
  5
1B4C6
330
18
100
AcDbEntity
  8
0
  6
BYBLOCK
100
AcDbLine
 10
2537.663770264273
 20
-415.4069992643731
 30
0.0
 11
2538.360438158273
 21
-412.8069992643731
 31
0.0
  0
LINE
  5
1B4C7
330
18
100
AcDbEntity
  8
0
  6
BYBLOCK
100
AcDbLine
 10
2538.360438158273
 20
-412.8069992643731
 30
0.0
 11
2539.057106052273
 21
-415.4069992643731
 31
0.0
  0
LINE
  5
1B4C8
330
18
100
AcDbEntity
  8
0
  6
BYBLOCK
100
AcDbLine
 10
2538.360438158273
 20
-412.8069992643731
 30
0.0
 11
2538.360438158273
 21
-415.4069992643731
 31
0.0
  0
TEXT
  5
1B4C9
330
18
100
AcDbEntity
  8
1DIM
  6
CONTINUOUS
100
AcDbText
 10
2537.450438158273
 20
-446.1155177828946
 30
0.0
 40
4.55
  1
59
 50
90.0
100
AcDbText
1001
ACAD
1000
DSTYLE
1002
{
1070
    40
1040
1.3
1002
}
  0
LINE
  5
1B4CA
330
18
100
AcDbEntity
  8
0
  6
BYBLOCK
100
AcDbLine
 10
2529.057106052273
 20
-444.2069992643781
 30
0.0
 11
2528.360438158273
 21
-446.8069992643781
 31
0.0
  0
LINE
  5
1B4CB
330
18
100
AcDbEntity
  8
0
  6
BYBLOCK
100
AcDbLine
 10
2528.360438158273
 20
-446.8069992643781
 30
0.0
 11
2527.663770264273
 21
-444.2069992643781
 31
0.0
  0
LINE
  5
1B4CC
330
18
100
AcDbEntity
  8
0
  6
BYBLOCK
100
AcDbLine
 10
2528.360438158273
 20
-446.8069992643781
 30
0.0
 11
2528.360438158273
 21
-444.2069992643781
 31
0.0
  0
LINE
  5
1B4CD
330
18
100
AcDbEntity
  8
0
  6
BYBLOCK
100
AcDbLine
 10
2527.663770264273
 20
-415.4069992643731
 30
0.0
 11
2528.360438158273
 21
-412.8069992643731
 31
0.0
  0
LINE
  5
1B4CE
330
18
100
AcDbEntity
  8
0
  6
BYBLOCK
100
AcDbLine
 10
2528.360438158273
 20
-412.8069992643731
 30
0.0
 11
2529.057106052273
 21
-415.4069992643731
 31
0.0
  0
LINE
  5
1B4CF
330
18
100
AcDbEntity
  8
0
  6
BYBLOCK
100
AcDbLine
 10
2528.360438158273
 20
-412.8069992643731
 30
0.0
 11
2528.360438158273
 21
-415.4069992643731
 31
0.0
  0
TEXT
  5
1B4D0
330
18
100
AcDbEntity
  8
1DIM
  6
CONTINUOUS
100
AcDbText
 10
2527.450438158273
 20
-433.598665931042
 30
0.0
 40
4.55
  1
34
 50
90.0
100
AcDbText
1001
ACAD
1000
DSTYLE
1002
{
1070
    40
1040
1.3
1002
}
  0
LINE
  5
1B4D1
330
18
100
AcDbEntity
  8
0
  6
BYBLOCK
100
AcDbLine
 10
2386.66043815829
 20
-486.0036671583976
 30
0.0
 11
2384.06043815829
 21
-485.3069992643976
 31
0.0
  0
LINE
  5
1B4D2
330
18
100
AcDbEntity
  8
0
  6
BYBLOCK
100
AcDbLine
 10
2384.06043815829
 20
-485.3069992643976
 30
0.0
 11
2386.66043815829
 21
-484.6103313703977
 31
0.0
  0
LINE
  5
1B4D3
330
18
100
AcDbEntity
  8
0
  6
BYBLOCK
100
AcDbLine
 10
2384.06043815829
 20
-485.3069992643976
 30
0.0
 11
2386.66043815829
 21
-485.3069992643976
 31
0.0
  0
LINE
  5
1B4D4
330
18
100
AcDbEntity
  8
0
  6
BYBLOCK
100
AcDbLine
 10
2507.260438158281
 20
-484.6103313703977
 30
0.0
 11
2509.860438158281
 21
-485.3069992643976
 31
0.0
  0
LINE
  5
1B4D5
330
18
100
AcDbEntity
  8
0
  6
BYBLOCK
100
AcDbLine
 10
2509.860438158281
 20
-485.3069992643976
 30
0.0
 11
2507.260438158281
 21
-486.0036671583976
 31
0.0
  0
LINE
  5
1B4D6
330
18
100
AcDbEntity
  8
0
  6
BYBLOCK
100
AcDbLine
 10
2509.860438158281
 20
-485.3069992643976
 30
0.0
 11
2507.260438158281
 21
-485.3069992643976
 31
0.0
  0
TEXT
  5
1B4D7
330
18
100
AcDbEntity
  8
1DIM
  6
CONTINUOUS
100
AcDbText
 10
2441.652104824952
 20
-484.3969992643977
 30
0.0
 40
4.55
  1
126
100
AcDbText
1001
ACAD
1000
DSTYLE
1002
{
1070
    45
1040
0.5
1070
    40
1040
1.3
1002
}
  0
LINE
  5
1B4D8
330
18
100
AcDbEntity
  8
0
  6
BYBLOCK
100
AcDbLine
 10
2359.960438158274
 20
-492.503667158379
 30
0.0
 11
2357.360438158274
 21
-491.806999264379
 31
0.0
  0
LINE
  5
1B4D9
330
18
100
AcDbEntity
  8
0
  6
BYBLOCK
100
AcDbLine
 10
2357.360438158274
 20
-491.806999264379
 30
0.0
 11
2359.960438158274
 21
-491.110331370379
 31
0.0
  0
LINE
  5
1B4DA
330
18
100
AcDbEntity
  8
0
  6
BYBLOCK
100
AcDbLine
 10
2357.360438158274
 20
-491.806999264379
 30
0.0
 11
2359.960438158274
 21
-491.806999264379
 31
0.0
  0
LINE
  5
1B4DB
330
18
100
AcDbEntity
  8
0
  6
BYBLOCK
100
AcDbLine
 10
2507.260438158281
 20
-491.110331370379
 30
0.0
 11
2509.860438158281
 21
-491.806999264379
 31
0.0
  0
LINE
  5
1B4DC
330
18
100
AcDbEntity
  8
0
  6
BYBLOCK
100
AcDbLine
 10
2509.860438158281
 20
-491.806999264379
 30
0.0
 11
2507.260438158281
 21
-492.503667158379
 31
0.0
  0
LINE
  5
1B4DD
330
18
100
AcDbEntity
  8
0
  6
BYBLOCK
100
AcDbLine
 10
2509.860438158281
 20
-491.806999264379
 30
0.0
 11
2507.260438158281
 21
-491.806999264379
 31
0.0
  0
TEXT
  5
1B4DE
330
18
100
AcDbEntity
  8
1DIM
  6
CONTINUOUS
100
AcDbText
 10
2425.252972880499
 20
-490.896999264379
 30
0.0
 40
4.55
  1
152.5
100
AcDbText
1001
ACAD
1000
DSTYLE
1002
{
1070
    40
1040
1.3
1002
}
  0
LINE
  5
1B4DF
330
18
100
AcDbEntity
  8
0
  6
BYBLOCK
100
AcDbLine
 10
2346.863770264288
 20
-641.9056809512704
 30
0.0
 11
2347.560438158288
 21
-639.3056809512703
 31
0.0
  0
LINE
  5
1B4E0
330
18
100
AcDbEntity
  8
0
  6
BYBLOCK
100
AcDbLine
 10
2347.560438158288
 20
-639.3056809512703
 30
0.0
 11
2348.257106052288
 21
-641.9056809512704
 31
0.0
  0
LINE
  5
1B4E1
330
18
100
AcDbEntity
  8
0
  6
BYBLOCK
100
AcDbLine
 10
2347.560438158288
 20
-639.3056809512703
 30
0.0
 11
2347.560438158288
 21
-641.9056809512704
 31
0.0
  0
LINE
  5
1B4E2
330
18
100
AcDbEntity
  8
0
  6
BYBLOCK
100
AcDbLine
 10
2348.257106052288
 20
-683.7056809512703
 30
0.0
 11
2347.560438158288
 21
-686.3056809512703
 31
0.0
  0
LINE
  5
1B4E3
330
18
100
AcDbEntity
  8
0
  6
BYBLOCK
100
AcDbLine
 10
2347.560438158288
 20
-686.3056809512703
 30
0.0
 11
2346.863770264288
 21
-683.7056809512703
 31
0.0
  0
LINE
  5
1B4E4
330
18
100
AcDbEntity
  8
0
  6
BYBLOCK
100
AcDbLine
 10
2347.560438158288
 20
-686.3056809512703
 30
0.0
 11
2347.560438158288
 21
-683.7056809512703
 31
0.0
  0
TEXT
  5
1B4E5
330
18
100
AcDbEntity
  8
1DIM
  6
CONTINUOUS
100
AcDbText
 10
2346.650438158288
 20
-669.934012576356
 30
0.0
 40
4.55
  1
φ47
 50
90.0
100
AcDbText
1001
ACAD
1000
DSTYLE
1002
{
1070
     3
1000
φ<>
1070
    40
1040
1.3
1002
}
  0
LINE
  5
1B4E6
330
18
100
AcDbEntity
  8
0
  6
BYBLOCK
100
AcDbLine
 10
2529.057063763593
 20
-664.2056809512942
 30
0.0
 11
2528.360395869593
 21
-666.8056809512942
 31
0.0
  0
LINE
  5
1B4E7
330
18
100
AcDbEntity
  8
0
  6
BYBLOCK
100
AcDbLine
 10
2528.360395869593
 20
-666.8056809512942
 30
0.0
 11
2527.663727975593
 21
-664.2056809512942
 31
0.0
  0
LINE
  5
1B4E8
330
18
100
AcDbEntity
  8
0
  6
BYBLOCK
100
AcDbLine
 10
2528.360395869593
 20
-666.8056809512942
 30
0.0
 11
2528.360395869593
 21
-664.2056809512942
 31
0.0
  0
LINE
  5
1B4E9
330
18
100
AcDbEntity
  8
0
  6
BYBLOCK
100
AcDbLine
 10
2527.663727975593
 20
-661.405680951274
 30
0.0
 11
2528.360395869593
 21
-658.805680951274
 31
0.0
  0
LINE
  5
1B4EA
330
18
100
AcDbEntity
  8
0
  6
BYBLOCK
100
AcDbLine
 10
2528.360395869593
 20
-658.805680951274
 30
0.0
 11
2529.057063763593
 21
-661.405680951274
 31
0.0
  0
LINE
  5
1B4EB
330
18
100
AcDbEntity
  8
0
  6
BYBLOCK
100
AcDbLine
 10
2528.360395869593
 20
-658.805680951274
 30
0.0
 11
2528.360395869593
 21
-661.405680951274
 31
0.0
  0
TEXT
  5
1B4EC
330
18
100
AcDbEntity
  8
1DIM
  6
CONTINUOUS
100
AcDbText
 10
2527.450395869593
 20
-664.322347617951
 30
0.0
 40
4.55
  1
8
 50
90.0
100
AcDbText
1001
ACAD
1000
DSTYLE
1002
{
1070
    40
1040
1.3
1002
}
  0
VIEWPORT
  5
57
330
15
100
AcDbEntity
 67
     1
  8
0
100
AcDbViewport
 68
     1
 10
0.0
 20
0.0
 30
0.0
 40
639.1804245283018
 41
297.0
 68
     1
 69
     1
1001
ACAD
1000
MVIEW
1002
{
1070
    16
1010
0.0
1020
0.0
1030
0.0
1010
0.0
1020
0.0
1030
1.0
1040
0.0
1040
297.0
1040
-4.171999999925333
1040
12.83903210976956
1040
50.0
1040
0.0
1040
0.0
1070
    16
1070
   100
1070
     0
1070
     1
1070
     0
1070
     0
1070
     0
1070
     0
1040
0.0
1040
0.0
1040
0.0
1040
10.0
1040
10.0
1040
10.0
1040
10.0
1070
     0
1002
{
1002
}
1002
}
  0
ENDSEC
  0
SECTION
  2
OBJECTS
  0
DICTIONARY
  5
C
330
0
100
AcDbDictionary
  3
ACAD_CIP_PREVIOUS_PRODUCT_INFO
350
1AF69
  3
ACAD_COLOR
350
18D
  3
ACAD_GROUP
350
D
  3
ACAD_LAYOUT
350
18E
  3
ACAD_MATERIAL
350
18C
  3
ACAD_MLEADERSTYLE
350
D9E7
  3
ACAD_MLINESTYLE
350
1B
  3
ACAD_PLOTSETTINGS
350
18F
  3
ACAD_SCALELIST
350
D9C5
  3
ACAD_VISUALSTYLE
350
D9B4
  3
ACDBHEADERROUNDTRIPXREC
350
1B4ED
  3
ACDBVARIABLEDICTIONARY
350
37
  3
AEC_PROPERTY_SET_DEFS
350
1B07A
  3
CONTENTDICTIONARY
350
D8
  3
DRAWINGVARIABLESDICT
350
20
  3
DWGPROPS
350
1B4F0
1001
ACAD
1000
TREAT_AS_HARD
1070
     0
  0
DICTIONARY
  5
E6A6
330
2
100
AcDbDictionary
  3
ACAD_LAYERSTATES
360
E6A7
1001
ACAD
1000
TREAT_AS_HARD
1070
     1
  0
DICTIONARY
  5
DA05
330
E
100
AcDbDictionary
  3
ADSK_XREC_LAYER_RECONCILED
360
DA06
1001
ACAD
1000
TREAT_AS_HARD
1070
     1
  0
DICTIONARY
  5
DA07
330
29
100
AcDbDictionary
  3
ADSK_XREC_LAYER_RECONCILED
360
DA08
1001
ACAD
1000
TREAT_AS_HARD
1070
     1
  0
DICTIONARY
  5
DA09
330
31
100
AcDbDictionary
  3
ADSK_XREC_LAYER_RECONCILED
360
DA0A
1001
ACAD
1000
TREAT_AS_HARD
1070
     1
  0
DICTIONARY
  5
DA0F
330
243
100
AcDbDictionary
  3
ADSK_XREC_LAYER_RECONCILED
360
DA10
1001
ACAD
1000
TREAT_AS_HARD
1070
     1
  0
DICTIONARY
  5
DA15
330
24E
100
AcDbDictionary
  3
ADSK_XREC_LAYER_RECONCILED
360
DA16
1001
ACAD
1000
TREAT_AS_HARD
1070
     1
  0
DICTIONARY
  5
88F
330
18
100
AcDbDictionary
  3
ACAD_SORTENTS
360
890
1001
ACAD
1000
TREAT_AS_HARD
1070
     1
  0
XRECORD
  5
1AF69
102
{ACAD_REACTORS
330
C
102
}
330
C
100
AcDbXrecord
300
ACDLT
300
2012
300
ACDLT_F_S
  0
DICTIONARY
  5
18D
102
{ACAD_REACTORS
330
C
102
}
330
C
100
AcDbDictionary
1001
ACAD
1000
TREAT_AS_HARD
1070
     0
  0
DICTIONARY
  5
D
102
{ACAD_REACTORS
330
C
102
}
330
C
100
AcDbDictionary
1001
ACAD
1000
TREAT_AS_HARD
1070
     0
  0
DICTIONARY
  5
18E
102
{ACAD_REACTORS
330
C
102
}
330
C
100
AcDbDictionary
1001
ACAD
1000
TREAT_AS_HARD
1070
     0
  0
DICTIONARY
  5
18C
102
{ACAD_REACTORS
330
C
102
}
330
C
100
AcDbDictionary
  3
BYBLOCK
350
D9A4
  3
BYLAYER
350
D99C
  3
GLOBAL
350
D9AC
1001
ACAD
1000
TREAT_AS_HARD
1070
     0
  0
DICTIONARY
  5
D9E7
102
{ACAD_REACTORS
330
C
102
}
330
C
100
AcDbDictionary
  3
STANDARD
350
D9E8
1001
ACAD
1000
TREAT_AS_HARD
1070
     0
  0
DICTIONARY
  5
1B
102
{ACAD_REACTORS
330
C
102
}
330
C
100
AcDbDictionary
  3
STANDARD
350
1C
1001
ACAD
1000
TREAT_AS_HARD
1070
     0
  0
DICTIONARY
  5
18F
102
{ACAD_REACTORS
330
C
102
}
330
C
100
AcDbDictionary
1001
ACAD
1000
TREAT_AS_HARD
1070
     0
  0
DICTIONARY
  5
D9C5
102
{ACAD_REACTORS
330
C
102
}
330
C
100
AcDbDictionary
  3
A0
350
D9C6
  3
A1
350
D9C7
  3
A2
350
D9C8
  3
A3
350
D9C9
  3
A4
350
D9CA
  3
A5
350
D9CB
  3
A6
350
D9CC
  3
A7
350
D9CD
  3
A8
350
D9CE
  3
A9
350
D9CF
  3
B0
350
D9D0
  3
B1
350
D9D1
  3
B2
350
D9D2
  3
B3
350
D9D3
  3
B4
350
D9D4
  3
B5
350
D9D5
  3
B6
350
D9D6
  3
B7
350
D9D7
  3
B8
350
D9D8
  3
B9
350
D9D9
  3
C0
350
D9DA
  3
C1
350
D9DB
  3
C2
350
D9DC
  3
C3
350
D9DD
  3
C4
350
D9DE
  3
C5
350
D9DF
  3
C6
350
D9E0
  3
C7
350
D9E1
  3
C8
350
D9E2
  3
C9
350
D9E3
  3
D0
350
D9E4
  3
D1
350
D9E5
  3
D2
350
D9E6
1001
ACAD
1000
TREAT_AS_HARD
1070
     0
  0
DICTIONARY
  5
D9B4
102
{ACAD_REACTORS
330
C
102
}
330
C
100
AcDbDictionary
  3
2DWIREFRAME
350
D9BA
  3
3D_HIDDEN
350
D9BC
  3
3DWIREFRAME
350
D9BB
  3
BASIC
350
D9B9
  3
BRIGHTEN
350
D9C0
  3
COLORCHANGE
350
D9C4
  3
CONCEPTUAL
350
D9BD
  3
DIM
350
D9BF
  3
EDGECOLOROFF
350
19C2F
  3
FACEPATTERN
350
D9C3
  3
FLAT
350
D9B5
  3
FLATWITHEDGES
350
D9B6
  3
GOURAUD
350
D9B7
  3
GOURAUDWITHEDGES
350
D9B8
  3
HIDDEN
350
19C7E
  3
JITTEROFF
350
19C2D
  3
LINEPATTERN
350
D9C2
  3
MODELING
350
19C84
  3
OVERHANGOFF
350
19C2E
  3
REALISTIC
350
D9BE
  3
SHADED
350
19C83
  3
SHADED_WITH_EDGES
350
19C82
  3
SHADES_OF_GRAY
350
19C7F
  3
SKETCHY
350
19C80
  3
THICKEN
350
D9C1
  3
WIREFRAME
350
19C7D
  3
X-RAY
350
19C81
1001
ACAD
1000
TREAT_AS_HARD
1070
     0
  0
DICTIONARY
  5
1B4ED
102
{ACAD_REACTORS
330
C
102
}
330
C
100
AcDbDictionary
  3
COLORDICT
350
1B4EE
  3
MATERIALDICT
350
1B4EF
1001
ACAD
1000
TREAT_AS_HARD
1070
     0
  0
DICTIONARY
  5
37
102
{ACAD_REACTORS
330
C
102
}
330
C
100
AcDbDictionary
  3
CANNOSCALE
350
1A68D
  3
CMLEADERSTYLE
350
DA6A
  3
CTABLESTYLE
350
29E
  3
DIMADEC
350
38
  3
DIMASSOC
350
1CE
  3
HIDETEXT
350
704E
  3
INDEXCTL
350
DA6D
  3
INTERSECTIONCOLOR
350
7052
  3
INTERSECTIONDISPLAY
350
7051
  3
MSLTSCALE
350
1A6DD
  3
OBSCOLOR
350
704F
  3
OBSLTYPE
350
7050
  3
PROJECTNAME
350
1CF
  3
SORTENTS
350
DA6C
  3
XCLIPFRAME
350
1B242
1001
ACAD
1000
TREAT_AS_HARD
1070
     0
  0
DICTIONARY
  5
1B07A
102
{ACAD_REACTORS
330
C
102
}
330
C
100
AcDbDictionary
1001
ACAD
1000
TREAT_AS_HARD
1070
     0
  0
DICTIONARY
  5
D8
102
{ACAD_REACTORS
330
C
102
}
330
C
100
AcDbDictionary
1001
ACAD
1000
TREAT_AS_HARD
1070
     0
  0
DICTIONARY
  5
20
102
{ACAD_REACTORS
330
C
102
}
330
C
100
AcDbDictionary
1001
DRAWINGVARIABLESXDATA
1000
POLARANG
1000
0.261799387799149410000000
1000
POLARMODE
1000
1
1000
POLARSTYLE
1000
1
1001
ACAD
1000
TREAT_AS_HARD
1070
     0
  0
XRECORD
  5
1B4F0
102
{ACAD_REACTORS
330
C
102
}
330
C
100
AcDbXrecord
  1
DWGPROPS COOKIE
  2

  3

  4

  6

  7

  8
3684
  9

300
=
301
=
302
=
303
=
304
=
305
=
306
=
307
=
308
=
309
=
 40
0.0
 41
2451318.246352917
 42
2458807.992064815
  1

 90
        0
  0
DICTIONARY
  5
E6A7
102
{ACAD_REACTORS
330
E6A6
102
}
330
E6A6
100
AcDbDictionary
1001
ACAD
1000
TREAT_AS_HARD
1070
     0
  0
ACAD_PROXY_OBJECT
  5
DA06
102
{ACAD_REACTORS
330
DA05
102
}
330
DA05
100
AcDbZombieObject
 90
      499
 91
      514
 93
       34
310
40C8804040
  0
ACAD_PROXY_OBJECT
  5
DA08
102
{ACAD_REACTORS
330
DA07
102
}
330
DA07
100
AcDbZombieObject
 90
      499
 91
      514
 93
       34
310
40C8804040
  0
ACAD_PROXY_OBJECT
  5
DA0A
102
{ACAD_REACTORS
330
DA09
102
}
330
DA09
100
AcDbZombieObject
 90
      499
 91
      514
 93
       34
310
40C8804040
  0
ACAD_PROXY_OBJECT
  5
DA10
102
{ACAD_REACTORS
330
DA0F
102
}
330
DA0F
100
AcDbZombieObject
 90
      499
 91
      514
 93
       34
310
40C8804040
  0
ACAD_PROXY_OBJECT
  5
DA16
102
{ACAD_REACTORS
330
DA15
102
}
330
DA15
100
AcDbZombieObject
 90
      499
 91
      514
 93
       34
310
40C8804040
  0
SORTENTSTABLE
  5
890
102
{ACAD_REACTORS
330
88F
102
}
330
88F
100
AcDbSortentsTable
330
18
331
0
  5
5BFF
331
0
  5
1AC62
331
1AC61
  5
1AC7B
331
1AC62
  5
1AC7C
331
1AC63
  5
1AC7D
331
1AC67
  5
1AC9F
331
1AC68
  5
1ACA0
331
1AC69
  5
1ACA1
331
1AC6A
  5
1ACA2
331
1AC6B
  5
1ACA3
331
1AC6C
  5
1ACA4
331
1AC6D
  5
1ACA5
331
1AC6E
  5
1ACA6
331
1AC6F
  5
1ACA7
331
1AC70
  5
1ACA8
331
1AC71
  5
1ACA9
331
1AC72
  5
1ACAA
331
1AC73
  5
1ACAB
331
1AC74
  5
1ACAC
331
1AC75
  5
1ACAD
331
1AC76
  5
1ACAE
331
1AC77
  5
1ACAF
331
1AC78
  5
1ACB0
331
1AC79
  5
1ACB1
331
1AC7A
  5
1ACB2
331
1AC7B
  5
1ACB3
331
1AC7C
  5
1ACB4
331
1AC7D
  5
1ACB5
331
1AC7E
  5
1ACB6
331
1AC7F
  5
1ACB7
331
1AC80
  5
1ACB8
331
1AC81
  5
1ACB9
331
1AC82
  5
1ACBA
331
1AC83
  5
1ACBB
331
1AC84
  5
1ACBC
331
1AC85
  5
1ACBD
331
1AC86
  5
1ACBE
331
1AC87
  5
1ACBF
331
1AC88
  5
1ACC0
331
1AC89
  5
1ACC1
331
1AC8A
  5
1ACC2
331
1AC8B
  5
1ACC3
331
1AC8C
  5
1ACC4
331
1AC8D
  5
1ACC5
331
1AC8E
  5
1ACC6
331
1AC8F
  5
1ACC7
331
1AC90
  5
1ACC8
331
1AC91
  5
1ACC9
331
1AC92
  5
1ACCA
331
1AC93
  5
1ACCB
331
1AC94
  5
1ACCC
331
1AC95
  5
1ACCD
331
1AC96
  5
1ACCF
331
1AC97
  5
1ACD0
331
1AC98
  5
1ACD1
331
1AC99
  5
1ACD2
331
1AC9A
  5
1ACD3
331
1AC9B
  5
1ACD4
331
1AC9C
  5
1ACD5
331
1AC9D
  5
1ACD6
331
1AC9E
  5
1ACD7
331
1AC9F
  5
1ACD8
331
1ACA0
  5
1ACD9
331
1ACA1
  5
1ACDA
331
1ACA2
  5
1ACDB
331
1ACA3
  5
1ACDD
331
1ACA4
  5
1ACDF
331
0
  5
1ACDC
331
1ACA6
  5
1ACF2
331
1ACA7
  5
1ACF3
331
1ACA8
  5
1ACF4
331
1ACA9
  5
1ACF5
331
1ACAA
  5
1ACF6
331
1ACAB
  5
1ACF7
331
1ACAC
  5
1ACF8
331
1ACAD
  5
1ACF9
331
1ACAE
  5
1ACFA
331
1ACAF
  5
1ACFB
331
1ACB0
  5
1ACFC
331
1ACB1
  5
1ACFD
331
1ACB2
  5
1ACFE
331
1ACB3
  5
1ACFF
331
1ACB4
  5
1AD00
331
1ACB5
  5
1AD01
331
1ACB6
  5
1AD02
331
1ACB7
  5
1AD03
331
1ACB8
  5
1AD04
331
1ACB9
  5
1AD05
331
1ACBA
  5
1AD06
331
1ACBB
  5
1AD08
331
1ACBC
  5
1AD09
331
1ACBD
  5
1AD0A
331
1ACBE
  5
1AD0B
331
1ACBF
  5
1AD0C
331
1ACC0
  5
1AD0F
331
1ACC1
  5
1AD37
331
1ACC2
  5
1AD38
331
1ACC3
  5
1AD39
331
1ACC4
  5
1AD3A
331
1ACC5
  5
1AD4D
331
1ACC6
  5
1AD4E
331
1ACC7
  5
1AD4F
331
1ACC8
  5
1AD50
331
1ACC9
  5
1AD51
331
1ACCA
  5
1AD58
331
1ACCB
  5
1AD7E
331
1ACCC
  5
1B07F
331
1ACCD
  5
1B080
331
1ACCF
  5
1B08D
331
1ACD0
  5
1B08E
331
1ACD1
  5
1B08F
331
1ACD2
  5
1B090
331
1ACD3
  5
1B091
331
1ACD4
  5
1B092
331
1ACD5
  5
1B093
331
1ACD6
  5
1B094
331
1ACD7
  5
1B095
331
1ACD8
  5
1B096
331
1ACD9
  5
1B097
331
1ACDA
  5
1B09B
331
1ACDB
  5
1B09C
331
1ACDC
  5
1B09D
331
1ACDD
  5
1B0A1
331
1ACDF
  5
1B0A2
331
1ACE2
  5
1B0A3
331
1ACE3
  5
1B0A4
331
1ACE4
  5
1B0A5
331
1ACE5
  5
1B0A6
331
1ACE6
  5
1B0A7
331
1ACE7
  5
1B0A8
331
1ACE8
  5
1B0A9
331
1ACE9
  5
1B0AA
331
1ACEA
  5
1B0AB
331
1ACEB
  5
1B0AC
331
1ACEC
  5
1B0AD
331
1ACED
  5
1B0AE
331
1ACEE
  5
1B0AF
331
1ACEF
  5
1B0B0
331
1ACF0
  5
1B0B1
331
1ACF1
  5
1B0B2
331
1ACF2
  5
1B0B3
331
1ACF3
  5
1B0B4
331
1ACF4
  5
1B0B5
331
1ACF5
  5
1B0B6
331
1ACF6
  5
1B0B7
331
1ACF7
  5
1B0B8
331
1ACF8
  5
1B0B9
331
1ACF9
  5
1B0BA
331
1ACFA
  5
1B0BB
331
1ACFB
  5
1B0BC
331
1ACFC
  5
1B0BD
331
1ACFD
  5
1B0BE
331
1ACFE
  5
1B0C0
331
1ACFF
  5
1B0C1
331
1AD00
  5
1B0C2
331
1AD01
  5
1B0C3
331
1AD02
  5
1B0C4
331
1AD03
  5
1B0C5
331
1AD04
  5
1B0C6
331
1AD05
  5
1B0C7
331
1AD06
  5
1B0C9
331
1AD07
  5
1B0CA
331
1AD08
  5
1B0CB
331
1AD09
  5
1B0CC
331
0
  5
1AD0D
331
0
  5
1AD0E
331
1AD0C
  5
1B0EC
331
1AD34
  5
1B0F0
331
1AD35
  5
1B0F1
331
1AD36
  5
1B0F2
331
1AD37
  5
1B0F6
331
0
  5
1B0D7
331
0
  5
1B0D8
331
0
  5
1B0D9
331
0
  5
1B0DA
331
0
  5
1B0DB
331
0
  5
1B0DC
331
0
  5
1AD7D
331
0
  5
1B0DF
331
1B07C
  5
1B1E1
331
1B07D
  5
1B1E2
331
1B07E
  5
1B1E3
331
1B07F
  5
1B1E4
331
1B080
  5
1B1E5
331
1B081
  5
1B1E6
331
1B082
  5
1B1E7
331
1B083
  5
1B1E8
331
1B084
  5
1B1F9
331
1B085
  5
1B42F
331
1B088
  5
1B430
331
1B089
  5
1B431
331
1B08A
  5
1B432
331
1B08B
  5
1B433
331
1B08C
  5
1B434
331
1B08D
  5
1B435
331
1B08E
  5
1B436
331
1B08F
  5
1B437
331
1B090
  5
1B438
331
1B091
  5
1B439
331
1B092
  5
1B43A
331
1B093
  5
1B43B
331
1B094
  5
1B43C
331
1B095
  5
1B43D
331
1B096
  5
1B43E
331
1B097
  5
1B43F
331
1B098
  5
1B440
331
1B099
  5
1B441
331
1B09A
  5
1B442
331
1B09B
  5
1B443
331
1B09C
  5
1B444
331
1B09D
  5
1B445
331
1B09E
  5
1B446
331
1B09F
  5
1B447
331
1B0A0
  5
1B448
331
1B0A1
  5
1B449
331
1B0A2
  5
1B44A
331
1B0A3
  5
1B44B
331
1B0A4
  5
1B44C
331
1B0A5
  5
1B44D
331
1B0A6
  5
1B44E
331
1B0A7
  5
1B44F
331
1B0A8
  5
1B450
331
1B0A9
  5
1B451
331
1B0AA
  5
1B452
331
1B0AB
  5
1B453
331
1B0AC
  5
1B454
331
1B0AD
  5
1B455
331
1B0AE
  5
1B456
331
1B0AF
  5
1B457
331
1B0B0
  5
1B458
331
1B0B1
  5
1B459
331
1B0B2
  5
1B45A
331
1B0B3
  5
1B45B
331
1B0B4
  5
1B45C
331
1B0B5
  5
1B45D
331
1B0B6
  5
1B45E
331
1B0B7
  5
1B45F
331
1B0B8
  5
1B460
331
1B0B9
  5
1B461
331
1B0BA
  5
1B462
331
1B0BB
  5
1B463
331
1B0BC
  5
1B464
331
1B0BD
  5
1B465
331
1B0BE
  5
1B466
331
1B0BF
  5
1B467
331
1B0C0
  5
1B468
331
1B0C1
  5
1B469
331
1B0C2
  5
1B46A
331
1B0C3
  5
1B46B
331
1B0C4
  5
1B46C
331
1B0C5
  5
1B46D
331
1B0C6
  5
1B46E
331
1B0C7
  5
1B46F
331
1B0C8
  5
1B470
331
1B0C9
  5
1B471
331
1B0CA
  5
1B472
331
1B0CB
  5
1B473
331
1B0CC
  5
1B474
331
1B0CD
  5
1B475
331
1B0CE
  5
1B476
331
1B0CF
  5
1B477
331
1B0D0
  5
1B478
331
1B0D1
  5
1B479
331
1B0D2
  5
1B47A
331
1B0D3
  5
1B47B
331
1B0D4
  5
1B47C
331
1B0D5
  5
1B47D
331
1B0D6
  5
1B47E
331
1B0D7
  5
1B47F
331
1B0D8
  5
1B480
331
1B0D9
  5
1B481
331
1B0DA
  5
1B482
331
1B0DB
  5
1B483
331
1B0DC
  5
1B484
331
1B0DD
  5
1B485
331
1B0DE
  5
1B486
331
1B0DF
  5
1B487
331
1B0E0
  5
1B488
331
1B0E1
  5
1B489
331
1B0E2
  5
1B48A
331
1B0E3
  5
1B48B
331
1B0E8
  5
1B48C
331
1B0E9
  5
1B48D
331
1B0EA
  5
1B48E
331
1B0EB
  5
1B48F
331
1B0EC
  5
1B490
331
1B0ED
  5
1B491
331
1B0EE
  5
1B492
331
1B0EF
  5
1B493
331
1B0F0
  5
1B494
331
1B0F1
  5
1B495
331
1B0F2
  5
1B496
331
1B0F3
  5
1B497
331
1B0F4
  5
1B498
331
1B0F5
  5
1B499
331
1B0F6
  5
1B49A
331
1B0F7
  5
1B49B
331
1B0F8
  5
1B49C
331
1B0F9
  5
1B49D
331
1B0FA
  5
1B49E
331
1B0FB
  5
1B49F
331
1B0FC
  5
1B4A0
331
1B0FD
  5
1B4A1
331
1B0FE
  5
1B4A2
331
1B0FF
  5
1B4A3
331
1B100
  5
1B4A4
331
1B101
  5
1B4A5
331
1B102
  5
1B4A6
331
1B103
  5
1B4A7
331
1B108
  5
1B4A8
331
1B109
  5
1B4A9
331
1B10A
  5
1B4AA
331
1B10B
  5
1B4AB
331
1B10C
  5
1B4AC
331
1B10D
  5
1B4AD
331
1B10E
  5
1B4AE
331
1B10F
  5
1B4AF
331
1B110
  5
1B4B0
331
1B111
  5
1B4B1
331
1B112
  5
1B4B2
331
1B113
  5
1B4B3
331
1B114
  5
1B4B4
331
1B115
  5
1B4B5
331
1B116
  5
1B4B6
331
1B117
  5
1B4B7
331
1B118
  5
1B4B8
331
1B119
  5
1B4B9
331
1B11A
  5
1B4BA
331
1B11B
  5
1B4BB
331
1B11C
  5
1B4BC
331
1B11D
  5
1B4BD
331
1B11E
  5
1B4BE
331
1B11F
  5
1B4BF
331
1B120
  5
1B4C0
331
1B121
  5
1B4C1
331
1B122
  5
1B4C2
331
1B123
  5
1B4C3
331
1B124
  5
1B4C4
331
1B125
  5
1B4C5
331
1B126
  5
1B4C6
331
1B127
  5
1B4C7
331
1B128
  5
1B4C8
331
1B129
  5
1B4C9
331
1B12A
  5
1B4CA
331
1B12B
  5
1B4CB
331
1B12C
  5
1B4CC
331
1B12D
  5
1B4CD
331
1B12E
  5
1B4CE
331
1B12F
  5
1B4CF
331
1B130
  5
1B4D0
331
1B131
  5
1B4D1
331
1B132
  5
1B4D2
331
1B133
  5
1B4D3
331
1B134
  5
1B4D4
331
1B135
  5
1B4D5
331
1B136
  5
1B4D6
331
1B1B7
  5
1B0BF
331
1B1B8
  5
1B0C8
331
1B1D4
  5
1B4D7
331
1B1D5
  5
1B4D8
331
1B1D6
  5
1B4D9
331
1B1D7
  5
1B4DA
331
1B1D8
  5
1B4DB
331
1B1D9
  5
1B4DC
331
1B1DA
  5
1B4DD
331
1B1DB
  5
1B4DE
331
1B1DC
  5
1B4DF
331
1B1DD
  5
1B4E0
331
1B1DE
  5
1B4E1
331
1B1DF
  5
1B4E2
331
1B1E0
  5
1B4E3
331
1B1E1
  5
1B4E4
331
1B1E2
  5
1B4E5
331
1B1E3
  5
1B4E6
331
1B1E4
  5
1B4E7
331
1B1E5
  5
1B4E8
331
1B1E6
  5
1B4E9
331
1B1E7
  5
1B4EA
331
1B1E8
  5
1B4EB
331
1B1F9
  5
1B4EC
331
1B42F
  5
1AC5F
331
1B430
  5
1AC61
331
1B431
  5
1AC68
331
1B432
  5
1AC6C
331
1B433
  5
1AC6D
331
0
  5
1AC69
331
0
  5
1AC6A
331
0
  5
1AC6B
331
1B437
  5
1AC81
331
1B438
  5
1AC82
331
1B439
  5
1AC83
331
0
  5
1AC72
331
0
  5
1AC73
331
0
  5
1AC74
331
1B43D
  5
1AC8B
331
1B43E
  5
1AC8C
331
1B43F
  5
1AC8D
331
0
  5
1AC78
331
0
  5
1AC79
331
0
  5
1AC7A
331
1B443
  5
1AC95
331
1B444
  5
1AC96
331
1B445
  5
1AC97
331
0
  5
1AC7E
331
0
  5
1AC7F
331
0
  5
1AC80
331
1B449
  5
1B081
331
1B44A
  5
1B082
331
1B44B
  5
1B083
331
0
  5
1ACEF
331
0
  5
1ACF0
331
0
  5
1ACF1
331
1B44F
  5
1B0CD
331
1B450
  5
1B0CE
331
1B451
  5
1B0CF
331
0
  5
1B098
331
0
  5
1B099
331
0
  5
1B09A
331
1B455
  5
1B0DD
331
1B456
  5
1B0DE
331
1B457
  5
1B0E0
331
0
  5
1B09E
331
0
  5
1B09F
331
0
  5
1B0A0
331
1B45B
  5
1B1DD
331
1B45C
  5
1B1DE
331
1B45D
  5
1AC6E
331
1B45E
  5
1AC6F
331
1B45F
  5
1AC70
331
1B460
  5
1AC71
331
1B461
  5
1AC75
331
1B462
  5
1AC76
331
1B463
  5
1AC77
331
1B464
  5
1AC84
331
1B465
  5
1AC85
331
1B466
  5
1AC86
331
1B467
  5
1AC87
331
1B468
  5
1AC88
331
1B469
  5
1AC89
331
1B46A
  5
1AC8A
331
1B46B
  5
1AC8E
331
1B46C
  5
1AC8F
331
1B46D
  5
1AC90
331
1B46E
  5
1AC91
331
1B46F
  5
1AC92
331
1B470
  5
1AC93
331
1B471
  5
1AC94
331
1B472
  5
1AC98
331
1B473
  5
1AC99
331
1B474
  5
1AC9A
331
1B475
  5
1AC9B
331
1B476
  5
1AC9C
331
1B477
  5
1AC9D
331
1B478
  5
1AC9E
331
1B479
  5
1B084
331
1B47A
  5
1B085
331
1B47B
  5
1B086
331
1B47C
  5
1B087
331
1B47D
  5
1B088
331
1B47E
  5
1B08B
331
1B47F
  5
1B08C
331
1B480
  5
1B0D0
331
1B481
  5
1B0D1
331
1B482
  5
1B0D2
331
1B483
  5
1B0D3
331
1B484
  5
1B0D4
331
1B485
  5
1B0D5
331
1B486
  5
1B0D6
331
1B487
  5
1B0E1
331
1B488
  5
1B0E2
331
1B489
  5
1B0E3
331
1B48A
  5
1B0E4
331
1B48B
  5
1B0E5
331
1B48C
  5
1B0E6
331
1B48D
  5
1B0EB
331
1B48E
  5
1AC63
331
1B48F
  5
1AC67
331
1B490
  5
1ACE2
331
1B491
  5
1ACE3
331
1B492
  5
1ACE4
331
0
  5
1ACE5
331
0
  5
1ACE6
331
0
  5
1ACE7
331
1B496
  5
1B0F7
331
1B497
  5
1B0F8
331
1B498
  5
1B0FC
331
0
  5
1B0ED
331
0
  5
1B0EE
331
0
  5
1B0EF
331
1B49C
  5
1B10E
331
1B49D
  5
1B112
331
1B49E
  5
1B113
331
0
  5
1B0F3
331
0
  5
1B0F4
331
0
  5
1B0F5
331
1B4A2
  5
1B11B
331
1B4A3
  5
1B11C
331
1B4A4
  5
1B11D
331
0
  5
1B0F9
331
0
  5
1B0FA
331
0
  5
1B0FB
331
1B4A8
  5
1B125
331
1B4A9
  5
1B126
331
1B4AA
  5
1B127
331
0
  5
1B0FF
331
0
  5
1B100
331
0
  5
1B101
331
1B4AE
  5
1B12F
331
1B4AF
  5
1B130
331
1B4B0
  5
1B131
331
0
  5
1B105
331
0
  5
1B106
331
0
  5
1B10B
331
1B4B4
  5
1B1B8
331
1B4B5
  5
1B1D4
331
1B4B6
  5
1B1D5
331
0
  5
1B10F
331
0
  5
1B110
331
0
  5
1B111
331
1B4BA
  5
1B1DF
331
1B4BB
  5
1B1E0
331
1B4BC
  5
1ACE8
331
1B4BD
  5
1ACE9
331
1B4BE
  5
1ACEA
331
1B4BF
  5
1ACEB
331
1B4C0
  5
1ACEC
331
1B4C1
  5
1ACED
331
1B4C2
  5
1ACEE
331
1B4C3
  5
1B0FD
331
1B4C4
  5
1B0FE
331
1B4C5
  5
1B102
331
1B4C6
  5
1B103
331
1B4C7
  5
1B104
331
1B4C8
  5
1B10C
331
1B4C9
  5
1B10D
331
1B4CA
  5
1B114
331
1B4CB
  5
1B115
331
1B4CC
  5
1B116
331
1B4CD
  5
1B117
331
1B4CE
  5
1B118
331
1B4CF
  5
1B119
331
1B4D0
  5
1B11A
331
1B4D1
  5
1B11E
331
1B4D2
  5
1B11F
331
1B4D3
  5
1B120
331
1B4D4
  5
1B121
331
1B4D5
  5
1B122
331
1B4D6
  5
1B123
331
1B4D7
  5
1B124
331
1B4D8
  5
1B128
331
1B4D9
  5
1B129
331
1B4DA
  5
1B12A
331
1B4DB
  5
1B12B
331
1B4DC
  5
1B12C
331
1B4DD
  5
1B12D
331
1B4DE
  5
1B12E
331
1B4DF
  5
1B132
331
1B4E0
  5
1B133
331
1B4E1
  5
1B134
331
1B4E2
  5
1B135
331
1B4E3
  5
1B136
331
1B4E4
  5
1B1B6
331
1B4E5
  5
1B1B7
331
1B4E6
  5
1B1D6
331
1B4E7
  5
1B1D7
331
1B4E8
  5
1B1D8
331
1B4E9
  5
1B1D9
331
1B4EA
  5
1B1DA
331
1B4EB
  5
1B1DB
331
1B4EC
  5
1B1DC
  0
MATERIAL
  5
D9A4
102
{ACAD_REACTORS
330
18C
102
}
102
{ACAD_XDICTIONARY
360
1B68B
102
}
330
18C
100
AcDbMaterial
  1
BYBLOCK
 72
     0
 73
     2
 43
0.0208333333333333
 43
0.0
 43
0.0
 43
0.0
 43
0.0
 43
0.0208333333333333
 43
0.0
 43
0.0
 43
0.0
 43
0.0
 43
1.0
 43
0.0
 43
0.0
 43
0.0
 43
0.0
 43
1.0
 77
     0
 78
     2
 47
0.0208333333333333
 47
0.0
 47
0.0
 47
0.0
 47
0.0
 47
0.0208333333333333
 47
0.0
 47
0.0
 47
0.0
 47
0.0
 47
1.0
 47
0.0
 47
0.0
 47
0.0
 47
0.0
 47
1.0
171
     0
172
     2
 49
0.0208333333333333
 49
0.0
 49
0.0
 49
0.0
 49
0.0
 49
0.0208333333333333
 49
0.0
 49
0.0
 49
0.0
 49
0.0
 49
1.0
 49
0.0
 49
0.0
 49
0.0
 49
0.0
 49
1.0
175
     0
176
     2
142
0.0208333333333333
142
0.0
142
0.0
142
0.0
142
0.0
142
0.0208333333333333
142
0.0
142
0.0
142
0.0
142
0.0
142
1.0
142
0.0
142
0.0
142
0.0
142
0.0
142
1.0
179
     0
270
     2
144
0.0208333333333333
144
0.0
144
0.0
144
0.0
144
0.0
144
0.0208333333333333
144
0.0
144
0.0
144
0.0
144
0.0
144
1.0
144
0.0
144
0.0
144
0.0
144
0.0
144
1.0
274
     2
147
0.0208333333333333
147
0.0
147
0.0
147
0.0
147
0.0
147
0.0208333333333333
147
0.0
147
0.0
147
0.0
147
0.0
147
1.0
147
0.0
147
0.0
147
0.0
147
0.0
147
1.0
  0
MATERIAL
  5
D99C
102
{ACAD_REACTORS
330
18C
102
}
102
{ACAD_XDICTIONARY
360
1B68D
102
}
330
18C
100
AcDbMaterial
  1
BYLAYER
 72
     0
 73
     2
 43
0.0208333333333333
 43
0.0
 43
0.0
 43
0.0
 43
0.0
 43
0.0208333333333333
 43
0.0
 43
0.0
 43
0.0
 43
0.0
 43
1.0
 43
0.0
 43
0.0
 43
0.0
 43
0.0
 43
1.0
 77
     0
 78
     2
 47
0.0208333333333333
 47
0.0
 47
0.0
 47
0.0
 47
0.0
 47
0.0208333333333333
 47
0.0
 47
0.0
 47
0.0
 47
0.0
 47
1.0
 47
0.0
 47
0.0
 47
0.0
 47
0.0
 47
1.0
171
     0
172
     2
 49
0.0208333333333333
 49
0.0
 49
0.0
 49
0.0
 49
0.0
 49
0.0208333333333333
 49
0.0
 49
0.0
 49
0.0
 49
0.0
 49
1.0
 49
0.0
 49
0.0
 49
0.0
 49
0.0
 49
1.0
175
     0
176
     2
142
0.0208333333333333
142
0.0
142
0.0
142
0.0
142
0.0
142
0.0208333333333333
142
0.0
142
0.0
142
0.0
142
0.0
142
1.0
142
0.0
142
0.0
142
0.0
142
0.0
142
1.0
179
     0
270
     2
144
0.0208333333333333
144
0.0
144
0.0
144
0.0
144
0.0
144
0.0208333333333333
144
0.0
144
0.0
144
0.0
144
0.0
144
1.0
144
0.0
144
0.0
144
0.0
144
0.0
144
1.0
274
     2
147
0.0208333333333333
147
0.0
147
0.0
147
0.0
147
0.0
147
0.0208333333333333
147
0.0
147
0.0
147
0.0
147
0.0
147
1.0
147
0.0
147
0.0
147
0.0
147
0.0
147
1.0
  0
MATERIAL
  5
D9AC
102
{ACAD_REACTORS
330
18C
102
}
102
{ACAD_XDICTIONARY
360
1B68F
102
}
330
18C
100
AcDbMaterial
  1
GLOBAL
 72
     0
 73
     2
 43
0.0208333333333333
 43
0.0
 43
0.0
 43
0.0
 43
0.0
 43
0.0208333333333333
 43
0.0
 43
0.0
 43
0.0
 43
0.0
 43
1.0
 43
0.0
 43
0.0
 43
0.0
 43
0.0
 43
1.0
 77
     0
 78
     2
 47
0.0208333333333333
 47
0.0
 47
0.0
 47
0.0
 47
0.0
 47
0.0208333333333333
 47
0.0
 47
0.0
 47
0.0
 47
0.0
 47
1.0
 47
0.0
 47
0.0
 47
0.0
 47
0.0
 47
1.0
171
     0
172
     2
 49
0.0208333333333333
 49
0.0
 49
0.0
 49
0.0
 49
0.0
 49
0.0208333333333333
 49
0.0
 49
0.0
 49
0.0
 49
0.0
 49
1.0
 49
0.0
 49
0.0
 49
0.0
 49
0.0
 49
1.0
175
     0
176
     2
142
0.0208333333333333
142
0.0
142
0.0
142
0.0
142
0.0
142
0.0208333333333333
142
0.0
142
0.0
142
0.0
142
0.0
142
1.0
142
0.0
142
0.0
142
0.0
142
0.0
142
1.0
179
     0
270
     2
144
0.0208333333333333
144
0.0
144
0.0
144
0.0
144
0.0
144
0.0208333333333333
144
0.0
144
0.0
144
0.0
144
0.0
144
1.0
144
0.0
144
0.0
144
0.0
144
0.0
144
1.0
274
     2
147
0.0208333333333333
147
0.0
147
0.0
147
0.0
147
0.0
147
0.0208333333333333
147
0.0
147
0.0
147
0.0
147
0.0
147
1.0
147
0.0
147
0.0
147
0.0
147
0.0
147
1.0
  0
ACAD_PROXY_OBJECT
  5
D9E8
102
{ACAD_REACTORS
330
D9E7
102
}
330
D9E7
100
AcDbZombieObject
 90
      499
 91
      511
 93
      610
310
40901902A4063FBFFFFFE000000000000002040AD7A3703D0AD73F4214DD185B99185C990000000000000104090141901A00000000000004100000000000000041025764000000000000300FC0
340
12
340
0
340
F
340
0
 94
        0
1001
ACAD_MLEADERVER
1070
     2
  0
MLINESTYLE
  5
1C
102
{ACAD_REACTORS
330
1B
102
}
330
1B
100
AcDbMlineStyle
  2
STANDARD
 70
     0
  3

 62
   256
 51
90.0
 52
90.0
 71
     2
 49
0.5
 62
   256
  6
BYLAYER
 49
-0.5
 62
   256
  6
BYLAYER
  0
ACAD_PROXY_OBJECT
  5
D9C6
102
{ACAD_REACTORS
330
D9C5
102
}
330
D9C5
100
AcDbZombieObject
 90
      499
 91
      510
 93
       41
310
903313A31580
  0
ACAD_PROXY_OBJECT
  5
D9C7
102
{ACAD_REACTORS
330
D9C5
102
}
330
D9C5
100
AcDbZombieObject
 90
      499
 91
      510
 93
      105
310
903313A324000000000000004000
  0
ACAD_PROXY_OBJECT
  5
D9C8
102
{ACAD_REACTORS
330
D9C5
102
}
330
D9C5
100
AcDbZombieObject
 90
      499
 91
      510
 93
      105
310
903313A344000000000000104000
  0
ACAD_PROXY_OBJECT
  5
D9C9
102
{ACAD_REACTORS
330
D9C5
102
}
330
D9C5
100
AcDbZombieObject
 90
      499
 91
      510
 93
      105
310
903313A354000000000000144000
  0
ACAD_PROXY_OBJECT
  5
D9CA
102
{ACAD_REACTORS
330
D9C5
102
}
330
D9C5
100
AcDbZombieObject
 90
      499
 91
      510
 93
      105
310
903313A384000000000000204000
  0
ACAD_PROXY_OBJECT
  5
D9CB
102
{ACAD_REACTORS
330
D9C5
102
}
330
D9C5
100
AcDbZombieObject
 90
      499
 91
      510
 93
      113
310
904313A31304000000000000244000
  0
ACAD_PROXY_OBJECT
  5
D9CC
102
{ACAD_REACTORS
330
D9C5
102
}
330
D9C5
100
AcDbZombieObject
 90
      499
 91
      510
 93
      113
310
904313A31364000000000000304000
  0
ACAD_PROXY_OBJECT
  5
D9CD
102
{ACAD_REACTORS
330
D9C5
102
}
330
D9C5
100
AcDbZombieObject
 90
      499
 91
      510
 93
      113
310
904313A32304000000000000344000
  0
ACAD_PROXY_OBJECT
  5
D9CE
102
{ACAD_REACTORS
330
D9C5
102
}
330
D9C5
100
AcDbZombieObject
 90
      499
 91
      510
 93
      113
310
904313A333040000000000003E4000
  0
ACAD_PROXY_OBJECT
  5
D9CF
102
{ACAD_REACTORS
330
D9C5
102
}
330
D9C5
100
AcDbZombieObject
 90
      499
 91
      510
 93
      113
310
904313A34304000000000000444000
  0
ACAD_PROXY_OBJECT
  5
D9D0
102
{ACAD_REACTORS
330
D9C5
102
}
330
D9C5
100
AcDbZombieObject
 90
      499
 91
      510
 93
      113
310
904313A35304000000000000494000
  0
ACAD_PROXY_OBJECT
  5
D9D1
102
{ACAD_REACTORS
330
D9C5
102
}
330
D9C5
100
AcDbZombieObject
 90
      499
 91
      510
 93
      121
310
905313A3130304000000000000594000
  0
ACAD_PROXY_OBJECT
  5
D9D2
102
{ACAD_REACTORS
330
D9C5
102
}
330
D9C5
100
AcDbZombieObject
 90
      499
 91
      510
 93
      105
310
903323A310000000000000010100
  0
ACAD_PROXY_OBJECT
  5
D9D3
102
{ACAD_REACTORS
330
D9C5
102
}
330
D9C5
100
AcDbZombieObject
 90
      499
 91
      510
 93
      105
310
903343A310000000000000410100
  0
ACAD_PROXY_OBJECT
  5
D9D4
102
{ACAD_REACTORS
330
D9C5
102
}
330
D9C5
100
AcDbZombieObject
 90
      499
 91
      510
 93
      105
310
903383A310000000000000810100
  0
ACAD_PROXY_OBJECT
  5
D9D5
102
{ACAD_REACTORS
330
D9C5
102
}
330
D9C5
100
AcDbZombieObject
 90
      499
 91
      510
 93
      113
310
90431303A310000000000000910100
  0
ACAD_PROXY_OBJECT
  5
D9D6
102
{ACAD_REACTORS
330
D9C5
102
}
330
D9C5
100
AcDbZombieObject
 90
      499
 91
      510
 93
      121
310
9053130303A310000000000001650100
  0
ACAD_PROXY_OBJECT
  5
D9D7
102
{ACAD_REACTORS
330
D9C5
102
}
330
D9C5
100
AcDbZombieObject
 90
      499
 91
      510
 93
      257
310
90E312F31323822203D2031272D3022000000000000200FC000000000000284000
  0
ACAD_PROXY_OBJECT
  5
D9D8
102
{ACAD_REACTORS
330
D9C5
102
}
330
D9C5
100
AcDbZombieObject
 90
      499
 91
      510
 93
      249
310
90D312F363422203D2031272D3022000000000000240FC000000000000284000
  0
ACAD_PROXY_OBJECT
  5
D9D9
102
{ACAD_REACTORS
330
D9C5
102
}
330
D9C5
100
AcDbZombieObject
 90
      499
 91
      510
 93
      249
310
90D312F333222203D2031272D3022000000000000280FC000000000000284000
  0
ACAD_PROXY_OBJECT
  5
D9DA
102
{ACAD_REACTORS
330
D9C5
102
}
330
D9C5
100
AcDbZombieObject
 90
      499
 91
      510
 93
      249
310
90D312F313622203D2031272D30220000000000002C0FC000000000000284000
  0
ACAD_PROXY_OBJECT
  5
D9DB
102
{ACAD_REACTORS
330
D9C5
102
}
330
D9C5
100
AcDbZombieObject
 90
      499
 91
      510
 93
      249
310
90D332F333222203D2031272D30220000000000002E0FC000000000000284000
  0
ACAD_PROXY_OBJECT
  5
D9DC
102
{ACAD_REACTORS
330
D9C5
102
}
330
D9C5
100
AcDbZombieObject
 90
      499
 91
      510
 93
      241
310
90C312F3822203D2031272D3022000000000000300FC000000000000284000
  0
ACAD_PROXY_OBJECT
  5
D9DD
102
{ACAD_REACTORS
330
D9C5
102
}
330
D9C5
100
AcDbZombieObject
 90
      499
 91
      510
 93
      249
310
90D332F313622203D2031272D3022000000000000320FC000000000000284000
  0
ACAD_PROXY_OBJECT
  5
D9DE
102
{ACAD_REACTORS
330
D9C5
102
}
330
D9C5
100
AcDbZombieObject
 90
      499
 91
      510
 93
      241
310
90C312F3422203D2031272D3022000000000000340FC000000000000284000
  0
ACAD_PROXY_OBJECT
  5
D9DF
102
{ACAD_REACTORS
330
D9C5
102
}
330
D9C5
100
AcDbZombieObject
 90
      499
 91
      510
 93
      241
310
90C332F3822203D2031272D3022000000000000360FC000000000000284000
  0
ACAD_PROXY_OBJECT
  5
D9E0
102
{ACAD_REACTORS
330
D9C5
102
}
330
D9C5
100
AcDbZombieObject
 90
      499
 91
      510
 93
      241
310
90C312F3222203D2031272D3022000000000000380FC000000000000284000
  0
ACAD_PROXY_OBJECT
  5
D9E1
102
{ACAD_REACTORS
330
D9C5
102
}
330
D9C5
100
AcDbZombieObject
 90
      499
 91
      510
 93
      241
310
90C332F3422203D2031272D30220000000000003A0FC000000000000284000
  0
ACAD_PROXY_OBJECT
  5
D9E2
102
{ACAD_REACTORS
330
D9C5
102
}
330
D9C5
100
AcDbZombieObject
 90
      499
 91
      510
 93
      161
310
90A3122203D2031272D30224000000000000284000
  0
ACAD_PROXY_OBJECT
  5
D9E3
102
{ACAD_REACTORS
330
D9C5
102
}
330
D9C5
100
AcDbZombieObject
 90
      499
 91
      510
 93
      257
310
90E312D312F3222203D2031272D30220000000000003E0FC000000000000284000
  0
ACAD_PROXY_OBJECT
  5
D9E4
102
{ACAD_REACTORS
330
D9C5
102
}
330
D9C5
100
AcDbZombieObject
 90
      499
 91
      510
 93
      225
310
90A3322203D2031272D302200000000000002100000000000000284000
  0
ACAD_PROXY_OBJECT
  5
D9E5
102
{ACAD_REACTORS
330
D9C5
102
}
330
D9C5
100
AcDbZombieObject
 90
      499
 91
      510
 93
      225
310
90A3622203D2031272D302200000000000006100000000000000284000
  0
ACAD_PROXY_OBJECT
  5
D9E6
102
{ACAD_REACTORS
330
D9C5
102
}
330
D9C5
100
AcDbZombieObject
 90
      499
 91
      510
 93
      249
310
90D31272D3022203D2031272D30220000000000000A100000000000000284000
  0
ACAD_PROXY_OBJECT
  5
D9BA
102
{ACAD_REACTORS
330
D9B4
102
}
330
D9B4
100
AcDbZombieObject
 90
      499
 91
      509
 93
      436
310
42CC9915DA5C99599C985B595049028333333333333E3BF0000000000000FB0107901411070040501600405405064090741402480A0340
1001
ACAD
1000
AcDbSavedByObjectVersion
1070
     0
  0
ACAD_PROXY_OBJECT
  5
D9BC
102
{ACAD_REACTORS
330
D9B4
102
}
330
D9B4
100
AcDbZombieObject
 90
      499
 91
      509
 93
      500
310
424CD108121A5919195B90640502408333333333333E3BF0000000000000FB01079024090700405020000000000001110200405405064090740C02480A0340
1001
ACAD
1000
AcDbSavedByObjectVersion
1070
     0
  0
ACAD_PROXY_OBJECT
  5
D9BB
102
{ACAD_REACTORS
330
D9B4
102
}
330
D9B4
100
AcDbZombieObject
 90
      499
 91
      509
 93
      436
310
42CCD915DA5C99599C985B595059028333333333333E3BF0000000000000FB0107901411070040501600405405064090741402480A0340
1001
ACAD
1000
AcDbSavedByObjectVersion
1070
     0
  0
ACAD_PROXY_OBJECT
  5
D9B9
102
{ACAD_REACTORS
330
D9B4
102
}
330
D9B4
100
AcDbZombieObject
 90
      499
 91
      509
 93
      388
310
4150985CDA58D07406404333333333333E3BF0000000000000FB0107A41107004050150841D405064090741402480A0350
1001
ACAD
1000
AcDbSavedByObjectVersion
1070
     0
  0
ACAD_PROXY_OBJECT
  5
D9C0
102
{ACAD_REACTORS
330
D9B4
102
}
330
D9B4
100
AcDbZombieObject
 90
      499
 91
      509
 93
      428
310
42109C9A59DA1D195B90C409028333333333333E3BF0000000000000FB010790141107004050150841D405064090741402480A029950
1001
ACAD
1000
AcDbSavedByObjectVersion
1070
     0
  0
ACAD_PROXY_OBJECT
  5
D9C4
102
{ACAD_REACTORS
330
D9B4
102
}
330
D9B4
100
AcDbZombieObject
 90
      499
 91
      509
 93
      452
310
42D0DBDB1BDC90DA185B99D95104090240C333333333333E3BF0000000000000FB0108901411070040501508421405064090741402480A0350
1001
ACAD
1000
AcDbSavedByObjectVersion
1070
     0
  0
ACAD_PROXY_OBJECT
  5
D9BD
102
{ACAD_REACTORS
330
D9B4
102
}
330
D9B4
100
AcDbZombieObject
 90
      499
 91
      509
 93
      500
310
4290DBDB98D95C1D1D585B10940D028333333333333E3BF0000000000000FB0107902409070040501000000000000111010841D405064090740C02480A0340
1001
ACAD
1000
AcDbSavedByObjectVersion
1070
     0
  0
ACAD_PROXY_OBJECT
  5
D9BF
102
{ACAD_REACTORS
330
D9B4
102
}
330
D9B4
100
AcDbZombieObject
 90
      499
 91
      509
 93
      412
310
40D11A5B50B409028333333333333E3BF0000000000000FB010790141107004050150841D405064090741402480A02677FFFFFD0
1001
ACAD
1000
AcDbSavedByObjectVersion
1070
     0
  0
ACAD_PROXY_OBJECT
  5
19C2F
102
{ACAD_REACTORS
330
D9B4
102
}
330
D9B4
100
AcDbZombieObject
 90
      499
 91
      509
 93
      452
310
43115919D950DBDB1BDC93D999916409028333333333333E3BF0000000000000FB010790141107004050150841D405064090741402480A0350
1001
ACAD
1000
AcDbSavedByObjectVersion
1070
     0
  0
ACAD_PROXY_OBJECT
  5
D9C3
102
{ACAD_REACTORS
330
D9B4
102
}
330
D9B4
100
AcDbZombieObject
 90
      499
 91
      509
 93
      444
310
42D19858D95C185D1D195C9B90F409028333333333333E3BF0000000000000FB010790141107004050150841D405064090741402480A0350
1001
ACAD
1000
AcDbSavedByObjectVersion
1070
     0
  0
ACAD_PROXY_OBJECT
  5
D9B5
102
{ACAD_REACTORS
330
D9B4
102
}
330
D9B4
100
AcDbZombieObject
 90
      499
 91
      509
 93
      388
310
41119B185D240901404333333333333E3BF0000000000000F9010740A41107004050150841D405064090741402480A1B50
1001
ACAD
1000
AcDbSavedByObjectVersion
1070
     0
  0
ACAD_PROXY_OBJECT
  5
D9B6
102
{ACAD_REACTORS
330
D9B4
102
}
330
D9B4
100
AcDbZombieObject
 90
      499
 91
      509
 93
      476
310
43519B185D15DA5D1A115919D95CD0140901404333333333333E3BF0000000000000F9010740901411070040501600405405064090741402480A1B50
1001
ACAD
1000
AcDbSavedByObjectVersion
1070
     0
  0
ACAD_PROXY_OBJECT
  5
D9B7
102
{ACAD_REACTORS
330
D9B4
102
}
330
D9B4
100
AcDbZombieObject
 90
      499
 91
      509
 93
      412
310
41D1DBDD5C985D5910240902404333333333333E3BF0000000000000F9010740A411070040501641D405064090741402480A1B50
1001
ACAD
1000
AcDbSavedByObjectVersion
1070
     0
  0
ACAD_PROXY_OBJECT
  5
D9B8
102
{ACAD_REACTORS
330
D9B4
102
}
330
D9B4
100
AcDbZombieObject
 90
      499
 91
      509
 93
      500
310
4411DBDD5C985D5915DA5D1A115919D95CD0340902404333333333333E3BF0000000000000F9010740901411070040501600405405064090741402480A1B50
1001
ACAD
1000
AcDbSavedByObjectVersion
1070
     0
  0
ACAD_PROXY_OBJECT
  5
19C7E
102
{ACAD_REACTORS
330
D9B4
102
}
330
D9B4
100
AcDbZombieObject
 90
      499
 91
      509
 93
      476
310
41921A5919195B90640502408333333333333E3BF0000000000000FB01079024090700405020000000000001110200405405064090740C02480A0340
1001
ACAD
1000
AcDbSavedByObjectVersion
1070
     0
  0
ACAD_PROXY_OBJECT
  5
19C2D
102
{ACAD_REACTORS
330
D9B4
102
}
330
D9B4
100
AcDbZombieObject
 90
      499
 91
      509
 93
      428
310
42529A5D1D195C93D999914409028333333333333E3BF0000000000000FB010790141107004050150A41D405064090741402480A0350
1001
ACAD
1000
AcDbSavedByObjectVersion
1070
     0
  0
ACAD_PROXY_OBJECT
  5
D9C2
102
{ACAD_REACTORS
330
D9B4
102
}
330
D9B4
100
AcDbZombieObject
 90
      499
 91
      509
 93
      444
310
42D31A5B995C185D1D195C9B90E409028333333333333E3BF0000000000000FB010790141107004050750841D405064090741402483A0350
1001
ACAD
1000
AcDbSavedByObjectVersion
1070
     0
  0
ACAD_PROXY_OBJECT
  5
19C84
102
{ACAD_REACTORS
330
D9B4
102
}
330
D9B4
100
AcDbZombieObject
 90
      499
 91
      509
 93
      484
310
42135BD9195B1A5B99D0A409028333333333333E3BF0000000000000F901074090290700405010000000000201990108421405064090741402480A1B40
1001
ACAD
1000
AcDbSavedByObjectVersion
1070
     0
  0
ACAD_PROXY_OBJECT
  5
19C2E
102
{ACAD_REACTORS
330
D9B4
102
}
330
D9B4
100
AcDbZombieObject
 90
      499
 91
      509
 93
      444
310
42D3DD995C9A185B99D3D999915409028333333333333E3BF0000000000000FB010790141107004050150941D405064090741402480A0350
1001
ACAD
1000
AcDbSavedByObjectVersion
1070
     0
  0
ACAD_PROXY_OBJECT
  5
D9BE
102
{ACAD_REACTORS
330
D9B4
102
}
330
D9B4
100
AcDbZombieObject
 90
      499
 91
      509
 93
      420
310
425499585B1A5CDD1A58D08409028333333333333E3BF0000000000000FB01079019070040501508421405064090741402480A1B40
1001
ACAD
1000
AcDbSavedByObjectVersion
1070
     0
  0
ACAD_PROXY_OBJECT
  5
19C83
102
{ACAD_REACTORS
330
D9B4
102
}
330
D9B4
100
AcDbZombieObject
 90
      499
 91
      509
 93
      420
310
4194DA1859195911B40902404333333333333E3BF0000000000000F9010740A41107004050150800405405064090840C02480A0B40
1001
ACAD
1000
AcDbSavedByObjectVersion
1070
     0
  0
ACAD_PROXY_OBJECT
  5
19C82
102
{ACAD_REACTORS
330
D9B4
102
}
330
D9B4
100
AcDbZombieObject
 90
      499
 91
      509
 93
      516
310
4454DA18591959081DDA5D1A08195919D95CD1A40902404333333333333E3BF0000000000000F901074090142907004050250800405405064090740C02480A0B40
1001
ACAD
1000
AcDbSavedByObjectVersion
1070
     0
  0
ACAD_PROXY_OBJECT
  5
19C7F
102
{ACAD_REACTORS
330
D9B4
102
}
330
D9B4
100
AcDbZombieObject
 90
      499
 91
      509
 93
      532
310
4394DA1859195CC81BD98811DC985E5174090240C333333333333E3BF0000000000000FB01079024090741D01000000000000111010841D405064090740C02480A0340
1001
ACAD
1000
AcDbSavedByObjectVersion
1070
     0
  0
ACAD_PROXY_OBJECT
  5
19C80
102
{ACAD_REACTORS
330
D9B4
102
}
330
D9B4
100
AcDbZombieObject
 90
      499
 91
      509
 93
      476
310
41D4DAD95D18DA1E51840502408333333333333E3BF0000000000000FB01079024090741D01000000000000111010B41D405064090741802480A0340
1001
ACAD
1000
AcDbSavedByObjectVersion
1070
     0
  0
ACAD_PROXY_OBJECT
  5
D9C1
102
{ACAD_REACTORS
330
D9B4
102
}
330
D9B4
100
AcDbZombieObject
 90
      499
 91
      509
 93
      412
310
41D51A1A58DAD95B90D409028333333333333E3BF0000000000000FB010790141107004050150C41D405064090741402480A0350
1001
ACAD
1000
AcDbSavedByObjectVersion
1070
     0
  0
ACAD_PROXY_OBJECT
  5
19C7D
102
{ACAD_REACTORS
330
D9B4
102
}
330
D9B4
100
AcDbZombieObject
 90
      499
 91
      509
 93
      420
310
4255DA5C99599C985B595059028333333333333E3BF0000000000000FB0107901411070040501600405405064090740C02480A0340
1001
ACAD
1000
AcDbSavedByObjectVersion
1070
     0
  0
ACAD_PROXY_OBJECT
  5
19C81
102
{ACAD_REACTORS
330
D9B4
102
}
330
D9B4
100
AcDbZombieObject
 90
      499
 91
      509
 93
      404
310
41560B54985E51940902404000000000000E03F0000000000000FB010740501907004050150841D405064090740C02480A1B40
1001
ACAD
1000
AcDbSavedByObjectVersion
1070
     0
  0
XRECORD
  5
1B4EE
102
{ACAD_REACTORS
330
1B4ED
102
}
330
1B4ED
100
AcDbXrecord
340
18D
  0
XRECORD
  5
1B4EF
102
{ACAD_REACTORS
330
1B4ED
102
}
330
1B4ED
100
AcDbXrecord
340
18C
  0
DICTIONARYVAR
  5
1A68D
102
{ACAD_REACTORS
330
37
102
}
330
37
100
DictionaryVariables
280
     0
  1
1:1
  0
DICTIONARYVAR
  5
DA6A
102
{ACAD_REACTORS
330
37
102
}
330
37
100
DictionaryVariables
280
     0
  1
Standard
  0
DICTIONARYVAR
  5
29E
102
{ACAD_REACTORS
330
37
102
}
330
37
100
DictionaryVariables
280
     0
  1
Standard
  0
DICTIONARYVAR
  5
38
102
{ACAD_REACTORS
330
37
102
}
330
37
100
DictionaryVariables
280
     0
  1
-1
  0
DICTIONARYVAR
  5
1CE
102
{ACAD_REACTORS
330
37
102
}
330
37
100
DictionaryVariables
280
     0
  1
2
  0
DICTIONARYVAR
  5
704E
102
{ACAD_REACTORS
330
37
102
}
330
37
100
DictionaryVariables
280
     0
  1
1
  0
DICTIONARYVAR
  5
DA6D
102
{ACAD_REACTORS
330
37
102
}
330
37
100
DictionaryVariables
280
     0
  1
0
  0
DICTIONARYVAR
  5
7052
102
{ACAD_REACTORS
330
37
102
}
330
37
100
DictionaryVariables
280
     0
  1
8
  0
DICTIONARYVAR
  5
7051
102
{ACAD_REACTORS
330
37
102
}
330
37
100
DictionaryVariables
280
     0
  1
1
  0
DICTIONARYVAR
  5
1A6DD
102
{ACAD_REACTORS
330
37
102
}
330
37
100
DictionaryVariables
280
     0
  1
0
  0
DICTIONARYVAR
  5
704F
102
{ACAD_REACTORS
330
37
102
}
330
37
100
DictionaryVariables
280
     0
  1
8
  0
DICTIONARYVAR
  5
7050
102
{ACAD_REACTORS
330
37
102
}
330
37
100
DictionaryVariables
280
     0
  1
2
  0
DICTIONARYVAR
  5
1CF
102
{ACAD_REACTORS
330
37
102
}
330
37
100
DictionaryVariables
280
     0
  1

  0
DICTIONARYVAR
  5
DA6C
102
{ACAD_REACTORS
330
37
102
}
330
37
100
DictionaryVariables
280
     0
  1
127
  0
DICTIONARYVAR
  5
1B242
102
{ACAD_REACTORS
330
37
102
}
330
37
100
DictionaryVariables
280
     0
  1
2
  0
DICTIONARY
  5
1B68B
330
D9A4
100
AcDbDictionary
  3
ACAD_XREC_ROUNDTRIP
360
1B68C
1001
ACAD
1000
TREAT_AS_HARD
1070
     1
  0
DICTIONARY
  5
1B68D
330
D99C
100
AcDbDictionary
  3
ACAD_XREC_ROUNDTRIP
360
1B68E
1001
ACAD
1000
TREAT_AS_HARD
1070
     1
  0
DICTIONARY
  5
1B68F
330
D9AC
100
AcDbDictionary
  3
ACAD_XREC_ROUNDTRIP
360
1B690
1001
ACAD
1000
TREAT_AS_HARD
1070
     1
  0
XRECORD
  5
1B68C
102
{ACAD_REACTORS
330
1B68B
102
}
330
1B68B
100
AcDbXrecord
102
MATERIAL
148
0.0
149
0.0
149
0.0
 93
        0
 94
      127
282
     0
 72
     0
 77
     0
171
     0
175
     0
179
     0
273
     0
  0
XRECORD
  5
1B68E
102
{ACAD_REACTORS
330
1B68D
102
}
330
1B68D
100
AcDbXrecord
102
MATERIAL
148
0.0
149
0.0
149
0.0
 93
        0
 94
      127
282
     0
 72
     0
 77
     0
171
     0
175
     0
179
     0
273
     0
  0
XRECORD
  5
1B690
102
{ACAD_REACTORS
330
1B68F
102
}
330
1B68F
100
AcDbXrecord
102
MATERIAL
148
0.0
149
0.0
149
0.0
 93
        0
 94
      127
282
     0
 72
     0
 77
     0
171
     0
175
     0
179
     0
273
     0
  0
ENDSEC
  0
EOF
