  0
SECTION
  2
HEADER
  9
$ACADVER
  1
AC1012
  9
$DWGCODEPAGE
  3
ansi_932
  9
$INSBASE
 10
0.0
 20
0.0
 30
0.0
  9
$EXTMIN
 10
1923.474714059272
 20
-725.5417896031345
 30
0.0
  9
$EXTMAX
 10
2555.774453275721
 20
-303.6509378784706
 30
0.0000000001127424
  9
$LIMMIN
 10
0.0
 20
0.0
  9
$LIMMAX
 10
420.0
 20
297.0
  9
$ORTHOMODE
 70
     0
  9
$REGENMODE
 70
     1
  9
$FILLMODE
 70
     1
  9
$QTEXTMODE
 70
     0
  9
$MIRRTEXT
 70
     0
  9
$DRAGMODE
 70
     2
  9
$LTSCALE
 40
0.5
  9
$OSMODE
 70
  2175
  9
$ATTMODE
 70
     1
  9
$TEXTSIZE
 40
4.0
  9
$TRACEWID
 40
1.0
  9
$TEXTSTYLE
  7
STANDARD
  9
$CLAYER
  8
1TEXT
  9
$CELTYPE
  6
BYLAYER
  9
$CECOLOR
 62
   256
  9
$CELTSCALE
 40
1.0
  9
$DELOBJ
 70
     1
  9
$DISPSILH
 70
     0
  9
$DIMSCALE
 40
1.0
  9
$DIMASZ
 40
2.0
  9
$DIMEXO
 40
0.0
  9
$DIMDLI
 40
7.0
  9
$DIMRND
 40
0.0
  9
$DIMDLE
 40
0.0
  9
$DIMEXE
 40
1.0
  9
$DIMTP
 40
0.0
  9
$DIMTM
 40
0.0
  9
$DIMTXT
 40
3.5
  9
$DIMCEN
 40
0.0
  9
$DIMTSZ
 40
0.0
  9
$DIMTOL
 70
     0
  9
$DIMLIM
 70
     0
  9
$DIMTIH
 70
     0
  9
$DIMTOH
 70
     0
  9
$DIMSE1
 70
     0
  9
$DIMSE2
 70
     0
  9
$DIMTAD
 70
     1
  9
$DIMZIN
 70
     8
  9
$DIMBLK
  1

  9
$DIMASO
 70
     1
  9
$DIMSHO
 70
     1
  9
$DIMPOST
  1
 
  9
$DIMAPOST
  1

  9
$DIMALT
 70
     0
  9
$DIMALTD
 70
     2
  9
$DIMALTF
 40
25.4
  9
$DIMLFAC
 40
1.0
  9
$DIMTOFL
 70
     1
  9
$DIMTVP
 40
0.0
  9
$DIMTIX
 70
     0
  9
$DIMSOXD
 70
     0
  9
$DIMSAH
 70
     1
  9
$DIMBLK1
  1
OPEN30
  9
$DIMBLK2
  1
OPEN30
  9
$DIMSTYLE
  2
NEWX10
  9
$DIMCLRD
 70
   256
  9
$DIMCLRE
 70
   256
  9
$DIMCLRT
 70
   201
  9
$DIMTFAC
 40
0.7
  9
$DIMGAP
 40
0.7
  9
$DIMJUST
 70
     0
  9
$DIMSD1
 70
     0
  9
$DIMSD2
 70
     0
  9
$DIMTOLJ
 70
     1
  9
$DIMTZIN
 70
     8
  9
$DIMALTZ
 70
     0
  9
$DIMALTTZ
 70
     0
  9
$DIMFIT
 70
     2
  9
$DIMUPT
 70
     0
  9
$DIMUNIT
 70
     2
  9
$DIMDEC
 70
     2
  9
$DIMTDEC
 70
     4
  9
$DIMALTU
 70
     2
  9
$DIMALTTD
 70
     2
  9
$DIMTXSTY
  7
STANDARD
  9
$DIMAUNIT
 70
     0
  9
$LUNITS
 70
     2
  9
$LUPREC
 70
     4
  9
$SKETCHINC
 40
1.0
  9
$FILLETRAD
 40
0.0
  9
$AUNITS
 70
     0
  9
$AUPREC
 70
     2
  9
$MENU
  1
acad
  9
$ELEVATION
 40
0.0
  9
$PELEVATION
 40
0.0
  9
$THICKNESS
 40
0.0
  9
$LIMCHECK
 70
     0
  9
$CHAMFERA
 40
10.0
  9
$CHAMFERB
 40
10.0
  9
$CHAMFERC
 40
20.0
  9
$CHAMFERD
 40
0.0
  9
$SKPOLY
 70
     0
  9
$TDCREATE
 40
2451318.621352917
  9
$TDUPDATE
 40
2458628.369871238
  9
$TDINDWG
 40
1.6483518171
  9
$TDUSRTIMER
 40
1.6483518171
  9
$USRTIMER
 70
     1
  9
$ANGBASE
 50
0.0
  9
$ANGDIR
 70
     0
  9
$PDMODE
 70
     0
  9
$PDSIZE
 40
0.0
  9
$PLINEWID
 40
0.0
  9
$COORDS
 70
     2
  9
$SPLFRAME
 70
     0
  9
$SPLINETYPE
 70
     6
  9
$SPLINESEGS
 70
     8
  9
$ATTDIA
 70
     0
  9
$ATTREQ
 70
     1
  9
$HANDLING
 70
     1
  9
$HANDSEED
  5
1B447
  9
$SURFTAB1
 70
     6
  9
$SURFTAB2
 70
     6
  9
$SURFTYPE
 70
     6
  9
$SURFU
 70
     6
  9
$SURFV
 70
     6
  9
$UCSNAME
  2

  9
$UCSORG
 10
0.0
 20
0.0
 30
0.0
  9
$UCSXDIR
 10
1.0
 20
0.0
 30
0.0
  9
$UCSYDIR
 10
0.0
 20
1.0
 30
0.0
  9
$PUCSNAME
  2

  9
$PUCSORG
 10
0.0
 20
0.0
 30
0.0
  9
$PUCSXDIR
 10
1.0
 20
0.0
 30
0.0
  9
$PUCSYDIR
 10
0.0
 20
1.0
 30
0.0
  9
$USERI1
 70
     0
  9
$USERI2
 70
     0
  9
$USERI3
 70
     0
  9
$USERI4
 70
     0
  9
$USERI5
 70
     0
  9
$USERR1
 40
0.0
  9
$USERR2
 40
0.0
  9
$USERR3
 40
0.0
  9
$USERR4
 40
0.0
  9
$USERR5
 40
0.0
  9
$WORLDVIEW
 70
     1
  9
$SHADEDGE
 70
     3
  9
$SHADEDIF
 70
    70
  9
$TILEMODE
 70
     1
  9
$MAXACTVP
 70
    48
  9
$PINSBASE
 10
0.0
 20
0.0
 30
0.0
  9
$PLIMCHECK
 70
     0
  9
$PEXTMIN
 10
1.000000000000000E+20
 20
1.000000000000000E+20
 30
1.000000000000000E+20
  9
$PEXTMAX
 10
-1.000000000000000E+20
 20
-1.000000000000000E+20
 30
-1.000000000000000E+20
  9
$PLIMMIN
 10
0.0
 20
0.0
  9
$PLIMMAX
 10
420.0
 20
297.0
  9
$UNITMODE
 70
     0
  9
$VISRETAIN
 70
     1
  9
$PLINEGEN
 70
     0
  9
$PSLTSCALE
 70
     1
  9
$TREEDEPTH
 70
  3020
  9
$PICKSTYLE
 70
     1
  9
$CMLSTYLE
  2
STANDARD
  9
$CMLJUST
 70
     0
  9
$CMLSCALE
 40
20.0
  9
$SAVEIMAGES
 70
     1
  0
ENDSEC
  0
SECTION
  2
CLASSES
  0
CLASS
  1
DICTIONARYVAR
  2
AcDbDictionaryVar
  3
ObjectDBX Classes
 90
        0
280
     0
281
     0
  0
CLASS
  1
IDBUFFER
  2
AcDbIdBuffer
  3
ObjectDBX Classes
 90
    32768
280
     0
281
     0
  0
CLASS
  1
LWPOLYLINE
  2
AcDbPolyline
  3
ObjectDBX Classes
 90
    32768
280
     0
281
     1
  0
CLASS
  1
ACDBDICTIONARYWDFLT
  2
AcDbDictionaryWithDefault
  3
ObjectDBX Classes
 90
    32768
280
     0
281
     0
  0
CLASS
  1
ACDBPLACEHOLDER
  2
AcDbPlaceHolder
  3
ObjectDBX Classes
 90
        0
280
     0
281
     0
  0
CLASS
  1
LAYOUT
  2
AcDbLayout
  3
ObjectDBX Classes
 90
        0
280
     0
281
     0
  0
CLASS
  1
TABLESTYLE
  2
AcDbTableStyle
  3
ObjectDBX Classes
 90
     4095
280
     0
281
     0
  0
CLASS
  1
SORTENTSTABLE
  2
AcDbSortentsTable
  3
ObjectDBX Classes
 90
    32768
280
     0
281
     0
  0
CLASS
  1
MATERIAL
  2
AcDbMaterial
  3
ObjectDBX Classes
 90
     1153
280
     0
281
     0
  0
CLASS
  1
VISUALSTYLE
  2
AcDbVisualStyle
  3
ObjectDBX Classes
 90
     4095
280
     0
281
     0
  0
CLASS
  1
SCALE
  2
AcDbScale
  3
ObjectDBX Classes
 90
     1153
280
     0
281
     0
  0
CLASS
  1
MLEADERSTYLE
  2
AcDbMLeaderStyle
  3
ACDB_MLEADERSTYLE_CLASS
 90
     4095
280
     0
281
     0
  0
CLASS
  1
CELLSTYLEMAP
  2
AcDbCellStyleMap
  3
ObjectDBX Classes
 90
     1152
280
     0
281
     0
  0
CLASS
  1
SUN
  2
AcDbSun
  3
SCENEOE
 90
     1153
280
     0
281
     0
  0
CLASS
  1
XRECORD
  2
AcDbXrecord
  3
ObjectDBX Classes
 90
    32768
280
     0
281
     0
  0
CLASS
  1
HATCH
  2
AcDbHatch
  3
ObjectDBX Classes
 90
    32768
280
     0
281
     1
  0
ENDSEC
  0
SECTION
  2
TABLES
  0
TABLE
  2
VPORT
  5
8
330
0
100
AcDbSymbolTable
 70
     1
  0
VPORT
  5
D991
330
8
100
AcDbSymbolTableRecord
100
AcDbViewportTableRecord
  2
*ACTIVE
 70
     0
 10
0.0
 20
0.0
 11
1.0
 21
1.0
 12
2239.624583667497
 22
-514.5963637408025
 13
0.0
 23
0.0
 14
10.0
 24
10.0
 15
10.0
 25
10.0
 16
0.0
 26
0.0
 36
1.0
 17
0.0
 27
0.0
 37
0.0
 40
452.9775460622707
 41
1.803066037735849
 42
50.0
 43
0.0
 44
0.0
 50
0.0
 51
0.0
 71
    16
 72
   100
 73
     1
 74
     1
 75
     0
 76
     0
 77
     0
 78
     0
  0
ENDTAB
  0
TABLE
  2
LTYPE
  5
5
330
0
100
AcDbSymbolTable
 70
     2
  0
LTYPE
  5
12
330
5
100
AcDbSymbolTableRecord
100
AcDbLinetypeTableRecord
  2
BYBLOCK
 70
     0
  3

 72
    65
 73
     0
 40
0.0
  0
LTYPE
  5
13
330
5
100
AcDbSymbolTableRecord
100
AcDbLinetypeTableRecord
  2
BYLAYER
 70
     0
  3

 72
    65
 73
     0
 40
0.0
  0
LTYPE
  5
14
330
5
100
AcDbSymbolTableRecord
100
AcDbLinetypeTableRecord
  2
CONTINUOUS
 70
     0
  3
Solid line
 72
    65
 73
     0
 40
0.0
  0
LTYPE
  5
13839
330
5
100
AcDbSymbolTableRecord
100
AcDbLinetypeTableRecord
  2
CENTER2
 70
     0
  3
Center (.5x) ___ _ ___ _ ___ _ ___ _ ___ _ ___
 72
    65
 73
     4
 40
28.575
 49
19.05
 74
     0
 49
-3.175
 74
     0
 49
3.175
 74
     0
 49
-3.175
 74
     0
  0
ENDTAB
  0
TABLE
  2
LAYER
  5
2
102
{ACAD_XDICTIONARY
360
E6A6
102
}
330
0
100
AcDbSymbolTable
 70
     5
  0
LAYER
  5
E
102
{ACAD_XDICTIONARY
360
DA05
102
}
330
2
100
AcDbSymbolTableRecord
100
AcDbLayerTableRecord
  2
0
 70
     0
 62
     7
  6
CONTINUOUS
  0
LAYER
  5
29
102
{ACAD_XDICTIONARY
360
DA07
102
}
330
2
100
AcDbSymbolTableRecord
100
AcDbLayerTableRecord
  2
1CENTER
 70
     0
 62
     7
  6
CENTER2
  0
LAYER
  5
31
102
{ACAD_XDICTIONARY
360
DA09
102
}
330
2
100
AcDbSymbolTableRecord
100
AcDbLayerTableRecord
  2
1TEXT
 70
     0
 62
     7
  6
CONTINUOUS
  0
LAYER
  5
243
102
{ACAD_XDICTIONARY
360
DA0F
102
}
330
2
100
AcDbSymbolTableRecord
100
AcDbLayerTableRecord
  2
01
 70
     0
 62
     1
  6
CONTINUOUS
  0
LAYER
  5
24E
102
{ACAD_XDICTIONARY
360
DA15
102
}
330
2
100
AcDbSymbolTableRecord
100
AcDbLayerTableRecord
  2
1DIM
 70
     0
 62
     7
  6
CONTINUOUS
  0
ENDTAB
  0
TABLE
  2
STYLE
  5
3
330
0
100
AcDbSymbolTable
 70
     1
  0
STYLE
  5
F
330
3
100
AcDbSymbolTableRecord
100
AcDbTextStyleTableRecord
  2
STANDARD
 70
     0
 40
0.0
 41
1.0
 50
0.0
 71
     0
 42
4.0
  3
txt.shx
  4
extfont.shx
  0
ENDTAB
  0
TABLE
  2
VIEW
  5
6
330
0
100
AcDbSymbolTable
 70
     0
  0
ENDTAB
  0
TABLE
  2
UCS
  5
7
330
0
100
AcDbSymbolTable
 70
     0
  0
ENDTAB
  0
TABLE
  2
APPID
  5
9
330
0
100
AcDbSymbolTable
 70
    15
  0
APPID
  5
10
330
9
100
AcDbSymbolTableRecord
100
AcDbRegAppTableRecord
  2
ACAD
 70
     0
  0
APPID
  5
21
330
9
100
AcDbSymbolTableRecord
100
AcDbRegAppTableRecord
  2
DRAWINGVARIABLESXDATA
 70
     0
  0
APPID
  5
64
330
9
100
AcDbSymbolTableRecord
100
AcDbRegAppTableRecord
  2
CONTENTTABDATA
 70
     0
  0
APPID
  5
65
330
9
100
AcDbSymbolTableRecord
100
AcDbRegAppTableRecord
  2
CONTENTCURRENTTAB
 70
     0
  0
APPID
  5
66
330
9
100
AcDbSymbolTableRecord
100
AcDbRegAppTableRecord
  2
CONTENTBLOCKDESCRIPTION
 70
     0
  0
APPID
  5
67
330
9
100
AcDbSymbolTableRecord
100
AcDbRegAppTableRecord
  2
CONTENTBLOCKICON
 70
     0
  0
APPID
  5
68
330
9
100
AcDbSymbolTableRecord
100
AcDbRegAppTableRecord
  2
CONTENTLONGBLOCKNAME
 70
     0
  0
APPID
  5
2AE
330
9
100
AcDbSymbolTableRecord
100
AcDbRegAppTableRecord
  2
ACAD_PSEXT
 70
     0
  0
APPID
  5
D9E9
330
9
100
AcDbSymbolTableRecord
100
AcDbRegAppTableRecord
  2
ACAD_MLEADERVER
 70
     0
  0
APPID
  5
19CF0
330
9
100
AcDbSymbolTableRecord
100
AcDbRegAppTableRecord
  2
ACADANNOTATIVE
 70
     0
  0
APPID
  5
19CF1
330
9
100
AcDbSymbolTableRecord
100
AcDbRegAppTableRecord
  2
ACDBBLOCKREPETAG
 70
     0
  0
APPID
  5
19CF2
330
9
100
AcDbSymbolTableRecord
100
AcDbRegAppTableRecord
  2
ACLAYERTOOLS
 70
     0
  0
APPID
  5
19CF3
330
9
100
AcDbSymbolTableRecord
100
AcDbRegAppTableRecord
  2
ACAD_NAV_VCDISPLAY
 70
     0
  0
APPID
  5
1A86C
330
9
100
AcDbSymbolTableRecord
100
AcDbRegAppTableRecord
  2
ACAD_OBJECT_CHANGE_GUID
 70
     0
  0
APPID
  5
1A960
330
9
100
AcDbSymbolTableRecord
100
AcDbRegAppTableRecord
  2
ACAECLAYERSTANDARD
 70
     0
  0
ENDTAB
  0
TABLE
  2
DIMSTYLE
  5
A
330
0
100
AcDbSymbolTable
 70
     1
  0
DIMSTYLE
105
48
330
A
100
AcDbSymbolTableRecord
100
AcDbDimStyleTableRecord
  2
NEWX10
 70
     0
  3
 
  4

  5

  6
OPEN30
  7
OPEN30
 40
1.0
 41
2.0
 42
0.0
 43
7.0
 44
1.0
 45
0.0
 46
0.0
 47
0.0
 48
0.0
140
3.5
141
0.0
142
0.0
143
25.4
144
1.0
145
0.0
146
0.7
147
0.7
 71
     0
 72
     0
 73
     0
 74
     0
 75
     0
 76
     0
 77
     1
 78
     8
170
     0
171
     2
172
     1
173
     1
174
     0
175
     0
176
   256
177
   256
178
   201
179
     2
270
     2
271
     2
272
     4
273
     2
274
     2
340
F
275
     0
280
     0
281
     0
282
     0
283
     1
284
     8
285
     0
286
     0
287
     2
288
     0
  0
ENDTAB
  0
TABLE
  2
BLOCK_RECORD
  5
1
330
0
100
AcDbSymbolTable
 70
     8
  0
BLOCK_RECORD
  5
18
102
{ACAD_XDICTIONARY
360
88F
102
}
330
1
100
AcDbSymbolTableRecord
100
AcDbBlockTableRecord
  2
*MODEL_SPACE
  0
BLOCK_RECORD
  5
15
330
1
100
AcDbSymbolTableRecord
100
AcDbBlockTableRecord
  2
*PAPER_SPACE
  0
BLOCK_RECORD
  5
42
330
1
100
AcDbSymbolTableRecord
100
AcDbBlockTableRecord
  2
_OPEN30
  0
BLOCK_RECORD
  5
19D42
330
1
100
AcDbSymbolTableRecord
100
AcDbBlockTableRecord
  2
A3WAKUKAWAJUN2017_HYOUDAI_
  0
BLOCK_RECORD
  5
1B2A7
330
1
100
AcDbSymbolTableRecord
100
AcDbBlockTableRecord
  2
*X146
  0
BLOCK_RECORD
  5
1B2F5
330
1
100
AcDbSymbolTableRecord
100
AcDbBlockTableRecord
  2
*X147
  0
BLOCK_RECORD
  5
1B347
330
1
100
AcDbSymbolTableRecord
100
AcDbBlockTableRecord
  2
*X148
  0
BLOCK_RECORD
  5
1B398
330
1
100
AcDbSymbolTableRecord
100
AcDbBlockTableRecord
  2
*X149
  0
BLOCK_RECORD
  5
1B3D5
330
1
100
AcDbSymbolTableRecord
100
AcDbBlockTableRecord
  2
*X150
  0
BLOCK_RECORD
  5
1B415
330
1
100
AcDbSymbolTableRecord
100
AcDbBlockTableRecord
  2
*X151
  0
ENDTAB
  0
ENDSEC
  0
SECTION
  2
BLOCKS
  0
BLOCK
  5
19
330
18
100
AcDbEntity
  8
0
100
AcDbBlockBegin
  2
*MODEL_SPACE
 70
     0
 10
0.0
 20
0.0
 30
0.0
  3
*MODEL_SPACE
  1

  0
ENDBLK
  5
1A
330
18
100
AcDbEntity
  8
0
100
AcDbBlockEnd
  0
BLOCK
  5
16
330
15
100
AcDbEntity
 67
     1
  8
0
100
AcDbBlockBegin
  2
*PAPER_SPACE
 70
     0
 10
0.0
 20
0.0
 30
0.0
  3
*PAPER_SPACE
  1

  0
ENDBLK
  5
17
330
15
100
AcDbEntity
 67
     1
  8
0
100
AcDbBlockEnd
  0
BLOCK
  5
43
330
42
100
AcDbEntity
  8
0
100
AcDbBlockBegin
  2
_OPEN30
 70
     0
 10
0.0
 20
0.0
 30
0.0
  3
_OPEN30
  1

  0
LINE
  5
44
330
42
100
AcDbEntity
  8
0
  6
BYBLOCK
 62
     0
100
AcDbLine
 10
-1.0
 20
0.26794919
 30
0.0
 11
0.0
 21
0.0
 31
0.0
  0
LINE
  5
45
330
42
100
AcDbEntity
  8
0
  6
BYBLOCK
 62
     0
100
AcDbLine
 10
0.0
 20
0.0
 30
0.0
 11
-1.0
 21
-0.26794919
 31
0.0
  0
LINE
  5
46
330
42
100
AcDbEntity
  8
0
  6
BYBLOCK
 62
     0
100
AcDbLine
 10
0.0
 20
0.0
 30
0.0
 11
-1.0
 21
0.0
 31
0.0
  0
ENDBLK
  5
47
330
42
100
AcDbEntity
  8
0
100
AcDbBlockEnd
  0
BLOCK
  5
1A550
330
19D42
100
AcDbEntity
  8
0
100
AcDbBlockBegin
  2
A3WAKUKAWAJUN2017_HYOUDAI_
 70
     0
 10
0.0
 20
0.0
 30
0.0
  3
A3WAKUKAWAJUN2017_HYOUDAI_
  1

  0
LINE
  5
19D44
330
19D42
100
AcDbEntity
  8
0
100
AcDbLine
 10
13.26299999998673
 20
-0.0001000000000317
 30
0.0
 11
9.236999999990758
 21
8.999899999990987
 31
0.0
1001
ACAD
1000
ASC_BOUNDS
1002
{
1070
    19
1005
19D85
1002
}
  0
LINE
  5
19D45
330
19D42
100
AcDbEntity
  8
0
100
AcDbLine
 10
5.657999999994331
 20
0.9999999999989768
 30
0.0
 11
9.236999999990758
 21
8.999999999991019
 31
0.0
1001
ACAD
1000
ASC_BOUNDS
1002
{
1070
    19
1005
19D85
1002
}
  0
LINE
  5
19D46
330
19D42
100
AcDbEntity
  8
0
100
AcDbLine
 10
18.59199999998134
 20
-0.2368999999997641
 30
0.0
 11
16.46099999998353
 21
5.432899999994561
 31
0.0
1001
ACAD
1000
ASC_BOUNDS
1002
{
1070
    19
1005
19D86
1002
}
  0
LINE
  5
19D47
330
19D42
100
AcDbEntity
  8
0
100
AcDbLine
 10
18.59199999998134
 20
-0.2368999999997641
 30
0.0
 11
22.38199999997767
 21
8.763099999991255
 31
0.0
1001
ACAD
1000
ASC_BOUNDS
1002
{
1070
    19
1005
19D86
1002
}
  0
LINE
  5
19D48
330
19D42
100
AcDbEntity
  8
0
100
AcDbLine
 10
14.32899999998563
 20
-0.2368999999997641
 30
0.0
 11
16.46099999998353
 21
5.432899999994561
 31
0.0
1001
ACAD
1000
ASC_BOUNDS
1002
{
1070
    19
1005
19D86
1002
}
  0
LINE
  5
19D49
330
19D42
100
AcDbEntity
  8
0
100
AcDbLine
 10
14.32899999998563
 20
-0.2368999999997641
 30
0.0
 11
10.53899999998941
 21
8.763099999991255
 31
0.0
1001
ACAD
1000
ASC_BOUNDS
1002
{
1070
    19
1005
19D86
1002
}
  0
LINE
  5
19D4A
330
19D42
100
AcDbEntity
  8
0
100
AcDbLine
 10
19.53899999998043
 20
-0.0001000000000317
 30
0.0
 11
23.56599999997638
 21
8.999899999990987
 31
0.0
1001
ACAD
1000
ASC_BOUNDS
1002
{
1070
    19
1005
19D87
1002
}
  0
LINE
  5
19D4B
330
19D42
100
AcDbEntity
  8
0
100
AcDbLine
 10
26.97358892824991
 20
1.383099999991202
 30
0.0
 11
23.56599999997638
 21
8.999899999990987
 31
0.0
1001
ACAD
1000
ASC_BOUNDS
1002
{
1070
    19
1005
19D87
1002
}
  0
LINE
  5
19D4C
330
19D42
100
AcDbEntity
  8
0
100
AcDbLine
 10
5.657999999994331
 20
0.9999999999989768
 30
0.0
 11
3.181999999996833
 21
4.668599999995308
 31
0.0
1001
ACAD
1000
ASC_BOUNDS
1002
{
1070
    19
1005
19D85
1002
}
  0
LINE
  5
19D4D
330
19D42
100
AcDbEntity
  8
0
100
AcDbLine
 10
4.617999999995391
 20
-0.0001000000000317
 30
0.0
 11
1.420999999998571
 21
4.736799999995242
 31
0.0
1001
ACAD
1000
ASC_BOUNDS
1002
{
1070
    19
1005
19D85
1002
}
  0
LINE
  5
19D4E
330
19D42
100
AcDbEntity
  8
0
100
AcDbLine
 10
1.420999999998571
 20
8.763099999991255
 30
0.0
 11
1.420999999998571
 21
0.0
 31
0.0
1001
ACAD
1000
ASC_BOUNDS
1002
{
1070
    19
1005
19D8A
1002
}
  0
LINE
  5
19D4F
330
19D42
100
AcDbEntity
  8
0
100
AcDbLine
 10
0.0
 20
8.763099999991255
 30
0.0
 11
0.0
 21
0.0
 31
0.0
1001
ACAD
1000
ASC_BOUNDS
1002
{
1070
    19
1005
19D8A
1002
}
  0
LINE
  5
19D50
330
19D42
100
AcDbEntity
  8
0
100
AcDbLine
 10
6.766999999993232
 20
-0.0001000000000317
 30
0.0
 11
7.826999999992154
 21
2.368399999997621
 31
0.0
1001
ACAD
1000
ASC_BOUNDS
1002
{
1070
    19
1005
19D85
1002
}
  0
LINE
  5
19D51
330
19D42
100
AcDbEntity
  8
0
100
AcDbLine
 10
0.0
 20
0.0
 30
0.0
 11
1.420999999998571
 21
0.0
 31
0.0
1001
ACAD
1000
ASC_BOUNDS
1002
{
1070
    19
1005
19D8A
1002
}
  0
LINE
  5
19D52
330
19D42
100
AcDbEntity
  8
0
100
AcDbLine
 10
4.617999999995391
 20
0.0
 30
0.0
 11
6.766999999993232
 21
0.0
 31
0.0
1001
ACAD
1000
ASC_BOUNDS
1002
{
1070
    19
1005
19D85
1002
}
  0
LINE
  5
19D53
330
19D42
100
AcDbEntity
  8
0
100
AcDbLine
 10
11.70599999998831
 20
-0.0001000000000317
 30
0.0
 11
10.64699999998936
 21
2.368399999997621
 31
0.0
1001
ACAD
1000
ASC_BOUNDS
1002
{
1070
    19
1005
19D85
1002
}
  0
LINE
  5
19D54
330
19D42
100
AcDbEntity
  8
0
100
AcDbLine
 10
7.826999999992154
 20
2.368399999997621
 30
0.0
 11
10.64699999998936
 21
2.368399999997621
 31
0.0
1001
ACAD
1000
ASC_BOUNDS
1002
{
1070
    19
1005
19D85
1002
}
  0
LINE
  5
19D55
330
19D42
100
AcDbEntity
  8
0
100
AcDbLine
 10
11.70599999998831
 20
0.0
 30
0.0
 11
13.26299999998673
 21
0.0
 31
0.0
1001
ACAD
1000
ASC_BOUNDS
1002
{
1070
    19
1005
19D85
1002
}
  0
LINE
  5
19D56
330
19D42
100
AcDbEntity
  8
0
100
AcDbLine
 10
22.15599999997789
 20
2.368399999997621
 30
0.0
 11
24.97599999997499
 21
2.368399999997621
 31
0.0
1001
ACAD
1000
ASC_BOUNDS
1002
{
1070
    19
1005
19D87
1002
}
  0
LINE
  5
19D57
330
19D42
100
AcDbEntity
  8
0
100
AcDbLine
 10
19.53899999998043
 20
0.0
 30
0.0
 11
21.09599999997886
 21
0.0
 31
0.0
1001
ACAD
1000
ASC_BOUNDS
1002
{
1070
    19
1005
19D87
1002
}
  0
LINE
  5
19D58
330
19D42
100
AcDbEntity
  8
0
100
AcDbLine
 10
21.09599999997886
 20
-0.0001000000000317
 30
0.0
 11
22.15599999997789
 21
2.368399999997621
 31
0.0
1001
ACAD
1000
ASC_BOUNDS
1002
{
1070
    19
1005
19D87
1002
}
  0
LINE
  5
19D59
330
19D42
100
AcDbEntity
  8
0
100
AcDbLine
 10
26.02015566812236
 20
0.0330999999912365
 30
0.0
 11
24.97599999997499
 21
2.368399999997621
 31
0.0
1001
ACAD
1000
ASC_BOUNDS
1002
{
1070
    19
1005
19D87
1002
}
  0
LINE
  5
19D5A
330
19D42
100
AcDbEntity
  8
0
100
AcDbLine
 10
14.32399999998563
 20
3.315799999996671
 30
0.0
 11
16.46099999998353
 21
8.999899999990987
 31
0.0
1001
ACAD
1000
ASC_BOUNDS
1002
{
1070
    19
1005
19D86
1002
}
  0
LINE
  5
19D5B
330
19D42
100
AcDbEntity
  8
0
100
AcDbLine
 10
6.432999999993513
 20
8.763099999991255
 30
0.0
 11
3.181999999996833
 21
4.668599999995308
 31
0.0
1001
ACAD
1000
ASC_BOUNDS
1002
{
1070
    19
1005
19D85
1002
}
  0
LINE
  5
19D5C
330
19D42
100
AcDbEntity
  8
0
100
AcDbLine
 10
4.617999999995391
 20
8.763099999991255
 30
0.0
 11
1.420999999998571
 21
4.736799999995242
 31
0.0
1001
ACAD
1000
ASC_BOUNDS
1002
{
1070
    19
1005
19D85
1002
}
  0
LINE
  5
19D5D
330
19D42
100
AcDbEntity
  8
0
100
AcDbLine
 10
0.0
 20
8.763099999991255
 30
0.0
 11
1.420999999998571
 21
8.763099999991255
 31
0.0
1001
ACAD
1000
ASC_BOUNDS
1002
{
1070
    19
1005
19D8A
1002
}
  0
LINE
  5
19D5E
330
19D42
100
AcDbEntity
  8
0
100
AcDbLine
 10
4.617999999995391
 20
8.763099999991255
 30
0.0
 11
6.432999999993513
 21
8.763099999991255
 31
0.0
1001
ACAD
1000
ASC_BOUNDS
1002
{
1070
    19
1005
19D85
1002
}
  0
LINE
  5
19D5F
330
19D42
100
AcDbEntity
  8
0
100
AcDbLine
 10
14.32399999998563
 20
3.315799999996671
 30
0.0
 11
12.02999999998792
 21
8.763099999991255
 31
0.0
1001
ACAD
1000
ASC_BOUNDS
1002
{
1070
    19
1005
19D86
1002
}
  0
LINE
  5
19D60
330
19D42
100
AcDbEntity
  8
0
100
AcDbLine
 10
10.06399999998996
 20
3.670999999996297
 30
0.0
 11
9.236999999990758
 21
5.5200999999945
 31
0.0
1001
ACAD
1000
ASC_BOUNDS
1002
{
1070
    19
1005
19D85
1002
}
  0
LINE
  5
19D61
330
19D42
100
AcDbEntity
  8
0
100
AcDbLine
 10
8.409999999991555
 20
3.670999999996297
 30
0.0
 11
9.236999999990758
 21
5.5200999999945
 31
0.0
1001
ACAD
1000
ASC_BOUNDS
1002
{
1070
    19
1005
19D85
1002
}
  0
LINE
  5
19D62
330
19D42
100
AcDbEntity
  8
0
100
AcDbLine
 10
8.409999999991555
 20
3.670999999996297
 30
0.0
 11
10.06399999998996
 21
3.670999999996297
 31
0.0
1001
ACAD
1000
ASC_BOUNDS
1002
{
1070
    19
1005
19D85
1002
}
  0
LINE
  5
19D63
330
19D42
100
AcDbEntity
  8
0
100
AcDbLine
 10
10.53899999998941
 20
8.763099999991255
 30
0.0
 11
12.02999999998792
 21
8.763099999991255
 31
0.0
1001
ACAD
1000
ASC_BOUNDS
1002
{
1070
    19
1005
19D86
1002
}
  0
LINE
  5
19D64
330
19D42
100
AcDbEntity
  8
0
100
AcDbLine
 10
22.7389999999773
 20
3.670999999996297
 30
0.0
 11
23.56599999997638
 21
5.5200999999945
 31
0.0
1001
ACAD
1000
ASC_BOUNDS
1002
{
1070
    19
1005
19D87
1002
}
  0
LINE
  5
19D65
330
19D42
100
AcDbEntity
  8
0
100
AcDbLine
 10
22.7389999999773
 20
3.670999999996297
 30
0.0
 11
24.39299999997559
 21
3.670999999996297
 31
0.0
1001
ACAD
1000
ASC_BOUNDS
1002
{
1070
    19
1005
19D87
1002
}
  0
LINE
  5
19D66
330
19D42
100
AcDbEntity
  8
0
100
AcDbLine
 10
18.59799999998143
 20
3.315799999996671
 30
0.0
 11
20.89099999997916
 21
8.763099999991255
 31
0.0
1001
ACAD
1000
ASC_BOUNDS
1002
{
1070
    19
1005
19D86
1002
}
  0
LINE
  5
19D67
330
19D42
100
AcDbEntity
  8
0
100
AcDbLine
 10
18.59799999998143
 20
3.315799999996671
 30
0.0
 11
16.46099999998353
 21
8.999899999990987
 31
0.0
1001
ACAD
1000
ASC_BOUNDS
1002
{
1070
    19
1005
19D86
1002
}
  0
LINE
  5
19D68
330
19D42
100
AcDbEntity
  8
0
100
AcDbLine
 10
20.89099999997916
 20
8.763099999991255
 30
0.0
 11
22.38199999997767
 21
8.763099999991255
 31
0.0
1001
ACAD
1000
ASC_BOUNDS
1002
{
1070
    19
1005
19D86
1002
}
  0
LINE
  5
19D69
330
19D42
100
AcDbEntity
  8
0
100
AcDbLine
 10
24.39299999997559
 20
3.670999999996297
 30
0.0
 11
23.56599999997638
 21
5.5200999999945
 31
0.0
1001
ACAD
1000
ASC_BOUNDS
1002
{
1070
    19
1005
19D87
1002
}
  0
LINE
  5
19D6A
330
19D42
100
AcDbEntity
  8
0
100
AcDbLine
 10
44.99999999995498
 20
-0.2368999999997641
 30
0.0
 11
40.02599999995994
 21
5.341799999994635
 31
0.0
1001
ACAD
1000
ASC_BOUNDS
1002
{
1070
    19
1005
19D89
1002
}
  0
LINE
  5
19D6B
330
19D42
100
AcDbEntity
  8
0
100
AcDbLine
 10
40.02599999995994
 20
5.341799999994635
 30
0.0
 11
40.02599999995994
 21
0.0
 31
0.0
1001
ACAD
1000
ASC_BOUNDS
1002
{
1070
    19
1005
19D89
1002
}
  0
LINE
  5
19D6C
330
19D42
100
AcDbEntity
  8
0
100
AcDbLine
 10
38.60499999996136
 20
8.999999999991019
 30
0.0
 11
38.60499999996136
 21
0.0
 31
0.0
1001
ACAD
1000
ASC_BOUNDS
1002
{
1070
    19
1005
19D89
1002
}
  0
LINE
  5
19D6D
330
19D42
100
AcDbEntity
  8
0
100
AcDbLine
 10
44.99999999995498
 20
8.763099999991255
 30
0.0
 11
44.99999999995498
 21
-0.2368999999997641
 31
0.0
1001
ACAD
1000
ASC_BOUNDS
1002
{
1070
    19
1005
19D89
1002
}
  0
LINE
  5
19D6E
330
19D42
100
AcDbEntity
  8
0
100
AcDbLine
 10
38.60499999996136
 20
0.0
 30
0.0
 11
40.02599999995994
 21
0.0
 31
0.0
1001
ACAD
1000
ASC_BOUNDS
1002
{
1070
    19
1005
19D89
1002
}
  0
LINE
  5
19D6F
330
19D42
100
AcDbEntity
  8
0
100
AcDbLine
 10
43.57899999995641
 20
3.421199999996588
 30
0.0
 11
38.60499999996136
 21
8.999899999990987
 31
0.0
1001
ACAD
1000
ASC_BOUNDS
1002
{
1070
    19
1005
19D89
1002
}
  0
LINE
  5
19D70
330
19D42
100
AcDbEntity
  8
0
100
AcDbLine
 10
43.57899999995641
 20
8.763099999991255
 30
0.0
 11
43.57899999995641
 21
3.421199999996588
 31
0.0
1001
ACAD
1000
ASC_BOUNDS
1002
{
1070
    19
1005
19D89
1002
}
  0
LINE
  5
19D71
330
19D42
100
AcDbEntity
  8
0
100
AcDbLine
 10
43.57899999995641
 20
8.763099999991255
 30
0.0
 11
44.99999999995498
 21
8.763099999991255
 31
0.0
1001
ACAD
1000
ASC_BOUNDS
1002
{
1070
    19
1005
19D89
1002
}
  0
LINE
  5
19D72
330
19D42
100
AcDbEntity
  8
0
100
AcDbLine
 10
37.67199999996831
 20
8.763099999991255
 30
0.0
 11
36.23199999996837
 21
8.763099999991255
 31
0.0
  0
LINE
  5
19D73
330
19D42
100
AcDbEntity
  8
0
100
AcDbLine
 10
31.64199999996833
 20
8.763099999991255
 30
0.0
 11
31.64199999996833
 21
2.481619422925121
 31
0.0
  0
LINE
  5
19D74
330
19D42
100
AcDbEntity
  8
0
100
AcDbLine
 10
37.67199999996831
 20
8.763099999991255
 30
0.0
 11
37.67199999996831
 21
2.481619422925121
 31
0.0
  0
LINE
  5
19D75
330
19D42
100
AcDbEntity
  8
0
100
AcDbLine
 10
36.23199999996837
 20
8.763099999991255
 30
0.0
 11
36.23199999996837
 21
2.481619422925064
 31
0.0
  0
LINE
  5
19D76
330
19D42
100
AcDbEntity
  8
0
100
AcDbLine
 10
33.08199999996839
 20
8.763099999991255
 30
0.0
 11
33.08199999996839
 21
2.481619422925121
 31
0.0
  0
ARC
  5
19D77
330
19D42
100
AcDbEntity
  8
0
100
AcDbCircle
 10
34.65699999996832
 20
3.183099999991214
 30
0.0
 40
3.420000000000007
100
AcDbArc
 50
240.0000000000255
 51
299.9999999999766
  0
ARC
  5
19D78
330
19D42
100
AcDbEntity
  8
0
100
AcDbCircle
 10
34.65699999996832
 20
3.183099999991214
 30
0.0
 40
1.97999999999999
100
AcDbArc
 50
240.000000000026
 51
299.9999999999703
  0
LINE
  5
19D79
330
19D42
100
AcDbEntity
  8
0
100
AcDbLine
 10
33.08199999996828
 20
8.763099999991255
 30
0.0
 11
31.64199999996833
 21
8.763099999991255
 31
0.0
  0
ARC
  5
19D7A
330
19D42
100
AcDbEntity
  8
0
100
AcDbCircle
 10
35.06199999996829
 20
2.481619422925064
 30
0.0
 40
1.17
100
AcDbArc
 50
299.9999999999699
 51
0.0
  0
ARC
  5
19D7B
330
19D42
100
AcDbEntity
  8
0
100
AcDbCircle
 10
34.25199999996835
 20
2.481619422925121
 30
0.0
 40
1.17
100
AcDbArc
 50
180.0
 51
240.0000000000238
  0
ARC
  5
19D7C
330
19D42
100
AcDbEntity
  8
0
100
AcDbCircle
 10
35.06199999996841
 20
2.481619422925121
 30
0.0
 40
2.61
100
AcDbArc
 50
299.9999999999756
 51
0.0
  0
ARC
  5
19D7D
330
19D42
100
AcDbEntity
  8
0
100
AcDbCircle
 10
34.25199999996835
 20
2.481619422925121
 30
0.0
 40
2.61
100
AcDbArc
 50
180.0
 51
240.0000000000244
  0
LINE
  5
19D7E
330
19D42
100
AcDbEntity
  8
0
100
AcDbLine
 10
29.30199999996933
 20
8.763099999991255
 30
0.0
 11
30.74199999996927
 21
8.763099999991255
 31
0.0
1001
ACAD
1000
ASC_BOUNDS
1002
{
1070
    19
1005
19D87
1002
}
  0
LINE
  5
19D7F
330
19D42
100
AcDbEntity
  8
0
100
AcDbLine
 10
30.74199999996927
 20
8.763099999991255
 30
0.0
 11
30.74199999996927
 21
2.373099999991211
 31
0.0
1001
ACAD
1000
ASC_BOUNDS
1002
{
1070
    19
1005
19D87
1002
}
  0
LINE
  5
19D80
330
19D42
100
AcDbEntity
  8
0
100
AcDbLine
 10
26.02015566812236
 20
0.0330999999912365
 30
0.0
 11
28.40199999996923
 21
0.0330999999912365
 31
0.0
1001
ACAD
1000
ASC_BOUNDS
1002
{
1070
    19
1005
19D87
1002
}
  0
LINE
  5
19D81
330
19D42
100
AcDbEntity
  8
0
100
AcDbLine
 10
29.30199999996933
 20
8.763099999991255
 30
0.0
 11
29.30199999996933
 21
2.283099999991236
 31
0.0
1001
ACAD
1000
ASC_BOUNDS
1002
{
1070
    19
1005
19D87
1002
}
  0
LINE
  5
19D82
330
19D42
100
AcDbEntity
  8
0
100
AcDbLine
 10
26.97358892824991
 20
1.383099999991202
 30
0.0
 11
28.40199999996923
 21
1.383099999991202
 31
0.0
1001
ACAD
1000
ASC_BOUNDS
1002
{
1070
    19
1005
19D87
1002
}
  0
ARC
  5
19D83
330
19D42
100
AcDbEntity
  8
0
100
AcDbCircle
 10
28.40199999996923
 20
2.283099999991236
 30
0.0
 40
0.9
100
AcDbArc
 50
270.0
 51
0.0
1001
ACAD
1000
ASC_BOUNDS
1002
{
1070
    19
1005
19D87
1002
}
  0
ARC
  5
19D84
330
19D42
100
AcDbEntity
  8
0
100
AcDbCircle
 10
28.40199999996923
 20
2.373099999991211
 30
0.0
 40
2.34
100
AcDbArc
 50
270.0
 51
0.0
1001
ACAD
1000
ASC_BOUNDS
1002
{
1070
    19
1005
19D87
1002
}
  0
INSERT
  5
19D85
330
19D42
100
AcDbEntity
  8
0
100
AcDbBlockReference
  2
*X146
 10
0.0
 20
0.0
 30
0.0
1001
ACAD
1000
HATCH
1002
{
1070
    19
1000
ANSI37
1040
0.15
1040
0.0
1000
ASC_BOUNDS
1070
     2
1070
     2
1070
    12
1005
19D44
1005
19D45
1005
19D4C
1005
19D5B
1005
19D5E
1005
19D5C
1005
19D4D
1005
19D52
1005
19D50
1005
19D54
1005
19D53
1005
19D55
1070
     2
1070
     3
1005
19D60
1005
19D62
1005
19D61
1000
ASC_SEEDPOINT
1011
3.614004224891801
1021
2.996669441146025
1031
0.0
1000
R14_HATCH_DATA
1000
19D85
1011
1.0
1021
0.0
1031
0.0
1011
0.0
1021
1.0
1031
0.0
1011
0.0
1021
0.0
1031
1.0
1040
0.0
1010
0.0
1020
0.0
1030
1.0
1000
ANSI37
1070
     0
1070
     1
1071
        2
1071
        7
1070
     0
1070
     1
1071
       17
1040
13.26299999998673
1040
-0.0001000000000317
1040
9.236999999990758
1040
8.999899999990987
1040
9.236999999990758
1040
8.999999999991019
1040
5.657999999994331
1040
0.9999999999989768
1040
3.181999999996833
1040
4.668599999995308
1040
6.432999999993513
1040
8.763099999991255
1040
4.617999999995391
1040
8.763099999991255
1040
1.420999999998571
1040
4.736799999995242
1040
4.617999999995391
1040
-0.0001000000000317
1040
4.617999999995391
1040
0.0
1040
6.766999999993232
1040
0.0
1040
6.766999999993232
1040
-0.0001000000000317
1040
7.826999999992154
1040
2.368399999997621
1040
10.64699999998936
1040
2.368399999997621
1040
11.70599999998831
1040
-0.0001000000000317
1040
11.70599999998831
1040
0.0
1040
13.26299999998673
1040
0.0
1071
       12
1005
19D44
1005
19D45
1005
19D4C
1005
19D5B
1005
19D5E
1005
19D5C
1005
19D4D
1005
19D52
1005
19D50
1005
19D54
1005
19D53
1005
19D55
1071
       22
1070
     0
1070
     1
1071
        3
1040
9.236999999990758
1040
5.5200999999945
1040
10.06399999998996
1040
3.670999999996297
1040
8.409999999991555
1040
3.670999999996297
1071
        3
1005
19D60
1005
19D62
1005
19D61
1070
     0
1070
     1
1040
0.0
1040
0.15
1070
     0
1070
     2
1040
0.7853981633974483
1040
49.29960901727088
1040
-10.17736998311392
1040
-0.3367596045400932
1040
0.3367596045400932
1070
     0
1040
2.356194490192345
1040
49.29960901727088
1040
-10.17736998311392
1040
-0.3367596045400932
1040
-0.3367596045400932
1070
     0
1040
0.0110235143455945
1071
        2
1040
3.614004224891801
1040
2.996669441146025
1040
0.0
1040
3.614004224891801
1040
2.996669441146025
1040
0.0
1002
}
  0
INSERT
  5
19D86
330
19D42
100
AcDbEntity
  8
0
100
AcDbBlockReference
  2
*X147
 10
0.0
 20
0.0
 30
0.0
1001
ACAD
1000
HATCH
1002
{
1070
    19
1000
ANSI37
1040
0.15
1040
0.0
1000
ASC_BOUNDS
1070
     1
1070
     2
1070
    10
1005
19D46
1005
19D47
1005
19D68
1005
19D66
1005
19D67
1005
19D5A
1005
19D5F
1005
19D63
1005
19D49
1005
19D48
1000
ASC_SEEDPOINT
1011
14.73245321214324
1021
2.798246178283421
1031
0.0
1000
R14_HATCH_DATA
1000
19D86
1011
1.0
1021
0.0
1031
0.0
1011
0.0
1021
1.0
1031
0.0
1011
0.0
1021
0.0
1031
1.0
1040
0.0
1010
0.0
1020
0.0
1030
1.0
1000
ANSI37
1070
     0
1070
     1
1071
        1
1071
        7
1070
     0
1070
     1
1071
       10
1040
16.46099999998353
1040
5.432899999994561
1040
18.59199999998134
1040
-0.2368999999997641
1040
22.38199999997767
1040
8.763099999991255
1040
20.89099999997916
1040
8.763099999991255
1040
18.59799999998143
1040
3.315799999996671
1040
16.46099999998353
1040
8.999899999990987
1040
14.32399999998563
1040
3.315799999996671
1040
12.02999999998792
1040
8.763099999991255
1040
10.53899999998941
1040
8.763099999991255
1040
14.32899999998563
1040
-0.2368999999997641
1071
       10
1005
19D46
1005
19D47
1005
19D68
1005
19D66
1005
19D67
1005
19D5A
1005
19D5F
1005
19D63
1005
19D49
1005
19D48
1070
     0
1070
     1
1040
0.0
1040
0.15
1070
     0
1070
     2
1040
0.7853981633974483
1040
49.29960901727088
1040
-10.17736998311392
1040
-0.3367596045400932
1040
0.3367596045400932
1070
     0
1040
2.356194490192345
1040
49.29960901727088
1040
-10.17736998311392
1040
-0.3367596045400932
1040
-0.3367596045400932
1070
     0
1040
0.0110235143455945
1071
        1
1040
14.73245321214324
1040
2.798246178283421
1040
0.0
1002
}
  0
INSERT
  5
19D87
330
19D42
100
AcDbEntity
  8
0
100
AcDbBlockReference
  2
*X148
 10
0.0
 20
0.0
 30
0.0
1001
ACAD
1000
HATCH
1002
{
1070
    19
1000
ANSI37
1040
0.15
1040
0.0
1000
ASC_BOUNDS
1070
     2
1070
     2
1070
    13
1005
19D4A
1005
19D57
1005
19D58
1005
19D56
1005
19D59
1005
19D80
1005
19D84
1005
19D7F
1005
19D7E
1005
19D81
1005
19D83
1005
19D82
1005
19D4B
1070
     2
1070
     3
1005
19D64
1005
19D69
1005
19D65
1000
ASC_SEEDPOINT
1011
21.97929957367762
1021
3.294304244259308
1031
0.0
1000
R14_HATCH_DATA
1000
19D87
1011
1.0
1021
0.0
1031
0.0
1011
0.0
1021
1.0
1031
0.0
1011
0.0
1021
0.0
1031
1.0
1040
0.0
1010
0.0
1020
0.0
1030
1.0
1000
ANSI37
1070
     0
1070
     1
1071
        2
1071
        7
1070
     1
1070
     1
1071
       15
1040
23.56599999997638
1040
8.999899999990987
1040
0.0
1040
19.53899999998043
1040
-0.0001000000000317
1040
0.0
1040
19.53899999998043
1040
0.0
1040
0.0
1040
21.09599999997886
1040
0.0
1040
0.0
1040
21.09599999997886
1040
-0.0001000000000317
1040
0.0
1040
22.15599999997789
1040
2.368399999997621
1040
0.0
1040
24.97599999997499
1040
2.368399999997621
1040
0.0
1040
26.02015566812236
1040
0.0330999999912365
1040
0.0
1040
28.40199999996923
1040
0.0330999999912365
1040
0.414213562373095
1040
30.74199999996923
1040
2.373099999991211
1040
0.0
1040
30.74199999996927
1040
8.763099999991255
1040
0.0
1040
29.30199999996933
1040
8.763099999991255
1040
0.0
1040
29.30199999996933
1040
2.283099999991236
1040
-0.414213562373095
1040
28.40199999996923
1040
1.383099999991237
1040
0.0
1040
26.97358892824991
1040
1.383099999991202
1040
0.0
1071
       13
1005
19D4A
1005
19D57
1005
19D58
1005
19D56
1005
19D59
1005
19D80
1005
19D84
1005
19D7F
1005
19D7E
1005
19D81
1005
19D83
1005
19D82
1005
19D4B
1071
       22
1070
     0
1070
     1
1071
        3
1040
22.7389999999773
1040
3.670999999996297
1040
23.56599999997638
1040
5.5200999999945
1040
24.39299999997559
1040
3.670999999996297
1071
        3
1005
19D64
1005
19D69
1005
19D65
1070
     0
1070
     1
1040
0.0
1040
0.15
1070
     0
1070
     2
1040
0.7853981633974483
1040
49.29960901727088
1040
-10.17736998311392
1040
-0.3367596045400932
1040
0.3367596045400932
1070
     0
1040
2.356194490192345
1040
49.29960901727088
1040
-10.17736998311392
1040
-0.3367596045400932
1040
-0.3367596045400932
1070
     0
1040
0.0110235143455945
1071
        2
1040
21.97929957367762
1040
3.294304244259308
1040
0.0
1040
21.97929957367762
1040
3.294304244259308
1040
0.0
1002
}
  0
INSERT
  5
19D88
330
19D42
100
AcDbEntity
  8
0
100
AcDbBlockReference
  2
*X149
 10
0.0
 20
0.0
 30
0.0
1001
ACAD
1000
HATCH
1002
{
1070
    19
1000
ANSI37
1040
0.15
1040
0.0
1000
R14_HATCH_DATA
1000
19D88
1011
1.0
1021
0.0
1031
0.0
1011
0.0
1021
1.0
1031
0.0
1011
0.0
1021
0.0
1031
1.0
1040
0.0
1010
0.0
1020
0.0
1030
1.0
1000
ANSI37
1070
     0
1070
     1
1071
        1
1071
        7
1070
     1
1070
     1
1071
       12
1040
31.64199999996833
1040
2.481619422925121
1040
0.2679491924310942
1040
32.94699999997067
1040
0.2212931190493919
1040
0.2679491924301353
1040
36.36699999995983
1040
0.2212931190459813
1040
0.2679491924321411
1040
37.67199999996831
1040
2.481619422928361
1040
0.0
1040
37.67199999996831
1040
8.763099999991255
1040
0.0
1040
36.23199999996837
1040
8.763099999991255
1040
0.0
1040
36.23199999996837
1040
2.481619422925064
1040
-0.2679491924310291
1040
35.64699999996708
1040
1.468369700498386
1040
-0.267949192430519
1040
33.66699999997093
1040
1.468369700497703
1040
-0.267949192431809
1040
33.08199999996839
1040
2.481619422926997
1040
0.0
1040
33.08199999996839
1040
8.763099999991255
1040
0.0
1040
31.64199999996833
1040
8.763099999991255
1040
0.0
1071
        0
1070
     0
1070
     1
1040
0.0
1040
0.15
1070
     0
1070
     2
1040
0.7853981633974483
1040
49.29960901727088
1040
-10.17736998311392
1040
-0.3367596045400932
1040
0.3367596045400932
1070
     0
1040
2.356194490192345
1040
49.29960901727088
1040
-10.17736998311392
1040
-0.3367596045400932
1040
-0.3367596045400932
1070
     0
1040
0.0110235143455945
1071
        1
1040
32.30357378967278
1040
3.988785755459219
1040
0.0
1002
}
  0
INSERT
  5
19D89
330
19D42
100
AcDbEntity
  8
0
100
AcDbBlockReference
  2
*X150
 10
0.0
 20
0.0
 30
0.0
1001
ACAD
1000
HATCH
1002
{
1070
    19
1000
ANSI37
1040
0.15
1040
0.0
1000
ASC_BOUNDS
1070
     1
1070
     2
1070
     8
1005
19D6A
1005
19D6D
1005
19D71
1005
19D70
1005
19D6F
1005
19D6C
1005
19D6E
1005
19D6B
1000
ASC_SEEDPOINT
1011
39.74896370716704
1021
4.484843821435049
1031
0.0
1000
R14_HATCH_DATA
1000
19D89
1011
1.0
1021
0.0
1031
0.0
1011
0.0
1021
1.0
1031
0.0
1011
0.0
1021
0.0
1031
1.0
1040
0.0
1010
0.0
1020
0.0
1030
1.0
1000
ANSI37
1070
     0
1070
     1
1071
        1
1071
        7
1070
     0
1070
     1
1071
        9
1040
40.02599999995994
1040
5.341799999994635
1040
44.99999999995498
1040
-0.2368999999997641
1040
44.99999999995498
1040
8.763099999991255
1040
43.57899999995641
1040
8.763099999991255
1040
43.57899999995641
1040
3.421199999996588
1040
38.60499999996136
1040
8.999899999990987
1040
38.60499999996136
1040
8.999999999991019
1040
38.60499999996136
1040
0.0
1040
40.02599999995994
1040
0.0
1071
        8
1005
19D6A
1005
19D6D
1005
19D71
1005
19D70
1005
19D6F
1005
19D6C
1005
19D6E
1005
19D6B
1070
     0
1070
     1
1040
0.0
1040
0.15
1070
     0
1070
     2
1040
0.7853981633974483
1040
49.29960901727088
1040
-10.17736998311392
1040
-0.3367596045400932
1040
0.3367596045400932
1070
     0
1040
2.356194490192345
1040
49.29960901727088
1040
-10.17736998311392
1040
-0.3367596045400932
1040
-0.3367596045400932
1070
     0
1040
0.0110235143455945
1071
        1
1040
39.74896370716704
1040
4.484843821435049
1040
0.0
1002
}
  0
INSERT
  5
19D8A
330
19D42
100
AcDbEntity
  8
0
100
AcDbBlockReference
  2
*X151
 10
0.0
 20
0.0
 30
0.0
1001
ACAD
1000
HATCH
1002
{
1070
    19
1000
ANSI37
1040
0.15
1040
0.0
1000
ASC_BOUNDS
1070
     1
1070
     2
1070
     4
1005
19D4E
1005
19D5D
1005
19D4F
1005
19D51
1000
ASC_SEEDPOINT
1011
1.079051535452663
1021
4.148538732891836
1031
0.0
1000
R14_HATCH_DATA
1000
19D8A
1011
1.0
1021
0.0
1031
0.0
1011
0.0
1021
1.0
1031
0.0
1011
0.0
1021
0.0
1031
1.0
1040
0.0
1010
0.0
1020
0.0
1030
1.0
1000
ANSI37
1070
     0
1070
     1
1071
        1
1071
        7
1070
     0
1070
     1
1071
        4
1040
1.420999999998571
1040
0.0
1040
1.420999999998571
1040
8.763099999991255
1040
0.0
1040
8.763099999991255
1040
0.0
1040
0.0
1071
        4
1005
19D4E
1005
19D5D
1005
19D4F
1005
19D51
1070
     0
1070
     1
1040
0.0
1040
0.15
1070
     0
1070
     2
1040
0.7853981633974483
1040
49.29960901727088
1040
-10.17736998311392
1040
-0.3367596045400932
1040
0.3367596045400932
1070
     0
1040
2.356194490192345
1040
49.29960901727088
1040
-10.17736998311392
1040
-0.3367596045400932
1040
-0.3367596045400932
1070
     0
1040
0.0053004257112761
1071
        1
1040
1.079051535452663
1040
4.148538732891836
1040
0.0
1002
}
  0
ENDBLK
  5
1A551
330
19D42
100
AcDbEntity
  8
0
100
AcDbBlockEnd
  0
BLOCK
  5
1B435
330
1B2A7
100
AcDbEntity
  8
0
100
AcDbBlockBegin
  2
*X146
 70
     1
 10
0.0
 20
0.0
 30
0.0
  3
*X146
  1

  0
LINE
  5
1B2A8
330
1B2A7
100
AcDbEntity
  8
0
  6
CONTINUOUS
100
AcDbLine
 10
3.418023043697893
 20
7.251849696850613
 30
0.0
 11
4.929273346838536
 21
8.763099999991255
 31
0.0
  0
LINE
  5
1B2A9
330
1B2A7
100
AcDbEntity
  8
0
  6
CONTINUOUS
100
AcDbLine
 10
1.483656411257782
 20
4.643963855330318
 30
0.0
 11
5.60279255591872
 21
8.763099999991255
 31
0.0
  0
LINE
  5
1B2AA
330
1B2A7
100
AcDbEntity
  8
0
  6
CONTINUOUS
100
AcDbLine
 10
1.755053947328235
 20
4.241842182320584
 30
0.0
 11
6.276311764998907
 21
8.763099999991255
 31
0.0
  0
LINE
  5
1B2AB
330
1B2A7
100
AcDbEntity
  8
0
  6
CONTINUOUS
100
AcDbLine
 10
2.026451483398688
 20
3.839720509310849
 30
0.0
 11
4.441040904851878
 21
6.254309930764039
 31
0.0
  0
LINE
  5
1B2AC
330
1B2A7
100
AcDbEntity
  8
0
  6
CONTINUOUS
100
AcDbLine
 10
2.297849019469139
 20
3.437598836301114
 30
0.0
 11
3.321765168359338
 21
4.461514985191313
 31
0.0
  0
LINE
  5
1B2AD
330
1B2A7
100
AcDbEntity
  8
0
  6
CONTINUOUS
100
AcDbLine
 10
2.569246555539591
 20
3.03547716329138
 30
0.0
 11
3.593163397972743
 21
4.059394005724531
 31
0.0
  0
LINE
  5
1B2AE
330
1B2A7
100
AcDbEntity
  8
0
  6
CONTINUOUS
100
AcDbLine
 10
2.840644091610043
 20
2.633355490281646
 30
0.0
 11
3.864561627586149
 21
3.657273026257751
 31
0.0
  0
LINE
  5
1B2AF
330
1B2A7
100
AcDbEntity
  8
0
  6
CONTINUOUS
100
AcDbLine
 10
3.112041627680496
 20
2.231233817271911
 30
0.0
 11
4.135959857199554
 21
3.25515204679097
 31
0.0
  0
LINE
  5
1B2B0
330
1B2A7
100
AcDbEntity
  8
0
  6
CONTINUOUS
100
AcDbLine
 10
3.383439163750948
 20
1.829112144262177
 30
0.0
 11
4.40735808681296
 21
2.853031067324189
 31
0.0
  0
LINE
  5
1B2B1
330
1B2A7
100
AcDbEntity
  8
0
  6
CONTINUOUS
100
AcDbLine
 10
3.654836699821399
 20
1.426990471252442
 30
0.0
 11
4.678756316426365
 21
2.450910087857407
 31
0.0
  0
LINE
  5
1B2B2
330
1B2A7
100
AcDbEntity
  8
0
  6
CONTINUOUS
100
AcDbLine
 10
3.926234235891853
 20
1.024868798242709
 30
0.0
 11
4.95015454603977
 21
2.048789108390626
 31
0.0
  0
LINE
  5
1B2B3
330
1B2A7
100
AcDbEntity
  8
0
  6
CONTINUOUS
100
AcDbLine
 10
4.197631771962304
 20
0.6227471252329737
 30
0.0
 11
5.221552775653176
 21
1.646668128923846
 31
0.0
  0
LINE
  5
1B2B4
330
1B2A7
100
AcDbEntity
  8
0
  6
CONTINUOUS
100
AcDbLine
 10
8.715877546767851
 20
7.835069736359266
 30
0.0
 11
9.435953450375058
 21
8.555145639966472
 31
0.0
  0
LINE
  5
1B2B5
330
1B2A7
100
AcDbEntity
  8
0
  6
CONTINUOUS
100
AcDbLine
 10
8.170620868422267
 20
6.616293848933497
 30
0.0
 11
9.644120833743461
 21
8.08979381425469
 31
0.0
  0
LINE
  5
1B2B6
330
1B2A7
100
AcDbEntity
  8
0
  6
CONTINUOUS
100
AcDbLine
 10
7.625364190076684
 20
5.397517961507727
 30
0.0
 11
9.852288217111864
 21
7.624441988542907
 31
0.0
  0
LINE
  5
1B2B7
330
1B2A7
100
AcDbEntity
  8
0
  6
CONTINUOUS
100
AcDbLine
 10
7.080107511731101
 20
4.178742074081957
 30
0.0
 11
10.06045560048027
 21
7.159090162831124
 31
0.0
  0
LINE
  5
1B2B8
330
1B2A7
100
AcDbEntity
  8
0
  6
CONTINUOUS
100
AcDbLine
 10
6.534850833385518
 20
2.959966186656187
 30
0.0
 11
10.26862298384867
 21
6.693738337119342
 31
0.0
  0
LINE
  5
1B2B9
330
1B2A7
100
AcDbEntity
  8
0
  6
CONTINUOUS
100
AcDbLine
 10
4.469029308032756
 20
0.2206254522232385
 30
0.0
 11
5.492951005266582
 21
1.244547149457064
 31
0.0
  0
LINE
  5
1B2BA
330
1B2A7
100
AcDbEntity
  8
0
  6
CONTINUOUS
100
AcDbLine
 10
5.989594155039935
 20
1.741190299230417
 30
0.0
 11
8.806950407233131
 21
4.558546551423613
 31
0.0
  0
LINE
  5
1B2BB
330
1B2A7
100
AcDbEntity
  8
0
  6
CONTINUOUS
100
AcDbLine
 10
9.401251593263643
 20
5.152847737454126
 30
0.0
 11
10.47679036721708
 21
6.228386511407559
 31
0.0
  0
LINE
  5
1B2BC
330
1B2A7
100
AcDbEntity
  8
0
  6
CONTINUOUS
100
AcDbLine
 10
4.921837203428691
 20
-0.0000858614610131
 30
0.0
 11
8.592923064886001
 21
3.670999999996297
 31
0.0
  0
LINE
  5
1B2BD
330
1B2A7
100
AcDbEntity
  8
0
  6
CONTINUOUS
100
AcDbLine
 10
9.609390446785305
 20
4.6874673818956
 30
0.0
 11
10.68495775058548
 21
5.763034685695775
 31
0.0
  0
LINE
  5
1B2BE
330
1B2A7
100
AcDbEntity
  8
0
  6
CONTINUOUS
100
AcDbLine
 10
5.595387755019432
 20
-0.0000545189504582
 30
0.0
 11
7.716137258923768
 21
2.120694984953879
 31
0.0
  0
LINE
  5
1B2BF
330
1B2A7
100
AcDbEntity
  8
0
  6
CONTINUOUS
100
AcDbLine
 10
6.268938306610172
 20
-0.000023176439905
 30
0.0
 11
7.170485805526503
 21
0.9015243224764267
 31
0.0
  0
LINE
  5
1B2C0
330
1B2A7
100
AcDbEntity
  8
0
  6
CONTINUOUS
100
AcDbLine
 10
7.963842273967511
 20
2.368399999997621
 30
0.0
 11
9.266442273966188
 21
3.670999999996297
 31
0.0
  0
LINE
  5
1B2C1
330
1B2A7
100
AcDbEntity
  8
0
  6
CONTINUOUS
100
AcDbLine
 10
8.637361483047696
 20
2.368399999997621
 30
0.0
 11
9.939961483046375
 21
3.670999999996297
 31
0.0
  0
LINE
  5
1B2C2
330
1B2A7
100
AcDbEntity
  8
0
  6
CONTINUOUS
100
AcDbLine
 10
9.817529300306965
 20
4.222087026337075
 30
0.0
 11
10.89312513395388
 21
5.297682859983993
 31
0.0
  0
LINE
  5
1B2C3
330
1B2A7
100
AcDbEntity
  8
0
  6
CONTINUOUS
100
AcDbLine
 10
10.02566815382863
 20
3.756706670778549
 30
0.0
 11
11.10129251732229
 21
4.832331034272211
 31
0.0
  0
LINE
  5
1B2C4
330
1B2A7
100
AcDbEntity
  8
0
  6
CONTINUOUS
100
AcDbLine
 10
9.310880692127883
 20
2.368399999997621
 30
0.0
 11
11.30945990069069
 21
4.366979208560428
 31
0.0
  0
LINE
  5
1B2C5
330
1B2A7
100
AcDbEntity
  8
0
  6
CONTINUOUS
100
AcDbLine
 10
9.98439990120807
 20
2.36839999999762
 30
0.0
 11
11.5176272840591
 21
3.901627382848645
 31
0.0
  0
LINE
  5
1B2C6
330
1B2A7
100
AcDbEntity
  8
0
  6
CONTINUOUS
100
AcDbLine
 10
10.65037369446246
 20
2.36085458417182
 30
0.0
 11
11.7257946674275
 21
3.436275557136862
 31
0.0
  0
LINE
  5
1B2C7
330
1B2A7
100
AcDbEntity
  8
0
  6
CONTINUOUS
100
AcDbLine
 10
10.85847197087848
 20
1.895433651507656
 30
0.0
 11
11.9339620507959
 21
2.97092373142508
 31
0.0
  0
LINE
  5
1B2C8
330
1B2A7
100
AcDbEntity
  8
0
  6
CONTINUOUS
100
AcDbLine
 10
11.0665702472945
 20
1.430012718843491
 30
0.0
 11
12.14212943416431
 21
2.505571905713296
 31
0.0
  0
LINE
  5
1B2C9
330
1B2A7
100
AcDbEntity
  8
0
  6
CONTINUOUS
100
AcDbLine
 10
11.27466852371052
 20
0.9645917861793256
 30
0.0
 11
12.35029681753271
 21
2.040220080001513
 31
0.0
  0
LINE
  5
1B2CA
330
1B2A7
100
AcDbEntity
  8
0
  6
CONTINUOUS
100
AcDbLine
 10
11.48276680012654
 20
0.4991708535151611
 30
0.0
 11
12.55846420090111
 21
1.57486825428973
 31
0.0
  0
LINE
  5
1B2CB
330
1B2A7
100
AcDbEntity
  8
0
  6
CONTINUOUS
100
AcDbLine
 10
11.69086507654257
 20
0.0337499208509957
 30
0.0
 11
12.76663158426952
 21
1.109516428577947
 31
0.0
  0
LINE
  5
1B2CC
330
1B2A7
100
AcDbEntity
  8
0
  6
CONTINUOUS
100
AcDbLine
 10
12.33057447873954
 20
-0.0000598860322123
 30
0.0
 11
12.97479896763792
 21
0.6441646028661663
 31
0.0
  0
LINE
  5
1B2CD
330
1B2A7
100
AcDbEntity
  8
0
  6
CONTINUOUS
100
AcDbLine
 10
13.00413694809395
 20
-0.0000166257579952
 30
0.0
 11
13.18296635100632
 21
0.1788127771543824
 31
0.0
  0
LINE
  5
1B2CE
330
1B2A7
100
AcDbEntity
  8
0
  6
CONTINUOUS
100
AcDbLine
 10
4.772852165289667
 20
-0.000092794222212
 30
0.0
 11
4.296495091028902
 21
0.4762642800385528
 31
0.0
  0
LINE
  5
1B2CF
330
1B2A7
100
AcDbEntity
  8
0
  6
CONTINUOUS
100
AcDbLine
 10
5.446340034776103
 20
-0.0000614546284616
 30
0.0
 11
2.898195908335625
 21
2.548082671812017
 31
0.0
  0
LINE
  5
1B2D0
330
1B2A7
100
AcDbEntity
  8
0
  6
CONTINUOUS
100
AcDbLine
 10
6.119827904262539
 20
-0.0000301150347113
 30
0.0
 11
1.499896725642348
 21
4.61990106358548
 31
0.0
  0
LINE
  5
1B2D1
330
1B2A7
100
AcDbEntity
  8
0
  6
CONTINUOUS
100
AcDbLine
 10
6.775136745476159
 20
0.0181802528318542
 30
0.0
 11
5.699826040202669
 21
1.093490958105344
 31
0.0
  0
LINE
  5
1B2D2
330
1B2A7
100
AcDbEntity
  8
0
  6
CONTINUOUS
100
AcDbLine
 10
6.983376846288489
 20
0.4834593610997118
 30
0.0
 11
5.908008617934405
 21
1.558827589453796
 31
0.0
  0
LINE
  5
1B2D3
330
1B2A7
100
AcDbEntity
  8
0
  6
CONTINUOUS
100
AcDbLine
 10
5.377063484962296
 20
1.416253513345719
 30
0.0
 11
1.702276957014131
 21
5.091040041293883
 31
0.0
  0
LINE
  5
1B2D4
330
1B2A7
100
AcDbEntity
  8
0
  6
CONTINUOUS
100
AcDbLine
 10
3.978745891735324
 20
3.488090315652877
 30
0.0
 11
2.000373521109399
 21
5.466462686278803
 31
0.0
  0
LINE
  5
1B2D5
330
1B2A7
100
AcDbEntity
  8
0
  6
CONTINUOUS
100
AcDbLine
 10
7.191616947100819
 20
0.948738469367568
 30
0.0
 11
6.11619119566614
 21
2.024164220802247
 31
0.0
  0
LINE
  5
1B2D6
330
1B2A7
100
AcDbEntity
  8
0
  6
CONTINUOUS
100
AcDbLine
 10
7.399857047913149
 20
1.414017577635424
 30
0.0
 11
6.324373773397875
 21
2.489500852150698
 31
0.0
  0
LINE
  5
1B2D7
330
1B2A7
100
AcDbEntity
  8
0
  6
CONTINUOUS
100
AcDbLine
 10
7.608097148725479
 20
1.879296685903281
 30
0.0
 11
6.53255635112961
 21
2.95483748349915
 31
0.0
  0
LINE
  5
1B2D8
330
1B2A7
100
AcDbEntity
  8
0
  6
CONTINUOUS
100
AcDbLine
 10
7.816337249537808
 20
2.344575794171138
 30
0.0
 11
6.740738928861345
 21
3.420174114847601
 31
0.0
  0
LINE
  5
1B2D9
330
1B2A7
100
AcDbEntity
  8
0
  6
CONTINUOUS
100
AcDbLine
 10
3.310241080789734
 20
4.830114335678653
 30
0.0
 11
2.298470085204666
 21
5.84188533126372
 31
0.0
  0
LINE
  5
1B2DA
330
1B2A7
100
AcDbEntity
  8
0
  6
CONTINUOUS
100
AcDbLine
 10
3.60832983563551
 20
5.205544789913063
 30
0.0
 11
2.596566649299935
 21
6.217307976248638
 31
0.0
  0
LINE
  5
1B2DB
330
1B2A7
100
AcDbEntity
  8
0
  6
CONTINUOUS
100
AcDbLine
 10
3.906418590481286
 20
5.580975244147473
 30
0.0
 11
2.894663213395203
 21
6.592730621233557
 31
0.0
  0
LINE
  5
1B2DC
330
1B2A7
100
AcDbEntity
  8
0
  6
CONTINUOUS
100
AcDbLine
 10
4.204507345327062
 20
5.956405698381884
 30
0.0
 11
3.192759777490472
 21
6.968153266218474
 31
0.0
  0
LINE
  5
1B2DD
330
1B2A7
100
AcDbEntity
  8
0
  6
CONTINUOUS
100
AcDbLine
 10
8.466032252791512
 20
2.368399999997621
 30
0.0
 11
6.948921506593081
 21
3.885510746196053
 31
0.0
  0
LINE
  5
1B2DE
330
1B2A7
100
AcDbEntity
  8
0
  6
CONTINUOUS
100
AcDbLine
 10
9.139551461871699
 20
2.36839999999762
 30
0.0
 11
7.157104084324816
 21
4.350847377544504
 31
0.0
  0
LINE
  5
1B2DF
330
1B2A7
100
AcDbEntity
  8
0
  6
CONTINUOUS
100
AcDbLine
 10
4.502596100172839
 20
6.331836152616295
 30
0.0
 11
3.49085634158574
 21
7.343575911203393
 31
0.0
  0
LINE
  5
1B2E0
330
1B2A7
100
AcDbEntity
  8
0
  6
CONTINUOUS
100
AcDbLine
 10
4.800684855018615
 20
6.707266606850705
 30
0.0
 11
3.788952905681008
 21
7.718998556188312
 31
0.0
  0
LINE
  5
1B2E1
330
1B2A7
100
AcDbEntity
  8
0
  6
CONTINUOUS
100
AcDbLine
 10
12.18154012887317
 20
-0.0000694579236642
 30
0.0
 11
11.32140332908496
 21
0.8600673418645499
 31
0.0
  0
LINE
  5
1B2E2
330
1B2A7
100
AcDbEntity
  8
0
  6
CONTINUOUS
100
AcDbLine
 10
12.85501608323566
 20
-0.0000262032059659
 30
0.0
 11
10.77672456435345
 21
2.078265315676246
 31
0.0
  0
LINE
  5
1B2E3
330
1B2A7
100
AcDbEntity
  8
0
  6
CONTINUOUS
100
AcDbLine
 10
9.813070670951886
 20
2.36839999999762
 30
0.0
 11
8.51047067095321
 21
3.670999999996297
 31
0.0
  0
LINE
  5
1B2E4
330
1B2A7
100
AcDbEntity
  8
0
  6
CONTINUOUS
100
AcDbLine
 10
10.48658988003207
 20
2.36839999999762
 30
0.0
 11
9.183989880033396
 21
3.670999999996297
 31
0.0
  0
LINE
  5
1B2E5
330
1B2A7
100
AcDbEntity
  8
0
  6
CONTINUOUS
100
AcDbLine
 10
8.441048632286794
 20
3.740422038662712
 30
0.0
 11
7.365286662056551
 21
4.816184008892956
 31
0.0
  0
LINE
  5
1B2E6
330
1B2A7
100
AcDbEntity
  8
0
  6
CONTINUOUS
100
AcDbLine
 10
8.649187485808454
 20
4.205802394221237
 30
0.0
 11
7.573469239788285
 21
5.281520640241407
 31
0.0
  0
LINE
  5
1B2E7
330
1B2A7
100
AcDbEntity
  8
0
  6
CONTINUOUS
100
AcDbLine
 10
5.098773609864391
 20
7.082697061085115
 30
0.0
 11
4.087049469776277
 21
8.09442120117323
 31
0.0
  0
LINE
  5
1B2E8
330
1B2A7
100
AcDbEntity
  8
0
  6
CONTINUOUS
100
AcDbLine
 10
5.396862364710167
 20
7.458127515319526
 30
0.0
 11
4.385146033871544
 21
8.469843846158149
 31
0.0
  0
LINE
  5
1B2E9
330
1B2A7
100
AcDbEntity
  8
0
  6
CONTINUOUS
100
AcDbLine
 10
13.04801363231285
 20
0.4804954567970334
 30
0.0
 11
9.85750908911358
 21
3.670999999996297
 31
0.0
  0
LINE
  5
1B2EA
330
1B2A7
100
AcDbEntity
  8
0
  6
CONTINUOUS
100
AcDbLine
 10
8.857326339330116
 20
4.671182749779763
 30
0.0
 11
7.781651817520021
 21
5.746857271589858
 31
0.0
  0
LINE
  5
1B2EB
330
1B2A7
100
AcDbEntity
  8
0
  6
CONTINUOUS
100
AcDbLine
 10
5.694951119555943
 20
7.833557969553937
 30
0.0
 11
4.765409089118624
 21
8.763099999991255
 31
0.0
  0
LINE
  5
1B2EC
330
1B2A7
100
AcDbEntity
  8
0
  6
CONTINUOUS
100
AcDbLine
 10
12.50286117236978
 20
1.699167125820288
 30
0.0
 11
9.68611877250287
 21
4.515909525687196
 31
0.0
  0
LINE
  5
1B2ED
330
1B2A7
100
AcDbEntity
  8
0
  6
CONTINUOUS
100
AcDbLine
 10
9.065465192851777
 20
5.136563105338288
 30
0.0
 11
7.989834395251757
 21
6.21219390293831
 31
0.0
  0
LINE
  5
1B2EE
330
1B2A7
100
AcDbEntity
  8
0
  6
CONTINUOUS
100
AcDbLine
 10
5.993039874401719
 20
8.208988423788346
 30
0.0
 11
5.43892829819881
 21
8.763099999991255
 31
0.0
  0
LINE
  5
1B2EF
330
1B2A7
100
AcDbEntity
  8
0
  6
CONTINUOUS
100
AcDbLine
 10
11.95770871242671
 20
2.917838794843543
 30
0.0
 11
8.19801697298349
 21
6.677530534286761
 31
0.0
  0
LINE
  5
1B2F0
330
1B2A7
100
AcDbEntity
  8
0
  6
CONTINUOUS
100
AcDbLine
 10
6.291128629247495
 20
8.584418878022756
 30
0.0
 11
6.112447507278997
 21
8.763099999991255
 31
0.0
  0
LINE
  5
1B2F1
330
1B2A7
100
AcDbEntity
  8
0
  6
CONTINUOUS
100
AcDbLine
 10
11.41255625248364
 20
4.136510463866797
 30
0.0
 11
8.406199550715227
 21
7.142867165635211
 31
0.0
  0
LINE
  5
1B2F2
330
1B2A7
100
AcDbEntity
  8
0
  6
CONTINUOUS
100
AcDbLine
 10
10.86740379254057
 20
5.355182132890051
 30
0.0
 11
8.614382128446962
 21
7.608203796983664
 31
0.0
  0
LINE
  5
1B2F3
330
1B2A7
100
AcDbEntity
  8
0
  6
CONTINUOUS
100
AcDbLine
 10
10.3222513325975
 20
6.573853801913305
 30
0.0
 11
8.822564706178696
 21
8.073540428332114
 31
0.0
  0
LINE
  5
1B2F4
330
1B2A7
100
AcDbEntity
  8
0
  6
CONTINUOUS
100
AcDbLine
 10
9.777098872654436
 20
7.792525470936562
 30
0.0
 11
9.030747283910433
 21
8.538877059680566
 31
0.0
  0
ENDBLK
  5
1B436
330
1B2A7
100
AcDbEntity
  8
0
100
AcDbBlockEnd
  0
BLOCK
  5
1B437
330
1B2F5
100
AcDbEntity
  8
0
100
AcDbBlockBegin
  2
*X147
 70
     1
 10
0.0
 20
0.0
 30
0.0
  3
*X147
  1

  0
LINE
  5
1B2F6
330
1B2F5
100
AcDbEntity
  8
0
  6
CONTINUOUS
100
AcDbLine
 10
10.67292308101235
 20
8.445076852443387
 30
0.0
 11
10.99094622856022
 21
8.763099999991255
 31
0.0
  0
LINE
  5
1B2F7
330
1B2F5
100
AcDbEntity
  8
0
  6
CONTINUOUS
100
AcDbLine
 10
10.87250383178748
 20
7.971138394138331
 30
0.0
 11
11.6644654376404
 21
8.763099999991255
 31
0.0
  0
LINE
  5
1B2F8
330
1B2F5
100
AcDbEntity
  8
0
  6
CONTINUOUS
100
AcDbLine
 10
11.07208458256261
 20
7.497199935833273
 30
0.0
 11
12.12126590876355
 21
8.546381262034211
 31
0.0
  0
LINE
  5
1B2F9
330
1B2F5
100
AcDbEntity
  8
0
  6
CONTINUOUS
100
AcDbLine
 10
11.27166533333774
 20
7.023261477528216
 30
0.0
 11
12.32085164573666
 21
8.072447789927136
 31
0.0
  0
LINE
  5
1B2FA
330
1B2F5
100
AcDbEntity
  8
0
  6
CONTINUOUS
100
AcDbLine
 10
11.47124608411287
 20
6.549323019223158
 30
0.0
 11
12.52043738270977
 21
7.59851431782006
 31
0.0
  0
LINE
  5
1B2FB
330
1B2F5
100
AcDbEntity
  8
0
  6
CONTINUOUS
100
AcDbLine
 10
11.670826834888
 20
6.075384560918101
 30
0.0
 11
12.72002311968288
 21
7.124580845712984
 31
0.0
  0
LINE
  5
1B2FC
330
1B2F5
100
AcDbEntity
  8
0
  6
CONTINUOUS
100
AcDbLine
 10
11.87040758566313
 20
5.601446102613043
 30
0.0
 11
12.91960885665599
 21
6.650647373605907
 31
0.0
  0
LINE
  5
1B2FD
330
1B2F5
100
AcDbEntity
  8
0
  6
CONTINUOUS
100
AcDbLine
 10
12.06998833643825
 20
5.127507644307986
 30
0.0
 11
13.1191945936291
 21
6.176713901498832
 31
0.0
  0
LINE
  5
1B2FE
330
1B2F5
100
AcDbEntity
  8
0
  6
CONTINUOUS
100
AcDbLine
 10
12.26956908721338
 20
4.65356918600293
 30
0.0
 11
13.31878033060221
 21
5.702780429391757
 31
0.0
  0
LINE
  5
1B2FF
330
1B2F5
100
AcDbEntity
  8
0
  6
CONTINUOUS
100
AcDbLine
 10
12.46914983798851
 20
4.179630727697873
 30
0.0
 11
13.51836606757532
 21
5.228846957284683
 31
0.0
  0
LINE
  5
1B300
330
1B2F5
100
AcDbEntity
  8
0
  6
CONTINUOUS
100
AcDbLine
 10
12.66873058876364
 20
3.705692269392816
 30
0.0
 11
13.71795180454843
 21
4.754913485177607
 31
0.0
  0
LINE
  5
1B301
330
1B2F5
100
AcDbEntity
  8
0
  6
CONTINUOUS
100
AcDbLine
 10
12.86831133953877
 20
3.231753811087759
 30
0.0
 11
13.91753754152154
 21
4.280980013070531
 31
0.0
  0
LINE
  5
1B302
330
1B2F5
100
AcDbEntity
  8
0
  6
CONTINUOUS
100
AcDbLine
 10
13.0678920903139
 20
2.757815352782702
 30
0.0
 11
14.11712327849465
 21
3.807046540963456
 31
0.0
  0
LINE
  5
1B303
330
1B2F5
100
AcDbEntity
  8
0
  6
CONTINUOUS
100
AcDbLine
 10
13.26747284108903
 20
2.283876894477644
 30
0.0
 11
14.31670901546777
 21
3.333113068856379
 31
0.0
  0
LINE
  5
1B304
330
1B2F5
100
AcDbEntity
  8
0
  6
CONTINUOUS
100
AcDbLine
 10
16.36767838827179
 20
8.751678487061342
 30
0.0
 11
16.50332410898388
 21
8.887324207773432
 31
0.0
  0
LINE
  5
1B305
330
1B2F5
100
AcDbEntity
  8
0
  6
CONTINUOUS
100
AcDbLine
 10
15.96190732182191
 20
7.67238821153127
 30
0.0
 11
16.68735328004734
 21
8.397834169756699
 31
0.0
  0
LINE
  5
1B306
330
1B2F5
100
AcDbEntity
  8
0
  6
CONTINUOUS
100
AcDbLine
 10
15.55613625537202
 20
6.593097936001196
 30
0.0
 11
16.87138245111079
 21
7.908344131739965
 31
0.0
  0
LINE
  5
1B307
330
1B2F5
100
AcDbEntity
  8
0
  6
CONTINUOUS
100
AcDbLine
 10
15.15036518892213
 20
5.513807660471122
 30
0.0
 11
17.05541162217424
 21
7.418854093723231
 31
0.0
  0
LINE
  5
1B308
330
1B2F5
100
AcDbEntity
  8
0
  6
CONTINUOUS
100
AcDbLine
 10
14.74459412247225
 20
4.434517384941048
 30
0.0
 11
17.2394407932377
 21
6.929364055706499
 31
0.0
  0
LINE
  5
1B309
330
1B2F5
100
AcDbEntity
  8
0
  6
CONTINUOUS
100
AcDbLine
 10
14.33882305602236
 20
3.355227109410975
 30
0.0
 11
17.42346996430115
 21
6.439874017689766
 31
0.0
  0
LINE
  5
1B30A
330
1B2F5
100
AcDbEntity
  8
0
  6
CONTINUOUS
100
AcDbLine
 10
13.46705359186416
 20
1.809938436172586
 30
0.0
 11
16.0819338255367
 21
4.424818669845129
 31
0.0
  0
LINE
  5
1B30B
330
1B2F5
100
AcDbEntity
  8
0
  6
CONTINUOUS
100
AcDbLine
 10
16.63283254238972
 20
4.975717386698149
 30
0.0
 11
17.60749913536461
 21
5.950383979673033
 31
0.0
  0
LINE
  5
1B30C
330
1B2F5
100
AcDbEntity
  8
0
  6
CONTINUOUS
100
AcDbLine
 10
13.66663434263929
 20
1.335999977867529
 30
0.0
 11
15.67604797733754
 21
3.345413612565779
 31
0.0
  0
LINE
  5
1B30D
330
1B2F5
100
AcDbEntity
  8
0
  6
CONTINUOUS
100
AcDbLine
 10
13.86621509341442
 20
0.8620615195624723
 30
0.0
 11
15.27016212913838
 21
2.26600855528643
 31
0.0
  0
LINE
  5
1B30E
330
1B2F5
100
AcDbEntity
  8
0
  6
CONTINUOUS
100
AcDbLine
 10
16.81682257348267
 20
4.486188208710908
 30
0.0
 11
17.79152830642806
 21
5.460893941656299
 31
0.0
  0
LINE
  5
1B30F
330
1B2F5
100
AcDbEntity
  8
0
  6
CONTINUOUS
100
AcDbLine
 10
17.00081260457561
 20
3.996659030723667
 30
0.0
 11
17.97555747749151
 21
4.971403903639565
 31
0.0
  0
LINE
  5
1B310
330
1B2F5
100
AcDbEntity
  8
0
  6
CONTINUOUS
100
AcDbLine
 10
20.74362343514722
 20
8.412989070375462
 30
0.0
 11
21.09373436476302
 21
8.763099999991256
 31
0.0
  0
LINE
  5
1B311
330
1B2F5
100
AcDbEntity
  8
0
  6
CONTINUOUS
100
AcDbLine
 10
20.25401257174777
 20
7.249858997895826
 30
0.0
 11
21.7672535738432
 21
8.763099999991255
 31
0.0
  0
LINE
  5
1B312
330
1B2F5
100
AcDbEntity
  8
0
  6
CONTINUOUS
100
AcDbLine
 10
14.06579584418955
 20
0.3881230612574149
 30
0.0
 11
14.86427628093921
 21
1.186603498007082
 31
0.0
  0
LINE
  5
1B313
330
1B2F5
100
AcDbEntity
  8
0
  6
CONTINUOUS
100
AcDbLine
 10
14.26537659496467
 20
-0.0858153970476412
 30
0.0
 11
14.45839043274005
 21
0.1071984407277329
 31
0.0
  0
LINE
  5
1B314
330
1B2F5
100
AcDbEntity
  8
0
  6
CONTINUOUS
100
AcDbLine
 10
17.18480263566856
 20
3.507129852736426
 30
0.0
 11
18.15958664855496
 21
4.481913865622833
 31
0.0
  0
LINE
  5
1B315
330
1B2F5
100
AcDbEntity
  8
0
  6
CONTINUOUS
100
AcDbLine
 10
17.3687926667615
 20
3.017600674749186
 30
0.0
 11
18.34361581961842
 21
3.9924238276061
 31
0.0
  0
LINE
  5
1B316
330
1B2F5
100
AcDbEntity
  8
0
  6
CONTINUOUS
100
AcDbLine
 10
19.76440170834832
 20
6.086728925416191
 30
0.0
 11
22.33924590259489
 21
8.661573119662755
 31
0.0
  0
LINE
  5
1B317
330
1B2F5
100
AcDbEntity
  8
0
  6
CONTINUOUS
100
AcDbLine
 10
19.27479084494887
 20
4.923598852936555
 30
0.0
 11
21.84929622842713
 21
7.498104236414807
 31
0.0
  0
LINE
  5
1B318
330
1B2F5
100
AcDbEntity
  8
0
  6
CONTINUOUS
100
AcDbLine
 10
17.55278269785445
 20
2.528071496761945
 30
0.0
 11
18.52764499068187
 21
3.502933789589366
 31
0.0
  0
LINE
  5
1B319
330
1B2F5
100
AcDbEntity
  8
0
  6
CONTINUOUS
100
AcDbLine
 10
18.78517998154942
 20
3.760468780456919
 30
0.0
 11
21.35934655425936
 21
6.33463535316686
 31
0.0
  0
LINE
  5
1B31A
330
1B2F5
100
AcDbEntity
  8
0
  6
CONTINUOUS
100
AcDbLine
 10
17.73677272894739
 20
2.038542318774704
 30
0.0
 11
20.8693968800916
 21
5.171166469918914
 31
0.0
  0
LINE
  5
1B31B
330
1B2F5
100
AcDbEntity
  8
0
  6
CONTINUOUS
100
AcDbLine
 10
17.92076276004034
 20
1.549013140787464
 30
0.0
 11
20.37944720592384
 21
4.007697586670968
 31
0.0
  0
LINE
  5
1B31C
330
1B2F5
100
AcDbEntity
  8
0
  6
CONTINUOUS
100
AcDbLine
 10
18.10475279113329
 20
1.059483962800223
 30
0.0
 11
19.88949753175608
 21
2.84422870342302
 31
0.0
  0
LINE
  5
1B31D
330
1B2F5
100
AcDbEntity
  8
0
  6
CONTINUOUS
100
AcDbLine
 10
18.28874282222623
 20
0.5699547848129822
 30
0.0
 11
19.39954785758832
 21
1.680759820175074
 31
0.0
  0
LINE
  5
1B31E
330
1B2F5
100
AcDbEntity
  8
0
  6
CONTINUOUS
100
AcDbLine
 10
18.47273285331918
 20
0.0804256068257416
 30
0.0
 11
18.90959818342056
 21
0.517290936927127
 31
0.0
  0
LINE
  5
1B31F
330
1B2F5
100
AcDbEntity
  8
0
  6
CONTINUOUS
100
AcDbLine
 10
14.3590401358224
 20
-0.1570118376323384
 30
0.0
 11
14.24903296539946
 21
-0.0470046672093929
 31
0.0
  0
LINE
  5
1B320
330
1B2F5
100
AcDbEntity
  8
0
  6
CONTINUOUS
100
AcDbLine
 10
14.54309291258661
 20
0.332454594683643
 30
0.0
 11
13.75908329123172
 21
1.116464216038529
 31
0.0
  0
LINE
  5
1B321
330
1B2F5
100
AcDbEntity
  8
0
  6
CONTINUOUS
100
AcDbLine
 10
14.72714568935081
 20
0.8219210269996244
 30
0.0
 11
13.26913361706399
 21
2.27993309928645
 31
0.0
  0
LINE
  5
1B322
330
1B2F5
100
AcDbEntity
  8
0
  6
CONTINUOUS
100
AcDbLine
 10
14.91119846611502
 20
1.311387459315606
 30
0.0
 11
12.77918394289625
 21
3.443401982534371
 31
0.0
  0
LINE
  5
1B323
330
1B2F5
100
AcDbEntity
  8
0
  6
CONTINUOUS
100
AcDbLine
 10
15.09525124287922
 20
1.800853891631587
 30
0.0
 11
12.28923426872852
 21
4.606870865782293
 31
0.0
  0
LINE
  5
1B324
330
1B2F5
100
AcDbEntity
  8
0
  6
CONTINUOUS
100
AcDbLine
 10
15.27930401964343
 20
2.290320323947569
 30
0.0
 11
11.79928459456078
 21
5.770339749030213
 31
0.0
  0
LINE
  5
1B325
330
1B2F5
100
AcDbEntity
  8
0
  6
CONTINUOUS
100
AcDbLine
 10
15.46335679640763
 20
2.77978675626355
 30
0.0
 11
14.48885470994921
 21
3.754288842721972
 31
0.0
  0
LINE
  5
1B326
330
1B2F5
100
AcDbEntity
  8
0
  6
CONTINUOUS
100
AcDbLine
 10
13.88507249233704
 20
4.358071060334137
 30
0.0
 11
11.30933492039305
 21
6.933808632278135
 31
0.0
  0
LINE
  5
1B327
330
1B2F5
100
AcDbEntity
  8
0
  6
CONTINUOUS
100
AcDbLine
 10
18.75840522805855
 20
0.1582575336928151
 30
0.0
 11
18.25383727664818
 21
0.6628254851031863
 31
0.0
  0
LINE
  5
1B328
330
1B2F5
100
AcDbEntity
  8
0
  6
CONTINUOUS
100
AcDbLine
 10
15.64740957317184
 20
3.269253188579531
 30
0.0
 11
14.67288388101266
 21
4.243778880738705
 31
0.0
  0
LINE
  5
1B329
330
1B2F5
100
AcDbEntity
  8
0
  6
CONTINUOUS
100
AcDbLine
 10
13.39509276772158
 20
5.521569994029786
 30
0.0
 11
10.81938524622531
 21
8.097277515526056
 31
0.0
  0
LINE
  5
1B32A
330
1B2F5
100
AcDbEntity
  8
0
  6
CONTINUOUS
100
AcDbLine
 10
18.95798597883369
 20
0.6321959919978686
 30
0.0
 11
17.84825644852853
 21
1.741925522303024
 31
0.0
  0
LINE
  5
1B32B
330
1B2F5
100
AcDbEntity
  8
0
  6
CONTINUOUS
100
AcDbLine
 10
19.15756672960882
 20
1.106134450302922
 30
0.0
 11
17.44267562040888
 21
2.821025559502861
 31
0.0
  0
LINE
  5
1B32C
330
1B2F5
100
AcDbEntity
  8
0
  6
CONTINUOUS
100
AcDbLine
 10
15.83146234993604
 20
3.758719620895513
 30
0.0
 11
14.85691305207612
 21
4.733268918755439
 31
0.0
  0
LINE
  5
1B32D
330
1B2F5
100
AcDbEntity
  8
0
  6
CONTINUOUS
100
AcDbLine
 10
16.01551512670025
 20
4.248186053211494
 30
0.0
 11
15.04094222313957
 21
5.222758956772172
 31
0.0
  0
LINE
  5
1B32E
330
1B2F5
100
AcDbEntity
  8
0
  6
CONTINUOUS
100
AcDbLine
 10
12.90511304310612
 20
6.685068927725435
 30
0.0
 11
10.8270819708403
 21
8.763099999991255
 31
0.0
  0
LINE
  5
1B32F
330
1B2F5
100
AcDbEntity
  8
0
  6
CONTINUOUS
100
AcDbLine
 10
12.41513331849066
 20
7.848567861421083
 30
0.0
 11
11.50060117992049
 21
8.763099999991255
 31
0.0
  0
LINE
  5
1B330
330
1B2F5
100
AcDbEntity
  8
0
  6
CONTINUOUS
100
AcDbLine
 10
19.35714748038395
 20
1.580072908607975
 30
0.0
 11
17.03709479228923
 21
3.900125596702697
 31
0.0
  0
LINE
  5
1B331
330
1B2F5
100
AcDbEntity
  8
0
  6
CONTINUOUS
100
AcDbLine
 10
19.55672823115909
 20
2.054011366913028
 30
0.0
 11
16.63151396416958
 21
4.979225633902534
 31
0.0
  0
LINE
  5
1B332
330
1B2F5
100
AcDbEntity
  8
0
  6
CONTINUOUS
100
AcDbLine
 10
16.19956790346445
 20
4.737652485527476
 30
0.0
 11
15.22497139420302
 21
5.712248994788904
 31
0.0
  0
LINE
  5
1B333
330
1B2F5
100
AcDbEntity
  8
0
  6
CONTINUOUS
100
AcDbLine
 10
16.38362068022866
 20
5.227118917843457
 30
0.0
 11
15.40900056526648
 21
6.201739032805637
 31
0.0
  0
LINE
  5
1B334
330
1B2F5
100
AcDbEntity
  8
0
  6
CONTINUOUS
100
AcDbLine
 10
19.75630898193422
 20
2.527949825218081
 30
0.0
 11
18.70774536448286
 21
3.576513442669441
 31
0.0
  0
LINE
  5
1B335
330
1B2F5
100
AcDbEntity
  8
0
  6
CONTINUOUS
100
AcDbLine
 10
19.95588973270936
 20
3.001888283523134
 30
0.0
 11
18.90726987211446
 21
4.050508144118028
 31
0.0
  0
LINE
  5
1B336
330
1B2F5
100
AcDbEntity
  8
0
  6
CONTINUOUS
100
AcDbLine
 10
20.15547048348449
 20
3.475826741828186
 30
0.0
 11
19.10679437974606
 21
4.524502845566614
 31
0.0
  0
LINE
  5
1B337
330
1B2F5
100
AcDbEntity
  8
0
  6
CONTINUOUS
100
AcDbLine
 10
20.35505123425962
 20
3.94976520013324
 30
0.0
 11
19.30631888737766
 21
4.998497547015201
 31
0.0
  0
LINE
  5
1B338
330
1B2F5
100
AcDbEntity
  8
0
  6
CONTINUOUS
100
AcDbLine
 10
20.55463198503475
 20
4.423703658438292
 30
0.0
 11
19.50584339500926
 21
5.472492248463787
 31
0.0
  0
LINE
  5
1B339
330
1B2F5
100
AcDbEntity
  8
0
  6
CONTINUOUS
100
AcDbLine
 10
18.37481191085755
 20
3.909446896294752
 30
0.0
 11
15.59302973632993
 21
6.691229070822371
 31
0.0
  0
LINE
  5
1B33A
330
1B2F5
100
AcDbEntity
  8
0
  6
CONTINUOUS
100
AcDbLine
 10
17.96904084440766
 20
4.988737171824825
 30
0.0
 11
15.77705890739338
 21
7.180719108839104
 31
0.0
  0
LINE
  5
1B33B
330
1B2F5
100
AcDbEntity
  8
0
  6
CONTINUOUS
100
AcDbLine
 10
17.56326977795777
 20
6.068027447354899
 30
0.0
 11
15.96108807845684
 21
7.670209146855838
 31
0.0
  0
LINE
  5
1B33C
330
1B2F5
100
AcDbEntity
  8
0
  6
CONTINUOUS
100
AcDbLine
 10
17.15749871150789
 20
7.147317722884972
 30
0.0
 11
16.14511724952029
 21
8.15969918487257
 31
0.0
  0
LINE
  5
1B33D
330
1B2F5
100
AcDbEntity
  8
0
  6
CONTINUOUS
100
AcDbLine
 10
16.751727645058
 20
8.226607998415046
 30
0.0
 11
16.32914642058374
 21
8.649189222889303
 31
0.0
  0
LINE
  5
1B33E
330
1B2F5
100
AcDbEntity
  8
0
  6
CONTINUOUS
100
AcDbLine
 10
20.75421273580989
 20
4.897642116743345
 30
0.0
 11
19.70536790264086
 21
5.946486949912374
 31
0.0
  0
LINE
  5
1B33F
330
1B2F5
100
AcDbEntity
  8
0
  6
CONTINUOUS
100
AcDbLine
 10
20.95379348658502
 20
5.371580575048398
 30
0.0
 11
19.90489241027246
 21
6.42048165136096
 31
0.0
  0
LINE
  5
1B340
330
1B2F5
100
AcDbEntity
  8
0
  6
CONTINUOUS
100
AcDbLine
 10
21.15337423736015
 20
5.845519033353452
 30
0.0
 11
20.10441691790406
 21
6.894476352809547
 31
0.0
  0
LINE
  5
1B341
330
1B2F5
100
AcDbEntity
  8
0
  6
CONTINUOUS
100
AcDbLine
 10
21.35295498813529
 20
6.319457491658505
 30
0.0
 11
20.30394142553566
 21
7.368471054258134
 31
0.0
  0
LINE
  5
1B342
330
1B2F5
100
AcDbEntity
  8
0
  6
CONTINUOUS
100
AcDbLine
 10
21.55253573891042
 20
6.793395949963558
 30
0.0
 11
20.50346593316726
 21
7.842465755706721
 31
0.0
  0
LINE
  5
1B343
330
1B2F5
100
AcDbEntity
  8
0
  6
CONTINUOUS
100
AcDbLine
 10
21.75211648968556
 20
7.267334408268612
 30
0.0
 11
20.70299044079886
 21
8.316460457155308
 31
0.0
  0
LINE
  5
1B344
330
1B2F5
100
AcDbEntity
  8
0
  6
CONTINUOUS
100
AcDbLine
 10
21.95169724046069
 20
7.741272866573663
 30
0.0
 11
20.9298701070431
 21
8.763099999991256
 31
0.0
  0
LINE
  5
1B345
330
1B2F5
100
AcDbEntity
  8
0
  6
CONTINUOUS
100
AcDbLine
 10
22.15127799123582
 20
8.215211324878716
 30
0.0
 11
21.60338931612328
 21
8.763099999991256
 31
0.0
  0
LINE
  5
1B346
330
1B2F5
100
AcDbEntity
  8
0
  6
CONTINUOUS
100
AcDbLine
 10
22.35085874201096
 20
8.689149783183769
 30
0.0
 11
22.27690852520347
 21
8.763099999991255
 31
0.0
  0
ENDBLK
  5
1B438
330
1B2F5
100
AcDbEntity
  8
0
100
AcDbBlockEnd
  0
BLOCK
  5
1B439
330
1B347
100
AcDbEntity
  8
0
100
AcDbBlockBegin
  2
*X148
 70
     1
 10
0.0
 20
0.0
 30
0.0
  3
*X148
  1

  0
LINE
  5
1B348
330
1B347
100
AcDbEntity
  8
0
  6
CONTINUOUS
100
AcDbLine
 10
23.19462913593892
 20
8.169917934846424
 30
0.0
 11
23.70775465517246
 21
8.683043454079957
 31
0.0
  0
LINE
  5
1B349
330
1B347
100
AcDbEntity
  8
0
  6
CONTINUOUS
100
AcDbLine
 10
22.64923161835078
 20
6.951001208178088
 30
0.0
 11
23.9159364069932
 21
8.217705996820516
 31
0.0
  0
LINE
  5
1B34A
330
1B347
100
AcDbEntity
  8
0
  6
CONTINUOUS
100
AcDbLine
 10
22.10383410076263
 20
5.732084481509751
 30
0.0
 11
24.12411815881395
 21
7.752368539561078
 31
0.0
  0
LINE
  5
1B34B
330
1B347
100
AcDbEntity
  8
0
  6
CONTINUOUS
100
AcDbLine
 10
21.55843658317447
 20
4.513167754841414
 30
0.0
 11
24.3322999106347
 21
7.287031082301639
 31
0.0
  0
LINE
  5
1B34C
330
1B347
100
AcDbEntity
  8
0
  6
CONTINUOUS
100
AcDbLine
 10
21.01303906558632
 20
3.294251028173077
 30
0.0
 11
24.54048166245544
 21
6.821693625042199
 31
0.0
  0
LINE
  5
1B34D
330
1B347
100
AcDbEntity
  8
0
  6
CONTINUOUS
100
AcDbLine
 10
20.46764154799817
 20
2.075334301504738
 30
0.0
 11
23.28571549467848
 21
4.89340824818505
 31
0.0
  0
LINE
  5
1B34E
330
1B347
100
AcDbEntity
  8
0
  6
CONTINUOUS
100
AcDbLine
 10
19.92224403041002
 20
0.8564175748364002
 30
0.0
 11
22.74075865492779
 21
3.674932199354171
 31
0.0
  0
LINE
  5
1B34F
330
1B347
100
AcDbEntity
  8
0
  6
CONTINUOUS
100
AcDbLine
 10
23.67305085490148
 20
5.280743608408048
 30
0.0
 11
24.74866341427619
 21
6.356356167782759
 31
0.0
  0
LINE
  5
1B350
330
1B347
100
AcDbEntity
  8
0
  6
CONTINUOUS
100
AcDbLine
 10
23.88118970842314
 20
4.815363252849522
 30
0.0
 11
24.95684516609694
 21
5.89101871052332
 31
0.0
  0
LINE
  5
1B351
330
1B347
100
AcDbEntity
  8
0
  6
CONTINUOUS
100
AcDbLine
 10
19.73925852647308
 20
-0.0000871381807288
 30
0.0
 11
23.4103456646501
 21
3.670999999996297
 31
0.0
  0
LINE
  5
1B352
330
1B347
100
AcDbEntity
  8
0
  6
CONTINUOUS
100
AcDbLine
 10
24.0893285619448
 20
4.349982897290997
 30
0.0
 11
25.16502691791769
 21
5.42568125326388
 31
0.0
  0
LINE
  5
1B353
330
1B347
100
AcDbEntity
  8
0
  6
CONTINUOUS
100
AcDbLine
 10
20.41282099582748
 20
-0.0000438779065108
 30
0.0
 11
21.64944178675636
 21
1.236576913022366
 31
0.0
  0
LINE
  5
1B354
330
1B347
100
AcDbEntity
  8
0
  6
CONTINUOUS
100
AcDbLine
 10
22.78126487373161
 20
2.36839999999762
 30
0.0
 11
24.08386487373029
 21
3.670999999996297
 31
0.0
  0
LINE
  5
1B355
330
1B347
100
AcDbEntity
  8
0
  6
CONTINUOUS
100
AcDbLine
 10
24.29746741546646
 20
3.884602541732471
 30
0.0
 11
25.37320866973843
 21
4.960343796004441
 31
0.0
  0
LINE
  5
1B356
330
1B347
100
AcDbEntity
  8
0
  6
CONTINUOUS
100
AcDbLine
 10
21.08638346518189
 20
-0.0000006176322938
 30
0.0
 11
21.10379033335899
 21
0.0174062505448083
 31
0.0
  0
LINE
  5
1B357
330
1B347
100
AcDbEntity
  8
0
  6
CONTINUOUS
100
AcDbLine
 10
23.4547840828118
 20
2.36839999999762
 30
0.0
 11
25.58139042155918
 21
4.495006338745002
 31
0.0
  0
LINE
  5
1B358
330
1B347
100
AcDbEntity
  8
0
  6
CONTINUOUS
100
AcDbLine
 10
29.30199999996933
 20
8.215615917155148
 30
0.0
 11
29.84948408280543
 21
8.763099999991255
 31
0.0
  0
LINE
  5
1B359
330
1B347
100
AcDbEntity
  8
0
  6
CONTINUOUS
100
AcDbLine
 10
24.12830329189199
 20
2.36839999999762
 30
0.0
 11
25.78957217337993
 21
4.029668881485562
 31
0.0
  0
LINE
  5
1B35A
330
1B347
100
AcDbEntity
  8
0
  6
CONTINUOUS
100
AcDbLine
 10
29.30199999996933
 20
7.54209670807496
 30
0.0
 11
30.52300329188562
 21
8.763099999991255
 31
0.0
  0
LINE
  5
1B35B
330
1B347
100
AcDbEntity
  8
0
  6
CONTINUOUS
100
AcDbLine
 10
24.80182250097217
 20
2.36839999999762
 30
0.0
 11
25.99775392520067
 21
3.564331424226122
 31
0.0
  0
LINE
  5
1B35C
330
1B347
100
AcDbEntity
  8
0
  6
CONTINUOUS
100
AcDbLine
 10
29.30199999996933
 20
6.868577498994774
 30
0.0
 11
30.74199999996926
 21
8.308577498994712
 31
0.0
  0
LINE
  5
1B35D
330
1B347
100
AcDbEntity
  8
0
  6
CONTINUOUS
100
AcDbLine
 10
25.13028238392013
 20
2.023340673865392
 30
0.0
 11
26.20593567702142
 21
3.098993966966683
 31
0.0
  0
LINE
  5
1B35E
330
1B347
100
AcDbEntity
  8
0
  6
CONTINUOUS
100
AcDbLine
 10
25.33838066033617
 20
1.557919741201244
 30
0.0
 11
26.41411742884217
 21
2.633656509707244
 31
0.0
  0
LINE
  5
1B35F
330
1B347
100
AcDbEntity
  8
0
  6
CONTINUOUS
100
AcDbLine
 10
25.54647893675221
 20
1.092498808537098
 30
0.0
 11
26.62229918066291
 21
2.168319052447804
 31
0.0
  0
LINE
  5
1B360
330
1B347
100
AcDbEntity
  8
0
  6
CONTINUOUS
100
AcDbLine
 10
25.75457721316825
 20
0.62707787587295
 30
0.0
 11
26.83048093248366
 21
1.702981595188365
 31
0.0
  0
LINE
  5
1B361
330
1B347
100
AcDbEntity
  8
0
  6
CONTINUOUS
100
AcDbLine
 10
29.30199999996933
 20
6.195058289914587
 30
0.0
 11
30.74199999996926
 21
7.635058289914522
 31
0.0
  0
LINE
  5
1B362
330
1B347
100
AcDbEntity
  8
0
  6
CONTINUOUS
100
AcDbLine
 10
29.30199999996933
 20
5.521539080834401
 30
0.0
 11
30.74199999996926
 21
6.961539080834331
 31
0.0
  0
LINE
  5
1B363
330
1B347
100
AcDbEntity
  8
0
  6
CONTINUOUS
100
AcDbLine
 10
29.30199999996933
 20
4.848019871754214
 30
0.0
 11
30.74199999996925
 21
6.288019871754143
 31
0.0
  0
LINE
  5
1B364
330
1B347
100
AcDbEntity
  8
0
  6
CONTINUOUS
100
AcDbLine
 10
29.30199999996933
 20
4.174500662674028
 30
0.0
 11
30.74199999996925
 21
5.614500662673953
 31
0.0
  0
LINE
  5
1B365
330
1B347
100
AcDbEntity
  8
0
  6
CONTINUOUS
100
AcDbLine
 10
25.96267548958429
 20
0.1616569432088024
 30
0.0
 11
27.18411854636669
 21
1.383099999991207
 31
0.0
  0
LINE
  5
1B366
330
1B347
100
AcDbEntity
  8
0
  6
CONTINUOUS
100
AcDbLine
 10
29.30199999996933
 20
3.500981453593841
 30
0.0
 11
30.74199999996925
 21
4.940981453593762
 31
0.0
  0
LINE
  5
1B367
330
1B347
100
AcDbEntity
  8
0
  6
CONTINUOUS
100
AcDbLine
 10
26.50763775544691
 20
0.0330999999912356
 30
0.0
 11
27.85763775544689
 21
1.383099999991223
 31
0.0
  0
LINE
  5
1B368
330
1B347
100
AcDbEntity
  8
0
  6
CONTINUOUS
100
AcDbLine
 10
29.30199999996933
 20
2.827462244513656
 30
0.0
 11
30.74199999996925
 21
4.267462244513574
 31
0.0
  0
LINE
  5
1B369
330
1B347
100
AcDbEntity
  8
0
  6
CONTINUOUS
100
AcDbLine
 10
27.18115696452709
 20
0.0330999999912356
 30
0.0
 11
28.55073879889363
 21
1.402681834357775
 31
0.0
  0
LINE
  5
1B36A
330
1B347
100
AcDbEntity
  8
0
  6
CONTINUOUS
100
AcDbLine
 10
29.28241816560272
 20
2.134361201066866
 30
0.0
 11
30.74199999996924
 21
3.593943035433383
 31
0.0
  0
LINE
  5
1B36B
330
1B347
100
AcDbEntity
  8
0
  6
CONTINUOUS
100
AcDbLine
 10
27.85467617360728
 20
0.0330999999912356
 30
0.0
 11
30.74199999996924
 21
2.920423826353195
 31
0.0
  0
LINE
  5
1B36C
330
1B347
100
AcDbEntity
  8
0
  6
CONTINUOUS
100
AcDbLine
 10
28.53897559587887
 20
0.0438802131826428
 30
0.0
 11
30.73121978677781
 21
2.236124404081585
 31
0.0
  0
LINE
  5
1B36D
330
1B347
100
AcDbEntity
  8
0
  6
CONTINUOUS
100
AcDbLine
 10
29.45140055588722
 20
0.2827859641107988
 30
0.0
 11
30.49231403584965
 21
1.323699444073236
 31
0.0
  0
LINE
  5
1B36E
330
1B347
100
AcDbEntity
  8
0
  6
CONTINUOUS
100
AcDbLine
 10
19.59027867740337
 20
-0.0000967065718083
 30
0.0
 11
19.55485265190471
 21
0.035329318926844
 31
0.0
  0
LINE
  5
1B36F
330
1B347
100
AcDbEntity
  8
0
  6
CONTINUOUS
100
AcDbLine
 10
20.26375463176586
 20
-0.0000534518541091
 30
0.0
 11
19.76305575737534
 21
0.5006454225364014
 31
0.0
  0
LINE
  5
1B370
330
1B347
100
AcDbEntity
  8
0
  6
CONTINUOUS
100
AcDbLine
 10
20.93723058612834
 20
-0.0000101971364099
 30
0.0
 11
19.97125886284597
 21
0.965961526145958
 31
0.0
  0
LINE
  5
1B371
330
1B347
100
AcDbEntity
  8
0
  6
CONTINUOUS
100
AcDbLine
 10
21.25514828313686
 20
0.355591314935257
 30
0.0
 11
20.1794619683166
 21
1.431277629755512
 31
0.0
  0
LINE
  5
1B372
330
1B347
100
AcDbEntity
  8
0
  6
CONTINUOUS
100
AcDbLine
 10
21.46338838394921
 20
0.8208704232030986
 30
0.0
 11
20.38766507378723
 21
1.896593733365069
 31
0.0
  0
LINE
  5
1B373
330
1B347
100
AcDbEntity
  8
0
  6
CONTINUOUS
100
AcDbLine
 10
21.67162848476155
 20
1.28614953147094
 30
0.0
 11
20.59586817925786
 21
2.361909836974626
 31
0.0
  0
LINE
  5
1B374
330
1B347
100
AcDbEntity
  8
0
  6
CONTINUOUS
100
AcDbLine
 10
21.8798685855739
 20
1.751428639738782
 30
0.0
 11
20.80407128472849
 21
2.827225940584183
 31
0.0
  0
LINE
  5
1B375
330
1B347
100
AcDbEntity
  8
0
  6
CONTINUOUS
100
AcDbLine
 10
22.08810868638624
 20
2.216707748006623
 30
0.0
 11
21.01227439019912
 21
3.292542044193739
 31
0.0
  0
LINE
  5
1B376
330
1B347
100
AcDbEntity
  8
0
  6
CONTINUOUS
100
AcDbLine
 10
22.60993564347543
 20
2.36839999999762
 30
0.0
 11
21.22047749566975
 21
3.757858147803296
 31
0.0
  0
LINE
  5
1B377
330
1B347
100
AcDbEntity
  8
0
  6
CONTINUOUS
100
AcDbLine
 10
23.28345485255561
 20
2.36839999999762
 30
0.0
 11
21.42868060114038
 21
4.223174251412853
 31
0.0
  0
LINE
  5
1B378
330
1B347
100
AcDbEntity
  8
0
  6
CONTINUOUS
100
AcDbLine
 10
26.29227406164219
 20
0.0330999999912356
 30
0.0
 11
25.80009199592872
 21
0.5252820657046957
 31
0.0
  0
LINE
  5
1B379
330
1B347
100
AcDbEntity
  8
0
  6
CONTINUOUS
100
AcDbLine
 10
23.9569740616358
 20
2.36839999999762
 30
0.0
 11
21.63688370661101
 21
4.688490355022409
 31
0.0
  0
LINE
  5
1B37A
330
1B347
100
AcDbEntity
  8
0
  6
CONTINUOUS
100
AcDbLine
 10
26.96579327072237
 20
0.0330999999912356
 30
0.0
 11
25.2554132311971
 21
1.743480039516508
 31
0.0
  0
LINE
  5
1B37B
330
1B347
100
AcDbEntity
  8
0
  6
CONTINUOUS
100
AcDbLine
 10
24.63049327071599
 20
2.36839999999762
 30
0.0
 11
23.32789327071731
 21
3.670999999996297
 31
0.0
  0
LINE
  5
1B37C
330
1B347
100
AcDbEntity
  8
0
  6
CONTINUOUS
100
AcDbLine
 10
22.92098674744635
 20
4.077906523267254
 30
0.0
 11
21.84508681208164
 21
5.153806458631966
 31
0.0
  0
LINE
  5
1B37D
330
1B347
100
AcDbEntity
  8
0
  6
CONTINUOUS
100
AcDbLine
 10
27.63931247980256
 20
0.0330999999912356
 30
0.0
 11
24.0014124797975
 21
3.670999999996297
 31
0.0
  0
LINE
  5
1B37E
330
1B347
100
AcDbEntity
  8
0
  6
CONTINUOUS
100
AcDbLine
 10
23.129125600968
 20
4.5432868788258
 30
0.0
 11
22.05328991755227
 21
5.619122562241522
 31
0.0
  0
LINE
  5
1B37F
330
1B347
100
AcDbEntity
  8
0
  6
CONTINUOUS
100
AcDbLine
 10
28.31283168888275
 20
0.0330999999912356
 30
0.0
 11
24.16488385994816
 21
4.181047828925828
 31
0.0
  0
LINE
  5
1B380
330
1B347
100
AcDbEntity
  8
0
  6
CONTINUOUS
100
AcDbLine
 10
23.33726445448964
 20
5.008667234384345
 30
0.0
 11
22.2614930230229
 21
6.084438665851079
 31
0.0
  0
LINE
  5
1B381
330
1B347
100
AcDbEntity
  8
0
  6
CONTINUOUS
100
AcDbLine
 10
28.92085740005492
 20
0.0985934978992438
 30
0.0
 11
27.63635089796295
 21
1.383099999991217
 31
0.0
  0
LINE
  5
1B382
330
1B347
100
AcDbEntity
  8
0
  6
CONTINUOUS
100
AcDbLine
 10
26.43704649509776
 20
2.582404402856405
 30
0.0
 11
23.61992702019732
 21
5.399523877756844
 31
0.0
  0
LINE
  5
1B383
330
1B347
100
AcDbEntity
  8
0
  6
CONTINUOUS
100
AcDbLine
 10
23.54540330801128
 20
5.47404758994289
 30
0.0
 11
22.46969612849353
 21
6.549754769460635
 31
0.0
  0
LINE
  5
1B384
330
1B347
100
AcDbEntity
  8
0
  6
CONTINUOUS
100
AcDbLine
 10
29.42225615078443
 20
0.2707139562499279
 30
0.0
 11
28.30987010704312
 21
1.383099999991234
 31
0.0
  0
LINE
  5
1B385
330
1B347
100
AcDbEntity
  8
0
  6
CONTINUOUS
100
AcDbLine
 10
25.89179548232307
 20
3.801174624711282
 30
0.0
 11
22.67789923396416
 21
7.015070873070191
 31
0.0
  0
LINE
  5
1B386
330
1B347
100
AcDbEntity
  8
0
  6
CONTINUOUS
100
AcDbLine
 10
29.83624534690007
 20
0.5302439692144705
 30
0.0
 11
28.85811781497101
 21
1.508371501143527
 31
0.0
  0
LINE
  5
1B387
330
1B347
100
AcDbEntity
  8
0
  6
CONTINUOUS
100
AcDbLine
 10
25.34654446954838
 20
5.01994484656616
 30
0.0
 11
22.88610233943479
 21
7.480386976679748
 31
0.0
  0
LINE
  5
1B388
330
1B347
100
AcDbEntity
  8
0
  6
CONTINUOUS
100
AcDbLine
 10
30.17865975401872
 20
0.8613487711760022
 30
0.0
 11
29.18888744090175
 21
1.851121084292977
 31
0.0
  0
LINE
  5
1B389
330
1B347
100
AcDbEntity
  8
0
  6
CONTINUOUS
100
AcDbLine
 10
24.80129345677369
 20
6.238715068421037
 30
0.0
 11
23.09430544490542
 21
7.945703080289305
 31
0.0
  0
LINE
  5
1B38A
330
1B347
100
AcDbEntity
  8
0
  6
CONTINUOUS
100
AcDbLine
 10
30.45496647202376
 20
1.258561262251155
 30
0.0
 11
29.30199999996933
 21
2.411527734305588
 31
0.0
  0
LINE
  5
1B38B
330
1B347
100
AcDbEntity
  8
0
  6
CONTINUOUS
100
AcDbLine
 10
24.256042443999
 20
7.457485290275915
 30
0.0
 11
23.30250855037605
 21
8.411019183898862
 31
0.0
  0
LINE
  5
1B38C
330
1B347
100
AcDbEntity
  8
0
  6
CONTINUOUS
100
AcDbLine
 10
30.64868582078271
 20
1.738361122572387
 30
0.0
 11
29.30199999996933
 21
3.085046943385775
 31
0.0
  0
LINE
  5
1B38D
330
1B347
100
AcDbEntity
  8
0
  6
CONTINUOUS
100
AcDbLine
 10
23.71079143122431
 20
8.676255512130794
 30
0.0
 11
23.51071165584668
 21
8.876335287508416
 31
0.0
  0
LINE
  5
1B38E
330
1B347
100
AcDbEntity
  8
0
  6
CONTINUOUS
100
AcDbLine
 10
30.73802122914428
 20
2.322544923291007
 30
0.0
 11
29.30199999996933
 21
3.758566152465961
 31
0.0
  0
LINE
  5
1B38F
330
1B347
100
AcDbEntity
  8
0
  6
CONTINUOUS
100
AcDbLine
 10
30.74199999996924
 20
2.992085361546236
 30
0.0
 11
29.30199999996933
 21
4.432085361546148
 31
0.0
  0
LINE
  5
1B390
330
1B347
100
AcDbEntity
  8
0
  6
CONTINUOUS
100
AcDbLine
 10
30.74199999996924
 20
3.665604570626419
 30
0.0
 11
29.30199999996933
 21
5.105604570626333
 31
0.0
  0
LINE
  5
1B391
330
1B347
100
AcDbEntity
  8
0
  6
CONTINUOUS
100
AcDbLine
 10
30.74199999996925
 20
4.339123779706602
 30
0.0
 11
29.30199999996933
 21
5.77912377970652
 31
0.0
  0
LINE
  5
1B392
330
1B347
100
AcDbEntity
  8
0
  6
CONTINUOUS
100
AcDbLine
 10
30.74199999996925
 20
5.012642988786785
 30
0.0
 11
29.30199999996933
 21
6.452642988786707
 31
0.0
  0
LINE
  5
1B393
330
1B347
100
AcDbEntity
  8
0
  6
CONTINUOUS
100
AcDbLine
 10
30.74199999996925
 20
5.68616219786697
 30
0.0
 11
29.30199999996933
 21
7.126162197866894
 31
0.0
  0
LINE
  5
1B394
330
1B347
100
AcDbEntity
  8
0
  6
CONTINUOUS
100
AcDbLine
 10
30.74199999996925
 20
6.359681406947153
 30
0.0
 11
29.30199999996933
 21
7.799681406947081
 31
0.0
  0
LINE
  5
1B395
330
1B347
100
AcDbEntity
  8
0
  6
CONTINUOUS
100
AcDbLine
 10
30.74199999996926
 20
7.033200616027337
 30
0.0
 11
29.30199999996933
 21
8.473200616027269
 31
0.0
  0
LINE
  5
1B396
330
1B347
100
AcDbEntity
  8
0
  6
CONTINUOUS
100
AcDbLine
 10
30.74199999996926
 20
7.706719825107518
 30
0.0
 11
29.68561982508552
 21
8.763099999991255
 31
0.0
  0
LINE
  5
1B397
330
1B347
100
AcDbEntity
  8
0
  6
CONTINUOUS
100
AcDbLine
 10
30.74199999996926
 20
8.380239034187703
 30
0.0
 11
30.35913903416571
 21
8.763099999991255
 31
0.0
  0
ENDBLK
  5
1B43A
330
1B347
100
AcDbEntity
  8
0
100
AcDbBlockEnd
  0
BLOCK
  5
1B43B
330
1B398
100
AcDbEntity
  8
0
100
AcDbBlockBegin
  2
*X149
 70
     1
 10
0.0
 20
0.0
 30
0.0
  3
*X149
  1

  0
LINE
  5
1B399
330
1B398
100
AcDbEntity
  8
0
  6
CONTINUOUS
100
AcDbLine
 10
31.64199999996833
 20
8.535058289913598
 30
0.0
 11
31.87004171004599
 21
8.763099999991255
 31
0.0
  0
LINE
  5
1B39A
330
1B398
100
AcDbEntity
  8
0
  6
CONTINUOUS
100
AcDbLine
 10
31.64199999996833
 20
7.861539080833412
 30
0.0
 11
32.54356091912618
 21
8.763099999991255
 31
0.0
  0
LINE
  5
1B39B
330
1B398
100
AcDbEntity
  8
0
  6
CONTINUOUS
100
AcDbLine
 10
31.64199999996833
 20
7.188019871753226
 30
0.0
 11
33.08199999996839
 21
8.628019871753281
 31
0.0
  0
LINE
  5
1B39C
330
1B398
100
AcDbEntity
  8
0
  6
CONTINUOUS
100
AcDbLine
 10
31.64199999996833
 20
6.51450066267304
 30
0.0
 11
33.08199999996839
 21
7.954500662673095
 31
0.0
  0
LINE
  5
1B39D
330
1B398
100
AcDbEntity
  8
0
  6
CONTINUOUS
100
AcDbLine
 10
31.64199999996833
 20
5.840981453592853
 30
0.0
 11
33.08199999996839
 21
7.280981453592908
 31
0.0
  0
LINE
  5
1B39E
330
1B398
100
AcDbEntity
  8
0
  6
CONTINUOUS
100
AcDbLine
 10
31.64199999996833
 20
5.167462244512667
 30
0.0
 11
33.08199999996839
 21
6.607462244512721
 31
0.0
  0
LINE
  5
1B39F
330
1B398
100
AcDbEntity
  8
0
  6
CONTINUOUS
100
AcDbLine
 10
31.64199999996833
 20
4.493943035432481
 30
0.0
 11
33.08199999996839
 21
5.933943035432535
 31
0.0
  0
LINE
  5
1B3A0
330
1B398
100
AcDbEntity
  8
0
  6
CONTINUOUS
100
AcDbLine
 10
31.64199999996833
 20
3.820423826352293
 30
0.0
 11
33.08199999996839
 21
5.260423826352348
 31
0.0
  0
LINE
  5
1B3A1
330
1B398
100
AcDbEntity
  8
0
  6
CONTINUOUS
100
AcDbLine
 10
31.64199999996833
 20
3.146904617272106
 30
0.0
 11
33.08199999996839
 21
4.586904617272161
 31
0.0
  0
LINE
  5
1B3A2
330
1B398
100
AcDbEntity
  8
0
  6
CONTINUOUS
100
AcDbLine
 10
36.23199999996837
 20
8.410423826352325
 30
0.0
 11
36.5846761736073
 21
8.763099999991255
 31
0.0
  0
LINE
  5
1B3A3
330
1B398
100
AcDbEntity
  8
0
  6
CONTINUOUS
100
AcDbLine
 10
36.23199999996837
 20
7.73690461727214
 30
0.0
 11
37.25819538268748
 21
8.763099999991255
 31
0.0
  0
LINE
  5
1B3A4
330
1B398
100
AcDbEntity
  8
0
  6
CONTINUOUS
100
AcDbLine
 10
31.64257403601376
 20
2.473959444237348
 30
0.0
 11
33.08199999996839
 21
3.913385408191974
 31
0.0
  0
LINE
  5
1B3A5
330
1B398
100
AcDbEntity
  8
0
  6
CONTINUOUS
100
AcDbLine
 10
36.23199999996837
 20
7.063385408191953
 30
0.0
 11
37.67199999996831
 21
8.503385408191894
 31
0.0
  0
LINE
  5
1B3A6
330
1B398
100
AcDbEntity
  8
0
  6
CONTINUOUS
100
AcDbLine
 10
31.72013636841932
 20
1.87800256756272
 30
0.0
 11
33.08199999996839
 21
3.239866199111788
 31
0.0
  0
LINE
  5
1B3A7
330
1B398
100
AcDbEntity
  8
0
  6
CONTINUOUS
100
AcDbLine
 10
36.23199999996837
 20
6.389866199111767
 30
0.0
 11
37.67199999996831
 21
7.829866199111708
 31
0.0
  0
LINE
  5
1B3A8
330
1B398
100
AcDbEntity
  8
0
  6
CONTINUOUS
100
AcDbLine
 10
31.89042734314753
 20
1.374774333210744
 30
0.0
 11
33.08199999996839
 21
2.566346990031601
 31
0.0
  0
LINE
  5
1B3A9
330
1B398
100
AcDbEntity
  8
0
  6
CONTINUOUS
100
AcDbLine
 10
36.23199999996837
 20
5.71634699003158
 30
0.0
 11
37.67199999996831
 21
7.156346990031521
 31
0.0
  0
LINE
  5
1B3AA
330
1B398
100
AcDbEntity
  8
0
  6
CONTINUOUS
100
AcDbLine
 10
32.14210568064475
 20
0.952933461627778
 30
0.0
 11
33.18745552475986
 21
1.998283305742888
 31
0.0
  0
LINE
  5
1B3AB
330
1B398
100
AcDbEntity
  8
0
  6
CONTINUOUS
100
AcDbLine
 10
36.23199999996837
 20
5.042827780951393
 30
0.0
 11
37.67199999996831
 21
6.482827780951334
 31
0.0
  0
LINE
  5
1B3AC
330
1B398
100
AcDbEntity
  8
0
  6
CONTINUOUS
100
AcDbLine
 10
32.45820639400955
 20
0.5955149659123915
 30
0.0
 11
33.47242681921943
 21
1.60973539112227
 31
0.0
  0
LINE
  5
1B3AD
330
1B398
100
AcDbEntity
  8
0
  6
CONTINUOUS
100
AcDbLine
 10
36.23199999996837
 20
4.369308571871207
 30
0.0
 11
37.67199999996831
 21
5.809308571871147
 31
0.0
  0
LINE
  5
1B3AE
330
1B398
100
AcDbEntity
  8
0
  6
CONTINUOUS
100
AcDbLine
 10
32.83432456621412
 20
0.2981139290367771
 30
0.0
 11
33.89722476612215
 21
1.361014128944803
 31
0.0
  0
LINE
  5
1B3AF
330
1B398
100
AcDbEntity
  8
0
  6
CONTINUOUS
100
AcDbLine
 10
36.23199999996837
 20
3.69578936279102
 30
0.0
 11
37.67199999996831
 21
5.135789362790962
 31
0.0
  0
LINE
  5
1B3B0
330
1B398
100
AcDbEntity
  8
0
  6
CONTINUOUS
100
AcDbLine
 10
33.2711633111245
 20
0.0614334648669672
 30
0.0
 11
34.43247338014423
 21
1.222743533886696
 31
0.0
  0
LINE
  5
1B3B1
330
1B398
100
AcDbEntity
  8
0
  6
CONTINUOUS
100
AcDbLine
 10
36.23199999996837
 20
3.022270153710834
 30
0.0
 11
37.67199999996831
 21
4.462270153710775
 31
0.0
  0
LINE
  5
1B3B2
330
1B398
100
AcDbEntity
  8
0
  6
CONTINUOUS
100
AcDbLine
 10
33.76515245874577
 20
-0.1180965965919523
 30
0.0
 11
35.1587445516215
 21
1.27549549628378
 31
0.0
  0
LINE
  5
1B3B3
330
1B398
100
AcDbEntity
  8
0
  6
CONTINUOUS
100
AcDbLine
 10
36.21639478609585
 20
2.333145730758136
 30
0.0
 11
37.67199999996831
 21
3.788750944630588
 31
0.0
  0
LINE
  5
1B3B4
330
1B398
100
AcDbEntity
  8
0
  6
CONTINUOUS
100
AcDbLine
 10
34.34060583368432
 20
-0.2161624307335863
 30
0.0
 11
37.67199999996831
 21
3.115231735550401
 31
0.0
  0
LINE
  5
1B3B5
330
1B398
100
AcDbEntity
  8
0
  6
CONTINUOUS
100
AcDbLine
 10
35.01698193613905
 20
-0.2133055373590427
 30
0.0
 11
37.66876712070525
 21
2.438479647207154
 31
0.0
  0
LINE
  5
1B3B6
330
1B398
100
AcDbEntity
  8
0
  6
CONTINUOUS
100
AcDbLine
 10
35.90743367693304
 20
0.0036269943547609
 30
0.0
 11
37.51723902192366
 21
1.613432339345381
 31
0.0
  0
LINE
  5
1B3B7
330
1B398
100
AcDbEntity
  8
0
  6
CONTINUOUS
100
AcDbLine
 10
32.55309425579761
 20
0.5074718966376706
 30
0.0
 11
32.27784730925847
 21
0.7827188431768102
 31
0.0
  0
LINE
  5
1B3B8
330
1B398
100
AcDbEntity
  8
0
  6
CONTINUOUS
100
AcDbLine
 10
33.87496468909684
 20
-0.1408793275813673
 30
0.0
 11
31.67993083278052
 21
2.054154528734943
 31
0.0
  0
LINE
  5
1B3B9
330
1B398
100
AcDbEntity
  8
0
  6
CONTINUOUS
100
AcDbLine
 10
34.64362813207632
 20
-0.2360235614806649
 30
0.0
 11
31.64199999996833
 21
2.765604570627322
 31
0.0
  0
LINE
  5
1B3BA
330
1B398
100
AcDbEntity
  8
0
  6
CONTINUOUS
100
AcDbLine
 10
35.25801106796118
 20
-0.1768872882853429
 30
0.0
 11
31.64199999996833
 21
3.439123779707508
 31
0.0
  0
LINE
  5
1B3BB
330
1B398
100
AcDbEntity
  8
0
  6
CONTINUOUS
100
AcDbLine
 10
35.79065650332146
 20
-0.0360135145654361
 30
0.0
 11
34.54143210838231
 21
1.213210880373721
 31
0.0
  0
LINE
  5
1B3BC
330
1B398
100
AcDbEntity
  8
0
  6
CONTINUOUS
100
AcDbLine
 10
33.08199999996839
 20
2.67264298878764
 30
0.0
 11
31.64199999996833
 21
4.112642988787695
 31
0.0
  0
LINE
  5
1B3BD
330
1B398
100
AcDbEntity
  8
0
  6
CONTINUOUS
100
AcDbLine
 10
36.25975597779143
 20
0.1684062200447833
 30
0.0
 11
35.15395110240023
 21
1.274211095435983
 31
0.0
  0
LINE
  5
1B3BE
330
1B398
100
AcDbEntity
  8
0
  6
CONTINUOUS
100
AcDbLine
 10
33.08199999996839
 20
3.346162197867826
 30
0.0
 11
31.64199999996833
 21
4.786162197867881
 31
0.0
  0
LINE
  5
1B3BF
330
1B398
100
AcDbEntity
  8
0
  6
CONTINUOUS
100
AcDbLine
 10
36.67226329638774
 20
0.4294181105286579
 30
0.0
 11
35.63766478748767
 21
1.464016619428737
 31
0.0
  0
LINE
  5
1B3C0
330
1B398
100
AcDbEntity
  8
0
  6
CONTINUOUS
100
AcDbLine
 10
33.08199999996839
 20
4.019681406948012
 30
0.0
 11
31.64199999996833
 21
5.459681406948068
 31
0.0
  0
LINE
  5
1B3C1
330
1B398
100
AcDbEntity
  8
0
  6
CONTINUOUS
100
AcDbLine
 10
37.01677749710036
 20
0.7584231188962329
 30
0.0
 11
35.99563422741351
 21
1.779566388583076
 31
0.0
  0
LINE
  5
1B3C2
330
1B398
100
AcDbEntity
  8
0
  6
CONTINUOUS
100
AcDbLine
 10
33.08199999996839
 20
4.693200616028199
 30
0.0
 11
31.64199999996833
 21
6.133200616028255
 31
0.0
  0
LINE
  5
1B3C3
330
1B398
100
AcDbEntity
  8
0
  6
CONTINUOUS
100
AcDbLine
 10
37.29859977568887
 20
1.1501200493879
 30
0.0
 11
36.20680593341555
 21
2.241913891661226
 31
0.0
  0
LINE
  5
1B3C4
330
1B398
100
AcDbEntity
  8
0
  6
CONTINUOUS
100
AcDbLine
 10
33.08199999996839
 20
5.366719825108386
 30
0.0
 11
31.64199999996833
 21
6.80671982510844
 31
0.0
  0
LINE
  5
1B3C5
330
1B398
100
AcDbEntity
  8
0
  6
CONTINUOUS
100
AcDbLine
 10
37.5148623517228
 20
1.607376682434161
 30
0.0
 11
36.23199999996837
 21
2.890239034188594
 31
0.0
  0
LINE
  5
1B3C6
330
1B398
100
AcDbEntity
  8
0
  6
CONTINUOUS
100
AcDbLine
 10
33.08199999996839
 20
6.040239034188573
 30
0.0
 11
31.64199999996833
 21
7.480239034188627
 31
0.0
  0
LINE
  5
1B3C7
330
1B398
100
AcDbEntity
  8
0
  6
CONTINUOUS
100
AcDbLine
 10
37.64705163358367
 20
2.148706609653477
 30
0.0
 11
36.23199999996837
 21
3.56375824326878
 31
0.0
  0
LINE
  5
1B3C8
330
1B398
100
AcDbEntity
  8
0
  6
CONTINUOUS
100
AcDbLine
 10
33.08199999996839
 20
6.713758243268758
 30
0.0
 11
31.64199999996833
 21
8.153758243268815
 31
0.0
  0
LINE
  5
1B3C9
330
1B398
100
AcDbEntity
  8
0
  6
CONTINUOUS
100
AcDbLine
 10
37.67199999996831
 20
2.797277452349026
 30
0.0
 11
36.23199999996837
 21
4.237277452348967
 31
0.0
  0
LINE
  5
1B3CA
330
1B398
100
AcDbEntity
  8
0
  6
CONTINUOUS
100
AcDbLine
 10
37.67199999996831
 20
3.470796661429213
 30
0.0
 11
36.23199999996837
 21
4.910796661429154
 31
0.0
  0
LINE
  5
1B3CB
330
1B398
100
AcDbEntity
  8
0
  6
CONTINUOUS
100
AcDbLine
 10
37.67199999996831
 20
4.144315870509399
 30
0.0
 11
36.23199999996837
 21
5.58431587050934
 31
0.0
  0
LINE
  5
1B3CC
330
1B398
100
AcDbEntity
  8
0
  6
CONTINUOUS
100
AcDbLine
 10
33.08199999996839
 20
7.387277452348945
 30
0.0
 11
31.70617745232608
 21
8.763099999991255
 31
0.0
  0
LINE
  5
1B3CD
330
1B398
100
AcDbEntity
  8
0
  6
CONTINUOUS
100
AcDbLine
 10
33.08199999996839
 20
8.060796661429132
 30
0.0
 11
32.37969666140626
 21
8.763099999991255
 31
0.0
  0
LINE
  5
1B3CE
330
1B398
100
AcDbEntity
  8
0
  6
CONTINUOUS
100
AcDbLine
 10
33.08199999996839
 20
8.734315870509318
 30
0.0
 11
33.05321587048645
 21
8.763099999991255
 31
0.0
  0
LINE
  5
1B3CF
330
1B398
100
AcDbEntity
  8
0
  6
CONTINUOUS
100
AcDbLine
 10
37.67199999996831
 20
4.817835079589585
 30
0.0
 11
36.23199999996837
 21
6.257835079589526
 31
0.0
  0
LINE
  5
1B3D0
330
1B398
100
AcDbEntity
  8
0
  6
CONTINUOUS
100
AcDbLine
 10
37.67199999996831
 20
5.491354288669771
 30
0.0
 11
36.23199999996837
 21
6.931354288669713
 31
0.0
  0
LINE
  5
1B3D1
330
1B398
100
AcDbEntity
  8
0
  6
CONTINUOUS
100
AcDbLine
 10
37.67199999996831
 20
6.164873497749958
 30
0.0
 11
36.23199999996837
 21
7.6048734977499
 31
0.0
  0
LINE
  5
1B3D2
330
1B398
100
AcDbEntity
  8
0
  6
CONTINUOUS
100
AcDbLine
 10
37.67199999996831
 20
6.838392706830144
 30
0.0
 11
36.23199999996837
 21
8.278392706830086
 31
0.0
  0
LINE
  5
1B3D3
330
1B398
100
AcDbEntity
  8
0
  6
CONTINUOUS
100
AcDbLine
 10
37.67199999996831
 20
7.511911915910332
 30
0.0
 11
36.42081191588738
 21
8.763099999991255
 31
0.0
  0
LINE
  5
1B3D4
330
1B398
100
AcDbEntity
  8
0
  6
CONTINUOUS
100
AcDbLine
 10
37.67199999996831
 20
8.185431124990519
 30
0.0
 11
37.09433112496757
 21
8.763099999991255
 31
0.0
  0
ENDBLK
  5
1B43C
330
1B398
100
AcDbEntity
  8
0
100
AcDbBlockEnd
  0
BLOCK
  5
1B43D
330
1B3D5
100
AcDbEntity
  8
0
100
AcDbBlockBegin
  2
*X150
 70
     1
 10
0.0
 20
0.0
 30
0.0
  3
*X150
  1

  0
LINE
  5
1B3D6
330
1B3D5
100
AcDbEntity
  8
0
  6
CONTINUOUS
100
AcDbLine
 10
38.60499999996136
 20
8.762866199104765
 30
0.0
 11
38.71672554182345
 21
8.874591740966855
 31
0.0
  0
LINE
  5
1B3D7
330
1B3D5
100
AcDbEntity
  8
0
  6
CONTINUOUS
100
AcDbLine
 10
38.60499999996136
 20
8.089346990024577
 30
0.0
 11
39.03418785440363
 21
8.518534844466847
 31
0.0
  0
LINE
  5
1B3D8
330
1B3D5
100
AcDbEntity
  8
0
  6
CONTINUOUS
100
AcDbLine
 10
38.60499999996136
 20
7.41582778094439
 30
0.0
 11
39.35165016698382
 21
8.16247794796684
 31
0.0
  0
LINE
  5
1B3D9
330
1B3D5
100
AcDbEntity
  8
0
  6
CONTINUOUS
100
AcDbLine
 10
38.60499999996136
 20
6.742308571864204
 30
0.0
 11
39.66911247956399
 21
7.806421051466834
 31
0.0
  0
LINE
  5
1B3DA
330
1B3D5
100
AcDbEntity
  8
0
  6
CONTINUOUS
100
AcDbLine
 10
38.60499999996136
 20
6.068789362784018
 30
0.0
 11
39.98657479214418
 21
7.450364154966827
 31
0.0
  0
LINE
  5
1B3DB
330
1B3D5
100
AcDbEntity
  8
0
  6
CONTINUOUS
100
AcDbLine
 10
38.60499999996136
 20
5.395270153703832
 30
0.0
 11
40.30403710472435
 21
7.09430725846682
 31
0.0
  0
LINE
  5
1B3DC
330
1B3D5
100
AcDbEntity
  8
0
  6
CONTINUOUS
100
AcDbLine
 10
38.60499999996136
 20
4.721750944623645
 30
0.0
 11
40.62149941730453
 21
6.738250361966813
 31
0.0
  0
LINE
  5
1B3DD
330
1B3D5
100
AcDbEntity
  8
0
  6
CONTINUOUS
100
AcDbLine
 10
38.60499999996136
 20
4.048231735543458
 30
0.0
 11
40.93896172988471
 21
6.382193465466806
 31
0.0
  0
LINE
  5
1B3DE
330
1B3D5
100
AcDbEntity
  8
0
  6
CONTINUOUS
100
AcDbLine
 10
38.60499999996136
 20
3.374712526463272
 30
0.0
 11
40.02599999995994
 21
4.795712526461843
 31
0.0
  0
LINE
  5
1B3DF
330
1B3D5
100
AcDbEntity
  8
0
  6
CONTINUOUS
100
AcDbLine
 10
38.60499999996136
 20
2.701193317383085
 30
0.0
 11
40.02599999995994
 21
4.122193317381657
 31
0.0
  0
LINE
  5
1B3E0
330
1B3D5
100
AcDbEntity
  8
0
  6
CONTINUOUS
100
AcDbLine
 10
40.28339754687704
 20
5.053110073378947
 30
0.0
 11
41.25642404246489
 21
6.026136568966799
 31
0.0
  0
LINE
  5
1B3E1
330
1B3D5
100
AcDbEntity
  8
0
  6
CONTINUOUS
100
AcDbLine
 10
40.60085985945722
 20
4.697053176878939
 30
0.0
 11
41.57388635504507
 21
5.670079672466793
 31
0.0
  0
LINE
  5
1B3E2
330
1B3D5
100
AcDbEntity
  8
0
  6
CONTINUOUS
100
AcDbLine
 10
43.57899999995641
 20
8.348712526458318
 30
0.0
 11
43.99338747348935
 21
8.763099999991255
 31
0.0
  0
LINE
  5
1B3E3
330
1B3D5
100
AcDbEntity
  8
0
  6
CONTINUOUS
100
AcDbLine
 10
43.57899999995641
 20
7.675193317378131
 30
0.0
 11
44.66690668256953
 21
8.763099999991255
 31
0.0
  0
LINE
  5
1B3E4
330
1B3D5
100
AcDbEntity
  8
0
  6
CONTINUOUS
100
AcDbLine
 10
38.60499999996136
 20
2.027674108302898
 30
0.0
 11
40.02599999995994
 21
3.44867410830147
 31
0.0
  0
LINE
  5
1B3E5
330
1B3D5
100
AcDbEntity
  8
0
  6
CONTINUOUS
100
AcDbLine
 10
38.60499999996136
 20
1.354154899222712
 30
0.0
 11
40.02599999995994
 21
2.775154899221284
 31
0.0
  0
LINE
  5
1B3E6
330
1B3D5
100
AcDbEntity
  8
0
  6
CONTINUOUS
100
AcDbLine
 10
38.60499999996136
 20
0.6806356901425255
 30
0.0
 11
40.02599999995994
 21
2.101635690141098
 31
0.0
  0
LINE
  5
1B3E7
330
1B3D5
100
AcDbEntity
  8
0
  6
CONTINUOUS
100
AcDbLine
 10
38.60499999996136
 20
0.0071164810623383
 30
0.0
 11
40.02599999995994
 21
1.428116481060911
 31
0.0
  0
LINE
  5
1B3E8
330
1B3D5
100
AcDbEntity
  8
0
  6
CONTINUOUS
100
AcDbLine
 10
40.9183221720374
 20
4.340996280378933
 30
0.0
 11
41.89134866762525
 21
5.314022775966786
 31
0.0
  0
LINE
  5
1B3E9
330
1B3D5
100
AcDbEntity
  8
0
  6
CONTINUOUS
100
AcDbLine
 10
41.23578448461758
 20
3.984939383878926
 30
0.0
 11
42.20881098020543
 21
4.957965879466778
 31
0.0
  0
LINE
  5
1B3EA
330
1B3D5
100
AcDbEntity
  8
0
  6
CONTINUOUS
100
AcDbLine
 10
41.55324679719776
 20
3.628882487378919
 30
0.0
 11
42.52627329278561
 21
4.601908982966772
 31
0.0
  0
LINE
  5
1B3EB
330
1B3D5
100
AcDbEntity
  8
0
  6
CONTINUOUS
100
AcDbLine
 10
41.87070910977793
 20
3.272825590878912
 30
0.0
 11
42.84373560536579
 21
4.245852086466765
 31
0.0
  0
LINE
  5
1B3EC
330
1B3D5
100
AcDbEntity
  8
0
  6
CONTINUOUS
100
AcDbLine
 10
43.57899999995641
 20
7.001674108297943
 30
0.0
 11
44.99999999995498
 21
8.422674108296516
 31
0.0
  0
LINE
  5
1B3ED
330
1B3D5
100
AcDbEntity
  8
0
  6
CONTINUOUS
100
AcDbLine
 10
43.57899999995641
 20
6.328154899217758
 30
0.0
 11
44.99999999995498
 21
7.749154899216329
 31
0.0
  0
LINE
  5
1B3EE
330
1B3D5
100
AcDbEntity
  8
0
  6
CONTINUOUS
100
AcDbLine
 10
43.57899999995641
 20
5.654635690137571
 30
0.0
 11
44.99999999995498
 21
7.075635690136142
 31
0.0
  0
LINE
  5
1B3EF
330
1B3D5
100
AcDbEntity
  8
0
  6
CONTINUOUS
100
AcDbLine
 10
43.57899999995641
 20
4.981116481057384
 30
0.0
 11
44.99999999995498
 21
6.402116481055955
 31
0.0
  0
LINE
  5
1B3F0
330
1B3D5
100
AcDbEntity
  8
0
  6
CONTINUOUS
100
AcDbLine
 10
39.27140272797921
 20
-0.0000000000000009
 30
0.0
 11
40.02599999995994
 21
0.7545972719807246
 31
0.0
  0
LINE
  5
1B3F1
330
1B3D5
100
AcDbEntity
  8
0
  6
CONTINUOUS
100
AcDbLine
 10
39.9449219370594
 20
-0.0000000000000009
 30
0.0
 11
40.02599999995994
 21
0.0810780629005379
 31
0.0
  0
LINE
  5
1B3F2
330
1B3D5
100
AcDbEntity
  8
0
  6
CONTINUOUS
100
AcDbLine
 10
42.18817142235812
 20
2.916768694378905
 30
0.0
 11
43.16119791794597
 21
3.889795189966758
 31
0.0
  0
LINE
  5
1B3F3
330
1B3D5
100
AcDbEntity
  8
0
  6
CONTINUOUS
100
AcDbLine
 10
42.50563373493829
 20
2.560711797878898
 30
0.0
 11
43.47866023052615
 21
3.533738293466751
 31
0.0
  0
LINE
  5
1B3F4
330
1B3D5
100
AcDbEntity
  8
0
  6
CONTINUOUS
100
AcDbLine
 10
43.57899999995641
 20
4.307597271977198
 30
0.0
 11
44.99999999995498
 21
5.728597271975769
 31
0.0
  0
LINE
  5
1B3F5
330
1B3D5
100
AcDbEntity
  8
0
  6
CONTINUOUS
100
AcDbLine
 10
43.57899999995641
 20
3.634078062897011
 30
0.0
 11
44.99999999995498
 21
5.055078062895582
 31
0.0
  0
LINE
  5
1B3F6
330
1B3D5
100
AcDbEntity
  8
0
  6
CONTINUOUS
100
AcDbLine
 10
42.82309604751848
 20
2.204654901378891
 30
0.0
 11
44.99999999995498
 21
4.381558853815395
 31
0.0
  0
LINE
  5
1B3F7
330
1B3D5
100
AcDbEntity
  8
0
  6
CONTINUOUS
100
AcDbLine
 10
43.14055836009865
 20
1.848598004878885
 30
0.0
 11
44.99999999995498
 21
3.70803964473521
 31
0.0
  0
LINE
  5
1B3F8
330
1B3D5
100
AcDbEntity
  8
0
  6
CONTINUOUS
100
AcDbLine
 10
43.45802067267883
 20
1.492541108378878
 30
0.0
 11
44.99999999995498
 21
3.034520435655023
 31
0.0
  0
LINE
  5
1B3F9
330
1B3D5
100
AcDbEntity
  8
0
  6
CONTINUOUS
100
AcDbLine
 10
43.77548298525902
 20
1.136484211878871
 30
0.0
 11
44.99999999995498
 21
2.361001226574837
 31
0.0
  0
LINE
  5
1B3FA
330
1B3D5
100
AcDbEntity
  8
0
  6
CONTINUOUS
100
AcDbLine
 10
44.09294529783919
 20
0.7804273153788639
 30
0.0
 11
44.99999999995498
 21
1.687482017494649
 31
0.0
  0
LINE
  5
1B3FB
330
1B3D5
100
AcDbEntity
  8
0
  6
CONTINUOUS
100
AcDbLine
 10
44.41040761041938
 20
0.4243704188788566
 30
0.0
 11
44.99999999995498
 21
1.013962808414463
 31
0.0
  0
LINE
  5
1B3FC
330
1B3D5
100
AcDbEntity
  8
0
  6
CONTINUOUS
100
AcDbLine
 10
44.72786992299955
 20
0.0683135223788494
 30
0.0
 11
44.99999999995498
 21
0.340443599334276
 31
0.0
  0
LINE
  5
1B3FD
330
1B3D5
100
AcDbEntity
  8
0
  6
CONTINUOUS
100
AcDbLine
 10
39.12223903415696
 20
-0.0000000000000009
 30
0.0
 11
38.60499999996136
 21
0.5172390341955961
 31
0.0
  0
LINE
  5
1B3FE
330
1B3D5
100
AcDbEntity
  8
0
  6
CONTINUOUS
100
AcDbLine
 10
39.79575824323715
 20
-0.0000000000000009
 30
0.0
 11
38.60499999996136
 21
1.190758243275783
 31
0.0
  0
LINE
  5
1B3FF
330
1B3D5
100
AcDbEntity
  8
0
  6
CONTINUOUS
100
AcDbLine
 10
40.02599999995994
 20
0.443277452357397
 30
0.0
 11
38.60499999996136
 21
1.864277452355969
 31
0.0
  0
LINE
  5
1B400
330
1B3D5
100
AcDbEntity
  8
0
  6
CONTINUOUS
100
AcDbLine
 10
40.02599999995994
 20
1.116796661437583
 30
0.0
 11
38.60499999996136
 21
2.537796661436155
 31
0.0
  0
LINE
  5
1B401
330
1B3D5
100
AcDbEntity
  8
0
  6
CONTINUOUS
100
AcDbLine
 10
40.02599999995994
 20
1.79031587051777
 30
0.0
 11
38.60499999996136
 21
3.211315870516341
 31
0.0
  0
LINE
  5
1B402
330
1B3D5
100
AcDbEntity
  8
0
  6
CONTINUOUS
100
AcDbLine
 10
40.02599999995994
 20
2.463835079597956
 30
0.0
 11
38.60499999996136
 21
3.884835079596527
 31
0.0
  0
LINE
  5
1B403
330
1B3D5
100
AcDbEntity
  8
0
  6
CONTINUOUS
100
AcDbLine
 10
40.02599999995994
 20
3.137354288678143
 30
0.0
 11
38.60499999996136
 21
4.558354288676714
 31
0.0
  0
LINE
  5
1B404
330
1B3D5
100
AcDbEntity
  8
0
  6
CONTINUOUS
100
AcDbLine
 10
40.02599999995994
 20
3.810873497758329
 30
0.0
 11
38.60499999996136
 21
5.2318734977569
 31
0.0
  0
LINE
  5
1B405
330
1B3D5
100
AcDbEntity
  8
0
  6
CONTINUOUS
100
AcDbLine
 10
40.02599999995994
 20
4.484392706838515
 30
0.0
 11
38.60499999996136
 21
5.905392706837086
 31
0.0
  0
LINE
  5
1B406
330
1B3D5
100
AcDbEntity
  8
0
  6
CONTINUOUS
100
AcDbLine
 10
44.99999999995498
 20
0.183911915923658
 30
0.0
 11
41.53858364506288
 21
3.64532827081576
 31
0.0
  0
LINE
  5
1B407
330
1B3D5
100
AcDbEntity
  8
0
  6
CONTINUOUS
100
AcDbLine
 10
40.02599999995994
 20
5.157911915918703
 30
0.0
 11
38.60499999996136
 21
6.578911915917274
 31
0.0
  0
LINE
  5
1B408
330
1B3D5
100
AcDbEntity
  8
0
  6
CONTINUOUS
100
AcDbLine
 10
44.99999999995498
 20
0.8574311250038447
 30
0.0
 11
38.60499999996136
 21
7.25243112499746
 31
0.0
  0
LINE
  5
1B409
330
1B3D5
100
AcDbEntity
  8
0
  6
CONTINUOUS
100
AcDbLine
 10
44.99999999995498
 20
1.530950334084031
 30
0.0
 11
38.60499999996136
 21
7.925950334077647
 31
0.0
  0
LINE
  5
1B40A
330
1B3D5
100
AcDbEntity
  8
0
  6
CONTINUOUS
100
AcDbLine
 10
44.99999999995498
 20
2.204469543164218
 30
0.0
 11
43.57899999995641
 21
3.625469543162789
 31
0.0
  0
LINE
  5
1B40B
330
1B3D5
100
AcDbEntity
  8
0
  6
CONTINUOUS
100
AcDbLine
 10
41.89876730984767
 20
5.305702233271528
 30
0.0
 11
38.60499999996136
 21
8.599469543157834
 31
0.0
  0
LINE
  5
1B40C
330
1B3D5
100
AcDbEntity
  8
0
  6
CONTINUOUS
100
AcDbLine
 10
44.99999999995498
 20
2.877988752244405
 30
0.0
 11
43.57899999995641
 21
4.298988752242975
 31
0.0
  0
LINE
  5
1B40D
330
1B3D5
100
AcDbEntity
  8
0
  6
CONTINUOUS
100
AcDbLine
 10
44.99999999995498
 20
3.551507961324591
 30
0.0
 11
43.57899999995641
 21
4.972507961323163
 31
0.0
  0
LINE
  5
1B40E
330
1B3D5
100
AcDbEntity
  8
0
  6
CONTINUOUS
100
AcDbLine
 10
44.99999999995498
 20
4.225027170404777
 30
0.0
 11
43.57899999995641
 21
5.646027170403348
 31
0.0
  0
LINE
  5
1B40F
330
1B3D5
100
AcDbEntity
  8
0
  6
CONTINUOUS
100
AcDbLine
 10
44.99999999995498
 20
4.898546379484964
 30
0.0
 11
43.57899999995641
 21
6.319546379483535
 31
0.0
  0
LINE
  5
1B410
330
1B3D5
100
AcDbEntity
  8
0
  6
CONTINUOUS
100
AcDbLine
 10
44.99999999995498
 20
5.572065588565151
 30
0.0
 11
43.57899999995641
 21
6.993065588563722
 31
0.0
  0
LINE
  5
1B411
330
1B3D5
100
AcDbEntity
  8
0
  6
CONTINUOUS
100
AcDbLine
 10
44.99999999995498
 20
6.245584797645336
 30
0.0
 11
43.57899999995641
 21
7.666584797643908
 31
0.0
  0
LINE
  5
1B412
330
1B3D5
100
AcDbEntity
  8
0
  6
CONTINUOUS
100
AcDbLine
 10
44.99999999995498
 20
6.919104006725522
 30
0.0
 11
43.57899999995641
 21
8.340104006724093
 31
0.0
  0
LINE
  5
1B413
330
1B3D5
100
AcDbEntity
  8
0
  6
CONTINUOUS
100
AcDbLine
 10
44.99999999995498
 20
7.592623215805709
 30
0.0
 11
43.82952321576943
 21
8.763099999991255
 31
0.0
  0
LINE
  5
1B414
330
1B3D5
100
AcDbEntity
  8
0
  6
CONTINUOUS
100
AcDbLine
 10
44.99999999995498
 20
8.266142424885896
 30
0.0
 11
44.50304242484962
 21
8.763099999991255
 31
0.0
  0
ENDBLK
  5
1B43E
330
1B3D5
100
AcDbEntity
  8
0
100
AcDbBlockEnd
  0
BLOCK
  5
1B43F
330
1B415
100
AcDbEntity
  8
0
100
AcDbBlockBegin
  2
*X151
 70
     1
 10
0.0
 20
0.0
 30
0.0
  3
*X151
  1

  0
LINE
  5
1B416
330
1B415
100
AcDbEntity
  8
0
  6
CONTINUOUS
100
AcDbLine
 10
0.0
 20
8.548461116714023
 30
0.0
 11
0.2146388832772324
 21
8.763099999991255
 31
0.0
  0
LINE
  5
1B417
330
1B415
100
AcDbEntity
  8
0
  6
CONTINUOUS
100
AcDbLine
 10
-0.0000000000000002
 20
7.874941907633837
 30
0.0
 11
0.8881580923574184
 21
8.763099999991255
 31
0.0
  0
LINE
  5
1B418
330
1B415
100
AcDbEntity
  8
0
  6
CONTINUOUS
100
AcDbLine
 10
0.0
 20
7.20142269855365
 30
0.0
 11
1.420999999998572
 21
8.622422698552223
 31
0.0
  0
LINE
  5
1B419
330
1B415
100
AcDbEntity
  8
0
  6
CONTINUOUS
100
AcDbLine
 10
-0.0000000000000001
 20
6.527903489473465
 30
0.0
 11
1.420999999998571
 21
7.948903489472036
 31
0.0
  0
LINE
  5
1B41A
330
1B415
100
AcDbEntity
  8
0
  6
CONTINUOUS
100
AcDbLine
 10
-0.0000000000000002
 20
5.854384280393278
 30
0.0
 11
1.420999999998571
 21
7.275384280391849
 31
0.0
  0
LINE
  5
1B41B
330
1B415
100
AcDbEntity
  8
0
  6
CONTINUOUS
100
AcDbLine
 10
-0.0000000000000002
 20
5.180865071313091
 30
0.0
 11
1.420999999998571
 21
6.601865071311663
 31
0.0
  0
LINE
  5
1B41C
330
1B415
100
AcDbEntity
  8
0
  6
CONTINUOUS
100
AcDbLine
 10
0.0
 20
4.507345862232905
 30
0.0
 11
1.420999999998571
 21
5.928345862231477
 31
0.0
  0
LINE
  5
1B41D
330
1B415
100
AcDbEntity
  8
0
  6
CONTINUOUS
100
AcDbLine
 10
-0.0000000000000003
 20
3.833826653152718
 30
0.0
 11
1.420999999998571
 21
5.25482665315129
 31
0.0
  0
LINE
  5
1B41E
330
1B415
100
AcDbEntity
  8
0
  6
CONTINUOUS
100
AcDbLine
 10
-0.0000000000000002
 20
3.160307444072532
 30
0.0
 11
1.420999999998571
 21
4.581307444071103
 31
0.0
  0
LINE
  5
1B41F
330
1B415
100
AcDbEntity
  8
0
  6
CONTINUOUS
100
AcDbLine
 10
-0.0000000000000001
 20
2.486788234992345
 30
0.0
 11
1.420999999998571
 21
3.907788234990917
 31
0.0
  0
LINE
  5
1B420
330
1B415
100
AcDbEntity
  8
0
  6
CONTINUOUS
100
AcDbLine
 10
-0.0000000000000006
 20
1.813269025912159
 30
0.0
 11
1.420999999998571
 21
3.234269025910731
 31
0.0
  0
LINE
  5
1B421
330
1B415
100
AcDbEntity
  8
0
  6
CONTINUOUS
100
AcDbLine
 10
0.0
 20
1.139749816831973
 30
0.0
 11
1.420999999998571
 21
2.560749816830544
 31
0.0
  0
LINE
  5
1B422
330
1B415
100
AcDbEntity
  8
0
  6
CONTINUOUS
100
AcDbLine
 10
0.0000000000000002
 20
0.466230607751787
 30
0.0
 11
1.420999999998571
 21
1.887230607750358
 31
0.0
  0
LINE
  5
1B423
330
1B415
100
AcDbEntity
  8
0
  6
CONTINUOUS
100
AcDbLine
 10
0.2072886013284003
 20
-0.0000000000000009
 30
0.0
 11
1.420999999998571
 21
1.213711398670171
 31
0.0
  0
LINE
  5
1B424
330
1B415
100
AcDbEntity
  8
0
  6
CONTINUOUS
100
AcDbLine
 10
0.8808078104085864
 20
-0.0000000000000009
 30
0.0
 11
1.420999999998571
 21
0.5401921895899839
 31
0.0
  0
LINE
  5
1B425
330
1B415
100
AcDbEntity
  8
0
  6
CONTINUOUS
100
AcDbLine
 10
0.0581249075061505
 20
-0.0000000000000009
 30
0.0
 11
-0.0000000000000002
 21
0.0581249075061496
 31
0.0
  0
LINE
  5
1B426
330
1B415
100
AcDbEntity
  8
0
  6
CONTINUOUS
100
AcDbLine
 10
0.7316441165863372
 20
-0.0000000000000009
 30
0.0
 11
-0.0000000000000002
 21
0.7316441165863363
 31
0.0
  0
LINE
  5
1B427
330
1B415
100
AcDbEntity
  8
0
  6
CONTINUOUS
100
AcDbLine
 10
1.405163325666523
 20
-0.0000000000000009
 30
0.0
 11
-0.0000000000000002
 21
1.405163325666523
 31
0.0
  0
LINE
  5
1B428
330
1B415
100
AcDbEntity
  8
0
  6
CONTINUOUS
100
AcDbLine
 10
1.420999999998572
 20
0.6576825347481381
 30
0.0
 11
-0.0000000000000001
 21
2.07868253474671
 31
0.0
  0
LINE
  5
1B429
330
1B415
100
AcDbEntity
  8
0
  6
CONTINUOUS
100
AcDbLine
 10
1.420999999998571
 20
1.331201743828324
 30
0.0
 11
-0.0000000000000001
 21
2.752201743826896
 31
0.0
  0
LINE
  5
1B42A
330
1B415
100
AcDbEntity
  8
0
  6
CONTINUOUS
100
AcDbLine
 10
1.420999999998571
 20
2.004720952908511
 30
0.0
 11
-0.0000000000000002
 21
3.425720952907082
 31
0.0
  0
LINE
  5
1B42B
330
1B415
100
AcDbEntity
  8
0
  6
CONTINUOUS
100
AcDbLine
 10
1.420999999998571
 20
2.678240161988697
 30
0.0
 11
-0.0000000000000001
 21
4.099240161987269
 31
0.0
  0
LINE
  5
1B42C
330
1B415
100
AcDbEntity
  8
0
  6
CONTINUOUS
100
AcDbLine
 10
1.420999999998572
 20
3.351759371068884
 30
0.0
 11
0.0
 21
4.772759371067455
 31
0.0
  0
LINE
  5
1B42D
330
1B415
100
AcDbEntity
  8
0
  6
CONTINUOUS
100
AcDbLine
 10
1.420999999998571
 20
4.02527858014907
 30
0.0
 11
-0.0000000000000003
 21
5.446278580147642
 31
0.0
  0
LINE
  5
1B42E
330
1B415
100
AcDbEntity
  8
0
  6
CONTINUOUS
100
AcDbLine
 10
1.420999999998571
 20
4.698797789229257
 30
0.0
 11
0.0
 21
6.119797789227828
 31
0.0
  0
LINE
  5
1B42F
330
1B415
100
AcDbEntity
  8
0
  6
CONTINUOUS
100
AcDbLine
 10
1.420999999998571
 20
5.372316998309444
 30
0.0
 11
-0.0000000000000001
 21
6.793316998308015
 31
0.0
  0
LINE
  5
1B430
330
1B415
100
AcDbEntity
  8
0
  6
CONTINUOUS
100
AcDbLine
 10
1.420999999998572
 20
6.045836207389629
 30
0.0
 11
-0.0000000000000004
 21
7.466836207388202
 31
0.0
  0
LINE
  5
1B431
330
1B415
100
AcDbEntity
  8
0
  6
CONTINUOUS
100
AcDbLine
 10
1.420999999998571
 20
6.719355416469816
 30
0.0
 11
0.0
 21
8.140355416468388
 31
0.0
  0
LINE
  5
1B432
330
1B415
100
AcDbEntity
  8
0
  6
CONTINUOUS
100
AcDbLine
 10
1.420999999998571
 20
7.392874625550003
 30
0.0
 11
0.0507746255573185
 21
8.763099999991255
 31
0.0
  0
LINE
  5
1B433
330
1B415
100
AcDbEntity
  8
0
  6
CONTINUOUS
100
AcDbLine
 10
1.420999999998571
 20
8.06639383463019
 30
0.0
 11
0.7242938346375052
 21
8.763099999991255
 31
0.0
  0
LINE
  5
1B434
330
1B415
100
AcDbEntity
  8
0
  6
CONTINUOUS
100
AcDbLine
 10
1.420999999998571
 20
8.739913043710375
 30
0.0
 11
1.397813043717691
 21
8.763099999991255
 31
0.0
  0
ENDBLK
  5
1B440
330
1B415
100
AcDbEntity
  8
0
100
AcDbBlockEnd
  0
ENDSEC
  0
SECTION
  2
ENTITIES
  0
LINE
  5
1AC18
330
18
100
AcDbEntity
  8
01
100
AcDbLine
 10
2333.474453275721
 20
-577.541789603134
 30
0.0000000000563712
 11
2347.474453275721
 21
-577.541789603134
 31
0.0000000000563712
  0
LINE
  5
1AC19
330
18
100
AcDbEntity
  8
01
100
AcDbLine
 10
2338.475337457781
 20
-365.5417896041627
 30
0.0000000000563712
 11
2492.229717612814
 21
-365.5417896041627
 31
0.0000000000563712
  0
LINE
  5
1AC1A
330
18
100
AcDbEntity
  8
01
  6
BYBLOCK
100
AcDbLine
 10
2338.475337457781
 20
-365.5417896041627
 30
0.0000000000563712
 11
2338.475337457781
 21
-405.5417896041627
 31
0.0000000000563712
  0
LINE
  5
1AC1E
330
18
100
AcDbEntity
  8
01
100
AcDbLine
 10
2389.474453275719
 20
-370.5417896051913
 30
0.0000000000563712
 11
2389.474453275719
 21
-339.6237094159424
 31
0.0000000000563712
  0
LINE
  5
1AC1F
330
18
100
AcDbEntity
  8
01
100
AcDbLine
 10
2364.474453275721
 20
-365.5417896041617
 30
0.0000000000563712
 11
2414.474453275721
 21
-365.541789604164
 31
0.0000000000563712
  0
LINE
  5
1AC20
330
18
100
AcDbEntity
  8
01
100
AcDbLine
 10
2364.974453275718
 20
-357.0417896041617
 30
0.0000000000563712
 11
2413.974453275721
 21
-357.0417896041654
 31
0.0000000000563712
  0
LINE
  5
1AC21
330
18
100
AcDbEntity
  8
01
100
AcDbLine
 10
2414.474453275721
 20
-365.541789604164
 30
0.0000000000563712
 11
2414.474453275721
 21
-357.5417896041654
 31
0.0000000000563712
  0
ARC
  5
1AC22
330
18
100
AcDbEntity
  8
01
100
AcDbCircle
 10
2413.974453275721
 20
-357.5417896041654
 30
0.0000000000563712
 40
0.5
100
AcDbArc
 50
0.0
 51
90.0
  0
LINE
  5
1AC23
330
18
100
AcDbEntity
  8
01
100
AcDbLine
 10
2364.474453275721
 20
-365.5417896041617
 30
0.0000000000563712
 11
2364.474453275718
 21
-357.5417896041622
 31
0.0000000000563712
  0
ARC
  5
1AC24
330
18
100
AcDbEntity
  8
01
100
AcDbCircle
 10
2364.974453275718
 20
-357.5417896041617
 30
0.0000000000563712
 40
0.5
100
AcDbArc
 50
90.0
 51
180.0
  0
LINE
  5
1AC25
330
18
100
AcDbEntity
  8
01
  6
BYBLOCK
100
AcDbLine
 10
2339.974453275721
 20
-569.6417896031339
 30
0.0000000000563712
 11
2339.974453275721
 21
-699.4417896031339
 31
0.0000000000563712
  0
LINE
  5
1AC26
330
18
100
AcDbEntity
  8
01
  6
BYBLOCK
100
AcDbLine
 10
2339.974453275721
 20
-698.541789603134
 30
0.0000000000563712
 11
2342.474453275721
 21
-698.541789603134
 31
0.0000000000563712
  0
LINE
  5
1AC27
330
18
100
AcDbEntity
  8
01
  6
BYBLOCK
100
AcDbLine
 10
2342.474453275721
 20
-698.541789603134
 30
0.0000000000563712
 11
2342.474453275721
 21
-682.0388458779817
 31
0.0000000000563712
  0
LINE
  5
1AC28
330
18
100
AcDbEntity
  8
01
  6
BYBLOCK
100
AcDbLine
 10
2338.474453275721
 20
-569.6417896031339
 30
0.0000000000563712
 11
2338.474453275721
 21
-699.4417896031339
 31
0.0000000000563712
  0
LINE
  5
1AC29
330
18
100
AcDbEntity
  8
01
  6
BYBLOCK
100
AcDbLine
 10
2338.474453275721
 20
-699.4417896031339
 30
0.0000000000563712
 11
2339.974453275721
 21
-699.4417896031339
 31
0.0000000000563712
  0
LINE
  5
1AC2A
330
18
100
AcDbEntity
  8
01
  6
BYBLOCK
100
AcDbLine
 10
2339.974453275721
 20
-570.541789603134
 30
0.0000000000563712
 11
2342.474453275721
 21
-570.541789603134
 31
0.0000000000563712
  0
LINE
  5
1AC2B
330
18
100
AcDbEntity
  8
01
  6
BYBLOCK
100
AcDbLine
 10
2338.474453275721
 20
-569.6417896031339
 30
0.0000000000563712
 11
2339.974453275721
 21
-569.6417896031339
 31
0.0000000000563712
  0
LINE
  5
1AC2C
330
18
100
AcDbEntity
  8
01
  6
BYBLOCK
100
AcDbLine
 10
2339.974453275721
 20
-594.541789603134
 30
0.0000000000563712
 11
2341.174453275721
 21
-594.541789603134
 31
0.0000000000563712
  0
LINE
  5
1AC2D
330
18
100
AcDbEntity
  8
01
  6
BYBLOCK
100
AcDbLine
 10
2341.174453275721
 20
-588.8417896031337
 30
0.0000000000563712
 11
2341.174453275721
 21
-680.2417896031338
 31
0.0000000000563712
  0
LINE
  5
1AC2E
330
18
100
AcDbEntity
  8
01
  6
BYBLOCK
100
AcDbLine
 10
2341.274453275721
 20
-698.541789603134
 30
0.0000000000563712
 11
2341.274453275721
 21
-681.9417896031339
 31
0.0000000000563712
  0
LINE
  5
1AC2F
330
18
100
AcDbEntity
  8
01
  6
BYBLOCK
100
AcDbLine
 10
2341.274453275721
 20
-681.9417896031339
 30
0.0000000000563712
 11
2340.325925138297
 21
-680.99326146571
 31
0.0000000000563712
  0
LINE
  5
1AC30
330
18
100
AcDbEntity
  8
01
  6
BYBLOCK
100
AcDbLine
 10
2342.122981413145
 20
-681.1903177405577
 30
0.0000000000563712
 11
2341.174453275721
 21
-680.2417896031338
 31
0.0000000000563712
  0
ARC
  5
1AC31
330
18
100
AcDbEntity
  8
01
  6
BYBLOCK
100
AcDbCircle
 10
2341.274453275721
 20
-682.0388458779817
 30
0.0000000000563712
 40
1.2
100
AcDbArc
 50
0.0
 51
45.00000000003838
  0
ARC
  5
1AC32
330
18
100
AcDbEntity
  8
01
  6
BYBLOCK
100
AcDbCircle
 10
2341.174453275721
 20
-680.1447333282861
 30
0.0000000000563712
 40
1.2
100
AcDbArc
 50
180.0
 51
225.0000000000384
  0
LINE
  5
1AC33
330
18
100
AcDbEntity
  8
01
  6
BYBLOCK
100
AcDbLine
 10
2342.474453275721
 20
-570.541789603134
 30
0.0000000000563712
 11
2342.474453275721
 21
-587.0447333282862
 31
0.0000000000563712
  0
LINE
  5
1AC34
330
18
100
AcDbEntity
  8
01
  6
BYBLOCK
100
AcDbLine
 10
2341.274453275721
 20
-570.541789603134
 30
0.0000000000563712
 11
2341.274453275721
 21
-587.1417896031339
 31
0.0000000000563712
  0
LINE
  5
1AC35
330
18
100
AcDbEntity
  8
01
  6
BYBLOCK
100
AcDbLine
 10
2341.274453275721
 20
-587.1417896031339
 30
0.0000000000563712
 11
2340.325925138297
 21
-588.0903177405578
 31
0.0000000000563712
  0
LINE
  5
1AC36
330
18
100
AcDbEntity
  8
01
  6
BYBLOCK
100
AcDbLine
 10
2342.122981413145
 20
-587.8932614657101
 30
0.0000000000563712
 11
2341.174453275721
 21
-588.841789603134
 31
0.0000000000563712
  0
ARC
  5
1AC37
330
18
100
AcDbEntity
  8
01
  6
BYBLOCK
100
AcDbCircle
 10
2341.274453275721
 20
-587.0447333282862
 30
0.0000000000563712
 40
1.2
100
AcDbArc
 50
314.9999999999616
 51
0.0
  0
ARC
  5
1AC38
330
18
100
AcDbEntity
  8
01
  6
BYBLOCK
100
AcDbCircle
 10
2341.174453275721
 20
-588.9388458779817
 30
0.0000000000563712
 40
1.2
100
AcDbArc
 50
134.9999999999616
 51
180.0
  0
CIRCLE
  5
1AC39
330
18
100
AcDbEntity
  8
01
  6
BYBLOCK
100
AcDbCircle
 10
2389.474453275721
 20
-605.541789603134
 30
0.0000000000563712
 40
4.75
  0
LINE
  5
1AC3A
330
18
100
AcDbEntity
  8
01
  6
BYBLOCK
100
AcDbLine
 10
2341.174453275721
 20
-671.5417896031342
 30
0.0000000000563712
 11
2370.265080563422
 21
-671.541789603134
 31
0.0000000000563712
  0
ARC
  5
1AC3B
330
18
100
AcDbEntity
  8
01
  6
BYBLOCK
100
AcDbCircle
 10
2341.575337457782
 20
-381.9805390611627
 30
0.0000000000563712
 40
1.6
100
AcDbArc
 50
115.9444797720007
 51
180.0
  0
ARC
  5
1AC3C
330
18
100
AcDbEntity
  8
01
  6
BYBLOCK
100
AcDbCircle
 10
2341.575337457782
 20
-389.1030401471626
 30
0.0000000000563712
 40
1.6
100
AcDbArc
 50
180.0
 51
244.0555202279993
  0
ARC
  5
1AC3D
330
18
100
AcDbEntity
  8
01
  6
BYBLOCK
100
AcDbCircle
 10
2340.875337457781
 20
-390.3805390611626
 30
0.0000000000563712
 40
1.6
100
AcDbArc
 50
0.0
 51
64.05552022799934
  0
ARC
  5
1AC3E
330
18
100
AcDbEntity
  8
01
  6
BYBLOCK
100
AcDbCircle
 10
2340.875337457781
 20
-380.7030401471627
 30
0.0000000000563712
 40
1.6
100
AcDbArc
 50
295.9444797720006
 51
0.0
  0
LINE
  5
1AC3F
330
18
100
AcDbEntity
  8
01
  6
BYBLOCK
100
AcDbLine
 10
2342.475337457781
 20
-380.7030401471627
 30
0.0000000000563712
 11
2342.475337457781
 21
-373.3417896041626
 31
0.0000000000563712
  0
LINE
  5
1AC40
330
18
100
AcDbEntity
  8
01
  6
BYBLOCK
100
AcDbLine
 10
2341.575337457782
 20
-388.9417896041628
 30
0.0000000000563712
 11
2341.575337457782
 21
-382.1417896041626
 31
0.0000000000563712
  0
LINE
  5
1AC41
330
18
100
AcDbEntity
  8
01
  6
BYBLOCK
100
AcDbLine
 10
2342.475337457781
 20
-397.5417896041627
 30
0.0000000000563712
 11
2342.475337457781
 21
-390.3805390611626
 31
0.0000000000563712
  0
LINE
  5
1AC42
330
18
100
AcDbEntity
  8
01
  6
BYBLOCK
100
AcDbLine
 10
2340.875337457781
 20
-380.5417896041627
 30
0.0000000000563712
 11
2340.875337457782
 21
-373.3417896041626
 31
0.0000000000563712
  0
LINE
  5
1AC43
330
18
100
AcDbEntity
  8
01
  6
BYBLOCK
100
AcDbLine
 10
2340.875337457781
 20
-390.5417896041627
 30
0.0000000000563712
 11
2340.875337457781
 21
-397.6417896041626
 31
0.0000000000563712
  0
ARC
  5
1AC44
330
18
100
AcDbEntity
  8
01
  6
BYBLOCK
100
AcDbCircle
 10
2405.875337457781
 20
-377.6417896041626
 30
0.0000000000563712
 40
1.6
100
AcDbArc
 50
0.0
 51
90.0
  0
LINE
  5
1AC45
330
18
100
AcDbEntity
  8
01
  6
BYBLOCK
100
AcDbLine
 10
2339.975337457781
 20
-373.1417896041626
 30
0.0000000000563712
 11
2339.975337457781
 21
-397.9417896041625
 31
0.0000000000563712
  0
LINE
  5
1AC46
330
18
100
AcDbEntity
  8
01
  6
BYBLOCK
100
AcDbLine
 10
2405.875337457781
 20
-376.0417896041627
 30
0.0000000000563712
 11
2342.475337457781
 21
-376.0417896041627
 31
0.0000000000563712
  0
LINE
  5
1AC47
330
18
100
AcDbEntity
  8
01
  6
BYBLOCK
100
AcDbLine
 10
2405.875337457781
 20
-393.2417896041627
 30
0.0000000000563712
 11
2405.875337457781
 21
-376.0417896041627
 31
0.0000000000563712
  0
LINE
  5
1AC48
330
18
100
AcDbEntity
  8
01
  6
BYBLOCK
100
AcDbLine
 10
2407.475337457781
 20
-394.8417896041626
 30
0.0000000000563712
 11
2407.475337457781
 21
-377.6417896041626
 31
0.0000000000563712
  0
LINE
  5
1AC49
330
18
100
AcDbEntity
  8
01
  6
BYBLOCK
100
AcDbLine
 10
2339.975337457781
 20
-373.3417896041626
 30
0.0000000000563712
 11
2342.475337457781
 21
-373.3417896041626
 31
0.0000000000563712
  0
LINE
  5
1AC4A
330
18
100
AcDbEntity
  8
01
  6
BYBLOCK
100
AcDbLine
 10
2342.475337457781
 20
-397.5417896041627
 30
0.0000000000563712
 11
2340.875337457781
 21
-397.5417896041627
 31
0.0000000000563712
  0
LINE
  5
1AC4B
330
18
100
AcDbEntity
  8
01
  6
BYBLOCK
100
AcDbLine
 10
2340.875337457781
 20
-397.6417896041626
 30
0.0000000000563712
 11
2339.975337457781
 21
-397.6417896041626
 31
0.0000000000563712
  0
ARC
  5
1AC4C
330
18
100
AcDbEntity
  8
01
  6
BYBLOCK
100
AcDbCircle
 10
2337.17593238518
 20
-391.241789604162
 30
0.0000000000563712
 40
0.3000000000000051
100
AcDbArc
 50
232.8678058729264
 51
270.0
  0
LINE
  5
1AC4D
330
18
100
AcDbEntity
  8
01
  6
BYBLOCK
100
AcDbLine
 10
2337.975337457781
 20
-391.541789604162
 30
0.0000000000563712
 11
2337.17593238518
 21
-391.541789604162
 31
0.0000000000563712
  0
LINE
  5
1AC4E
330
18
100
AcDbEntity
  8
01
  6
BYBLOCK
100
AcDbLine
 10
2327.575337457782
 20
-381.8688007379578
 30
0.0000000000563712
 11
2327.575337457782
 21
-382.0394227935069
 31
0.0000000000563712
  0
ARC
  5
1AC4F
330
18
100
AcDbEntity
  8
01
  6
BYBLOCK
100
AcDbCircle
 10
2327.875337457781
 20
-382.0394227935069
 30
0.0000000000563712
 40
0.3
100
AcDbArc
 50
180.0
 51
217.7405295629754
  0
ARC
  5
1AC50
330
18
100
AcDbEntity
  8
01
  6
BYBLOCK
100
AcDbCircle
 10
2367.177638057065
 20
-351.6187198495661
 30
0.0000000000563712
 40
50.00000000000002
100
AcDbArc
 50
217.7405295629802
 51
232.8678058729729
  0
LINE
  5
1AC51
330
18
100
AcDbEntity
  8
01
  6
BYBLOCK
100
AcDbLine
 10
2327.375337457781
 20
-380.7417896041625
 30
0.0000000000563712
 11
2327.375337457781
 21
-380.0417896041627
 31
0.0000000000563712
  0
ARC
  5
1AC52
330
18
100
AcDbEntity
  8
01
  6
BYBLOCK
100
AcDbCircle
 10
2327.875337457781
 20
-380.0417896041627
 30
0.0000000000563712
 40
0.5000000000000142
100
AcDbArc
 50
90.0
 51
180.0
  0
LINE
  5
1AC53
330
18
100
AcDbEntity
  8
01
  6
BYBLOCK
100
AcDbLine
 10
2337.975337457781
 20
-379.5417896041627
 30
0.0000000000563712
 11
2327.875337457781
 21
-379.5417896041627
 31
0.0000000000563712
  0
LINE
  5
1AC54
330
18
100
AcDbEntity
  8
01
  6
BYBLOCK
100
AcDbLine
 10
2327.375337457781
 20
-381.1204692606029
 30
0.0000000000563712
 11
2327.375337457781
 21
-380.7417896041625
 31
0.0000000000563712
  0
SPLINE
  5
1AC55
330
18
100
AcDbEntity
  8
01
  6
BYBLOCK
100
AcDbSpline
210
0.0
220
0.0
230
1.0
 70
     8
 71
     3
 72
     8
 73
     4
 74
     0
 42
0.0000000001
 43
0.0000000001
 40
0.0
 40
0.0
 40
0.0
 40
0.0
 40
1.0
 40
1.0
 40
1.0
 40
1.0
 10
2327.401069999046
 20
-381.397119690052
 30
0.0000000000563712
 10
2327.383602112935
 20
-381.3040334941716
 30
0.0000000000563712
 10
2327.375337457781
 20
-381.2107674832801
 30
0.0000000000563712
 10
2327.375337457781
 20
-381.1204692606025
 30
0.0000000000563712
  0
ARC
  5
1AC56
330
18
100
AcDbEntity
  8
01
  6
BYBLOCK
100
AcDbCircle
 10
2328.875337457781
 20
-381.1204692606029
 30
0.0000000000563712
 40
1.499999999999998
100
AcDbArc
 50
190.628112987605
 51
225.0000000000384
  0
LINE
  5
1AC57
330
18
100
AcDbEntity
  8
01
  6
BYBLOCK
100
AcDbLine
 10
2338.475337457781
 20
-378.6917896041625
 30
0.0000000000563712
 11
2337.975337457781
 21
-378.6917896041625
 31
0.0000000000563712
  0
LINE
  5
1AC58
330
18
100
AcDbEntity
  8
01
  6
BYBLOCK
100
AcDbLine
 10
2337.975337457781
 20
-392.3917896041626
 30
0.0000000000563712
 11
2338.475337457781
 21
-392.3917896041626
 31
0.0000000000563712
  0
LINE
  5
1AC59
330
18
100
AcDbEntity
  8
01
  6
BYBLOCK
100
AcDbLine
 10
2337.975337457781
 20
-392.3917896041626
 30
0.0000000000563712
 11
2337.975337457781
 21
-378.6917896041625
 31
0.0000000000563712
  0
LINE
  5
1AC5A
330
18
100
AcDbEntity
  8
01
  6
BYBLOCK
100
AcDbLine
 10
2338.475337457781
 20
-373.1417896041626
 30
0.0000000000563712
 11
2339.975337457781
 21
-373.1417896041626
 31
0.0000000000563712
  0
LINE
  5
1AC5B
330
18
100
AcDbEntity
  8
01
  6
BYBLOCK
100
AcDbLine
 10
2338.475337457781
 20
-397.9417896041625
 30
0.0000000000563712
 11
2339.975337457781
 21
-397.9417896041625
 31
0.0000000000563712
  0
LINE
  5
1AC5C
330
18
100
AcDbEntity
  8
01
  6
BYBLOCK
100
AcDbLine
 10
2338.475337457781
 20
-397.9417896041625
 30
0.0000000000563712
 11
2338.475337457781
 21
-373.1417896041626
 31
0.0000000000563712
  0
LINE
  5
1AC5D
330
18
100
AcDbEntity
  8
01
  6
BYBLOCK
100
AcDbLine
 10
2407.475337457781
 20
-393.2417896041627
 30
0.0000000000563712
 11
2342.475337457781
 21
-393.2417896041627
 31
0.0000000000563712
  0
LINE
  5
1AC5E
330
18
100
AcDbEntity
  8
01
  6
BYBLOCK
100
AcDbLine
 10
2407.475337457781
 20
-394.8417896041626
 30
0.0000000000563712
 11
2357.075337457782
 21
-394.8417896041626
 31
0.0000000000563712
  0
LINE
  5
1AC5F
330
18
100
AcDbEntity
  8
01
  6
BYBLOCK
100
AcDbLine
 10
2359.912595757984
 20
-394.8417896041626
 30
0.0000000000563712
 11
2342.475337457781
 21
-394.8417896041626
 31
0.0000000000563712
  0
LINE
  5
1AC60
330
18
100
AcDbEntity
  8
01
  6
BYBLOCK
100
AcDbLine
 10
2337.028890848374
 20
-391.395342994756
 30
0.0000000000563712
 11
2327.814677286001
 21
-382.1811294323829
 31
0.0000000000563712
  0
ARC
  5
1AC61
330
18
100
AcDbEntity
  8
01
  6
BYBLOCK
100
AcDbCircle
 10
2337.382444238968
 20
-391.0417896041627
 30
0.0000000000563712
 40
0.5
100
AcDbArc
 50
224.9999999999954
 51
270.0
  0
LINE
  5
1AC62
330
18
100
AcDbEntity
  8
01
  6
BYBLOCK
100
AcDbLine
 10
2337.975337457781
 20
-391.5417896041627
 30
0.0000000000563712
 11
2337.382444238968
 21
-391.5417896041627
 31
0.0000000000563712
  0
LINE
  5
1AC64
330
18
100
AcDbEntity
  8
01
  6
BYBLOCK
100
AcDbLine
 10
2385.86820869167
 20
-605.541789603134
 30
0.0000000000563712
 11
2389.474453275721
 21
-601.9355450190826
 31
0.0000000000563712
  0
LINE
  5
1AC65
330
18
100
AcDbEntity
  8
01
  6
BYBLOCK
100
AcDbLine
 10
2393.080697859773
 20
-605.541789603134
 30
0.0000000000563712
 11
2389.474453275721
 21
-601.9355450190826
 31
0.0000000000563712
  0
LINE
  5
1AC66
330
18
100
AcDbEntity
  8
01
  6
BYBLOCK
100
AcDbLine
 10
2385.86820869167
 20
-605.541789603134
 30
0.0000000000563712
 11
2389.474453275721
 21
-609.1480341871852
 31
0.0000000000563712
  0
LINE
  5
1AC67
330
18
100
AcDbEntity
  8
01
  6
BYBLOCK
100
AcDbLine
 10
2393.080697859773
 20
-605.541789603134
 30
0.0000000000563712
 11
2389.474453275721
 21
-609.1480341871852
 31
0.0000000000563712
  0
LINE
  5
1AC68
330
18
100
AcDbEntity
  8
01
  6
BYBLOCK
100
AcDbLine
 10
2327.474453275721
 20
-624.5101193361179
 30
0.0000000000563712
 11
2327.474453275721
 21
-642.5734598701238
 31
0.0000000000563712
  0
LINE
  5
1AC69
330
18
100
AcDbEntity
  8
01
  6
BYBLOCK
100
AcDbLine
 10
2331.767346494535
 20
-623.5417896031208
 30
0.0000000000563712
 11
2338.474453275721
 21
-623.5417896031208
 31
0.0000000000563712
  0
LINE
  5
1AC6A
330
18
100
AcDbEntity
  8
01
  6
BYBLOCK
100
AcDbLine
 10
2331.767346494535
 20
-643.5417896031208
 30
0.0000000000563712
 11
2338.474453275721
 21
-643.5417896031208
 31
0.0000000000563712
  0
LINE
  5
1AC6B
330
18
100
AcDbEntity
  8
01
  6
BYBLOCK
100
AcDbLine
 10
2337.267346494536
 20
-628.2917896031208
 30
0.0000000000563712
 11
2337.267346494535
 21
-638.7917896031208
 31
0.0000000000563712
  0
ARC
  5
1AC6C
330
18
100
AcDbEntity
  8
01
  6
BYBLOCK
100
AcDbCircle
 10
2331.767346494535
 20
-633.5417896031208
 30
0.0000000000563712
 40
10.00000000000009
100
AcDbArc
 50
53.13010235414986
 51
115.4224671781178
  0
ARC
  5
1AC6D
330
18
100
AcDbEntity
  8
01
  6
BYBLOCK
100
AcDbCircle
 10
2331.767346494535
 20
-633.5417896031206
 30
0.0000000000563712
 40
10.00000000000009
100
AcDbArc
 50
244.5775328218822
 51
306.8698976458437
  0
LINE
  5
1AC6E
330
18
100
AcDbEntity
  8
01
  6
BYBLOCK
100
AcDbLine
 10
2337.767346494536
 20
-625.5417896031208
 30
0.0000000000563712
 11
2337.767346494536
 21
-641.5417896031208
 31
0.0000000000563712
  0
LINE
  5
1AC6F
330
18
100
AcDbEntity
  8
01
  6
BYBLOCK
100
AcDbLine
 10
2327.474453275721
 20
-628.2917896031208
 30
0.0000000000563712
 11
2337.267346494536
 21
-628.2917896031208
 31
0.0000000000563712
  0
LINE
  5
1AC70
330
18
100
AcDbEntity
  8
01
  6
BYBLOCK
100
AcDbLine
 10
2327.474453275721
 20
-638.7917896031208
 30
0.0000000000563712
 11
2337.267346494536
 21
-638.7917896031208
 31
0.0000000000563712
  0
LINE
  5
1AC71
330
18
100
AcDbEntity
  8
01
  6
BYBLOCK
100
AcDbLine
 10
2213.074569615466
 20
-569.6417896031346
 30
0.0000000000563712
 11
2225.874569615466
 21
-569.6417896031346
 31
0.0000000000563712
  0
LINE
  5
1AC72
330
18
100
AcDbEntity
  8
01
  6
BYBLOCK
100
AcDbLine
 10
2213.074569615466
 20
-699.4417896031346
 30
0.0000000000563712
 11
2225.874569615466
 21
-699.4417896031346
 31
0.0000000000563712
  0
LINE
  5
1AC73
330
18
100
AcDbEntity
  8
01
  6
BYBLOCK
100
AcDbLine
 10
2207.074569615466
 20
-575.6417896031346
 30
0.0000000000563712
 11
2207.074569615466
 21
-693.4417896031346
 31
0.0000000000563712
  0
LINE
  5
1AC74
330
18
100
AcDbEntity
  8
01
  6
BYBLOCK
100
AcDbLine
 10
2231.874569615466
 20
-575.6417896031346
 30
0.0000000000563712
 11
2231.874569615466
 21
-693.4417896031346
 31
0.0000000000563712
  0
ARC
  5
1AC75
330
18
100
AcDbEntity
  8
01
  6
BYBLOCK
100
AcDbCircle
 10
2213.074569615466
 20
-693.4417896031346
 30
0.0000000000563712
 40
6.0
100
AcDbArc
 50
180.0
 51
270.0
  0
ARC
  5
1AC76
330
18
100
AcDbEntity
  8
01
  6
BYBLOCK
100
AcDbCircle
 10
2225.874569615466
 20
-693.4417896031346
 30
0.0000000000563712
 40
6.0
100
AcDbArc
 50
270.0
 51
0.0
  0
ARC
  5
1AC77
330
18
100
AcDbEntity
  8
01
  6
BYBLOCK
100
AcDbCircle
 10
2213.074569615466
 20
-575.6417896031346
 30
0.0000000000563712
 40
6.0
100
AcDbArc
 50
90.0
 51
180.0
  0
ARC
  5
1AC78
330
18
100
AcDbEntity
  8
01
  6
BYBLOCK
100
AcDbCircle
 10
2225.874569615466
 20
-575.6417896031346
 30
0.0000000000563712
 40
6.0
100
AcDbArc
 50
0.0
 51
90.0
  0
CIRCLE
  5
1AC79
330
18
100
AcDbEntity
  8
01
  6
BYBLOCK
100
AcDbCircle
 10
2219.474569615466
 20
-691.5417896031345
 30
0.0000000000563712
 40
2.75
  0
CIRCLE
  5
1AC7A
330
18
100
AcDbEntity
  8
01
  6
BYBLOCK
100
AcDbCircle
 10
2219.474569615466
 20
-691.5417896031345
 30
0.0000000000563712
 40
4.25
  0
CIRCLE
  5
1AC7B
330
18
100
AcDbEntity
  8
01
  6
BYBLOCK
100
AcDbCircle
 10
2219.474569615466
 20
-577.5417896031347
 30
0.0000000000563712
 40
2.75
  0
CIRCLE
  5
1AC7C
330
18
100
AcDbEntity
  8
01
  6
BYBLOCK
100
AcDbCircle
 10
2219.474569615466
 20
-577.5417896031347
 30
0.0000000000563712
 40
4.25
  0
LINE
  5
1AC7D
330
18
100
AcDbEntity
  8
1CENTER
100
AcDbLine
 10
2225.349595023372
 20
-691.5417896031347
 30
0.0000000000563712
 11
2213.59954420756
 21
-691.5417896031347
 31
0.0000000000563712
  0
LINE
  5
1AC7E
330
18
100
AcDbEntity
  8
1CENTER
100
AcDbLine
 10
2219.474569615466
 20
-685.6667641952283
 30
0.0000000000563712
 11
2219.474569615466
 21
-697.4168150110409
 31
0.0000000000563712
  0
LINE
  5
1AC7F
330
18
100
AcDbEntity
  8
1CENTER
100
AcDbLine
 10
2225.349595023372
 20
-577.5417896031347
 30
0.0000000000563712
 11
2213.59954420756
 21
-577.5417896031347
 31
0.0000000000563712
  0
LINE
  5
1AC80
330
18
100
AcDbEntity
  8
1CENTER
100
AcDbLine
 10
2219.474569615466
 20
-571.6667641952283
 30
0.0000000000563712
 11
2219.474569615466
 21
-583.4168150110409
 31
0.0000000000563712
  0
ARC
  5
1AC81
330
18
100
AcDbEntity
  8
01
  6
BYBLOCK
100
AcDbCircle
 10
2219.474569615466
 20
-633.5417896031345
 30
0.0000000000563712
 40
10.15
100
AcDbArc
 50
231.9925780701365
 51
308.0074219298635
  0
LINE
  5
1AC82
330
18
100
AcDbEntity
  8
01
  6
BYBLOCK
100
AcDbLine
 10
2213.224569615466
 20
-625.5442899938816
 30
0.0000000000563712
 11
2213.224569615466
 21
-641.5392892123873
 31
0.0000000000563712
  0
LINE
  5
1AC83
330
18
100
AcDbEntity
  8
01
  6
BYBLOCK
100
AcDbLine
 10
2225.724569615466
 20
-625.5442899938816
 30
0.0000000000563712
 11
2225.724569615466
 21
-641.5392892123873
 31
0.0000000000563712
  0
ARC
  5
1AC84
330
18
100
AcDbEntity
  8
01
  6
BYBLOCK
100
AcDbCircle
 10
2219.474569615466
 20
-633.5417896031345
 30
0.0000000000563712
 40
10.15
100
AcDbArc
 50
51.99257807014251
 51
128.0074219298575
  0
LINE
  5
1AC85
330
18
100
AcDbEntity
  8
01
  6
BYBLOCK
100
AcDbLine
 10
2214.974569615466
 20
-628.2917896031345
 30
0.0000000000563712
 11
2214.974569615466
 21
-638.7917896031345
 31
0.0000000000563712
  0
LINE
  5
1AC86
330
18
100
AcDbEntity
  8
01
  6
BYBLOCK
100
AcDbLine
 10
2224.974569615466
 20
-628.2917896031345
 30
0.0000000000563712
 11
2224.974569615466
 21
-638.7917896031345
 31
0.0000000000563712
  0
LINE
  5
1AC87
330
18
100
AcDbEntity
  8
01
  6
BYBLOCK
100
AcDbLine
 10
2215.474569615466
 20
-624.2132045014162
 30
0.0000000000563712
 11
2215.474569615466
 21
-628.2917896031347
 31
0.0000000000563712
  0
LINE
  5
1AC88
330
18
100
AcDbEntity
  8
01
  6
BYBLOCK
100
AcDbLine
 10
2213.974569615466
 20
-628.2917896031347
 30
0.0000000000563712
 11
2213.974569615466
 21
-638.7917896031345
 31
0.0000000000563712
  0
LINE
  5
1AC89
330
18
100
AcDbEntity
  8
01
  6
BYBLOCK
100
AcDbLine
 10
2215.474569615466
 20
-638.7917896031345
 30
0.0000000000563712
 11
2215.474569615466
 21
-642.8703747048528
 31
0.0000000000563712
  0
LINE
  5
1AC8A
330
18
100
AcDbEntity
  8
01
  6
BYBLOCK
100
AcDbLine
 10
2213.974569615466
 20
-628.2917896031345
 30
0.0000000000563712
 11
2224.974569615466
 21
-628.2917896031345
 31
0.0000000000563712
  0
LINE
  5
1AC8B
330
18
100
AcDbEntity
  8
01
  6
BYBLOCK
100
AcDbLine
 10
2213.974569615466
 20
-638.7917896031345
 30
0.0000000000563712
 11
2224.974569615466
 21
-638.7917896031345
 31
0.0000000000563712
  0
LINE
  5
1AC8D
330
18
100
AcDbEntity
  8
01
100
AcDbLine
 10
2199.474685955209
 20
-535.5417896031342
 30
0.0000000000563712
 11
2199.474685955209
 21
-725.5417896031345
 31
0.0000000000563712
  0
LINE
  5
1AC8E
330
18
100
AcDbEntity
  8
01
100
AcDbLine
 10
2199.474685955209
 20
-630.5417896031345
 30
0.0000000000563712
 11
2199.474685955209
 21
-680.5417896031345
 31
0.0000000000563712
  0
LINE
  5
1AC8F
330
18
100
AcDbEntity
  8
01
100
AcDbLine
 10
2190.974685955209
 20
-680.0417896031345
 30
0.0000000000563712
 11
2190.974685955209
 21
-631.0417896031345
 31
0.0000000000563712
  0
LINE
  5
1AC90
330
18
100
AcDbEntity
  8
01
100
AcDbLine
 10
2199.474685955209
 20
-680.5417896031345
 30
0.0000000000563712
 11
2191.474685955209
 21
-680.5417896031345
 31
0.0000000000563712
  0
LINE
  5
1AC91
330
18
100
AcDbEntity
  8
01
100
AcDbLine
 10
2199.474685955209
 20
-630.5417896031345
 30
0.0000000000563712
 11
2191.474685955209
 21
-630.5417896031345
 31
0.0000000000563712
  0
LINE
  5
1AC92
330
18
100
AcDbEntity
  8
01
100
AcDbLine
 10
2201.602971337641
 20
-655.5417896031345
 30
0.0000000000563712
 11
2178.974685955209
 21
-655.5417896031345
 31
0.0000000000563712
  0
LINE
  5
1AC93
330
18
100
AcDbEntity
  8
01
100
AcDbLine
 10
2333.474453276009
 20
-691.5417896028453
 30
0.0000000000563712
 11
2347.474453276009
 21
-691.5417896028453
 31
0.0000000000563712
  0
LINE
  5
1AC94
330
18
100
AcDbEntity
  8
01
100
AcDbLine
 10
2400.786341543262
 20
-605.541789603134
 30
0.0000000000563712
 11
2378.162565008179
 21
-605.541789603134
 31
0.0000000000563712
  0
LINE
  5
1AC95
330
18
100
AcDbEntity
  8
01
100
AcDbLine
 10
2389.474453275721
 20
-594.2299013355923
 30
0.0000000000563712
 11
2389.474453275721
 21
-616.8536778706757
 31
0.0000000000563712
  0
LINE
  5
1AC96
330
18
100
AcDbEntity
  8
01
  6
BYBLOCK
100
AcDbLine
 10
2111.474685955212
 20
-624.5101193361179
 30
0.0000000000563712
 11
2111.474685955212
 21
-642.5734598701238
 31
0.0000000000563712
  0
LINE
  5
1AC97
330
18
100
AcDbEntity
  8
01
  6
BYBLOCK
100
AcDbLine
 10
2107.181792736399
 20
-623.5417896031208
 30
0.0000000000563712
 11
2100.474685955212
 21
-623.5417896031208
 31
0.0000000000563712
  0
LINE
  5
1AC98
330
18
100
AcDbEntity
  8
01
  6
BYBLOCK
100
AcDbLine
 10
2107.181792736399
 20
-643.5417896031208
 30
0.0000000000563712
 11
2100.474685955212
 21
-643.5417896031208
 31
0.0000000000563712
  0
ARC
  5
1AC99
330
18
100
AcDbEntity
  8
01
  6
BYBLOCK
100
AcDbCircle
 10
2107.181792736399
 20
-633.5417896031208
 30
0.0000000000563712
 40
10.00000000000009
100
AcDbArc
 50
64.57753282188216
 51
90.0
  0
LINE
  5
1AC9A
330
18
100
AcDbEntity
  8
01
  6
CONTINUOUS
100
AcDbLine
 10
2110.974685955212
 20
-641.8565837959516
 30
0.0000000000563712
 11
2100.474685955212
 21
-641.8565837959516
 31
0.0000000000563712
  0
ARC
  5
1AC9B
330
18
100
AcDbEntity
  8
01
  6
CONTINUOUS
100
AcDbCircle
 10
2111.013266202126
 20
-641.3944445651448
 30
0.0000000000563712
 40
0.4637468103423796
100
AcDbArc
 50
265.2279066161926
 51
354.2577450626241
  0
LINE
  5
1AC9C
330
18
100
AcDbEntity
  8
01
  6
CONTINUOUS
100
AcDbLine
 10
2111.474685955212
 20
-626.0584748295728
 30
0.0000000000563712
 11
2111.474685955212
 21
-641.0251043766687
 31
0.0000000000563712
  0
ARC
  5
1AC9D
330
18
100
AcDbEntity
  8
01
  6
CONTINUOUS
100
AcDbCircle
 10
2111.013266202126
 20
-625.6891346410964
 30
0.0000000000563712
 40
0.4637468103423387
100
AcDbArc
 50
5.742254937375924
 51
94.77209338380747
  0
ARC
  5
1AC9E
330
18
100
AcDbEntity
  8
01
  6
BYBLOCK
100
AcDbCircle
 10
2107.181792736399
 20
-633.5417896031206
 30
0.0000000000563712
 40
10.00000000000009
100
AcDbArc
 50
270.0
 51
295.4224671781178
  0
LINE
  5
1AC9F
330
18
100
AcDbEntity
  8
01
  6
CONTINUOUS
100
AcDbLine
 10
2100.474685955212
 20
-625.2269954102896
 30
0.0000000000563712
 11
2110.974685955212
 21
-625.2269954102896
 31
0.0000000000563712
  0
LINE
  5
1ACA0
330
18
100
AcDbEntity
  8
01
100
AcDbLine
 10
2407.474453275721
 20
-638.1924380302369
 30
0.0000000000563712
 11
2407.474453275721
 21
-670.341789603134
 31
0.0000000000563712
  0
ARC
  5
1ACA1
330
18
100
AcDbEntity
  8
01
100
AcDbCircle
 10
2406.474453275721
 20
-670.541789603134
 30
0.0000000000563712
 40
1.0
100
AcDbArc
 50
270.0
 51
0.0
  0
LINE
  5
1ACA2
330
18
100
AcDbEntity
  8
01
100
AcDbLine
 10
2370.265080563423
 20
-671.541789603134
 30
0.0000000000563712
 11
2406.474453275721
 21
-671.5417896031338
 31
0.0000000000563712
  0
LINE
  5
1ACA3
330
18
100
AcDbEntity
  8
01
100
AcDbLine
 10
2079.474685955212
 20
-655.541789603134
 30
0.0000000000563712
 11
2019.474685955212
 21
-655.541789603134
 31
0.0000000000563712
  0
LINE
  5
1ACA4
330
18
100
AcDbEntity
  8
01
100
AcDbLine
 10
2049.474685955212
 20
-625.541789603134
 30
0.0000000000563712
 11
2049.474685955212
 21
-685.541789603134
 31
0.0000000000563712
  0
LINE
  5
1ACA5
330
18
100
AcDbEntity
  8
01
  6
BYBLOCK
100
AcDbLine
 10
2407.474453275721
 20
-608.7596706355557
 30
0.0000000000564849
 11
2407.474453275721
 21
-638.1924380302369
 31
0.0000000000563712
  0
LINE
  5
1ACA6
330
18
100
AcDbEntity
  8
01
  6
BYBLOCK
100
AcDbLine
 10
2341.174453275721
 20
-597.541789603134
 30
0.0000000000563712
 11
2369.631350197738
 21
-597.541789603134
 31
0.0000000000564849
  0
ARC
  5
1ACA7
330
18
100
AcDbEntity
  8
01
  6
BYBLOCK
100
AcDbCircle
 10
2406.474453275721
 20
-598.541789603134
 30
0.0000000000563712
 40
1.0
100
AcDbArc
 50
0.0
 51
90.0
  0
LINE
  5
1ACA8
330
18
100
AcDbEntity
  8
01
  6
BYBLOCK
100
AcDbLine
 10
2369.631350197738
 20
-597.541789603134
 30
0.0000000000564849
 11
2406.474453275721
 21
-597.541789603134
 31
0.0000000000563712
  0
LINE
  5
1ACA9
330
18
100
AcDbEntity
  8
01
  6
BYBLOCK
100
AcDbLine
 10
2407.474453275721
 20
-598.541789603134
 30
0.0000000000563712
 11
2407.474453275721
 21
-608.7596706355557
 31
0.0000000000564849
  0
LINE
  5
1ACAA
330
18
100
AcDbEntity
  8
01
100
AcDbLine
 10
2105.474685955212
 20
-577.541789603134
 30
0.0000000000563712
 11
2091.474685955212
 21
-577.541789603134
 31
0.0000000000563712
  0
LINE
  5
1ACAB
330
18
100
AcDbEntity
  8
01
  6
BYBLOCK
100
AcDbLine
 10
2098.974685955212
 20
-569.6417896031339
 30
0.0000000000563712
 11
2098.974685955212
 21
-699.4417896031339
 31
0.0000000000563712
  0
LINE
  5
1ACAC
330
18
100
AcDbEntity
  8
01
  6
BYBLOCK
100
AcDbLine
 10
2098.974685955212
 20
-698.541789603134
 30
0.0000000000563712
 11
2096.474685955212
 21
-698.541789603134
 31
0.0000000000563712
  0
LINE
  5
1ACAD
330
18
100
AcDbEntity
  8
01
  6
BYBLOCK
100
AcDbLine
 10
2096.474685955212
 20
-698.541789603134
 30
0.0000000000563712
 11
2096.474685955212
 21
-682.0388458779817
 31
0.0000000000563712
  0
LINE
  5
1ACAE
330
18
100
AcDbEntity
  8
01
  6
BYBLOCK
100
AcDbLine
 10
2100.474685955212
 20
-569.6417896031339
 30
0.0000000000563712
 11
2100.474685955212
 21
-699.4417896031339
 31
0.0000000000563712
  0
LINE
  5
1ACAF
330
18
100
AcDbEntity
  8
01
  6
BYBLOCK
100
AcDbLine
 10
2100.474685955212
 20
-699.4417896031339
 30
0.0000000000563712
 11
2098.974685955212
 21
-699.4417896031339
 31
0.0000000000563712
  0
LINE
  5
1ACB0
330
18
100
AcDbEntity
  8
01
  6
BYBLOCK
100
AcDbLine
 10
2098.974685955212
 20
-570.541789603134
 30
0.0000000000563712
 11
2096.474685955212
 21
-570.541789603134
 31
0.0000000000563712
  0
LINE
  5
1ACB1
330
18
100
AcDbEntity
  8
01
  6
BYBLOCK
100
AcDbLine
 10
2100.474685955212
 20
-569.6417896031339
 30
0.0000000000563712
 11
2098.974685955212
 21
-569.6417896031339
 31
0.0000000000563712
  0
LINE
  5
1ACB2
330
18
100
AcDbEntity
  8
01
  6
BYBLOCK
100
AcDbLine
 10
2098.974685955212
 20
-594.541789603134
 30
0.0000000000563712
 11
2097.774685955213
 21
-594.541789603134
 31
0.0000000000563712
  0
LINE
  5
1ACB3
330
18
100
AcDbEntity
  8
01
  6
BYBLOCK
100
AcDbLine
 10
2097.774685955213
 20
-588.8417896031337
 30
0.0000000000563712
 11
2097.774685955213
 21
-680.2417896031338
 31
0.0000000000563712
  0
LINE
  5
1ACB4
330
18
100
AcDbEntity
  8
01
  6
BYBLOCK
100
AcDbLine
 10
2097.674685955212
 20
-698.541789603134
 30
0.0000000000563712
 11
2097.674685955212
 21
-681.9417896031339
 31
0.0000000000563712
  0
LINE
  5
1ACB5
330
18
100
AcDbEntity
  8
01
  6
BYBLOCK
100
AcDbLine
 10
2097.674685955212
 20
-681.9417896031339
 30
0.0000000000563712
 11
2098.623214092637
 21
-680.99326146571
 31
0.0000000000563712
  0
LINE
  5
1ACB6
330
18
100
AcDbEntity
  8
01
  6
BYBLOCK
100
AcDbLine
 10
2096.826157817789
 20
-681.1903177405577
 30
0.0000000000563712
 11
2097.774685955213
 21
-680.2417896031338
 31
0.0000000000563712
  0
ARC
  5
1ACB7
330
18
100
AcDbEntity
  8
01
  6
BYBLOCK
100
AcDbCircle
 10
2097.674685955212
 20
-682.0388458779817
 30
0.0000000000563712
 40
1.2
100
AcDbArc
 50
134.9999999999616
 51
180.0
  0
ARC
  5
1ACB8
330
18
100
AcDbEntity
  8
01
  6
BYBLOCK
100
AcDbCircle
 10
2097.774685955213
 20
-680.1447333282861
 30
0.0000000000563712
 40
1.2
100
AcDbArc
 50
314.9999999999616
 51
0.0
  0
LINE
  5
1ACB9
330
18
100
AcDbEntity
  8
01
  6
BYBLOCK
100
AcDbLine
 10
2096.474685955212
 20
-570.541789603134
 30
0.0000000000563712
 11
2096.474685955212
 21
-587.0447333282862
 31
0.0000000000563712
  0
LINE
  5
1ACBA
330
18
100
AcDbEntity
  8
01
  6
BYBLOCK
100
AcDbLine
 10
2097.674685955212
 20
-570.541789603134
 30
0.0000000000563712
 11
2097.674685955212
 21
-587.1417896031339
 31
0.0000000000563712
  0
LINE
  5
1ACBB
330
18
100
AcDbEntity
  8
01
  6
BYBLOCK
100
AcDbLine
 10
2097.674685955212
 20
-587.1417896031339
 30
0.0000000000563712
 11
2098.623214092637
 21
-588.0903177405578
 31
0.0000000000563712
  0
LINE
  5
1ACBC
330
18
100
AcDbEntity
  8
01
  6
BYBLOCK
100
AcDbLine
 10
2096.826157817789
 20
-587.8932614657101
 30
0.0000000000563712
 11
2097.774685955213
 21
-588.841789603134
 31
0.0000000000563712
  0
ARC
  5
1ACBD
330
18
100
AcDbEntity
  8
01
  6
BYBLOCK
100
AcDbCircle
 10
2097.674685955212
 20
-587.0447333282862
 30
0.0000000000563712
 40
1.2
100
AcDbArc
 50
180.0
 51
225.0000000000384
  0
ARC
  5
1ACBE
330
18
100
AcDbEntity
  8
01
  6
BYBLOCK
100
AcDbCircle
 10
2097.774685955213
 20
-588.9388458779817
 30
0.0000000000563712
 40
1.2
100
AcDbArc
 50
0.0
 51
45.00000000003838
  0
CIRCLE
  5
1ACBF
330
18
100
AcDbEntity
  8
01
  6
BYBLOCK
100
AcDbCircle
 10
2049.474685955212
 20
-605.541789603134
 30
0.0000000000563712
 40
4.749999999999998
  0
LINE
  5
1ACC0
330
18
100
AcDbEntity
  8
01
  6
BYBLOCK
100
AcDbLine
 10
2097.774685955213
 20
-671.5417896031342
 30
0.0000000000563712
 11
2068.684058667512
 21
-671.541789603134
 31
0.0000000000563712
  0
LINE
  5
1ACC1
330
18
100
AcDbEntity
  8
01
  6
BYBLOCK
100
AcDbLine
 10
2053.080930539264
 20
-605.541789603134
 30
0.0000000000563712
 11
2049.474685955212
 21
-601.9355450190826
 31
0.0000000000563712
  0
LINE
  5
1ACC2
330
18
100
AcDbEntity
  8
01
  6
BYBLOCK
100
AcDbLine
 10
2045.868441371161
 20
-605.541789603134
 30
0.0000000000563712
 11
2049.474685955212
 21
-601.9355450190826
 31
0.0000000000563712
  0
LINE
  5
1ACC3
330
18
100
AcDbEntity
  8
01
  6
BYBLOCK
100
AcDbLine
 10
2053.080930539264
 20
-605.541789603134
 30
0.0000000000563712
 11
2049.474685955212
 21
-609.1480341871852
 31
0.0000000000563712
  0
LINE
  5
1ACC4
330
18
100
AcDbEntity
  8
01
  6
BYBLOCK
100
AcDbLine
 10
2045.868441371161
 20
-605.541789603134
 30
0.0000000000563712
 11
2049.474685955212
 21
-609.1480341871852
 31
0.0000000000563712
  0
LINE
  5
1ACC5
330
18
100
AcDbEntity
  8
01
  6
BYBLOCK
100
AcDbLine
 10
2107.181792736399
 20
-623.5417896031208
 30
0.0000000000563712
 11
2100.474685955212
 21
-623.5417896031208
 31
0.0000000000563712
  0
LINE
  5
1ACC6
330
18
100
AcDbEntity
  8
01
  6
BYBLOCK
100
AcDbLine
 10
2107.181792736399
 20
-643.5417896031208
 30
0.0000000000563712
 11
2100.474685955212
 21
-643.5417896031208
 31
0.0000000000563712
  0
LINE
  5
1ACC7
330
18
100
AcDbEntity
  8
01
100
AcDbLine
 10
2105.474685954925
 20
-691.5417896028453
 30
0.0000000000563712
 11
2091.474685954925
 21
-691.5417896028453
 31
0.0000000000563712
  0
LINE
  5
1ACC8
330
18
100
AcDbEntity
  8
01
  6
BYBLOCK
100
AcDbLine
 10
2031.474685955212
 20
-608.7596706355557
 30
0.0000000000564849
 11
2031.474685955212
 21
-638.1924380302369
 31
0.0000000000563712
  0
LINE
  5
1ACC9
330
18
100
AcDbEntity
  8
01
  6
BYBLOCK
100
AcDbLine
 10
2097.774685955213
 20
-597.541789603134
 30
0.0000000000563712
 11
2069.317789033195
 21
-597.541789603134
 31
0.0000000000564849
  0
ARC
  5
1ACCA
330
18
100
AcDbEntity
  8
01
  6
BYBLOCK
100
AcDbCircle
 10
2032.474685955212
 20
-598.541789603134
 30
0.0000000000563712
 40
0.9999999999999996
100
AcDbArc
 50
90.0
 51
180.0
  0
LINE
  5
1ACCB
330
18
100
AcDbEntity
  8
01
  6
BYBLOCK
100
AcDbLine
 10
2069.317789033195
 20
-597.541789603134
 30
0.0000000000564849
 11
2032.474685955212
 21
-597.541789603134
 31
0.0000000000563712
  0
LINE
  5
1ACCC
330
18
100
AcDbEntity
  8
01
  6
BYBLOCK
100
AcDbLine
 10
2031.474685955212
 20
-598.541789603134
 30
0.0000000000563712
 11
2031.474685955212
 21
-608.7596706355557
 31
0.0000000000564849
  0
TEXT
  5
1ACCF
330
18
100
AcDbEntity
  8
1TEXT
100
AcDbText
 10
2031.474585615466
 20
-374.041789603134
 30
0.0
 40
20.0
  1
1-MNC-X-LJ
100
AcDbText
  0
ARC
  5
1ACD0
330
18
100
AcDbEntity
  8
01
100
AcDbCircle
 10
2191.474685955209
 20
-631.0417896031345
 30
0.0000000000563712
 40
0.5
100
AcDbArc
 50
90.0
 51
180.0
  0
ARC
  5
1ACD1
330
18
100
AcDbEntity
  8
01
100
AcDbCircle
 10
2191.474685955209
 20
-680.0417896031345
 30
0.0000000000563712
 40
0.5
100
AcDbArc
 50
180.0
 51
270.0
  0
LINE
  5
1ACD2
330
18
100
AcDbEntity
  8
01
100
AcDbLine
 10
2364.974453275721
 20
-414.0431079162367
 30
0.0000000000563712
 11
2413.974453275721
 21
-414.0431079162367
 31
0.0000000000563712
  0
LINE
  5
1ACD3
330
18
100
AcDbEntity
  8
01
100
AcDbLine
 10
2364.474453275721
 20
-405.5431079162367
 30
0.0000000000563712
 11
2364.474453275721
 21
-413.5431079162367
 31
0.0000000000563712
  0
LINE
  5
1ACD4
330
18
100
AcDbEntity
  8
01
100
AcDbLine
 10
2414.474453275721
 20
-405.5431079162367
 30
0.0000000000563712
 11
2414.474453275721
 21
-413.5431079162367
 31
0.0000000000563712
  0
ARC
  5
1ACD5
330
18
100
AcDbEntity
  8
01
100
AcDbCircle
 10
2389.474453275721
 20
-655.541789603134
 30
0.0000000000563712
 40
25.0
100
AcDbArc
 50
25.91737595396663
 51
161.3370751150574
  0
LINE
  5
1ACD7
330
18
100
AcDbEntity
  8
01
100
AcDbLine
 10
2239.474453275721
 20
-630.541789603134
 30
0.0000000000563712
 11
2239.474453275721
 21
-680.541789603134
 31
0.0000000000563712
  0
LINE
  5
1ACD8
330
18
100
AcDbEntity
  8
01
100
AcDbLine
 10
2247.974453275721
 20
-680.041789603134
 30
0.0000000000563712
 11
2247.974453275721
 21
-631.041789603134
 31
0.0000000000563712
  0
LINE
  5
1ACD9
330
18
100
AcDbEntity
  8
01
100
AcDbLine
 10
2239.474453275721
 20
-680.541789603134
 30
0.0000000000563712
 11
2247.474453275721
 21
-680.541789603134
 31
0.0000000000563712
  0
LINE
  5
1ACDA
330
18
100
AcDbEntity
  8
01
100
AcDbLine
 10
2239.474453275721
 20
-630.541789603134
 30
0.0000000000563712
 11
2247.474453275721
 21
-630.541789603134
 31
0.0000000000563712
  0
LINE
  5
1ACDB
330
18
100
AcDbEntity
  8
01
100
AcDbLine
 10
2237.346167893291
 20
-655.541789603134
 30
0.0000000000563712
 11
2259.974453275721
 21
-655.541789603134
 31
0.0000000000563712
  0
LINE
  5
1ACDC
330
18
100
AcDbEntity
  8
01
100
AcDbLine
 10
2364.474453275721
 20
-405.5431079162367
 30
0.0000000000563712
 11
2414.474453275721
 21
-405.5431079162367
 31
0.0000000000563712
  0
LINE
  5
1ACDD
330
18
100
AcDbEntity
  8
01
  6
BYBLOCK
100
AcDbLine
 10
2338.475221118038
 20
-405.5431079162367
 30
0.0000000000563712
 11
2492.229601273069
 21
-405.5431079162367
 31
0.0000000000563712
  0
LINE
  5
1ACDE
330
18
100
AcDbEntity
  8
01
100
AcDbLine
 10
2389.474453275721
 20
-400.5431079162367
 30
0.0000000000563712
 11
2389.474453275721
 21
-427.0431079162367
 31
0.0000000000563712
  0
LINE
  5
1ACE4
330
18
100
AcDbEntity
  8
01
100
AcDbLine
 10
2239.474453275721
 20
-535.541789603134
 30
0.0000000000563712
 11
2239.474453275721
 21
-725.541789603134
 31
0.0000000000563712
  0
LINE
  5
1ACE5
330
18
100
AcDbEntity
  8
1CENTER
100
AcDbLine
 10
2253.974453275721
 20
-670.541789603134
 30
0.0000000000563712
 11
2253.974453275721
 21
-662.541789603134
 31
0.0000000000563712
  0
LINE
  5
1ACE6
330
18
100
AcDbEntity
  8
01
100
AcDbLine
 10
2359.474453275721
 20
-655.541789603134
 30
0.0000000000563712
 11
2419.474453275721
 21
-655.541789603134
 31
0.0000000000563712
  0
LINE
  5
1ACE7
330
18
100
AcDbEntity
  8
01
100
AcDbLine
 10
2389.474453275721
 20
-625.541789603134
 30
0.0000000000563712
 11
2389.474453275721
 21
-685.541789603134
 31
0.0000000000563712
  0
ARC
  5
1ACE8
330
18
100
AcDbEntity
  8
01
100
AcDbCircle
 10
2364.974453275721
 20
-413.5431079162367
 30
0.0000000000563712
 40
0.5
100
AcDbArc
 50
180.0
 51
270.0
  0
ARC
  5
1ACE9
330
18
100
AcDbEntity
  8
01
100
AcDbCircle
 10
2413.974453275721
 20
-413.5431079162367
 30
0.0000000000563712
 40
0.5
100
AcDbArc
 50
270.0
 51
0.0
  0
ARC
  5
1ACEA
330
18
100
AcDbEntity
  8
01
100
AcDbCircle
 10
2247.474453275721
 20
-631.041789603134
 30
0.0000000000563712
 40
0.5
100
AcDbArc
 50
0.0
 51
90.0
  0
ARC
  5
1ACEB
330
18
100
AcDbEntity
  8
01
100
AcDbCircle
 10
2247.474453275721
 20
-680.041789603134
 30
0.0000000000563712
 40
0.5
100
AcDbArc
 50
270.0
 51
0.0
  0
LINE
  5
1ACEC
330
18
100
AcDbEntity
  8
01
100
AcDbLine
 10
2400.47445088136
 20
-414.743107916237
 30
0.0000000000563712
 11
2399.020006131786
 21
-443.4683917203233
 31
0.0000000000563712
  0
LINE
  5
1ACED
330
18
100
AcDbEntity
  8
01
100
AcDbLine
 10
2378.474454330675
 20
-414.743107916237
 30
0.0000000000563712
 11
2379.928899080249
 21
-443.4683917203233
 31
0.0000000000563712
  0
ARC
  5
1ACEF
330
18
100
AcDbEntity
  8
01
100
AcDbCircle
 10
2454.47442517166
 20
-655.54212682773
 30
0.0000000000563712
 40
60.99999999999994
100
AcDbArc
 50
350.4059320301488
 51
9.594068226860351
  0
LINE
  5
1ACF0
330
18
100
AcDbEntity
  8
01
100
AcDbLine
 10
2512.474425171677
 20
-644.54212682773
 30
0.0000000000563712
 11
2513.635223002657
 21
-644.54212682773
 31
0.0000000000563712
  0
LINE
  5
1ACF1
330
18
100
AcDbEntity
  8
01
100
AcDbLine
 10
2512.474425171677
 20
-666.54212682773
 30
0.0000000000563712
 11
2513.635223276127
 21
-666.542126562355
 31
0.0000000000563712
  0
LINE
  5
1ACF2
330
18
100
AcDbEntity
  8
01
100
AcDbLine
 10
2512.474425171677
 20
-666.541452378538
 30
0.0000000000563712
 11
2512.474425171677
 21
-644.54212682773
 31
0.0000000000563712
  0
LINE
  5
1ACF3
330
18
100
AcDbEntity
  8
01
100
AcDbLine
 10
2513.635223002673
 20
-644.5428012769223
 30
0.0000000000563712
 11
2513.635223002675
 21
-666.5423720861447
 31
0.0000000000563712
  0
ARC
  5
1ACF4
330
18
100
AcDbEntity
  8
01
100
AcDbCircle
 10
2513.635223002657
 20
-645.54212682773
 30
0.0000000000563712
 40
0.9999999999999991
100
AcDbArc
 50
9.594068226862635
 51
90.0
  0
ARC
  5
1ACF5
330
18
100
AcDbEntity
  8
01
100
AcDbCircle
 10
2513.635223047513
 20
-665.542126562355
 30
0.0000000000563712
 40
0.9999999999999991
100
AcDbArc
 50
270.0000130986303
 51
350.4059320301568
  0
LINE
  5
1ACF6
330
18
100
AcDbEntity
  8
01
100
AcDbLine
 10
2514.621236299839
 20
-645.3754601610635
 30
0.0000000000563712
 11
2514.621236345444
 21
-665.7087932245986
 31
0.0000000000563712
  0
ARC
  5
1ACF7
330
18
100
AcDbEntity
  8
01
100
AcDbCircle
 10
2454.474425170224
 20
-454.2426546080801
 30
0.0000000000563712
 40
60.99999999999994
100
AcDbArc
 50
350.4059320301491
 51
9.594068226860351
  0
LINE
  5
1ACF8
330
18
100
AcDbEntity
  8
01
100
AcDbLine
 10
2512.474425170241
 20
-443.2426546080801
 30
0.0000000000563712
 11
2513.635223001221
 21
-443.2426546080801
 31
0.0000000000563712
  0
LINE
  5
1ACF9
330
18
100
AcDbEntity
  8
01
100
AcDbLine
 10
2512.474425170241
 20
-465.2426546080801
 30
0.0000000000563712
 11
2513.635223274691
 21
-465.2426543427048
 31
0.0000000000563712
  0
LINE
  5
1ACFA
330
18
100
AcDbEntity
  8
01
100
AcDbLine
 10
2512.474425170241
 20
-465.2419801588878
 30
0.0000000000563712
 11
2512.474425170241
 21
-456.2432201115937
 31
0.0000000000563712
  0
ARC
  5
1ACFB
330
18
100
AcDbEntity
  8
01
100
AcDbCircle
 10
2513.635223001221
 20
-444.2426546080801
 30
0.0000000000563712
 40
0.9999999999999991
100
AcDbArc
 50
9.59406822684658
 51
90.0
  0
ARC
  5
1ACFC
330
18
100
AcDbEntity
  8
01
100
AcDbCircle
 10
2513.635223046077
 20
-464.2426543427048
 30
0.0000000000563712
 40
0.9999999999999991
100
AcDbArc
 50
270.0000130986303
 51
350.4059320301473
  0
LINE
  5
1ACFD
330
18
100
AcDbEntity
  8
01
100
AcDbLine
 10
2512.474425170241
 20
-452.2432201115937
 30
0.0000000000563712
 11
2512.474425170241
 21
-443.2426546080801
 31
0.0000000000563712
  0
CIRCLE
  5
1ACFE
330
18
100
AcDbEntity
  8
01
100
AcDbCircle
 10
2288.174324297091
 20
-655.5417748077689
 30
0.0000000000563712
 40
7.999999999999993
  0
LINE
  5
1ACFF
330
18
100
AcDbEntity
  8
01
100
AcDbLine
 10
2510.94318779405
 20
-642.5531630696328
 30
0.0000000000563712
 11
2367.9431878114
 21
-645.5317723506337
 31
0.0000000000563712
  0
ARC
  5
1AD00
330
18
100
AcDbEntity
  8
01
100
AcDbCircle
 10
2367.974425189027
 20
-647.0314470574415
 30
0.0000000000563712
 40
1.499999999999999
100
AcDbArc
 50
91.19326619341551
 51
180.0
  0
ARC
  5
1AD01
330
18
100
AcDbEntity
  8
01
100
AcDbCircle
 10
2367.974425189027
 20
-664.0521321488266
 30
0.0000000000563712
 40
1.499999999999999
100
AcDbArc
 50
180.0
 51
268.8067338065845
  0
LINE
  5
1AD02
330
18
100
AcDbEntity
  8
01
100
AcDbLine
 10
2510.94318779405
 20
-668.5304161366353
 30
0.0000000000563712
 11
2367.943187811399
 21
-665.5518068556344
 31
0.0000000000563712
  0
ARC
  5
1AD03
330
18
100
AcDbEntity
  8
01
100
AcDbCircle
 10
2510.974425171677
 20
-667.0307414298275
 30
0.0000000000563712
 40
1.499999999999999
100
AcDbArc
 50
268.8067338065845
 51
359.9999999568701
  0
ARC
  5
1AD04
330
18
100
AcDbEntity
  8
01
100
AcDbCircle
 10
2510.974425171677
 20
-644.0528377764406
 30
0.0000000000563712
 40
1.499999999999999
100
AcDbArc
 50
0.0000000431385671
 51
91.19326619341551
  0
LINE
  5
1AD05
330
18
100
AcDbEntity
  8
01
100
AcDbLine
 10
2512.474425171677
 20
-667.0307414309568
 30
0.0000000000563712
 11
2512.474425171677
 21
-644.0528377753112
 31
0.0000000000563712
  0
LINE
  5
1AD06
330
18
100
AcDbEntity
  8
01
100
AcDbLine
 10
2366.474425189027
 20
-664.0521321488266
 30
0.0000000000563712
 11
2366.474425189027
 21
-647.0314470574415
 31
0.0000000000563712
  0
LINE
  5
1AD07
330
18
100
AcDbEntity
  8
01
100
AcDbLine
 10
2510.9425657139
 20
-441.4294415438635
 30
0.0000000000563712
 11
2398.859712707309
 21
-443.8105769036438
 31
0.0000000000563712
  0
ARC
  5
1AD08
330
18
100
AcDbEntity
  8
01
100
AcDbCircle
 10
2510.974425157307
 20
-442.9291031643188
 30
0.0000000000563712
 40
1.499999999999999
100
AcDbArc
 50
0.0000000795549174
 51
91.21703261321713
  0
LINE
  5
1AD09
330
18
100
AcDbEntity
  8
01
100
AcDbLine
 10
2512.474425188974
 20
-465.7326413277719
 30
0.0000000000563712
 11
2512.474425157307
 21
-442.9291031622361
 31
0.0000000000563712
  0
ARC
  5
1AD0A
330
18
100
AcDbEntity
  8
01
100
AcDbCircle
 10
2510.974425188974
 20
-465.7326413298549
 30
0.0000000000563712
 40
1.499999999999999
100
AcDbArc
 50
268.8065105760157
 51
0.0000000795636024
  0
LINE
  5
1AD0B
330
18
100
AcDbEntity
  8
01
100
AcDbLine
 10
2510.943181968451
 20
-467.2323159149471
 30
0.0000000000563712
 11
2367.943181968451
 21
-464.2531492482779
 31
0.0000000000563712
  0
ARC
  5
1AD0C
330
18
100
AcDbEntity
  8
01
100
AcDbCircle
 10
2367.974425188974
 20
-462.7534746631857
 30
0.0000000000563712
 40
1.499999999999999
100
AcDbArc
 50
179.9999999996787
 51
268.8065105760157
  0
LINE
  5
1AD0D
330
18
100
AcDbEntity
  8
01
100
AcDbLine
 10
2366.474425188974
 20
-462.7534746631773
 30
0.0000000000563712
 11
2366.474425189069
 21
-445.971205112769
 31
0.0000000000563712
  0
ARC
  5
1AD0E
330
18
100
AcDbEntity
  8
01
100
AcDbCircle
 10
2367.974425189069
 20
-445.9712051127744
 30
0.0000000000563712
 40
1.499999999999999
100
AcDbArc
 50
91.22657283730152
 51
180.0
  0
ARC
  5
1AD0F
330
18
100
AcDbEntity
  8
01
100
AcDbCircle
 10
2389.474478968107
 20
-655.5417534517178
 30
0.0000000000563712
 40
10.99999999999999
100
AcDbArc
 50
250.7167445361955
 51
286.8967230770086
  0
ARC
  5
1AD10
330
18
100
AcDbEntity
  8
01
100
AcDbCircle
 10
2389.474478968107
 20
-655.5417534517178
 30
0.0000000000563712
 40
10.99999999999999
100
AcDbArc
 50
73.1020643694754
 51
109.2844680173234
  0
LINE
  5
1AD11
330
18
100
AcDbEntity
  8
01
100
AcDbLine
 10
2366.474425189027
 20
-663.541789603134
 30
0.0000000000563712
 11
2366.474425189027
 21
-647.541789603134
 31
0.0000000000563712
  0
LINE
  5
1AD12
330
18
100
AcDbEntity
  8
01
100
AcDbLine
 10
2366.474425189027
 20
-647.541789603134
 30
0.0000000000563712
 11
2365.262049833154
 21
-647.541789603134
 31
0.0000000000563712
  0
LINE
  5
1AD13
330
18
100
AcDbEntity
  8
01
100
AcDbLine
 10
2366.474425189027
 20
-663.541789603134
 30
0.0000000000563712
 11
2365.262049833154
 21
-663.541789603134
 31
0.0000000000563712
  0
ARC
  5
1AD14
330
18
100
AcDbEntity
  8
01
100
AcDbCircle
 10
2395.974425189027
 20
-655.541789603134
 30
0.0000000000563712
 40
32.49999999999997
100
AcDbArc
 50
167.160411593096
 51
192.839588406904
  0
ARC
  5
1AD15
330
18
100
AcDbEntity
  8
01
100
AcDbCircle
 10
2365.262049833154
 20
-648.541789603134
 30
0.0000000000563712
 40
0.9999999999999991
100
AcDbArc
 50
90.0
 51
167.1604115930988
  0
ARC
  5
1AD16
330
18
100
AcDbEntity
  8
01
100
AcDbCircle
 10
2365.262049833154
 20
-662.541789603134
 30
0.0000000000563712
 40
0.9999999999999991
100
AcDbArc
 50
192.8395884069013
 51
270.0
  0
LINE
  5
1AD17
330
18
100
AcDbEntity
  8
01
100
AcDbLine
 10
2366.474425189033
 20
-462.2432200988537
 30
0.0000000000563712
 11
2366.474425189033
 21
-456.2432200988535
 31
0.0000000000563712
  0
LINE
  5
1AD18
330
18
100
AcDbEntity
  8
01
100
AcDbLine
 10
2366.474425189033
 20
-446.2432200988537
 30
0.0000000000563712
 11
2365.262049833161
 21
-446.2432200988537
 31
0.0000000000563712
  0
LINE
  5
1AD19
330
18
100
AcDbEntity
  8
01
100
AcDbLine
 10
2366.474425189033
 20
-462.2432200988537
 30
0.0000000000563712
 11
2365.262049833161
 21
-462.2432200988537
 31
0.0000000000563712
  0
ARC
  5
1AD1A
330
18
100
AcDbEntity
  8
01
100
AcDbCircle
 10
2395.974425189033
 20
-454.2432200988537
 30
0.0000000000563712
 40
32.49999999999997
100
AcDbArc
 50
167.1604115930961
 51
192.8395884069043
  0
ARC
  5
1AD1B
330
18
100
AcDbEntity
  8
01
100
AcDbCircle
 10
2365.262049833161
 20
-447.2432200988537
 30
0.0000000000563712
 40
0.9999999999999991
100
AcDbArc
 50
90.0
 51
167.1604115930988
  0
ARC
  5
1AD1C
330
18
100
AcDbEntity
  8
01
100
AcDbCircle
 10
2365.262049833161
 20
-461.2432200988537
 30
0.0000000000563712
 40
0.9999999999999991
100
AcDbArc
 50
192.8395884069013
 51
270.0
  0
LINE
  5
1AD1D
330
18
100
AcDbEntity
  8
01
100
AcDbLine
 10
2365.262049833154
 20
-663.541789603134
 30
0.0000000000563712
 11
2365.262049833154
 21
-647.541789603134
 31
0.0000000000563712
  0
LINE
  5
1AD1E
330
18
100
AcDbEntity
  8
01
100
AcDbLine
 10
2364.287053790111
 20
-648.3195673809118
 30
0.0000000000563712
 11
2364.287053790111
 21
-662.7640118253562
 31
0.0000000000563712
  0
LINE
  5
1AD1F
330
18
100
AcDbEntity
  8
01
100
AcDbLine
 10
2366.474425189033
 20
-452.2432200988535
 30
0.0000000000563712
 11
2366.474425189033
 21
-446.2432200988537
 31
0.0000000000563712
  0
ARC
  5
1AD20
330
18
100
AcDbEntity
  8
01
100
AcDbCircle
 10
2288.17436921372
 20
-655.541789603134
 30
0.0000000000563712
 40
12.98940048804001
100
AcDbArc
 50
226.6861302175791
 51
133.3138697824159
  0
LINE
  5
1AD21
330
18
100
AcDbEntity
  8
01
100
AcDbLine
 10
2277.886562294029
 20
-656.041789603134
 30
0.0000000000563712
 11
2280.189965512291
 21
-656.041789603134
 31
0.0000000000563712
  0
LINE
  5
1AD22
330
18
100
AcDbEntity
  8
01
100
AcDbLine
 10
2277.886562294029
 20
-655.041789603134
 30
0.0000000000563712
 11
2280.189963659247
 21
-655.041789603134
 31
0.0000000000563712
  0
ARC
  5
1AD23
330
18
100
AcDbEntity
  8
01
100
AcDbCircle
 10
2288.174398518012
 20
-655.5417552289355
 30
0.0000000000563712
 40
10.01019969986111
100
AcDbArc
 50
193.5662483604524
 51
166.4079013951059
  0
ARC
  5
1AD24
330
18
100
AcDbEntity
  8
01
100
AcDbCircle
 10
2279.902540417977
 20
-653.541789603134
 30
0.0000000000563712
 40
1.499999999999999
100
AcDbArc
 50
166.4079013951051
 51
270.0
  0
ARC
  5
1AD25
330
18
100
AcDbEntity
  8
01
100
AcDbCircle
 10
2279.902540417977
 20
-657.541789603134
 30
0.0000000000563712
 40
1.499999999999999
100
AcDbArc
 50
90.0
 51
193.5920986048949
  0
SPLINE
  5
1AD26
330
18
100
AcDbEntity
  8
1DIM
100
AcDbSpline
210
0.0
220
0.0
230
1.0
 70
    24
 71
     2
 72
     6
 73
     3
 74
     0
 42
0.000000001
 43
0.0000000001
 40
0.0
 40
0.0
 40
0.0
 40
2.403040355192207
 40
2.403040355192207
 40
2.403040355192207
 10
2248.674453275722
 20
-666.5417878784756
 30
0.0000000000563712
 10
2249.874436244721
 20
-666.4810292471338
 30
0.0000000000563712
 10
2251.07441921372
 20
-666.4202706157921
 30
0.0000000000563712
  0
SPLINE
  5
1AD27
330
18
100
AcDbEntity
  8
01
100
AcDbSpline
210
0.0
220
0.0
230
1.0
 70
     8
 71
     3
 72
    13
 73
     9
 74
     0
 42
0.000000001
 43
0.0000000001
 40
0.0
 40
0.0
 40
0.0
 40
0.0
 40
0.3879474476832277
 40
0.7869665927304699
 40
1.598787838576039
 40
3.116307526471713
 40
4.643351056422625
 40
6.295992173071872
 40
6.295992173071872
 40
6.295992173071872
 40
6.295992173071872
 10
2257.274419213721
 20
-666.1063465651596
 30
0.0000000000563712
 10
2257.148880975616
 20
-666.0752942640902
 30
0.0000000000563712
 10
2256.892862060876
 20
-666.0180382831622
 30
0.0000000000563712
 10
2256.369286179744
 20
-665.918048729508
 30
0.0000000000563712
 10
2255.467461069563
 20
-665.7962170023839
 30
0.0000000000563712
 10
2254.17865394926
 20
-665.7670217371624
 30
0.0000000000563712
 10
2252.621478941031
 20
-665.9657809782457
 30
0.0000000000563712
 10
2251.596520444524
 20
-666.2447632036801
 30
0.0000000000563712
 10
2251.07441921372
 20
-666.4202706157921
 30
0.0000000000563712
  0
ARC
  5
1AD28
330
18
100
AcDbEntity
  8
01
100
AcDbCircle
 10
2288.174419213719
 20
-655.541789603134
 30
0.0000000000563712
 40
10.29999999999999
100
AcDbArc
 50
125.2908608832188
 51
234.7091391167812
  0
LINE
  5
1AD29
330
18
100
AcDbEntity
  8
01
100
AcDbLine
 10
2248.474453275721
 20
-645.5417913277925
 30
0.0000000000563712
 11
2248.674453275722
 21
-645.5417913277925
 31
0.0000000000563712
  0
LINE
  5
1AD2A
330
18
100
AcDbEntity
  8
01
100
AcDbLine
 10
2248.474453275722
 20
-665.5417913277934
 30
0.0000000000563712
 11
2248.674453275722
 21
-665.5417913277934
 31
0.0000000000563712
  0
LINE
  5
1AD2B
330
18
100
AcDbEntity
  8
01
100
AcDbLine
 10
2248.674453275722
 20
-666.5417913277934
 30
0.0000000000563712
 11
2248.674453275722
 21
-644.5417913277925
 31
0.0000000000563712
  0
LINE
  5
1AD2C
330
18
100
AcDbEntity
  8
01
100
AcDbLine
 10
2248.474453275722
 20
-665.5417913277934
 30
0.0000000000563712
 11
2248.474453275721
 21
-645.5417913277925
 31
0.0000000000563712
  0
LINE
  5
1AD2D
330
18
100
AcDbEntity
  8
01
100
AcDbLine
 10
2248.674453275722
 20
-644.5417913277925
 30
0.0000000000563712
 11
2281.960246962224
 21
-646.2271479701467
 31
0.0000000000563712
  0
LINE
  5
1AD2E
330
18
100
AcDbEntity
  8
01
100
AcDbLine
 10
2248.674453275722
 20
-666.5417913277934
 30
0.0000000000563712
 11
2251.07441921372
 21
-666.4202706157921
 31
0.0000000000563712
  0
LINE
  5
1AD2F
330
18
100
AcDbEntity
  8
01
100
AcDbLine
 10
2257.274453275722
 20
-666.1063448405012
 30
0.0000000000563712
 11
2281.960246962223
 21
-664.8564312361214
 31
0.0000000000563712
  0
ARC
  5
1AD30
330
18
100
AcDbEntity
  8
01
100
AcDbCircle
 10
2281.934962896057
 20
-664.3570709293308
 30
0.0000000000563712
 40
0.4999999999999996
100
AcDbArc
 50
272.8985767992139
 51
54.70913911687413
  0
ARC
  5
1AD31
330
18
100
AcDbEntity
  8
01
100
AcDbCircle
 10
2281.934962896057
 20
-646.7265082769372
 30
0.0000000000563712
 40
0.4999999999999996
100
AcDbArc
 50
305.2908608832561
 51
87.10142320068206
  0
SPLINE
  5
1AD32
330
18
100
AcDbEntity
  8
01
100
AcDbSpline
210
0.0
220
0.0
230
1.0
 70
    12
 71
     2
 72
     6
 73
     3
 74
     0
 42
0.000000001
 43
0.0000000001
 40
0.0
 40
0.0
 40
0.0
 40
0.2796147364899398
 40
0.2796147364899398
 40
0.2796147364899398
 10
2398.930006180341
 20
-443.730203873451
 30
0.0000000000563712
 41
1.0
 10
2399.012439375617
 20
-443.612660046334
 30
0.0000000000563712
 41
0.9611676297947911
 10
2399.019960155721
 20
-443.4692891258392
 30
0.0000000000563712
 41
1.0
  0
SPLINE
  5
1AD34
330
18
100
AcDbEntity
  8
01
100
AcDbSpline
210
0.0
220
0.0
230
1.0
 70
    24
 71
     2
 72
     6
 73
     3
 74
     0
 42
0.000000001
 43
0.0000000001
 40
0.0
 40
0.0
 40
0.0
 40
0.1999999999999886
 40
0.1999999999999886
 40
0.1999999999999886
 10
2399.47445088136
 20
-414.743107916237
 30
0.0000000000563712
 10
2399.47445088136
 20
-414.6431079162371
 30
0.0000000000563712
 10
2399.47445088136
 20
-414.5431079162367
 30
0.0000000000563712
  0
SPLINE
  5
1AD35
330
18
100
AcDbEntity
  8
01
100
AcDbSpline
210
0.0
220
0.0
230
1.0
 70
    24
 71
     2
 72
     6
 73
     3
 74
     0
 42
0.000000001
 43
0.0000000001
 40
0.0
 40
0.0
 40
0.0
 40
20.0
 40
20.0
 40
20.0
 10
2399.47445088136
 20
-414.5431079162367
 30
0.0000000000563712
 10
2389.47445088136
 20
-414.5431079162367
 30
0.0000000000563712
 10
2379.47445088136
 20
-414.5431079162367
 30
0.0000000000563712
  0
SPLINE
  5
1AD36
330
18
100
AcDbEntity
  8
01
100
AcDbSpline
210
0.0
220
0.0
230
1.0
 70
    24
 71
     2
 72
     6
 73
     3
 74
     0
 42
0.000000001
 43
0.0000000001
 40
0.0
 40
0.0
 40
0.0
 40
0.1999999999999886
 40
0.1999999999999886
 40
0.1999999999999886
 10
2379.47445088136
 20
-414.5431079162367
 30
0.0000000000563712
 10
2379.47445088136
 20
-414.6431079162371
 30
0.0000000000563712
 10
2379.47445088136
 20
-414.743107916237
 30
0.0000000000563712
  0
SPLINE
  5
1AD37
330
18
100
AcDbEntity
  8
01
100
AcDbSpline
210
0.0
220
0.0
230
1.0
 70
    12
 71
     2
 72
     6
 73
     3
 74
     0
 42
0.000000001
 43
0.0000000001
 40
0.0
 40
0.0
 40
0.0
 40
0.4211368645163217
 40
0.4211368645163217
 40
0.4211368645163217
 10
2380.114663774675
 20
-443.8325433370082
 30
0.0000000000563712
 41
1.0
 10
2379.94022130854
 20
-443.6920738530312
 30
0.0000000000563712
 41
0.9126247819557877
 10
2379.928895644203
 20
-443.4683919824033
 30
0.0000000000563712
 41
1.0
  0
SPLINE
  5
1AD38
330
18
100
AcDbEntity
  8
01
100
AcDbSpline
210
0.0
220
0.0
230
1.0
 70
    12
 71
     2
 72
     6
 73
     3
 74
     0
 42
0.000000001
 43
0.0000000001
 40
0.0
 40
0.0
 40
0.0
 40
0.14008951014973
 40
0.14008951014973
 40
0.14008951014973
 10
2398.930006180341
 20
-443.7302038734515
 30
0.0000000000563712
 41
1.0
 10
2398.88952186534
 20
-443.7879290823803
 30
0.0000000000563712
 41
0.9902035017193848
 10
2398.834653578926
 20
-443.8322083173912
 30
0.0000000000563712
 41
1.0
  0
SPLINE
  5
1AD39
330
18
100
AcDbEntity
  8
01
100
AcDbSpline
210
0.0
220
0.0
230
1.0
 70
    24
 71
     2
 72
     6
 73
     3
 74
     0
 42
0.000000001
 43
0.0000000001
 40
0.0
 40
0.0
 40
0.0
 40
21.99932555080781
 40
21.99932555080781
 40
21.99932555080781
 10
2400.47445088136
 20
-414.743107916237
 30
0.0000000000563712
 10
2389.474788105956
 20
-414.743107916237
 30
0.0000000000563712
 10
2378.475125330552
 20
-414.743107916237
 30
0.0000000000563712
  0
LINE
  5
1AD3A
330
18
100
AcDbEntity
  8
01
100
AcDbLine
 10
2380.577504219164
 20
-444.2010167350618
 30
0.0000000000563712
 11
2367.942316039972
 21
-444.4715488179709
 31
0.0000000000563712
  0
LINE
  5
1AD3B
330
18
100
AcDbEntity
  8
1DIM
100
AcDbLine
 10
2031.474585615466
 20
-446.041789603134
 30
0.0000000000563712
 11
2031.474585615466
 21
-404.041789603134
 31
0.0000000000563712
  0
TEXT
  5
1AD3C
330
18
100
AcDbEntity
  8
1TEXT
100
AcDbText
 10
2086.174585615466
 20
-412.291789603134
 30
0.0
 40
6.0
  1
表面処理：握り
 72
     1
 11
2110.074585615466
 21
-412.291789603134
 31
0.0
100
AcDbText
  0
TEXT
  5
1AD3D
330
18
100
AcDbEntity
  8
1TEXT
100
AcDbText
 10
2085.874585615466
 20
-422.5447225924208
 30
0.0
 40
6.0
  1
ベージュレザー
 72
     1
 11
2110.074585615466
 21
-422.5447225924208
 31
0.0
100
AcDbText
  0
LINE
  5
1AD3E
330
18
100
AcDbEntity
  8
1DIM
100
AcDbLine
 10
2031.474585615466
 20
-404.041789603134
 30
0.0000000000563712
 11
2188.974585615466
 21
-404.041789603134
 31
0.0000000000563712
  0
LINE
  5
1AD3F
330
18
100
AcDbEntity
  8
1DIM
100
AcDbLine
 10
2031.474585615466
 20
-414.541789603134
 30
0.0000000000563712
 11
2188.974585615466
 21
-414.541789603134
 31
0.0000000000563712
  0
LINE
  5
1AD40
330
18
100
AcDbEntity
  8
1DIM
100
AcDbLine
 10
2031.474585615466
 20
-425.041789603134
 30
0.0000000000563712
 11
2188.974585615466
 21
-425.041789603134
 31
0.0000000000563712
  0
LINE
  5
1AD41
330
18
100
AcDbEntity
  8
1DIM
100
AcDbLine
 10
2031.474585615466
 20
-425.041789603134
 30
0.0000000000563712
 11
2188.974585615466
 21
-425.041789603134
 31
0.0000000000563712
  0
LINE
  5
1AD42
330
18
100
AcDbEntity
  8
1DIM
100
AcDbLine
 10
2136.474585615466
 20
-404.041789603134
 30
0.0000000000563712
 11
2136.474585615466
 21
-425.041789603134
 31
0.0000000000563712
  0
TEXT
  5
1AD44
330
18
100
AcDbEntity
  8
1TEXT
100
AcDbText
 10
2152.274585615466
 20
-412.291789603134
 30
0.0
 40
6.0
  1
コード
 72
     1
 11
2162.574585615466
 21
-412.291789603134
 31
0.0
100
AcDbText
  0
LINE
  5
1AD45
330
18
100
AcDbEntity
  8
1DIM
100
AcDbLine
 10
2188.974585615466
 20
-509.041789603134
 30
0.0000000000563712
 11
2188.974585615466
 21
-404.041789603134
 31
0.0000000000563712
  0
TEXT
  5
1AD46
330
18
100
AcDbEntity
  8
1TEXT
100
AcDbText
 10
2032.874585615466
 20
-412.291789603134
 30
0.0
 40
6.0
  1
表面処理：脚部
 72
     1
 11
2057.574585615466
 21
-412.291789603134
 31
0.0
100
AcDbText
  0
TEXT
  5
1AD47
330
18
100
AcDbEntity
  8
1TEXT
100
AcDbText
 10
2043.374585615466
 20
-422.5447225924208
 30
0.0
 40
6.0
  1
クローム
 72
     1
 11
2057.574585615466
 21
-422.5447225924208
 31
0.0
100
AcDbText
  0
LINE
  5
1AD48
330
18
100
AcDbEntity
  8
1DIM
100
AcDbLine
 10
2031.474585615466
 20
-425.041789603134
 30
0.0000000000563712
 11
2188.974585615466
 21
-425.041789603134
 31
0.0000000000563712
  0
LINE
  5
1AD49
330
18
100
AcDbEntity
  8
1DIM
100
AcDbLine
 10
2136.474585615466
 20
-425.041789603134
 30
0.0000000000563712
 11
2136.474585615466
 21
-435.541789603134
 31
0.0000000000563712
  0
LINE
  5
1AD4A
330
18
100
AcDbEntity
  8
1DIM
100
AcDbLine
 10
2031.474585615466
 20
-435.541789603134
 30
0.0000000000563712
 11
2188.974585615466
 21
-435.541789603134
 31
0.0000000000563712
  0
LINE
  5
1AD4B
330
18
100
AcDbEntity
  8
1DIM
100
AcDbLine
 10
2083.974585615466
 20
-435.541789603134
 30
0.0000000000563712
 11
2083.974585615466
 21
-425.041789603134
 31
0.0000000000563712
  0
TEXT
  5
1AD4E
330
18
100
AcDbEntity
  8
1TEXT
100
AcDbText
 10
2032.774585615466
 20
-433.0081600204903
 30
0.0
 40
6.0
  1
サテンニッケル
 72
     1
 11
2057.574585615466
 21
-433.0081600204903
 31
0.0
100
AcDbText
  0
LINE
  5
1AD4F
330
18
100
AcDbEntity
  8
1DIM
100
AcDbLine
 10
2031.474585615466
 20
-435.541789603134
 30
0.0000000000563712
 11
2031.474585615466
 21
-425.041789603134
 31
0.0000000000563712
  0
LINE
  5
1AD50
330
18
100
AcDbEntity
  8
1DIM
100
AcDbLine
 10
2031.474585615466
 20
-425.041789603134
 30
0.0000000000563712
 11
2031.474585615466
 21
-404.041789603134
 31
0.0000000000563712
  0
LINE
  5
1AD51
330
18
100
AcDbEntity
  8
1DIM
100
AcDbLine
 10
2083.974585615466
 20
-425.041789603134
 30
0.0000000000563712
 11
2083.974585615466
 21
-404.041789603134
 31
0.0000000000563712
  0
LINE
  5
1AD52
330
18
100
AcDbEntity
  8
1DIM
100
AcDbLine
 10
2136.474585615466
 20
-435.541789603134
 30
0.0000000000563712
 11
2136.474585615466
 21
-509.041789603134
 31
0.0000000000563712
  0
LINE
  5
1AD53
330
18
100
AcDbEntity
  8
1DIM
100
AcDbLine
 10
2031.474585615466
 20
-446.041789603134
 30
0.0000000000563712
 11
2188.974585615466
 21
-446.041789603134
 31
0.0000000000563712
  0
LINE
  5
1AD54
330
18
100
AcDbEntity
  8
1DIM
100
AcDbLine
 10
2083.974585615466
 20
-509.041789603134
 30
0.0000000000563712
 11
2083.974585615466
 21
-435.541789603134
 31
0.0000000000563712
  0
TEXT
  5
1AD57
330
18
100
AcDbEntity
  8
1TEXT
100
AcDbText
 10
2033.374585615466
 20
-443.5081600204903
 30
0.0
 40
6.0
  1
パールブラック
 72
     1
 11
2057.574585615466
 21
-443.5081600204903
 31
0.0
100
AcDbText
  0
LINE
  5
1AD58
330
18
100
AcDbEntity
  8
1DIM
100
AcDbLine
 10
2031.474585615466
 20
-509.041789603134
 30
0.0000000000563712
 11
2031.474585615466
 21
-435.541789603134
 31
0.0000000000563712
  0
TEXT
  5
1AD59
330
18
100
AcDbEntity
  8
1TEXT
100
AcDbText
 10
2085.874585615466
 20
-433.0447225924208
 30
0.0
 40
6.0
  1
ベージュレザー
 72
     1
 11
2110.074585615466
 21
-433.0447225924208
 31
0.0
100
AcDbText
  0
TEXT
  5
1AD5A
330
18
100
AcDbEntity
  8
1TEXT
100
AcDbText
 10
2085.874585615466
 20
-443.5447225924208
 30
0.0
 40
6.0
  1
ベージュレザー
 72
     1
 11
2110.074585615466
 21
-443.5447225924208
 31
0.0
100
AcDbText
  0
TEXT
  5
1AD5B
330
18
100
AcDbEntity
  8
1TEXT
100
AcDbText
 10
2085.504585615466
 20
-454.0447225924208
 30
0.0
 40
6.0
  1
ダークブラウンレザー
 41
0.6999999999999998
 72
     1
 11
2110.074585615466
 21
-454.0447225924208
 31
0.0
100
AcDbText
  0
LINE
  5
1AD5C
330
18
100
AcDbEntity
  8
1DIM
100
AcDbLine
 10
2031.474585615466
 20
-456.541789603134
 30
0.0000000000563712
 11
2188.974585615466
 21
-456.541789603134
 31
0.0000000000563712
  0
LINE
  5
1AD5D
330
18
100
AcDbEntity
  8
1DIM
100
AcDbLine
 10
2031.474585615466
 20
-456.541789603134
 30
0.0000000000563712
 11
2188.974585615466
 21
-456.541789603134
 31
0.0000000000563712
  0
TEXT
  5
1AD5F
330
18
100
AcDbEntity
  8
1TEXT
100
AcDbText
 10
2043.374585615466
 20
-454.0447225924208
 30
0.0
 40
6.0
  1
クローム
 72
     1
 11
2057.574585615466
 21
-454.0447225924208
 31
0.0
100
AcDbText
  0
LINE
  5
1AD60
330
18
100
AcDbEntity
  8
1DIM
100
AcDbLine
 10
2031.474585615466
 20
-456.541789603134
 30
0.0000000000563712
 11
2188.974585615466
 21
-456.541789603134
 31
0.0000000000563712
  0
LINE
  5
1AD61
330
18
100
AcDbEntity
  8
1DIM
100
AcDbLine
 10
2031.474585615466
 20
-467.041789603134
 30
0.0000000000563712
 11
2188.974585615466
 21
-467.041789603134
 31
0.0000000000563712
  0
TEXT
  5
1AD63
330
18
100
AcDbEntity
  8
1TEXT
100
AcDbText
 10
2032.774585615466
 20
-464.5081600204903
 30
0.0
 40
6.0
  1
サテンニッケル
 72
     1
 11
2057.574585615466
 21
-464.5081600204903
 31
0.0
100
AcDbText
  0
LINE
  5
1AD64
330
18
100
AcDbEntity
  8
1DIM
100
AcDbLine
 10
2031.474585615466
 20
-477.541789603134
 30
0.0000000000563712
 11
2188.974585615466
 21
-477.541789603134
 31
0.0000000000563712
  0
TEXT
  5
1AD66
330
18
100
AcDbEntity
  8
1TEXT
100
AcDbText
 10
2033.374585615466
 20
-475.0081600204903
 30
0.0
 40
6.0
  1
パールブラック
 72
     1
 11
2057.574585615466
 21
-475.0081600204903
 31
0.0
100
AcDbText
  0
TEXT
  5
1AD67
330
18
100
AcDbEntity
  8
1TEXT
100
AcDbText
 10
2085.774585615466
 20
-485.5447225924208
 30
0.0
 40
6.0
  1
ブラックレザー
 72
     1
 11
2110.074585615466
 21
-485.5447225924208
 31
0.0
100
AcDbText
  0
LINE
  5
1AD68
330
18
100
AcDbEntity
  8
1DIM
100
AcDbLine
 10
2031.474585615466
 20
-488.041789603134
 30
0.0000000000563712
 11
2188.974585615466
 21
-488.041789603134
 31
0.0000000000563712
  0
LINE
  5
1AD69
330
18
100
AcDbEntity
  8
1DIM
100
AcDbLine
 10
2031.474585615466
 20
-488.041789603134
 30
0.0000000000563712
 11
2188.974585615466
 21
-488.041789603134
 31
0.0000000000563712
  0
TEXT
  5
1AD6B
330
18
100
AcDbEntity
  8
1TEXT
100
AcDbText
 10
2043.374585615466
 20
-485.5447225924208
 30
0.0
 40
6.0
  1
クローム
 72
     1
 11
2057.574585615466
 21
-485.5447225924208
 31
0.0
100
AcDbText
  0
LINE
  5
1AD6C
330
18
100
AcDbEntity
  8
1DIM
100
AcDbLine
 10
2031.474585615466
 20
-488.041789603134
 30
0.0000000000563712
 11
2188.974585615466
 21
-488.041789603134
 31
0.0000000000563712
  0
LINE
  5
1AD6D
330
18
100
AcDbEntity
  8
1DIM
100
AcDbLine
 10
2031.474585615466
 20
-498.541789603134
 30
0.0000000000563712
 11
2188.974585615466
 21
-498.541789603134
 31
0.0000000000563712
  0
TEXT
  5
1AD6F
330
18
100
AcDbEntity
  8
1TEXT
100
AcDbText
 10
2032.774585615466
 20
-496.0081600204903
 30
0.0
 40
6.0
  1
サテンニッケル
 72
     1
 11
2057.574585615466
 21
-496.0081600204903
 31
0.0
100
AcDbText
  0
LINE
  5
1AD70
330
18
100
AcDbEntity
  8
1DIM
100
AcDbLine
 10
2031.474585615466
 20
-509.041789603134
 30
0.0000000000563712
 11
2188.974585615466
 21
-509.041789603134
 31
0.0000000000563712
  0
TEXT
  5
1AD72
330
18
100
AcDbEntity
  8
1TEXT
100
AcDbText
 10
2033.374585615466
 20
-506.5081600204903
 30
0.0
 40
6.0
  1
パールブラック
 72
     1
 11
2057.574585615466
 21
-506.5081600204903
 31
0.0
100
AcDbText
  0
TEXT
  5
1AD73
330
18
100
AcDbEntity
  8
1TEXT
100
AcDbText
 10
2085.504585615466
 20
-464.5447225924208
 30
0.0
 40
6.0
  1
ダークブラウンレザー
 41
0.6999999999999998
 72
     1
 11
2110.074585615466
 21
-464.5447225924208
 31
0.0
100
AcDbText
  0
TEXT
  5
1AD74
330
18
100
AcDbEntity
  8
1TEXT
100
AcDbText
 10
2085.774585615466
 20
-496.0447225924208
 30
0.0
 40
6.0
  1
ブラックレザー
 72
     1
 11
2110.074585615466
 21
-496.0447225924208
 31
0.0
100
AcDbText
  0
TEXT
  5
1AD75
330
18
100
AcDbEntity
  8
1TEXT
100
AcDbText
 10
2085.504585615466
 20
-475.0447225924208
 30
0.0
 40
6.0
  1
ダークブラウンレザー
 41
0.6999999999999998
 72
     1
 11
2110.074585615466
 21
-475.0447225924208
 31
0.0
100
AcDbText
  0
TEXT
  5
1AD76
330
18
100
AcDbEntity
  8
1TEXT
100
AcDbText
 10
2085.774585615466
 20
-506.5447225924208
 30
0.0
 40
6.0
  1
ブラックレザー
 72
     1
 11
2110.074585615466
 21
-506.5447225924208
 31
0.0
100
AcDbText
  0
ARC
  5
1AD77
330
18
100
AcDbEntity
  8
01
100
AcDbCircle
 10
2049.474685955211
 20
-655.541789603134
 30
0.0000000000563712
 40
25.0
100
AcDbArc
 50
205.9173759539666
 51
154.0826240460331
  0
LINE
  5
1AD78
330
18
100
AcDbEntity
  8
1CENTER
100
AcDbLine
 10
2184.974685955211
 20
-670.541789603134
 30
0.0000000000563712
 11
2184.974685955211
 21
-662.541789603134
 31
0.0000000000563712
  0
ARC
  5
1AD79
330
18
100
AcDbEntity
  8
01
100
AcDbCircle
 10
1984.474714059272
 20
-655.54212682773
 30
0.0000000000563712
 40
60.99999999999994
100
AcDbArc
 50
170.4059317731397
 51
189.5940679698512
  0
LINE
  5
1AD7A
330
18
100
AcDbEntity
  8
01
100
AcDbLine
 10
1926.474714059254
 20
-644.54212682773
 30
0.0000000000563712
 11
1925.313916228275
 21
-644.54212682773
 31
0.0000000000563712
  0
LINE
  5
1AD7B
330
18
100
AcDbEntity
  8
01
100
AcDbLine
 10
1926.474714059254
 20
-666.54212682773
 30
0.0000000000563712
 11
1925.313915954805
 21
-666.542126562355
 31
0.0000000000563712
  0
LINE
  5
1AD7C
330
18
100
AcDbEntity
  8
01
100
AcDbLine
 10
1926.474714059254
 20
-666.541452378538
 30
0.0000000000563712
 11
1926.474714059254
 21
-644.54212682773
 31
0.0000000000563712
  0
LINE
  5
1AD7D
330
18
100
AcDbEntity
  8
01
100
AcDbLine
 10
1925.313916228259
 20
-644.5428012769223
 30
0.0000000000563712
 11
1925.313916228257
 21
-666.5423720861447
 31
0.0000000000563712
  0
ARC
  5
1AD7E
330
18
100
AcDbEntity
  8
01
100
AcDbCircle
 10
1925.313916228275
 20
-645.54212682773
 30
0.0000000000563712
 40
0.9999999999999991
100
AcDbArc
 50
90.0
 51
170.4059317731352
  0
ARC
  5
1AD7F
330
18
100
AcDbEntity
  8
01
100
AcDbCircle
 10
1925.313916183419
 20
-665.542126562355
 30
0.0000000000563712
 40
0.9999999999999991
100
AcDbArc
 50
189.5940679698453
 51
269.9999869013697
  0
LINE
  5
1AD80
330
18
100
AcDbEntity
  8
01
100
AcDbLine
 10
1924.327902931092
 20
-645.3754601610635
 30
0.0000000000563712
 11
1924.327902885488
 21
-665.7087932245986
 31
0.0000000000563712
  0
CIRCLE
  5
1AD81
330
18
100
AcDbEntity
  8
01
100
AcDbCircle
 10
2150.774814933841
 20
-655.5417748077689
 30
0.0000000000563712
 40
7.999999999999993
  0
LINE
  5
1AD82
330
18
100
AcDbEntity
  8
01
100
AcDbLine
 10
1928.005951436882
 20
-642.5531630696328
 30
0.0000000000563712
 11
2071.005951419532
 21
-645.5317723506337
 31
0.0000000000563712
  0
ARC
  5
1AD83
330
18
100
AcDbEntity
  8
01
100
AcDbCircle
 10
2070.974714041905
 20
-647.0314470574415
 30
0.0000000000563712
 40
1.499999999999999
100
AcDbArc
 50
0.0
 51
88.8067338065845
  0
ARC
  5
1AD84
330
18
100
AcDbEntity
  8
01
100
AcDbCircle
 10
2070.974714041905
 20
-664.0521321488266
 30
0.0000000000563712
 40
1.499999999999999
100
AcDbArc
 50
271.1932661934155
 51
0.0
  0
LINE
  5
1AD85
330
18
100
AcDbEntity
  8
01
100
AcDbLine
 10
1928.005951436882
 20
-668.5304161366353
 30
0.0000000000563712
 11
2071.005951419533
 21
-665.5518068556344
 31
0.0000000000563712
  0
ARC
  5
1AD86
330
18
100
AcDbEntity
  8
01
100
AcDbCircle
 10
1927.974714059254
 20
-667.0307414298275
 30
0.0000000000563712
 40
1.499999999999999
100
AcDbArc
 50
180.0000000431299
 51
271.1932661934155
  0
ARC
  5
1AD87
330
18
100
AcDbEntity
  8
01
100
AcDbCircle
 10
1927.974714059254
 20
-644.0528377764406
 30
0.0000000000563712
 40
1.499999999999999
100
AcDbArc
 50
88.8067338065845
 51
179.9999999568614
  0
LINE
  5
1AD88
330
18
100
AcDbEntity
  8
01
100
AcDbLine
 10
1926.474714059254
 20
-667.0307414309568
 30
0.0000000000563712
 11
1926.474714059254
 21
-644.0528377753112
 31
0.0000000000563712
  0
LINE
  5
1AD89
330
18
100
AcDbEntity
  8
01
100
AcDbLine
 10
2072.474714041905
 20
-664.0521321488266
 30
0.0000000000563712
 11
2072.474714041905
 21
-647.0314470574415
 31
0.0000000000563712
  0
ARC
  5
1AD8A
330
18
100
AcDbEntity
  8
01
100
AcDbCircle
 10
2049.474660262825
 20
-655.5417534517178
 30
0.0000000000563712
 40
10.99999999999999
100
AcDbArc
 50
253.1032769229914
 51
289.2832554638044
  0
ARC
  5
1AD8B
330
18
100
AcDbEntity
  8
01
100
AcDbCircle
 10
2049.474660262825
 20
-655.5417534517178
 30
0.0000000000563712
 40
10.99999999999999
100
AcDbArc
 50
70.71553198267657
 51
106.8979356305246
  0
LINE
  5
1AD8C
330
18
100
AcDbEntity
  8
01
100
AcDbLine
 10
2072.474714041905
 20
-663.541789603134
 30
0.0000000000563712
 11
2072.474714041905
 21
-647.541789603134
 31
0.0000000000563712
  0
LINE
  5
1AD8D
330
18
100
AcDbEntity
  8
01
100
AcDbLine
 10
2072.474714041905
 20
-647.541789603134
 30
0.0000000000563712
 11
2073.687089397778
 21
-647.541789603134
 31
0.0000000000563712
  0
LINE
  5
1AD8E
330
18
100
AcDbEntity
  8
01
100
AcDbLine
 10
2072.474714041905
 20
-663.541789603134
 30
0.0000000000563712
 11
2073.687089397778
 21
-663.541789603134
 31
0.0000000000563712
  0
ARC
  5
1AD8F
330
18
100
AcDbEntity
  8
01
100
AcDbCircle
 10
2042.974714041905
 20
-655.541789603134
 30
0.0000000000563712
 40
32.49999999999997
100
AcDbArc
 50
347.160411593096
 51
12.83958840690399
  0
ARC
  5
1AD90
330
18
100
AcDbEntity
  8
01
100
AcDbCircle
 10
2073.687089397778
 20
-648.541789603134
 30
0.0000000000563712
 40
0.9999999999999991
100
AcDbArc
 50
12.83958840690125
 51
90.0
  0
ARC
  5
1AD91
330
18
100
AcDbEntity
  8
01
100
AcDbCircle
 10
2073.687089397778
 20
-662.541789603134
 30
0.0000000000563712
 40
0.9999999999999991
100
AcDbArc
 50
270.0
 51
347.1604115930987
  0
LINE
  5
1AD92
330
18
100
AcDbEntity
  8
01
100
AcDbLine
 10
2073.687089397778
 20
-663.541789603134
 30
0.0000000000563712
 11
2073.687089397778
 21
-647.541789603134
 31
0.0000000000563712
  0
LINE
  5
1AD93
330
18
100
AcDbEntity
  8
01
100
AcDbLine
 10
2074.662085440821
 20
-648.3195673809118
 30
0.0000000000563712
 11
2074.662085440821
 21
-662.7640118253562
 31
0.0000000000563712
  0
ARC
  5
1AD94
330
18
100
AcDbEntity
  8
01
100
AcDbCircle
 10
2150.774770017212
 20
-655.541789603134
 30
0.0000000000563712
 40
12.98940048804001
100
AcDbArc
 50
46.68613021758412
 51
313.3138697824209
  0
LINE
  5
1AD95
330
18
100
AcDbEntity
  8
01
100
AcDbLine
 10
2161.062576936903
 20
-656.041789603134
 30
0.0000000000563712
 11
2158.759173718641
 21
-656.041789603134
 31
0.0000000000563712
  0
LINE
  5
1AD96
330
18
100
AcDbEntity
  8
01
100
AcDbLine
 10
2161.062576936903
 20
-655.041789603134
 30
0.0000000000563712
 11
2158.759175571685
 21
-655.041789603134
 31
0.0000000000563712
  0
ARC
  5
1AD97
330
18
100
AcDbEntity
  8
01
100
AcDbCircle
 10
2150.77474071292
 20
-655.5417552289355
 30
0.0000000000563712
 40
10.01019969986111
100
AcDbArc
 50
13.59209860489415
 51
346.4337516395476
  0
ARC
  5
1AD98
330
18
100
AcDbEntity
  8
01
100
AcDbCircle
 10
2159.046598812955
 20
-653.541789603134
 30
0.0000000000563712
 40
1.499999999999999
100
AcDbArc
 50
270.0
 51
13.59209860489491
  0
ARC
  5
1AD99
330
18
100
AcDbEntity
  8
01
100
AcDbCircle
 10
2159.046598812955
 20
-657.541789603134
 30
0.0000000000563712
 40
1.499999999999999
100
AcDbArc
 50
346.4079013951051
 51
90.0
  0
SPLINE
  5
1AD9A
330
18
100
AcDbEntity
  8
1DIM
100
AcDbSpline
210
0.0
220
0.0
230
1.0
 70
    24
 71
     2
 72
     6
 73
     3
 74
     0
 42
0.000000001
 43
0.0000000001
 40
0.0
 40
0.0
 40
0.0
 40
2.403040355192207
 40
2.403040355192207
 40
2.403040355192207
 10
2190.27468595521
 20
-666.5417878784756
 30
0.0000000000563712
 10
2189.07470298621
 20
-666.4810292471338
 30
0.0000000000563712
 10
2187.874720017212
 20
-666.4202706157921
 30
0.0000000000563712
  0
SPLINE
  5
1AD9B
330
18
100
AcDbEntity
  8
01
100
AcDbSpline
210
0.0
220
0.0
230
1.0
 70
     8
 71
     3
 72
    13
 73
     9
 74
     0
 42
0.000000001
 43
0.0000000001
 40
0.0
 40
0.0
 40
0.0
 40
0.0
 40
0.3879474476832277
 40
0.7869665927304699
 40
1.598787838576039
 40
3.116307526471713
 40
4.643351056422625
 40
6.295992173071872
 40
6.295992173071872
 40
6.295992173071872
 40
6.295992173071872
 10
2181.674720017211
 20
-666.1063465651596
 30
0.0000000000563712
 10
2181.800258255316
 20
-666.0752942640902
 30
0.0000000000563712
 10
2182.056277170056
 20
-666.0180382831622
 30
0.0000000000563712
 10
2182.579853051188
 20
-665.918048729508
 30
0.0000000000563712
 10
2183.481678161369
 20
-665.7962170023839
 30
0.0000000000563712
 10
2184.770485281671
 20
-665.7670217371624
 30
0.0000000000563712
 10
2186.327660289901
 20
-665.9657809782457
 30
0.0000000000563712
 10
2187.352618786408
 20
-666.2447632036801
 30
0.0000000000563712
 10
2187.874720017212
 20
-666.4202706157921
 30
0.0000000000563712
  0
ARC
  5
1AD9C
330
18
100
AcDbEntity
  8
01
100
AcDbCircle
 10
2150.774720017213
 20
-655.541789603134
 30
0.0000000000563712
 40
10.29999999999999
100
AcDbArc
 50
305.2908608832188
 51
54.70913911678117
  0
LINE
  5
1AD9D
330
18
100
AcDbEntity
  8
01
100
AcDbLine
 10
2190.474685955211
 20
-645.5417913277925
 30
0.0000000000563712
 11
2190.27468595521
 21
-645.5417913277925
 31
0.0000000000563712
  0
LINE
  5
1AD9E
330
18
100
AcDbEntity
  8
01
100
AcDbLine
 10
2190.47468595521
 20
-665.5417913277934
 30
0.0000000000563712
 11
2190.27468595521
 21
-665.5417913277934
 31
0.0000000000563712
  0
LINE
  5
1AD9F
330
18
100
AcDbEntity
  8
01
100
AcDbLine
 10
2190.27468595521
 20
-666.5417913277934
 30
0.0000000000563712
 11
2190.27468595521
 21
-644.5417913277925
 31
0.0000000000563712
  0
LINE
  5
1ADA0
330
18
100
AcDbEntity
  8
01
100
AcDbLine
 10
2190.47468595521
 20
-665.5417913277934
 30
0.0000000000563712
 11
2190.474685955211
 21
-645.5417913277925
 31
0.0000000000563712
  0
LINE
  5
1ADA1
330
18
100
AcDbEntity
  8
01
100
AcDbLine
 10
2190.27468595521
 20
-644.5417913277925
 30
0.0000000000563712
 11
2156.988892268708
 21
-646.2271479701467
 31
0.0000000000563712
  0
LINE
  5
1ADA2
330
18
100
AcDbEntity
  8
01
100
AcDbLine
 10
2190.27468595521
 20
-666.5417913277934
 30
0.0000000000563712
 11
2187.874720017212
 21
-666.4202706157921
 31
0.0000000000563712
  0
LINE
  5
1ADA3
330
18
100
AcDbEntity
  8
01
100
AcDbLine
 10
2181.674685955209
 20
-666.1063448405012
 30
0.0000000000563712
 11
2156.988892268709
 21
-664.8564312361214
 31
0.0000000000563712
  0
ARC
  5
1ADA4
330
18
100
AcDbEntity
  8
01
100
AcDbCircle
 10
2157.014176334875
 20
-664.3570709293308
 30
0.0000000000563712
 40
0.4999999999999996
100
AcDbArc
 50
125.2908608831259
 51
267.1014232007861
  0
ARC
  5
1ADA5
330
18
100
AcDbEntity
  8
01
100
AcDbCircle
 10
2157.014176334875
 20
-646.7265082769372
 30
0.0000000000563712
 40
0.4999999999999996
100
AcDbArc
 50
92.89857679931795
 51
234.7091391167439
  0
LINE
  5
1ADA6
330
18
100
AcDbEntity
  8
01
100
AcDbLine
 10
2400.47445088136
 20
-356.1404712920885
 30
0.0000000000563712
 11
2399.020006131786
 21
-327.4151874880022
 31
0.0000000000563712
  0
LINE
  5
1ADA7
330
18
100
AcDbEntity
  8
01
100
AcDbLine
 10
2378.474454330675
 20
-356.1404712920885
 30
0.0000000000563712
 11
2379.928899080249
 21
-327.4151874880022
 31
0.0000000000563712
  0
ARC
  5
1ADA9
330
18
100
AcDbEntity
  8
01
100
AcDbCircle
 10
2454.474425170224
 20
-316.6409246002454
 30
0.0000000000563712
 40
60.99999999999994
100
AcDbArc
 50
350.4059317731396
 51
9.594067969850846
  0
LINE
  5
1ADAA
330
18
100
AcDbEntity
  8
01
100
AcDbLine
 10
2512.474425170241
 20
-327.6409246002454
 30
0.0000000000563712
 11
2513.635223001221
 21
-327.6409246002454
 31
0.0000000000563712
  0
LINE
  5
1ADAB
330
18
100
AcDbEntity
  8
01
100
AcDbLine
 10
2512.474425170241
 20
-305.6409246002454
 30
0.0000000000563712
 11
2513.635223274691
 21
-305.6409248656207
 31
0.0000000000563712
  0
LINE
  5
1ADAC
330
18
100
AcDbEntity
  8
01
100
AcDbLine
 10
2512.474425170241
 20
-305.6415990494377
 30
0.0000000000563712
 11
2512.474425170241
 21
-314.6403590967318
 31
0.0000000000563712
  0
ARC
  5
1ADAD
330
18
100
AcDbEntity
  8
01
100
AcDbCircle
 10
2513.635223001221
 20
-326.6409246002454
 30
0.0000000000563712
 40
0.9999999999999991
100
AcDbArc
 50
270.0
 51
350.4059317731534
  0
ARC
  5
1ADAE
330
18
100
AcDbEntity
  8
01
100
AcDbCircle
 10
2513.635223046077
 20
-306.6409248656207
 30
0.0000000000563712
 40
0.9999999999999991
100
AcDbArc
 50
9.594067969852782
 51
89.9999869013697
  0
LINE
  5
1ADAF
330
18
100
AcDbEntity
  8
01
100
AcDbLine
 10
2512.474425170241
 20
-318.6403590967318
 30
0.0000000000563712
 11
2512.474425170241
 21
-327.6409246002454
 31
0.0000000000563712
  0
LINE
  5
1ADB0
330
18
100
AcDbEntity
  8
01
100
AcDbLine
 10
2510.9425657139
 20
-329.454137664462
 30
0.0000000000563712
 11
2398.859712707309
 21
-327.0730023046817
 31
0.0000000000563712
  0
ARC
  5
1ADB1
330
18
100
AcDbEntity
  8
01
100
AcDbCircle
 10
2510.974425157307
 20
-327.9544760440067
 30
0.0000000000563712
 40
1.499999999999999
100
AcDbArc
 50
268.7829673867828
 51
359.9999999204451
  0
LINE
  5
1ADB2
330
18
100
AcDbEntity
  8
01
100
AcDbLine
 10
2512.474425188974
 20
-305.1509378805536
 30
0.0000000000563712
 11
2512.474425157307
 21
-327.9544760460894
 31
0.0000000000563712
  0
ARC
  5
1ADB3
330
18
100
AcDbEntity
  8
01
100
AcDbCircle
 10
2510.974425188974
 20
-305.1509378784706
 30
0.0000000000563712
 40
1.499999999999999
100
AcDbArc
 50
359.9999999204364
 51
91.1934894239842
  0
LINE
  5
1ADB4
330
18
100
AcDbEntity
  8
01
100
AcDbLine
 10
2510.943181968451
 20
-303.6512632933784
 30
0.0000000000563712
 11
2367.943181968451
 21
-306.6304299600476
 31
0.0000000000563712
  0
ARC
  5
1ADB5
330
18
100
AcDbEntity
  8
01
100
AcDbCircle
 10
2367.974425188974
 20
-308.1301045451398
 30
0.0000000000563712
 40
1.499999999999999
100
AcDbArc
 50
91.1934894239842
 51
179.9999999996787
  0
LINE
  5
1ADB6
330
18
100
AcDbEntity
  8
01
100
AcDbLine
 10
2366.474425188974
 20
-308.1301045451482
 30
0.0000000000563712
 11
2366.474425189069
 21
-324.9123740955565
 31
0.0000000000563712
  0
ARC
  5
1ADB7
330
18
100
AcDbEntity
  8
01
100
AcDbCircle
 10
2367.974425189069
 20
-324.9123740955511
 30
0.0000000000563712
 40
1.499999999999999
100
AcDbArc
 50
180.0
 51
268.7734271626985
  0
LINE
  5
1ADB8
330
18
100
AcDbEntity
  8
01
100
AcDbLine
 10
2366.474425189033
 20
-308.6403591094718
 30
0.0000000000563712
 11
2366.474425189033
 21
-314.640359109472
 31
0.0000000000563712
  0
LINE
  5
1ADB9
330
18
100
AcDbEntity
  8
01
100
AcDbLine
 10
2366.474425189033
 20
-324.6403591094718
 30
0.0000000000563712
 11
2365.262049833161
 21
-324.6403591094718
 31
0.0000000000563712
  0
LINE
  5
1ADBA
330
18
100
AcDbEntity
  8
01
100
AcDbLine
 10
2366.474425189033
 20
-308.6403591094718
 30
0.0000000000563712
 11
2365.262049833161
 21
-308.6403591094718
 31
0.0000000000563712
  0
ARC
  5
1ADBB
330
18
100
AcDbEntity
  8
01
100
AcDbCircle
 10
2395.974425189033
 20
-316.6403591094718
 30
0.0000000000563712
 40
32.49999999999997
100
AcDbArc
 50
167.1604115930957
 51
192.8395884069039
  0
ARC
  5
1ADBC
330
18
100
AcDbEntity
  8
01
100
AcDbCircle
 10
2365.262049833161
 20
-323.6403591094718
 30
0.0000000000563712
 40
0.9999999999999991
100
AcDbArc
 50
192.8395884069013
 51
270.0
  0
ARC
  5
1ADBD
330
18
100
AcDbEntity
  8
01
100
AcDbCircle
 10
2365.262049833161
 20
-309.6403591094718
 30
0.0000000000563712
 40
0.9999999999999991
100
AcDbArc
 50
90.0
 51
167.1604115930988
  0
LINE
  5
1ADBE
330
18
100
AcDbEntity
  8
01
100
AcDbLine
 10
2366.474425189033
 20
-318.640359109472
 30
0.0000000000563712
 11
2366.474425189033
 21
-324.6403591094718
 31
0.0000000000563712
  0
SPLINE
  5
1ADBF
330
18
100
AcDbEntity
  8
01
100
AcDbSpline
210
0.0
220
0.0
230
1.0
 70
    12
 71
     2
 72
     6
 73
     3
 74
     0
 42
0.000000001
 43
0.0000000001
 40
0.0
 40
0.0
 40
0.0
 40
0.2796147364899398
 40
0.2796147364899398
 40
0.2796147364899398
 10
2398.930006180341
 20
-327.1533753348745
 30
0.0000000000563712
 41
1.0
 10
2399.012439375617
 20
-327.2709191619915
 30
0.0000000000563712
 41
0.9611676297947911
 10
2399.019960155721
 20
-327.4142900824863
 30
0.0000000000563712
 41
1.0
  0
SPLINE
  5
1ADC1
330
18
100
AcDbEntity
  8
01
100
AcDbSpline
210
0.0
220
0.0
230
1.0
 70
    24
 71
     2
 72
     6
 73
     3
 74
     0
 42
0.000000001
 43
0.0000000001
 40
0.0
 40
0.0
 40
0.0
 40
0.1999999999999886
 40
0.1999999999999886
 40
0.1999999999999886
 10
2399.47445088136
 20
-356.1404712920885
 30
0.0000000000563712
 10
2399.47445088136
 20
-356.2404712920884
 30
0.0000000000563712
 10
2399.47445088136
 20
-356.3404712920888
 30
0.0000000000563712
  0
SPLINE
  5
1ADC2
330
18
100
AcDbEntity
  8
01
100
AcDbSpline
210
0.0
220
0.0
230
1.0
 70
    24
 71
     2
 72
     6
 73
     3
 74
     0
 42
0.000000001
 43
0.0000000001
 40
0.0
 40
0.0
 40
0.0
 40
20.0
 40
20.0
 40
20.0
 10
2399.47445088136
 20
-356.3404712920888
 30
0.0000000000563712
 10
2389.47445088136
 20
-356.3404712920888
 30
0.0000000000563712
 10
2379.47445088136
 20
-356.3404712920888
 30
0.0000000000563712
  0
SPLINE
  5
1ADC3
330
18
100
AcDbEntity
  8
01
100
AcDbSpline
210
0.0
220
0.0
230
1.0
 70
    24
 71
     2
 72
     6
 73
     3
 74
     0
 42
0.000000001
 43
0.0000000001
 40
0.0
 40
0.0
 40
0.0
 40
0.1999999999999886
 40
0.1999999999999886
 40
0.1999999999999886
 10
2379.47445088136
 20
-356.3404712920888
 30
0.0000000000563712
 10
2379.47445088136
 20
-356.2404712920884
 30
0.0000000000563712
 10
2379.47445088136
 20
-356.1404712920885
 30
0.0000000000563712
  0
SPLINE
  5
1ADC4
330
18
100
AcDbEntity
  8
01
100
AcDbSpline
210
0.0
220
0.0
230
1.0
 70
    12
 71
     2
 72
     6
 73
     3
 74
     0
 42
0.000000001
 43
0.0000000001
 40
0.0
 40
0.0
 40
0.0
 40
0.4211368645163217
 40
0.4211368645163217
 40
0.4211368645163217
 10
2380.114663774675
 20
-327.0510358713173
 30
0.0000000000563712
 41
1.0
 10
2379.94022130854
 20
-327.1915053552943
 30
0.0000000000563712
 41
0.9126247819557877
 10
2379.928895644203
 20
-327.4151872259222
 30
0.0000000000563712
 41
1.0
  0
SPLINE
  5
1ADC5
330
18
100
AcDbEntity
  8
01
100
AcDbSpline
210
0.0
220
0.0
230
1.0
 70
    12
 71
     2
 72
     6
 73
     3
 74
     0
 42
0.000000001
 43
0.0000000001
 40
0.0
 40
0.0
 40
0.0
 40
0.14008951014973
 40
0.14008951014973
 40
0.14008951014973
 10
2398.930006180341
 20
-327.153375334874
 30
0.0000000000563712
 41
1.0
 10
2398.88952186534
 20
-327.0956501259452
 30
0.0000000000563712
 41
0.9902035017193848
 10
2398.834653578926
 20
-327.0513708909343
 30
0.0000000000563712
 41
1.0
  0
SPLINE
  5
1ADC6
330
18
100
AcDbEntity
  8
01
100
AcDbSpline
210
0.0
220
0.0
230
1.0
 70
    24
 71
     2
 72
     6
 73
     3
 74
     0
 42
0.000000001
 43
0.0000000001
 40
0.0
 40
0.0
 40
0.0
 40
21.99932555080781
 40
21.99932555080781
 40
21.99932555080781
 10
2400.47445088136
 20
-356.1404712920885
 30
0.0000000000563712
 10
2389.474788105956
 20
-356.1404712920885
 30
0.0000000000563712
 10
2378.475125330552
 20
-356.1404712920885
 30
0.0000000000563712
  0
LINE
  5
1ADC7
330
18
100
AcDbEntity
  8
01
100
AcDbLine
 10
2380.577504219164
 20
-326.6825624732637
 30
0.0000000000563712
 11
2367.942316039972
 21
-326.4120303903546
 31
0.0000000000563712
  0
TEXT
  5
1AFEA
330
18
100
AcDbEntity
  8
1TEXT
100
AcDbText
 10
2143.973752282133
 20
-423.1133250786079
 30
0.0
 40
6.0
  1
1-MNC-C9-LJ
 41
0.6
 72
     1
 11
2162.574585615466
 21
-423.1133250786079
 31
0.0
100
AcDbText
  0
TEXT
  5
1AFEB
330
18
100
AcDbEntity
  8
1TEXT
100
AcDbText
 10
2143.973752282133
 20
-433.6133250786079
 30
0.0
 40
6.0
  1
1-MNC-N9-LJ
 41
0.6
 72
     1
 11
2162.574585615466
 21
-433.6133250786079
 31
0.0
100
AcDbText
  0
TEXT
  5
1AFEC
330
18
100
AcDbEntity
  8
1TEXT
100
AcDbText
 10
2142.161252282133
 20
-444.1133250786079
 30
0.0
 40
6.0
  1
1-MNC-GQ9-LJ
 41
0.6
 72
     1
 11
2162.574585615466
 21
-444.1133250786079
 31
0.0
100
AcDbText
  0
TEXT
  5
1AFED
330
18
100
AcDbEntity
  8
1TEXT
100
AcDbText
 10
2143.974585615466
 20
-454.6133250786079
 30
0.0
 40
6.0
  1
1-MNC-C8-LJ
 41
0.6
 72
     1
 11
2162.574585615466
 21
-454.6133250786079
 31
0.0
100
AcDbText
  0
TEXT
  5
1AFEE
330
18
100
AcDbEntity
  8
1TEXT
100
AcDbText
 10
2143.974585615466
 20
-465.1133250786079
 30
0.0
 40
6.0
  1
1-MNC-N8-LJ
 41
0.6
 72
     1
 11
2162.574585615466
 21
-465.1133250786079
 31
0.0
100
AcDbText
  0
TEXT
  5
1AFEF
330
18
100
AcDbEntity
  8
1TEXT
100
AcDbText
 10
2142.162085615466
 20
-475.6133250786079
 30
0.0
 40
6.0
  1
1-MNC-GQ8-LJ
 41
0.6
 72
     1
 11
2162.574585615466
 21
-475.6133250786079
 31
0.0
100
AcDbText
  0
TEXT
  5
1AFF0
330
18
100
AcDbEntity
  8
1TEXT
100
AcDbText
 10
2143.974585615466
 20
-486.1133250786079
 30
0.0
 40
6.0
  1
1-MNC-C7-LJ
 41
0.6
 72
     1
 11
2162.574585615466
 21
-486.1133250786079
 31
0.0
100
AcDbText
  0
TEXT
  5
1AFF1
330
18
100
AcDbEntity
  8
1TEXT
100
AcDbText
 10
2143.974585615466
 20
-496.6133250786079
 30
0.0
 40
6.0
  1
1-MNC-N7-LJ
 41
0.6
 72
     1
 11
2162.574585615466
 21
-496.6133250786079
 31
0.0
100
AcDbText
  0
TEXT
  5
1AFF2
330
18
100
AcDbEntity
  8
1TEXT
100
AcDbText
 10
2142.162085615466
 20
-507.1133250786079
 30
0.0
 40
6.0
  1
1-MNC-GQ7-LJ
 41
0.6
 72
     1
 11
2162.574585615466
 21
-507.1133250786079
 31
0.0
100
AcDbText
  0
ARC
  5
1B0FA
330
18
100
AcDbEntity
  8
01
100
AcDbCircle
 10
2389.474453275721
 20
-655.541789603134
 30
0.0000000000563712
 40
25.0
100
AcDbArc
 50
198.6629248849426
 51
334.0826240460333
  0
TEXT
  5
1B1A6
330
18
100
AcDbEntity
  8
01
  6
CONTINUOUS
100
AcDbText
 10
2300.47761436874
 20
-442.9584562708293
 30
0.0000000000563712
 40
4.55
  1
材質：亜鉛ダイキャスト
100
AcDbText
  0
TEXT
  5
1B1A7
330
18
100
AcDbEntity
  8
01
  6
CONTINUOUS
100
AcDbText
 10
2310.790947702073
 20
-450.5417896041626
 30
0.0000000000563712
 40
4.55
  1
仕上げ：各種メッキ
100
AcDbText
  0
LINE
  5
1B1A8
330
18
100
AcDbEntity
  8
01
100
AcDbLine
 10
2327.474453275721
 20
-627.5417903012653
 30
0.0
 11
2327.474453275721
 21
-524.8202975184461
 31
0.0
1001
ACAD
1000
DSTYLE
1002
{
1070
    40
1040
1.3
1070
    45
1040
0.5
1002
}
  0
LINE
  5
1B1A9
330
18
100
AcDbEntity
  8
01
100
AcDbLine
 10
2338.474453275721
 20
-569.6704722519764
 30
0.0
 11
2338.474453275721
 21
-524.8202975184461
 31
0.0
1001
ACAD
1000
DSTYLE
1002
{
1070
    40
1040
1.3
1070
    45
1040
0.5
1002
}
  0
LINE
  5
1B1AA
330
18
100
AcDbEntity
  8
01
100
AcDbLine
 10
2330.074453275721
 20
-526.120297518446
 30
0.0
 11
2335.874453275721
 21
-526.120297518446
 31
0.0
1001
ACAD
1000
DSTYLE
1002
{
1070
    40
1040
1.3
1070
    45
1040
0.5
1002
}
  0
LINE
  5
1B1AE
330
18
100
AcDbEntity
  8
01
100
AcDbLine
 10
2407.474453275721
 20
-597.541789603134
 30
0.0
 11
2435.774453275721
 21
-597.541789603134
 31
0.0
1001
ACAD
1000
DSTYLE
1002
{
1070
    40
1040
1.3
1070
    45
1040
0.5
1002
}
  0
LINE
  5
1B1AF
330
18
100
AcDbEntity
  8
01
100
AcDbLine
 10
2407.474453275721
 20
-671.5417896031345
 30
0.0
 11
2435.774453275721
 21
-671.5417896031345
 31
0.0
1001
ACAD
1000
DSTYLE
1002
{
1070
    40
1040
1.3
1070
    45
1040
0.5
1002
}
  0
LINE
  5
1B1B0
330
18
100
AcDbEntity
  8
01
100
AcDbLine
 10
2434.474453275721
 20
-600.141789603134
 30
0.0
 11
2434.474453275721
 21
-668.9417896031345
 31
0.0
1001
ACAD
1000
DSTYLE
1002
{
1070
    40
1040
1.3
1070
    45
1040
0.5
1002
}
  0
LINE
  5
1B1B4
330
18
100
AcDbEntity
  8
01
100
AcDbLine
 10
2407.474453275721
 20
-597.541789603134
 30
0.0
 11
2407.474453275721
 21
-514.7404300503979
 31
0.0
1001
ACAD
1000
DSTYLE
1002
{
1070
    40
1040
1.3
1070
    45
1040
0.5
1002
}
  0
LINE
  5
1B1B5
330
18
100
AcDbEntity
  8
01
100
AcDbLine
 10
2338.474453275721
 20
-569.6704722519764
 30
0.0
 11
2338.474453275721
 21
-514.7404300503979
 31
0.0
1001
ACAD
1000
DSTYLE
1002
{
1070
    40
1040
1.3
1070
    45
1040
0.5
1002
}
  0
LINE
  5
1B1B6
330
18
100
AcDbEntity
  8
01
100
AcDbLine
 10
2404.874453275721
 20
-516.0404300503978
 30
0.0
 11
2341.074453275721
 21
-516.0404300503978
 31
0.0
1001
ACAD
1000
DSTYLE
1002
{
1070
    40
1040
1.3
1070
    45
1040
0.5
1002
}
  0
LINE
  5
1B1BA
330
18
100
AcDbEntity
  8
01
100
AcDbLine
 10
2338.474453275721
 20
-569.6704722519764
 30
0.0
 11
2338.474453275721
 21
-524.8202975184461
 31
0.0
1001
ACAD
1000
DSTYLE
1002
{
1070
    40
1040
1.3
1070
    45
1040
0.5
1002
}
  0
LINE
  5
1B1BB
330
18
100
AcDbEntity
  8
01
100
AcDbLine
 10
2389.474453275721
 20
-605.541789603134
 30
0.0
 11
2389.474453275721
 21
-524.8202975184461
 31
0.0
1001
ACAD
1000
DSTYLE
1002
{
1070
    40
1040
1.3
1070
    45
1040
0.5
1002
}
  0
LINE
  5
1B1BC
330
18
100
AcDbEntity
  8
01
100
AcDbLine
 10
2341.074453275721
 20
-526.120297518446
 30
0.0
 11
2386.874453275721
 21
-526.120297518446
 31
0.0
1001
ACAD
1000
DSTYLE
1002
{
1070
    40
1040
1.3
1070
    45
1040
0.5
1002
}
  0
LINE
  5
1B1C0
330
18
100
AcDbEntity
  8
01
100
AcDbLine
 10
2206.974569615466
 20
-575.5417896031345
 30
0.0
 11
2206.974569615466
 21
-524.8202975184463
 31
0.0
1001
ACAD
1000
DSTYLE
1002
{
1070
    40
1040
1.3
1070
    45
1040
0.5
1002
}
  0
LINE
  5
1B1C1
330
18
100
AcDbEntity
  8
01
100
AcDbLine
 10
2231.974569615466
 20
-575.5417896031345
 30
0.0
 11
2231.974569615466
 21
-524.8202975184463
 31
0.0
1001
ACAD
1000
DSTYLE
1002
{
1070
    40
1040
1.3
1070
    45
1040
0.5
1002
}
  0
LINE
  5
1B1C2
330
18
100
AcDbEntity
  8
01
100
AcDbLine
 10
2209.574569615466
 20
-526.1202975184463
 30
0.0
 11
2229.374569615466
 21
-526.1202975184463
 31
0.0
1001
ACAD
1000
DSTYLE
1002
{
1070
    40
1040
1.3
1070
    45
1040
0.5
1002
}
  0
LINE
  5
1B1C6
330
18
100
AcDbEntity
  8
01
100
AcDbLine
 10
2225.276509218702
 20
-577.5413444587182
 30
0.0000000001127424
 11
2305.56264038691
 21
-577.5413444587182
 31
0.0000000001127424
1001
ACAD
1000
DSTYLE
1002
{
1070
    40
1040
1.3
1070
    45
1040
0.5
1002
}
  0
LINE
  5
1B1C7
330
18
100
AcDbEntity
  8
01
100
AcDbLine
 10
2225.276509218702
 20
-691.5413444587182
 30
0.0000000001127424
 11
2305.56264038691
 21
-691.5413444587182
 31
0.0000000001127424
1001
ACAD
1000
DSTYLE
1002
{
1070
    40
1040
1.3
1070
    45
1040
0.5
1002
}
  0
LINE
  5
1B1C8
330
18
100
AcDbEntity
  8
01
100
AcDbLine
 10
2304.26264038691
 20
-580.1413444587182
 30
0.0000000001127424
 11
2304.26264038691
 21
-688.9413444587182
 31
0.0000000001127424
1001
ACAD
1000
DSTYLE
1002
{
1070
    40
1040
1.3
1070
    45
1040
0.5
1002
}
  0
LINE
  5
1B1CC
330
18
100
AcDbEntity
  8
01
100
AcDbLine
 10
2225.874569615466
 20
-569.6417896031346
 30
0.0000000001127424
 11
2314.926974553135
 21
-569.6417896031346
 31
0.0000000001127424
1001
ACAD
1000
DSTYLE
1002
{
1070
    40
1040
1.3
1070
    45
1040
0.5
1002
}
  0
LINE
  5
1B1CD
330
18
100
AcDbEntity
  8
01
100
AcDbLine
 10
2225.801483810796
 20
-699.441344458718
 30
0.0000000001127424
 11
2314.926974553135
 21
-699.441344458718
 31
0.0000000001127424
1001
ACAD
1000
DSTYLE
1002
{
1070
    40
1040
1.3
1070
    45
1040
0.5
1002
}
  0
LINE
  5
1B1CE
330
18
100
AcDbEntity
  8
01
100
AcDbLine
 10
2313.626974553134
 20
-572.2417896031346
 30
0.0000000001127424
 11
2313.626974553134
 21
-696.841344458718
 31
0.0000000001127424
1001
ACAD
1000
DSTYLE
1002
{
1070
    40
1040
1.3
1070
    45
1040
0.5
1002
}
  0
LINE
  5
1B1D2
330
18
100
AcDbEntity
  8
01
100
AcDbLine
 10
2389.474453275721
 20
-630.541789603134
 30
0.0
 11
2353.174453275721
 21
-630.541789603134
 31
0.0
1001
ACAD
1000
DSTYLE
1002
{
1070
     3
1000
φ<>
1070
    40
1040
1.3
1070
    45
1040
0.5
1002
}
  0
LINE
  5
1B1D3
330
18
100
AcDbEntity
  8
01
100
AcDbLine
 10
2389.474453275721
 20
-680.5417896031331
 30
0.0
 11
2353.174453275721
 21
-680.5417896031331
 31
0.0
1001
ACAD
1000
DSTYLE
1002
{
1070
     3
1000
φ<>
1070
    40
1040
1.3
1070
    45
1040
0.5
1002
}
  0
LINE
  5
1B1D4
330
18
100
AcDbEntity
  8
01
100
AcDbLine
 10
2354.474453275721
 20
-633.141789603134
 30
0.0
 11
2354.474453275721
 21
-677.9417896031331
 31
0.0
1001
ACAD
1000
DSTYLE
1002
{
1070
     3
1000
φ<>
1070
    40
1040
1.3
1070
    45
1040
0.5
1002
}
  0
SPLINE
  5
1B1D8
330
18
100
AcDbEntity
  8
01
100
AcDbSpline
210
0.0
220
0.0
230
1.0
 70
    28
 71
     3
 72
     8
 73
     4
 74
     0
 42
0.000000001
 43
0.0000000001
 40
0.0000074988702848
 40
0.0000074988702848
 40
0.0000074988702848
 40
0.0000074988702848
 40
1.0
 40
1.0
 40
1.0
 40
1.0
 10
2380.114663868538
 20
-443.8325434112257
 30
0.0000000000563712
 41
1.0
 10
2380.13677273656
 20
-443.8502858913562
 30
0.0000000000563712
 41
1.0
 10
2380.158881604582
 20
-443.8680283714866
 30
0.0000000000563712
 41
1.0
 10
2380.180990472604
 20
-443.8857708516171
 30
0.0000000000563712
 41
1.0
  0
SPLINE
  5
1B1D9
330
18
100
AcDbEntity
  8
01
100
AcDbSpline
210
0.0
220
0.0
230
1.0
 70
    12
 71
     3
 72
     8
 73
     4
 74
     0
 42
0.000000001
 43
0.0000000001
 40
1.0
 40
1.0
 40
1.0
 40
1.0
 40
2.069913634816477
 40
2.069913634816477
 40
2.069913634816477
 40
2.069913634816477
 10
2380.180990472604
 20
-443.8857708516171
 30
0.0000000000563712
 41
1.0
 10
2380.224666143939
 20
-443.920775691739
 30
0.0000000000563712
 41
1.0
 10
2380.2903228025
 20
-443.9733221455731
 30
0.0000000000563712
 41
1.0
 10
2380.37547249499
 20
-444.041034179118
 30
0.0000000000563712
 41
1.0
  0
SPLINE
  5
1B1DA
330
18
100
AcDbEntity
  8
01
100
AcDbSpline
210
0.0
220
0.0
230
1.0
 70
    12
 71
     3
 72
     8
 73
     4
 74
     0
 42
0.000000001
 43
0.0000000001
 40
2.069913634816477
 40
2.069913634816477
 40
2.069913634816477
 40
2.069913634816477
 40
2.327617560487894
 40
2.327617560487894
 40
2.327617560487894
 40
2.327617560487894
 10
2380.37547249499
 20
-444.041034179118
 30
0.0000000000563712
 41
1.0
 10
2380.442702445104
 20
-444.0945054467966
 30
0.0000000000563712
 41
0.999997646876467
 10
2380.510046455468
 20
-444.1478330482305
 30
0.0000000000563712
 41
0.9999968138119246
 10
2380.577504219266
 20
-444.2010167398789
 30
0.0000000000563712
 41
0.9999975008063737
  0
SPLINE
  5
1B1DB
330
18
100
AcDbEntity
  8
01
100
AcDbSpline
210
0.0
220
0.0
230
1.0
 70
    28
 71
     3
 72
     8
 73
     4
 74
     0
 42
0.000000001
 43
0.0000000001
 40
0.0000074988702848
 40
0.0000074988702848
 40
0.0000074988702848
 40
0.0000074988702848
 40
1.0
 40
1.0
 40
1.0
 40
1.0
 10
2380.114663868537
 20
-443.8325434112257
 30
0.0000000000563712
 41
1.0
 10
2380.13677273656
 20
-443.8502858913562
 30
0.0000000000563712
 41
1.0
 10
2380.158881604582
 20
-443.8680283714866
 30
0.0000000000563712
 41
1.0
 10
2380.180990472604
 20
-443.8857708516171
 30
0.0000000000563712
 41
1.0
  0
SPLINE
  5
1B1DC
330
18
100
AcDbEntity
  8
01
100
AcDbSpline
210
0.0
220
0.0
230
1.0
 70
    12
 71
     3
 72
     8
 73
     4
 74
     0
 42
0.000000001
 43
0.0000000001
 40
1.0
 40
1.0
 40
1.0
 40
1.0
 40
2.069913634816477
 40
2.069913634816477
 40
2.069913634816477
 40
2.069913634816477
 10
2380.180990472604
 20
-443.8857708516171
 30
0.0000000000563712
 41
1.0
 10
2380.224666143939
 20
-443.920775691739
 30
0.0000000000563712
 41
1.0
 10
2380.2903228025
 20
-443.9733221455731
 30
0.0000000000563712
 41
1.0
 10
2380.37547249499
 20
-444.041034179118
 30
0.0000000000563712
 41
1.0
  0
SPLINE
  5
1B1DD
330
18
100
AcDbEntity
  8
01
100
AcDbSpline
210
0.0
220
0.0
230
1.0
 70
    12
 71
     3
 72
     8
 73
     4
 74
     0
 42
0.000000001
 43
0.0000000001
 40
2.069913634816477
 40
2.069913634816477
 40
2.069913634816477
 40
2.069913634816477
 40
2.468851554739131
 40
2.468851554739131
 40
2.468851554739131
 40
2.468851554739131
 10
2380.37547249499
 20
-444.041034179118
 30
0.0000000000563712
 41
1.0
 10
2380.479547785942
 20
-444.1238103485443
 30
0.0000000000563712
 41
0.9999963572529788
 10
2380.583896148391
 20
-444.2062420151865
 30
0.0000000000563712
 41
0.9999963572529779
 10
2380.688516441995
 20
-444.2883282782132
 30
0.0000000000563712
 41
1.0
  0
SPLINE
  5
1B1DE
330
18
100
AcDbEntity
  8
01
100
AcDbSpline
210
0.0
220
0.0
230
1.0
 70
    12
 71
     3
 72
     8
 73
     4
 74
     0
 42
0.000000001
 43
0.0000000001
 40
2.468851554739131
 40
2.468851554739131
 40
2.468851554739131
 40
2.468851554739131
 40
2.999441320739012
 40
2.999441320739012
 40
2.999441320739012
 40
2.999441320739012
 10
2380.688516441995
 20
-444.2883282782132
 30
0.0000000000563712
 41
1.0
 10
2380.827657926058
 20
-444.3975093101958
 30
0.0000000000563712
 41
0.9999923517196228
 10
2380.967320797921
 20
-444.5060225930465
 30
0.0000000000563712
 41
0.9999923517196228
 10
2381.107501853043
 20
-444.6138656369449
 30
0.0000000000563712
 41
1.0
  0
SPLINE
  5
1B1DF
330
18
100
AcDbEntity
  8
01
100
AcDbSpline
210
0.0
220
0.0
230
1.0
 70
    12
 71
     3
 72
     8
 73
     4
 74
     0
 42
0.000000001
 43
0.0000000001
 40
2.999441320739012
 40
2.999441320739012
 40
2.999441320739012
 40
2.999441320739012
 40
4.369695454284202
 40
4.369695454284202
 40
4.369695454284202
 40
4.369695454284202
 10
2381.107501853043
 20
-444.6138656369449
 30
0.0000000000563712
 41
1.0
 10
2381.469340799189
 20
-444.8926321211229
 30
0.0000000000563712
 41
0.9999216141032534
 10
2381.835411917888
 20
-445.1658172446273
 30
0.0000000000563712
 41
0.9999216141032533
 10
2382.205629124699
 20
-445.433356765875
 30
0.0000000000563712
 41
1.0
  0
SPLINE
  5
1B1E0
330
18
100
AcDbEntity
  8
01
100
AcDbSpline
210
0.0
220
0.0
230
1.0
 70
    12
 71
     3
 72
     8
 73
     4
 74
     0
 42
0.000000001
 43
0.0000000001
 40
4.369695454284202
 40
4.369695454284202
 40
4.369695454284202
 40
4.369695454284202
 40
5.832536294217403
 40
5.832536294217403
 40
5.832536294217403
 40
5.832536294217403
 10
2382.205629124699
 20
-445.433356765875
 30
0.0000000000563712
 41
1.0
 10
2382.600699965124
 20
-445.7192368464002
 30
0.0000000000563712
 41
0.9998261102958363
 10
2383.002196854649
 20
-445.9960194995733
 30
0.0000000000563712
 41
0.9998261102958362
 10
2383.409910344746
 20
-446.2635603364342
 30
0.0000000000563712
 41
1.0
  0
SPLINE
  5
1B1E1
330
18
100
AcDbEntity
  8
01
100
AcDbSpline
210
0.0
220
0.0
230
1.0
 70
    12
 71
     3
 72
     8
 73
     4
 74
     0
 42
0.000000001
 43
0.0000000001
 40
5.832536294217403
 40
5.832536294217403
 40
5.832536294217403
 40
5.832536294217403
 40
6.729136501859651
 40
6.729136501859651
 40
6.729136501859651
 40
6.729136501859651
 10
2383.409910344746
 20
-446.2635603364342
 30
0.0000000000563712
 41
1.0
 10
2383.659892863872
 20
-446.4273908368527
 30
0.0000000000563712
 41
0.999883952273077
 10
2383.912888582129
 20
-446.5865286993503
 30
0.0000000000563712
 41
0.9998839522730767
 10
2384.168809420781
 20
-446.740918521165
 30
0.0000000000563712
 41
1.0
  0
SPLINE
  5
1B1E2
330
18
100
AcDbEntity
  8
01
100
AcDbSpline
210
0.0
220
0.0
230
1.0
 70
    12
 71
     3
 72
     8
 73
     4
 74
     0
 42
0.000000001
 43
0.0000000001
 40
6.729136501859651
 40
6.729136501859651
 40
6.729136501859651
 40
6.729136501859651
 40
7.664333674539951
 40
7.664333674539951
 40
7.664333674539951
 40
7.664333674539951
 10
2384.168809420781
 20
-446.740918521165
 30
0.0000000000563712
 41
1.0
 10
2384.435717619996
 20
-446.9020297991906
 30
0.0000000000563712
 41
0.9997968392462239
 10
2384.706521644286
 20
-447.0565031339233
 30
0.0000000000563712
 41
0.9997968392462235
 10
2384.981056443403
 20
-447.2042443766054
 30
0.0000000000563712
 41
1.0
  0
SPLINE
  5
1B1E3
330
18
100
AcDbEntity
  8
01
100
AcDbSpline
210
0.0
220
0.0
230
1.0
 70
    12
 71
     3
 72
     8
 73
     4
 74
     0
 42
0.000000001
 43
0.0000000001
 40
7.664333674539951
 40
7.664333674539951
 40
7.664333674539951
 40
7.664333674539951
 40
8.624560926185572
 40
8.624560926185572
 40
8.624560926185572
 40
8.624560926185572
 10
2384.981056443403
 20
-447.2042443766054
 30
0.0000000000563712
 41
1.0
 10
2385.262899544509
 20
-447.3560633660691
 30
0.0000000000563712
 41
0.9996482278044185
 10
2385.549525214653
 20
-447.4986476022873
 30
0.0000000000563712
 41
0.9996482278044186
 10
2385.840630973009
 20
-447.6318466137495
 30
0.0000000000563712
 41
1.0
  0
SPLINE
  5
1B1E4
330
18
100
AcDbEntity
  8
01
100
AcDbSpline
210
0.0
220
0.0
230
1.0
 70
    12
 71
     3
 72
     8
 73
     4
 74
     0
 42
0.000000001
 43
0.0000000001
 40
8.624560926185572
 40
8.624560926185572
 40
8.624560926185572
 40
8.624560926185572
 40
9.366249360995868
 40
9.366249360995868
 40
9.366249360995868
 40
9.366249360995868
 10
2385.840630973009
 20
-447.6318466137495
 30
0.0000000000563712
 41
1.0
 10
2386.065521162214
 20
-447.7346400095148
 30
0.0000000000563712
 41
0.9996783959644623
 10
2386.293495387265
 20
-447.8303992499395
 30
0.0000000000563712
 41
0.9996783959644617
 10
2386.524333695867
 20
-447.9190319453492
 30
0.0000000000563712
 41
1.0
  0
SPLINE
  5
1B1E5
330
18
100
AcDbEntity
  8
01
100
AcDbSpline
210
0.0
220
0.0
230
1.0
 70
    12
 71
     3
 72
     8
 73
     4
 74
     0
 42
0.000000001
 43
0.0000000001
 40
9.366249360995868
 40
9.366249360995868
 40
9.366249360995868
 40
9.366249360995868
 40
10.32369980056625
 40
10.32369980056625
 40
10.32369980056625
 40
10.32369980056625
 10
2386.524333695867
 20
-447.9190319453492
 30
0.0000000000563712
 41
1.0
 10
2386.822304547632
 20
-448.0337123224244
 30
0.0000000000563712
 41
0.9992015593815196
 10
2387.125529540508
 20
-448.1336764213961
 30
0.0000000000563712
 41
0.9992015593815196
 10
2387.433282353042
 20
-448.2186847960743
 30
0.0000000000563712
 41
1.0
  0
SPLINE
  5
1B1E6
330
18
100
AcDbEntity
  8
01
100
AcDbSpline
210
0.0
220
0.0
230
1.0
 70
    12
 71
     3
 72
     8
 73
     4
 74
     0
 42
0.000000001
 43
0.0000000001
 40
10.32369980056625
 40
10.32369980056625
 40
10.32369980056625
 40
10.32369980056625
 40
11.50676041076757
 40
11.50676041076757
 40
11.50676041076757
 40
11.50676041076757
 10
2387.433282353042
 20
-448.2186847960743
 30
0.0000000000563712
 41
1.0
 10
2387.813689948549
 20
-448.3239620965765
 30
0.0000000000563712
 41
0.9982126175713575
 10
2388.200781582016
 20
-448.4011198312505
 30
0.0000000000563712
 41
0.9982126175713574
 10
2388.592481611091
 20
-448.4497442689599
 30
0.0000000000563712
 41
1.0
  0
SPLINE
  5
1B1E7
330
18
100
AcDbEntity
  8
01
100
AcDbSpline
210
0.0
220
0.0
230
1.0
 70
    12
 71
     3
 72
     8
 73
     4
 74
     0
 42
0.000000001
 43
0.0000000001
 40
11.50676041076757
 40
11.50676041076757
 40
11.50676041076757
 40
11.50676041076757
 40
12.19938993274716
 40
12.19938993274716
 40
12.19938993274716
 40
12.19938993274716
 10
2388.592481611091
 20
-448.4497442689599
 30
0.0000000000563712
 41
1.0
 10
2388.821740940295
 20
-448.4777422103193
 30
0.0000000000563712
 41
0.999254670212339
 10
2389.052067506336
 20
-448.4948710667754
 30
0.0000000000563712
 41
0.9992546702123384
 10
2389.282946301462
 20
-448.5010925383863
 30
0.0000000000563712
 41
1.0
  0
SPLINE
  5
1B1E8
330
18
100
AcDbEntity
  8
01
100
AcDbSpline
210
0.0
220
0.0
230
1.0
 70
    12
 71
     3
 72
     8
 73
     4
 74
     0
 42
0.000000001
 43
0.0000000001
 40
12.19938993274716
 40
12.19938993274716
 40
12.19938993274716
 40
12.19938993274716
 40
12.39091492179722
 40
12.39091492179722
 40
12.39091492179722
 40
12.39091492179722
 10
2389.282946301462
 20
-448.5010925383863
 30
0.0000000000563712
 41
1.0
 10
2389.346767047751
 20
-448.5027990606418
 30
0.0000000000563712
 41
0.9999406437261871
 10
2389.410604883537
 20
-448.5036538103673
 30
0.0000000000563712
 41
0.9999406437261863
 10
2389.474448441295
 20
-448.5036566353588
 30
0.0000000000563712
 41
1.0
  0
SPLINE
  5
1B1E9
330
18
100
AcDbEntity
  8
01
100
AcDbSpline
210
0.0
220
0.0
230
1.0
 70
    12
 71
     3
 72
     8
 73
     4
 74
     0
 42
0.000000001
 43
0.0000000001
 40
12.39091492179722
 40
12.39091492179722
 40
12.39091492179722
 40
12.39091492179722
 40
12.58244909339577
 40
12.58244909339577
 40
12.58244909339577
 40
12.58244909339577
 10
2389.474448441295
 20
-448.5036566353588
 30
0.0000000000563712
 41
1.0
 10
2389.538295064087
 20
-448.5036569389554
 30
0.0000000000563712
 41
0.9999405173869553
 10
2389.60213599429
 20
-448.502804370461
 30
0.0000000000563712
 41
0.9999405173869556
 10
2389.665959839625
 20
-448.501099082016
 30
0.0000000000563712
 41
1.0
  0
SPLINE
  5
1B1EA
330
18
100
AcDbEntity
  8
01
100
AcDbSpline
210
0.0
220
0.0
230
1.0
 70
    12
 71
     3
 72
     8
 73
     4
 74
     0
 42
0.000000001
 43
0.0000000001
 40
12.58244909339577
 40
12.58244909339577
 40
12.58244909339577
 40
12.58244909339577
 40
13.27506538632163
 40
13.27506538632163
 40
13.27506538632163
 40
13.27506538632163
 10
2389.665959839625
 20
-448.501099082016
 30
0.0000000000563712
 41
1.0
 10
2389.89683422204
 20
-448.4948745249326
 30
0.0000000000563712
 41
0.9992539490871255
 10
2390.127155842475
 20
-448.4777375261729
 30
0.0000000000563712
 41
0.9992539490871255
 10
2390.356409205965
 20
-448.4497264409565
 30
0.0000000000563712
 41
1.0
  0
SPLINE
  5
1B1EB
330
18
100
AcDbEntity
  8
01
100
AcDbSpline
210
0.0
220
0.0
230
1.0
 70
    12
 71
     3
 72
     8
 73
     4
 74
     0
 42
0.000000001
 43
0.0000000001
 40
13.27506538632163
 40
13.27506538632163
 40
13.27506538632163
 40
13.27506538632163
 40
14.45813917159823
 40
14.45813917159823
 40
14.45813917159823
 40
14.45813917159823
 10
2390.356409205965
 20
-448.4497264409565
 30
0.0000000000563712
 41
1.0
 10
2390.748114023138
 20
-448.4011060502594
 30
0.0000000000563712
 41
0.9982133380747923
 10
2391.135211867572
 20
-448.3239577189556
 30
0.0000000000563712
 41
0.9982133380747913
 10
2391.515627900327
 20
-448.2186949610045
 30
0.0000000000563712
 41
1.0
  0
SPLINE
  5
1B1EC
330
18
100
AcDbEntity
  8
01
100
AcDbSpline
210
0.0
220
0.0
230
1.0
 70
    12
 71
     3
 72
     8
 73
     4
 74
     0
 42
0.000000001
 43
0.0000000001
 40
14.45813917159823
 40
14.45813917159823
 40
14.45813917159823
 40
14.45813917159823
 40
15.41557585109661
 40
15.41557585109661
 40
15.41557585109661
 40
15.41557585109661
 10
2391.515627900327
 20
-448.2186949610045
 30
0.0000000000563712
 41
1.0
 10
2391.823373256202
 20
-448.1336768706324
 30
0.0000000000563712
 41
0.9992016341553482
 10
2392.12659055517
 20
-448.0337041275457
 30
0.0000000000563712
 41
0.9992016341553481
 10
2392.424553562224
 20
-447.9190161762158
 30
0.0000000000563712
 41
1.0
  0
SPLINE
  5
1B1ED
330
18
100
AcDbEntity
  8
01
100
AcDbSpline
210
0.0
220
0.0
230
1.0
 70
    12
 71
     3
 72
     8
 73
     4
 74
     0
 42
0.000000001
 43
0.0000000001
 40
15.41557585109661
 40
15.41557585109661
 40
15.41557585109661
 40
15.41557585109661
 40
16.15726930889237
 40
16.15726930889237
 40
16.15726930889237
 40
16.15726930889237
 10
2392.424553562224
 20
-447.9190161762158
 30
0.0000000000563712
 41
1.0
 10
2392.655395953278
 20
-447.8303895329364
 30
0.0000000000563712
 41
0.9996786602119123
 10
2392.88337566905
 20
-447.7346391250935
 30
0.0000000000563712
 41
0.9996786602119113
 10
2393.108272932683
 20
-447.6318572579357
 30
0.0000000000563712
 41
1.0
  0
SPLINE
  5
1B1EE
330
18
100
AcDbEntity
  8
01
100
AcDbSpline
210
0.0
220
0.0
230
1.0
 70
    12
 71
     3
 72
     8
 73
     4
 74
     0
 42
0.000000001
 43
0.0000000001
 40
16.15726930889237
 40
16.15726930889237
 40
16.15726930889237
 40
16.15726930889237
 40
17.11750815493619
 40
17.11750815493619
 40
17.11750815493619
 40
17.11750815493619
 10
2393.108272932683
 20
-447.6318572579357
 30
0.0000000000563712
 41
1.0
 10
2393.399383633017
 20
-447.4986595485739
 30
0.0000000000563712
 41
0.999647686685178
 10
2393.686010723086
 20
-447.3560692934084
 30
0.0000000000563712
 41
0.999647686685178
 10
2393.967851255265
 20
-447.2042372017772
 30
0.0000000000563712
 41
1.0
  0
SPLINE
  5
1B1EF
330
18
100
AcDbEntity
  8
01
100
AcDbSpline
210
0.0
220
0.0
230
1.0
 70
    12
 71
     3
 72
     8
 73
     4
 74
     0
 42
0.000000001
 43
0.0000000001
 40
17.11750815493619
 40
17.11750815493619
 40
17.11750815493619
 40
17.11750815493619
 40
18.05267939825206
 40
18.05267939825206
 40
18.05267939825206
 40
18.05267939825206
 10
2393.967851255265
 20
-447.2042372017772
 30
0.0000000000563712
 41
1.0
 10
2394.242375875378
 20
-447.0564953930393
 30
0.0000000000563712
 41
0.9997971675466826
 10
2394.513172792537
 20
-446.9020271479089
 30
0.0000000000563712
 41
0.9997971675466828
 10
2394.780077227535
 20
-446.740926459905
 30
0.0000000000563712
 41
1.0
  0
SPLINE
  5
1B1F0
330
18
100
AcDbEntity
  8
01
100
AcDbSpline
210
0.0
220
0.0
230
1.0
 70
    12
 71
     3
 72
     8
 73
     4
 74
     0
 42
0.000000001
 43
0.0000000001
 40
18.05267939825206
 40
18.05267939825206
 40
18.05267939825206
 40
18.05267939825206
 40
18.94935545102193
 40
18.94935545102193
 40
18.94935545102193
 40
18.94935545102193
 10
2394.780077227535
 20
-446.740926459905
 30
0.0000000000563712
 41
1.0
 10
2395.036024994273
 20
-446.586532232353
 30
0.0000000000563712
 41
0.9998836171520982
 10
2395.289043269073
 20
-446.4273826504573
 30
0.0000000000563712
 41
0.9998836171520981
 10
2395.53904371097
 20
-446.2635332810632
 30
0.0000000000563712
 41
1.0
  0
SPLINE
  5
1B1F1
330
18
100
AcDbEntity
  8
01
100
AcDbSpline
210
0.0
220
0.0
230
1.0
 70
    12
 71
     3
 72
     8
 73
     4
 74
     0
 42
0.000000001
 43
0.0000000001
 40
18.94935545102193
 40
18.94935545102193
 40
18.94935545102193
 40
18.94935545102193
 40
19.6058114912614
 40
19.6058114912614
 40
19.6058114912614
 40
19.6058114912614
 10
2395.53904371097
 20
-446.2635332810632
 30
0.0000000000563712
 41
1.0
 10
2395.722113835108
 20
-446.1436627174912
 30
0.0000000000563712
 41
0.9999580733809053
 10
2395.903828099334
 20
-446.0217465637643
 30
0.0000000000563712
 41
0.9999580733809056
 10
2396.084163647654
 20
-445.8978001544774
 30
0.0000000000563712
 41
1.0
  0
SPLINE
  5
1B1F2
330
18
100
AcDbEntity
  8
01
100
AcDbSpline
210
0.0
220
0.0
230
1.0
 70
    12
 71
     3
 72
     8
 73
     4
 74
     0
 42
0.000000001
 43
0.0000000001
 40
19.6058114912614
 40
19.6058114912614
 40
19.6058114912614
 40
19.6058114912614
 40
20.4120724821067
 40
20.4120724821067
 40
20.4120724821067
 40
20.4120724821067
 10
2396.084163647654
 20
-445.8978001544774
 30
0.0000000000563712
 41
1.0
 10
2396.305638882375
 20
-445.74554878649
 30
0.0000000000563712
 41
0.9999553254590443
 10
2396.525336712821
 20
-445.5907436769294
 30
0.0000000000563712
 41
0.9999553254590439
 10
2396.743227694293
 20
-445.433405573337
 30
0.0000000000563712
 41
1.0
  0
SPLINE
  5
1B1F3
330
18
100
AcDbEntity
  8
01
100
AcDbSpline
210
0.0
220
0.0
230
1.0
 70
    12
 71
     3
 72
     8
 73
     4
 74
     0
 42
0.000000001
 43
0.0000000001
 40
20.4120724821067
 40
20.4120724821067
 40
20.4120724821067
 40
20.4120724821067
 40
21.78242157736375
 40
21.78242157736375
 40
21.78242157736375
 40
21.78242157736375
 10
2396.743227694293
 20
-445.433405573337
 30
0.0000000000563712
 41
1.0
 10
2397.113467983119
 20
-445.1658439153498
 30
0.0000000000563712
 41
0.9999215304914602
 10
2397.479559607726
 20
-444.8926333103414
 30
0.0000000000563712
 41
0.99992153049146
 10
2397.841416387022
 20
-444.6138380744196
 30
0.0000000000563712
 41
1.0
  0
SPLINE
  5
1B1F4
330
18
100
AcDbEntity
  8
01
100
AcDbSpline
210
0.0
220
0.0
230
1.0
 70
    12
 71
     3
 72
     8
 73
     4
 74
     0
 42
0.000000001
 43
0.0000000001
 40
21.78242157736375
 40
21.78242157736375
 40
21.78242157736375
 40
21.78242157736375
 40
22.71205581616942
 40
22.71205581616942
 40
22.71205581616942
 40
22.71205581616942
 10
2397.841416387022
 20
-444.6138380744196
 30
0.0000000000563712
 41
1.0
 10
2398.087014160203
 20
-444.4248716714606
 30
0.0000000000563712
 41
0.9999776789520456
 10
2398.331057392144
 20
-444.2339018608041
 30
0.0000000000563712
 41
0.999977678952045
 10
2398.573529740945
 20
-444.0409414303904
 30
0.0000000000563712
 41
1.0
  0
SPLINE
  5
1B1F5
330
18
100
AcDbEntity
  8
01
100
AcDbSpline
210
0.0
220
0.0
230
1.0
 70
    12
 71
     3
 72
     8
 73
     4
 74
     0
 42
0.000000001
 43
0.0000000001
 40
22.71205581616942
 40
22.71205581616942
 40
22.71205581616942
 40
22.71205581616942
 40
23.78221403197993
 40
23.78221403197993
 40
23.78221403197993
 40
23.78221403197993
 10
2398.573529740945
 20
-444.0409414303904
 30
0.0000000000563712
 41
1.0
 10
2398.658658636223
 20
-443.9732445946429
 30
0.0000000000563712
 41
1.0
 10
2398.724066088065
 20
-443.9209205743518
 30
0.0000000000563712
 41
1.0
 10
2398.76784949817
 20
-443.8858285795714
 30
0.0000000000563712
 41
1.0
  0
SPLINE
  5
1B1F6
330
18
100
AcDbEntity
  8
01
100
AcDbSpline
210
0.0
220
0.0
230
1.0
 70
    28
 71
     3
 72
     8
 73
     4
 74
     0
 42
0.000000001
 43
0.0000000001
 40
23.78221403197993
 40
23.78221403197993
 40
23.78221403197993
 40
23.78221403197993
 40
24.78220647210401
 40
24.78220647210401
 40
24.78220647210401
 40
24.78220647210401
 10
2398.76784949817
 20
-443.8858285795714
 30
0.0000000000563712
 41
1.0
 10
2398.790117474384
 20
-443.8679551990308
 30
0.0000000000563712
 41
1.0
 10
2398.812385450596
 20
-443.8500818184907
 30
0.0000000000563712
 41
1.0
 10
2398.834653426809
 20
-443.8322084379502
 30
0.0000000000563712
 41
1.0
  0
SPLINE
  5
1B1F7
330
18
100
AcDbEntity
  8
01
100
AcDbSpline
210
0.0
220
0.0
230
1.0
 70
    28
 71
     3
 72
     8
 73
     4
 74
     0
 42
0.000000001
 43
0.0000000001
 40
0.0000074988702848
 40
0.0000074988702848
 40
0.0000074988702848
 40
0.0000074988702848
 40
1.0
 40
1.0
 40
1.0
 40
1.0
 10
2380.114663868538
 20
-327.0510357970998
 30
0.0000000000563712
 41
1.0
 10
2380.13677273656
 20
-327.0332933169693
 30
0.0000000000563712
 41
1.0
 10
2380.158881604582
 20
-327.0155508368389
 30
0.0000000000563712
 41
1.0
 10
2380.180990472604
 20
-326.9978083567084
 30
0.0000000000563712
 41
1.0
  0
SPLINE
  5
1B1F8
330
18
100
AcDbEntity
  8
01
100
AcDbSpline
210
0.0
220
0.0
230
1.0
 70
    12
 71
     3
 72
     8
 73
     4
 74
     0
 42
0.000000001
 43
0.0000000001
 40
1.0
 40
1.0
 40
1.0
 40
1.0
 40
2.069913634816477
 40
2.069913634816477
 40
2.069913634816477
 40
2.069913634816477
 10
2380.180990472604
 20
-326.9978083567084
 30
0.0000000000563712
 41
1.0
 10
2380.224666143939
 20
-326.9628035165865
 30
0.0000000000563712
 41
1.0
 10
2380.2903228025
 20
-326.9102570627524
 30
0.0000000000563712
 41
1.0
 10
2380.37547249499
 20
-326.8425450292075
 30
0.0000000000563712
 41
1.0
  0
SPLINE
  5
1B1F9
330
18
100
AcDbEntity
  8
01
100
AcDbSpline
210
0.0
220
0.0
230
1.0
 70
    12
 71
     3
 72
     8
 73
     4
 74
     0
 42
0.000000001
 43
0.0000000001
 40
2.069913634816477
 40
2.069913634816477
 40
2.069913634816477
 40
2.069913634816477
 40
2.327617560487894
 40
2.327617560487894
 40
2.327617560487894
 40
2.327617560487894
 10
2380.37547249499
 20
-326.8425450292075
 30
0.0000000000563712
 41
1.0
 10
2380.442702445104
 20
-326.7890737615289
 30
0.0000000000563712
 41
0.999997646876467
 10
2380.510046455468
 20
-326.735746160095
 30
0.0000000000563712
 41
0.9999968138119246
 10
2380.577504219266
 20
-326.6825624684466
 30
0.0000000000563712
 41
0.9999975008063737
  0
SPLINE
  5
1B1FA
330
18
100
AcDbEntity
  8
01
100
AcDbSpline
210
0.0
220
0.0
230
1.0
 70
    28
 71
     3
 72
     8
 73
     4
 74
     0
 42
0.000000001
 43
0.0000000001
 40
0.0000074988702848
 40
0.0000074988702848
 40
0.0000074988702848
 40
0.0000074988702848
 40
1.0
 40
1.0
 40
1.0
 40
1.0
 10
2380.114663868537
 20
-327.0510357970998
 30
0.0000000000563712
 41
1.0
 10
2380.13677273656
 20
-327.0332933169693
 30
0.0000000000563712
 41
1.0
 10
2380.158881604582
 20
-327.0155508368389
 30
0.0000000000563712
 41
1.0
 10
2380.180990472604
 20
-326.9978083567084
 30
0.0000000000563712
 41
1.0
  0
SPLINE
  5
1B1FB
330
18
100
AcDbEntity
  8
01
100
AcDbSpline
210
0.0
220
0.0
230
1.0
 70
    12
 71
     3
 72
     8
 73
     4
 74
     0
 42
0.000000001
 43
0.0000000001
 40
1.0
 40
1.0
 40
1.0
 40
1.0
 40
2.069913634816477
 40
2.069913634816477
 40
2.069913634816477
 40
2.069913634816477
 10
2380.180990472604
 20
-326.9978083567084
 30
0.0000000000563712
 41
1.0
 10
2380.224666143939
 20
-326.9628035165865
 30
0.0000000000563712
 41
1.0
 10
2380.2903228025
 20
-326.9102570627524
 30
0.0000000000563712
 41
1.0
 10
2380.37547249499
 20
-326.8425450292075
 30
0.0000000000563712
 41
1.0
  0
SPLINE
  5
1B1FC
330
18
100
AcDbEntity
  8
01
100
AcDbSpline
210
0.0
220
0.0
230
1.0
 70
    12
 71
     3
 72
     8
 73
     4
 74
     0
 42
0.000000001
 43
0.0000000001
 40
2.069913634816477
 40
2.069913634816477
 40
2.069913634816477
 40
2.069913634816477
 40
2.468851554739131
 40
2.468851554739131
 40
2.468851554739131
 40
2.468851554739131
 10
2380.37547249499
 20
-326.8425450292075
 30
0.0000000000563712
 41
1.0
 10
2380.479547785942
 20
-326.7597688597812
 30
0.0000000000563712
 41
0.9999963572529788
 10
2380.583896148391
 20
-326.677337193139
 30
0.0000000000563712
 41
0.9999963572529779
 10
2380.688516441995
 20
-326.5952509301123
 30
0.0000000000563712
 41
1.0
  0
SPLINE
  5
1B1FD
330
18
100
AcDbEntity
  8
01
100
AcDbSpline
210
0.0
220
0.0
230
1.0
 70
    12
 71
     3
 72
     8
 73
     4
 74
     0
 42
0.000000001
 43
0.0000000001
 40
2.468851554739131
 40
2.468851554739131
 40
2.468851554739131
 40
2.468851554739131
 40
2.999441320739012
 40
2.999441320739012
 40
2.999441320739012
 40
2.999441320739012
 10
2380.688516441995
 20
-326.5952509301123
 30
0.0000000000563712
 41
1.0
 10
2380.827657926058
 20
-326.4860698981297
 30
0.0000000000563712
 41
0.9999923517196228
 10
2380.967320797921
 20
-326.377556615279
 30
0.0000000000563712
 41
0.9999923517196228
 10
2381.107501853043
 20
-326.2697135713806
 30
0.0000000000563712
 41
1.0
  0
SPLINE
  5
1B1FE
330
18
100
AcDbEntity
  8
01
100
AcDbSpline
210
0.0
220
0.0
230
1.0
 70
    12
 71
     3
 72
     8
 73
     4
 74
     0
 42
0.000000001
 43
0.0000000001
 40
2.999441320739012
 40
2.999441320739012
 40
2.999441320739012
 40
2.999441320739012
 40
4.369695454284202
 40
4.369695454284202
 40
4.369695454284202
 40
4.369695454284202
 10
2381.107501853043
 20
-326.2697135713806
 30
0.0000000000563712
 41
1.0
 10
2381.469340799189
 20
-325.9909470872026
 30
0.0000000000563712
 41
0.9999216141032534
 10
2381.835411917888
 20
-325.7177619636982
 30
0.0000000000563712
 41
0.9999216141032533
 10
2382.205629124699
 20
-325.4502224424505
 30
0.0000000000563712
 41
1.0
  0
SPLINE
  5
1B1FF
330
18
100
AcDbEntity
  8
01
100
AcDbSpline
210
0.0
220
0.0
230
1.0
 70
    12
 71
     3
 72
     8
 73
     4
 74
     0
 42
0.000000001
 43
0.0000000001
 40
4.369695454284202
 40
4.369695454284202
 40
4.369695454284202
 40
4.369695454284202
 40
5.832536294217403
 40
5.832536294217403
 40
5.832536294217403
 40
5.832536294217403
 10
2382.205629124699
 20
-325.4502224424505
 30
0.0000000000563712
 41
1.0
 10
2382.600699965124
 20
-325.1643423619253
 30
0.0000000000563712
 41
0.9998261102958363
 10
2383.002196854649
 20
-324.8875597087522
 30
0.0000000000563712
 41
0.9998261102958362
 10
2383.409910344746
 20
-324.6200188718913
 30
0.0000000000563712
 41
1.0
  0
SPLINE
  5
1B200
330
18
100
AcDbEntity
  8
01
100
AcDbSpline
210
0.0
220
0.0
230
1.0
 70
    12
 71
     3
 72
     8
 73
     4
 74
     0
 42
0.000000001
 43
0.0000000001
 40
5.832536294217403
 40
5.832536294217403
 40
5.832536294217403
 40
5.832536294217403
 40
6.729136501859651
 40
6.729136501859651
 40
6.729136501859651
 40
6.729136501859651
 10
2383.409910344746
 20
-324.6200188718913
 30
0.0000000000563712
 41
1.0
 10
2383.659892863872
 20
-324.4561883714728
 30
0.0000000000563712
 41
0.999883952273077
 10
2383.912888582129
 20
-324.2970505089752
 30
0.0000000000563712
 41
0.9998839522730767
 10
2384.168809420781
 20
-324.1426606871605
 30
0.0000000000563712
 41
1.0
  0
SPLINE
  5
1B201
330
18
100
AcDbEntity
  8
01
100
AcDbSpline
210
0.0
220
0.0
230
1.0
 70
    12
 71
     3
 72
     8
 73
     4
 74
     0
 42
0.000000001
 43
0.0000000001
 40
6.729136501859651
 40
6.729136501859651
 40
6.729136501859651
 40
6.729136501859651
 40
7.664333674539951
 40
7.664333674539951
 40
7.664333674539951
 40
7.664333674539951
 10
2384.168809420781
 20
-324.1426606871605
 30
0.0000000000563712
 41
1.0
 10
2384.435717619996
 20
-323.9815494091349
 30
0.0000000000563712
 41
0.9997968392462239
 10
2384.706521644286
 20
-323.8270760744022
 30
0.0000000000563712
 41
0.9997968392462235
 10
2384.981056443403
 20
-323.6793348317201
 30
0.0000000000563712
 41
1.0
  0
SPLINE
  5
1B202
330
18
100
AcDbEntity
  8
01
100
AcDbSpline
210
0.0
220
0.0
230
1.0
 70
    12
 71
     3
 72
     8
 73
     4
 74
     0
 42
0.000000001
 43
0.0000000001
 40
7.664333674539951
 40
7.664333674539951
 40
7.664333674539951
 40
7.664333674539951
 40
8.624560926185572
 40
8.624560926185572
 40
8.624560926185572
 40
8.624560926185572
 10
2384.981056443403
 20
-323.6793348317201
 30
0.0000000000563712
 41
1.0
 10
2385.262899544509
 20
-323.5275158422564
 30
0.0000000000563712
 41
0.9996482278044185
 10
2385.549525214653
 20
-323.3849316060382
 30
0.0000000000563712
 41
0.9996482278044186
 10
2385.840630973009
 20
-323.251732594576
 30
0.0000000000563712
 41
1.0
  0
SPLINE
  5
1B203
330
18
100
AcDbEntity
  8
01
100
AcDbSpline
210
0.0
220
0.0
230
1.0
 70
    12
 71
     3
 72
     8
 73
     4
 74
     0
 42
0.000000001
 43
0.0000000001
 40
8.624560926185572
 40
8.624560926185572
 40
8.624560926185572
 40
8.624560926185572
 40
9.366249360995868
 40
9.366249360995868
 40
9.366249360995868
 40
9.366249360995868
 10
2385.840630973009
 20
-323.251732594576
 30
0.0000000000563712
 41
1.0
 10
2386.065521162214
 20
-323.1489391988107
 30
0.0000000000563712
 41
0.9996783959644623
 10
2386.293495387265
 20
-323.053179958386
 30
0.0000000000563712
 41
0.9996783959644617
 10
2386.524333695867
 20
-322.9645472629763
 30
0.0000000000563712
 41
1.0
  0
SPLINE
  5
1B204
330
18
100
AcDbEntity
  8
01
100
AcDbSpline
210
0.0
220
0.0
230
1.0
 70
    12
 71
     3
 72
     8
 73
     4
 74
     0
 42
0.000000001
 43
0.0000000001
 40
9.366249360995868
 40
9.366249360995868
 40
9.366249360995868
 40
9.366249360995868
 40
10.32369980056625
 40
10.32369980056625
 40
10.32369980056625
 40
10.32369980056625
 10
2386.524333695867
 20
-322.9645472629763
 30
0.0000000000563712
 41
1.0
 10
2386.822304547632
 20
-322.8498668859011
 30
0.0000000000563712
 41
0.9992015593815196
 10
2387.125529540508
 20
-322.7499027869294
 30
0.0000000000563712
 41
0.9992015593815196
 10
2387.433282353042
 20
-322.6648944122512
 30
0.0000000000563712
 41
1.0
  0
SPLINE
  5
1B205
330
18
100
AcDbEntity
  8
01
100
AcDbSpline
210
0.0
220
0.0
230
1.0
 70
    12
 71
     3
 72
     8
 73
     4
 74
     0
 42
0.000000001
 43
0.0000000001
 40
10.32369980056625
 40
10.32369980056625
 40
10.32369980056625
 40
10.32369980056625
 40
11.50676041076757
 40
11.50676041076757
 40
11.50676041076757
 40
11.50676041076757
 10
2387.433282353042
 20
-322.6648944122512
 30
0.0000000000563712
 41
1.0
 10
2387.813689948549
 20
-322.559617111749
 30
0.0000000000563712
 41
0.9982126175713575
 10
2388.200781582016
 20
-322.482459377075
 30
0.0000000000563712
 41
0.9982126175713574
 10
2388.592481611091
 20
-322.4338349393656
 30
0.0000000000563712
 41
1.0
  0
SPLINE
  5
1B206
330
18
100
AcDbEntity
  8
01
100
AcDbSpline
210
0.0
220
0.0
230
1.0
 70
    12
 71
     3
 72
     8
 73
     4
 74
     0
 42
0.000000001
 43
0.0000000001
 40
11.50676041076757
 40
11.50676041076757
 40
11.50676041076757
 40
11.50676041076757
 40
12.19938993274716
 40
12.19938993274716
 40
12.19938993274716
 40
12.19938993274716
 10
2388.592481611091
 20
-322.4338349393656
 30
0.0000000000563712
 41
1.0
 10
2388.821740940295
 20
-322.4058369980062
 30
0.0000000000563712
 41
0.999254670212339
 10
2389.052067506336
 20
-322.3887081415501
 30
0.0000000000563712
 41
0.9992546702123384
 10
2389.282946301462
 20
-322.3824866699392
 30
0.0000000000563712
 41
1.0
  0
SPLINE
  5
1B207
330
18
100
AcDbEntity
  8
01
100
AcDbSpline
210
0.0
220
0.0
230
1.0
 70
    12
 71
     3
 72
     8
 73
     4
 74
     0
 42
0.000000001
 43
0.0000000001
 40
12.19938993274716
 40
12.19938993274716
 40
12.19938993274716
 40
12.19938993274716
 40
12.39091492179722
 40
12.39091492179722
 40
12.39091492179722
 40
12.39091492179722
 10
2389.282946301462
 20
-322.3824866699392
 30
0.0000000000563712
 41
1.0
 10
2389.346767047751
 20
-322.3807801476837
 30
0.0000000000563712
 41
0.9999406437261871
 10
2389.410604883537
 20
-322.3799253979582
 30
0.0000000000563712
 41
0.9999406437261863
 10
2389.474448441295
 20
-322.3799225729667
 30
0.0000000000563712
 41
1.0
  0
SPLINE
  5
1B208
330
18
100
AcDbEntity
  8
01
100
AcDbSpline
210
0.0
220
0.0
230
1.0
 70
    12
 71
     3
 72
     8
 73
     4
 74
     0
 42
0.000000001
 43
0.0000000001
 40
12.39091492179722
 40
12.39091492179722
 40
12.39091492179722
 40
12.39091492179722
 40
12.58244909339577
 40
12.58244909339577
 40
12.58244909339577
 40
12.58244909339577
 10
2389.474448441295
 20
-322.3799225729667
 30
0.0000000000563712
 41
1.0
 10
2389.538295064087
 20
-322.3799222693701
 30
0.0000000000563712
 41
0.9999405173869553
 10
2389.60213599429
 20
-322.3807748378645
 30
0.0000000000563712
 41
0.9999405173869556
 10
2389.665959839625
 20
-322.3824801263095
 30
0.0000000000563712
 41
1.0
  0
SPLINE
  5
1B209
330
18
100
AcDbEntity
  8
01
100
AcDbSpline
210
0.0
220
0.0
230
1.0
 70
    12
 71
     3
 72
     8
 73
     4
 74
     0
 42
0.000000001
 43
0.0000000001
 40
12.58244909339577
 40
12.58244909339577
 40
12.58244909339577
 40
12.58244909339577
 40
13.27506538632163
 40
13.27506538632163
 40
13.27506538632163
 40
13.27506538632163
 10
2389.665959839625
 20
-322.3824801263095
 30
0.0000000000563712
 41
1.0
 10
2389.89683422204
 20
-322.3887046833929
 30
0.0000000000563712
 41
0.9992539490871255
 10
2390.127155842475
 20
-322.4058416821526
 30
0.0000000000563712
 41
0.9992539490871255
 10
2390.356409205965
 20
-322.433852767369
 30
0.0000000000563712
 41
1.0
  0
SPLINE
  5
1B20A
330
18
100
AcDbEntity
  8
01
100
AcDbSpline
210
0.0
220
0.0
230
1.0
 70
    12
 71
     3
 72
     8
 73
     4
 74
     0
 42
0.000000001
 43
0.0000000001
 40
13.27506538632163
 40
13.27506538632163
 40
13.27506538632163
 40
13.27506538632163
 40
14.45813917159823
 40
14.45813917159823
 40
14.45813917159823
 40
14.45813917159823
 10
2390.356409205965
 20
-322.433852767369
 30
0.0000000000563712
 41
1.0
 10
2390.748114023138
 20
-322.4824731580661
 30
0.0000000000563712
 41
0.9982133380747923
 10
2391.135211867572
 20
-322.5596214893699
 30
0.0000000000563712
 41
0.9982133380747913
 10
2391.515627900327
 20
-322.664884247321
 30
0.0000000000563712
 41
1.0
  0
SPLINE
  5
1B20B
330
18
100
AcDbEntity
  8
01
100
AcDbSpline
210
0.0
220
0.0
230
1.0
 70
    12
 71
     3
 72
     8
 73
     4
 74
     0
 42
0.000000001
 43
0.0000000001
 40
14.45813917159823
 40
14.45813917159823
 40
14.45813917159823
 40
14.45813917159823
 40
15.41557585109661
 40
15.41557585109661
 40
15.41557585109661
 40
15.41557585109661
 10
2391.515627900327
 20
-322.664884247321
 30
0.0000000000563712
 41
1.0
 10
2391.823373256202
 20
-322.7499023376931
 30
0.0000000000563712
 41
0.9992016341553482
 10
2392.12659055517
 20
-322.8498750807798
 30
0.0000000000563712
 41
0.9992016341553481
 10
2392.424553562224
 20
-322.9645630321097
 30
0.0000000000563712
 41
1.0
  0
SPLINE
  5
1B20C
330
18
100
AcDbEntity
  8
01
100
AcDbSpline
210
0.0
220
0.0
230
1.0
 70
    12
 71
     3
 72
     8
 73
     4
 74
     0
 42
0.000000001
 43
0.0000000001
 40
15.41557585109661
 40
15.41557585109661
 40
15.41557585109661
 40
15.41557585109661
 40
16.15726930889237
 40
16.15726930889237
 40
16.15726930889237
 40
16.15726930889237
 10
2392.424553562224
 20
-322.9645630321097
 30
0.0000000000563712
 41
1.0
 10
2392.655395953278
 20
-323.0531896753891
 30
0.0000000000563712
 41
0.9996786602119123
 10
2392.88337566905
 20
-323.148940083232
 30
0.0000000000563712
 41
0.9996786602119113
 10
2393.108272932683
 20
-323.2517219503898
 30
0.0000000000563712
 41
1.0
  0
SPLINE
  5
1B20D
330
18
100
AcDbEntity
  8
01
100
AcDbSpline
210
0.0
220
0.0
230
1.0
 70
    12
 71
     3
 72
     8
 73
     4
 74
     0
 42
0.000000001
 43
0.0000000001
 40
16.15726930889237
 40
16.15726930889237
 40
16.15726930889237
 40
16.15726930889237
 40
17.11750815493619
 40
17.11750815493619
 40
17.11750815493619
 40
17.11750815493619
 10
2393.108272932683
 20
-323.2517219503898
 30
0.0000000000563712
 41
1.0
 10
2393.399383633017
 20
-323.3849196597516
 30
0.0000000000563712
 41
0.999647686685178
 10
2393.686010723086
 20
-323.5275099149171
 30
0.0000000000563712
 41
0.999647686685178
 10
2393.967851255265
 20
-323.6793420065483
 30
0.0000000000563712
 41
1.0
  0
SPLINE
  5
1B20E
330
18
100
AcDbEntity
  8
01
100
AcDbSpline
210
0.0
220
0.0
230
1.0
 70
    12
 71
     3
 72
     8
 73
     4
 74
     0
 42
0.000000001
 43
0.0000000001
 40
17.11750815493619
 40
17.11750815493619
 40
17.11750815493619
 40
17.11750815493619
 40
18.05267939825206
 40
18.05267939825206
 40
18.05267939825206
 40
18.05267939825206
 10
2393.967851255265
 20
-323.6793420065483
 30
0.0000000000563712
 41
1.0
 10
2394.242375875378
 20
-323.8270838152862
 30
0.0000000000563712
 41
0.9997971675466826
 10
2394.513172792537
 20
-323.9815520604166
 30
0.0000000000563712
 41
0.9997971675466828
 10
2394.780077227535
 20
-324.1426527484205
 30
0.0000000000563712
 41
1.0
  0
SPLINE
  5
1B20F
330
18
100
AcDbEntity
  8
01
100
AcDbSpline
210
0.0
220
0.0
230
1.0
 70
    12
 71
     3
 72
     8
 73
     4
 74
     0
 42
0.000000001
 43
0.0000000001
 40
18.05267939825206
 40
18.05267939825206
 40
18.05267939825206
 40
18.05267939825206
 40
18.94935545102193
 40
18.94935545102193
 40
18.94935545102193
 40
18.94935545102193
 10
2394.780077227535
 20
-324.1426527484205
 30
0.0000000000563712
 41
1.0
 10
2395.036024994273
 20
-324.2970469759725
 30
0.0000000000563712
 41
0.9998836171520982
 10
2395.289043269073
 20
-324.4561965578682
 30
0.0000000000563712
 41
0.9998836171520981
 10
2395.53904371097
 20
-324.6200459272623
 30
0.0000000000563712
 41
1.0
  0
SPLINE
  5
1B210
330
18
100
AcDbEntity
  8
01
100
AcDbSpline
210
0.0
220
0.0
230
1.0
 70
    12
 71
     3
 72
     8
 73
     4
 74
     0
 42
0.000000001
 43
0.0000000001
 40
18.94935545102193
 40
18.94935545102193
 40
18.94935545102193
 40
18.94935545102193
 40
19.6058114912614
 40
19.6058114912614
 40
19.6058114912614
 40
19.6058114912614
 10
2395.53904371097
 20
-324.6200459272623
 30
0.0000000000563712
 41
1.0
 10
2395.722113835108
 20
-324.7399164908343
 30
0.0000000000563712
 41
0.9999580733809053
 10
2395.903828099334
 20
-324.8618326445612
 30
0.0000000000563712
 41
0.9999580733809056
 10
2396.084163647654
 20
-324.9857790538481
 30
0.0000000000563712
 41
1.0
  0
SPLINE
  5
1B211
330
18
100
AcDbEntity
  8
01
100
AcDbSpline
210
0.0
220
0.0
230
1.0
 70
    12
 71
     3
 72
     8
 73
     4
 74
     0
 42
0.000000001
 43
0.0000000001
 40
19.6058114912614
 40
19.6058114912614
 40
19.6058114912614
 40
19.6058114912614
 40
20.4120724821067
 40
20.4120724821067
 40
20.4120724821067
 40
20.4120724821067
 10
2396.084163647654
 20
-324.9857790538481
 30
0.0000000000563712
 41
1.0
 10
2396.305638882375
 20
-325.1380304218355
 30
0.0000000000563712
 41
0.9999553254590443
 10
2396.525336712821
 20
-325.2928355313961
 30
0.0000000000563712
 41
0.9999553254590439
 10
2396.743227694293
 20
-325.4501736349885
 30
0.0000000000563712
 41
1.0
  0
SPLINE
  5
1B212
330
18
100
AcDbEntity
  8
01
100
AcDbSpline
210
0.0
220
0.0
230
1.0
 70
    12
 71
     3
 72
     8
 73
     4
 74
     0
 42
0.000000001
 43
0.0000000001
 40
20.4120724821067
 40
20.4120724821067
 40
20.4120724821067
 40
20.4120724821067
 40
21.78242157736375
 40
21.78242157736375
 40
21.78242157736375
 40
21.78242157736375
 10
2396.743227694293
 20
-325.4501736349885
 30
0.0000000000563712
 41
1.0
 10
2397.113467983119
 20
-325.7177352929757
 30
0.0000000000563712
 41
0.9999215304914602
 10
2397.479559607726
 20
-325.9909458979841
 30
0.0000000000563712
 41
0.99992153049146
 10
2397.841416387022
 20
-326.2697411339059
 30
0.0000000000563712
 41
1.0
  0
SPLINE
  5
1B213
330
18
100
AcDbEntity
  8
01
100
AcDbSpline
210
0.0
220
0.0
230
1.0
 70
    12
 71
     3
 72
     8
 73
     4
 74
     0
 42
0.000000001
 43
0.0000000001
 40
21.78242157736375
 40
21.78242157736375
 40
21.78242157736375
 40
21.78242157736375
 40
22.71205581616942
 40
22.71205581616942
 40
22.71205581616942
 40
22.71205581616942
 10
2397.841416387022
 20
-326.2697411339059
 30
0.0000000000563712
 41
1.0
 10
2398.087014160203
 20
-326.4587075368649
 30
0.0000000000563712
 41
0.9999776789520456
 10
2398.331057392144
 20
-326.6496773475214
 30
0.0000000000563712
 41
0.999977678952045
 10
2398.573529740945
 20
-326.8426377779351
 30
0.0000000000563712
 41
1.0
  0
SPLINE
  5
1B214
330
18
100
AcDbEntity
  8
01
100
AcDbSpline
210
0.0
220
0.0
230
1.0
 70
    12
 71
     3
 72
     8
 73
     4
 74
     0
 42
0.000000001
 43
0.0000000001
 40
22.71205581616942
 40
22.71205581616942
 40
22.71205581616942
 40
22.71205581616942
 40
23.78221403197993
 40
23.78221403197993
 40
23.78221403197993
 40
23.78221403197993
 10
2398.573529740945
 20
-326.8426377779351
 30
0.0000000000563712
 41
1.0
 10
2398.658658636223
 20
-326.9103346136826
 30
0.0000000000563712
 41
1.0
 10
2398.724066088065
 20
-326.9626586339737
 30
0.0000000000563712
 41
1.0
 10
2398.76784949817
 20
-326.9977506287541
 30
0.0000000000563712
 41
1.0
  0
SPLINE
  5
1B215
330
18
100
AcDbEntity
  8
01
100
AcDbSpline
210
0.0
220
0.0
230
1.0
 70
    28
 71
     3
 72
     8
 73
     4
 74
     0
 42
0.000000001
 43
0.0000000001
 40
23.78221403197993
 40
23.78221403197993
 40
23.78221403197993
 40
23.78221403197993
 40
24.78220647210401
 40
24.78220647210401
 40
24.78220647210401
 40
24.78220647210401
 10
2398.76784949817
 20
-326.9977506287541
 30
0.0000000000563712
 41
1.0
 10
2398.790117474384
 20
-327.0156240092947
 30
0.0000000000563712
 41
1.0
 10
2398.812385450596
 20
-327.0334973898348
 30
0.0000000000563712
 41
1.0
 10
2398.834653426809
 20
-327.0513707703753
 30
0.0000000000563712
 41
1.0
  0
LINE
  5
1B216
330
18
100
AcDbEntity
  8
01
  6
BYBLOCK
100
AcDbLine
 10
2330.074453275721
 20
-526.816965412446
 30
0.0
 11
2327.474453275721
 21
-526.120297518446
 31
0.0
  0
LINE
  5
1B217
330
18
100
AcDbEntity
  8
01
  6
BYBLOCK
100
AcDbLine
 10
2327.474453275721
 20
-526.120297518446
 30
0.0
 11
2330.074453275721
 21
-525.423629624446
 31
0.0
  0
LINE
  5
1B218
330
18
100
AcDbEntity
  8
01
  6
BYBLOCK
100
AcDbLine
 10
2327.474453275721
 20
-526.120297518446
 30
0.0
 11
2330.074453275721
 21
-526.120297518446
 31
0.0
  0
LINE
  5
1B219
330
18
100
AcDbEntity
  8
01
  6
BYBLOCK
100
AcDbLine
 10
2335.874453275721
 20
-525.423629624446
 30
0.0
 11
2338.474453275721
 21
-526.120297518446
 31
0.0
  0
LINE
  5
1B21A
330
18
100
AcDbEntity
  8
01
  6
BYBLOCK
100
AcDbLine
 10
2338.474453275721
 20
-526.120297518446
 30
0.0
 11
2335.874453275721
 21
-526.816965412446
 31
0.0
  0
LINE
  5
1B21B
330
18
100
AcDbEntity
  8
01
  6
BYBLOCK
100
AcDbLine
 10
2338.474453275721
 20
-526.120297518446
 30
0.0
 11
2335.874453275721
 21
-526.120297518446
 31
0.0
  0
TEXT
  5
1B21C
330
18
100
AcDbEntity
  8
01
  6
CONTINUOUS
100
AcDbText
 10
2330.699453275721
 20
-525.210297518446
 30
0.0
 40
4.55
  1
11
100
AcDbText
1001
ACAD
1000
DSTYLE
1002
{
1070
    40
1040
1.3
1070
    45
1040
0.5
1002
}
  0
LINE
  5
1B21D
330
18
100
AcDbEntity
  8
01
  6
BYBLOCK
100
AcDbLine
 10
2433.777785381722
 20
-600.141789603134
 30
0.0
 11
2434.474453275721
 21
-597.541789603134
 31
0.0
  0
LINE
  5
1B21E
330
18
100
AcDbEntity
  8
01
  6
BYBLOCK
100
AcDbLine
 10
2434.474453275721
 20
-597.541789603134
 30
0.0
 11
2435.171121169721
 21
-600.141789603134
 31
0.0
  0
LINE
  5
1B21F
330
18
100
AcDbEntity
  8
01
  6
BYBLOCK
100
AcDbLine
 10
2434.474453275721
 20
-597.541789603134
 30
0.0
 11
2434.474453275721
 21
-600.141789603134
 31
0.0
  0
LINE
  5
1B220
330
18
100
AcDbEntity
  8
01
  6
BYBLOCK
100
AcDbLine
 10
2435.171121169721
 20
-668.9417896031345
 30
0.0
 11
2434.474453275721
 21
-671.5417896031345
 31
0.0
  0
LINE
  5
1B221
330
18
100
AcDbEntity
  8
01
  6
BYBLOCK
100
AcDbLine
 10
2434.474453275721
 20
-671.5417896031345
 30
0.0
 11
2433.777785381722
 21
-668.9417896031345
 31
0.0
  0
LINE
  5
1B222
330
18
100
AcDbEntity
  8
01
  6
BYBLOCK
100
AcDbLine
 10
2434.474453275721
 20
-671.5417896031345
 30
0.0
 11
2434.474453275721
 21
-668.9417896031345
 31
0.0
  0
TEXT
  5
1B223
330
18
100
AcDbEntity
  8
01
  6
CONTINUOUS
100
AcDbText
 10
2433.564453275721
 20
-616.5704455171153
 30
0.0
 40
4.55
  1
74
 50
90.0
100
AcDbText
1001
ACAD
1000
DSTYLE
1002
{
1070
    40
1040
1.3
1070
    45
1040
0.5
1002
}
  0
LINE
  5
1B224
330
18
100
AcDbEntity
  8
01
  6
BYBLOCK
100
AcDbLine
 10
2404.874453275721
 20
-515.3437621563978
 30
0.0
 11
2407.474453275721
 21
-516.0404300503978
 31
0.0
  0
LINE
  5
1B225
330
18
100
AcDbEntity
  8
01
  6
BYBLOCK
100
AcDbLine
 10
2407.474453275721
 20
-516.0404300503978
 30
0.0
 11
2404.874453275721
 21
-516.7370979443979
 31
0.0
  0
LINE
  5
1B226
330
18
100
AcDbEntity
  8
01
  6
BYBLOCK
100
AcDbLine
 10
2407.474453275721
 20
-516.0404300503978
 30
0.0
 11
2404.874453275721
 21
-516.0404300503978
 31
0.0
  0
LINE
  5
1B227
330
18
100
AcDbEntity
  8
01
  6
BYBLOCK
100
AcDbLine
 10
2341.074453275721
 20
-516.7370979443979
 30
0.0
 11
2338.474453275721
 21
-516.0404300503978
 31
0.0
  0
LINE
  5
1B228
330
18
100
AcDbEntity
  8
01
  6
BYBLOCK
100
AcDbLine
 10
2338.474453275721
 20
-516.0404300503978
 30
0.0
 11
2341.074453275721
 21
-515.3437621563978
 31
0.0
  0
LINE
  5
1B229
330
18
100
AcDbEntity
  8
01
  6
BYBLOCK
100
AcDbLine
 10
2338.474453275721
 20
-516.0404300503978
 30
0.0
 11
2341.074453275721
 21
-516.0404300503978
 31
0.0
  0
TEXT
  5
1B22A
330
18
100
AcDbEntity
  8
01
  6
CONTINUOUS
100
AcDbText
 10
2369.165934757203
 20
-515.1304300503979
 30
0.0
 40
4.55
  1
69
100
AcDbText
1001
ACAD
1000
DSTYLE
1002
{
1070
    40
1040
1.3
1070
    45
1040
0.5
1002
}
  0
LINE
  5
1B22B
330
18
100
AcDbEntity
  8
01
  6
BYBLOCK
100
AcDbLine
 10
2341.074453275721
 20
-526.816965412446
 30
0.0
 11
2338.474453275721
 21
-526.120297518446
 31
0.0
  0
LINE
  5
1B22C
330
18
100
AcDbEntity
  8
01
  6
BYBLOCK
100
AcDbLine
 10
2338.474453275721
 20
-526.120297518446
 30
0.0
 11
2341.074453275721
 21
-525.423629624446
 31
0.0
  0
LINE
  5
1B22D
330
18
100
AcDbEntity
  8
01
  6
BYBLOCK
100
AcDbLine
 10
2338.474453275721
 20
-526.120297518446
 30
0.0
 11
2341.074453275721
 21
-526.120297518446
 31
0.0
  0
LINE
  5
1B22E
330
18
100
AcDbEntity
  8
01
  6
BYBLOCK
100
AcDbLine
 10
2386.874453275721
 20
-525.423629624446
 30
0.0
 11
2389.474453275721
 21
-526.120297518446
 31
0.0
  0
LINE
  5
1B22F
330
18
100
AcDbEntity
  8
01
  6
BYBLOCK
100
AcDbLine
 10
2389.474453275721
 20
-526.120297518446
 30
0.0
 11
2386.874453275721
 21
-526.816965412446
 31
0.0
  0
LINE
  5
1B230
330
18
100
AcDbEntity
  8
01
  6
BYBLOCK
100
AcDbLine
 10
2389.474453275721
 20
-526.120297518446
 30
0.0
 11
2386.874453275721
 21
-526.120297518446
 31
0.0
  0
TEXT
  5
1B231
330
18
100
AcDbEntity
  8
01
  6
CONTINUOUS
100
AcDbText
 10
2360.925321331277
 20
-525.210297518446
 30
0.0
 40
4.55
  1
51
100
AcDbText
1001
ACAD
1000
DSTYLE
1002
{
1070
    40
1040
1.3
1070
    45
1040
0.5
1002
}
  0
LINE
  5
1B232
330
18
100
AcDbEntity
  8
01
  6
BYBLOCK
100
AcDbLine
 10
2209.574569615466
 20
-526.8169654124463
 30
0.0
 11
2206.974569615466
 21
-526.1202975184463
 31
0.0
  0
LINE
  5
1B233
330
18
100
AcDbEntity
  8
01
  6
BYBLOCK
100
AcDbLine
 10
2206.974569615466
 20
-526.1202975184463
 30
0.0
 11
2209.574569615466
 21
-525.4236296244462
 31
0.0
  0
LINE
  5
1B234
330
18
100
AcDbEntity
  8
01
  6
BYBLOCK
100
AcDbLine
 10
2206.974569615466
 20
-526.1202975184463
 30
0.0
 11
2209.574569615466
 21
-526.1202975184463
 31
0.0
  0
LINE
  5
1B235
330
18
100
AcDbEntity
  8
01
  6
BYBLOCK
100
AcDbLine
 10
2229.374569615466
 20
-525.4236296244462
 30
0.0
 11
2231.974569615466
 21
-526.1202975184463
 31
0.0
  0
LINE
  5
1B236
330
18
100
AcDbEntity
  8
01
  6
BYBLOCK
100
AcDbLine
 10
2231.974569615466
 20
-526.1202975184463
 30
0.0
 11
2229.374569615466
 21
-526.8169654124463
 31
0.0
  0
LINE
  5
1B237
330
18
100
AcDbEntity
  8
01
  6
BYBLOCK
100
AcDbLine
 10
2231.974569615466
 20
-526.1202975184463
 30
0.0
 11
2229.374569615466
 21
-526.1202975184463
 31
0.0
  0
TEXT
  5
1B238
330
18
100
AcDbEntity
  8
01
  6
CONTINUOUS
100
AcDbText
 10
2215.682902948799
 20
-525.2102975184463
 30
0.0
 40
4.55
  1
25
100
AcDbText
1001
ACAD
1000
DSTYLE
1002
{
1070
    40
1040
1.3
1070
    45
1040
0.5
1002
}
  0
LINE
  5
1B239
330
18
100
AcDbEntity
  8
01
  6
BYBLOCK
100
AcDbLine
 10
2303.56597249291
 20
-580.1413444587182
 30
0.0000000001127424
 11
2304.26264038691
 21
-577.5413444587182
 31
0.0000000001127424
  0
LINE
  5
1B23A
330
18
100
AcDbEntity
  8
01
  6
BYBLOCK
100
AcDbLine
 10
2304.26264038691
 20
-577.5413444587182
 30
0.0000000001127424
 11
2304.95930828091
 21
-580.1413444587182
 31
0.0000000001127424
  0
LINE
  5
1B23B
330
18
100
AcDbEntity
  8
01
  6
BYBLOCK
100
AcDbLine
 10
2304.26264038691
 20
-577.5413444587182
 30
0.0000000001127424
 11
2304.26264038691
 21
-580.1413444587182
 31
0.0000000001127424
  0
LINE
  5
1B23C
330
18
100
AcDbEntity
  8
01
  6
BYBLOCK
100
AcDbLine
 10
2304.95930828091
 20
-688.9413444587182
 30
0.0000000001127424
 11
2304.26264038691
 21
-691.5413444587182
 31
0.0000000001127424
  0
LINE
  5
1B23D
330
18
100
AcDbEntity
  8
01
  6
BYBLOCK
100
AcDbLine
 10
2304.26264038691
 20
-691.5413444587182
 30
0.0000000001127424
 11
2303.56597249291
 21
-688.9413444587182
 31
0.0000000001127424
  0
LINE
  5
1B23E
330
18
100
AcDbEntity
  8
01
  6
BYBLOCK
100
AcDbLine
 10
2304.26264038691
 20
-691.5413444587182
 30
0.0000000001127424
 11
2304.26264038691
 21
-688.9413444587182
 31
0.0000000001127424
  0
TEXT
  5
1B23F
330
18
100
AcDbEntity
  8
01
  6
CONTINUOUS
100
AcDbText
 10
2303.35264038691
 20
-609.9583221107964
 30
0.0000000001127424
 40
4.55
  1
114
 50
90.0
100
AcDbText
1001
ACAD
1000
DSTYLE
1002
{
1070
    40
1040
1.3
1070
    45
1040
0.5
1002
}
  0
LINE
  5
1B240
330
18
100
AcDbEntity
  8
01
  6
BYBLOCK
100
AcDbLine
 10
2312.930306659135
 20
-572.2417896031346
 30
0.0000000001127424
 11
2313.626974553134
 21
-569.6417896031346
 31
0.0000000001127424
  0
LINE
  5
1B241
330
18
100
AcDbEntity
  8
01
  6
BYBLOCK
100
AcDbLine
 10
2313.626974553134
 20
-569.6417896031346
 30
0.0000000001127424
 11
2314.323642447134
 21
-572.2417896031346
 31
0.0000000001127424
  0
LINE
  5
1B242
330
18
100
AcDbEntity
  8
01
  6
BYBLOCK
100
AcDbLine
 10
2313.626974553134
 20
-569.6417896031346
 30
0.0000000001127424
 11
2313.626974553134
 21
-572.2417896031346
 31
0.0000000001127424
  0
LINE
  5
1B243
330
18
100
AcDbEntity
  8
01
  6
BYBLOCK
100
AcDbLine
 10
2314.323642447134
 20
-696.841344458718
 30
0.0000000001127424
 11
2313.626974553134
 21
-699.441344458718
 31
0.0000000001127424
  0
LINE
  5
1B244
330
18
100
AcDbEntity
  8
01
  6
BYBLOCK
100
AcDbLine
 10
2313.626974553134
 20
-699.441344458718
 30
0.0000000001127424
 11
2312.930306659135
 21
-696.841344458718
 31
0.0000000001127424
  0
LINE
  5
1B245
330
18
100
AcDbEntity
  8
01
  6
BYBLOCK
100
AcDbLine
 10
2313.626974553134
 20
-699.441344458718
 30
0.0000000001127424
 11
2313.626974553134
 21
-696.841344458718
 31
0.0000000001127424
  0
TEXT
  5
1B246
330
18
100
AcDbEntity
  8
01
  6
CONTINUOUS
100
AcDbText
 10
2312.716974553135
 20
-610.7428861136045
 30
0.0000000001127424
 40
4.55
  1
130
 50
90.0
100
AcDbText
1001
ACAD
1000
DSTYLE
1002
{
1070
    40
1040
1.3
1070
    45
1040
0.5
1002
}
  0
LINE
  5
1B247
330
18
100
AcDbEntity
  8
01
  6
BYBLOCK
100
AcDbLine
 10
2353.777785381722
 20
-633.141789603134
 30
0.0
 11
2354.474453275721
 21
-630.541789603134
 31
0.0
  0
LINE
  5
1B248
330
18
100
AcDbEntity
  8
01
  6
BYBLOCK
100
AcDbLine
 10
2354.474453275721
 20
-630.541789603134
 30
0.0
 11
2355.171121169721
 21
-633.141789603134
 31
0.0
  0
LINE
  5
1B249
330
18
100
AcDbEntity
  8
01
  6
BYBLOCK
100
AcDbLine
 10
2354.474453275721
 20
-630.541789603134
 30
0.0
 11
2354.474453275721
 21
-633.141789603134
 31
0.0
  0
LINE
  5
1B24A
330
18
100
AcDbEntity
  8
01
  6
BYBLOCK
100
AcDbLine
 10
2355.171121169721
 20
-677.9417896031331
 30
0.0
 11
2354.474453275721
 21
-680.5417896031331
 31
0.0
  0
LINE
  5
1B24B
330
18
100
AcDbEntity
  8
01
  6
BYBLOCK
100
AcDbLine
 10
2354.474453275721
 20
-680.5417896031331
 30
0.0
 11
2353.777785381722
 21
-677.9417896031331
 31
0.0
  0
LINE
  5
1B24C
330
18
100
AcDbEntity
  8
01
  6
BYBLOCK
100
AcDbLine
 10
2354.474453275721
 20
-680.5417896031331
 30
0.0
 11
2354.474453275721
 21
-677.9417896031331
 31
0.0
  0
TEXT
  5
1B24D
330
18
100
AcDbEntity
  8
01
  6
CONTINUOUS
100
AcDbText
 10
2353.564453275721
 20
-663.7412925097328
 30
0.0
 40
4.55
  1
φ50
 50
90.0
100
AcDbText
1001
ACAD
1000
DSTYLE
1002
{
1070
     3
1000
φ<>
1070
    40
1040
1.3
1070
    45
1040
0.5
1002
}
  0
SOLID
  5
1B24E
330
18
100
AcDbEntity
  8
1DIM
100
AcDbTrace
 10
2386.844302630467
 20
-431.5925466580779
 30
0.0000000000563712
 11
2389.215054515782
 21
-430.4404558300375
 31
0.0000000000563712
 12
2387.346102460389
 22
-432.2991639815291
 32
0.0000000000563712
 13
2387.346102460389
 23
-432.2991639815291
 33
0.0000000000563712
1001
ACAD
1000
DSTYLE
1002
{
1070
    40
1040
1.3
1070
    45
1040
0.5
1002
}
  0
LINE
  5
1B24F
330
18
100
AcDbEntity
  8
1DIM
100
AcDbLine
 10
2387.095202545428
 20
-431.9458553198035
 30
0.0000000000563712
 11
2359.627614368739
 21
-451.4517896041627
 31
0.0000000000563712
1001
ACAD
1000
DSTYLE
1002
{
1070
    40
1040
1.3
1070
    45
1040
0.5
1002
}
  0
TEXT
  5
1B250
330
18
100
AcDbEntity
  8
1DIM
  6
CONTINUOUS
100
AcDbText
 10
2438.043339187589
 20
-426.4809750733309
 30
0.0000000000563712
 40
4.55
  1
材質：牛革
100
AcDbText
1001
ACADANNOTATIVE
1000
AnnotativeData
1002
{
1070
     1
1070
     0
1002
}
  0
TEXT
  5
1B251
330
18
100
AcDbEntity
  8
1DIM
  6
CONTINUOUS
100
AcDbText
 10
2438.195005854255
 20
-434.0643084066642
 30
0.0000000000563712
 40
4.55
  1
仕上げ：各種仕上げ
100
AcDbText
1001
ACADANNOTATIVE
1000
AnnotativeData
1002
{
1070
     1
1070
     0
1002
}
  0
SOLID
  5
1B252
330
18
100
AcDbEntity
  8
1DIM
100
AcDbTrace
 10
2423.549612777634
 20
-448.8717167840126
 30
0.0000000000563712
 11
2421.532444944802
 21
-450.5684229200197
 31
0.0000000000563712
 12
2422.890293607425
 22
-448.30921403477
 32
0.0000000000563712
 13
2422.890293607425
 23
-448.30921403477
 33
0.0000000000563712
1001
ACAD
1000
DSTYLE
1002
{
1070
    40
1040
1.3
1070
    45
1040
0.5
1002
}
  0
LINE
  5
1B253
330
18
100
AcDbEntity
  8
1DIM
100
AcDbLine
 10
2423.219953192529
 20
-448.5904654093913
 30
0.0000000000563712
 11
2434.836672520922
 21
-434.9743084066642
 31
0.0000000000563712
1001
ACAD
1000
DSTYLE
1002
{
1070
    40
1040
1.3
1070
    45
1040
0.5
1002
}
  0
LINE
  5
1B254
330
18
100
AcDbEntity
  8
1DIM
100
AcDbLine
 10
2434.836672520922
 20
-434.9743084066642
 30
0.0000000000563712
 11
2486.425005854255
 21
-434.9743084066642
 31
0.0000000000563712
1001
ACAD
1000
DSTYLE
1002
{
1070
    40
1040
1.3
1070
    45
1040
0.5
1002
}
  0
LINE
  5
1B255
330
18
100
AcDbEntity
  8
1DIM
100
AcDbLine
 10
2405.875337457781
 20
-376.0417896041627
 30
0.0
 11
2426.435728217494
 21
-376.0417896041627
 31
0.0
1001
ACAD
1000
DSTYLE
1002
{
1070
    45
1040
0.5
1070
    40
1040
1.3
1002
}
  0
LINE
  5
1B256
330
18
100
AcDbEntity
  8
1DIM
100
AcDbLine
 10
2407.475337457781
 20
-394.8417896041626
 30
0.0
 11
2426.435728217494
 21
-394.8417896041626
 31
0.0
1001
ACAD
1000
DSTYLE
1002
{
1070
    45
1040
0.5
1070
    40
1040
1.3
1002
}
  0
LINE
  5
1B257
330
18
100
AcDbEntity
  8
1DIM
100
AcDbLine
 10
2425.135728217494
 20
-378.6417896041627
 30
0.0
 11
2425.135728217494
 21
-392.2417896041626
 31
0.0
1001
ACAD
1000
DSTYLE
1002
{
1070
    45
1040
0.5
1070
    40
1040
1.3
1002
}
  0
LINE
  5
1B25B
330
18
100
AcDbEntity
  8
1DIM
100
AcDbLine
 10
2389.474453275721
 20
-427.0431079162367
 30
0.0
 11
2389.474453275721
 21
-491.8431079162368
 31
0.0
1001
ACAD
1000
DSTYLE
1002
{
1070
    40
1040
1.3
1070
    45
1040
0.5
1002
}
  0
LINE
  5
1B25C
330
18
100
AcDbEntity
  8
1DIM
100
AcDbLine
 10
2515.474425170224
 20
-454.2426544712675
 30
0.0
 11
2515.474425170224
 21
-491.8431079162368
 31
0.0
1001
ACAD
1000
DSTYLE
1002
{
1070
    40
1040
1.3
1070
    45
1040
0.5
1002
}
  0
LINE
  5
1B25D
330
18
100
AcDbEntity
  8
1DIM
100
AcDbLine
 10
2392.074453275721
 20
-490.5431079162367
 30
0.0
 11
2512.874425170224
 21
-490.5431079162367
 31
0.0
1001
ACAD
1000
DSTYLE
1002
{
1070
    40
1040
1.3
1070
    45
1040
0.5
1002
}
  0
LINE
  5
1B261
330
18
100
AcDbEntity
  8
1DIM
100
AcDbLine
 10
2363.474425189033
 20
-454.2432200988537
 30
0.0
 11
2363.474425189033
 21
-501.8431079162368
 31
0.0
1001
ACAD
1000
DSTYLE
1002
{
1070
    40
1040
1.3
1070
    45
1040
0.5
1002
}
  0
LINE
  5
1B262
330
18
100
AcDbEntity
  8
1DIM
100
AcDbLine
 10
2515.474425170224
 20
-454.2426544712675
 30
0.0
 11
2515.474425170224
 21
-501.8431079162368
 31
0.0
1001
ACAD
1000
DSTYLE
1002
{
1070
    40
1040
1.3
1070
    45
1040
0.5
1002
}
  0
LINE
  5
1B263
330
18
100
AcDbEntity
  8
1DIM
100
AcDbLine
 10
2366.074425189033
 20
-500.5431079162367
 30
0.0
 11
2512.874425170224
 21
-500.5431079162367
 31
0.0
1001
ACAD
1000
DSTYLE
1002
{
1070
    40
1040
1.3
1070
    45
1040
0.5
1002
}
  0
LINE
  5
1B267
330
18
100
AcDbEntity
  8
1DIM
100
AcDbLine
 10
2510.942565713901
 20
-441.429441543864
 30
0.0
 11
2545.774453275721
 21
-441.429441543864
 31
0.0
1001
ACAD
1000
DSTYLE
1002
{
1070
    40
1040
1.3
1070
    45
1040
0.5
1002
}
  0
LINE
  5
1B268
330
18
100
AcDbEntity
  8
1DIM
100
AcDbLine
 10
2492.229601273069
 20
-405.5431079162367
 30
0.0
 11
2545.774453275721
 21
-405.5431079162367
 31
0.0
1001
ACAD
1000
DSTYLE
1002
{
1070
    40
1040
1.3
1070
    45
1040
0.5
1002
}
  0
LINE
  5
1B269
330
18
100
AcDbEntity
  8
1DIM
100
AcDbLine
 10
2544.474453275721
 20
-438.8294415438639
 30
0.0
 11
2544.474453275721
 21
-408.1431079162368
 31
0.0
1001
ACAD
1000
DSTYLE
1002
{
1070
    40
1040
1.3
1070
    45
1040
0.5
1002
}
  0
LINE
  5
1B26D
330
18
100
AcDbEntity
  8
1DIM
100
AcDbLine
 10
2510.943181968451
 20
-467.2323159149471
 30
0.0
 11
2555.774453275721
 21
-467.2323159149471
 31
0.0
1001
ACAD
1000
DSTYLE
1002
{
1070
    40
1040
1.3
1070
    45
1040
0.5
1002
}
  0
LINE
  5
1B26E
330
18
100
AcDbEntity
  8
1DIM
100
AcDbLine
 10
2492.229601273069
 20
-405.5431079162367
 30
0.0
 11
2555.774453275721
 21
-405.5431079162367
 31
0.0
1001
ACAD
1000
DSTYLE
1002
{
1070
    40
1040
1.3
1070
    45
1040
0.5
1002
}
  0
LINE
  5
1B26F
330
18
100
AcDbEntity
  8
1DIM
100
AcDbLine
 10
2554.474453275721
 20
-464.6323159149471
 30
0.0
 11
2554.474453275721
 21
-408.1431079162368
 31
0.0
1001
ACAD
1000
DSTYLE
1002
{
1070
    40
1040
1.3
1070
    45
1040
0.5
1002
}
  0
LINE
  5
1B273
330
18
100
AcDbEntity
  8
1DIM
100
AcDbLine
 10
2510.974425171677
 20
-668.5307414298275
 30
0.0
 11
2545.774453275721
 21
-668.5307414298275
 31
0.0
1001
ACAD
1000
DSTYLE
1002
{
1070
    40
1040
1.3
1070
    45
1040
0.5
1002
}
  0
LINE
  5
1B274
330
18
100
AcDbEntity
  8
1DIM
100
AcDbLine
 10
2510.974425171677
 20
-642.5528377764406
 30
0.0
 11
2545.774453275721
 21
-642.5528377764406
 31
0.0
1001
ACAD
1000
DSTYLE
1002
{
1070
    40
1040
1.3
1070
    45
1040
0.5
1002
}
  0
LINE
  5
1B275
330
18
100
AcDbEntity
  8
1DIM
100
AcDbLine
 10
2544.474453275721
 20
-665.9307414298274
 30
0.0
 11
2544.474453275721
 21
-645.1528377764406
 31
0.0
1001
ACAD
1000
DSTYLE
1002
{
1070
    40
1040
1.3
1070
    45
1040
0.5
1002
}
  0
LINE
  5
1B279
330
18
100
AcDbEntity
  8
0
  6
BYBLOCK
100
AcDbLine
 10
2424.439060323494
 20
-378.6417896041627
 30
0.0
 11
2425.135728217494
 21
-376.0417896041627
 31
0.0
  0
LINE
  5
1B27A
330
18
100
AcDbEntity
  8
0
  6
BYBLOCK
100
AcDbLine
 10
2425.135728217494
 20
-376.0417896041627
 30
0.0
 11
2425.832396111494
 21
-378.6417896041627
 31
0.0
  0
LINE
  5
1B27B
330
18
100
AcDbEntity
  8
0
  6
BYBLOCK
100
AcDbLine
 10
2425.135728217494
 20
-376.0417896041627
 30
0.0
 11
2425.135728217494
 21
-378.6417896041627
 31
0.0
  0
LINE
  5
1B27C
330
18
100
AcDbEntity
  8
0
  6
BYBLOCK
100
AcDbLine
 10
2425.832396111494
 20
-392.2417896041626
 30
0.0
 11
2425.135728217494
 21
-394.8417896041626
 31
0.0
  0
LINE
  5
1B27D
330
18
100
AcDbEntity
  8
0
  6
BYBLOCK
100
AcDbLine
 10
2425.135728217494
 20
-394.8417896041626
 30
0.0
 11
2424.439060323494
 21
-392.2417896041626
 31
0.0
  0
LINE
  5
1B27E
330
18
100
AcDbEntity
  8
0
  6
BYBLOCK
100
AcDbLine
 10
2425.135728217494
 20
-394.8417896041626
 30
0.0
 11
2425.135728217494
 21
-392.2417896041626
 31
0.0
  0
TEXT
  5
1B27F
330
18
100
AcDbEntity
  8
1DIM
  6
CONTINUOUS
100
AcDbText
 10
2424.225728217494
 20
-388.476176178237
 30
0.0
 40
4.55
  1
19
 50
90.0
100
AcDbText
1001
ACAD
1000
DSTYLE
1002
{
1070
    45
1040
0.5
1070
    40
1040
1.3
1002
}
  0
LINE
  5
1B280
330
18
100
AcDbEntity
  8
0
  6
BYBLOCK
100
AcDbLine
 10
2392.074453275721
 20
-491.2397758102367
 30
0.0
 11
2389.474453275721
 21
-490.5431079162367
 31
0.0
  0
LINE
  5
1B281
330
18
100
AcDbEntity
  8
0
  6
BYBLOCK
100
AcDbLine
 10
2389.474453275721
 20
-490.5431079162367
 30
0.0
 11
2392.074453275721
 21
-489.8464400222368
 31
0.0
  0
LINE
  5
1B282
330
18
100
AcDbEntity
  8
0
  6
BYBLOCK
100
AcDbLine
 10
2389.474453275721
 20
-490.5431079162367
 30
0.0
 11
2392.074453275721
 21
-490.5431079162367
 31
0.0
  0
LINE
  5
1B283
330
18
100
AcDbEntity
  8
0
  6
BYBLOCK
100
AcDbLine
 10
2512.874425170224
 20
-489.8464400222368
 30
0.0
 11
2515.474425170224
 21
-490.5431079162367
 31
0.0
  0
LINE
  5
1B284
330
18
100
AcDbEntity
  8
0
  6
BYBLOCK
100
AcDbLine
 10
2515.474425170224
 20
-490.5431079162367
 30
0.0
 11
2512.874425170224
 21
-491.2397758102367
 31
0.0
  0
LINE
  5
1B285
330
18
100
AcDbEntity
  8
0
  6
BYBLOCK
100
AcDbLine
 10
2515.474425170224
 20
-490.5431079162367
 30
0.0
 11
2512.874425170224
 21
-490.5431079162367
 31
0.0
  0
TEXT
  5
1B286
330
18
100
AcDbEntity
  8
1DIM
  6
CONTINUOUS
100
AcDbText
 10
2447.166105889639
 20
-489.6331079162368
 30
0.0
 40
4.55
  1
126
100
AcDbText
1001
ACAD
1000
DSTYLE
1002
{
1070
    40
1040
1.3
1070
    45
1040
0.5
1002
}
  0
LINE
  5
1B287
330
18
100
AcDbEntity
  8
0
  6
BYBLOCK
100
AcDbLine
 10
2366.074425189033
 20
-501.2397758102367
 30
0.0
 11
2363.474425189033
 21
-500.5431079162367
 31
0.0
  0
LINE
  5
1B288
330
18
100
AcDbEntity
  8
0
  6
BYBLOCK
100
AcDbLine
 10
2363.474425189033
 20
-500.5431079162367
 30
0.0
 11
2366.074425189033
 21
-499.8464400222368
 31
0.0
  0
LINE
  5
1B289
330
18
100
AcDbEntity
  8
0
  6
BYBLOCK
100
AcDbLine
 10
2363.474425189033
 20
-500.5431079162367
 30
0.0
 11
2366.074425189033
 21
-500.5431079162367
 31
0.0
  0
LINE
  5
1B28A
330
18
100
AcDbEntity
  8
0
  6
BYBLOCK
100
AcDbLine
 10
2512.874425170224
 20
-499.8464400222368
 30
0.0
 11
2515.474425170224
 21
-500.5431079162367
 31
0.0
  0
LINE
  5
1B28B
330
18
100
AcDbEntity
  8
0
  6
BYBLOCK
100
AcDbLine
 10
2515.474425170224
 20
-500.5431079162367
 30
0.0
 11
2512.874425170224
 21
-501.2397758102367
 31
0.0
  0
LINE
  5
1B28C
330
18
100
AcDbEntity
  8
0
  6
BYBLOCK
100
AcDbLine
 10
2515.474425170224
 20
-500.5431079162367
 30
0.0
 11
2512.874425170224
 21
-500.5431079162367
 31
0.0
  0
TEXT
  5
1B28D
330
18
100
AcDbEntity
  8
1DIM
  6
CONTINUOUS
100
AcDbText
 10
2434.150293235184
 20
-499.6331079162368
 30
0.0
 40
4.55
  1
152
100
AcDbText
1001
ACAD
1000
DSTYLE
1002
{
1070
    40
1040
1.3
1070
    45
1040
0.5
1002
}
  0
LINE
  5
1B28E
330
18
100
AcDbEntity
  8
0
  6
BYBLOCK
100
AcDbLine
 10
2545.171121169721
 20
-438.8294415438639
 30
0.0
 11
2544.474453275721
 21
-441.429441543864
 31
0.0
  0
LINE
  5
1B28F
330
18
100
AcDbEntity
  8
0
  6
BYBLOCK
100
AcDbLine
 10
2544.474453275721
 20
-441.429441543864
 30
0.0
 11
2543.777785381722
 21
-438.8294415438639
 31
0.0
  0
LINE
  5
1B290
330
18
100
AcDbEntity
  8
0
  6
BYBLOCK
100
AcDbLine
 10
2544.474453275721
 20
-441.429441543864
 30
0.0
 11
2544.474453275721
 21
-438.8294415438639
 31
0.0
  0
LINE
  5
1B291
330
18
100
AcDbEntity
  8
0
  6
BYBLOCK
100
AcDbLine
 10
2543.777785381722
 20
-408.1431079162368
 30
0.0
 11
2544.474453275721
 21
-405.5431079162367
 31
0.0
  0
LINE
  5
1B292
330
18
100
AcDbEntity
  8
0
  6
BYBLOCK
100
AcDbLine
 10
2544.474453275721
 20
-405.5431079162367
 30
0.0
 11
2545.171121169721
 21
-408.1431079162368
 31
0.0
  0
LINE
  5
1B293
330
18
100
AcDbEntity
  8
0
  6
BYBLOCK
100
AcDbLine
 10
2544.474453275721
 20
-405.5431079162367
 30
0.0
 11
2544.474453275721
 21
-408.1431079162368
 31
0.0
  0
TEXT
  5
1B294
330
18
100
AcDbEntity
  8
1DIM
  6
CONTINUOUS
100
AcDbText
 10
2543.564453275721
 20
-427.2779413967169
 30
0.0
 40
4.55
  1
36
 50
90.0
100
AcDbText
1001
ACAD
1000
DSTYLE
1002
{
1070
    40
1040
1.3
1070
    45
1040
0.5
1002
}
  0
LINE
  5
1B295
330
18
100
AcDbEntity
  8
0
  6
BYBLOCK
100
AcDbLine
 10
2555.171121169721
 20
-464.6323159149471
 30
0.0
 11
2554.474453275721
 21
-467.2323159149471
 31
0.0
  0
LINE
  5
1B296
330
18
100
AcDbEntity
  8
0
  6
BYBLOCK
100
AcDbLine
 10
2554.474453275721
 20
-467.2323159149471
 30
0.0
 11
2553.777785381722
 21
-464.6323159149471
 31
0.0
  0
LINE
  5
1B297
330
18
100
AcDbEntity
  8
0
  6
BYBLOCK
100
AcDbLine
 10
2554.474453275721
 20
-467.2323159149471
 30
0.0
 11
2554.474453275721
 21
-464.6323159149471
 31
0.0
  0
LINE
  5
1B298
330
18
100
AcDbEntity
  8
0
  6
BYBLOCK
100
AcDbLine
 10
2553.777785381722
 20
-408.1431079162368
 30
0.0
 11
2554.474453275721
 21
-405.5431079162367
 31
0.0
  0
LINE
  5
1B299
330
18
100
AcDbEntity
  8
0
  6
BYBLOCK
100
AcDbLine
 10
2554.474453275721
 20
-405.5431079162367
 30
0.0
 11
2555.171121169721
 21
-408.1431079162368
 31
0.0
  0
LINE
  5
1B29A
330
18
100
AcDbEntity
  8
0
  6
BYBLOCK
100
AcDbLine
 10
2554.474453275721
 20
-405.5431079162367
 30
0.0
 11
2554.474453275721
 21
-408.1431079162368
 31
0.0
  0
TEXT
  5
1B29B
330
18
100
AcDbEntity
  8
1DIM
  6
CONTINUOUS
100
AcDbText
 10
2553.564453275721
 20
-442.4701771933696
 30
0.0
 40
4.55
  1
61.5
 50
90.0
100
AcDbText
1001
ACAD
1000
DSTYLE
1002
{
1070
    40
1040
1.3
1070
    45
1040
0.5
1002
}
  0
LINE
  5
1B29C
330
18
100
AcDbEntity
  8
0
  6
BYBLOCK
100
AcDbLine
 10
2545.171121169721
 20
-665.9307414298274
 30
0.0
 11
2544.474453275721
 21
-668.5307414298275
 31
0.0
  0
LINE
  5
1B29D
330
18
100
AcDbEntity
  8
0
  6
BYBLOCK
100
AcDbLine
 10
2544.474453275721
 20
-668.5307414298275
 30
0.0
 11
2543.777785381722
 21
-665.9307414298274
 31
0.0
  0
LINE
  5
1B29E
330
18
100
AcDbEntity
  8
0
  6
BYBLOCK
100
AcDbLine
 10
2544.474453275721
 20
-668.5307414298275
 30
0.0
 11
2544.474453275721
 21
-665.9307414298274
 31
0.0
  0
LINE
  5
1B29F
330
18
100
AcDbEntity
  8
0
  6
BYBLOCK
100
AcDbLine
 10
2543.777785381722
 20
-645.1528377764406
 30
0.0
 11
2544.474453275721
 21
-642.5528377764406
 31
0.0
  0
LINE
  5
1B2A0
330
18
100
AcDbEntity
  8
0
  6
BYBLOCK
100
AcDbLine
 10
2544.474453275721
 20
-642.5528377764406
 30
0.0
 11
2545.171121169721
 21
-645.1528377764406
 31
0.0
  0
LINE
  5
1B2A1
330
18
100
AcDbEntity
  8
0
  6
BYBLOCK
100
AcDbLine
 10
2544.474453275721
 20
-642.5528377764406
 30
0.0
 11
2544.474453275721
 21
-645.1528377764406
 31
0.0
  0
TEXT
  5
1B2A2
330
18
100
AcDbEntity
  8
1DIM
  6
CONTINUOUS
100
AcDbText
 10
2543.564453275721
 20
-659.3334562698005
 30
0.0
 40
4.55
  1
26
 50
90.0
100
AcDbText
1001
ACAD
1000
DSTYLE
1002
{
1070
    40
1040
1.3
1070
    45
1040
0.5
1002
}
  0
VIEWPORT
  5
57
330
15
100
AcDbEntity
 67
     1
  8
0
100
AcDbViewport
 68
     1
 10
0.0
 20
0.0
 30
0.0
 40
535.5106132075472
 41
297.0
 68
     1
 69
     1
1001
ACAD
1000
MVIEW
1002
{
1070
    16
1010
0.0
1020
0.0
1030
0.0
1010
0.0
1020
0.0
1030
1.0
1040
0.0
1040
297.0
1040
-4.171999999925333
1040
12.83903210976956
1040
50.0
1040
0.0
1040
0.0
1070
    16
1070
   100
1070
     0
1070
     1
1070
     0
1070
     0
1070
     0
1070
     0
1040
0.0
1040
0.0
1040
0.0
1040
10.0
1040
10.0
1040
10.0
1040
10.0
1070
     0
1002
{
1002
}
1002
}
  0
ENDSEC
  0
SECTION
  2
OBJECTS
  0
DICTIONARY
  5
C
330
0
100
AcDbDictionary
  3
ACAD_COLOR
350
18D
  3
ACAD_GROUP
350
D
  3
ACAD_LAYOUT
350
18E
  3
ACAD_MATERIAL
350
18C
  3
ACAD_MLEADERSTYLE
350
D9E7
  3
ACAD_MLINESTYLE
350
1B
  3
ACAD_PLOTSETTINGS
350
18F
  3
ACAD_SCALELIST
350
D9C5
  3
ACAD_VISUALSTYLE
350
D9B4
  3
ACDBHEADERROUNDTRIPXREC
350
1B2A3
  3
ACDBVARIABLEDICTIONARY
350
37
  3
CONTENTDICTIONARY
350
D8
  3
DRAWINGVARIABLESDICT
350
20
  3
DWGPROPS
350
1B2A6
1001
ACAD
1000
TREAT_AS_HARD
1070
     0
  0
DICTIONARY
  5
E6A6
330
2
100
AcDbDictionary
  3
ACAD_LAYERSTATES
360
E6A7
1001
ACAD
1000
TREAT_AS_HARD
1070
     1
  0
DICTIONARY
  5
DA05
330
E
100
AcDbDictionary
  3
ADSK_XREC_LAYER_RECONCILED
360
DA06
1001
ACAD
1000
TREAT_AS_HARD
1070
     1
  0
DICTIONARY
  5
DA07
330
29
100
AcDbDictionary
  3
ADSK_XREC_LAYER_RECONCILED
360
DA08
1001
ACAD
1000
TREAT_AS_HARD
1070
     1
  0
DICTIONARY
  5
DA09
330
31
100
AcDbDictionary
  3
ADSK_XREC_LAYER_RECONCILED
360
DA0A
1001
ACAD
1000
TREAT_AS_HARD
1070
     1
  0
DICTIONARY
  5
DA0F
330
243
100
AcDbDictionary
  3
ADSK_XREC_LAYER_RECONCILED
360
DA10
1001
ACAD
1000
TREAT_AS_HARD
1070
     1
  0
DICTIONARY
  5
DA15
330
24E
100
AcDbDictionary
  3
ADSK_XREC_LAYER_RECONCILED
360
DA16
1001
ACAD
1000
TREAT_AS_HARD
1070
     1
  0
DICTIONARY
  5
88F
330
18
100
AcDbDictionary
  3
ACAD_SORTENTS
360
890
1001
ACAD
1000
TREAT_AS_HARD
1070
     1
  0
DICTIONARY
  5
18D
102
{ACAD_REACTORS
330
C
102
}
330
C
100
AcDbDictionary
1001
ACAD
1000
TREAT_AS_HARD
1070
     0
  0
DICTIONARY
  5
D
102
{ACAD_REACTORS
330
C
102
}
330
C
100
AcDbDictionary
1001
ACAD
1000
TREAT_AS_HARD
1070
     0
  0
DICTIONARY
  5
18E
102
{ACAD_REACTORS
330
C
102
}
330
C
100
AcDbDictionary
1001
ACAD
1000
TREAT_AS_HARD
1070
     0
  0
DICTIONARY
  5
18C
102
{ACAD_REACTORS
330
C
102
}
330
C
100
AcDbDictionary
  3
BYBLOCK
350
D9A4
  3
BYLAYER
350
D99C
  3
GLOBAL
350
D9AC
1001
ACAD
1000
TREAT_AS_HARD
1070
     0
  0
DICTIONARY
  5
D9E7
102
{ACAD_REACTORS
330
C
102
}
330
C
100
AcDbDictionary
  3
STANDARD
350
D9E8
1001
ACAD
1000
TREAT_AS_HARD
1070
     0
  0
DICTIONARY
  5
1B
102
{ACAD_REACTORS
330
C
102
}
330
C
100
AcDbDictionary
  3
STANDARD
350
1C
1001
ACAD
1000
TREAT_AS_HARD
1070
     0
  0
DICTIONARY
  5
18F
102
{ACAD_REACTORS
330
C
102
}
330
C
100
AcDbDictionary
1001
ACAD
1000
TREAT_AS_HARD
1070
     0
  0
DICTIONARY
  5
D9C5
102
{ACAD_REACTORS
330
C
102
}
330
C
100
AcDbDictionary
  3
A0
350
D9C6
  3
A1
350
D9C7
  3
A2
350
D9C8
  3
A3
350
D9C9
  3
A4
350
D9CA
  3
A5
350
D9CB
  3
A6
350
D9CC
  3
A7
350
D9CD
  3
A8
350
D9CE
  3
A9
350
D9CF
  3
B0
350
D9D0
  3
B1
350
D9D1
  3
B2
350
D9D2
  3
B3
350
D9D3
  3
B4
350
D9D4
  3
B5
350
D9D5
  3
B6
350
D9D6
  3
B7
350
D9D7
  3
B8
350
D9D8
  3
B9
350
D9D9
  3
C0
350
D9DA
  3
C1
350
D9DB
  3
C2
350
D9DC
  3
C3
350
D9DD
  3
C4
350
D9DE
  3
C5
350
D9DF
  3
C6
350
D9E0
  3
C7
350
D9E1
  3
C8
350
D9E2
  3
C9
350
D9E3
  3
D0
350
D9E4
  3
D1
350
D9E5
  3
D2
350
D9E6
1001
ACAD
1000
TREAT_AS_HARD
1070
     0
  0
DICTIONARY
  5
D9B4
102
{ACAD_REACTORS
330
C
102
}
330
C
100
AcDbDictionary
  3
2DWIREFRAME
350
D9BA
  3
3D_HIDDEN
350
D9BC
  3
3DWIREFRAME
350
D9BB
  3
BASIC
350
D9B9
  3
BRIGHTEN
350
D9C0
  3
COLORCHANGE
350
D9C4
  3
CONCEPTUAL
350
D9BD
  3
DIM
350
D9BF
  3
EDGECOLOROFF
350
19C2F
  3
FACEPATTERN
350
D9C3
  3
FLAT
350
D9B5
  3
FLATWITHEDGES
350
D9B6
  3
GOURAUD
350
D9B7
  3
GOURAUDWITHEDGES
350
D9B8
  3
HIDDEN
350
19C7E
  3
JITTEROFF
350
19C2D
  3
LINEPATTERN
350
D9C2
  3
MODELING
350
19C84
  3
OVERHANGOFF
350
19C2E
  3
REALISTIC
350
D9BE
  3
SHADED
350
19C83
  3
SHADED_WITH_EDGES
350
19C82
  3
SHADES_OF_GRAY
350
19C7F
  3
SKETCHY
350
19C80
  3
THICKEN
350
D9C1
  3
WIREFRAME
350
19C7D
  3
X-RAY
350
19C81
1001
ACAD
1000
TREAT_AS_HARD
1070
     0
  0
DICTIONARY
  5
1B2A3
102
{ACAD_REACTORS
330
C
102
}
330
C
100
AcDbDictionary
  3
COLORDICT
350
1B2A4
  3
MATERIALDICT
350
1B2A5
1001
ACAD
1000
TREAT_AS_HARD
1070
     0
  0
DICTIONARY
  5
37
102
{ACAD_REACTORS
330
C
102
}
330
C
100
AcDbDictionary
  3
CANNOSCALE
350
1A68D
  3
CMLEADERSTYLE
350
DA6A
  3
CTABLESTYLE
350
29E
  3
DIMADEC
350
38
  3
DIMASSOC
350
1CE
  3
HIDETEXT
350
704E
  3
INDEXCTL
350
DA6D
  3
INTERSECTIONCOLOR
350
7052
  3
INTERSECTIONDISPLAY
350
7051
  3
MSLTSCALE
350
1A6DD
  3
OBSCOLOR
350
704F
  3
OBSLTYPE
350
7050
  3
PROJECTNAME
350
1CF
  3
SORTENTS
350
DA6C
  3
XCLIPFRAME
350
19C7C
1001
ACAD
1000
TREAT_AS_HARD
1070
     0
  0
DICTIONARY
  5
D8
102
{ACAD_REACTORS
330
C
102
}
330
C
100
AcDbDictionary
1001
ACAD
1000
TREAT_AS_HARD
1070
     0
  0
DICTIONARY
  5
20
102
{ACAD_REACTORS
330
C
102
}
330
C
100
AcDbDictionary
1001
DRAWINGVARIABLESXDATA
1000
POLARANG
1000
0.261799387799149410000000
1000
POLARMODE
1000
1
1000
POLARSTYLE
1000
1
1001
ACAD
1000
TREAT_AS_HARD
1070
     0
  0
XRECORD
  5
1B2A6
102
{ACAD_REACTORS
330
C
102
}
330
C
100
AcDbXrecord
  1
DWGPROPS COOKIE
  2

  3

  4

  6

  7

  8
3684
  9

300
=
301
=
302
=
303
=
304
=
305
=
306
=
307
=
308
=
309
=
 40
0.0
 41
2451318.246352917
 42
2458627.994871238
  1

 90
        0
  0
DICTIONARY
  5
E6A7
102
{ACAD_REACTORS
330
E6A6
102
}
330
E6A6
100
AcDbDictionary
1001
ACAD
1000
TREAT_AS_HARD
1070
     0
  0
ACAD_PROXY_OBJECT
  5
DA06
102
{ACAD_REACTORS
330
DA05
102
}
330
DA05
100
AcDbZombieObject
 90
      499
 91
      514
 93
       34
310
40C8804040
  0
ACAD_PROXY_OBJECT
  5
DA08
102
{ACAD_REACTORS
330
DA07
102
}
330
DA07
100
AcDbZombieObject
 90
      499
 91
      514
 93
       34
310
40C8804040
  0
ACAD_PROXY_OBJECT
  5
DA0A
102
{ACAD_REACTORS
330
DA09
102
}
330
DA09
100
AcDbZombieObject
 90
      499
 91
      514
 93
       34
310
40C8804040
  0
ACAD_PROXY_OBJECT
  5
DA10
102
{ACAD_REACTORS
330
DA0F
102
}
330
DA0F
100
AcDbZombieObject
 90
      499
 91
      514
 93
       34
310
40C8804040
  0
ACAD_PROXY_OBJECT
  5
DA16
102
{ACAD_REACTORS
330
DA15
102
}
330
DA15
100
AcDbZombieObject
 90
      499
 91
      514
 93
       34
310
40C8804040
  0
SORTENTSTABLE
  5
890
102
{ACAD_REACTORS
330
88F
102
}
330
88F
100
AcDbSortentsTable
330
18
331
0
  5
5BFF
331
0
  5
1AC16
331
0
  5
1AC18
331
0
  5
1AC19
331
1AC18
  5
1AC3A
331
1AC19
  5
1AC3B
331
1AC1A
  5
1AC3C
331
1AC1E
  5
1AC5B
331
1AC1F
  5
1AC5C
331
1AC20
  5
1AC5D
331
1AC21
  5
1AC5E
331
1AC22
  5
1AC5F
331
1AC23
  5
1AC60
331
1AC24
  5
1AC61
331
1AC25
  5
1AC62
331
1AC26
  5
1AC63
331
1AC27
  5
1AC64
331
1AC28
  5
1AC65
331
1AC29
  5
1AC66
331
1AC2A
  5
1AC67
331
1AC2B
  5
1AC68
331
1AC2C
  5
1AC69
331
1AC2D
  5
1AC6A
331
1AC2E
  5
1AC6B
331
1AC2F
  5
1AC6C
331
1AC30
  5
1AC6D
331
1AC31
  5
1AC6E
331
1AC32
  5
1AC6F
331
1AC33
  5
1AC70
331
1AC34
  5
1AC71
331
1AC35
  5
1AC72
331
1AC36
  5
1AC73
331
1AC37
  5
1AC74
331
1AC38
  5
1AC75
331
1AC39
  5
1AC76
331
1AC3A
  5
1AC77
331
1AC3B
  5
1AC78
331
1AC3C
  5
1AC79
331
1AC3D
  5
1AC7A
331
1AC3E
  5
1AC7B
331
1AC3F
  5
1AC7C
331
1AC40
  5
1AC7D
331
1AC41
  5
1AC7E
331
1AC42
  5
1AC7F
331
1AC43
  5
1AC80
331
1AC44
  5
1AC81
331
1AC45
  5
1AC82
331
1AC46
  5
1AC83
331
1AC47
  5
1AC84
331
1AC48
  5
1AC85
331
1AC49
  5
1AC86
331
1AC4A
  5
1AC87
331
1AC4B
  5
1AC88
331
1AC4C
  5
1AC89
331
1AC4D
  5
1AC8A
331
1AC4E
  5
1AC8B
331
1AC4F
  5
1AC8D
331
1AC50
  5
1AC8E
331
1AC51
  5
1AC8F
331
1AC52
  5
1AC90
331
1AC53
  5
1AC91
331
1AC54
  5
1AC92
331
1AC55
  5
1AC93
331
1AC56
  5
1AC94
331
1AC57
  5
1AC95
331
1AC58
  5
1AC96
331
1AC59
  5
1AC97
331
1AC5A
  5
1AC98
331
1AC5B
  5
1AC99
331
1AC5C
  5
1AC9B
331
1AC5D
  5
1AC9C
331
1AC5E
  5
1AC9D
331
1AC5F
  5
1AC9E
331
1AC60
  5
1AC9F
331
1AC61
  5
1ACA0
331
1AC62
  5
1ACA1
331
0
  5
1AC9A
331
1AC64
  5
1ACB2
331
1AC65
  5
1ACB3
331
1AC66
  5
1ACB4
331
1AC67
  5
1ACB5
331
1AC68
  5
1ACB6
331
1AC69
  5
1ACB7
331
1AC6A
  5
1ACB8
331
1AC6B
  5
1ACB9
331
1AC6C
  5
1ACBA
331
1AC6D
  5
1ACBB
331
1AC6E
  5
1ACBC
331
1AC6F
  5
1ACBD
331
1AC70
  5
1ACBE
331
1AC71
  5
1ACBF
331
1AC72
  5
1ACC0
331
1AC73
  5
1ACC1
331
1AC74
  5
1ACC2
331
1AC75
  5
1ACC3
331
1AC76
  5
1ACC4
331
1AC77
  5
1ACC5
331
1AC78
  5
1ACC6
331
1AC79
  5
1ACC7
331
1AC7A
  5
1ACC8
331
1AC7B
  5
1ACC9
331
1AC7C
  5
1ACCA
331
1AC7D
  5
1ACCB
331
1AC7E
  5
1ACCC
331
1AC7F
  5
1ACCF
331
1AC80
  5
1ACD0
331
1AC81
  5
1ACD1
331
1AC82
  5
1ACD2
331
1AC83
  5
1ACD3
331
1AC84
  5
1ACD4
331
1AC85
  5
1ACD5
331
1AC86
  5
1ACD7
331
1AC87
  5
1ACD8
331
1AC88
  5
1ACD9
331
1AC89
  5
1ACDA
331
1AC8A
  5
1ACDB
331
1AC8B
  5
1ACDC
331
1AC8D
  5
1ACE7
331
1AC8E
  5
1ACE8
331
1AC8F
  5
1ACE9
331
1AC90
  5
1ACEA
331
1AC91
  5
1ACEB
331
1AC92
  5
1ACEC
331
1AC93
  5
1ACED
331
1AC94
  5
1ACEF
331
1AC95
  5
1ACF0
331
1AC96
  5
1ACF1
331
1AC97
  5
1ACF2
331
1AC98
  5
1ACF3
331
1AC99
  5
1ACF7
331
1AC9A
  5
1ACF8
331
1AC9B
  5
1ACF9
331
1AC9C
  5
1ACFD
331
1AC9D
  5
1ACFE
331
1AC9E
  5
1ACFF
331
1AC9F
  5
1AD00
331
1ACA0
  5
1AD01
331
1ACA1
  5
1AD02
331
1ACA2
  5
1AD03
331
1ACA3
  5
1AD04
331
1ACA4
  5
1AD05
331
1ACA5
  5
1AD06
331
1ACA6
  5
1AD0A
331
1ACA7
  5
1AD0B
331
1ACA8
  5
1AD0C
331
1ACA9
  5
1AD0D
331
1ACAA
  5
1AD0E
331
1ACAB
  5
1AD0F
331
1ACAC
  5
1AD10
331
1ACAD
  5
1AD11
331
1ACAE
  5
1AD12
331
1ACAF
  5
1AD13
331
1ACB0
  5
1AD14
331
1ACB1
  5
1AD15
331
1ACB2
  5
1AD16
331
1ACB3
  5
1AD17
331
1ACB4
  5
1AD18
331
1ACB5
  5
1AD19
331
1ACB6
  5
1AD1A
331
1ACB7
  5
1AD1B
331
1ACB8
  5
1AD1C
331
1ACB9
  5
1AD1D
331
1ACBA
  5
1AD1E
331
1ACBB
  5
1AD1F
331
1ACBC
  5
1AD20
331
1ACBD
  5
1AD21
331
1ACBE
  5
1AD22
331
1ACBF
  5
1AD23
331
1ACC0
  5
1AD24
331
1ACC1
  5
1AD25
331
1ACC2
  5
1AD26
331
1ACC3
  5
1AD27
331
1ACC4
  5
1AD28
331
1ACC5
  5
1AD29
331
1ACC6
  5
1AD2A
331
1ACC7
  5
1AD2B
331
1ACC8
  5
1AD2C
331
1ACC9
  5
1AD2D
331
1ACCA
  5
1AD2E
331
1ACCB
  5
1AD2F
331
1ACCC
  5
1AD30
331
1ACCF
  5
1AD47
331
1ACD0
  5
1AD48
331
1ACD1
  5
1AD49
331
1ACD2
  5
1AD4A
331
1ACD3
  5
1AD4B
331
1ACD4
  5
1AD53
331
1ACD5
  5
1AD54
331
1ACD7
  5
1AD63
331
1ACD8
  5
1AD64
331
1ACD9
  5
1AD66
331
1ACDA
  5
1AD67
331
1ACDB
  5
1AD6C
331
1ACDC
  5
1AD6D
331
1ACDD
  5
1AD6F
331
1ACDE
  5
1AD74
331
0
  5
1AD4E
331
0
  5
1AD4F
331
0
  5
1AD50
331
0
  5
1AD51
331
0
  5
1AD52
331
1ACE4
  5
1ADB1
331
1ACE5
  5
1ADB2
331
1ACE6
  5
1ADB3
331
1ACE7
  5
1ADB4
331
1ACE8
  5
1ADB5
331
1ACE9
  5
1ADB6
331
1ACEA
  5
1ADB7
331
1ACEB
  5
1ADB8
331
1ACEC
  5
1ADB9
331
1ACED
  5
1ADBA
331
1ACEF
  5
1ADBE
331
1ACF0
  5
1ADBF
331
1ACF1
  5
1ADC1
331
1ACF2
  5
1ADC2
331
1ACF3
  5
1ADC3
331
1ACF4
  5
1ADC4
331
1ACF5
  5
1ADC5
331
1ACF6
  5
1ADC6
331
1ACF7
  5
1ADC7
331
1ACF8
  5
1AFEA
331
1ACF9
  5
1AFEB
331
1ACFA
  5
1AFEC
331
1ACFB
  5
1AFED
331
1ACFC
  5
1AFEE
331
1ACFD
  5
1AFEF
331
1ACFE
  5
1AFF0
331
1ACFF
  5
1AFF1
331
1AD00
  5
1AFF2
331
1AD01
  5
1B0FA
331
1AD02
  5
1B1A6
331
1AD03
  5
1B1A7
331
1AD04
  5
1B1A8
331
1AD05
  5
1B1A9
331
1AD06
  5
1B1AA
331
1AD07
  5
1B1AB
331
1AD08
  5
1B1AC
331
1AD09
  5
1B1AD
331
1AD0A
  5
1B1AE
331
1AD0B
  5
1B1AF
331
1AD0C
  5
1B1B0
331
1AD0D
  5
1B1B1
331
1AD0E
  5
1B1B2
331
1AD0F
  5
1B1B3
331
1AD10
  5
1B1B4
331
1AD11
  5
1B1B5
331
1AD12
  5
1B1B6
331
1AD13
  5
1B1B7
331
1AD14
  5
1B1B8
331
1AD15
  5
1B1B9
331
1AD16
  5
1B1BA
331
1AD17
  5
1B1BB
331
1AD18
  5
1B1BC
331
1AD19
  5
1B1BD
331
1AD1A
  5
1B1BE
331
1AD1B
  5
1B1BF
331
1AD1C
  5
1B1C0
331
1AD1D
  5
1B1C1
331
1AD1E
  5
1B1C2
331
1AD1F
  5
1B1C3
331
1AD20
  5
1B1C4
331
1AD21
  5
1B1C5
331
1AD22
  5
1B1C6
331
1AD23
  5
1B1C7
331
1AD24
  5
1B1C8
331
1AD25
  5
1B1C9
331
1AD26
  5
1B1CA
331
1AD27
  5
1B1CB
331
1AD28
  5
1B1CC
331
1AD29
  5
1B1CD
331
1AD2A
  5
1B1CE
331
1AD2B
  5
1B1CF
331
1AD2C
  5
1B1D0
331
1AD2D
  5
1B1D1
331
1AD2E
  5
1B1D2
331
1AD2F
  5
1B1D3
331
1AD30
  5
1B1D4
331
1AD31
  5
1B1D5
331
1AD32
  5
1B1D6
331
1AD34
  5
1B1F3
331
1AD35
  5
1B1F4
331
1AD36
  5
1B1F5
331
1AD37
  5
1B1F6
331
1AD38
  5
1B1F7
331
1AD39
  5
1B1F8
331
1AD3A
  5
1B1F9
331
1AD3B
  5
1B1FA
331
1AD3C
  5
1B1FB
331
1AD3D
  5
1B1FC
331
1AD3E
  5
1B1FD
331
1AD3F
  5
1B1FE
331
1AD40
  5
1B1FF
331
1AD41
  5
1B200
331
1AD42
  5
1B201
331
1AD44
  5
1B202
331
1AD45
  5
1B203
331
1AD46
  5
1B204
331
1AD47
  5
1B205
331
1AD48
  5
1B206
331
1AD49
  5
1B207
331
1AD4A
  5
1B208
331
1AD4B
  5
1B209
331
1AD4E
  5
1B20A
331
1AD4F
  5
1B20B
331
1AD50
  5
1B20C
331
1AD51
  5
1B20D
331
1AD52
  5
1B20E
331
1AD53
  5
1B20F
331
1AD54
  5
1B210
331
1AD57
  5
1B211
331
1AD58
  5
1B212
331
1AD59
  5
1B213
331
1AD5A
  5
1B214
331
1AD5B
  5
1B215
331
1AD5C
  5
1B216
331
1AD5D
  5
1B217
331
1AD5F
  5
1B218
331
1AD60
  5
1B219
331
1AD61
  5
1B21A
331
1AD63
  5
1B21B
331
1AD64
  5
1B21C
331
1AD66
  5
1B21D
331
1AD67
  5
1B21E
331
1AD68
  5
1B21F
331
1AD69
  5
1B220
331
1AD6B
  5
1B221
331
1AD6C
  5
1B222
331
1AD6D
  5
1B223
331
1AD6F
  5
1B224
331
1AD70
  5
1B225
331
1AD72
  5
1B226
331
1AD73
  5
1B227
331
1AD74
  5
1B228
331
1AD75
  5
1B229
331
1AD76
  5
1B22A
331
1AD77
  5
1B22B
331
1AD78
  5
1B22C
331
1AD79
  5
1B22D
331
1AD7A
  5
1B22E
331
1AD7B
  5
1B22F
331
1AD7C
  5
1B230
331
1AD7D
  5
1B231
331
1AD7E
  5
1B232
331
1AD7F
  5
1B233
331
1AD80
  5
1B234
331
1AD81
  5
1B235
331
1AD82
  5
1B236
331
1AD83
  5
1B237
331
1AD84
  5
1B238
331
1AD85
  5
1B239
331
1AD86
  5
1B23A
331
1AD87
  5
1B23B
331
1AD88
  5
1B23C
331
1AD89
  5
1B23D
331
1AD8A
  5
1B23E
331
1AD8B
  5
1B23F
331
1AD8C
  5
1B240
331
1AD8D
  5
1B241
331
1AD8E
  5
1B242
331
1AD8F
  5
1B243
331
1AD90
  5
1B244
331
1AD91
  5
1B245
331
1AD92
  5
1B246
331
1AD93
  5
1B247
331
1AD94
  5
1B248
331
1AD95
  5
1B249
331
1AD96
  5
1B24A
331
1AD97
  5
1B24B
331
1AD98
  5
1B24C
331
1AD99
  5
1B24D
331
1AD9A
  5
1B24E
331
1AD9B
  5
1B24F
331
1AD9C
  5
1B250
331
1AD9D
  5
1B251
331
1AD9E
  5
1B252
331
1AD9F
  5
1B253
331
1ADA0
  5
1B254
331
1ADA1
  5
1B255
331
1ADA2
  5
1B256
331
1ADA3
  5
1B257
331
1ADA4
  5
1B258
331
1ADA5
  5
1B259
331
1ADA6
  5
1B25A
331
1ADA7
  5
1B25B
331
1ADA9
  5
1B25F
331
1ADAA
  5
1B260
331
1ADAB
  5
1B261
331
1ADAC
  5
1B262
331
1ADAD
  5
1B263
331
1ADAE
  5
1B264
331
1ADAF
  5
1B265
331
1ADB0
  5
1B266
331
1ADB1
  5
1B267
331
1ADB2
  5
1B268
331
1ADB3
  5
1B269
331
1ADB4
  5
1B26A
331
1ADB5
  5
1B26B
331
1ADB6
  5
1B26C
331
1ADB7
  5
1B26D
331
1ADB8
  5
1B26E
331
1ADB9
  5
1B26F
331
1ADBA
  5
1B270
331
1ADBB
  5
1B271
331
1ADBC
  5
1B272
331
1ADBD
  5
1B273
331
1ADBE
  5
1B274
331
1ADBF
  5
1B275
331
1ADC1
  5
1B292
331
1ADC2
  5
1B293
331
1ADC3
  5
1B294
331
1ADC4
  5
1B295
331
1ADC5
  5
1B296
331
1ADC6
  5
1B297
331
1ADC7
  5
1B298
331
1AFEA
  5
1B299
331
1AFEB
  5
1B29A
331
1AFEC
  5
1B29B
331
1AFED
  5
1B29C
331
1AFEE
  5
1B29D
331
1AFEF
  5
1B29E
331
1AFF0
  5
1B29F
331
1AFF1
  5
1B2A0
331
1AFF2
  5
1B2A1
331
1B0FA
  5
1B2A2
331
1B1A6
  5
1AC11
331
1B1A7
  5
1AC12
331
1B1A8
  5
1AC27
331
1B1A9
  5
1AC28
331
1B1AA
  5
1AC2C
331
0
  5
1AC20
331
0
  5
1AC21
331
0
  5
1AC22
331
1B1AE
  5
1AC3D
331
1B1AF
  5
1AC3E
331
1B1B0
  5
1AC3F
331
0
  5
1AC29
331
0
  5
1AC2A
331
0
  5
1AC2B
331
1B1B4
  5
1AC47
331
1B1B5
  5
1AC48
331
1B1B6
  5
1AC49
331
0
  5
1AC2F
331
0
  5
1AC30
331
0
  5
1AC31
331
1B1BA
  5
1AC51
331
1B1BB
  5
1AC52
331
1B1BC
  5
1AC53
331
0
  5
1AC35
331
0
  5
1AC36
331
0
  5
1AC37
331
1B1C0
  5
1ACDD
331
1B1C1
  5
1ACDE
331
1B1C2
  5
1ACDF
331
0
  5
1ACAA
331
0
  5
1ACAB
331
0
  5
1ACAC
331
1B1C6
  5
1AD31
331
1B1C7
  5
1AD32
331
1B1C8
  5
1AD34
331
0
  5
1ACF4
331
0
  5
1ACF5
331
0
  5
1ACF6
331
1B1CC
  5
1AD3C
331
1B1CD
  5
1AD3D
331
1B1CE
  5
1AD3E
331
0
  5
1ACFA
331
0
  5
1ACFB
331
0
  5
1ACFC
331
1B1D2
  5
1AD57
331
1B1D3
  5
1AD58
331
1B1D4
  5
1AD59
331
0
  5
1AD07
331
0
  5
1AD08
331
0
  5
1AD09
331
1B1D8
  5
1ADBB
331
1B1D9
  5
1ADBC
331
1B1DA
  5
1ADBD
331
1B1DB
  5
1B1D7
331
1B1DC
  5
1B1D8
331
1B1DD
  5
1B1D9
331
1B1DE
  5
1B1DA
331
1B1DF
  5
1B1DB
331
1B1E0
  5
1B1DC
331
1B1E1
  5
1B1DD
331
1B1E2
  5
1B1DE
331
1B1E3
  5
1B1DF
331
1B1E4
  5
1B1E0
331
1B1E5
  5
1B1E1
331
1B1E6
  5
1B1E2
331
1B1E7
  5
1B1E3
331
1B1E8
  5
1B1E4
331
1B1E9
  5
1B1E5
331
1B1EA
  5
1B1E6
331
1B1EB
  5
1B1E7
331
1B1EC
  5
1B1E8
331
1B1ED
  5
1B1E9
331
1B1EE
  5
1B1EA
331
1B1EF
  5
1B1EB
331
1B1F0
  5
1B1EC
331
1B1F1
  5
1B1ED
331
1B1F2
  5
1B1EE
331
1B1F3
  5
1B1EF
331
1B1F4
  5
1B1F0
331
1B1F5
  5
1B1F1
331
1B1F6
  5
1B1F2
331
1B1F7
  5
1B25C
331
1B1F8
  5
1B25D
331
1B1F9
  5
1B25E
331
1B1FA
  5
1B276
331
1B1FB
  5
1B277
331
1B1FC
  5
1B278
331
1B1FD
  5
1B279
331
1B1FE
  5
1B27A
331
1B1FF
  5
1B27B
331
1B200
  5
1B27C
331
1B201
  5
1B27D
331
1B202
  5
1B27E
331
1B203
  5
1B27F
331
1B204
  5
1B280
331
1B205
  5
1B281
331
1B206
  5
1B282
331
1B207
  5
1B283
331
1B208
  5
1B284
331
1B209
  5
1B285
331
1B20A
  5
1B286
331
1B20B
  5
1B287
331
1B20C
  5
1B288
331
1B20D
  5
1B289
331
1B20E
  5
1B28A
331
1B20F
  5
1B28B
331
1B210
  5
1B28C
331
1B211
  5
1B28D
331
1B212
  5
1B28E
331
1B213
  5
1B28F
331
1B214
  5
1B290
331
1B215
  5
1B291
331
1B216
  5
1AC2D
331
1B217
  5
1AC2E
331
1B218
  5
1AC32
331
1B219
  5
1AC33
331
1B21A
  5
1AC34
331
1B21B
  5
1AC38
331
1B21C
  5
1AC39
331
1B21D
  5
1AC40
331
1B21E
  5
1AC41
331
1B21F
  5
1AC42
331
1B220
  5
1AC43
331
1B221
  5
1AC44
331
1B222
  5
1AC45
331
1B223
  5
1AC46
331
1B224
  5
1AC4A
331
1B225
  5
1AC4B
331
1B226
  5
1AC4C
331
1B227
  5
1AC4D
331
1B228
  5
1AC4E
331
1B229
  5
1AC4F
331
1B22A
  5
1AC50
331
1B22B
  5
1AC54
331
1B22C
  5
1AC55
331
1B22D
  5
1AC56
331
1B22E
  5
1AC57
331
1B22F
  5
1AC58
331
1B230
  5
1AC59
331
1B231
  5
1AC5A
331
1B232
  5
1ACE0
331
1B233
  5
1ACE1
331
1B234
  5
1ACE2
331
1B235
  5
1ACE3
331
1B236
  5
1ACE4
331
1B237
  5
1ACE5
331
1B238
  5
1ACE6
331
1B239
  5
1AD35
331
1B23A
  5
1AD36
331
1B23B
  5
1AD37
331
1B23C
  5
1AD38
331
1B23D
  5
1AD39
331
1B23E
  5
1AD3A
331
1B23F
  5
1AD3B
331
1B240
  5
1AD3F
331
1B241
  5
1AD40
331
1B242
  5
1AD41
331
1B243
  5
1AD42
331
1B244
  5
1AD44
331
1B245
  5
1AD45
331
1B246
  5
1AD46
331
1B247
  5
1AD5A
331
1B248
  5
1AD5B
331
1B249
  5
1AD5C
331
1B24A
  5
1AD5D
331
1B24B
  5
1AD5F
331
1B24C
  5
1AD60
331
1B24D
  5
1AD61
331
1B24E
  5
1AC1A
331
1B24F
  5
1AC1E
331
1B250
  5
1AC1F
331
1B251
  5
1AC23
331
1B252
  5
1AC24
331
1B253
  5
1AC25
331
1B254
  5
1AC26
331
1B255
  5
1ACA2
331
1B256
  5
1ACA3
331
1B257
  5
1ACA4
331
0
  5
1ACA5
331
0
  5
1ACA6
331
0
  5
1ACA7
331
1B25B
  5
1AD75
331
1B25C
  5
1AD76
331
1B25D
  5
1AD7A
331
0
  5
1AD68
331
0
  5
1AD69
331
0
  5
1AD6B
331
1B261
  5
1AD88
331
1B262
  5
1AD89
331
1B263
  5
1AD8A
331
0
  5
1AD70
331
0
  5
1AD72
331
0
  5
1AD73
331
1B267
  5
1AD92
331
1B268
  5
1AD93
331
1B269
  5
1AD94
331
0
  5
1AD77
331
0
  5
1AD78
331
0
  5
1AD79
331
1B26D
  5
1AD9C
331
1B26E
  5
1AD9D
331
1B26F
  5
1AD9E
331
0
  5
1AD7D
331
0
  5
1AD7E
331
0
  5
1AD7F
331
1B273
  5
1ADA6
331
1B274
  5
1ADA7
331
1B275
  5
1ADA9
331
0
  5
1AD83
331
0
  5
1AD84
331
0
  5
1AD85
331
1B279
  5
1ACA8
331
1B27A
  5
1ACA9
331
1B27B
  5
1ACAD
331
1B27C
  5
1ACAE
331
1B27D
  5
1ACAF
331
1B27E
  5
1ACB0
331
1B27F
  5
1ACB1
331
1B280
  5
1AD7B
331
1B281
  5
1AD7C
331
1B282
  5
1AD80
331
1B283
  5
1AD81
331
1B284
  5
1AD82
331
1B285
  5
1AD86
331
1B286
  5
1AD87
331
1B287
  5
1AD8B
331
1B288
  5
1AD8C
331
1B289
  5
1AD8D
331
1B28A
  5
1AD8E
331
1B28B
  5
1AD8F
331
1B28C
  5
1AD90
331
1B28D
  5
1AD91
331
1B28E
  5
1AD95
331
1B28F
  5
1AD96
331
1B290
  5
1AD97
331
1B291
  5
1AD98
331
1B292
  5
1AD99
331
1B293
  5
1AD9A
331
1B294
  5
1AD9B
331
1B295
  5
1AD9F
331
1B296
  5
1ADA0
331
1B297
  5
1ADA1
331
1B298
  5
1ADA2
331
1B299
  5
1ADA3
331
1B29A
  5
1ADA4
331
1B29B
  5
1ADA5
331
1B29C
  5
1ADAA
331
1B29D
  5
1ADAB
331
1B29E
  5
1ADAC
331
1B29F
  5
1ADAD
331
1B2A0
  5
1ADAE
331
1B2A1
  5
1ADAF
331
1B2A2
  5
1ADB0
  0
MATERIAL
  5
D9A4
102
{ACAD_REACTORS
330
18C
102
}
102
{ACAD_XDICTIONARY
360
1B441
102
}
330
18C
100
AcDbMaterial
  1
BYBLOCK
 72
     0
 73
     2
 43
0.0208333333333333
 43
0.0
 43
0.0
 43
0.0
 43
0.0
 43
0.0208333333333333
 43
0.0
 43
0.0
 43
0.0
 43
0.0
 43
1.0
 43
0.0
 43
0.0
 43
0.0
 43
0.0
 43
1.0
 77
     0
 78
     2
 47
0.0208333333333333
 47
0.0
 47
0.0
 47
0.0
 47
0.0
 47
0.0208333333333333
 47
0.0
 47
0.0
 47
0.0
 47
0.0
 47
1.0
 47
0.0
 47
0.0
 47
0.0
 47
0.0
 47
1.0
171
     0
172
     2
 49
0.0208333333333333
 49
0.0
 49
0.0
 49
0.0
 49
0.0
 49
0.0208333333333333
 49
0.0
 49
0.0
 49
0.0
 49
0.0
 49
1.0
 49
0.0
 49
0.0
 49
0.0
 49
0.0
 49
1.0
175
     0
176
     2
142
0.0208333333333333
142
0.0
142
0.0
142
0.0
142
0.0
142
0.0208333333333333
142
0.0
142
0.0
142
0.0
142
0.0
142
1.0
142
0.0
142
0.0
142
0.0
142
0.0
142
1.0
179
     0
270
     2
144
0.0208333333333333
144
0.0
144
0.0
144
0.0
144
0.0
144
0.0208333333333333
144
0.0
144
0.0
144
0.0
144
0.0
144
1.0
144
0.0
144
0.0
144
0.0
144
0.0
144
1.0
274
     2
147
0.0208333333333333
147
0.0
147
0.0
147
0.0
147
0.0
147
0.0208333333333333
147
0.0
147
0.0
147
0.0
147
0.0
147
1.0
147
0.0
147
0.0
147
0.0
147
0.0
147
1.0
  0
MATERIAL
  5
D99C
102
{ACAD_REACTORS
330
18C
102
}
102
{ACAD_XDICTIONARY
360
1B443
102
}
330
18C
100
AcDbMaterial
  1
BYLAYER
 72
     0
 73
     2
 43
0.0208333333333333
 43
0.0
 43
0.0
 43
0.0
 43
0.0
 43
0.0208333333333333
 43
0.0
 43
0.0
 43
0.0
 43
0.0
 43
1.0
 43
0.0
 43
0.0
 43
0.0
 43
0.0
 43
1.0
 77
     0
 78
     2
 47
0.0208333333333333
 47
0.0
 47
0.0
 47
0.0
 47
0.0
 47
0.0208333333333333
 47
0.0
 47
0.0
 47
0.0
 47
0.0
 47
1.0
 47
0.0
 47
0.0
 47
0.0
 47
0.0
 47
1.0
171
     0
172
     2
 49
0.0208333333333333
 49
0.0
 49
0.0
 49
0.0
 49
0.0
 49
0.0208333333333333
 49
0.0
 49
0.0
 49
0.0
 49
0.0
 49
1.0
 49
0.0
 49
0.0
 49
0.0
 49
0.0
 49
1.0
175
     0
176
     2
142
0.0208333333333333
142
0.0
142
0.0
142
0.0
142
0.0
142
0.0208333333333333
142
0.0
142
0.0
142
0.0
142
0.0
142
1.0
142
0.0
142
0.0
142
0.0
142
0.0
142
1.0
179
     0
270
     2
144
0.0208333333333333
144
0.0
144
0.0
144
0.0
144
0.0
144
0.0208333333333333
144
0.0
144
0.0
144
0.0
144
0.0
144
1.0
144
0.0
144
0.0
144
0.0
144
0.0
144
1.0
274
     2
147
0.0208333333333333
147
0.0
147
0.0
147
0.0
147
0.0
147
0.0208333333333333
147
0.0
147
0.0
147
0.0
147
0.0
147
1.0
147
0.0
147
0.0
147
0.0
147
0.0
147
1.0
  0
MATERIAL
  5
D9AC
102
{ACAD_REACTORS
330
18C
102
}
102
{ACAD_XDICTIONARY
360
1B445
102
}
330
18C
100
AcDbMaterial
  1
GLOBAL
 72
     0
 73
     2
 43
0.0208333333333333
 43
0.0
 43
0.0
 43
0.0
 43
0.0
 43
0.0208333333333333
 43
0.0
 43
0.0
 43
0.0
 43
0.0
 43
1.0
 43
0.0
 43
0.0
 43
0.0
 43
0.0
 43
1.0
 77
     0
 78
     2
 47
0.0208333333333333
 47
0.0
 47
0.0
 47
0.0
 47
0.0
 47
0.0208333333333333
 47
0.0
 47
0.0
 47
0.0
 47
0.0
 47
1.0
 47
0.0
 47
0.0
 47
0.0
 47
0.0
 47
1.0
171
     0
172
     2
 49
0.0208333333333333
 49
0.0
 49
0.0
 49
0.0
 49
0.0
 49
0.0208333333333333
 49
0.0
 49
0.0
 49
0.0
 49
0.0
 49
1.0
 49
0.0
 49
0.0
 49
0.0
 49
0.0
 49
1.0
175
     0
176
     2
142
0.0208333333333333
142
0.0
142
0.0
142
0.0
142
0.0
142
0.0208333333333333
142
0.0
142
0.0
142
0.0
142
0.0
142
1.0
142
0.0
142
0.0
142
0.0
142
0.0
142
1.0
179
     0
270
     2
144
0.0208333333333333
144
0.0
144
0.0
144
0.0
144
0.0
144
0.0208333333333333
144
0.0
144
0.0
144
0.0
144
0.0
144
1.0
144
0.0
144
0.0
144
0.0
144
0.0
144
1.0
274
     2
147
0.0208333333333333
147
0.0
147
0.0
147
0.0
147
0.0
147
0.0208333333333333
147
0.0
147
0.0
147
0.0
147
0.0
147
1.0
147
0.0
147
0.0
147
0.0
147
0.0
147
1.0
  0
ACAD_PROXY_OBJECT
  5
D9E8
102
{ACAD_REACTORS
330
D9E7
102
}
330
D9E7
100
AcDbZombieObject
 90
      499
 91
      511
 93
      610
310
40901902A4063FBFFFFFE000000000000002040AD7A3703D0AD73F4214DD185B99185C990000000000000104090141901A00000000000004100000000000000041025764000000000000300FC0
340
12
340
0
340
F
340
0
 94
        0
1001
ACAD_MLEADERVER
1070
     2
  0
MLINESTYLE
  5
1C
102
{ACAD_REACTORS
330
1B
102
}
330
1B
100
AcDbMlineStyle
  2
STANDARD
 70
     0
  3

 62
   256
 51
90.0
 52
90.0
 71
     2
 49
0.5
 62
   256
  6
BYLAYER
 49
-0.5
 62
   256
  6
BYLAYER
  0
ACAD_PROXY_OBJECT
  5
D9C6
102
{ACAD_REACTORS
330
D9C5
102
}
330
D9C5
100
AcDbZombieObject
 90
      499
 91
      510
 93
       41
310
903313A31580
  0
ACAD_PROXY_OBJECT
  5
D9C7
102
{ACAD_REACTORS
330
D9C5
102
}
330
D9C5
100
AcDbZombieObject
 90
      499
 91
      510
 93
      105
310
903313A324000000000000004000
  0
ACAD_PROXY_OBJECT
  5
D9C8
102
{ACAD_REACTORS
330
D9C5
102
}
330
D9C5
100
AcDbZombieObject
 90
      499
 91
      510
 93
      105
310
903313A344000000000000104000
  0
ACAD_PROXY_OBJECT
  5
D9C9
102
{ACAD_REACTORS
330
D9C5
102
}
330
D9C5
100
AcDbZombieObject
 90
      499
 91
      510
 93
      105
310
903313A354000000000000144000
  0
ACAD_PROXY_OBJECT
  5
D9CA
102
{ACAD_REACTORS
330
D9C5
102
}
330
D9C5
100
AcDbZombieObject
 90
      499
 91
      510
 93
      105
310
903313A384000000000000204000
  0
ACAD_PROXY_OBJECT
  5
D9CB
102
{ACAD_REACTORS
330
D9C5
102
}
330
D9C5
100
AcDbZombieObject
 90
      499
 91
      510
 93
      113
310
904313A31304000000000000244000
  0
ACAD_PROXY_OBJECT
  5
D9CC
102
{ACAD_REACTORS
330
D9C5
102
}
330
D9C5
100
AcDbZombieObject
 90
      499
 91
      510
 93
      113
310
904313A31364000000000000304000
  0
ACAD_PROXY_OBJECT
  5
D9CD
102
{ACAD_REACTORS
330
D9C5
102
}
330
D9C5
100
AcDbZombieObject
 90
      499
 91
      510
 93
      113
310
904313A32304000000000000344000
  0
ACAD_PROXY_OBJECT
  5
D9CE
102
{ACAD_REACTORS
330
D9C5
102
}
330
D9C5
100
AcDbZombieObject
 90
      499
 91
      510
 93
      113
310
904313A333040000000000003E4000
  0
ACAD_PROXY_OBJECT
  5
D9CF
102
{ACAD_REACTORS
330
D9C5
102
}
330
D9C5
100
AcDbZombieObject
 90
      499
 91
      510
 93
      113
310
904313A34304000000000000444000
  0
ACAD_PROXY_OBJECT
  5
D9D0
102
{ACAD_REACTORS
330
D9C5
102
}
330
D9C5
100
AcDbZombieObject
 90
      499
 91
      510
 93
      113
310
904313A35304000000000000494000
  0
ACAD_PROXY_OBJECT
  5
D9D1
102
{ACAD_REACTORS
330
D9C5
102
}
330
D9C5
100
AcDbZombieObject
 90
      499
 91
      510
 93
      121
310
905313A3130304000000000000594000
  0
ACAD_PROXY_OBJECT
  5
D9D2
102
{ACAD_REACTORS
330
D9C5
102
}
330
D9C5
100
AcDbZombieObject
 90
      499
 91
      510
 93
      105
310
903323A310000000000000010100
  0
ACAD_PROXY_OBJECT
  5
D9D3
102
{ACAD_REACTORS
330
D9C5
102
}
330
D9C5
100
AcDbZombieObject
 90
      499
 91
      510
 93
      105
310
903343A310000000000000410100
  0
ACAD_PROXY_OBJECT
  5
D9D4
102
{ACAD_REACTORS
330
D9C5
102
}
330
D9C5
100
AcDbZombieObject
 90
      499
 91
      510
 93
      105
310
903383A310000000000000810100
  0
ACAD_PROXY_OBJECT
  5
D9D5
102
{ACAD_REACTORS
330
D9C5
102
}
330
D9C5
100
AcDbZombieObject
 90
      499
 91
      510
 93
      113
310
90431303A310000000000000910100
  0
ACAD_PROXY_OBJECT
  5
D9D6
102
{ACAD_REACTORS
330
D9C5
102
}
330
D9C5
100
AcDbZombieObject
 90
      499
 91
      510
 93
      121
310
9053130303A310000000000001650100
  0
ACAD_PROXY_OBJECT
  5
D9D7
102
{ACAD_REACTORS
330
D9C5
102
}
330
D9C5
100
AcDbZombieObject
 90
      499
 91
      510
 93
      257
310
90E312F31323822203D2031272D3022000000000000200FC000000000000284000
  0
ACAD_PROXY_OBJECT
  5
D9D8
102
{ACAD_REACTORS
330
D9C5
102
}
330
D9C5
100
AcDbZombieObject
 90
      499
 91
      510
 93
      249
310
90D312F363422203D2031272D3022000000000000240FC000000000000284000
  0
ACAD_PROXY_OBJECT
  5
D9D9
102
{ACAD_REACTORS
330
D9C5
102
}
330
D9C5
100
AcDbZombieObject
 90
      499
 91
      510
 93
      249
310
90D312F333222203D2031272D3022000000000000280FC000000000000284000
  0
ACAD_PROXY_OBJECT
  5
D9DA
102
{ACAD_REACTORS
330
D9C5
102
}
330
D9C5
100
AcDbZombieObject
 90
      499
 91
      510
 93
      249
310
90D312F313622203D2031272D30220000000000002C0FC000000000000284000
  0
ACAD_PROXY_OBJECT
  5
D9DB
102
{ACAD_REACTORS
330
D9C5
102
}
330
D9C5
100
AcDbZombieObject
 90
      499
 91
      510
 93
      249
310
90D332F333222203D2031272D30220000000000002E0FC000000000000284000
  0
ACAD_PROXY_OBJECT
  5
D9DC
102
{ACAD_REACTORS
330
D9C5
102
}
330
D9C5
100
AcDbZombieObject
 90
      499
 91
      510
 93
      241
310
90C312F3822203D2031272D3022000000000000300FC000000000000284000
  0
ACAD_PROXY_OBJECT
  5
D9DD
102
{ACAD_REACTORS
330
D9C5
102
}
330
D9C5
100
AcDbZombieObject
 90
      499
 91
      510
 93
      249
310
90D332F313622203D2031272D3022000000000000320FC000000000000284000
  0
ACAD_PROXY_OBJECT
  5
D9DE
102
{ACAD_REACTORS
330
D9C5
102
}
330
D9C5
100
AcDbZombieObject
 90
      499
 91
      510
 93
      241
310
90C312F3422203D2031272D3022000000000000340FC000000000000284000
  0
ACAD_PROXY_OBJECT
  5
D9DF
102
{ACAD_REACTORS
330
D9C5
102
}
330
D9C5
100
AcDbZombieObject
 90
      499
 91
      510
 93
      241
310
90C332F3822203D2031272D3022000000000000360FC000000000000284000
  0
ACAD_PROXY_OBJECT
  5
D9E0
102
{ACAD_REACTORS
330
D9C5
102
}
330
D9C5
100
AcDbZombieObject
 90
      499
 91
      510
 93
      241
310
90C312F3222203D2031272D3022000000000000380FC000000000000284000
  0
ACAD_PROXY_OBJECT
  5
D9E1
102
{ACAD_REACTORS
330
D9C5
102
}
330
D9C5
100
AcDbZombieObject
 90
      499
 91
      510
 93
      241
310
90C332F3422203D2031272D30220000000000003A0FC000000000000284000
  0
ACAD_PROXY_OBJECT
  5
D9E2
102
{ACAD_REACTORS
330
D9C5
102
}
330
D9C5
100
AcDbZombieObject
 90
      499
 91
      510
 93
      161
310
90A3122203D2031272D30224000000000000284000
  0
ACAD_PROXY_OBJECT
  5
D9E3
102
{ACAD_REACTORS
330
D9C5
102
}
330
D9C5
100
AcDbZombieObject
 90
      499
 91
      510
 93
      257
310
90E312D312F3222203D2031272D30220000000000003E0FC000000000000284000
  0
ACAD_PROXY_OBJECT
  5
D9E4
102
{ACAD_REACTORS
330
D9C5
102
}
330
D9C5
100
AcDbZombieObject
 90
      499
 91
      510
 93
      225
310
90A3322203D2031272D302200000000000002100000000000000284000
  0
ACAD_PROXY_OBJECT
  5
D9E5
102
{ACAD_REACTORS
330
D9C5
102
}
330
D9C5
100
AcDbZombieObject
 90
      499
 91
      510
 93
      225
310
90A3622203D2031272D302200000000000006100000000000000284000
  0
ACAD_PROXY_OBJECT
  5
D9E6
102
{ACAD_REACTORS
330
D9C5
102
}
330
D9C5
100
AcDbZombieObject
 90
      499
 91
      510
 93
      249
310
90D31272D3022203D2031272D30220000000000000A100000000000000284000
  0
ACAD_PROXY_OBJECT
  5
D9BA
102
{ACAD_REACTORS
330
D9B4
102
}
330
D9B4
100
AcDbZombieObject
 90
      499
 91
      509
 93
      436
310
42CC9915DA5C99599C985B595049028333333333333E3BF0000000000000FB0107901411070040501600405405064090741402480A0340
1001
ACAD
1000
AcDbSavedByObjectVersion
1070
     0
  0
ACAD_PROXY_OBJECT
  5
D9BC
102
{ACAD_REACTORS
330
D9B4
102
}
330
D9B4
100
AcDbZombieObject
 90
      499
 91
      509
 93
      500
310
424CD108121A5919195B90640502408333333333333E3BF0000000000000FB01079024090700405020000000000001110200405405064090740C02480A0340
1001
ACAD
1000
AcDbSavedByObjectVersion
1070
     0
  0
ACAD_PROXY_OBJECT
  5
D9BB
102
{ACAD_REACTORS
330
D9B4
102
}
330
D9B4
100
AcDbZombieObject
 90
      499
 91
      509
 93
      436
310
42CCD915DA5C99599C985B595059028333333333333E3BF0000000000000FB0107901411070040501600405405064090741402480A0340
1001
ACAD
1000
AcDbSavedByObjectVersion
1070
     0
  0
ACAD_PROXY_OBJECT
  5
D9B9
102
{ACAD_REACTORS
330
D9B4
102
}
330
D9B4
100
AcDbZombieObject
 90
      499
 91
      509
 93
      388
310
4150985CDA58D07406404333333333333E3BF0000000000000FB0107A41107004050150841D405064090741402480A0350
1001
ACAD
1000
AcDbSavedByObjectVersion
1070
     0
  0
ACAD_PROXY_OBJECT
  5
D9C0
102
{ACAD_REACTORS
330
D9B4
102
}
330
D9B4
100
AcDbZombieObject
 90
      499
 91
      509
 93
      428
310
42109C9A59DA1D195B90C409028333333333333E3BF0000000000000FB010790141107004050150841D405064090741402480A029950
1001
ACAD
1000
AcDbSavedByObjectVersion
1070
     0
  0
ACAD_PROXY_OBJECT
  5
D9C4
102
{ACAD_REACTORS
330
D9B4
102
}
330
D9B4
100
AcDbZombieObject
 90
      499
 91
      509
 93
      452
310
42D0DBDB1BDC90DA185B99D95104090240C333333333333E3BF0000000000000FB0108901411070040501508421405064090741402480A0350
1001
ACAD
1000
AcDbSavedByObjectVersion
1070
     0
  0
ACAD_PROXY_OBJECT
  5
D9BD
102
{ACAD_REACTORS
330
D9B4
102
}
330
D9B4
100
AcDbZombieObject
 90
      499
 91
      509
 93
      500
310
4290DBDB98D95C1D1D585B10940D028333333333333E3BF0000000000000FB0107902409070040501000000000000111010841D405064090740C02480A0340
1001
ACAD
1000
AcDbSavedByObjectVersion
1070
     0
  0
ACAD_PROXY_OBJECT
  5
D9BF
102
{ACAD_REACTORS
330
D9B4
102
}
330
D9B4
100
AcDbZombieObject
 90
      499
 91
      509
 93
      412
310
40D11A5B50B409028333333333333E3BF0000000000000FB010790141107004050150841D405064090741402480A02677FFFFFD0
1001
ACAD
1000
AcDbSavedByObjectVersion
1070
     0
  0
ACAD_PROXY_OBJECT
  5
19C2F
102
{ACAD_REACTORS
330
D9B4
102
}
330
D9B4
100
AcDbZombieObject
 90
      499
 91
      509
 93
      452
310
43115919D950DBDB1BDC93D999916409028333333333333E3BF0000000000000FB010790141107004050150841D405064090741402480A0350
1001
ACAD
1000
AcDbSavedByObjectVersion
1070
     0
  0
ACAD_PROXY_OBJECT
  5
D9C3
102
{ACAD_REACTORS
330
D9B4
102
}
330
D9B4
100
AcDbZombieObject
 90
      499
 91
      509
 93
      444
310
42D19858D95C185D1D195C9B90F409028333333333333E3BF0000000000000FB010790141107004050150841D405064090741402480A0350
1001
ACAD
1000
AcDbSavedByObjectVersion
1070
     0
  0
ACAD_PROXY_OBJECT
  5
D9B5
102
{ACAD_REACTORS
330
D9B4
102
}
330
D9B4
100
AcDbZombieObject
 90
      499
 91
      509
 93
      388
310
41119B185D240901404333333333333E3BF0000000000000F9010740A41107004050150841D405064090741402480A1B50
1001
ACAD
1000
AcDbSavedByObjectVersion
1070
     0
  0
ACAD_PROXY_OBJECT
  5
D9B6
102
{ACAD_REACTORS
330
D9B4
102
}
330
D9B4
100
AcDbZombieObject
 90
      499
 91
      509
 93
      476
310
43519B185D15DA5D1A115919D95CD0140901404333333333333E3BF0000000000000F9010740901411070040501600405405064090741402480A1B50
1001
ACAD
1000
AcDbSavedByObjectVersion
1070
     0
  0
ACAD_PROXY_OBJECT
  5
D9B7
102
{ACAD_REACTORS
330
D9B4
102
}
330
D9B4
100
AcDbZombieObject
 90
      499
 91
      509
 93
      412
310
41D1DBDD5C985D5910240902404333333333333E3BF0000000000000F9010740A411070040501641D405064090741402480A1B50
1001
ACAD
1000
AcDbSavedByObjectVersion
1070
     0
  0
ACAD_PROXY_OBJECT
  5
D9B8
102
{ACAD_REACTORS
330
D9B4
102
}
330
D9B4
100
AcDbZombieObject
 90
      499
 91
      509
 93
      500
310
4411DBDD5C985D5915DA5D1A115919D95CD0340902404333333333333E3BF0000000000000F9010740901411070040501600405405064090741402480A1B50
1001
ACAD
1000
AcDbSavedByObjectVersion
1070
     0
  0
ACAD_PROXY_OBJECT
  5
19C7E
102
{ACAD_REACTORS
330
D9B4
102
}
330
D9B4
100
AcDbZombieObject
 90
      499
 91
      509
 93
      476
310
41921A5919195B90640502408333333333333E33F0000000000000F901079024090700405020000000000001110200405405064090740C02480A0340
1001
ACAD
1000
AcDbSavedByObjectVersion
1070
     0
  0
ACAD_PROXY_OBJECT
  5
19C2D
102
{ACAD_REACTORS
330
D9B4
102
}
330
D9B4
100
AcDbZombieObject
 90
      499
 91
      509
 93
      428
310
42529A5D1D195C93D999914409028333333333333E3BF0000000000000FB010790141107004050150A41D405064090741402480A0350
1001
ACAD
1000
AcDbSavedByObjectVersion
1070
     0
  0
ACAD_PROXY_OBJECT
  5
D9C2
102
{ACAD_REACTORS
330
D9B4
102
}
330
D9B4
100
AcDbZombieObject
 90
      499
 91
      509
 93
      444
310
42D31A5B995C185D1D195C9B90E409028333333333333E3BF0000000000000FB010790141107004050750841D405064090741402483A0350
1001
ACAD
1000
AcDbSavedByObjectVersion
1070
     0
  0
ACAD_PROXY_OBJECT
  5
19C84
102
{ACAD_REACTORS
330
D9B4
102
}
330
D9B4
100
AcDbZombieObject
 90
      499
 91
      509
 93
      484
310
42135BD9195B1A5B99D0A409038333333333333E33F0000000000000F901074090290700405010000000000201990108421405064090741402480A1B40
1001
ACAD
1000
AcDbSavedByObjectVersion
1070
     0
  0
ACAD_PROXY_OBJECT
  5
19C2E
102
{ACAD_REACTORS
330
D9B4
102
}
330
D9B4
100
AcDbZombieObject
 90
      499
 91
      509
 93
      444
310
42D3DD995C9A185B99D3D999915409028333333333333E3BF0000000000000FB010790141107004050150941D405064090741402480A0350
1001
ACAD
1000
AcDbSavedByObjectVersion
1070
     0
  0
ACAD_PROXY_OBJECT
  5
D9BE
102
{ACAD_REACTORS
330
D9B4
102
}
330
D9B4
100
AcDbZombieObject
 90
      499
 91
      509
 93
      420
310
425499585B1A5CDD1A58D08409028333333333333E3BF0000000000000FB01079019070040501508421405064090741402480A1B40
1001
ACAD
1000
AcDbSavedByObjectVersion
1070
     0
  0
ACAD_PROXY_OBJECT
  5
19C83
102
{ACAD_REACTORS
330
D9B4
102
}
330
D9B4
100
AcDbZombieObject
 90
      499
 91
      509
 93
      420
310
4194DA1859195911B40902404333333333333E33F0000000000000F9010740A41107004050150800405405064090840C02480A0B40
1001
ACAD
1000
AcDbSavedByObjectVersion
1070
     0
  0
ACAD_PROXY_OBJECT
  5
19C82
102
{ACAD_REACTORS
330
D9B4
102
}
330
D9B4
100
AcDbZombieObject
 90
      499
 91
      509
 93
      516
310
4454DA18591959081DDA5D1A08195919D95CD1A40902404333333333333E33F0000000000000F901074090142907004050250800405405064090740C02480A0B40
1001
ACAD
1000
AcDbSavedByObjectVersion
1070
     0
  0
ACAD_PROXY_OBJECT
  5
19C7F
102
{ACAD_REACTORS
330
D9B4
102
}
330
D9B4
100
AcDbZombieObject
 90
      499
 91
      509
 93
      532
310
4394DA1859195CC81BD98811DC985E5174090240C333333333333E33F0000000000000F901079024090741D01000000000000111010841D405064090740C02480A0340
1001
ACAD
1000
AcDbSavedByObjectVersion
1070
     0
  0
ACAD_PROXY_OBJECT
  5
19C80
102
{ACAD_REACTORS
330
D9B4
102
}
330
D9B4
100
AcDbZombieObject
 90
      499
 91
      509
 93
      476
310
41D4DAD95D18DA1E51840502408333333333333E33F0000000000000F901079024090741D01000000000000111010B41D405064090741802480A0340
1001
ACAD
1000
AcDbSavedByObjectVersion
1070
     0
  0
ACAD_PROXY_OBJECT
  5
D9C1
102
{ACAD_REACTORS
330
D9B4
102
}
330
D9B4
100
AcDbZombieObject
 90
      499
 91
      509
 93
      412
310
41D51A1A58DAD95B90D409028333333333333E3BF0000000000000FB010790141107004050150C41D405064090741402480A0350
1001
ACAD
1000
AcDbSavedByObjectVersion
1070
     0
  0
ACAD_PROXY_OBJECT
  5
19C7D
102
{ACAD_REACTORS
330
D9B4
102
}
330
D9B4
100
AcDbZombieObject
 90
      499
 91
      509
 93
      420
310
4255DA5C99599C985B595059028333333333333E33F0000000000000F90107901411070040501600405405064090740C02480A0340
1001
ACAD
1000
AcDbSavedByObjectVersion
1070
     0
  0
ACAD_PROXY_OBJECT
  5
19C81
102
{ACAD_REACTORS
330
D9B4
102
}
330
D9B4
100
AcDbZombieObject
 90
      499
 91
      509
 93
      404
310
41560B54985E51940902404000000000000E03F0000000000000F9010740501907004050150841D405064090740C02480A1B40
1001
ACAD
1000
AcDbSavedByObjectVersion
1070
     0
  0
XRECORD
  5
1B2A4
102
{ACAD_REACTORS
330
1B2A3
102
}
330
1B2A3
100
AcDbXrecord
340
18D
  0
XRECORD
  5
1B2A5
102
{ACAD_REACTORS
330
1B2A3
102
}
330
1B2A3
100
AcDbXrecord
340
18C
  0
DICTIONARYVAR
  5
1A68D
102
{ACAD_REACTORS
330
37
102
}
330
37
100
DictionaryVariables
280
     0
  1
1:1
  0
DICTIONARYVAR
  5
DA6A
102
{ACAD_REACTORS
330
37
102
}
330
37
100
DictionaryVariables
280
     0
  1
Standard
  0
DICTIONARYVAR
  5
29E
102
{ACAD_REACTORS
330
37
102
}
330
37
100
DictionaryVariables
280
     0
  1
Standard
  0
DICTIONARYVAR
  5
38
102
{ACAD_REACTORS
330
37
102
}
330
37
100
DictionaryVariables
280
     0
  1
-1
  0
DICTIONARYVAR
  5
1CE
102
{ACAD_REACTORS
330
37
102
}
330
37
100
DictionaryVariables
280
     0
  1
2
  0
DICTIONARYVAR
  5
704E
102
{ACAD_REACTORS
330
37
102
}
330
37
100
DictionaryVariables
280
     0
  1
1
  0
DICTIONARYVAR
  5
DA6D
102
{ACAD_REACTORS
330
37
102
}
330
37
100
DictionaryVariables
280
     0
  1
0
  0
DICTIONARYVAR
  5
7052
102
{ACAD_REACTORS
330
37
102
}
330
37
100
DictionaryVariables
280
     0
  1
8
  0
DICTIONARYVAR
  5
7051
102
{ACAD_REACTORS
330
37
102
}
330
37
100
DictionaryVariables
280
     0
  1
1
  0
DICTIONARYVAR
  5
1A6DD
102
{ACAD_REACTORS
330
37
102
}
330
37
100
DictionaryVariables
280
     0
  1
0
  0
DICTIONARYVAR
  5
704F
102
{ACAD_REACTORS
330
37
102
}
330
37
100
DictionaryVariables
280
     0
  1
8
  0
DICTIONARYVAR
  5
7050
102
{ACAD_REACTORS
330
37
102
}
330
37
100
DictionaryVariables
280
     0
  1
2
  0
DICTIONARYVAR
  5
1CF
102
{ACAD_REACTORS
330
37
102
}
330
37
100
DictionaryVariables
280
     0
  1

  0
DICTIONARYVAR
  5
DA6C
102
{ACAD_REACTORS
330
37
102
}
330
37
100
DictionaryVariables
280
     0
  1
127
  0
DICTIONARYVAR
  5
19C7C
102
{ACAD_REACTORS
330
37
102
}
330
37
100
DictionaryVariables
280
     0
  1
2
  0
DICTIONARY
  5
1B441
330
D9A4
100
AcDbDictionary
  3
ACAD_XREC_ROUNDTRIP
360
1B442
1001
ACAD
1000
TREAT_AS_HARD
1070
     1
  0
DICTIONARY
  5
1B443
330
D99C
100
AcDbDictionary
  3
ACAD_XREC_ROUNDTRIP
360
1B444
1001
ACAD
1000
TREAT_AS_HARD
1070
     1
  0
DICTIONARY
  5
1B445
330
D9AC
100
AcDbDictionary
  3
ACAD_XREC_ROUNDTRIP
360
1B446
1001
ACAD
1000
TREAT_AS_HARD
1070
     1
  0
XRECORD
  5
1B442
102
{ACAD_REACTORS
330
1B441
102
}
330
1B441
100
AcDbXrecord
102
MATERIAL
148
0.0
149
0.0
149
0.0
 93
        0
 94
      127
282
     0
 72
     0
 77
     0
171
     0
175
     0
179
     0
273
     0
  0
XRECORD
  5
1B444
102
{ACAD_REACTORS
330
1B443
102
}
330
1B443
100
AcDbXrecord
102
MATERIAL
148
0.0
149
0.0
149
0.0
 93
        0
 94
      127
282
     0
 72
     0
 77
     0
171
     0
175
     0
179
     0
273
     0
  0
XRECORD
  5
1B446
102
{ACAD_REACTORS
330
1B445
102
}
330
1B445
100
AcDbXrecord
102
MATERIAL
148
0.0
149
0.0
149
0.0
 93
        0
 94
      127
282
     0
 72
     0
 77
     0
171
     0
175
     0
179
     0
273
     0
  0
ENDSEC
  0
EOF
