  0
SECTION
  2
HEADER
  9
$ACADVER
  1
AC1009
  9
$INSBASE
 10
0.0
 20
0.0
 30
0.0
  9
$EXTMIN
 10
579.687556826579
 20
-718.07002159774413
 30
0.0
  9
$EXTMAX
 10
1127.98778150607
 20
-315.74735782379321
 30
0.0
  9
$LIMMIN
 10
0.0
 20
0.0
  9
$LIMMAX
 10
420.0
 20
297.0
  9
$ORTHOMODE
 70
     0
  9
$REGENMODE
 70
     1
  9
$FILLMODE
 70
     1
  9
$QTEXTMODE
 70
     0
  9
$MIRRTEXT
 70
     0
  9
$DRAGMODE
 70
     2
  9
$LTSCALE
 40
0.5
  9
$OSMODE
 70
   255
  9
$ATTMODE
 70
     1
  9
$TEXTSIZE
 40
4.0
  9
$TRACEWID
 40
1.0
  9
$TEXTSTYLE
  7
STANDARD
  9
$CLAYER
  8
1TEXT
  9
$CELTYPE
  6
BYLAYER
  9
$CECOLOR
 62
   256
  9
$DIMSCALE
 40
1.0
  9
$DIMASZ
 40
2.0
  9
$DIMEXO
 40
0.0
  9
$DIMDLI
 40
7.0
  9
$DIMRND
 40
0.0
  9
$DIMDLE
 40
0.0
  9
$DIMEXE
 40
1.0
  9
$DIMTP
 40
0.0
  9
$DIMTM
 40
0.0
  9
$DIMTXT
 40
3.5
  9
$DIMCEN
 40
0.0
  9
$DIMTSZ
 40
0.0
  9
$DIMTOL
 70
     0
  9
$DIMLIM
 70
     0
  9
$DIMTIH
 70
     0
  9
$DIMTOH
 70
     0
  9
$DIMSE1
 70
     0
  9
$DIMSE2
 70
     0
  9
$DIMTAD
 70
     1
  9
$DIMZIN
 70
     8
  9
$DIMBLK
  1

  9
$DIMASO
 70
     1
  9
$DIMSHO
 70
     1
  9
$DIMPOST
  1
 
  9
$DIMAPOST
  1

  9
$DIMALT
 70
     0
  9
$DIMALTD
 70
     2
  9
$DIMALTF
 40
25.399999999999999
  9
$DIMLFAC
 40
1.0
  9
$DIMTOFL
 70
     1
  9
$DIMTVP
 40
0.0
  9
$DIMTIX
 70
     0
  9
$DIMSOXD
 70
     0
  9
$DIMSAH
 70
     1
  9
$DIMBLK1
  1
OPEN30
  9
$DIMBLK2
  1
OPEN30
  9
$DIMSTYLE
  2
NEWX10
  9
$DIMCLRD
 70
   256
  9
$DIMCLRE
 70
   256
  9
$DIMCLRT
 70
   201
  9
$DIMTFAC
 40
0.7
  9
$DIMGAP
 40
0.7
  9
$LUNITS
 70
     2
  9
$LUPREC
 70
     4
  9
$SKETCHINC
 40
1.0
  9
$FILLETRAD
 40
0.0
  9
$AUNITS
 70
     0
  9
$AUPREC
 70
     2
  9
$MENU
  1
acad
  9
$ELEVATION
 40
0.0
  9
$PELEVATION
 40
0.0
  9
$THICKNESS
 40
0.0
  9
$LIMCHECK
 70
     0
  9
$BLIPMODE
 70
     0
  9
$CHAMFERA
 40
10.0
  9
$CHAMFERB
 40
10.0
  9
$SKPOLY
 70
     0
  9
$TDCREATE
 40
2451318.621352917
  9
$TDUPDATE
 40
2454552.5909727551
  9
$TDINDWG
 40
0.4412047106
  9
$TDUSRTIMER
 40
0.4412047106
  9
$USRTIMER
 70
     1
  9
$ANGBASE
 50
0.0
  9
$ANGDIR
 70
     0
  9
$PDMODE
 70
     0
  9
$PDSIZE
 40
0.0
  9
$PLINEWID
 40
0.0
  9
$COORDS
 70
     2
  9
$SPLFRAME
 70
     0
  9
$SPLINETYPE
 70
     6
  9
$SPLINESEGS
 70
     8
  9
$ATTDIA
 70
     0
  9
$ATTREQ
 70
     1
  9
$HANDLING
 70
     1
  9
$HANDSEED
  5
FF40
  9
$SURFTAB1
 70
     6
  9
$SURFTAB2
 70
     6
  9
$SURFTYPE
 70
     6
  9
$SURFU
 70
     6
  9
$SURFV
 70
     6
  9
$UCSNAME
  2

  9
$UCSORG
 10
0.0
 20
0.0
 30
0.0
  9
$UCSXDIR
 10
1.0
 20
0.0
 30
0.0
  9
$UCSYDIR
 10
0.0
 20
1.0
 30
0.0
  9
$PUCSNAME
  2

  9
$PUCSORG
 10
0.0
 20
0.0
 30
0.0
  9
$PUCSXDIR
 10
1.0
 20
0.0
 30
0.0
  9
$PUCSYDIR
 10
0.0
 20
1.0
 30
0.0
  9
$USERI1
 70
     0
  9
$USERI2
 70
     0
  9
$USERI3
 70
     0
  9
$USERI4
 70
     0
  9
$USERI5
 70
     0
  9
$USERR1
 40
0.0
  9
$USERR2
 40
0.0
  9
$USERR3
 40
0.0
  9
$USERR4
 40
0.0
  9
$USERR5
 40
0.0
  9
$WORLDVIEW
 70
     1
  9
$SHADEDGE
 70
     3
  9
$SHADEDIF
 70
    70
  9
$TILEMODE
 70
     1
  9
$MAXACTVP
 70
    48
  9
$PLIMCHECK
 70
     0
  9
$PEXTMIN
 10
1.0000000000000000E+020
 20
1.0000000000000000E+020
 30
1.0000000000000000E+020
  9
$PEXTMAX
 10
-1.0000000000000000E+020
 20
-1.0000000000000000E+020
 30
-1.0000000000000000E+020
  9
$PLIMMIN
 10
0.0
 20
0.0
  9
$PLIMMAX
 10
420.0
 20
297.0
  9
$UNITMODE
 70
     0
  9
$VISRETAIN
 70
     1
  9
$PLINEGEN
 70
     0
  9
$PSLTSCALE
 70
     1
  0
ENDSEC
  0
SECTION
  2
TABLES
  0
TABLE
  2
VPORT
 70
     4
  0
VPORT
  2
*ACTIVE
 70
     0
 10
0.0
 20
0.0
 11
1.0
 21
1.0
 12
853.83938688940225
 22
-516.90227300117226
 13
0.0
 23
0.0
 14
10.0
 24
10.0
 15
10.0
 25
10.0
 16
0.0
 26
0.0
 36
1.0
 17
0.0
 27
0.0
 37
0.0
 40
589.67055282847434
 41
0.9872881355932204
 42
50.0
 43
0.0
 44
0.0
 50
0.0
 51
0.0
 71
     0
 72
   100
 73
     1
 74
     1
 75
     0
 76
     0
 77
     0
 78
     0
  0
ENDTAB
  0
TABLE
  2
LTYPE
 70
    14
  0
LTYPE
  2
CONTINUOUS
 70
     0
  3
Solid line
 72
    65
 73
     0
 40
0.0
  0
LTYPE
  2
XREF1|CENTER2
 70
    48
  3
Center (.5x) ___ _ ___ _ ___ _ ___ _ ___ _ ___
 72
    65
 73
     4
 40
28.574999999999999
 49
19.050000000000001
 49
-3.1749999999999989
 49
3.1749999999999989
 49
-3.1749999999999989
  0
LTYPE
  2
A3WAKUDAKE|CENTER2
 70
    48
  3
Center (.5x) ___ _ ___ _ ___ _ ___ _ ___ _ ___
 72
    65
 73
     4
 40
28.574999999999999
 49
19.050000000000001
 49
-3.1749999999999989
 49
3.1749999999999989
 49
-3.1749999999999989
  0
LTYPE
  2
CENTER2
 70
     0
  3
Center (.5x) ___ _ ___ _ ___ _ ___ _ ___ _ ___
 72
    65
 73
     4
 40
28.574999999999999
 49
19.050000000000001
 49
-3.1749999999999989
 49
3.1749999999999989
 49
-3.1749999999999989
  0
LTYPE
  2
HIDDEN
 70
     0
  3
Hidden __ __ __ __ __ __ __ __ __ __ __ __ __ _
 72
    65
 73
     2
 40
9.5249999999999986
 49
6.3499999999999988
 49
-3.1749999999999989
  0
LTYPE
  2
PHANTOM2
 70
     0
  3
Phantom (.5x) ___ _ _ ___ _ _ ___ _ _ ___ _ _
 72
    65
 73
     6
 40
31.75
 49
15.875
 49
-3.1749999999999989
 49
3.1749999999999989
 49
-3.1749999999999989
 49
3.1749999999999989
 49
-3.1749999999999989
  0
ENDTAB
  0
TABLE
  2
LAYER
 70
    42
  0
LAYER
  2
0
 70
     0
 62
     7
  6
CONTINUOUS
  0
LAYER
  2
1CENTER
 70
     0
 62
     7
  6
CENTER2
  0
LAYER
  2
1TEXT
 70
     0
 62
     7
  6
CONTINUOUS
  0
LAYER
  2
XREF1|1CENTER
 70
    48
 62
     7
  6
XREF1|CENTER2
  0
LAYER
  2
01
 70
     0
 62
     1
  6
CONTINUOUS
  0
LAYER
  2
1DIM
 70
     0
 62
     7
  6
CONTINUOUS
  0
LAYER
  2
A3WAKUDAKE|THICK
 70
    48
 62
     7
  6
CONTINUOUS
  0
LAYER
  2
A3WAKUDAKE|POINT
 70
    48
 62
     7
  6
CONTINUOUS
  0
LAYER
  2
A3WAKUDAKE|1CENTER
 70
    48
 62
     7
  6
A3WAKUDAKE|CENTER2
  0
LAYER
  2
A3WAKUDAKE|0-6
 70
    48
 62
     7
  6
CONTINUOUS
  0
LAYER
  2
A3WAKUDAKE|1DIM
 70
    48
 62
     7
  6
CONTINUOUS
  0
LAYER
  2
1HIDDEN
 70
     0
 62
     7
  6
HIDDEN
  0
LAYER
  2
1PHANTOM
 70
     0
 62
     7
  6
PHANTOM2
  0
ENDTAB
  0
TABLE
  2
STYLE
 70
    21
  0
STYLE
  2
STANDARD
 70
     0
 40
0.0
 41
1.0
 50
0.0
 71
     0
 42
4.0
  3
txt.shx
  4
extfont.shx
  0
ENDTAB
  0
TABLE
  2
VIEW
 70
     0
  0
ENDTAB
  0
TABLE
  2
UCS
 70
     0
  0
ENDTAB
  0
TABLE
  2
APPID
 70
     8
  0
APPID
  2
ACAD
 70
     0
  0
APPID
  2
DRAWINGVARIABLESXDATA
 70
     0
  0
APPID
  2
CONTENTTABDATA
 70
     0
  0
APPID
  2
CONTENTCURRENTTAB
 70
     0
  0
APPID
  2
CONTENTBLOCKDESCRIPTION
 70
     0
  0
APPID
  2
CONTENTBLOCKICON
 70
     0
  0
APPID
  2
CONTENTLONGBLOCKNAME
 70
     0
  0
APPID
  2
ACAD_PSEXT
 70
     0
  0
ENDTAB
  0
TABLE
  2
DIMSTYLE
 70
     6
  0
DIMSTYLE
  2
NEWX10
 70
     0
  3
 
  4

  5

  6
OPEN30
  7
OPEN30
 40
1.0
 41
2.0
 42
0.0
 43
7.0
 44
1.0
 45
0.0
 46
0.0
 47
0.0
 48
0.0
140
3.5
141
0.0
142
0.0
143
25.399999999999999
144
1.0
145
0.0
146
0.7
147
0.7
 71
     0
 72
     0
 73
     0
 74
     0
 75
     0
 76
     0
 77
     1
 78
     8
170
     0
171
     2
172
     1
173
     1
174
     0
175
     0
176
   256
177
   256
178
   201
  0
ENDTAB
  0
ENDSEC
  0
SECTION
  2
BLOCKS
  0
BLOCK
  8
0
  2
$MODEL_SPACE
 70
     0
 10
0.0
 20
0.0
 30
0.0
  3
$MODEL_SPACE
  1

  0
ENDBLK
  5
1A
  8
0
  0
BLOCK
 67
     1
  8
0
  2
$PAPER_SPACE
 70
     0
 10
0.0
 20
0.0
 30
0.0
  3
$PAPER_SPACE
  1

  0
ENDBLK
  5
17
 67
     1
  8
0
  0
BLOCK
  8
0
  2
_OPEN30
 70
     0
 10
0.0
 20
0.0
 30
0.0
  3
_OPEN30
  1

  0
LINE
  5
44
  8
0
  6
BYBLOCK
 62
     0
 10
-1.0
 20
0.26794919
 30
0.0
 11
0.0
 21
0.0
 31
0.0
  0
LINE
  5
45
  8
0
  6
BYBLOCK
 62
     0
 10
0.0
 20
0.0
 30
0.0
 11
-1.0
 21
-0.26794919
 31
0.0
  0
LINE
  5
46
  8
0
  6
BYBLOCK
 62
     0
 10
0.0
 20
0.0
 30
0.0
 11
-1.0
 21
0.0
 31
0.0
  0
ENDBLK
  5
47
  8
0
  0
BLOCK
  8
0
  2
XREF1
 70
    36
 10
0.0
 20
0.0
 30
0.0
  3
XREF1
  1
D:\ACLT\FORMAT\KAWAJUN(9)図面用.dwg
  0
ENDBLK
  5
5D
  8
0
  0
BLOCK
  8
0
  2
A3WAKUDAKE
 70
    36
 10
0.0
 20
0.0
 30
0.0
  3
A3WAKUDAKE
  1
D:\ACLT\FORMAT\A3WAKUdake.dwg
  0
ENDBLK
  5
6A0
  8
0
  0
BLOCK
  8
0
  2
*U21
 70
     1
 10
0.0
 20
0.0
 30
0.0
  3
*U21
  1

  0
TEXT
  5
FCFD
  8
1DIM
 62
   201
 10
831.89600249965827
 20
-556.32408159774423
 30
0.0
 40
4.5499999999999989
  1
25 
  0
ENDBLK
  5
FCFF
  8
0
  0
BLOCK
  8
0
  2
*U22
 70
     1
 10
0.0
 20
0.0
 30
0.0
  3
*U22
  1

  0
TEXT
  5
FD01
  8
1DIM
 62
   201
 10
1064.3123784680661
 20
-646.02574826441071
 30
0.0
 40
4.5499999999999989
  1
74 
 50
90.0
  0
ENDBLK
  5
FD03
  8
0
  0
BLOCK
  8
0
  2
*U23
 70
     1
 10
0.0
 20
0.0
 30
0.0
  3
*U23
  1

  0
TEXT
  5
FD05
  8
1DIM
 62
   201
 10
945.41266516632527
 20
-556.32408159774423
 30
0.0
 40
4.5499999999999989
  1
11 
  0
ENDBLK
  5
FD07
  8
0
  0
BLOCK
  8
0
  2
*U24
 70
     1
 10
0.0
 20
0.0
 30
0.0
  3
*U24
  1

  0
TEXT
  5
FD09
  8
1DIM
 62
   201
 10
983.89599849965884
 20
-546.32408159774411
 30
0.0
 40
4.5499999999999989
  1
69 
  0
ENDBLK
  5
FD0B
  8
0
  0
BLOCK
  8
0
  2
*U25
 70
     1
 10
0.0
 20
0.0
 30
0.0
  3
*U25
  1

  0
TEXT
  5
FD0D
  8
1DIM
 62
   201
 10
975.65433183299194
 20
-556.32408159774423
 30
0.0
 40
4.5499999999999989
  1
51 
  0
ENDBLK
  5
FD0F
  8
0
  0
BLOCK
  8
0
  2
*U26
 70
     1
 10
0.0
 20
0.0
 30
0.0
  3
*U26
  1

  0
TEXT
  5
FD11
  8
1DIM
 62
   201
 10
1048.2776651663251
 20
-392.76741493210602
 30
0.0
 40
4.5499999999999989
  1
19 
 50
90.0
  0
ENDBLK
  5
FD13
  8
0
  0
BLOCK
  8
0
  2
*U27
 70
     1
 10
0.0
 20
0.0
 30
0.0
  3
*U27
  1

  0
TEXT
  5
FD15
  8
1DIM
 62
   201
 10
879.28126020288175
 20
-628.97036091742916
 30
0.0
 40
4.5499999999999989
  1
114 
 50
90.0
  0
ENDBLK
  5
FD17
  8
0
  0
BLOCK
  8
0
  2
*U28
 70
     1
 10
0.0
 20
0.0
 30
0.0
  3
*U28
  1

  0
TEXT
  5
FD19
  8
1DIM
 62
   201
 10
889.28126020288175
 20
-629.34952758409588
 30
0.0
 40
4.5499999999999989
  1
130 
 50
90.0
  0
ENDBLK
  5
FD1B
  8
0
  0
BLOCK
  8
0
  2
*U29
 70
     1
 10
0.0
 20
0.0
 30
0.0
  3
*U29
  1

  0
TEXT
  5
FD1D
  8
1DIM
 62
   201
 10
1041.1127815060711
 20
-492.79714185342289
 30
0.0
 40
4.5499999999999989
  1
87.5 
  0
ENDBLK
  5
FD1F
  8
0
  0
BLOCK
  8
0
  2
*U30
 70
     1
 10
0.0
 20
0.0
 30
0.0
  3
*U30
  1

  0
TEXT
  5
FD21
  8
1DIM
 62
   201
 10
1029.475281506069
 20
-502.79714185342289
 30
0.0
 40
4.5499999999999989
  1
108.5 
  0
ENDBLK
  5
FD23
  8
0
  0
BLOCK
  8
0
  2
*U31
 70
     1
 10
0.0
 20
0.0
 30
0.0
  3
*U31
  1

  0
TEXT
  5
FD25
  8
1DIM
 62
   201
 10
1105.7777815060699
 20
-667.02574826441071
 30
0.0
 40
4.5499999999999989
  1
72 
 50
90.0
  0
ENDBLK
  5
FD27
  8
0
  0
BLOCK
  8
0
  2
*U32
 70
     1
 10
0.0
 20
0.0
 30
0.0
  3
*U32
  1

  0
TEXT
  5
FD29
  8
1DIM
 62
   201
 10
968.27778150607026
 20
-670.21074826441054
 30
0.0
 40
4.5499999999999989
  1
φ53
 50
90.0
  0
ENDBLK
  5
FD2B
  8
0
  0
BLOCK
  8
0
  2
*U33
 70
     1
 10
0.0
 20
0.0
 30
0.0
  3
*U33
  1

  0
TEXT
  5
FD2D
  8
1DIM
 62
   201
 10
1105.7777815060699
 20
-424.31457737833352
 30
0.0
 40
4.5499999999999989
  1
22 
 50
90.0
  0
ENDBLK
  5
FD2F
  8
0
  0
BLOCK
  8
0
  2
*U34
 70
     1
 10
0.0
 20
0.0
 30
0.0
  3
*U34
  1

  0
TEXT
  5
FD31
  8
1DIM
 62
   201
 10
1115.7777815060699
 20
-440.51227839276442
 30
0.0
 40
4.5499999999999989
  1
54 
 50
90.0
  0
ENDBLK
  5
FD33
  8
0
  0
BLOCK
  8
0
  2
*U35
 70
     1
 10
0.0
 20
0.0
 30
0.0
  3
*U35
  1

  0
TEXT
  5
FD35
  8
1DIM
 62
   201
 10
1125.7777815060699
 20
-447.9299309873291
 30
0.0
 40
4.5499999999999989
  1
69 
 50
90.0
  0
ENDBLK
  5
FD37
  8
0
  0
ENDSEC
  0
SECTION
  2
ENTITIES
  0
TEXT
  5
4FD
  8
1TEXT
 10
649.18768516632463
 20
-378.23408159774419
 30
0.0
 40
20.0
  1
1-P3C-X-LP
  0
TEXT
  5
4DFB
  8
1TEXT
 10
649.50466041096274
 20
-402.58504021826081
 30
0.0
 40
6.0
  1
材質：亜鉛ダイキャスト
 72
     1
 11
687.70466041096279
 21
-402.58504021826081
 31
0.0
  0
LINE
  5
A589
  8
01
 10
855.68766916632478
 20
-570.73670159774349
 30
0.0
 11
855.68766916632478
 21
-718.07002159774413
 31
0.0
  0
LINE
  5
A58A
  8
01
 10
815.68766916632489
 20
-570.73670159774349
 30
0.0
 11
815.68766916632489
 21
-718.07002159774413
 31
0.0
  0
LINE
  5
A58B
  8
01
 10
715.78767516632547
 20
-577.23408159774408
 30
0.0
 11
715.78767516632547
 21
-600.33405159774338
 31
0.0
  0
LINE
  5
A58C
  8
01
 10
714.18766916632489
 20
-577.23408159774408
 30
0.0
 11
714.18766916632489
 21
-600.23408159774419
 31
0.0
  0
LINE
  5
A58D
  8
01
 10
716.58767816632565
 20
-577.23408159774408
 30
0.0
 11
716.58767816632565
 21
-707.23408159774408
 31
0.0
  0
LINE
  5
A58E
  8
01
 10
718.18766916632489
 20
-577.23408159774408
 30
0.0
 11
718.18766916632489
 21
-707.23408159774408
 31
0.0
  0
LINE
  5
A58F
  8
01
 10
715.18766916632489
 20
-605.23408159774419
 30
0.0
 11
649.18768516632497
 21
-605.23408159774431
 31
0.0
  0
LINE
  5
A590
  8
01
 10
715.18766916632489
 20
-679.23408159774419
 30
0.0
 11
688.3123033406024
 21
-679.23408159774385
 31
0.0
  0
LINE
  5
A591
  8
01
 10
649.18768516632497
 20
-605.23408159774431
 30
0.0
 11
649.18768516632497
 21
-630.64074290953454
 31
0.0
  0
LINE
  5
A592
  8
01
 10
724.18766916632308
 20
-631.23408159774408
 30
0.0
 11
718.18766916632489
 21
-631.23408159774408
 31
0.0
  0
LINE
  5
A593
  8
01
 10
729.18766916632478
 20
-636.23408159774408
 30
0.0
 11
719.18766916632489
 21
-636.23408159774408
 31
0.0
  0
POLYLINE
  5
A594
  8
01
 10
729.18766916632478
 20
-634.80250159774369
 30
0.0
 66
     1
 70
     8
  0
VERTEX
  8
01
  5
FD38
 10
729.188
 20
-634.803
 30
0.000000
  70
    32
  0
VERTEX
  8
01
  5
FD39
 10
729.186
 20
-634.715
 30
0.000000
  70
    32
  0
VERTEX
  8
01
  5
FD3A
 10
729.182
 20
-634.627
 30
0.000000
  70
    32
  0
VERTEX
  8
01
  5
FD3B
 10
729.174
 20
-634.540
 30
0.000000
  70
    32
  0
VERTEX
  8
01
  5
FD3C
 10
729.164
 20
-634.453
 30
0.000000
  70
    32
  0
VERTEX
  8
01
  5
FD3D
 10
729.150
 20
-634.366
 30
0.000000
  70
    32
  0
VERTEX
  8
01
  5
FD3E
 10
729.134
 20
-634.279
 30
0.000000
  70
    32
  0
VERTEX
  8
01
  5
FD3F
 10
729.114
 20
-634.192
 30
0.000000
  70
    32
  0
VERTEX
  8
01
  5
FD40
 10
729.092
 20
-634.106
 30
0.000000
  70
    32
  0
VERTEX
  8
01
  5
FD41
 10
729.066
 20
-634.021
 30
0.000000
  70
    32
  0
VERTEX
  8
01
  5
FD42
 10
729.038
 20
-633.935
 30
0.000000
  70
    32
  0
VERTEX
  8
01
  5
FD43
 10
729.007
 20
-633.851
 30
0.000000
  70
    32
  0
VERTEX
  8
01
  5
FD44
 10
728.972
 20
-633.767
 30
0.000000
  70
    32
  0
VERTEX
  8
01
  5
FD45
 10
728.935
 20
-633.683
 30
0.000000
  70
    32
  0
VERTEX
  8
01
  5
FD46
 10
728.895
 20
-633.600
 30
0.000000
  70
    32
  0
VERTEX
  8
01
  5
FD47
 10
728.853
 20
-633.518
 30
0.000000
  70
    32
  0
VERTEX
  8
01
  5
FD48
 10
728.807
 20
-633.437
 30
0.000000
  70
    32
  0
VERTEX
  8
01
  5
FD49
 10
728.759
 20
-633.356
 30
0.000000
  70
    32
  0
VERTEX
  8
01
  5
FD4A
 10
728.708
 20
-633.277
 30
0.000000
  70
    32
  0
VERTEX
  8
01
  5
FD4B
 10
728.654
 20
-633.198
 30
0.000000
  70
    32
  0
VERTEX
  8
01
  5
FD4C
 10
728.597
 20
-633.120
 30
0.000000
  70
    32
  0
VERTEX
  8
01
  5
FD4D
 10
728.538
 20
-633.044
 30
0.000000
  70
    32
  0
VERTEX
  8
01
  5
FD4E
 10
728.476
 20
-632.968
 30
0.000000
  70
    32
  0
VERTEX
  8
01
  5
FD4F
 10
728.412
 20
-632.893
 30
0.000000
  70
    32
  0
VERTEX
  8
01
  5
FD50
 10
728.345
 20
-632.820
 30
0.000000
  70
    32
  0
VERTEX
  8
01
  5
FD51
 10
728.276
 20
-632.748
 30
0.000000
  70
    32
  0
VERTEX
  8
01
  5
FD52
 10
728.204
 20
-632.677
 30
0.000000
  70
    32
  0
VERTEX
  8
01
  5
FD53
 10
728.129
 20
-632.607
 30
0.000000
  70
    32
  0
VERTEX
  8
01
  5
FD54
 10
728.053
 20
-632.539
 30
0.000000
  70
    32
  0
VERTEX
  8
01
  5
FD55
 10
727.974
 20
-632.472
 30
0.000000
  70
    32
  0
VERTEX
  8
01
  5
FD56
 10
727.892
 20
-632.406
 30
0.000000
  70
    32
  0
VERTEX
  8
01
  5
FD57
 10
727.809
 20
-632.342
 30
0.000000
  70
    32
  0
VERTEX
  8
01
  5
FD58
 10
727.723
 20
-632.279
 30
0.000000
  70
    32
  0
VERTEX
  8
01
  5
FD59
 10
727.635
 20
-632.218
 30
0.000000
  70
    32
  0
VERTEX
  8
01
  5
FD5A
 10
727.545
 20
-632.158
 30
0.000000
  70
    32
  0
VERTEX
  8
01
  5
FD5B
 10
727.454
 20
-632.100
 30
0.000000
  70
    32
  0
VERTEX
  8
01
  5
FD5C
 10
727.360
 20
-632.044
 30
0.000000
  70
    32
  0
VERTEX
  8
01
  5
FD5D
 10
727.264
 20
-631.989
 30
0.000000
  70
    32
  0
VERTEX
  8
01
  5
FD5E
 10
727.166
 20
-631.936
 30
0.000000
  70
    32
  0
VERTEX
  8
01
  5
FD5F
 10
727.067
 20
-631.885
 30
0.000000
  70
    32
  0
VERTEX
  8
01
  5
FD60
 10
726.966
 20
-631.835
 30
0.000000
  70
    32
  0
VERTEX
  8
01
  5
FD61
 10
726.863
 20
-631.788
 30
0.000000
  70
    32
  0
VERTEX
  8
01
  5
FD62
 10
726.758
 20
-631.742
 30
0.000000
  70
    32
  0
VERTEX
  8
01
  5
FD63
 10
726.652
 20
-631.698
 30
0.000000
  70
    32
  0
VERTEX
  8
01
  5
FD64
 10
726.545
 20
-631.655
 30
0.000000
  70
    32
  0
VERTEX
  8
01
  5
FD65
 10
726.436
 20
-631.615
 30
0.000000
  70
    32
  0
VERTEX
  8
01
  5
FD66
 10
726.325
 20
-631.577
 30
0.000000
  70
    32
  0
VERTEX
  8
01
  5
FD67
 10
726.214
 20
-631.540
 30
0.000000
  70
    32
  0
VERTEX
  8
01
  5
FD68
 10
726.101
 20
-631.506
 30
0.000000
  70
    32
  0
VERTEX
  8
01
  5
FD69
 10
725.987
 20
-631.473
 30
0.000000
  70
    32
  0
VERTEX
  8
01
  5
FD6A
 10
725.872
 20
-631.443
 30
0.000000
  70
    32
  0
VERTEX
  8
01
  5
FD6B
 10
725.756
 20
-631.414
 30
0.000000
  70
    32
  0
VERTEX
  8
01
  5
FD6C
 10
725.639
 20
-631.388
 30
0.000000
  70
    32
  0
VERTEX
  8
01
  5
FD6D
 10
725.521
 20
-631.363
 30
0.000000
  70
    32
  0
VERTEX
  8
01
  5
FD6E
 10
725.403
 20
-631.341
 30
0.000000
  70
    32
  0
VERTEX
  8
01
  5
FD6F
 10
725.283
 20
-631.321
 30
0.000000
  70
    32
  0
VERTEX
  8
01
  5
FD70
 10
725.163
 20
-631.303
 30
0.000000
  70
    32
  0
VERTEX
  8
01
  5
FD71
 10
725.042
 20
-631.287
 30
0.000000
  70
    32
  0
VERTEX
  8
01
  5
FD72
 10
724.921
 20
-631.273
 30
0.000000
  70
    32
  0
VERTEX
  8
01
  5
FD73
 10
724.800
 20
-631.261
 30
0.000000
  70
    32
  0
VERTEX
  8
01
  5
FD74
 10
724.678
 20
-631.251
 30
0.000000
  70
    32
  0
VERTEX
  8
01
  5
FD75
 10
724.555
 20
-631.244
 30
0.000000
  70
    32
  0
VERTEX
  8
01
  5
FD76
 10
724.433
 20
-631.238
 30
0.000000
  70
    32
  0
VERTEX
  8
01
  5
FD77
 10
724.310
 20
-631.235
 30
0.000000
  70
    32
  0
VERTEX
  8
01
  5
FD78
 10
724.188
 20
-631.234
 30
0.000000
  70
    32
  0
VERTEX
  8
01
  5
FD79
 10
724.065
 20
-631.235
 30
0.000000
  70
    32
  0
VERTEX
  8
01
  5
FD7A
 10
723.942
 20
-631.238
 30
0.000000
  70
    32
  0
VERTEX
  8
01
  5
FD7B
 10
723.820
 20
-631.244
 30
0.000000
  70
    32
  0
VERTEX
  8
01
  5
FD7C
 10
723.698
 20
-631.251
 30
0.000000
  70
    32
  0
VERTEX
  8
01
  5
FD7D
 10
723.576
 20
-631.261
 30
0.000000
  70
    32
  0
VERTEX
  8
01
  5
FD7E
 10
723.454
 20
-631.273
 30
0.000000
  70
    32
  0
VERTEX
  8
01
  5
FD7F
 10
723.333
 20
-631.287
 30
0.000000
  70
    32
  0
VERTEX
  8
01
  5
FD80
 10
723.212
 20
-631.303
 30
0.000000
  70
    32
  0
VERTEX
  8
01
  5
FD81
 10
723.092
 20
-631.321
 30
0.000000
  70
    32
  0
VERTEX
  8
01
  5
FD82
 10
722.973
 20
-631.341
 30
0.000000
  70
    32
  0
VERTEX
  8
01
  5
FD83
 10
722.854
 20
-631.363
 30
0.000000
  70
    32
  0
VERTEX
  8
01
  5
FD84
 10
722.736
 20
-631.388
 30
0.000000
  70
    32
  0
VERTEX
  8
01
  5
FD85
 10
722.619
 20
-631.414
 30
0.000000
  70
    32
  0
VERTEX
  8
01
  5
FD86
 10
722.503
 20
-631.443
 30
0.000000
  70
    32
  0
VERTEX
  8
01
  5
FD87
 10
722.388
 20
-631.473
 30
0.000000
  70
    32
  0
VERTEX
  8
01
  5
FD88
 10
722.274
 20
-631.506
 30
0.000000
  70
    32
  0
VERTEX
  8
01
  5
FD89
 10
722.161
 20
-631.540
 30
0.000000
  70
    32
  0
VERTEX
  8
01
  5
FD8A
 10
722.050
 20
-631.577
 30
0.000000
  70
    32
  0
VERTEX
  8
01
  5
FD8B
 10
721.940
 20
-631.615
 30
0.000000
  70
    32
  0
VERTEX
  8
01
  5
FD8C
 10
721.831
 20
-631.655
 30
0.000000
  70
    32
  0
VERTEX
  8
01
  5
FD8D
 10
721.723
 20
-631.698
 30
0.000000
  70
    32
  0
VERTEX
  8
01
  5
FD8E
 10
721.617
 20
-631.742
 30
0.000000
  70
    32
  0
VERTEX
  8
01
  5
FD8F
 10
721.513
 20
-631.788
 30
0.000000
  70
    32
  0
VERTEX
  8
01
  5
FD90
 10
721.410
 20
-631.835
 30
0.000000
  70
    32
  0
VERTEX
  8
01
  5
FD91
 10
721.309
 20
-631.885
 30
0.000000
  70
    32
  0
VERTEX
  8
01
  5
FD92
 10
721.209
 20
-631.936
 30
0.000000
  70
    32
  0
VERTEX
  8
01
  5
FD93
 10
721.112
 20
-631.989
 30
0.000000
  70
    32
  0
VERTEX
  8
01
  5
FD94
 10
721.016
 20
-632.044
 30
0.000000
  70
    32
  0
VERTEX
  8
01
  5
FD95
 10
720.922
 20
-632.100
 30
0.000000
  70
    32
  0
VERTEX
  8
01
  5
FD96
 10
720.830
 20
-632.158
 30
0.000000
  70
    32
  0
VERTEX
  8
01
  5
FD97
 10
720.740
 20
-632.218
 30
0.000000
  70
    32
  0
VERTEX
  8
01
  5
FD98
 10
720.652
 20
-632.279
 30
0.000000
  70
    32
  0
VERTEX
  8
01
  5
FD99
 10
720.566
 20
-632.342
 30
0.000000
  70
    32
  0
VERTEX
  8
01
  5
FD9A
 10
720.483
 20
-632.406
 30
0.000000
  70
    32
  0
VERTEX
  8
01
  5
FD9B
 10
720.402
 20
-632.472
 30
0.000000
  70
    32
  0
VERTEX
  8
01
  5
FD9C
 10
720.323
 20
-632.539
 30
0.000000
  70
    32
  0
VERTEX
  8
01
  5
FD9D
 10
720.246
 20
-632.607
 30
0.000000
  70
    32
  0
VERTEX
  8
01
  5
FD9E
 10
720.172
 20
-632.677
 30
0.000000
  70
    32
  0
VERTEX
  8
01
  5
FD9F
 10
720.100
 20
-632.748
 30
0.000000
  70
    32
  0
VERTEX
  8
01
  5
FDA0
 10
720.030
 20
-632.820
 30
0.000000
  70
    32
  0
VERTEX
  8
01
  5
FDA1
 10
719.963
 20
-632.893
 30
0.000000
  70
    32
  0
VERTEX
  8
01
  5
FDA2
 10
719.899
 20
-632.968
 30
0.000000
  70
    32
  0
VERTEX
  8
01
  5
FDA3
 10
719.837
 20
-633.044
 30
0.000000
  70
    32
  0
VERTEX
  8
01
  5
FDA4
 10
719.778
 20
-633.120
 30
0.000000
  70
    32
  0
VERTEX
  8
01
  5
FDA5
 10
719.722
 20
-633.198
 30
0.000000
  70
    32
  0
VERTEX
  8
01
  5
FDA6
 10
719.668
 20
-633.277
 30
0.000000
  70
    32
  0
VERTEX
  8
01
  5
FDA7
 10
719.617
 20
-633.356
 30
0.000000
  70
    32
  0
VERTEX
  8
01
  5
FDA8
 10
719.568
 20
-633.437
 30
0.000000
  70
    32
  0
VERTEX
  8
01
  5
FDA9
 10
719.523
 20
-633.518
 30
0.000000
  70
    32
  0
VERTEX
  8
01
  5
FDAA
 10
719.480
 20
-633.600
 30
0.000000
  70
    32
  0
VERTEX
  8
01
  5
FDAB
 10
719.440
 20
-633.683
 30
0.000000
  70
    32
  0
VERTEX
  8
01
  5
FDAC
 10
719.403
 20
-633.767
 30
0.000000
  70
    32
  0
VERTEX
  8
01
  5
FDAD
 10
719.369
 20
-633.851
 30
0.000000
  70
    32
  0
VERTEX
  8
01
  5
FDAE
 10
719.338
 20
-633.935
 30
0.000000
  70
    32
  0
VERTEX
  8
01
  5
FDAF
 10
719.309
 20
-634.021
 30
0.000000
  70
    32
  0
VERTEX
  8
01
  5
FDB0
 10
719.284
 20
-634.106
 30
0.000000
  70
    32
  0
VERTEX
  8
01
  5
FDB1
 10
719.261
 20
-634.192
 30
0.000000
  70
    32
  0
VERTEX
  8
01
  5
FDB2
 10
719.242
 20
-634.279
 30
0.000000
  70
    32
  0
VERTEX
  8
01
  5
FDB3
 10
719.225
 20
-634.366
 30
0.000000
  70
    32
  0
VERTEX
  8
01
  5
FDB4
 10
719.212
 20
-634.453
 30
0.000000
  70
    32
  0
VERTEX
  8
01
  5
FDB5
 10
719.201
 20
-634.540
 30
0.000000
  70
    32
  0
VERTEX
  8
01
  5
FDB6
 10
719.194
 20
-634.627
 30
0.000000
  70
    32
  0
VERTEX
  8
01
  5
FDB7
 10
719.189
 20
-634.715
 30
0.000000
  70
    32
  0
VERTEX
  8
01
  5
FDB8
 10
719.188
 20
-634.803
 30
0.000000
  70
    32
  0
SEQEND
  8
01
  5
FDB9
  0
LINE
  5
A595
  8
01
 10
724.18766916632478
 20
-651.23408159774419
 30
0.0
 11
718.18766916632489
 21
-651.23408159774419
 31
0.0
  0
LINE
  5
A596
  8
01
 10
729.18766916632478
 20
-646.23408159774419
 30
0.0
 11
719.18766916632489
 21
-646.23408159774419
 31
0.0
  0
POLYLINE
  5
A597
  8
01
 10
729.18766916632478
 20
-647.66566159774368
 30
0.0
 66
     1
 70
     8
  0
VERTEX
  8
01
  5
FDBA
 10
729.188
 20
-647.666
 30
0.000000
  70
    32
  0
VERTEX
  8
01
  5
FDBB
 10
729.186
 20
-647.753
 30
0.000000
  70
    32
  0
VERTEX
  8
01
  5
FDBC
 10
729.182
 20
-647.841
 30
0.000000
  70
    32
  0
VERTEX
  8
01
  5
FDBD
 10
729.174
 20
-647.928
 30
0.000000
  70
    32
  0
VERTEX
  8
01
  5
FDBE
 10
729.164
 20
-648.015
 30
0.000000
  70
    32
  0
VERTEX
  8
01
  5
FDBF
 10
729.150
 20
-648.102
 30
0.000000
  70
    32
  0
VERTEX
  8
01
  5
FDC0
 10
729.134
 20
-648.189
 30
0.000000
  70
    32
  0
VERTEX
  8
01
  5
FDC1
 10
729.114
 20
-648.276
 30
0.000000
  70
    32
  0
VERTEX
  8
01
  5
FDC2
 10
729.092
 20
-648.362
 30
0.000000
  70
    32
  0
VERTEX
  8
01
  5
FDC3
 10
729.066
 20
-648.448
 30
0.000000
  70
    32
  0
VERTEX
  8
01
  5
FDC4
 10
729.038
 20
-648.533
 30
0.000000
  70
    32
  0
VERTEX
  8
01
  5
FDC5
 10
729.007
 20
-648.617
 30
0.000000
  70
    32
  0
VERTEX
  8
01
  5
FDC6
 10
728.972
 20
-648.702
 30
0.000000
  70
    32
  0
VERTEX
  8
01
  5
FDC7
 10
728.935
 20
-648.785
 30
0.000000
  70
    32
  0
VERTEX
  8
01
  5
FDC8
 10
728.895
 20
-648.868
 30
0.000000
  70
    32
  0
VERTEX
  8
01
  5
FDC9
 10
728.853
 20
-648.950
 30
0.000000
  70
    32
  0
VERTEX
  8
01
  5
FDCA
 10
728.807
 20
-649.031
 30
0.000000
  70
    32
  0
VERTEX
  8
01
  5
FDCB
 10
728.759
 20
-649.112
 30
0.000000
  70
    32
  0
VERTEX
  8
01
  5
FDCC
 10
728.708
 20
-649.191
 30
0.000000
  70
    32
  0
VERTEX
  8
01
  5
FDCD
 10
728.654
 20
-649.270
 30
0.000000
  70
    32
  0
VERTEX
  8
01
  5
FDCE
 10
728.597
 20
-649.348
 30
0.000000
  70
    32
  0
VERTEX
  8
01
  5
FDCF
 10
728.538
 20
-649.425
 30
0.000000
  70
    32
  0
VERTEX
  8
01
  5
FDD0
 10
728.476
 20
-649.500
 30
0.000000
  70
    32
  0
VERTEX
  8
01
  5
FDD1
 10
728.412
 20
-649.575
 30
0.000000
  70
    32
  0
VERTEX
  8
01
  5
FDD2
 10
728.345
 20
-649.648
 30
0.000000
  70
    32
  0
VERTEX
  8
01
  5
FDD3
 10
728.276
 20
-649.720
 30
0.000000
  70
    32
  0
VERTEX
  8
01
  5
FDD4
 10
728.204
 20
-649.791
 30
0.000000
  70
    32
  0
VERTEX
  8
01
  5
FDD5
 10
728.129
 20
-649.861
 30
0.000000
  70
    32
  0
VERTEX
  8
01
  5
FDD6
 10
728.053
 20
-649.929
 30
0.000000
  70
    32
  0
VERTEX
  8
01
  5
FDD7
 10
727.974
 20
-649.996
 30
0.000000
  70
    32
  0
VERTEX
  8
01
  5
FDD8
 10
727.892
 20
-650.062
 30
0.000000
  70
    32
  0
VERTEX
  8
01
  5
FDD9
 10
727.809
 20
-650.126
 30
0.000000
  70
    32
  0
VERTEX
  8
01
  5
FDDA
 10
727.723
 20
-650.189
 30
0.000000
  70
    32
  0
VERTEX
  8
01
  5
FDDB
 10
727.635
 20
-650.250
 30
0.000000
  70
    32
  0
VERTEX
  8
01
  5
FDDC
 10
727.545
 20
-650.310
 30
0.000000
  70
    32
  0
VERTEX
  8
01
  5
FDDD
 10
727.454
 20
-650.368
 30
0.000000
  70
    32
  0
VERTEX
  8
01
  5
FDDE
 10
727.360
 20
-650.424
 30
0.000000
  70
    32
  0
VERTEX
  8
01
  5
FDDF
 10
727.264
 20
-650.479
 30
0.000000
  70
    32
  0
VERTEX
  8
01
  5
FDE0
 10
727.166
 20
-650.532
 30
0.000000
  70
    32
  0
VERTEX
  8
01
  5
FDE1
 10
727.067
 20
-650.583
 30
0.000000
  70
    32
  0
VERTEX
  8
01
  5
FDE2
 10
726.966
 20
-650.633
 30
0.000000
  70
    32
  0
VERTEX
  8
01
  5
FDE3
 10
726.863
 20
-650.680
 30
0.000000
  70
    32
  0
VERTEX
  8
01
  5
FDE4
 10
726.758
 20
-650.726
 30
0.000000
  70
    32
  0
VERTEX
  8
01
  5
FDE5
 10
726.652
 20
-650.770
 30
0.000000
  70
    32
  0
VERTEX
  8
01
  5
FDE6
 10
726.545
 20
-650.813
 30
0.000000
  70
    32
  0
VERTEX
  8
01
  5
FDE7
 10
726.436
 20
-650.853
 30
0.000000
  70
    32
  0
VERTEX
  8
01
  5
FDE8
 10
726.325
 20
-650.891
 30
0.000000
  70
    32
  0
VERTEX
  8
01
  5
FDE9
 10
726.214
 20
-650.928
 30
0.000000
  70
    32
  0
VERTEX
  8
01
  5
FDEA
 10
726.101
 20
-650.962
 30
0.000000
  70
    32
  0
VERTEX
  8
01
  5
FDEB
 10
725.987
 20
-650.995
 30
0.000000
  70
    32
  0
VERTEX
  8
01
  5
FDEC
 10
725.872
 20
-651.025
 30
0.000000
  70
    32
  0
VERTEX
  8
01
  5
FDED
 10
725.756
 20
-651.054
 30
0.000000
  70
    32
  0
VERTEX
  8
01
  5
FDEE
 10
725.639
 20
-651.080
 30
0.000000
  70
    32
  0
VERTEX
  8
01
  5
FDEF
 10
725.521
 20
-651.105
 30
0.000000
  70
    32
  0
VERTEX
  8
01
  5
FDF0
 10
725.403
 20
-651.127
 30
0.000000
  70
    32
  0
VERTEX
  8
01
  5
FDF1
 10
725.283
 20
-651.147
 30
0.000000
  70
    32
  0
VERTEX
  8
01
  5
FDF2
 10
725.163
 20
-651.166
 30
0.000000
  70
    32
  0
VERTEX
  8
01
  5
FDF3
 10
725.042
 20
-651.182
 30
0.000000
  70
    32
  0
VERTEX
  8
01
  5
FDF4
 10
724.921
 20
-651.195
 30
0.000000
  70
    32
  0
VERTEX
  8
01
  5
FDF5
 10
724.800
 20
-651.207
 30
0.000000
  70
    32
  0
VERTEX
  8
01
  5
FDF6
 10
724.678
 20
-651.217
 30
0.000000
  70
    32
  0
VERTEX
  8
01
  5
FDF7
 10
724.555
 20
-651.224
 30
0.000000
  70
    32
  0
VERTEX
  8
01
  5
FDF8
 10
724.433
 20
-651.230
 30
0.000000
  70
    32
  0
VERTEX
  8
01
  5
FDF9
 10
724.310
 20
-651.233
 30
0.000000
  70
    32
  0
VERTEX
  8
01
  5
FDFA
 10
724.188
 20
-651.234
 30
0.000000
  70
    32
  0
VERTEX
  8
01
  5
FDFB
 10
724.065
 20
-651.233
 30
0.000000
  70
    32
  0
VERTEX
  8
01
  5
FDFC
 10
723.942
 20
-651.230
 30
0.000000
  70
    32
  0
VERTEX
  8
01
  5
FDFD
 10
723.820
 20
-651.224
 30
0.000000
  70
    32
  0
VERTEX
  8
01
  5
FDFE
 10
723.698
 20
-651.217
 30
0.000000
  70
    32
  0
VERTEX
  8
01
  5
FDFF
 10
723.576
 20
-651.207
 30
0.000000
  70
    32
  0
VERTEX
  8
01
  5
FE00
 10
723.454
 20
-651.195
 30
0.000000
  70
    32
  0
VERTEX
  8
01
  5
FE01
 10
723.333
 20
-651.182
 30
0.000000
  70
    32
  0
VERTEX
  8
01
  5
FE02
 10
723.212
 20
-651.166
 30
0.000000
  70
    32
  0
VERTEX
  8
01
  5
FE03
 10
723.092
 20
-651.147
 30
0.000000
  70
    32
  0
VERTEX
  8
01
  5
FE04
 10
722.973
 20
-651.127
 30
0.000000
  70
    32
  0
VERTEX
  8
01
  5
FE05
 10
722.854
 20
-651.105
 30
0.000000
  70
    32
  0
VERTEX
  8
01
  5
FE06
 10
722.736
 20
-651.080
 30
0.000000
  70
    32
  0
VERTEX
  8
01
  5
FE07
 10
722.619
 20
-651.054
 30
0.000000
  70
    32
  0
VERTEX
  8
01
  5
FE08
 10
722.503
 20
-651.025
 30
0.000000
  70
    32
  0
VERTEX
  8
01
  5
FE09
 10
722.388
 20
-650.995
 30
0.000000
  70
    32
  0
VERTEX
  8
01
  5
FE0A
 10
722.274
 20
-650.962
 30
0.000000
  70
    32
  0
VERTEX
  8
01
  5
FE0B
 10
722.161
 20
-650.928
 30
0.000000
  70
    32
  0
VERTEX
  8
01
  5
FE0C
 10
722.050
 20
-650.891
 30
0.000000
  70
    32
  0
VERTEX
  8
01
  5
FE0D
 10
721.940
 20
-650.853
 30
0.000000
  70
    32
  0
VERTEX
  8
01
  5
FE0E
 10
721.831
 20
-650.813
 30
0.000000
  70
    32
  0
VERTEX
  8
01
  5
FE0F
 10
721.723
 20
-650.770
 30
0.000000
  70
    32
  0
VERTEX
  8
01
  5
FE10
 10
721.617
 20
-650.726
 30
0.000000
  70
    32
  0
VERTEX
  8
01
  5
FE11
 10
721.513
 20
-650.680
 30
0.000000
  70
    32
  0
VERTEX
  8
01
  5
FE12
 10
721.410
 20
-650.633
 30
0.000000
  70
    32
  0
VERTEX
  8
01
  5
FE13
 10
721.309
 20
-650.583
 30
0.000000
  70
    32
  0
VERTEX
  8
01
  5
FE14
 10
721.209
 20
-650.532
 30
0.000000
  70
    32
  0
VERTEX
  8
01
  5
FE15
 10
721.112
 20
-650.479
 30
0.000000
  70
    32
  0
VERTEX
  8
01
  5
FE16
 10
721.016
 20
-650.424
 30
0.000000
  70
    32
  0
VERTEX
  8
01
  5
FE17
 10
720.922
 20
-650.368
 30
0.000000
  70
    32
  0
VERTEX
  8
01
  5
FE18
 10
720.830
 20
-650.310
 30
0.000000
  70
    32
  0
VERTEX
  8
01
  5
FE19
 10
720.740
 20
-650.250
 30
0.000000
  70
    32
  0
VERTEX
  8
01
  5
FE1A
 10
720.652
 20
-650.189
 30
0.000000
  70
    32
  0
VERTEX
  8
01
  5
FE1B
 10
720.566
 20
-650.126
 30
0.000000
  70
    32
  0
VERTEX
  8
01
  5
FE1C
 10
720.483
 20
-650.062
 30
0.000000
  70
    32
  0
VERTEX
  8
01
  5
FE1D
 10
720.402
 20
-649.996
 30
0.000000
  70
    32
  0
VERTEX
  8
01
  5
FE1E
 10
720.323
 20
-649.929
 30
0.000000
  70
    32
  0
VERTEX
  8
01
  5
FE1F
 10
720.246
 20
-649.861
 30
0.000000
  70
    32
  0
VERTEX
  8
01
  5
FE20
 10
720.172
 20
-649.791
 30
0.000000
  70
    32
  0
VERTEX
  8
01
  5
FE21
 10
720.100
 20
-649.720
 30
0.000000
  70
    32
  0
VERTEX
  8
01
  5
FE22
 10
720.030
 20
-649.648
 30
0.000000
  70
    32
  0
VERTEX
  8
01
  5
FE23
 10
719.963
 20
-649.575
 30
0.000000
  70
    32
  0
VERTEX
  8
01
  5
FE24
 10
719.899
 20
-649.500
 30
0.000000
  70
    32
  0
VERTEX
  8
01
  5
FE25
 10
719.837
 20
-649.425
 30
0.000000
  70
    32
  0
VERTEX
  8
01
  5
FE26
 10
719.778
 20
-649.348
 30
0.000000
  70
    32
  0
VERTEX
  8
01
  5
FE27
 10
719.722
 20
-649.270
 30
0.000000
  70
    32
  0
VERTEX
  8
01
  5
FE28
 10
719.668
 20
-649.191
 30
0.000000
  70
    32
  0
VERTEX
  8
01
  5
FE29
 10
719.617
 20
-649.112
 30
0.000000
  70
    32
  0
VERTEX
  8
01
  5
FE2A
 10
719.568
 20
-649.031
 30
0.000000
  70
    32
  0
VERTEX
  8
01
  5
FE2B
 10
719.523
 20
-648.950
 30
0.000000
  70
    32
  0
VERTEX
  8
01
  5
FE2C
 10
719.480
 20
-648.868
 30
0.000000
  70
    32
  0
VERTEX
  8
01
  5
FE2D
 10
719.440
 20
-648.785
 30
0.000000
  70
    32
  0
VERTEX
  8
01
  5
FE2E
 10
719.403
 20
-648.702
 30
0.000000
  70
    32
  0
VERTEX
  8
01
  5
FE2F
 10
719.369
 20
-648.617
 30
0.000000
  70
    32
  0
VERTEX
  8
01
  5
FE30
 10
719.338
 20
-648.533
 30
0.000000
  70
    32
  0
VERTEX
  8
01
  5
FE31
 10
719.309
 20
-648.448
 30
0.000000
  70
    32
  0
VERTEX
  8
01
  5
FE32
 10
719.284
 20
-648.362
 30
0.000000
  70
    32
  0
VERTEX
  8
01
  5
FE33
 10
719.261
 20
-648.276
 30
0.000000
  70
    32
  0
VERTEX
  8
01
  5
FE34
 10
719.242
 20
-648.189
 30
0.000000
  70
    32
  0
VERTEX
  8
01
  5
FE35
 10
719.225
 20
-648.102
 30
0.000000
  70
    32
  0
VERTEX
  8
01
  5
FE36
 10
719.212
 20
-648.015
 30
0.000000
  70
    32
  0
VERTEX
  8
01
  5
FE37
 10
719.201
 20
-647.928
 30
0.000000
  70
    32
  0
VERTEX
  8
01
  5
FE38
 10
719.194
 20
-647.841
 30
0.000000
  70
    32
  0
VERTEX
  8
01
  5
FE39
 10
719.189
 20
-647.753
 30
0.000000
  70
    32
  0
VERTEX
  8
01
  5
FE3A
 10
719.188
 20
-647.666
 30
0.000000
  70
    32
  0
SEQEND
  8
01
  5
FE3B
  0
LINE
  5
A598
  8
01
 10
729.18766916632478
 20
-634.80250159774369
 30
0.0
 11
729.18766916632478
 21
-647.66566159774459
 31
0.0
  0
LINE
  5
A599
  8
01
 10
719.18766916632489
 20
-634.80250159774369
 30
0.0
 11
719.18766916632489
 21
-647.66566159774175
 31
0.0
  0
LINE
  5
A59A
  8
01
 10
715.18765416632516
 20
-601.23408159774419
 30
0.0
 11
714.18765416632516
 21
-600.23408159774419
 31
0.0
  0
LINE
  5
A59B
  8
01
 10
716.58767116632509
 20
-601.13410159774423
 30
0.0
 11
715.78769016632498
 21
-600.33412159774355
 31
0.0
  0
LINE
  5
A59C
  8
01
 10
716.58767116632509
 20
-683.3340915977434
 30
0.0
 11
715.78766816632492
 21
-684.13407159774397
 31
0.0
  0
LINE
  5
A59D
  8
01
 10
715.18761616632514
 20
-683.23411159774344
 30
0.0
 11
714.18763116632465
 21
-684.23411159774344
 31
0.0
  0
LINE
  5
A59E
  8
01
 10
718.18766916632489
 20
-707.23408159774408
 30
0.0
 11
714.18766916632489
 21
-707.23408159774408
 31
0.0
  0
LINE
  5
A59F
  8
01
 10
715.78767516632547
 20
-707.23408159774408
 30
0.0
 11
715.78767516632547
 21
-684.13407159774397
 31
0.0
  0
LINE
  5
A5A0
  8
01
 10
714.18766916632489
 20
-707.23408159774408
 30
0.0
 11
714.18766916632489
 21
-684.23408159774419
 31
0.0
  0
LINE
  5
A5A1
  8
01
 10
715.18766916632489
 20
-601.23408159774419
 30
0.0
 11
715.18766916632489
 21
-683.23408159774419
 31
0.0
  0
LINE
  5
A5A2
  8
01
 10
718.18766916632489
 20
-577.23408159774408
 30
0.0
 11
714.18766916632489
 21
-577.23408159774408
 31
0.0
  0
LINE
  5
A5A3
  8
01
 10
823.18766916632489
 20
-583.23408159774419
 30
0.0
 11
823.18766916632489
 21
-701.23408159774419
 31
0.0
  0
LINE
  5
A5A4
  8
01
 10
848.18766916632489
 20
-583.23408159774419
 30
0.0
 11
848.18766916632489
 21
-701.23408159774419
 31
0.0
  0
ARC
  5
A5A5
  8
01
 10
842.18766916632478
 20
-701.23408159774419
 30
0.0
 40
6.0
 50
270.0
 51
0.0
  0
ARC
  5
A5A6
  8
01
 10
829.18766916632489
 20
-701.23408159774419
 30
0.0
 40
6.0
 50
180.0
 51
270.0
  0
LINE
  5
A5A7
  8
01
 10
843.43766916632489
 20
-634.80250159774369
 30
0.0
 11
843.43766916632489
 21
-647.66566159774368
 31
0.0
  0
LINE
  5
A5A8
  8
01
 10
842.43766916632489
 20
-636.23408159774408
 30
0.0
 11
842.43766916632489
 21
-646.23408159774419
 31
0.0
  0
LINE
  5
A5A9
  8
01
 10
828.93766916632478
 20
-636.23408159774408
 30
0.0
 11
828.93766916632478
 21
-646.23408159774419
 31
0.0
  0
LINE
  5
A5AA
  8
01
 10
827.93766916632478
 20
-634.80250159774369
 30
0.0
 11
827.93766916632478
 21
-647.66566159774368
 31
0.0
  0
ARC
  5
A5AB
  8
01
 10
835.68766916632489
 20
-641.03407159774372
 30
0.0
 40
10.199999999999999
 50
220.5530799999753
 51
319.44692000002459
  0
LINE
  5
A5AC
  8
01
 10
828.93766916632478
 20
-646.23408159774419
 30
0.0
 11
842.43766916632489
 21
-646.23408159774419
 31
0.0
  0
LINE
  5
A5AD
  8
01
 10
828.93766916632478
 20
-636.23408159774408
 30
0.0
 11
842.43766916632489
 21
-636.23408159774408
 31
0.0
  0
ARC
  5
A5AE
  8
01
 10
835.68766916632489
 20
-641.43409159774376
 30
0.0
 40
10.199999999999999
 50
40.553083999977588
 51
139.44692000002459
  0
CIRCLE
  5
A5AF
  8
01
 10
835.68766916632489
 20
-699.23408159774419
 30
0.0
 40
4.5
  0
CIRCLE
  5
A5B0
  8
01
 10
835.68766916632489
 20
-699.23408159774419
 30
0.0
 40
2.75
  0
LINE
  5
A5B1
  8
01
 10
829.18766916632489
 20
-707.23408159774408
 30
0.0
 11
842.18766916632478
 21
-707.23408159774408
 31
0.0
  0
ARC
  5
A5B2
  8
01
 10
842.18766916632478
 20
-583.23408159774419
 30
0.0
 40
6.0
 50
0.0
 51
90.0
  0
ARC
  5
A5B4
  8
01
 10
829.18766916632489
 20
-583.23408159774419
 30
0.0
 40
6.0
 50
90.0
 51
180.0
  0
LINE
  5
A5B5
  8
01
 10
829.18766916632489
 20
-577.23408159774408
 30
0.0
 11
842.18766916632478
 21
-577.23408159774408
 31
0.0
  0
CIRCLE
  5
A5B6
  8
01
 10
835.68766916632489
 20
-585.23408159774408
 30
0.0
 40
4.5
  0
CIRCLE
  5
A5B7
  8
01
 10
835.68766916632489
 20
-585.23408159774408
 30
0.0
 40
2.75
  0
LINE
  5
A5BC
  8
01
 10
955.58767516632463
 20
-577.23408159774408
 30
0.0
 11
955.58767516632463
 21
-600.33405159774338
 31
0.0
  0
LINE
  5
A5BD
  8
01
 10
957.18766516632536
 20
-577.23408159774408
 30
0.0
 11
957.18766516632536
 21
-600.23408159774419
 31
0.0
  0
LINE
  5
A5BE
  8
01
 10
954.78767516632536
 20
-577.23408159774408
 30
0.0
 11
954.78767516632536
 21
-707.23408159774408
 31
0.0
  0
LINE
  5
A5BF
  8
01
 10
953.18766516632525
 20
-577.23408159774408
 30
0.0
 11
953.18766516632525
 21
-707.23408159774408
 31
0.0
  0
LINE
  5
A5C0
  8
01
 10
956.18766516632525
 20
-605.23408159774419
 30
0.0
 11
1022.187665166325
 21
-605.23408159774419
 31
0.0
  0
LINE
  5
A5C1
  8
01
 10
956.18766516632525
 20
-679.23408159774419
 30
0.0
 11
983.06303499204716
 21
-679.23408159774419
 31
0.0
  0
LINE
  5
A5C2
  8
01
 10
956.18767516632499
 20
-601.23408159774419
 30
0.0
 11
957.18767516632522
 21
-600.23408159774419
 31
0.0
  0
LINE
  5
A5C3
  8
01
 10
954.78766516632572
 20
-601.13410159774423
 30
0.0
 11
955.58767516632463
 21
-600.33405159774338
 31
0.0
  0
LINE
  5
A5C4
  8
01
 10
946.18766516632525
 20
-631.23408159774408
 30
0.0
 11
953.18766516632525
 21
-631.23408159774408
 31
0.0
  0
LINE
  5
A5C5
  8
01
 10
946.18766516632525
 20
-651.23408159774419
 30
0.0
 11
953.18766516632525
 21
-651.23408159774419
 31
0.0
  0
LINE
  5
A5C6
  8
01
 10
942.26976516632499
 20
-648.04035159774423
 30
0.0
 11
953.18766516632525
 21
-648.04035159774423
 31
0.0
  0
LINE
  5
A5C7
  8
01
 10
942.26976516632499
 20
-634.4278015977435
 30
0.0
 11
953.18766516632525
 21
-634.4278015977435
 31
0.0
  0
LINE
  5
A5C8
  8
01
 10
942.18766516632536
 20
-635.23408159774408
 30
0.0
 11
942.18766516632536
 21
-647.23408159774419
 31
0.0
  0
ARC
  5
A5C9
  8
01
 10
946.18766516632525
 20
-647.23408159774419
 30
0.0
 40
4.0
 50
179.999989999999
 51
270.0
  0
ARC
  5
A5CA
  8
01
 10
946.18766516632525
 20
-635.23408159774408
 30
0.0
 40
4.0
 50
90.000002999984659
 51
180.00001000000091
  0
LINE
  5
A5CB
  8
01
 10
954.78766516632572
 20
-683.3340915977434
 30
0.0
 11
955.58767516632463
 21
-684.13407159774397
 31
0.0
  0
LINE
  5
A5CC
  8
01
 10
956.1877151663258
 20
-683.23411159774344
 30
0.0
 11
957.18769516632449
 21
-684.23408159774419
 31
0.0
  0
LINE
  5
A5CD
  8
1CENTER
 10
948.18766516632536
 20
-699.23408159774419
 30
0.0
 11
962.18766516632525
 21
-699.23408159774419
 31
0.0
  0
LINE
  5
A5CE
  8
01
 10
953.18766516632525
 20
-707.23408159774408
 30
0.0
 11
957.18766516632536
 21
-707.23408159774408
 31
0.0
  0
LINE
  5
A5CF
  8
01
 10
955.58767516632463
 20
-707.23408159774408
 30
0.0
 11
955.58767516632463
 21
-684.13407159774397
 31
0.0
  0
LINE
  5
A5D0
  8
01
 10
957.18766516632536
 20
-707.23408159774408
 30
0.0
 11
957.18766516632536
 21
-684.23408159774419
 31
0.0
  0
LINE
  5
A5D1
  8
01
 10
956.18766516632525
 20
-601.23408159774419
 30
0.0
 11
956.18766516632525
 21
-683.23408159774419
 31
0.0
  0
LINE
  5
A5D2
  8
01
 10
1022.187665166325
 20
-605.23408159774419
 30
0.0
 11
1022.187665166325
 21
-630.64073946950532
 31
0.0
  0
LINE
  5
A5D4
  8
01
 10
953.18766516632525
 20
-577.23408159774408
 30
0.0
 11
957.18766516632536
 21
-577.23408159774408
 31
0.0
  0
LINE
  5
A5D5
  8
1CENTER
 10
948.18766516632536
 20
-585.23408159774408
 30
0.0
 11
962.18766516632525
 21
-585.23408159774408
 31
0.0
  0
LINE
  5
A5DD
  8
01
 10
957.18854934838521
 20
-380.23408159877278
 30
0.0
 11
1023.188549348385
 21
-380.23408159877278
 31
0.0
  0
LINE
  5
A5DE
  8
01
 10
957.18854934838521
 20
-381.83405159877208
 30
0.0
 11
1023.188549348385
 21
-381.83405159877208
 31
0.0
  0
LINE
  5
A5DF
  8
01
 10
954.78855934838543
 20
-399.23408159877289
 30
0.0
 11
1023.188549348385
 21
-399.23408159877289
 31
0.0
  0
LINE
  5
A5E0
  8
01
 10
956.3885393483863
 20
-384.73408159877278
 30
0.0
 11
957.18854934838521
 21
-383.9340615987723
 31
0.0
  0
LINE
  5
A5E1
  8
01
 10
957.18854934838521
 20
-379.23408159877278
 30
0.0
 11
957.18854934838521
 21
-383.9340615987723
 31
0.0
  0
LINE
  5
A5E2
  8
01
 10
954.78855934838543
 20
-384.73405159877268
 30
0.0
 11
955.58854934838678
 21
-383.9340915987724
 31
0.0
  0
LINE
  5
A5E3
  8
01
 10
942.18854934838544
 20
-397.48408159877278
 30
0.0
 11
953.18854934838532
 21
-397.48408159877278
 31
0.0
  0
LINE
  5
A5E4
  8
01
 10
942.18854934838544
 20
-397.48408159877278
 30
0.0
 11
942.18854934838544
 21
-395.48408159877278
 31
0.0
  0
LINE
  5
A5E5
  8
01
 10
953.18854934838532
 20
-377.23408159877278
 30
0.0
 11
954.78855934838543
 21
-377.23408159877278
 31
0.0
  0
LINE
  5
A5E6
  8
01
 10
954.78855934838543
 20
-377.23408159877278
 30
0.0
 11
954.78855934838543
 21
-384.73408159877278
 31
0.0
  0
LINE
  5
A5E7
  8
01
 10
955.58855934838641
 20
-379.23408159877278
 30
0.0
 11
955.58855934838641
 21
-383.9340615987723
 31
0.0
  0
LINE
  5
A5E8
  8
01
 10
954.78855934838543
 20
-379.23408159877278
 30
0.0
 11
957.18854934838521
 21
-379.23408159877278
 31
0.0
  0
LINE
  5
A5E9
  8
01
 10
957.18854934838521
 20
-395.53407159877241
 30
0.0
 11
957.18854934838521
 21
-399.23408159877289
 31
0.0
  0
LINE
  5
A5EA
  8
01
 10
956.3885593483858
 20
-394.73405159877268
 30
0.0
 11
957.18854934838521
 21
-395.53407159877241
 31
0.0
  0
LINE
  5
A5EB
  8
01
 10
957.18854934838521
 20
-397.63407159877272
 30
0.0
 11
961.78855934838555
 21
-397.63407159877272
 31
0.0
  0
LINE
  5
A5EC
  8
01
 10
954.78854934838569
 20
-394.73405159877268
 30
0.0
 11
955.58855934838641
 21
-395.53407159877241
 31
0.0
  0
LINE
  5
A5ED
  8
01
 10
954.78855934838543
 20
-394.73408159877289
 30
0.0
 11
954.78855934838543
 21
-402.23408159877278
 31
0.0
  0
LINE
  5
A5EE
  8
01
 10
953.18854934838532
 20
-402.23408159877278
 30
0.0
 11
954.78855934838543
 21
-402.23408159877278
 31
0.0
  0
LINE
  5
A5EF
  8
01
 10
955.58855934838641
 20
-395.53407159877241
 30
0.0
 11
955.58855934838641
 21
-399.23408159877289
 31
0.0
  0
LINE
  5
A5F0
  8
01
 10
953.18854934838532
 20
-369.73408159877289
 30
0.0
 11
953.18854934838532
 21
-409.73408159877278
 31
0.0
  0
LINE
  5
A5F1
  8
01
 10
961.78855934838555
 20
-381.83405159877208
 30
0.0
 11
961.78855934838555
 21
-399.23408159877289
 31
0.0
  0
LINE
  5
A5F2
  8
01
 10
956.38854934838605
 20
-384.73408159877278
 30
0.0
 11
956.38854934838605
 21
-394.73408159877289
 31
0.0
  0
LINE
  5
A5F3
  8
01
 10
954.78855934838543
 20
-384.73408159877278
 30
0.0
 11
954.78855934838543
 21
-394.73408159877289
 31
0.0
  0
ARC
  5
A5F4
  8
01
 10
985.85804934838541
 20
-419.83516159877217
 30
0.0
 40
50.0
 50
130.7976899999974
 51
150.85500000002
  0
LINE
  5
A5F5
  8
1CENTER
 10
985.5498978946174
 20
-427.7341125987715
 30
0.0
 11
1001.172534506069
 21
-427.7341125987715
 31
0.0
  0
LINE
  5
A5F6
  8
01
 10
1021.588549348387
 20
-381.83405159877208
 30
0.0
 11
1021.588549348387
 21
-399.23408159877289
 31
0.0
  0
LINE
  5
A5F7
  8
01
 10
1023.188549348385
 20
-380.23408159877278
 30
0.0
 11
1023.188549348385
 21
-399.23408159877289
 31
0.0
  0
LINE
  5
A5F8
  8
1CENTER
 10
985.5498978946174
 20
-351.73405059877422
 30
0.0
 11
1001.172534506069
 21
-351.73405059877422
 31
0.0
  0
LINE
  5
A5FB
  8
1CENTER
 10
723.18767316632443
 20
-699.23408159774419
 30
0.0
 11
709.18767316632454
 21
-699.23408159774419
 31
0.0
  0
LINE
  5
A5FC
  8
1CENTER
 10
723.18767316632443
 20
-585.23408159774408
 30
0.0
 11
709.18767316632454
 21
-585.23408159774408
 31
0.0
  0
LINE
  5
A5FD
  8
1CENTER
 10
842.18766916632478
 20
-585.23408159774408
 30
0.0
 11
829.18766916632489
 21
-585.23408159774408
 31
0.0
  0
LINE
  5
A5FE
  8
1CENTER
 10
835.68766916632489
 20
-578.73408159774419
 30
0.0
 11
835.68766916632489
 21
-591.73408159774419
 31
0.0
  0
LINE
  5
A5FF
  8
1CENTER
 10
842.18766916632478
 20
-699.23408159774419
 30
0.0
 11
829.18766916632489
 21
-699.23408159774419
 31
0.0
  0
LINE
  5
A600
  8
1CENTER
 10
835.68766916632489
 20
-692.73408159774419
 30
0.0
 11
835.68766916632489
 21
-705.73408159774419
 31
0.0
  0
LINE
  5
A601
  8
1CENTER
 10
697.18767316632454
 20
-663.23408159774419
 30
0.0
 11
637.18767316632454
 21
-663.23408159774419
 31
0.0
  0
LINE
  5
A602
  8
1CENTER
 10
667.18767316632454
 20
-633.23408159774419
 30
0.0
 11
667.18767316632454
 21
-693.23408159774419
 31
0.0
  0
LINE
  5
A603
  8
1CENTER
 10
974.18766516632502
 20
-663.23408159774419
 30
0.0
 11
1034.1876651663249
 21
-663.23408159774419
 31
0.0
  0
LINE
  5
A604
  8
1CENTER
 10
1004.187665166325
 20
-633.23408159774419
 30
0.0
 11
1004.187665166325
 21
-693.23408159774419
 31
0.0
  0
LINE
  5
A658
  8
1CENTER
 10
785.68766916632512
 20
-663.23408159774419
 30
0.0
 11
820.68766916632501
 21
-663.23408159774419
 31
0.0
  0
LINE
  5
A659
  8
1CENTER
 10
850.68766916632512
 20
-663.23408159774419
 30
0.0
 11
885.68766916632501
 21
-663.23408159774419
 31
0.0
  0
POINT
  5
A669
  8
01
 10
873.68766916632455
 20
-663.23408159774419
 30
0.0
  0
LINE
  5
A66A
  8
01
 10
873.28766915632457
 20
-664.98408159774419
 30
0.0
 11
873.28766915632457
 21
-664.13408157774404
 31
0.0
  0
LINE
  5
A66B
  8
01
 10
874.08766917632454
 20
-664.98408159774419
 30
0.0
 11
874.08766917632454
 21
-664.13408157774404
 31
0.0
  0
LINE
  5
A66C
  8
01
 10
872.78766918632471
 20
-663.63408160774406
 30
0.0
 11
871.93766916632455
 21
-663.63408160774406
 31
0.0
  0
LINE
  5
A66D
  8
01
 10
872.78766918632471
 20
-662.83408158774421
 30
0.0
 11
871.93766916632455
 21
-662.83408158774421
 31
0.0
  0
LINE
  5
A66E
  8
01
 10
871.93766916632455
 20
-663.63408160774406
 30
0.0
 11
871.93766916632455
 21
-662.83408158774421
 31
0.0
  0
LINE
  5
A66F
  8
01
 10
874.08766917632454
 20
-664.98408159774419
 30
0.0
 11
873.28766915632457
 21
-664.98408159774419
 31
0.0
  0
LINE
  5
A670
  8
01
 10
874.08766917632454
 20
-661.48408159774419
 30
0.0
 11
874.08766917632454
 21
-662.33408161774435
 31
0.0
  0
LINE
  5
A671
  8
01
 10
873.28766915632457
 20
-661.48408159774419
 30
0.0
 11
873.28766915632457
 21
-662.33408161774435
 31
0.0
  0
LINE
  5
A672
  8
01
 10
874.5876691463244
 20
-662.83408158774421
 30
0.0
 11
875.43766916632455
 21
-662.83408158774421
 31
0.0
  0
LINE
  5
A673
  8
01
 10
874.5876691463244
 20
-663.63408160774406
 30
0.0
 11
875.43766916632455
 21
-663.63408160774406
 31
0.0
  0
LINE
  5
A674
  8
01
 10
875.43766916632455
 20
-662.83408158774421
 30
0.0
 11
875.43766916632455
 21
-663.63408160774406
 31
0.0
  0
LINE
  5
A675
  8
01
 10
873.28766915632457
 20
-661.48408159774419
 30
0.0
 11
874.08766917632454
 21
-661.48408159774419
 31
0.0
  0
CIRCLE
  5
A676
  8
01
 10
873.68766916632455
 20
-663.23408159774419
 30
0.0
 40
2.5
  0
ARC
  5
A677
  8
01
 10
874.5876691463244
 20
-662.33408161774435
 30
0.0
 40
0.5
 50
179.9999899999998
 51
270.0
  0
ARC
  5
A678
  8
01
 10
874.5876691463244
 20
-664.13408157774404
 30
0.0
 40
0.5
 50
90.000003000000945
 51
180.0000100000002
  0
ARC
  5
A679
  8
01
 10
872.78766918632471
 20
-664.13408157774404
 30
0.0
 40
0.5
 50
0.0
 51
90.000003000000945
  0
ARC
  5
A67A
  8
01
 10
872.78766918632471
 20
-662.33408161774435
 30
0.0
 40
0.5
 50
270.0
 51
0.0
  0
POINT
  5
A67C
  8
01
 10
797.68766916632455
 20
-663.23408159774419
 30
0.0
  0
LINE
  5
A67D
  8
01
 10
798.08766917632465
 20
-664.98408159774419
 30
0.0
 11
798.08766917632465
 21
-664.13408157774404
 31
0.0
  0
LINE
  5
A67E
  8
01
 10
797.28766915632457
 20
-664.98408159774419
 30
0.0
 11
797.28766915632457
 21
-664.13408157774404
 31
0.0
  0
LINE
  5
A67F
  8
01
 10
798.58766914632452
 20
-663.63408160774406
 30
0.0
 11
799.43766916632455
 21
-663.63408160774406
 31
0.0
  0
LINE
  5
A680
  8
01
 10
798.58766914632452
 20
-662.83408158774421
 30
0.0
 11
799.43766916632455
 21
-662.83408158774421
 31
0.0
  0
LINE
  5
A681
  8
01
 10
799.43766916632455
 20
-663.63408160774406
 30
0.0
 11
799.43766916632455
 21
-662.83408158774421
 31
0.0
  0
LINE
  5
A682
  8
01
 10
797.28766915632457
 20
-664.98408159774419
 30
0.0
 11
798.08766917632465
 21
-664.98408159774419
 31
0.0
  0
LINE
  5
A683
  8
01
 10
797.28766915632457
 20
-661.48408159774419
 30
0.0
 11
797.28766915632457
 21
-662.33408161774435
 31
0.0
  0
LINE
  5
A684
  8
01
 10
798.08766917632465
 20
-661.48408159774419
 30
0.0
 11
798.08766917632465
 21
-662.33408161774435
 31
0.0
  0
LINE
  5
A685
  8
01
 10
796.78766918632471
 20
-662.83408158774421
 30
0.0
 11
795.93766916632455
 21
-662.83408158774421
 31
0.0
  0
LINE
  5
A686
  8
01
 10
796.78766918632471
 20
-663.63408160774406
 30
0.0
 11
795.93766916632455
 21
-663.63408160774406
 31
0.0
  0
LINE
  5
A687
  8
01
 10
795.93766916632455
 20
-662.83408158774421
 30
0.0
 11
795.93766916632455
 21
-663.63408160774406
 31
0.0
  0
LINE
  5
A688
  8
01
 10
798.08766917632465
 20
-661.48408159774419
 30
0.0
 11
797.28766915632457
 21
-661.48408159774419
 31
0.0
  0
CIRCLE
  5
A689
  8
01
 10
797.68766916632455
 20
-663.23408159774419
 30
0.0
 40
2.5
  0
ARC
  5
A68A
  8
01
 10
796.78766918632471
 20
-662.33408161774435
 30
0.0
 40
0.5
 50
270.0
 51
0.0000100000001992
  0
ARC
  5
A68B
  8
01
 10
796.78766918632471
 20
-664.13408157774404
 30
0.0
 40
0.5
 50
359.9999899999998
 51
89.999996999999055
  0
ARC
  5
A68C
  8
01
 10
798.58766914632452
 20
-664.13408157774404
 30
0.0
 40
0.5
 50
89.999996999999055
 51
180.0
  0
ARC
  5
A68D
  8
01
 10
798.58766914632452
 20
-662.33408161774435
 30
0.0
 40
0.5
 50
180.0
 51
270.0
  0
LINE
  5
A691
  8
01
 10
855.68766916632478
 20
-636.73408159774419
 30
0.0
 11
855.68766916632455
 21
-689.73408159774408
 31
0.0
  0
LINE
  5
A6AF
  8
01
 10
815.68766916632455
 20
-636.73408159774419
 30
0.0
 11
815.68766916632478
 21
-689.73408159774408
 31
0.0
  0
LINE
  5
D935
  8
01
 10
953.18854934838532
 20
-409.73408159877272
 30
0.0
 11
1059.18778150607
 21
-409.73408159877272
 31
0.0
  0
LINE
  5
D936
  8
01
 10
953.18854934838532
 20
-369.73408159877272
 30
0.0
 11
1059.18778150607
 21
-369.73408159877289
 31
0.0
  0
LINE
  5
D949
  8
1CENTER
 10
1004.18778150607
 20
-407.60579621634128
 30
0.0
 11
1004.18778150607
 21
-430.23408159877272
 31
0.0
  0
LINE
  5
D94A
  8
1CENTER
 10
1004.18778150607
 20
-371.8623669812041
 30
0.0
 11
1004.18778150607
 21
-349.23408159877272
 31
0.0
  0
LINE
  5
F040
  8
1CENTER
 10
1004.18778150607
 20
-669.23408159774385
 30
0.0
 11
1004.18778150607
 21
-657.23408159774385
 31
0.0
  0
LINE
  5
F041
  8
1CENTER
 10
998.18778150607022
 20
-663.23408159774385
 30
0.0
 11
1010.18778150607
 21
-663.23408159774385
 31
0.0
  0
LINE
  5
F045
  8
1CENTER
 10
988.18778150607022
 20
-427.73408159877249
 30
0.0
 11
996.18778150607022
 21
-427.73408159877249
 31
0.0
  0
ARC
  5
F046
  8
01
 10
860.68766916632489
 20
-641.73408159774419
 30
0.0
 40
5.0
 50
0.0
 51
90.0
  0
LINE
  5
F047
  8
01
 10
855.68766916632478
 20
-636.73408159774419
 30
0.0
 11
855.68766916632478
 21
-689.73408159774408
 31
0.0
  0
LINE
  5
F048
  8
01
 10
865.68766916632489
 20
-684.73408159774419
 30
0.0
 11
865.68766916632489
 21
-641.73408159774385
 31
0.0
  0
LINE
  5
F049
  8
01
 10
855.68766916632478
 20
-636.73408159774419
 30
0.0
 11
860.68766916632489
 21
-636.73408159774419
 31
0.0
  0
ARC
  5
F04A
  8
01
 10
860.68766916632489
 20
-684.73408159774419
 30
0.0
 40
5.0
 50
270.0
 51
0.0
  0
LINE
  5
F04B
  8
01
 10
855.68766916632478
 20
-689.73408159774408
 30
0.0
 11
860.68766916632489
 21
-689.73408159774408
 31
0.0
  0
LINE
  5
F04C
  8
1CENTER
 10
1004.18778150607
 20
-407.60579621634128
 30
0.0
 11
1004.18778150607
 21
-430.23408159877272
 31
0.0
  0
ARC
  5
F04D
  8
01
 10
982.68778150607034
 20
-414.7340815987726
 30
0.0
 40
5.0
 50
180.0
 51
270.0
  0
LINE
  5
F04E
  8
01
 10
977.68778150607022
 20
-409.73408159877272
 30
0.0
 11
1030.68778150607
 21
-409.73408159877272
 31
0.0
  0
LINE
  5
F04F
  8
01
 10
1025.68778150607
 20
-419.73408159877272
 30
0.0
 11
982.68778150607034
 21
-419.73408159877272
 31
0.0
  0
LINE
  5
F050
  8
01
 10
977.68778150607022
 20
-409.73408159877272
 30
0.0
 11
977.68778150607022
 21
-414.7340815987726
 31
0.0
  0
ARC
  5
F051
  8
01
 10
1025.68778150607
 20
-414.7340815987726
 30
0.0
 40
5.0
 50
270.0
 51
0.0
  0
LINE
  5
F052
  8
01
 10
1030.68778150607
 20
-409.73408159877272
 30
0.0
 11
1030.68778150607
 21
-414.7340815987726
 31
0.0
  0
ARC
  5
F067
  8
01
 10
1004.18778150607
 20
-663.23408159774408
 30
0.0
 40
26.5
 50
85.056436644931765
 51
274.94356335506831
  0
ARC
  5
F068
  8
1HIDDEN
 10
1004.18778150607
 20
-663.23408159774408
 30
0.0
 40
26.5
 50
274.94356335506831
 51
85.056436644931765
  0
ARC
  5
F06A
  8
01
 10
1046.43778150607
 20
-611.23468256275532
 30
0.0
 40
88.0
 50
230.9058170385068
 51
281.1510508117741
  0
ARC
  5
F06B
  8
01
 10
1029.187781506072
 20
-663.23408159774408
 30
0.0
 40
22.0
 50
285.07006214490201
 51
74.92993785509799
  0
ARC
  5
F06C
  8
01
 10
1046.43778150607
 20
-715.23348063273295
 30
0.0
 40
88.0
 50
78.848949188225859
 51
129.09418296149309
  0
ARC
  5
F06D
  8
01
 10
1021.6477815060711
 20
-691.23673147235422
 30
0.0
 40
51.0
 50
74.92993785509799
 51
121.9440517749192
  0
ARC
  5
F06E
  8
01
 10
1021.6477815060711
 20
-635.23143172313394
 30
0.0
 40
51.0
 50
238.05594822508081
 51
285.07006214490201
  0
ARC
  5
F06F
  8
01
 10
1004.18778150607
 20
-663.23408159774408
 30
0.0
 40
21.0
 50
129.09418296149309
 51
230.9058170385068
  0
ARC
  5
F070
  8
01
 10
1004.187781506072
 20
-663.23408159774408
 30
0.0
 40
18.0
 50
121.9440517749192
 51
238.05594822508081
  0
ARC
  5
F071
  8
01
 10
1056.68778150607
 20
-663.23408159774408
 30
0.0
 40
35.0
 50
281.1510508117741
 51
78.848949188225859
  0
LINE
  5
F072
  8
01
 10
895.0968296262638
 20
-675.23408159774306
 30
0.0
 11
867.1876691662502
 21
-675.23408159774169
 31
0.0
  0
LINE
  5
F073
  8
01
 10
895.09682962626277
 20
-651.2340815977376
 30
0.0
 11
867.1876691662502
 21
-651.23408159774078
 31
0.0
  0
ARC
  5
F074
  8
01
 10
895.09682962626277
 20
-648.2340815977376
 30
0.0
 40
3.0
 50
270.0
 51
353.62062979156508
  0
ARC
  5
F075
  8
01
 10
895.09682962626277
 20
-678.23408159774306
 30
0.0
 40
3.0
 50
6.3793702084348247
 51
90.0
  0
ARC
  5
F076
  8
01
 10
1029.2609082762499
 20
-663.2340815977376
 30
0.0
 40
132.0
 50
171.2780454778559
 51
188.29781961242071
  0
ARC
  5
F077
  8
01
 10
858.18766916625225
 20
-663.23408159774067
 30
0.0
 40
15.0
 50
53.130102354132447
 51
59.999999999695028
  0
ARC
  5
F078
  8
01
 10
858.18766916625225
 20
-663.23408159774067
 30
0.0
 40
15.0
 50
300.00000000030491
 51
306.86989764586752
  0
ARC
  5
F079
  8
01
 10
777.69177659425191
 20
-663.23408159774431
 30
0.0
 40
132.0
 50
345.27198880424532
 51
14.72801119575476
  0
ARC
  5
F07A
  8
01
 10
1026.6835617382451
 20
-663.23408159774328
 30
0.0
 40
132.0
 50
165.27198880424521
 51
174.7827943598009
  0
ARC
  5
F07B
  8
01
 10
902.18766916624838
 20
-630.50813375129405
 30
0.0
 40
3.2746531185617882
 50
14.72801119575476
 51
165.27198880424521
  0
ARC
  5
F07C
  8
01
 10
902.18766916624838
 20
-695.96002944419331
 30
0.0
 40
3.2746531185617882
 50
194.7280111957547
 51
345.27198880424532
  0
ARC
  5
F07D
  8
01
 10
1026.6835617382451
 20
-663.23408159774328
 30
0.0
 40
132.0
 50
185.2172056401991
 51
194.7280111957547
  0
POLYLINE
  5
F07E
  8
01
 10
907.70735304811046
 20
-640.43167209002706
 30
0.0
 66
     1
 70
     8
  0
VERTEX
  8
01
  5
FE3C
 10
907.707
 20
-640.432
 30
0.000000
  70
    32
  0
VERTEX
  8
01
  5
FE3D
 10
907.648
 20
-640.360
 30
0.000000
  70
    32
  0
VERTEX
  8
01
  5
FE3E
 10
907.589
 20
-640.304
 30
0.000000
  70
    32
  0
VERTEX
  8
01
  5
FE3F
 10
907.529
 20
-640.264
 30
0.000000
  70
    32
  0
VERTEX
  8
01
  5
FE40
 10
907.470
 20
-640.241
 30
0.000000
  70
    32
  0
VERTEX
  8
01
  5
FE41
 10
907.410
 20
-640.234
 30
0.000000
  70
    32
  0
VERTEX
  8
01
  5
FE42
 10
907.351
 20
-640.243
 30
0.000000
  70
    32
  0
VERTEX
  8
01
  5
FE43
 10
907.291
 20
-640.269
 30
0.000000
  70
    32
  0
VERTEX
  8
01
  5
FE44
 10
907.232
 20
-640.311
 30
0.000000
  70
    32
  0
VERTEX
  8
01
  5
FE45
 10
907.172
 20
-640.368
 30
0.000000
  70
    32
  0
VERTEX
  8
01
  5
FE46
 10
907.113
 20
-640.443
 30
0.000000
  70
    32
  0
VERTEX
  8
01
  5
FE47
 10
907.054
 20
-640.533
 30
0.000000
  70
    32
  0
VERTEX
  8
01
  5
FE48
 10
906.995
 20
-640.639
 30
0.000000
  70
    32
  0
VERTEX
  8
01
  5
FE49
 10
906.937
 20
-640.761
 30
0.000000
  70
    32
  0
VERTEX
  8
01
  5
FE4A
 10
906.879
 20
-640.900
 30
0.000000
  70
    32
  0
VERTEX
  8
01
  5
FE4B
 10
906.821
 20
-641.053
 30
0.000000
  70
    32
  0
VERTEX
  8
01
  5
FE4C
 10
906.764
 20
-641.223
 30
0.000000
  70
    32
  0
VERTEX
  8
01
  5
FE4D
 10
906.707
 20
-641.408
 30
0.000000
  70
    32
  0
VERTEX
  8
01
  5
FE4E
 10
906.651
 20
-641.609
 30
0.000000
  70
    32
  0
VERTEX
  8
01
  5
FE4F
 10
906.595
 20
-641.825
 30
0.000000
  70
    32
  0
VERTEX
  8
01
  5
FE50
 10
906.540
 20
-642.056
 30
0.000000
  70
    32
  0
VERTEX
  8
01
  5
FE51
 10
906.485
 20
-642.302
 30
0.000000
  70
    32
  0
VERTEX
  8
01
  5
FE52
 10
906.431
 20
-642.563
 30
0.000000
  70
    32
  0
VERTEX
  8
01
  5
FE53
 10
906.378
 20
-642.838
 30
0.000000
  70
    32
  0
VERTEX
  8
01
  5
FE54
 10
906.326
 20
-643.128
 30
0.000000
  70
    32
  0
VERTEX
  8
01
  5
FE55
 10
906.274
 20
-643.432
 30
0.000000
  70
    32
  0
VERTEX
  8
01
  5
FE56
 10
906.223
 20
-643.750
 30
0.000000
  70
    32
  0
VERTEX
  8
01
  5
FE57
 10
906.173
 20
-644.082
 30
0.000000
  70
    32
  0
VERTEX
  8
01
  5
FE58
 10
906.124
 20
-644.428
 30
0.000000
  70
    32
  0
VERTEX
  8
01
  5
FE59
 10
906.076
 20
-644.786
 30
0.000000
  70
    32
  0
VERTEX
  8
01
  5
FE5A
 10
906.028
 20
-645.158
 30
0.000000
  70
    32
  0
VERTEX
  8
01
  5
FE5B
 10
905.982
 20
-645.543
 30
0.000000
  70
    32
  0
VERTEX
  8
01
  5
FE5C
 10
905.937
 20
-645.940
 30
0.000000
  70
    32
  0
VERTEX
  8
01
  5
FE5D
 10
905.892
 20
-646.349
 30
0.000000
  70
    32
  0
VERTEX
  8
01
  5
FE5E
 10
905.849
 20
-646.770
 30
0.000000
  70
    32
  0
VERTEX
  8
01
  5
FE5F
 10
905.807
 20
-647.203
 30
0.000000
  70
    32
  0
VERTEX
  8
01
  5
FE60
 10
905.766
 20
-647.647
 30
0.000000
  70
    32
  0
VERTEX
  8
01
  5
FE61
 10
905.726
 20
-648.103
 30
0.000000
  70
    32
  0
VERTEX
  8
01
  5
FE62
 10
905.688
 20
-648.568
 30
0.000000
  70
    32
  0
VERTEX
  8
01
  5
FE63
 10
905.650
 20
-649.045
 30
0.000000
  70
    32
  0
VERTEX
  8
01
  5
FE64
 10
905.614
 20
-649.531
 30
0.000000
  70
    32
  0
VERTEX
  8
01
  5
FE65
 10
905.579
 20
-650.027
 30
0.000000
  70
    32
  0
VERTEX
  8
01
  5
FE66
 10
905.546
 20
-650.532
 30
0.000000
  70
    32
  0
VERTEX
  8
01
  5
FE67
 10
905.513
 20
-651.047
 30
0.000000
  70
    32
  0
VERTEX
  8
01
  5
FE68
 10
905.483
 20
-651.570
 30
0.000000
  70
    32
  0
VERTEX
  8
01
  5
FE69
 10
905.453
 20
-652.101
 30
0.000000
  70
    32
  0
VERTEX
  8
01
  5
FE6A
 10
905.425
 20
-652.640
 30
0.000000
  70
    32
  0
VERTEX
  8
01
  5
FE6B
 10
905.398
 20
-653.187
 30
0.000000
  70
    32
  0
VERTEX
  8
01
  5
FE6C
 10
905.373
 20
-653.740
 30
0.000000
  70
    32
  0
VERTEX
  8
01
  5
FE6D
 10
905.349
 20
-654.301
 30
0.000000
  70
    32
  0
VERTEX
  8
01
  5
FE6E
 10
905.326
 20
-654.868
 30
0.000000
  70
    32
  0
VERTEX
  8
01
  5
FE6F
 10
905.306
 20
-655.440
 30
0.000000
  70
    32
  0
VERTEX
  8
01
  5
FE70
 10
905.286
 20
-656.018
 30
0.000000
  70
    32
  0
VERTEX
  8
01
  5
FE71
 10
905.268
 20
-656.602
 30
0.000000
  70
    32
  0
VERTEX
  8
01
  5
FE72
 10
905.252
 20
-657.189
 30
0.000000
  70
    32
  0
VERTEX
  8
01
  5
FE73
 10
905.237
 20
-657.782
 30
0.000000
  70
    32
  0
VERTEX
  8
01
  5
FE74
 10
905.223
 20
-658.378
 30
0.000000
  70
    32
  0
VERTEX
  8
01
  5
FE75
 10
905.212
 20
-658.977
 30
0.000000
  70
    32
  0
VERTEX
  8
01
  5
FE76
 10
905.201
 20
-659.580
 30
0.000000
  70
    32
  0
VERTEX
  8
01
  5
FE77
 10
905.193
 20
-660.185
 30
0.000000
  70
    32
  0
VERTEX
  8
01
  5
FE78
 10
905.186
 20
-660.792
 30
0.000000
  70
    32
  0
VERTEX
  8
01
  5
FE79
 10
905.180
 20
-661.401
 30
0.000000
  70
    32
  0
VERTEX
  8
01
  5
FE7A
 10
905.176
 20
-662.011
 30
0.000000
  70
    32
  0
VERTEX
  8
01
  5
FE7B
 10
905.174
 20
-662.623
 30
0.000000
  70
    32
  0
VERTEX
  8
01
  5
FE7C
 10
905.173
 20
-663.234
 30
0.000000
  70
    32
  0
VERTEX
  8
01
  5
FE7D
 10
905.174
 20
-663.846
 30
0.000000
  70
    32
  0
VERTEX
  8
01
  5
FE7E
 10
905.176
 20
-664.457
 30
0.000000
  70
    32
  0
VERTEX
  8
01
  5
FE7F
 10
905.180
 20
-665.067
 30
0.000000
  70
    32
  0
VERTEX
  8
01
  5
FE80
 10
905.186
 20
-665.676
 30
0.000000
  70
    32
  0
VERTEX
  8
01
  5
FE81
 10
905.193
 20
-666.283
 30
0.000000
  70
    32
  0
VERTEX
  8
01
  5
FE82
 10
905.201
 20
-666.888
 30
0.000000
  70
    32
  0
VERTEX
  8
01
  5
FE83
 10
905.212
 20
-667.491
 30
0.000000
  70
    32
  0
VERTEX
  8
01
  5
FE84
 10
905.223
 20
-668.090
 30
0.000000
  70
    32
  0
VERTEX
  8
01
  5
FE85
 10
905.237
 20
-668.686
 30
0.000000
  70
    32
  0
VERTEX
  8
01
  5
FE86
 10
905.252
 20
-669.279
 30
0.000000
  70
    32
  0
VERTEX
  8
01
  5
FE87
 10
905.268
 20
-669.867
 30
0.000000
  70
    32
  0
VERTEX
  8
01
  5
FE88
 10
905.286
 20
-670.450
 30
0.000000
  70
    32
  0
VERTEX
  8
01
  5
FE89
 10
905.306
 20
-671.028
 30
0.000000
  70
    32
  0
VERTEX
  8
01
  5
FE8A
 10
905.326
 20
-671.601
 30
0.000000
  70
    32
  0
VERTEX
  8
01
  5
FE8B
 10
905.349
 20
-672.167
 30
0.000000
  70
    32
  0
VERTEX
  8
01
  5
FE8C
 10
905.373
 20
-672.728
 30
0.000000
  70
    32
  0
VERTEX
  8
01
  5
FE8D
 10
905.398
 20
-673.281
 30
0.000000
  70
    32
  0
VERTEX
  8
01
  5
FE8E
 10
905.425
 20
-673.828
 30
0.000000
  70
    32
  0
VERTEX
  8
01
  5
FE8F
 10
905.453
 20
-674.367
 30
0.000000
  70
    32
  0
VERTEX
  8
01
  5
FE90
 10
905.483
 20
-674.898
 30
0.000000
  70
    32
  0
VERTEX
  8
01
  5
FE91
 10
905.513
 20
-675.421
 30
0.000000
  70
    32
  0
VERTEX
  8
01
  5
FE92
 10
905.546
 20
-675.936
 30
0.000000
  70
    32
  0
VERTEX
  8
01
  5
FE93
 10
905.579
 20
-676.441
 30
0.000000
  70
    32
  0
VERTEX
  8
01
  5
FE94
 10
905.614
 20
-676.937
 30
0.000000
  70
    32
  0
VERTEX
  8
01
  5
FE95
 10
905.650
 20
-677.423
 30
0.000000
  70
    32
  0
VERTEX
  8
01
  5
FE96
 10
905.688
 20
-677.900
 30
0.000000
  70
    32
  0
VERTEX
  8
01
  5
FE97
 10
905.726
 20
-678.366
 30
0.000000
  70
    32
  0
VERTEX
  8
01
  5
FE98
 10
905.766
 20
-678.821
 30
0.000000
  70
    32
  0
VERTEX
  8
01
  5
FE99
 10
905.807
 20
-679.265
 30
0.000000
  70
    32
  0
VERTEX
  8
01
  5
FE9A
 10
905.849
 20
-679.698
 30
0.000000
  70
    32
  0
VERTEX
  8
01
  5
FE9B
 10
905.892
 20
-680.119
 30
0.000000
  70
    32
  0
VERTEX
  8
01
  5
FE9C
 10
905.937
 20
-680.528
 30
0.000000
  70
    32
  0
VERTEX
  8
01
  5
FE9D
 10
905.982
 20
-680.926
 30
0.000000
  70
    32
  0
VERTEX
  8
01
  5
FE9E
 10
906.028
 20
-681.310
 30
0.000000
  70
    32
  0
VERTEX
  8
01
  5
FE9F
 10
906.076
 20
-681.682
 30
0.000000
  70
    32
  0
VERTEX
  8
01
  5
FEA0
 10
906.124
 20
-682.041
 30
0.000000
  70
    32
  0
VERTEX
  8
01
  5
FEA1
 10
906.173
 20
-682.386
 30
0.000000
  70
    32
  0
VERTEX
  8
01
  5
FEA2
 10
906.223
 20
-682.718
 30
0.000000
  70
    32
  0
VERTEX
  8
01
  5
FEA3
 10
906.274
 20
-683.036
 30
0.000000
  70
    32
  0
VERTEX
  8
01
  5
FEA4
 10
906.326
 20
-683.340
 30
0.000000
  70
    32
  0
VERTEX
  8
01
  5
FEA5
 10
906.378
 20
-683.630
 30
0.000000
  70
    32
  0
VERTEX
  8
01
  5
FEA6
 10
906.431
 20
-683.905
 30
0.000000
  70
    32
  0
VERTEX
  8
01
  5
FEA7
 10
906.485
 20
-684.166
 30
0.000000
  70
    32
  0
VERTEX
  8
01
  5
FEA8
 10
906.540
 20
-684.412
 30
0.000000
  70
    32
  0
VERTEX
  8
01
  5
FEA9
 10
906.595
 20
-684.643
 30
0.000000
  70
    32
  0
VERTEX
  8
01
  5
FEAA
 10
906.651
 20
-684.859
 30
0.000000
  70
    32
  0
VERTEX
  8
01
  5
FEAB
 10
906.707
 20
-685.060
 30
0.000000
  70
    32
  0
VERTEX
  8
01
  5
FEAC
 10
906.764
 20
-685.245
 30
0.000000
  70
    32
  0
VERTEX
  8
01
  5
FEAD
 10
906.821
 20
-685.415
 30
0.000000
  70
    32
  0
VERTEX
  8
01
  5
FEAE
 10
906.879
 20
-685.569
 30
0.000000
  70
    32
  0
VERTEX
  8
01
  5
FEAF
 10
906.937
 20
-685.707
 30
0.000000
  70
    32
  0
VERTEX
  8
01
  5
FEB0
 10
906.995
 20
-685.829
 30
0.000000
  70
    32
  0
VERTEX
  8
01
  5
FEB1
 10
907.054
 20
-685.935
 30
0.000000
  70
    32
  0
VERTEX
  8
01
  5
FEB2
 10
907.113
 20
-686.026
 30
0.000000
  70
    32
  0
VERTEX
  8
01
  5
FEB3
 10
907.172
 20
-686.100
 30
0.000000
  70
    32
  0
VERTEX
  8
01
  5
FEB4
 10
907.232
 20
-686.158
 30
0.000000
  70
    32
  0
VERTEX
  8
01
  5
FEB5
 10
907.291
 20
-686.199
 30
0.000000
  70
    32
  0
VERTEX
  8
01
  5
FEB6
 10
907.351
 20
-686.225
 30
0.000000
  70
    32
  0
VERTEX
  8
01
  5
FEB7
 10
907.410
 20
-686.234
 30
0.000000
  70
    32
  0
VERTEX
  8
01
  5
FEB8
 10
907.470
 20
-686.227
 30
0.000000
  70
    32
  0
VERTEX
  8
01
  5
FEB9
 10
907.529
 20
-686.204
 30
0.000000
  70
    32
  0
VERTEX
  8
01
  5
FEBA
 10
907.589
 20
-686.164
 30
0.000000
  70
    32
  0
VERTEX
  8
01
  5
FEBB
 10
907.648
 20
-686.108
 30
0.000000
  70
    32
  0
VERTEX
  8
01
  5
FEBC
 10
907.707
 20
-686.036
 30
0.000000
  70
    32
  0
SEQEND
  8
01
  5
FEBD
  0
LINE
  5
F080
  8
01
 10
867.1876691662502
 20
-651.23408159774078
 30
0.0
 11
867.1876691662502
 21
-675.23408159774169
 31
0.0
  0
ARC
  5
F081
  8
1PHANTOM
 10
1131.645654471718
 20
-748.28027200184363
 30
0.0
 40
320.39905696034259
 50
104.022335053427
 51
107.2014305670846
  0
ARC
  5
F082
  8
1PHANTOM
 10
1159.766679755425
 20
-1184.0595855880431
 30
0.0
 40
739.92365644455469
 50
98.155085530894354
 51
99.329721093519538
  0
ARC
  5
F083
  8
1PHANTOM
 10
998.74666275166192
 20
-452.4144286580796
 30
0.0
 40
3.0
 50
290.69202391861211
 51
13.99999999999619
  0
ARC
  5
F084
  8
01
 10
1112.538957444297
 20
-1500.7812333223869
 30
0.0
 40
1055.055576411623
 50
95.894504305481078
 51
96.469406157062636
  0
ARC
  5
F085
  8
1PHANTOM
 10
1004.1877815060531
 20
-412.23408159870093
 30
0.0
 40
15.0
 50
224.0000000003283
 51
230.8698976458482
  0
LINE
  5
F086
  8
1PHANTOM
 10
1001.6575499304899
 20
-451.68866297128062
 30
0.0
 11
994.72152985113587
 21
-423.86980588238009
 31
0.0
  0
ARC
  5
F087
  8
1PHANTOM
 10
1027.120403618429
 20
-442.20832270641409
 30
0.0
 40
3.0
 50
193.99999999999619
 51
288.61833296950567
  0
ARC
  5
F088
  8
1PHANTOM
 10
1004.1877815060531
 20
-412.23408159870093
 30
0.0
 40
15.0
 50
337.13010235416903
 51
343.99999999967309
  0
ARC
  5
F089
  8
01
 10
1056.5653340219351
 20
-924.96289502536968
 30
0.0
 40
476.54598890801168
 50
94.786034402870143
 51
96.310173805820384
  0
LINE
  5
F08A
  8
1PHANTOM
 10
1024.209516439603
 20
-442.9340883932133
 30
0.0
 11
1018.0086272817611
 21
-418.0636803879878
 31
0.0
  0
ARC
  5
F08B
  8
1PHANTOM
 10
1138.509810308123
 20
-772.84524512194434
 30
0.0
 40
345.89593632929501
 50
107.0842340871146
 51
108.6183329695057
  0
ARC
  5
F08C
  8
1PHANTOM
 10
1053.849749678041
 20
-670.37291558700269
 30
0.0
 40
215.53773888474549
 50
100.2058307102654
 51
103.0063172972478
  0
ARC
  5
F08D
  8
01
 10
861.88284592646903
 20
813.33522970398076
 30
0.0
 40
1272.6206356893749
 50
275.87479374305173
 51
275.94364673943289
  0
ARC
  5
F08E
  8
1PHANTOM
 10
1069.3761385133971
 20
-639.40863461053721
 30
0.0
 40
196.88835860591641
 50
110.69202391861219
 51
111.8234488986797
  0
ARC
  5
F08F
  8
1PHANTOM
 10
1139.6998961383549
 20
-1031.64095453921
 30
0.0
 40
586.86351288794185
 50
103.23489488074421
 51
103.96473008428811
  0
ARC
  5
F090
  8
1PHANTOM
 10
976.38281879324177
 20
-266.43280093069939
 30
0.0
 40
196.88835860591641
 50
276.17655110132841
 51
276.32549852859501
  0
ARC
  5
F091
  8
1PHANTOM
 10
997.25605304798546
 20
-459.30935530279589
 30
0.0
 40
2.8856340510643972
 50
111.8234488986797
 51
276.17655110132841
  0
ARC
  5
F092
  8
1PHANTOM
 10
1171.4640148117451
 20
-1261.6747450646881
 30
0.0
 40
818.39692256152387
 50
99.749949390144323
 51
100.094533430639
  0
ARC
  5
F093
  8
1PHANTOM
 10
1134.8006129377841
 20
-1064.5226318964401
 30
0.0
 40
617.87256579933546
 50
99.951686470970714
 51
101.11765793990411
  0
ARC
  5
F094
  8
1PHANTOM
 10
1215.0948534285169
 20
-1511.0964763082941
 30
0.0
 40
1071.605151755683
 50
99.414117072999176
 51
99.790660136850803
  0
ARC
  5
F095
  8
1PHANTOM
 10
1096.6549779864631
 20
-573.87083298028949
 30
0.0
 40
142.55910362570319
 50
90.022211947388286
 51
94.004579156144558
  0
ARC
  5
F096
  8
1PHANTOM
 10
1096.581196842928
 20
-571.80415555372122
 30
0.0
 40
140.4923372583732
 50
94.033423504858447
 51
98.614422505740151
  0
ARC
  5
F097
  8
1PHANTOM
 10
1097.2074500507031
 20
-577.45505304394908
 30
0.0
 40
146.17346479397929
 50
98.525356020718036
 51
103.1321490805333
  0
ARC
  5
F098
  8
1PHANTOM
 10
1121.7646117155141
 20
-705.83814601536119
 30
0.0
 40
276.82834913968799
 50
102.0447769842706
 51
104.1666219920063
  0
ARC
  5
F099
  8
1PHANTOM
 10
1032.1418399930169
 20
-313.3520117307516
 30
0.0
 40
140.4923372583732
 50
289.38557749424939
 51
293.96657649516072
  0
ARC
  5
F09A
  8
1PHANTOM
 10
1030.0418530794609
 20
-308.06855732210971
 30
0.0
 40
146.17346479397929
 50
284.86785091949417
 51
288.59647231736568
  0
ARC
  5
F09B
  8
1PHANTOM
 10
1085.812960339088
 20
-703.1504789844704
 30
0.0
 40
253.43615373720991
 50
96.420541866816563
 51
97.02746407969677
  0
ARC
  5
F09C
  8
1PHANTOM
 10
1087.9499015746121
 20
-721.27585896400217
 30
0.0
 40
271.68683046628632
 50
95.429184674154783
 51
96.44092716568835
  0
ARC
  5
F09D
  8
1PHANTOM
 10
991.45232856628866
 20
-183.18412535484941
 30
0.0
 40
276.82834913968799
 50
284.81652395226962
 51
285.95522301572117
  0
ARC
  5
F09E
  8
1PHANTOM
 10
1030.0418530794591
 20
-308.06855732210988
 30
0.0
 40
146.17346479397929
 50
288.59647231736568
 51
289.47464397927769
  0
ARC
  5
F09F
  8
1PHANTOM
 10
1096.600963330977
 20
-434.53988722930518
 30
0.0
 40
3.228147404744071
 50
297.97778805260111
 51
90.022211947388286
  0
ARC
  5
F0A0
  8
1PHANTOM
 10
1031.2367385948701
 20
-311.49260572298931
 30
0.0
 40
142.55910362570319
 50
293.99542084382642
 51
297.97778805260111
  0
LINE
  5
F0A1
  8
01
 10
992.18778150607011
 20
-421.23408159869888
 30
0.0
 11
1016.18778150607
 21
-421.23408159869928
 31
0.0
  0
ARC
  5
F0A2
  8
1PHANTOM
 10
958.96227345523255
 20
-768.78310331512523
 30
0.0
 40
320.39905696034259
 50
76.02233505343699
 51
79.201430567099123
  0
ARC
  5
F0A3
  8
1PHANTOM
 10
779.20566965913122
 20
-1166.755420950858
 30
0.0
 40
739.92365644455469
 50
70.155085530887519
 51
71.329721093512347
  0
ARC
  5
F0A4
  8
1PHANTOM
 10
980.52002847219353
 20
-445.1567717900885
 30
0.0
 40
3.0
 50
262.69202391859841
 51
346.00000000000369
  0
ARC
  5
F0A5
  8
1PHANTOM
 10
1004.187781506088
 20
-412.23408159870138
 30
0.0
 40
15.0
 50
196.00000000032691
 51
202.86989764583089
  0
LINE
  5
F0A6
  8
1PHANTOM
 10
983.43091565102122
 20
-445.88253747688771
 30
0.0
 11
990.36693573037826
 21
-418.0636803879878
 31
0.0
  0
ARC
  5
F0A7
  8
1PHANTOM
 10
1010.364031181996
 20
-449.46597957440582
 30
0.0
 40
3.0
 50
166.00000000000369
 51
260.61833296953529
  0
ARC
  5
F0A8
  8
1PHANTOM
 10
1004.187781506088
 20
-412.23408159870138
 30
0.0
 40
15.0
 50
309.13010235415152
 51
315.99999999967167
  0
LINE
  5
F0A9
  8
1PHANTOM
 10
1007.4531440031679
 20
-448.74021388760741
 30
0.0
 11
1013.654033161003
 21
-423.86980588238009
 31
0.0
  0
ARC
  5
F0AA
  8
1PHANTOM
 10
953.49040700750766
 20
-793.69521316788575
 30
0.0
 40
345.89593632929501
 50
79.084234087132359
 51
80.618332969535302
  0
ARC
  5
F0AB
  8
1PHANTOM
 10
926.84785495196536
 20
-663.47202550080885
 30
0.0
 40
215.53773888474549
 50
72.2058307102497
 51
75.006317297235157
  0
ARC
  5
F0AC
  8
1PHANTOM
 10
955.09369198049865
 20
-643.42138617898706
 30
0.0
 40
196.88835860591641
 50
82.69202391859838
 51
83.823448898671685
  0
ARC
  5
F0AD
  8
1PHANTOM
 10
833.04396428419977
 20
-1022.756973294647
 30
0.0
 40
586.86351288794185
 50
75.234894880758375
 51
75.964730084287822
  0
ARC
  5
F0AE
  8
1PHANTOM
 10
1048.08701170067
 20
-270.44555249915368
 30
0.0
 40
196.88835860591641
 50
248.17655110132
 51
248.32549852859469
  0
ARC
  5
F0AF
  8
1PHANTOM
 10
975.96692623525041
 20
-450.54483180689073
 30
0.0
 40
2.8856340510643972
 50
83.823448898671685
 51
248.17655110132
  0
ARC
  5
F0B0
  8
1PHANTOM
 10
753.09569327459621
 20
-1240.7771053494459
 30
0.0
 40
818.39692256152387
 50
71.749949390136379
 51
72.094533430632737
  0
ARC
  5
F0B1
  8
1PHANTOM
 10
813.28114151960051
 20
-1049.4896970256741
 30
0.0
 40
617.87256579933546
 50
71.951686470996322
 51
73.117657939945701
  0
ARC
  5
F0B2
  8
1PHANTOM
 10
674.52302724599338
 20
-1481.4868605487691
 30
0.0
 40
1071.605151755683
 50
71.414117073011724
 51
71.790660136861604
  0
ARC
  5
F0B3
  8
1PHANTOM
 10
1009.947611782131
 20
-598.36158138669987
 30
0.0
 40
142.55910362570319
 50
62.022211947398617
 51
66.004579156173236
  0
ARC
  5
F0B4
  8
1PHANTOM
 10
1010.852713180273
 20
-596.50217537893684
 30
0.0
 40
140.4923372583732
 50
66.033423504839092
 51
70.614422505750241
  0
ARC
  5
F0B5
  8
1PHANTOM
 10
1008.752726266718
 20
-601.78562978757861
 30
0.0
 40
146.17346479397929
 50
70.525356020721944
 51
75.132149080505741
  0
ARC
  5
F0B6
  8
1PHANTOM
 10
970.16320175353519
 20
-726.67006175483596
 30
0.0
 40
276.82834913968799
 50
74.044776984278556
 51
76.166621992008999
  0
ARC
  5
F0B7
  8
1PHANTOM
 10
1075.2920700302
 20
-338.05003155597097
 30
0.0
 40
140.4923372583732
 50
261.38557749425968
 51
265.9665764951414
  0
ARC
  5
F0B8
  8
1PHANTOM
 10
1075.9183232379739
 20
-332.3991340657434
 30
0.0
 40
146.17346479397929
 50
256.8678509194666
 51
260.59647231736437
  0
ARC
  5
F0B9
  8
1PHANTOM
 10
939.68156095265795
 20
-707.41871466308055
 30
0.0
 40
253.43615373720991
 50
68.420541866832451
 51
69.027464079685799
  0
ARC
  5
F0BA
  8
1PHANTOM
 10
933.05901760756524
 20
-724.42570842708437
 30
0.0
 40
271.68683046628632
 50
67.429184674133566
 51
68.440927165674793
  0
ARC
  5
F0BB
  8
1PHANTOM
 10
1100.475484902795
 20
-204.01604109433299
 30
0.0
 40
276.82834913968799
 50
256.81652395222108
 51
257.95522301572919
  0
ARC
  5
F0BC
  8
1PHANTOM
 10
1075.9183232379719
 20
-332.39913406574271
 30
0.0
 40
146.17346479397929
 50
260.59647231736437
 51
261.47464397928201
  0
ARC
  5
F0BD
  8
1PHANTOM
 10
1075.3118365182411
 20
-475.31429988038627
 30
0.0
 40
3.228147404744071
 50
269.97778805261169
 51
62.022211947398617
  0
ARC
  5
F0BE
  8
1PHANTOM
 10
1075.3658511737319
 20
-335.9833541294019
 30
0.0
 40
142.55910362570319
 50
265.99542084385553
 51
269.97778805261169
  0
ARC
  5
F0BF
  8
01
 10
1046.562679533509
 20
-769.13311421515346
 30
0.0
 40
320.39905696034259
 50
90.022335053438596
 51
93.201430567075136
  0
ARC
  5
F0C0
  8
01
 10
968.42383257889344
 20
-1198.77101153017
 30
0.0
 40
739.92365644455469
 50
84.155085530891157
 51
85.329721093528718
  0
ARC
  5
F0C1
  8
01
 10
989.18778150606749
 20
-449.9045748674551
 30
0.0
 40
3.0
 50
276.69202391861472
 51
0.0
  0
ARC
  5
F0C2
  8
01
 10
1004.18778150607
 20
-412.23408159869888
 30
0.0
 40
15.0
 50
210.00000000033131
 51
216.86989764583041
  0
LINE
  5
F0C3
  8
01
 10
992.18778150606749
 20
-449.9045748674551
 30
0.0
 11
992.1877815060692
 21
-421.23408159869751
 31
0.0
  0
ARC
  5
F0C4
  8
01
 10
1019.187781506073
 20
-446.86586305637621
 30
0.0
 40
3.0
 50
180.0
 51
274.61833296951039
  0
ARC
  5
F0C5
  8
01
 10
1004.18778150607
 20
-412.23408159869888
 30
0.0
 40
15.0
 50
323.13010235416391
 51
329.99999999966849
  0
LINE
  5
F0C6
  8
01
 10
1016.187781506074
 20
-446.86586305637661
 30
0.0
 11
1016.18778150607
 21
-421.23408159869751
 31
0.0
  0
ARC
  5
F0C7
  8
01
 10
1047.280135743496
 20
-794.62899224130661
 30
0.0
 40
345.89593632929501
 50
93.084234087117423
 51
94.618332969510476
  0
ARC
  5
F0C8
  8
01
 10
989.92514093546595
 20
-674.71940648279451
 30
0.0
 40
215.53773888474549
 50
86.20583071025672
 51
89.006317297258633
  0
ARC
  5
F0C9
  8
01
 10
1012.481267216619
 20
-648.43107040298764
 30
0.0
 40
196.88835860591641
 50
96.692023918614751
 51
97.823448898659166
  0
ARC
  5
F0CA
  8
01
 10
985.82652234318596
 20
-1046.0252708874209
 30
0.0
 40
586.86351288794185
 50
89.234894880753288
 51
89.964730084269263
  0
ARC
  5
F0CB
  8
01
 10
1012.481267216627
 20
-264.03709279440841
 30
0.0
 40
196.88835860591641
 50
262.17655110134069
 51
262.32549852858818
  0
ARC
  5
F0CC
  8
01
 10
986.0734155571339
 20
-456.23408159869717
 30
0.0
 40
2.8856340510643972
 50
97.823448898659166
 51
262.17655110134069
  0
ARC
  5
F0CD
  8
01
 10
960.99690028499901
 20
-1276.910510534879
 30
0.0
 40
818.39692256152387
 50
85.749949390154072
 51
86.094533430648625
  0
ARC
  5
F0CE
  8
01
 10
973.11797107509801
 20
-1076.744978020964
 30
0.0
 40
617.87256579933546
 50
85.951686470996634
 51
87.117657939925394
  0
ARC
  5
F0CF
  8
01
 10
942.99113850248648
 20
-1529.478605585683
 30
0.0
 40
1071.605151755683
 50
85.41411707300955
 51
85.790660136864645
  0
ARC
  5
F0D0
  8
01
 10
1054.804837778928
 20
-591.43937012671745
 30
0.0
 40
142.55910362570319
 50
76.022211947402013
 51
80.004579156153284
  0
ARC
  5
F0D1
  8
01
 10
1055.2332227713059
 20
-589.41623257802405
 30
0.0
 40
140.4923372583732
 50
80.033423504849878
 51
84.614422505751605
  0
ARC
  5
F0D2
  8
01
 10
1054.4737977497
 20
-595.05077862556573
 30
0.0
 40
146.17346479397929
 50
84.525356020698837
 51
89.132149080521245
  0
ARC
  5
F0D3
  8
01
 10
1047.2428255479431
 20
-725.56126016231985
 30
0.0
 40
276.82834913968799
 50
88.044776984266406
 51
90.166621992001069
  0
ARC
  5
F0D4
  8
01
 10
1055.2332227713141
 20
-323.05193061937348
 30
0.0
 40
140.4923372583732
 50
275.38557749424842
 51
279.96657649514998
  0
ARC
  5
F0D5
  8
01
 10
1054.473797749708
 20
-317.4173845718322
 30
0.0
 40
146.17346479397929
 50
270.86785091947871
 51
274.59647231737591
  0
ARC
  5
F0D6
  8
01
 10
1013.0092973676871
 20
-714.25593667767009
 30
0.0
 40
253.43615373720991
 50
82.420541866817388
 51
83.027464079693559
  0
ARC
  5
F0D7
  8
01
 10
1010.697836032705
 20
-732.35988828342147
 30
0.0
 40
271.68683046628632
 50
81.429184674158762
 51
82.44092716566449
  0
ARC
  5
F0D8
  8
01
 10
1047.242825547961
 20
-186.90690303507751
 30
0.0
 40
276.82834913968799
 50
270.81652395224643
 51
271.95522301573362
  0
ARC
  5
F0D9
  8
01
 10
1054.4737977497059
 20
-317.41738457183197
 30
0.0
 40
146.17346479397929
 50
274.59647231737591
 51
275.47464397930122
  0
ARC
  5
F0DA
  8
01
 10
1088.4596341013271
 20
-456.23408159869962
 30
0.0
 40
3.228147404744071
 50
283.97778805259787
 51
76.022211947402013
  0
ARC
  5
F0DB
  8
01
 10
1054.804837778933
 20
-321.02879307068019
 30
0.0
 40
142.55910362570319
 50
279.99542084384649
 51
283.97778805259787
  0
ARC
  5
F1F6
  8
01
 10
810.68766916632433
 20
-641.73408159774419
 30
0.0
 40
5.0
 50
90.0
 51
180.0
  0
LINE
  5
F1F7
  8
01
 10
815.68766916632444
 20
-636.73408159774419
 30
0.0
 11
815.68766916632444
 21
-689.73408159774408
 31
0.0
  0
LINE
  5
F1F8
  8
01
 10
805.68766916632444
 20
-684.73408159774419
 30
0.0
 11
805.68766916632444
 21
-641.73408159774385
 31
0.0
  0
LINE
  5
F1F9
  8
01
 10
815.68766916632444
 20
-636.73408159774419
 30
0.0
 11
810.68766916632433
 21
-636.73408159774419
 31
0.0
  0
ARC
  5
F1FA
  8
01
 10
810.68766916632433
 20
-684.73408159774419
 30
0.0
 40
5.0
 50
180.0
 51
270.0
  0
LINE
  5
F1FB
  8
01
 10
815.68766916632444
 20
-689.73408159774408
 30
0.0
 11
810.68766916632433
 21
-689.73408159774408
 31
0.0
  0
ARC
  5
F1FC
  8
01
 10
667.187556826579
 20
-663.23408159774408
 30
0.0
 40
26.5
 50
265.05643664493181
 51
94.94356335506825
  0
ARC
  5
F1FD
  8
1HIDDEN
 10
667.187556826579
 20
-663.23408159774408
 30
0.0
 40
26.5
 50
94.94356335506825
 51
265.05643664493181
  0
ARC
  5
F1FE
  8
01
 10
624.93755682657911
 20
-611.23468256275532
 30
0.0
 40
88.0
 50
258.84894918822579
 51
309.09418296149312
  0
ARC
  5
F1FF
  8
01
 10
642.18755682657729
 20
-663.23408159774408
 30
0.0
 40
22.0
 50
105.070062144902
 51
254.92993785509799
  0
ARC
  5
F200
  8
01
 10
624.93755682657911
 20
-715.23348063273295
 30
0.0
 40
88.0
 50
50.905817038506839
 51
101.1510508117741
  0
ARC
  5
F201
  8
01
 10
649.72755682657817
 20
-691.23673147235422
 30
0.0
 40
51.0
 50
58.05594822508084
 51
105.070062144902
  0
ARC
  5
F202
  8
01
 10
649.72755682657817
 20
-635.23143172313394
 30
0.0
 40
51.0
 50
254.92993785509799
 51
301.94405177491922
  0
ARC
  5
F203
  8
01
 10
667.187556826579
 20
-663.23408159774408
 30
0.0
 40
21.0
 50
309.09418296149312
 51
50.905817038506839
  0
ARC
  5
F204
  8
01
 10
667.18755682657729
 20
-663.23408159774408
 30
0.0
 40
18.0
 50
301.94405177491922
 51
58.05594822508084
  0
ARC
  5
F205
  8
01
 10
614.68755682657911
 20
-663.23408159774408
 30
0.0
 40
35.0
 50
101.1510508117741
 51
258.84894918822579
  0
LINE
  5
F206
  8
01
 10
776.27850870638554
 20
-675.23408159774306
 30
0.0
 11
804.18766916639902
 21
-675.23408159774169
 31
0.0
  0
LINE
  5
F207
  8
01
 10
776.27850870638645
 20
-651.2340815977376
 30
0.0
 11
804.18766916639902
 21
-651.23408159774078
 31
0.0
  0
ARC
  5
F208
  8
01
 10
776.27850870638645
 20
-648.2340815977376
 30
0.0
 40
3.0
 50
186.37937020843481
 51
270.0
  0
ARC
  5
F209
  8
01
 10
776.27850870638645
 20
-678.23408159774306
 30
0.0
 40
3.0
 50
90.0
 51
173.62062979156519
  0
ARC
  5
F20A
  8
01
 10
642.11443005639887
 20
-663.2340815977376
 30
0.0
 40
132.0
 50
351.70218038757929
 51
8.7219545221440455
  0
ARC
  5
F20B
  8
01
 10
813.1876691663972
 20
-663.23408159774067
 30
0.0
 40
15.0
 50
120.00000000030489
 51
126.8698976458675
  0
ARC
  5
F20C
  8
01
 10
813.1876691663972
 20
-663.23408159774067
 30
0.0
 40
15.0
 50
233.1301023541325
 51
239.99999999969509
  0
ARC
  5
F20D
  8
01
 10
893.68356173839754
 20
-663.23408159774431
 30
0.0
 40
132.0
 50
165.27198880424521
 51
194.7280111957547
  0
ARC
  5
F20E
  8
01
 10
644.69177659440425
 20
-663.23408159774328
 30
0.0
 40
132.0
 50
5.2172056401990732
 51
14.728011195754769
  0
ARC
  5
F20F
  8
01
 10
769.18766916640084
 20
-630.50813375129405
 30
0.0
 40
3.2746531185617882
 50
14.728011195754769
 51
165.27198880424521
  0
ARC
  5
F210
  8
01
 10
769.18766916640084
 20
-695.96002944419331
 30
0.0
 40
3.2746531185617882
 50
194.7280111957547
 51
345.27198880424532
  0
ARC
  5
F211
  8
01
 10
644.69177659440425
 20
-663.23408159774328
 30
0.0
 40
132.0
 50
345.27198880424532
 51
354.78279435980102
  0
POLYLINE
  5
F212
  8
01
 10
763.66798528453864
 20
-640.43167209002706
 30
0.0
 66
     1
 70
     8
  0
VERTEX
  8
01
  5
FEBE
 10
763.668
 20
-640.432
 30
0.000000
  70
    32
  0
VERTEX
  8
01
  5
FEBF
 10
763.727
 20
-640.360
 30
0.000000
  70
    32
  0
VERTEX
  8
01
  5
FEC0
 10
763.787
 20
-640.304
 30
0.000000
  70
    32
  0
VERTEX
  8
01
  5
FEC1
 10
763.846
 20
-640.264
 30
0.000000
  70
    32
  0
VERTEX
  8
01
  5
FEC2
 10
763.906
 20
-640.241
 30
0.000000
  70
    32
  0
VERTEX
  8
01
  5
FEC3
 10
763.965
 20
-640.234
 30
0.000000
  70
    32
  0
VERTEX
  8
01
  5
FEC4
 10
764.025
 20
-640.243
 30
0.000000
  70
    32
  0
VERTEX
  8
01
  5
FEC5
 10
764.084
 20
-640.269
 30
0.000000
  70
    32
  0
VERTEX
  8
01
  5
FEC6
 10
764.144
 20
-640.311
 30
0.000000
  70
    32
  0
VERTEX
  8
01
  5
FEC7
 10
764.203
 20
-640.368
 30
0.000000
  70
    32
  0
VERTEX
  8
01
  5
FEC8
 10
764.262
 20
-640.443
 30
0.000000
  70
    32
  0
VERTEX
  8
01
  5
FEC9
 10
764.321
 20
-640.533
 30
0.000000
  70
    32
  0
VERTEX
  8
01
  5
FECA
 10
764.380
 20
-640.639
 30
0.000000
  70
    32
  0
VERTEX
  8
01
  5
FECB
 10
764.438
 20
-640.761
 30
0.000000
  70
    32
  0
VERTEX
  8
01
  5
FECC
 10
764.496
 20
-640.900
 30
0.000000
  70
    32
  0
VERTEX
  8
01
  5
FECD
 10
764.554
 20
-641.053
 30
0.000000
  70
    32
  0
VERTEX
  8
01
  5
FECE
 10
764.611
 20
-641.223
 30
0.000000
  70
    32
  0
VERTEX
  8
01
  5
FECF
 10
764.668
 20
-641.408
 30
0.000000
  70
    32
  0
VERTEX
  8
01
  5
FED0
 10
764.724
 20
-641.609
 30
0.000000
  70
    32
  0
VERTEX
  8
01
  5
FED1
 10
764.780
 20
-641.825
 30
0.000000
  70
    32
  0
VERTEX
  8
01
  5
FED2
 10
764.835
 20
-642.056
 30
0.000000
  70
    32
  0
VERTEX
  8
01
  5
FED3
 10
764.890
 20
-642.302
 30
0.000000
  70
    32
  0
VERTEX
  8
01
  5
FED4
 10
764.944
 20
-642.563
 30
0.000000
  70
    32
  0
VERTEX
  8
01
  5
FED5
 10
764.997
 20
-642.838
 30
0.000000
  70
    32
  0
VERTEX
  8
01
  5
FED6
 10
765.050
 20
-643.128
 30
0.000000
  70
    32
  0
VERTEX
  8
01
  5
FED7
 10
765.101
 20
-643.432
 30
0.000000
  70
    32
  0
VERTEX
  8
01
  5
FED8
 10
765.152
 20
-643.750
 30
0.000000
  70
    32
  0
VERTEX
  8
01
  5
FED9
 10
765.202
 20
-644.082
 30
0.000000
  70
    32
  0
VERTEX
  8
01
  5
FEDA
 10
765.251
 20
-644.428
 30
0.000000
  70
    32
  0
VERTEX
  8
01
  5
FEDB
 10
765.300
 20
-644.786
 30
0.000000
  70
    32
  0
VERTEX
  8
01
  5
FEDC
 10
765.347
 20
-645.158
 30
0.000000
  70
    32
  0
VERTEX
  8
01
  5
FEDD
 10
765.393
 20
-645.543
 30
0.000000
  70
    32
  0
VERTEX
  8
01
  5
FEDE
 10
765.439
 20
-645.940
 30
0.000000
  70
    32
  0
VERTEX
  8
01
  5
FEDF
 10
765.483
 20
-646.349
 30
0.000000
  70
    32
  0
VERTEX
  8
01
  5
FEE0
 10
765.526
 20
-646.770
 30
0.000000
  70
    32
  0
VERTEX
  8
01
  5
FEE1
 10
765.568
 20
-647.203
 30
0.000000
  70
    32
  0
VERTEX
  8
01
  5
FEE2
 10
765.609
 20
-647.647
 30
0.000000
  70
    32
  0
VERTEX
  8
01
  5
FEE3
 10
765.649
 20
-648.103
 30
0.000000
  70
    32
  0
VERTEX
  8
01
  5
FEE4
 10
765.688
 20
-648.568
 30
0.000000
  70
    32
  0
VERTEX
  8
01
  5
FEE5
 10
765.725
 20
-649.045
 30
0.000000
  70
    32
  0
VERTEX
  8
01
  5
FEE6
 10
765.761
 20
-649.531
 30
0.000000
  70
    32
  0
VERTEX
  8
01
  5
FEE7
 10
765.796
 20
-650.027
 30
0.000000
  70
    32
  0
VERTEX
  8
01
  5
FEE8
 10
765.830
 20
-650.532
 30
0.000000
  70
    32
  0
VERTEX
  8
01
  5
FEE9
 10
765.862
 20
-651.047
 30
0.000000
  70
    32
  0
VERTEX
  8
01
  5
FEEA
 10
765.893
 20
-651.570
 30
0.000000
  70
    32
  0
VERTEX
  8
01
  5
FEEB
 10
765.922
 20
-652.101
 30
0.000000
  70
    32
  0
VERTEX
  8
01
  5
FEEC
 10
765.951
 20
-652.640
 30
0.000000
  70
    32
  0
VERTEX
  8
01
  5
FEED
 10
765.977
 20
-653.187
 30
0.000000
  70
    32
  0
VERTEX
  8
01
  5
FEEE
 10
766.003
 20
-653.740
 30
0.000000
  70
    32
  0
VERTEX
  8
01
  5
FEEF
 10
766.026
 20
-654.301
 30
0.000000
  70
    32
  0
VERTEX
  8
01
  5
FEF0
 10
766.049
 20
-654.868
 30
0.000000
  70
    32
  0
VERTEX
  8
01
  5
FEF1
 10
766.070
 20
-655.440
 30
0.000000
  70
    32
  0
VERTEX
  8
01
  5
FEF2
 10
766.089
 20
-656.018
 30
0.000000
  70
    32
  0
VERTEX
  8
01
  5
FEF3
 10
766.107
 20
-656.602
 30
0.000000
  70
    32
  0
VERTEX
  8
01
  5
FEF4
 10
766.124
 20
-657.189
 30
0.000000
  70
    32
  0
VERTEX
  8
01
  5
FEF5
 10
766.139
 20
-657.782
 30
0.000000
  70
    32
  0
VERTEX
  8
01
  5
FEF6
 10
766.152
 20
-658.378
 30
0.000000
  70
    32
  0
VERTEX
  8
01
  5
FEF7
 10
766.164
 20
-658.977
 30
0.000000
  70
    32
  0
VERTEX
  8
01
  5
FEF8
 10
766.174
 20
-659.580
 30
0.000000
  70
    32
  0
VERTEX
  8
01
  5
FEF9
 10
766.183
 20
-660.185
 30
0.000000
  70
    32
  0
VERTEX
  8
01
  5
FEFA
 10
766.190
 20
-660.792
 30
0.000000
  70
    32
  0
VERTEX
  8
01
  5
FEFB
 10
766.195
 20
-661.401
 30
0.000000
  70
    32
  0
VERTEX
  8
01
  5
FEFC
 10
766.199
 20
-662.011
 30
0.000000
  70
    32
  0
VERTEX
  8
01
  5
FEFD
 10
766.202
 20
-662.623
 30
0.000000
  70
    32
  0
VERTEX
  8
01
  5
FEFE
 10
766.202
 20
-663.234
 30
0.000000
  70
    32
  0
VERTEX
  8
01
  5
FEFF
 10
766.202
 20
-663.846
 30
0.000000
  70
    32
  0
VERTEX
  8
01
  5
FF00
 10
766.199
 20
-664.457
 30
0.000000
  70
    32
  0
VERTEX
  8
01
  5
FF01
 10
766.195
 20
-665.067
 30
0.000000
  70
    32
  0
VERTEX
  8
01
  5
FF02
 10
766.190
 20
-665.676
 30
0.000000
  70
    32
  0
VERTEX
  8
01
  5
FF03
 10
766.183
 20
-666.283
 30
0.000000
  70
    32
  0
VERTEX
  8
01
  5
FF04
 10
766.174
 20
-666.888
 30
0.000000
  70
    32
  0
VERTEX
  8
01
  5
FF05
 10
766.164
 20
-667.491
 30
0.000000
  70
    32
  0
VERTEX
  8
01
  5
FF06
 10
766.152
 20
-668.090
 30
0.000000
  70
    32
  0
VERTEX
  8
01
  5
FF07
 10
766.139
 20
-668.686
 30
0.000000
  70
    32
  0
VERTEX
  8
01
  5
FF08
 10
766.124
 20
-669.279
 30
0.000000
  70
    32
  0
VERTEX
  8
01
  5
FF09
 10
766.107
 20
-669.867
 30
0.000000
  70
    32
  0
VERTEX
  8
01
  5
FF0A
 10
766.089
 20
-670.450
 30
0.000000
  70
    32
  0
VERTEX
  8
01
  5
FF0B
 10
766.070
 20
-671.028
 30
0.000000
  70
    32
  0
VERTEX
  8
01
  5
FF0C
 10
766.049
 20
-671.601
 30
0.000000
  70
    32
  0
VERTEX
  8
01
  5
FF0D
 10
766.026
 20
-672.167
 30
0.000000
  70
    32
  0
VERTEX
  8
01
  5
FF0E
 10
766.003
 20
-672.728
 30
0.000000
  70
    32
  0
VERTEX
  8
01
  5
FF0F
 10
765.977
 20
-673.281
 30
0.000000
  70
    32
  0
VERTEX
  8
01
  5
FF10
 10
765.951
 20
-673.828
 30
0.000000
  70
    32
  0
VERTEX
  8
01
  5
FF11
 10
765.922
 20
-674.367
 30
0.000000
  70
    32
  0
VERTEX
  8
01
  5
FF12
 10
765.893
 20
-674.898
 30
0.000000
  70
    32
  0
VERTEX
  8
01
  5
FF13
 10
765.862
 20
-675.421
 30
0.000000
  70
    32
  0
VERTEX
  8
01
  5
FF14
 10
765.830
 20
-675.936
 30
0.000000
  70
    32
  0
VERTEX
  8
01
  5
FF15
 10
765.796
 20
-676.441
 30
0.000000
  70
    32
  0
VERTEX
  8
01
  5
FF16
 10
765.761
 20
-676.937
 30
0.000000
  70
    32
  0
VERTEX
  8
01
  5
FF17
 10
765.725
 20
-677.423
 30
0.000000
  70
    32
  0
VERTEX
  8
01
  5
FF18
 10
765.688
 20
-677.900
 30
0.000000
  70
    32
  0
VERTEX
  8
01
  5
FF19
 10
765.649
 20
-678.366
 30
0.000000
  70
    32
  0
VERTEX
  8
01
  5
FF1A
 10
765.609
 20
-678.821
 30
0.000000
  70
    32
  0
VERTEX
  8
01
  5
FF1B
 10
765.568
 20
-679.265
 30
0.000000
  70
    32
  0
VERTEX
  8
01
  5
FF1C
 10
765.526
 20
-679.698
 30
0.000000
  70
    32
  0
VERTEX
  8
01
  5
FF1D
 10
765.483
 20
-680.119
 30
0.000000
  70
    32
  0
VERTEX
  8
01
  5
FF1E
 10
765.439
 20
-680.528
 30
0.000000
  70
    32
  0
VERTEX
  8
01
  5
FF1F
 10
765.393
 20
-680.926
 30
0.000000
  70
    32
  0
VERTEX
  8
01
  5
FF20
 10
765.347
 20
-681.310
 30
0.000000
  70
    32
  0
VERTEX
  8
01
  5
FF21
 10
765.300
 20
-681.682
 30
0.000000
  70
    32
  0
VERTEX
  8
01
  5
FF22
 10
765.251
 20
-682.041
 30
0.000000
  70
    32
  0
VERTEX
  8
01
  5
FF23
 10
765.202
 20
-682.386
 30
0.000000
  70
    32
  0
VERTEX
  8
01
  5
FF24
 10
765.152
 20
-682.718
 30
0.000000
  70
    32
  0
VERTEX
  8
01
  5
FF25
 10
765.101
 20
-683.036
 30
0.000000
  70
    32
  0
VERTEX
  8
01
  5
FF26
 10
765.050
 20
-683.340
 30
0.000000
  70
    32
  0
VERTEX
  8
01
  5
FF27
 10
764.997
 20
-683.630
 30
0.000000
  70
    32
  0
VERTEX
  8
01
  5
FF28
 10
764.944
 20
-683.905
 30
0.000000
  70
    32
  0
VERTEX
  8
01
  5
FF29
 10
764.890
 20
-684.166
 30
0.000000
  70
    32
  0
VERTEX
  8
01
  5
FF2A
 10
764.835
 20
-684.412
 30
0.000000
  70
    32
  0
VERTEX
  8
01
  5
FF2B
 10
764.780
 20
-684.643
 30
0.000000
  70
    32
  0
VERTEX
  8
01
  5
FF2C
 10
764.724
 20
-684.859
 30
0.000000
  70
    32
  0
VERTEX
  8
01
  5
FF2D
 10
764.668
 20
-685.060
 30
0.000000
  70
    32
  0
VERTEX
  8
01
  5
FF2E
 10
764.611
 20
-685.245
 30
0.000000
  70
    32
  0
VERTEX
  8
01
  5
FF2F
 10
764.554
 20
-685.415
 30
0.000000
  70
    32
  0
VERTEX
  8
01
  5
FF30
 10
764.496
 20
-685.569
 30
0.000000
  70
    32
  0
VERTEX
  8
01
  5
FF31
 10
764.438
 20
-685.707
 30
0.000000
  70
    32
  0
VERTEX
  8
01
  5
FF32
 10
764.380
 20
-685.829
 30
0.000000
  70
    32
  0
VERTEX
  8
01
  5
FF33
 10
764.321
 20
-685.935
 30
0.000000
  70
    32
  0
VERTEX
  8
01
  5
FF34
 10
764.262
 20
-686.026
 30
0.000000
  70
    32
  0
VERTEX
  8
01
  5
FF35
 10
764.203
 20
-686.100
 30
0.000000
  70
    32
  0
VERTEX
  8
01
  5
FF36
 10
764.144
 20
-686.158
 30
0.000000
  70
    32
  0
VERTEX
  8
01
  5
FF37
 10
764.084
 20
-686.199
 30
0.000000
  70
    32
  0
VERTEX
  8
01
  5
FF38
 10
764.025
 20
-686.225
 30
0.000000
  70
    32
  0
VERTEX
  8
01
  5
FF39
 10
763.965
 20
-686.234
 30
0.000000
  70
    32
  0
VERTEX
  8
01
  5
FF3A
 10
763.906
 20
-686.227
 30
0.000000
  70
    32
  0
VERTEX
  8
01
  5
FF3B
 10
763.846
 20
-686.204
 30
0.000000
  70
    32
  0
VERTEX
  8
01
  5
FF3C
 10
763.787
 20
-686.164
 30
0.000000
  70
    32
  0
VERTEX
  8
01
  5
FF3D
 10
763.727
 20
-686.108
 30
0.000000
  70
    32
  0
VERTEX
  8
01
  5
FF3E
 10
763.668
 20
-686.036
 30
0.000000
  70
    32
  0
SEQEND
  8
01
  5
FF3F
  0
LINE
  5
F213
  8
01
 10
804.18766916639902
 20
-651.23408159774078
 30
0.0
 11
804.18766916639902
 21
-675.23408159774169
 31
0.0
  0
ARC
  5
F214
  8
01
 10
982.68778150607034
 20
-364.734081598773
 30
0.0
 40
5.0
 50
90.000000000000028
 51
180.0
  0
LINE
  5
F215
  8
01
 10
977.68778150607022
 20
-369.73408159877289
 30
0.0
 11
1030.68778150607
 21
-369.73408159877289
 31
0.0
  0
LINE
  5
F216
  8
01
 10
1025.68778150607
 20
-359.73408159877289
 30
0.0
 11
982.68778150607034
 21
-359.73408159877289
 31
0.0
  0
LINE
  5
F217
  8
01
 10
977.68778150607022
 20
-369.73408159877289
 30
0.0
 11
977.68778150607022
 21
-364.734081598773
 31
0.0
  0
ARC
  5
F218
  8
01
 10
1025.68778150607
 20
-364.734081598773
 30
0.0
 40
5.0
 50
0.0
 51
90.000000000000028
  0
LINE
  5
F219
  8
01
 10
1030.68778150607
 20
-369.73408159877289
 30
0.0
 11
1030.68778150607
 21
-364.734081598773
 31
0.0
  0
ARC
  5
F21A
  8
01
 10
1112.538957444297
 20
721.31307012484115
 30
0.0
 40
1055.055576411623
 50
263.53059384293738
 51
264.10549569451888
  0
ARC
  5
F21B
  8
01
 10
1056.5653340219351
 20
145.49473182782401
 30
0.0
 40
476.54598890801168
 50
263.68982619417972
 51
265.21396559712991
  0
ARC
  5
F21C
  8
01
 10
861.88284592646903
 20
-1592.803392901526
 30
0.0
 40
1272.6206356893749
 50
84.056353260567107
 51
84.125206256948289
  0
LINE
  5
F21D
  8
01
 10
992.18778150607011
 20
-358.23408159884673
 30
0.0
 11
1016.18778150607
 21
-358.23408159884627
 31
0.0
  0
ARC
  5
F21E
  8
01
 10
1046.562679533509
 20
-10.335048982392321
 30
0.0
 40
320.39905696034259
 50
266.79856943292492
 51
269.97766494656139
  0
ARC
  5
F21F
  8
01
 10
968.42383257889344
 20
419.30284833262448
 30
0.0
 40
739.92365644455469
 50
274.67027890647131
 51
275.8449144691088
  0
ARC
  5
F220
  8
01
 10
989.18778150606749
 20
-329.56358833009062
 30
0.0
 40
3.0
 50
0.0
 51
83.307976081385263
  0
ARC
  5
F221
  8
01
 10
1004.18778150607
 20
-367.23408159884673
 30
0.0
 40
15.0
 50
143.13010235416959
 51
149.99999999966869
  0
LINE
  5
F222
  8
01
 10
992.18778150606749
 20
-329.56358833009051
 30
0.0
 11
992.1877815060692
 21
-358.23408159884809
 31
0.0
  0
ARC
  5
F223
  8
01
 10
1019.187781506073
 20
-332.60230014116939
 30
0.0
 40
3.0
 50
85.381667030489567
 51
180.0
  0
ARC
  5
F224
  8
01
 10
1004.18778150607
 20
-367.23408159884673
 30
0.0
 40
15.0
 50
30.000000000331521
 51
36.86989764583609
  0
LINE
  5
F225
  8
01
 10
1016.187781506074
 20
-332.602300141169
 30
0.0
 11
1016.18778150607
 21
-358.23408159884809
 31
0.0
  0
ARC
  5
F226
  8
01
 10
1047.280135743496
 20
15.16082904376105
 30
0.0
 40
345.89593632929501
 50
265.3816670304895
 51
266.91576591288259
  0
ARC
  5
F227
  8
01
 10
989.92514093546595
 20
-104.7487567147511
 30
0.0
 40
215.53773888474549
 50
270.99368270274141
 51
273.79416928974319
  0
ARC
  5
F228
  8
01
 10
1012.481267216619
 20
-131.03709279455799
 30
0.0
 40
196.88835860591641
 50
262.17655110134081
 51
263.30797608138528
  0
ARC
  5
F229
  8
01
 10
985.82652234318596
 20
266.55710768987529
 30
0.0
 40
586.86351288794185
 50
270.03526991573068
 51
270.7651051192467
  0
ARC
  5
F22A
  8
01
 10
1012.481267216627
 20
-515.43107040313726
 30
0.0
 40
196.88835860591641
 50
97.674501471411745
 51
97.823448898659393
  0
ARC
  5
F22B
  8
01
 10
986.0734155571339
 20
-323.23408159884838
 30
0.0
 40
2.8856340510643972
 50
97.823448898659393
 51
262.17655110134081
  0
ARC
  5
F22C
  8
01
 10
960.99690028499901
 20
497.44234733733327
 30
0.0
 40
818.39692256152387
 50
273.9054665693514
 51
274.25005060984591
  0
ARC
  5
F22D
  8
01
 10
973.11797107509801
 20
297.27681482341882
 30
0.0
 40
617.87256579933546
 50
272.88234206007462
 51
274.04831352900339
  0
ARC
  5
F22E
  8
01
 10
942.99113850248648
 20
750.01044238813734
 30
0.0
 40
1071.605151755683
 50
274.20933986313543
 51
274.58588292699039
  0
ARC
  5
F22F
  8
01
 10
1054.804837778928
 20
-188.02879307082819
 30
0.0
 40
142.55910362570319
 50
279.99542084384672
 51
283.97778805259799
  0
ARC
  5
F230
  8
01
 10
1055.2332227713059
 20
-190.0519306195215
 30
0.0
 40
140.4923372583732
 50
275.38557749424842
 51
279.96657649515009
  0
ARC
  5
F231
  8
01
 10
1054.4737977497
 20
-184.41738457197991
 30
0.0
 40
146.17346479397929
 50
270.86785091947871
 51
275.47464397930122
  0
ARC
  5
F232
  8
01
 10
1047.2428255479431
 20
-53.90690303522581
 30
0.0
 40
276.82834913968799
 50
269.83337800799887
 51
271.95522301573362
  0
ARC
  5
F233
  8
01
 10
1055.2332227713141
 20
-456.41623257817213
 30
0.0
 40
140.4923372583732
 50
80.033423504849992
 51
84.614422505751619
  0
ARC
  5
F234
  8
01
 10
1054.473797749708
 20
-462.05077862571341
 30
0.0
 40
146.17346479397929
 50
85.403527682624102
 51
89.132149080521316
  0
ARC
  5
F235
  8
01
 10
1013.0092973676871
 20
-65.212226519875458
 30
0.0
 40
253.43615373720991
 50
276.97253592030643
 51
277.57945813318258
  0
ARC
  5
F236
  8
01
 10
1010.697836032705
 20
-47.108274914124188
 30
0.0
 40
271.68683046628632
 50
277.5590728343355
 51
278.57081532584118
  0
ARC
  5
F237
  8
01
 10
1047.242825547961
 20
-592.56126016246799
 30
0.0
 40
276.82834913968799
 50
88.044776984266434
 51
89.183476047753572
  0
ARC
  5
F238
  8
01
 10
1054.4737977497059
 20
-462.05077862571358
 30
0.0
 40
146.17346479397929
 50
84.525356020698837
 51
85.403527682624102
  0
ARC
  5
F239
  8
01
 10
1088.4596341013271
 20
-323.23408159884599
 30
0.0
 40
3.228147404744071
 50
283.97778805259799
 51
76.022211947402141
  0
ARC
  5
F23A
  8
01
 10
1054.804837778933
 20
-458.43937012686541
 30
0.0
 40
142.55910362570319
 50
76.022211947402141
 51
80.004579156153511
  0
LINE
  5
F605
  8
1DIM
 10
649.18768516632463
 20
-439.73408159774408
 30
0.0
 11
754.18768516632463
 21
-439.73408159774408
 31
0.0
  0
TEXT
  5
F606
  8
1TEXT
 10
659.31625659489555
 20
-416.48408159774408
 30
0.0
 40
6.0
  1
表面処理：
 72
     1
 11
675.28768516632397
 21
-416.48408159774408
 31
0.0
  0
TEXT
  5
F607
  8
1TEXT
 10
658.48768516632413
 20
-426.7370145870305
 30
0.0
 40
6.0
  1
本金メッキ
 72
     1
 11
675.28768516632397
 21
-426.7370145870305
 31
0.0
  0
LINE
  5
F608
  8
1DIM
 10
649.18768516632463
 20
-408.23408159774419
 30
0.0
 11
754.18768516632463
 21
-408.23408159774419
 31
0.0
  0
LINE
  5
F609
  8
1DIM
 10
649.18768516632463
 20
-418.73408159774408
 30
0.0
 11
754.18768516632463
 21
-418.73408159774408
 31
0.0
  0
LINE
  5
F60A
  8
1DIM
 10
649.18768516632463
 20
-429.23408159774419
 30
0.0
 11
754.18768516632463
 21
-429.23408159774419
 31
0.0
  0
LINE
  5
F60B
  8
1DIM
 10
649.18768516632463
 20
-429.23408159774419
 30
0.0
 11
754.18768516632463
 21
-429.23408159774419
 31
0.0
  0
LINE
  5
F60C
  8
1DIM
 10
701.68768516632463
 20
-408.23408159774419
 30
0.0
 11
701.68768516632474
 21
-450.23408159774419
 31
0.0
  0
TEXT
  5
F60D
  8
1TEXT
 10
708.18768516632531
 20
-427.305617073218
 30
0.0
 40
6.0
  1
1-P3C-G-LP
 41
0.7
 72
     1
 11
727.78768516632545
 21
-427.305617073218
 31
0.0
  0
TEXT
  5
F60E
  8
1TEXT
 10
717.58768516632404
 20
-416.48408159774408
 30
0.0
 40
6.0
  1
コード
 72
     1
 11
727.78768516632408
 21
-416.48408159774408
 31
0.0
  0
LINE
  5
F60F
  8
1DIM
 10
649.18768516632463
 20
-450.23408159774419
 30
0.0
 11
754.18768516632463
 21
-450.23408159774419
 31
0.0
  0
LINE
  5
F611
  8
1DIM
 10
649.18768516632474
 20
-450.23408159774419
 30
0.0
 11
649.18768516632463
 21
-408.23408159774419
 31
0.0
  0
LINE
  5
F612
  8
1DIM
 10
754.18768516632474
 20
-450.23408159774419
 30
0.0
 11
754.18768516632463
 21
-408.23408159774419
 31
0.0
  0
LINE
  5
F614
  8
1DIM
 10
649.18768516632463
 20
-450.23408159774419
 30
0.0
 11
754.18768516632463
 21
-450.23408159774419
 31
0.0
  0
TEXT
  5
F616
  8
1TEXT
 10
650.88768516632399
 20
-447.70045201510038
 30
0.0
 40
6.0
  1
ソフトニッケル
 72
     1
 11
675.28768516632397
 21
-447.70045201510038
 31
0.0
  0
TEXT
  5
F617
  8
1TEXT
 10
707.48768516632538
 20
-448.305617073218
 30
0.0
 40
6.0
  1
1-P3C-W-LP
 41
0.7
 72
     1
 11
727.78768516632533
 21
-448.305617073218
 31
0.0
  0
TEXT
  5
F618
  8
1TEXT
 10
661.2876851663242
 20
-437.2370145870305
 30
0.0
 40
6.0
  1
クローム
 72
     1
 11
675.28768516632408
 21
-437.2370145870305
 31
0.0
  0
TEXT
  5
F619
  8
1TEXT
 10
708.18768516632554
 20
-437.805617073218
 30
0.0
 40
6.0
  1
1-P3C-C-LP
 41
0.7
 72
     1
 11
727.78768516632545
 21
-437.805617073218
 31
0.0
  0
CIRCLE
  5
F982
  8
01
 10
873.68766916632455
 20
-663.23408159774419
 30
0.0
 40
2.8500000000000001
  0
CIRCLE
  5
F983
  8
01
 10
797.68766916632455
 20
-663.23408159774419
 30
0.0
 40
2.8500000000000001
  0
LINE
  5
FC29
  8
1DIM
 10
1046.43778150607
 20
-627.23348063273295
 30
0.0
 11
1107.98778150607
 21
-627.23348063273295
 31
0.0
  0
LINE
  5
FC2A
  8
1DIM
 10
1046.43778150607
 20
-699.23468256275532
 30
0.0
 11
1107.98778150607
 21
-699.23468256275532
 31
0.0
  0
LINE
  5
FC2B
  8
1DIM
 10
1106.68778150607
 20
-629.83348063273297
 30
0.0
 11
1106.68778150607
 21
-696.6346825627553
 31
0.0
  0
LINE
  5
FC2F
  8
1DIM
 10
983.18778150606931
 20
-456.23408159869717
 30
0.0
 11
983.18778150606931
 21
-505.00714185342292
 31
0.0
  0
LINE
  5
FC30
  8
1DIM
 10
1091.68778150607
 20
-456.23408159869962
 30
0.0
 11
1091.68778150607
 21
-505.00714185342292
 31
0.0
  0
LINE
  5
FC31
  8
1DIM
 10
985.78778150606922
 20
-503.70714185342291
 30
0.0
 11
1089.0877815060701
 21
-503.70714185342291
 31
0.0
  0
LINE
  5
FC35
  8
1DIM
 10
1004.18778150607
 20
-430.23408159877272
 30
0.0
 11
1004.18778150607
 21
-495.00714185342292
 31
0.0
  0
LINE
  5
FC36
  8
1DIM
 10
1091.6877815060709
 20
-456.23408159869962
 30
0.0
 11
1091.6877815060709
 21
-495.00714185342292
 31
0.0
  0
LINE
  5
FC37
  8
1DIM
 10
1006.78778150607
 20
-493.70714185342291
 30
0.0
 11
1089.087781506071
 21
-493.70714185342291
 31
0.0
  0
LINE
  5
FC3B
  8
1DIM
 10
1059.18778150607
 20
-409.73408159877278
 30
0.0
 11
1127.98778150607
 21
-409.73408159877278
 31
0.0
  0
LINE
  5
FC3C
  8
1DIM
 10
1075.310585057116
 20
-478.54244704255251
 30
0.0
 11
1127.98778150607
 21
-478.54244704255251
 31
0.0
  0
LINE
  5
FC3D
  8
1DIM
 10
1126.68778150607
 20
-412.33408159877268
 30
0.0
 11
1126.68778150607
 21
-475.94244704255249
 31
0.0
  0
LINE
  5
FC41
  8
1DIM
 10
1051.1877815061409
 20
-463.70714185342302
 30
0.0
 11
1117.98778150607
 21
-463.70714185342302
 31
0.0
  0
LINE
  5
FC42
  8
1DIM
 10
1059.18778150607
 20
-409.73408159877278
 30
0.0
 11
1117.98778150607
 21
-409.73408159877278
 31
0.0
  0
LINE
  5
FC43
  8
1DIM
 10
1116.68778150607
 20
-461.10714185342289
 30
0.0
 11
1116.68778150607
 21
-412.33408159877268
 31
0.0
  0
LINE
  5
FC47
  8
1DIM
 10
1059.18778150607
 20
-409.73408159877278
 30
0.0
 11
1107.98778150607
 21
-409.73408159877278
 31
0.0
  0
LINE
  5
FC48
  8
1DIM
 10
1096.600963330977
 20
-431.31173982456107
 30
0.0
 11
1107.98778150607
 21
-431.31173982456107
 31
0.0
  0
LINE
  5
FC49
  8
1DIM
 10
1106.68778150607
 20
-412.33408159877268
 30
0.0
 11
1106.68778150607
 21
-428.71173982456111
 31
0.0
  0
LINE
  5
FC4D
  8
1DIM
 10
1004.18778150607
 20
-689.73408159758696
 30
0.0
 11
967.88778150607027
 21
-689.73408159758696
 31
0.0
  0
LINE
  5
FC4E
  8
1DIM
 10
1004.18778150607
 20
-636.73408159790085
 30
0.0
 11
967.88778150607027
 21
-636.73408159790085
 31
0.0
  0
LINE
  5
FC4F
  8
1DIM
 10
969.18778150607034
 20
-687.13408159758706
 30
0.0
 11
969.18778150607034
 21
-639.33408159790088
 31
0.0
  0
LINE
  5
FC53
  8
1DIM
 10
842.18766916632478
 20
-577.23408159774408
 30
0.0
 11
891.49126020288145
 21
-577.23408159774408
 31
0.0
  0
LINE
  5
FC54
  8
1DIM
 10
842.18766916632478
 20
-707.23408159774408
 30
0.0
 11
891.49126020288145
 21
-707.23408159774408
 31
0.0
  0
LINE
  5
FC55
  8
1DIM
 10
890.19126020288149
 20
-579.83408159774422
 30
0.0
 11
890.19126020288149
 21
-704.63408159774406
 31
0.0
  0
LINE
  5
FC59
  8
1DIM
 10
842.18766916632478
 20
-585.23408159774408
 30
0.0
 11
881.49126020288145
 21
-585.23408159774408
 31
0.0
  0
LINE
  5
FC5A
  8
1DIM
 10
842.18766916632478
 20
-699.23408159774419
 30
0.0
 11
881.49126020288145
 21
-699.23408159774419
 31
0.0
  0
LINE
  5
FC5B
  8
1DIM
 10
880.19126020288149
 20
-587.83408159774422
 30
0.0
 11
880.19126020288149
 21
-696.63408159774406
 31
0.0
  0
LINE
  5
FC5F
  8
1DIM
 10
1023.188549348385
 20
-380.23408159877278
 30
0.0
 11
1050.4876651663251
 21
-380.23408159877278
 31
0.0
  0
LINE
  5
FC60
  8
1DIM
 10
1023.188549348385
 20
-399.23408159877289
 30
0.0
 11
1050.4876651663251
 21
-399.23408159877289
 31
0.0
  0
LINE
  5
FC61
  8
1DIM
 10
1049.1876651663249
 20
-382.83408159877291
 30
0.0
 11
1049.1876651663249
 21
-396.63408159877281
 31
0.0
  0
LINE
  5
FC65
  8
1DIM
 10
953.18766516632525
 20
-577.23408159774408
 30
0.0
 11
953.18766516632525
 21
-555.93408159774424
 31
0.0
  0
LINE
  5
FC66
  8
1DIM
 10
1004.187665166325
 20
-633.23408159774419
 30
0.0
 11
1004.187665166325
 21
-555.93408159774424
 31
0.0
  0
LINE
  5
FC67
  8
1DIM
 10
955.78766516632527
 20
-557.23408159774408
 30
0.0
 11
1001.587665166325
 21
-557.23408159774408
 31
0.0
  0
LINE
  5
FC6B
  8
1DIM
 10
1022.187665166325
 20
-605.23408159774419
 30
0.0
 11
1022.187665166325
 21
-545.93408159774424
 31
0.0
  0
LINE
  5
FC6C
  8
1DIM
 10
953.18766516632525
 20
-577.23408159774408
 30
0.0
 11
953.18766516632525
 21
-545.93408159774424
 31
0.0
  0
LINE
  5
FC6D
  8
1DIM
 10
1019.587665166325
 20
-547.23408159774419
 30
0.0
 11
955.78766516632527
 21
-547.23408159774419
 31
0.0
  0
LINE
  5
FC71
  8
1DIM
 10
942.18766516632536
 20
-635.23408229587506
 30
0.0
 11
942.18766516632536
 21
-555.93408159774424
 31
0.0
  0
LINE
  5
FC72
  8
1DIM
 10
953.18766516632525
 20
-577.23408159774408
 30
0.0
 11
953.18766516632525
 21
-555.93408159774424
 31
0.0
  0
LINE
  5
FC73
  8
1DIM
 10
944.78766516632527
 20
-557.23408159774408
 30
0.0
 11
950.58766516632534
 21
-557.23408159774408
 31
0.0
  0
LINE
  5
FC77
  8
1DIM
 10
1022.187665166325
 20
-605.23408159774419
 30
0.0
 11
1066.5223784680661
 21
-605.23408159774419
 31
0.0
  0
LINE
  5
FC78
  8
1DIM
 10
983.06303499204751
 20
-679.23408159774419
 30
0.0
 11
1066.5223784680661
 21
-679.23408159774419
 31
0.0
  0
LINE
  5
FC79
  8
1DIM
 10
1065.2223784680659
 20
-607.8340815977441
 30
0.0
 11
1065.2223784680659
 21
-676.63408159774406
 31
0.0
  0
LINE
  5
FC7D
  8
1DIM
 10
823.18766916632489
 20
-583.23408159774419
 30
0.0
 11
823.18766916632489
 21
-555.93408159774424
 31
0.0
  0
LINE
  5
FC7E
  8
1DIM
 10
848.18766916632489
 20
-583.23408159774419
 30
0.0
 11
848.18766916632489
 21
-555.93408159774424
 31
0.0
  0
LINE
  5
FC7F
  8
1DIM
 10
825.7876691663248
 20
-557.23408159774408
 30
0.0
 11
845.58766916632487
 21
-557.23408159774408
 31
0.0
  0
TEXT
  5
FC83
  8
1DIM
 10
831.89600249965827
 20
-556.32408159774423
 30
0.0
 40
4.5499999999999989
  1
25 
  0
LINE
  5
FC84
  8
0
  6
BYBLOCK
 10
845.58766916632487
 20
-556.53741370374416
 30
0.0
 11
848.18766916632489
 21
-557.23408159774408
 31
0.0
  0
LINE
  5
FC85
  8
0
  6
BYBLOCK
 10
848.18766916632489
 20
-557.23408159774408
 30
0.0
 11
845.58766916632487
 21
-557.93074949174422
 31
0.0
  0
LINE
  5
FC86
  8
0
  6
BYBLOCK
 10
848.18766916632489
 20
-557.23408159774408
 30
0.0
 11
845.58766916632487
 21
-557.23408159774408
 31
0.0
  0
LINE
  5
FC87
  8
0
  6
BYBLOCK
 10
825.7876691663248
 20
-557.93074949174422
 30
0.0
 11
823.18766916632489
 21
-557.23408159774408
 31
0.0
  0
LINE
  5
FC88
  8
0
  6
BYBLOCK
 10
823.18766916632489
 20
-557.23408159774408
 30
0.0
 11
825.7876691663248
 21
-556.53741370374416
 31
0.0
  0
LINE
  5
FC89
  8
0
  6
BYBLOCK
 10
823.18766916632489
 20
-557.23408159774408
 30
0.0
 11
825.7876691663248
 21
-557.23408159774408
 31
0.0
  0
TEXT
  5
FC8A
  8
1DIM
 10
1064.3123784680661
 20
-646.02574826441071
 30
0.0
 40
4.5499999999999989
  1
74 
 50
90.0
  0
LINE
  5
FC8B
  8
0
  6
BYBLOCK
 10
1065.919046362066
 20
-676.63408159774406
 30
0.0
 11
1065.2223784680659
 21
-679.23408159774419
 31
0.0
  0
LINE
  5
FC8C
  8
0
  6
BYBLOCK
 10
1065.2223784680659
 20
-679.23408159774419
 30
0.0
 11
1064.5257105740659
 21
-676.63408159774406
 31
0.0
  0
LINE
  5
FC8D
  8
0
  6
BYBLOCK
 10
1065.2223784680659
 20
-679.23408159774419
 30
0.0
 11
1065.2223784680659
 21
-676.63408159774406
 31
0.0
  0
LINE
  5
FC8E
  8
0
  6
BYBLOCK
 10
1064.5257105740659
 20
-607.8340815977441
 30
0.0
 11
1065.2223784680659
 21
-605.23408159774419
 31
0.0
  0
LINE
  5
FC8F
  8
0
  6
BYBLOCK
 10
1065.2223784680659
 20
-605.23408159774419
 30
0.0
 11
1065.919046362066
 21
-607.8340815977441
 31
0.0
  0
LINE
  5
FC90
  8
0
  6
BYBLOCK
 10
1065.2223784680659
 20
-605.23408159774419
 30
0.0
 11
1065.2223784680659
 21
-607.8340815977441
 31
0.0
  0
TEXT
  5
FC91
  8
1DIM
 10
945.41266516632527
 20
-556.32408159774423
 30
0.0
 40
4.5499999999999989
  1
11 
  0
LINE
  5
FC92
  8
0
  6
BYBLOCK
 10
950.58766516632534
 20
-556.53741370374416
 30
0.0
 11
953.18766516632525
 21
-557.23408159774408
 31
0.0
  0
LINE
  5
FC93
  8
0
  6
BYBLOCK
 10
953.18766516632525
 20
-557.23408159774408
 30
0.0
 11
950.58766516632534
 21
-557.93074949174422
 31
0.0
  0
LINE
  5
FC94
  8
0
  6
BYBLOCK
 10
953.18766516632525
 20
-557.23408159774408
 30
0.0
 11
950.58766516632534
 21
-557.23408159774408
 31
0.0
  0
LINE
  5
FC95
  8
0
  6
BYBLOCK
 10
944.78766516632527
 20
-557.93074949174422
 30
0.0
 11
942.18766516632536
 21
-557.23408159774408
 31
0.0
  0
LINE
  5
FC96
  8
0
  6
BYBLOCK
 10
942.18766516632536
 20
-557.23408159774408
 30
0.0
 11
944.78766516632527
 21
-556.53741370374416
 31
0.0
  0
LINE
  5
FC97
  8
0
  6
BYBLOCK
 10
942.18766516632536
 20
-557.23408159774408
 30
0.0
 11
944.78766516632527
 21
-557.23408159774408
 31
0.0
  0
TEXT
  5
FC98
  8
1DIM
 10
983.89599849965884
 20
-546.32408159774411
 30
0.0
 40
4.5499999999999989
  1
69 
  0
LINE
  5
FC99
  8
0
  6
BYBLOCK
 10
955.78766516632527
 20
-547.93074949174422
 30
0.0
 11
953.18766516632525
 21
-547.23408159774419
 31
0.0
  0
LINE
  5
FC9A
  8
0
  6
BYBLOCK
 10
953.18766516632525
 20
-547.23408159774419
 30
0.0
 11
955.78766516632527
 21
-546.53741370374405
 31
0.0
  0
LINE
  5
FC9B
  8
0
  6
BYBLOCK
 10
953.18766516632525
 20
-547.23408159774419
 30
0.0
 11
955.78766516632527
 21
-547.23408159774419
 31
0.0
  0
LINE
  5
FC9C
  8
0
  6
BYBLOCK
 10
1019.587665166325
 20
-546.53741370374405
 30
0.0
 11
1022.187665166325
 21
-547.23408159774419
 31
0.0
  0
LINE
  5
FC9D
  8
0
  6
BYBLOCK
 10
1022.187665166325
 20
-547.23408159774419
 30
0.0
 11
1019.587665166325
 21
-547.93074949174422
 31
0.0
  0
LINE
  5
FC9E
  8
0
  6
BYBLOCK
 10
1022.187665166325
 20
-547.23408159774419
 30
0.0
 11
1019.587665166325
 21
-547.23408159774419
 31
0.0
  0
TEXT
  5
FC9F
  8
1DIM
 10
975.65433183299194
 20
-556.32408159774423
 30
0.0
 40
4.5499999999999989
  1
51 
  0
LINE
  5
FCA0
  8
0
  6
BYBLOCK
 10
1001.587665166325
 20
-556.53741370374416
 30
0.0
 11
1004.187665166325
 21
-557.23408159774408
 31
0.0
  0
LINE
  5
FCA1
  8
0
  6
BYBLOCK
 10
1004.187665166325
 20
-557.23408159774408
 30
0.0
 11
1001.587665166325
 21
-557.93074949174422
 31
0.0
  0
LINE
  5
FCA2
  8
0
  6
BYBLOCK
 10
1004.187665166325
 20
-557.23408159774408
 30
0.0
 11
1001.587665166325
 21
-557.23408159774408
 31
0.0
  0
LINE
  5
FCA3
  8
0
  6
BYBLOCK
 10
955.78766516632527
 20
-557.93074949174422
 30
0.0
 11
953.18766516632525
 21
-557.23408159774408
 31
0.0
  0
LINE
  5
FCA4
  8
0
  6
BYBLOCK
 10
953.18766516632525
 20
-557.23408159774408
 30
0.0
 11
955.78766516632527
 21
-556.53741370374416
 31
0.0
  0
LINE
  5
FCA5
  8
0
  6
BYBLOCK
 10
953.18766516632525
 20
-557.23408159774408
 30
0.0
 11
955.78766516632527
 21
-557.23408159774408
 31
0.0
  0
TEXT
  5
FCA6
  8
1DIM
 10
1048.2776651663251
 20
-392.76741493210602
 30
0.0
 40
4.5499999999999989
  1
19 
 50
90.0
  0
LINE
  5
FCA7
  8
0
  6
BYBLOCK
 10
1049.8843330603249
 20
-396.63408159877281
 30
0.0
 11
1049.1876651663249
 21
-399.23408159877289
 31
0.0
  0
LINE
  5
FCA8
  8
0
  6
BYBLOCK
 10
1049.1876651663249
 20
-399.23408159877289
 30
0.0
 11
1048.4909972723251
 21
-396.63408159877281
 31
0.0
  0
LINE
  5
FCA9
  8
0
  6
BYBLOCK
 10
1049.1876651663249
 20
-399.23408159877289
 30
0.0
 11
1049.1876651663249
 21
-396.63408159877281
 31
0.0
  0
LINE
  5
FCAA
  8
0
  6
BYBLOCK
 10
1048.4909972723251
 20
-382.83408159877291
 30
0.0
 11
1049.1876651663249
 21
-380.23408159877278
 31
0.0
  0
LINE
  5
FCAB
  8
0
  6
BYBLOCK
 10
1049.1876651663249
 20
-380.23408159877278
 30
0.0
 11
1049.8843330603249
 21
-382.83408159877291
 31
0.0
  0
LINE
  5
FCAC
  8
0
  6
BYBLOCK
 10
1049.1876651663249
 20
-380.23408159877278
 30
0.0
 11
1049.1876651663249
 21
-382.83408159877291
 31
0.0
  0
TEXT
  5
FCAD
  8
1DIM
 10
879.28126020288175
 20
-628.97036091742916
 30
0.0
 40
4.5499999999999989
  1
114 
 50
90.0
  0
LINE
  5
FCAE
  8
0
  6
BYBLOCK
 10
880.88792809688175
 20
-696.63408159774406
 30
0.0
 11
880.19126020288149
 21
-699.23408159774419
 31
0.0
  0
LINE
  5
FCAF
  8
0
  6
BYBLOCK
 10
880.19126020288149
 20
-699.23408159774419
 30
0.0
 11
879.49459230888158
 21
-696.63408159774406
 31
0.0
  0
LINE
  5
FCB0
  8
0
  6
BYBLOCK
 10
880.19126020288149
 20
-699.23408159774419
 30
0.0
 11
880.19126020288149
 21
-696.63408159774406
 31
0.0
  0
LINE
  5
FCB1
  8
0
  6
BYBLOCK
 10
879.49459230888158
 20
-587.83408159774422
 30
0.0
 11
880.19126020288149
 21
-585.23408159774408
 31
0.0
  0
LINE
  5
FCB2
  8
0
  6
BYBLOCK
 10
880.19126020288149
 20
-585.23408159774408
 30
0.0
 11
880.88792809688175
 21
-587.83408159774422
 31
0.0
  0
LINE
  5
FCB3
  8
0
  6
BYBLOCK
 10
880.19126020288149
 20
-585.23408159774408
 30
0.0
 11
880.19126020288149
 21
-587.83408159774422
 31
0.0
  0
TEXT
  5
FCB4
  8
1DIM
 10
889.28126020288175
 20
-629.34952758409588
 30
0.0
 40
4.5499999999999989
  1
130 
 50
90.0
  0
LINE
  5
FCB5
  8
0
  6
BYBLOCK
 10
890.88792809688164
 20
-704.63408159774406
 30
0.0
 11
890.19126020288149
 21
-707.23408159774408
 31
0.0
  0
LINE
  5
FCB6
  8
0
  6
BYBLOCK
 10
890.19126020288149
 20
-707.23408159774408
 30
0.0
 11
889.49459230888147
 21
-704.63408159774406
 31
0.0
  0
LINE
  5
FCB7
  8
0
  6
BYBLOCK
 10
890.19126020288149
 20
-707.23408159774408
 30
0.0
 11
890.19126020288149
 21
-704.63408159774406
 31
0.0
  0
LINE
  5
FCB8
  8
0
  6
BYBLOCK
 10
889.49459230888147
 20
-579.83408159774422
 30
0.0
 11
890.19126020288149
 21
-577.23408159774408
 31
0.0
  0
LINE
  5
FCB9
  8
0
  6
BYBLOCK
 10
890.19126020288149
 20
-577.23408159774408
 30
0.0
 11
890.88792809688164
 21
-579.83408159774422
 31
0.0
  0
LINE
  5
FCBA
  8
0
  6
BYBLOCK
 10
890.19126020288149
 20
-577.23408159774408
 30
0.0
 11
890.19126020288149
 21
-579.83408159774422
 31
0.0
  0
TEXT
  5
FCBB
  8
1DIM
 10
968.27778150607026
 20
-670.21074826441054
 30
0.0
 40
4.5499999999999989
  1
φ53
 50
90.0
  0
LINE
  5
FCBC
  8
0
  6
BYBLOCK
 10
968.49111361207008
 20
-639.33408159790088
 30
0.0
 11
969.18778150607034
 21
-636.73408159790085
 31
0.0
  0
LINE
  5
FCBD
  8
0
  6
BYBLOCK
 10
969.18778150607034
 20
-636.73408159790085
 30
0.0
 11
969.88444940007025
 21
-639.33408159790088
 31
0.0
  0
LINE
  5
FCBE
  8
0
  6
BYBLOCK
 10
969.18778150607034
 20
-636.73408159790085
 30
0.0
 11
969.18778150607034
 21
-639.33408159790088
 31
0.0
  0
LINE
  5
FCBF
  8
0
  6
BYBLOCK
 10
969.88444940007025
 20
-687.13408159758706
 30
0.0
 11
969.18778150607034
 21
-689.73408159758696
 31
0.0
  0
LINE
  5
FCC0
  8
0
  6
BYBLOCK
 10
969.18778150607034
 20
-689.73408159758696
 30
0.0
 11
968.49111361207008
 21
-687.13408159758706
 31
0.0
  0
LINE
  5
FCC1
  8
0
  6
BYBLOCK
 10
969.18778150607034
 20
-689.73408159758696
 30
0.0
 11
969.18778150607034
 21
-687.13408159758706
 31
0.0
  0
TEXT
  5
FCC2
  8
1DIM
 10
1105.7777815060699
 20
-424.31457737833352
 30
0.0
 40
4.5499999999999989
  1
22 
 50
90.0
  0
LINE
  5
FCC3
  8
0
  6
BYBLOCK
 10
1107.38444940007
 20
-428.71173982456111
 30
0.0
 11
1106.68778150607
 21
-431.31173982456107
 31
0.0
  0
LINE
  5
FCC4
  8
0
  6
BYBLOCK
 10
1106.68778150607
 20
-431.31173982456107
 30
0.0
 11
1105.99111361207
 21
-428.71173982456111
 31
0.0
  0
LINE
  5
FCC5
  8
0
  6
BYBLOCK
 10
1106.68778150607
 20
-431.31173982456107
 30
0.0
 11
1106.68778150607
 21
-428.71173982456111
 31
0.0
  0
LINE
  5
FCC6
  8
0
  6
BYBLOCK
 10
1105.99111361207
 20
-412.33408159877268
 30
0.0
 11
1106.68778150607
 21
-409.73408159877278
 31
0.0
  0
LINE
  5
FCC7
  8
0
  6
BYBLOCK
 10
1106.68778150607
 20
-409.73408159877278
 30
0.0
 11
1107.38444940007
 21
-412.33408159877268
 31
0.0
  0
LINE
  5
FCC8
  8
0
  6
BYBLOCK
 10
1106.68778150607
 20
-409.73408159877278
 30
0.0
 11
1106.68778150607
 21
-412.33408159877268
 31
0.0
  0
TEXT
  5
FCC9
  8
1DIM
 10
1115.7777815060699
 20
-440.51227839276442
 30
0.0
 40
4.5499999999999989
  1
54 
 50
90.0
  0
LINE
  5
FCCA
  8
0
  6
BYBLOCK
 10
1115.99111361207
 20
-412.33408159877268
 30
0.0
 11
1116.68778150607
 21
-409.73408159877278
 31
0.0
  0
LINE
  5
FCCB
  8
0
  6
BYBLOCK
 10
1116.68778150607
 20
-409.73408159877278
 30
0.0
 11
1117.38444940007
 21
-412.33408159877268
 31
0.0
  0
LINE
  5
FCCC
  8
0
  6
BYBLOCK
 10
1116.68778150607
 20
-409.73408159877278
 30
0.0
 11
1116.68778150607
 21
-412.33408159877268
 31
0.0
  0
LINE
  5
FCCD
  8
0
  6
BYBLOCK
 10
1117.38444940007
 20
-461.10714185342289
 30
0.0
 11
1116.68778150607
 21
-463.70714185342302
 31
0.0
  0
LINE
  5
FCCE
  8
0
  6
BYBLOCK
 10
1116.68778150607
 20
-463.70714185342302
 30
0.0
 11
1115.99111361207
 21
-461.10714185342289
 31
0.0
  0
LINE
  5
FCCF
  8
0
  6
BYBLOCK
 10
1116.68778150607
 20
-463.70714185342302
 30
0.0
 11
1116.68778150607
 21
-461.10714185342289
 31
0.0
  0
TEXT
  5
FCD0
  8
1DIM
 10
1125.7777815060699
 20
-447.9299309873291
 30
0.0
 40
4.5499999999999989
  1
69 
 50
90.0
  0
LINE
  5
FCD1
  8
0
  6
BYBLOCK
 10
1127.38444940007
 20
-475.94244704255249
 30
0.0
 11
1126.68778150607
 21
-478.54244704255251
 31
0.0
  0
LINE
  5
FCD2
  8
0
  6
BYBLOCK
 10
1126.68778150607
 20
-478.54244704255251
 30
0.0
 11
1125.99111361207
 21
-475.94244704255249
 31
0.0
  0
LINE
  5
FCD3
  8
0
  6
BYBLOCK
 10
1126.68778150607
 20
-478.54244704255251
 30
0.0
 11
1126.68778150607
 21
-475.94244704255249
 31
0.0
  0
LINE
  5
FCD4
  8
0
  6
BYBLOCK
 10
1125.99111361207
 20
-412.33408159877268
 30
0.0
 11
1126.68778150607
 21
-409.73408159877278
 31
0.0
  0
LINE
  5
FCD5
  8
0
  6
BYBLOCK
 10
1126.68778150607
 20
-409.73408159877278
 30
0.0
 11
1127.38444940007
 21
-412.33408159877268
 31
0.0
  0
LINE
  5
FCD6
  8
0
  6
BYBLOCK
 10
1126.68778150607
 20
-409.73408159877278
 30
0.0
 11
1126.68778150607
 21
-412.33408159877268
 31
0.0
  0
TEXT
  5
FCD7
  8
1DIM
 10
1041.1127815060711
 20
-492.79714185342289
 30
0.0
 40
4.5499999999999989
  1
87.5 
  0
LINE
  5
FCD8
  8
0
  6
BYBLOCK
 10
1089.087781506071
 20
-493.010473959423
 30
0.0
 11
1091.6877815060709
 21
-493.70714185342291
 31
0.0
  0
LINE
  5
FCD9
  8
0
  6
BYBLOCK
 10
1091.6877815060709
 20
-493.70714185342291
 30
0.0
 11
1089.087781506071
 21
-494.40380974742288
 31
0.0
  0
LINE
  5
FCDA
  8
0
  6
BYBLOCK
 10
1091.6877815060709
 20
-493.70714185342291
 30
0.0
 11
1089.087781506071
 21
-493.70714185342291
 31
0.0
  0
LINE
  5
FCDB
  8
0
  6
BYBLOCK
 10
1006.78778150607
 20
-494.40380974742288
 30
0.0
 11
1004.18778150607
 21
-493.70714185342291
 31
0.0
  0
LINE
  5
FCDC
  8
0
  6
BYBLOCK
 10
1004.18778150607
 20
-493.70714185342291
 30
0.0
 11
1006.78778150607
 21
-493.010473959423
 31
0.0
  0
LINE
  5
FCDD
  8
0
  6
BYBLOCK
 10
1004.18778150607
 20
-493.70714185342291
 30
0.0
 11
1006.78778150607
 21
-493.70714185342291
 31
0.0
  0
TEXT
  5
FCDE
  8
1DIM
 10
1029.475281506069
 20
-502.79714185342289
 30
0.0
 40
4.5499999999999989
  1
108.5 
  0
LINE
  5
FCDF
  8
0
  6
BYBLOCK
 10
1089.0877815060701
 20
-503.01047395942288
 30
0.0
 11
1091.68778150607
 21
-503.70714185342291
 31
0.0
  0
LINE
  5
FCE0
  8
0
  6
BYBLOCK
 10
1091.68778150607
 20
-503.70714185342291
 30
0.0
 11
1089.0877815060701
 21
-504.40380974742288
 31
0.0
  0
LINE
  5
FCE1
  8
0
  6
BYBLOCK
 10
1091.68778150607
 20
-503.70714185342291
 30
0.0
 11
1089.0877815060701
 21
-503.70714185342291
 31
0.0
  0
LINE
  5
FCE2
  8
0
  6
BYBLOCK
 10
985.78778150606922
 20
-504.40380974742288
 30
0.0
 11
983.18778150606931
 21
-503.70714185342291
 31
0.0
  0
LINE
  5
FCE3
  8
0
  6
BYBLOCK
 10
983.18778150606931
 20
-503.70714185342291
 30
0.0
 11
985.78778150606922
 21
-503.01047395942288
 31
0.0
  0
LINE
  5
FCE4
  8
0
  6
BYBLOCK
 10
983.18778150606931
 20
-503.70714185342291
 30
0.0
 11
985.78778150606922
 21
-503.70714185342291
 31
0.0
  0
TEXT
  5
FCE5
  8
1DIM
 10
1105.7777815060699
 20
-667.02574826441071
 30
0.0
 40
4.5499999999999989
  1
72 
 50
90.0
  0
LINE
  5
FCE6
  8
0
  6
BYBLOCK
 10
1107.38444940007
 20
-696.6346825627553
 30
0.0
 11
1106.68778150607
 21
-699.23468256275532
 31
0.0
  0
LINE
  5
FCE7
  8
0
  6
BYBLOCK
 10
1106.68778150607
 20
-699.23468256275532
 30
0.0
 11
1105.99111361207
 21
-696.6346825627553
 31
0.0
  0
LINE
  5
FCE8
  8
0
  6
BYBLOCK
 10
1106.68778150607
 20
-699.23468256275532
 30
0.0
 11
1106.68778150607
 21
-696.6346825627553
 31
0.0
  0
LINE
  5
FCE9
  8
0
  6
BYBLOCK
 10
1105.99111361207
 20
-629.83348063273297
 30
0.0
 11
1106.68778150607
 21
-627.23348063273295
 31
0.0
  0
LINE
  5
FCEA
  8
0
  6
BYBLOCK
 10
1106.68778150607
 20
-627.23348063273295
 30
0.0
 11
1107.38444940007
 21
-629.83348063273297
 31
0.0
  0
LINE
  5
FCEB
  8
0
  6
BYBLOCK
 10
1106.68778150607
 20
-627.23348063273295
 30
0.0
 11
1106.68778150607
 21
-629.83348063273297
 31
0.0
  0
VIEWPORT
  5
57
 67
     1
  8
0
 10
-0.0129548582275447
 20
89.680714451567695
 30
0.0
 40
436.30780998311621
 41
441.92550710736231
 68
     1
 69
     1
1001
ACAD
1000
MVIEW
1002
{
1070
    16
1010
0.0
1020
0.0
1030
0.0
1010
0.0
1020
0.0
1030
1.0
1040
0.0
1040
441.92550710736231
1040
-0.0129548582275447
1040
89.680714451567695
1040
50.0
1040
0.0
1040
0.0
1070
     0
1070
   100
1070
     1
1070
     1
1070
     0
1070
     0
1070
     0
1070
     0
1040
0.0
1040
0.0
1040
0.0
1040
10.0
1040
10.0
1040
10.0
1040
10.0
1070
     0
1002
{
1002
}
1002
}
  0
ENDSEC
  0
EOF
