  0
SECTION
  2
HEADER
  9
$ACADVER
  1
AC1009
  9
$INSBASE
 10
0.0
 20
0.0
 30
0.0
  9
$EXTMIN
 10
543.60257013364287
 20
-718.07002159774402
 30
0.0
  9
$EXTMAX
 10
1151.07288453875
 20
-324.03408159877267
 30
0.0
  9
$LIMMIN
 10
0.0
 20
0.0
  9
$LIMMAX
 10
420.0
 20
297.0
  9
$ORTHOMODE
 70
     0
  9
$REGENMODE
 70
     1
  9
$FILLMODE
 70
     1
  9
$QTEXTMODE
 70
     0
  9
$MIRRTEXT
 70
     0
  9
$DRAGMODE
 70
     2
  9
$LTSCALE
 40
0.5
  9
$OSMODE
 70
  2175
  9
$ATTMODE
 70
     1
  9
$TEXTSIZE
 40
4.0
  9
$TRACEWID
 40
1.0
  9
$TEXTSTYLE
  7
STANDARD
  9
$CLAYER
  8
1TEXT
  9
$CELTYPE
  6
BYLAYER
  9
$CECOLOR
 62
   256
  9
$DIMSCALE
 40
1.0
  9
$DIMASZ
 40
2.0
  9
$DIMEXO
 40
0.0
  9
$DIMDLI
 40
7.0
  9
$DIMRND
 40
0.0
  9
$DIMDLE
 40
0.0
  9
$DIMEXE
 40
1.0
  9
$DIMTP
 40
0.0
  9
$DIMTM
 40
0.0
  9
$DIMTXT
 40
3.5
  9
$DIMCEN
 40
0.0
  9
$DIMTSZ
 40
0.0
  9
$DIMTOL
 70
     0
  9
$DIMLIM
 70
     0
  9
$DIMTIH
 70
     0
  9
$DIMTOH
 70
     0
  9
$DIMSE1
 70
     0
  9
$DIMSE2
 70
     0
  9
$DIMTAD
 70
     1
  9
$DIMZIN
 70
     8
  9
$DIMBLK
  1

  9
$DIMASO
 70
     1
  9
$DIMSHO
 70
     1
  9
$DIMPOST
  1
 
  9
$DIMAPOST
  1

  9
$DIMALT
 70
     0
  9
$DIMALTD
 70
     2
  9
$DIMALTF
 40
25.399999999999999
  9
$DIMLFAC
 40
1.0
  9
$DIMTOFL
 70
     1
  9
$DIMTVP
 40
0.0
  9
$DIMTIX
 70
     0
  9
$DIMSOXD
 70
     0
  9
$DIMSAH
 70
     1
  9
$DIMBLK1
  1
OPEN30
  9
$DIMBLK2
  1
OPEN30
  9
$DIMSTYLE
  2
NEWX10
  9
$DIMCLRD
 70
   256
  9
$DIMCLRE
 70
   256
  9
$DIMCLRT
 70
   201
  9
$DIMTFAC
 40
0.7
  9
$DIMGAP
 40
0.7
  9
$LUNITS
 70
     2
  9
$LUPREC
 70
     4
  9
$SKETCHINC
 40
1.0
  9
$FILLETRAD
 40
0.0
  9
$AUNITS
 70
     0
  9
$AUPREC
 70
     2
  9
$MENU
  1
acad
  9
$ELEVATION
 40
0.0
  9
$PELEVATION
 40
0.0
  9
$THICKNESS
 40
0.0
  9
$LIMCHECK
 70
     0
  9
$BLIPMODE
 70
     0
  9
$CHAMFERA
 40
10.0
  9
$CHAMFERB
 40
10.0
  9
$SKPOLY
 70
     0
  9
$TDCREATE
 40
2451318.621352917
  9
$TDUPDATE
 40
2456643.4259156138
  9
$TDINDWG
 40
0.3829013773
  9
$TDUSRTIMER
 40
0.3829013773
  9
$USRTIMER
 70
     1
  9
$ANGBASE
 50
0.0
  9
$ANGDIR
 70
     0
  9
$PDMODE
 70
     0
  9
$PDSIZE
 40
0.0
  9
$PLINEWID
 40
0.0
  9
$COORDS
 70
     0
  9
$SPLFRAME
 70
     0
  9
$SPLINETYPE
 70
     6
  9
$SPLINESEGS
 70
     8
  9
$ATTDIA
 70
     0
  9
$ATTREQ
 70
     1
  9
$HANDLING
 70
     1
  9
$HANDSEED
  5
C1BD
  9
$SURFTAB1
 70
     6
  9
$SURFTAB2
 70
     6
  9
$SURFTYPE
 70
     6
  9
$SURFU
 70
     6
  9
$SURFV
 70
     6
  9
$UCSNAME
  2

  9
$UCSORG
 10
0.0
 20
0.0
 30
0.0
  9
$UCSXDIR
 10
1.0
 20
0.0
 30
0.0
  9
$UCSYDIR
 10
0.0
 20
1.0
 30
0.0
  9
$PUCSNAME
  2

  9
$PUCSORG
 10
0.0
 20
0.0
 30
0.0
  9
$PUCSXDIR
 10
1.0
 20
0.0
 30
0.0
  9
$PUCSYDIR
 10
0.0
 20
1.0
 30
0.0
  9
$USERI1
 70
     0
  9
$USERI2
 70
     0
  9
$USERI3
 70
     0
  9
$USERI4
 70
     0
  9
$USERI5
 70
     0
  9
$USERR1
 40
0.0
  9
$USERR2
 40
0.0
  9
$USERR3
 40
0.0
  9
$USERR4
 40
0.0
  9
$USERR5
 40
0.0
  9
$WORLDVIEW
 70
     1
  9
$SHADEDGE
 70
     3
  9
$SHADEDIF
 70
    70
  9
$TILEMODE
 70
     1
  9
$MAXACTVP
 70
    48
  9
$PLIMCHECK
 70
     0
  9
$PEXTMIN
 10
1.0000000000000000E+020
 20
1.0000000000000000E+020
 30
1.0000000000000000E+020
  9
$PEXTMAX
 10
-1.0000000000000000E+020
 20
-1.0000000000000000E+020
 30
-1.0000000000000000E+020
  9
$PLIMMIN
 10
0.0
 20
0.0
  9
$PLIMMAX
 10
420.0
 20
297.0
  9
$UNITMODE
 70
     0
  9
$VISRETAIN
 70
     1
  9
$PLINEGEN
 70
     0
  9
$PSLTSCALE
 70
     1
  0
ENDSEC
  0
SECTION
  2
TABLES
  0
TABLE
  2
VPORT
 70
     1
  0
VPORT
  2
*ACTIVE
 70
     0
 10
0.0
 20
0.0
 11
1.0
 21
1.0
 12
847.33901008880025
 22
-521.04551078030875
 13
0.0
 23
0.0
 14
10.0
 24
10.0
 15
10.0
 25
10.0
 16
0.0
 26
0.0
 36
1.0
 17
0.0
 27
0.0
 37
0.0
 40
417.91154394120309
 41
2.1771217712177111
 42
50.0
 43
0.0
 44
0.0
 50
0.0
 51
0.0
 71
     0
 72
   100
 73
     1
 74
     1
 75
     0
 76
     0
 77
     0
 78
     0
  0
ENDTAB
  0
TABLE
  2
LTYPE
 70
    13
  0
LTYPE
  2
CONTINUOUS
 70
     0
  3
Solid line
 72
    65
 73
     0
 40
0.0
  0
LTYPE
  2
XREF1|CENTER2
 70
    48
  3
Center (.5x) ___ _ ___ _ ___ _ ___ _ ___ _ ___
 72
    65
 73
     4
 40
28.574999999999999
 49
19.050000000000001
 49
-3.1749999999999989
 49
3.1749999999999989
 49
-3.1749999999999989
  0
LTYPE
  2
A3WAKUDAKE|CENTER2
 70
    48
  3
Center (.5x) ___ _ ___ _ ___ _ ___ _ ___ _ ___
 72
    65
 73
     4
 40
28.574999999999999
 49
19.050000000000001
 49
-3.1749999999999989
 49
3.1749999999999989
 49
-3.1749999999999989
  0
LTYPE
  2
DASHED2
 70
     0
  3
Dashed (.5x) _ _ _ _ _ _ _ _ _ _ _ _ _ _ _ _ _
 72
    65
 73
     2
 40
9.5249999999999986
 49
6.3499999999999988
 49
-3.1749999999999989
  0
ENDTAB
  0
TABLE
  2
LAYER
 70
    38
  0
LAYER
  2
0
 70
     0
 62
     7
  6
CONTINUOUS
  0
LAYER
  2
1TEXT
 70
     0
 62
     7
  6
CONTINUOUS
  0
LAYER
  2
01
 70
     0
 62
     1
  6
CONTINUOUS
  0
LAYER
  2
A3WAKUDAKE|THICK
 70
    48
 62
     7
  6
CONTINUOUS
  0
LAYER
  2
A3WAKUDAKE|POINT
 70
    48
 62
     7
  6
CONTINUOUS
  0
LAYER
  2
A3WAKUDAKE|1CENTER
 70
    48
 62
     7
  6
A3WAKUDAKE|CENTER2
  0
LAYER
  2
A3WAKUDAKE|0-6
 70
    48
 62
     7
  6
CONTINUOUS
  0
LAYER
  2
A3WAKUDAKE|1DIM
 70
    48
 62
     7
  6
CONTINUOUS
  0
LAYER
  2
XREF1|1CENTER
 70
    48
 62
     7
  6
XREF1|CENTER2
  0
ENDTAB
  0
TABLE
  2
STYLE
 70
     4
  0
STYLE
  2
STANDARD
 70
     0
 40
0.0
 41
1.0
 50
0.0
 71
     0
 42
4.0
  3
romans.shx
  4
extfont2.shx
  0
ENDTAB
  0
TABLE
  2
VIEW
 70
     5
  0
ENDTAB
  0
TABLE
  2
UCS
 70
     0
  0
ENDTAB
  0
TABLE
  2
APPID
 70
    11
  0
APPID
  2
ACAD
 70
     0
  0
APPID
  2
DRAWINGVARIABLESXDATA
 70
     0
  0
APPID
  2
CONTENTTABDATA
 70
     0
  0
APPID
  2
CONTENTCURRENTTAB
 70
     0
  0
APPID
  2
CONTENTBLOCKDESCRIPTION
 70
     0
  0
APPID
  2
CONTENTBLOCKICON
 70
     0
  0
APPID
  2
CONTENTLONGBLOCKNAME
 70
     0
  0
APPID
  2
ACAD_PSEXT
 70
     0
  0
APPID
  2
ACAD_MLEADERVER
 70
     0
  0
APPID
  2
ACAECLAYERSTANDARD
 70
     0
  0
APPID
  2
ACAD_EXEMPT_FROM_CAD_STANDARDS
 70
     0
  0
ENDTAB
  0
TABLE
  2
DIMSTYLE
 70
     5
  0
DIMSTYLE
  2
NEWX10
 70
     0
  3
 
  4

  5

  6
OPEN30
  7
OPEN30
 40
1.0
 41
2.0
 42
0.0
 43
7.0
 44
1.0
 45
0.0
 46
0.0
 47
0.0
 48
0.0
140
3.5
141
0.0
142
0.0
143
25.399999999999999
144
1.0
145
0.0
146
0.7
147
0.7
 71
     0
 72
     0
 73
     0
 74
     0
 75
     0
 76
     0
 77
     1
 78
     8
170
     0
171
     2
172
     1
173
     1
174
     0
175
     0
176
   256
177
   256
178
   201
  0
ENDTAB
  0
ENDSEC
  0
SECTION
  2
BLOCKS
  0
BLOCK
  8
0
  2
$MODEL_SPACE
 70
     0
 10
0.0
 20
0.0
 30
0.0
  3
$MODEL_SPACE
  1

  0
ENDBLK
  5
1A
  8
0
  0
BLOCK
 67
     1
  8
0
  2
$PAPER_SPACE
 70
     0
 10
0.0
 20
0.0
 30
0.0
  3
$PAPER_SPACE
  1

  0
ENDBLK
  5
17
 67
     1
  8
0
  0
BLOCK
  8
0
  2
_OPEN30
 70
     0
 10
0.0
 20
0.0
 30
0.0
  3
_OPEN30
  1

  0
LINE
  5
44
  8
0
  6
BYBLOCK
 62
     0
 10
-1.0
 20
0.26794919
 30
0.0
 11
0.0
 21
0.0
 31
0.0
  0
LINE
  5
45
  8
0
  6
BYBLOCK
 62
     0
 10
0.0
 20
0.0
 30
0.0
 11
-1.0
 21
-0.26794919
 31
0.0
  0
LINE
  5
46
  8
0
  6
BYBLOCK
 62
     0
 10
0.0
 20
0.0
 30
0.0
 11
-1.0
 21
0.0
 31
0.0
  0
ENDBLK
  5
47
  8
0
  0
BLOCK
  8
0
  2
XREF1
 70
    36
 10
0.0
 20
0.0
 30
0.0
  3
XREF1
  1
D:\ACLT\FORMAT\KAWAJUN(9)図面用.dwg
  0
ENDBLK
  5
5D
  8
0
  0
BLOCK
  8
0
  2
A3WAKUDAKE
 70
    36
 10
0.0
 20
0.0
 30
0.0
  3
A3WAKUDAKE
  1
D:\ACLT\FORMAT\A3WAKUdake.dwg
  0
ENDBLK
  5
6A0
  8
0
  0
BLOCK
  8
0
  2
*U23
 70
     1
 10
0.0
 20
0.0
 30
0.0
  3
*U23
  1

  0
TEXT
  5
C085
  8
1TEXT
 62
   201
 10
968.27766516632505
 20
-668.90716089323234
 30
0.0
 40
4.5499999999999989
  1
53
 50
90.0
  0
ENDBLK
  5
C087
  8
0
  0
BLOCK
  8
0
  2
*U24
 70
     1
 10
0.0
 20
0.0
 30
0.0
  3
*U24
  1

  0
TEXT
  5
C0AC
  8
1TEXT
 62
   201
 10
1013.354331832992
 20
-703.82408159774445
 30
0.0
 40
4.5499999999999989
  1
80
  0
ENDBLK
  5
C0AE
  8
0
  0
BLOCK
  8
0
  2
*U25
 70
     1
 10
0.0
 20
0.0
 30
0.0
  3
*U25
  1

  0
TEXT
  5
C0B6
  8
1TEXT
 62
   201
 10
968.2776651663246
 20
-2240.1183612816621
 30
0.0
 40
4.5499999999999989
  1
□53
 50
90.0
  0
ENDBLK
  5
C0B8
  8
0
  0
ENDSEC
  0
SECTION
  2
ENTITIES
  0
LINE
  5
4C5
  8
01
 10
854.18766916632455
 20
-570.73670159774338
 30
0.0
 11
854.18766916632455
 21
-718.07002159774402
 31
0.0
  0
LINE
  5
4C6
  8
01
 10
814.18766916632467
 20
-570.73670159774338
 30
0.0
 11
814.18766916632467
 21
-718.07002159774402
 31
0.0
  0
LINE
  5
4C8
  8
01
 10
712.78767516632524
 20
-577.23408159774397
 30
0.0
 11
712.78767516632524
 21
-600.33405159774327
 31
0.0
  0
LINE
  5
4C9
  8
01
 10
711.18766916632467
 20
-577.23408159774397
 30
0.0
 11
711.18766916632467
 21
-600.23408159774397
 31
0.0
  0
LINE
  5
4CA
  8
01
 10
713.58767816632553
 20
-577.23408159774397
 30
0.0
 11
713.58767816632553
 21
-707.23408159774397
 31
0.0
  0
LINE
  5
4CC
  8
01
 10
715.18766916632467
 20
-577.23408159774397
 30
0.0
 11
715.18766916632467
 21
-707.23408159774397
 31
0.0
  0
LINE
  5
4CF
  8
01
 10
712.18766916632455
 20
-679.23408159774397
 30
0.0
 11
690.68767316632398
 21
-679.23408159774397
 31
0.0
  0
LINE
  5
4D2
  8
01
 10
721.18766916632285
 20
-631.23408159774408
 30
0.0
 11
715.18766916632467
 21
-631.23408159774408
 31
0.0
  0
LINE
  5
4D3
  8
01
 10
726.18766916632455
 20
-636.23408159774397
 30
0.0
 11
716.18766916632467
 21
-636.23408159774397
 31
0.0
  0
POLYLINE
  5
4D4
  8
01
 10
726.18766916632455
 20
-634.80250159774369
 30
0.0
 66
     1
 70
     8
  0
VERTEX
  8
01
  5
C0B9
 10
726.188
 20
-634.803
 30
0.000000
  70
    32
  0
VERTEX
  8
01
  5
C0BA
 10
726.186
 20
-634.715
 30
0.000000
  70
    32
  0
VERTEX
  8
01
  5
C0BB
 10
726.182
 20
-634.627
 30
0.000000
  70
    32
  0
VERTEX
  8
01
  5
C0BC
 10
726.174
 20
-634.540
 30
0.000000
  70
    32
  0
VERTEX
  8
01
  5
C0BD
 10
726.164
 20
-634.453
 30
0.000000
  70
    32
  0
VERTEX
  8
01
  5
C0BE
 10
726.150
 20
-634.366
 30
0.000000
  70
    32
  0
VERTEX
  8
01
  5
C0BF
 10
726.134
 20
-634.279
 30
0.000000
  70
    32
  0
VERTEX
  8
01
  5
C0C0
 10
726.114
 20
-634.192
 30
0.000000
  70
    32
  0
VERTEX
  8
01
  5
C0C1
 10
726.092
 20
-634.106
 30
0.000000
  70
    32
  0
VERTEX
  8
01
  5
C0C2
 10
726.066
 20
-634.021
 30
0.000000
  70
    32
  0
VERTEX
  8
01
  5
C0C3
 10
726.038
 20
-633.935
 30
0.000000
  70
    32
  0
VERTEX
  8
01
  5
C0C4
 10
726.007
 20
-633.851
 30
0.000000
  70
    32
  0
VERTEX
  8
01
  5
C0C5
 10
725.972
 20
-633.767
 30
0.000000
  70
    32
  0
VERTEX
  8
01
  5
C0C6
 10
725.935
 20
-633.683
 30
0.000000
  70
    32
  0
VERTEX
  8
01
  5
C0C7
 10
725.895
 20
-633.600
 30
0.000000
  70
    32
  0
VERTEX
  8
01
  5
C0C8
 10
725.853
 20
-633.518
 30
0.000000
  70
    32
  0
VERTEX
  8
01
  5
C0C9
 10
725.807
 20
-633.437
 30
0.000000
  70
    32
  0
VERTEX
  8
01
  5
C0CA
 10
725.759
 20
-633.356
 30
0.000000
  70
    32
  0
VERTEX
  8
01
  5
C0CB
 10
725.708
 20
-633.277
 30
0.000000
  70
    32
  0
VERTEX
  8
01
  5
C0CC
 10
725.654
 20
-633.198
 30
0.000000
  70
    32
  0
VERTEX
  8
01
  5
C0CD
 10
725.597
 20
-633.120
 30
0.000000
  70
    32
  0
VERTEX
  8
01
  5
C0CE
 10
725.538
 20
-633.044
 30
0.000000
  70
    32
  0
VERTEX
  8
01
  5
C0CF
 10
725.476
 20
-632.968
 30
0.000000
  70
    32
  0
VERTEX
  8
01
  5
C0D0
 10
725.412
 20
-632.893
 30
0.000000
  70
    32
  0
VERTEX
  8
01
  5
C0D1
 10
725.345
 20
-632.820
 30
0.000000
  70
    32
  0
VERTEX
  8
01
  5
C0D2
 10
725.276
 20
-632.748
 30
0.000000
  70
    32
  0
VERTEX
  8
01
  5
C0D3
 10
725.204
 20
-632.677
 30
0.000000
  70
    32
  0
VERTEX
  8
01
  5
C0D4
 10
725.129
 20
-632.607
 30
0.000000
  70
    32
  0
VERTEX
  8
01
  5
C0D5
 10
725.053
 20
-632.539
 30
0.000000
  70
    32
  0
VERTEX
  8
01
  5
C0D6
 10
724.974
 20
-632.472
 30
0.000000
  70
    32
  0
VERTEX
  8
01
  5
C0D7
 10
724.892
 20
-632.406
 30
0.000000
  70
    32
  0
VERTEX
  8
01
  5
C0D8
 10
724.809
 20
-632.342
 30
0.000000
  70
    32
  0
VERTEX
  8
01
  5
C0D9
 10
724.723
 20
-632.279
 30
0.000000
  70
    32
  0
VERTEX
  8
01
  5
C0DA
 10
724.635
 20
-632.218
 30
0.000000
  70
    32
  0
VERTEX
  8
01
  5
C0DB
 10
724.545
 20
-632.158
 30
0.000000
  70
    32
  0
VERTEX
  8
01
  5
C0DC
 10
724.454
 20
-632.100
 30
0.000000
  70
    32
  0
VERTEX
  8
01
  5
C0DD
 10
724.360
 20
-632.044
 30
0.000000
  70
    32
  0
VERTEX
  8
01
  5
C0DE
 10
724.264
 20
-631.989
 30
0.000000
  70
    32
  0
VERTEX
  8
01
  5
C0DF
 10
724.166
 20
-631.936
 30
0.000000
  70
    32
  0
VERTEX
  8
01
  5
C0E0
 10
724.067
 20
-631.885
 30
0.000000
  70
    32
  0
VERTEX
  8
01
  5
C0E1
 10
723.966
 20
-631.835
 30
0.000000
  70
    32
  0
VERTEX
  8
01
  5
C0E2
 10
723.863
 20
-631.788
 30
0.000000
  70
    32
  0
VERTEX
  8
01
  5
C0E3
 10
723.758
 20
-631.742
 30
0.000000
  70
    32
  0
VERTEX
  8
01
  5
C0E4
 10
723.652
 20
-631.698
 30
0.000000
  70
    32
  0
VERTEX
  8
01
  5
C0E5
 10
723.545
 20
-631.655
 30
0.000000
  70
    32
  0
VERTEX
  8
01
  5
C0E6
 10
723.436
 20
-631.615
 30
0.000000
  70
    32
  0
VERTEX
  8
01
  5
C0E7
 10
723.325
 20
-631.577
 30
0.000000
  70
    32
  0
VERTEX
  8
01
  5
C0E8
 10
723.214
 20
-631.540
 30
0.000000
  70
    32
  0
VERTEX
  8
01
  5
C0E9
 10
723.101
 20
-631.506
 30
0.000000
  70
    32
  0
VERTEX
  8
01
  5
C0EA
 10
722.987
 20
-631.473
 30
0.000000
  70
    32
  0
VERTEX
  8
01
  5
C0EB
 10
722.872
 20
-631.443
 30
0.000000
  70
    32
  0
VERTEX
  8
01
  5
C0EC
 10
722.756
 20
-631.414
 30
0.000000
  70
    32
  0
VERTEX
  8
01
  5
C0ED
 10
722.639
 20
-631.388
 30
0.000000
  70
    32
  0
VERTEX
  8
01
  5
C0EE
 10
722.521
 20
-631.363
 30
0.000000
  70
    32
  0
VERTEX
  8
01
  5
C0EF
 10
722.403
 20
-631.341
 30
0.000000
  70
    32
  0
VERTEX
  8
01
  5
C0F0
 10
722.283
 20
-631.321
 30
0.000000
  70
    32
  0
VERTEX
  8
01
  5
C0F1
 10
722.163
 20
-631.303
 30
0.000000
  70
    32
  0
VERTEX
  8
01
  5
C0F2
 10
722.042
 20
-631.287
 30
0.000000
  70
    32
  0
VERTEX
  8
01
  5
C0F3
 10
721.921
 20
-631.273
 30
0.000000
  70
    32
  0
VERTEX
  8
01
  5
C0F4
 10
721.800
 20
-631.261
 30
0.000000
  70
    32
  0
VERTEX
  8
01
  5
C0F5
 10
721.678
 20
-631.251
 30
0.000000
  70
    32
  0
VERTEX
  8
01
  5
C0F6
 10
721.555
 20
-631.244
 30
0.000000
  70
    32
  0
VERTEX
  8
01
  5
C0F7
 10
721.433
 20
-631.238
 30
0.000000
  70
    32
  0
VERTEX
  8
01
  5
C0F8
 10
721.310
 20
-631.235
 30
0.000000
  70
    32
  0
VERTEX
  8
01
  5
C0F9
 10
721.188
 20
-631.234
 30
0.000000
  70
    32
  0
VERTEX
  8
01
  5
C0FA
 10
721.065
 20
-631.235
 30
0.000000
  70
    32
  0
VERTEX
  8
01
  5
C0FB
 10
720.942
 20
-631.238
 30
0.000000
  70
    32
  0
VERTEX
  8
01
  5
C0FC
 10
720.820
 20
-631.244
 30
0.000000
  70
    32
  0
VERTEX
  8
01
  5
C0FD
 10
720.698
 20
-631.251
 30
0.000000
  70
    32
  0
VERTEX
  8
01
  5
C0FE
 10
720.576
 20
-631.261
 30
0.000000
  70
    32
  0
VERTEX
  8
01
  5
C0FF
 10
720.454
 20
-631.273
 30
0.000000
  70
    32
  0
VERTEX
  8
01
  5
C100
 10
720.333
 20
-631.287
 30
0.000000
  70
    32
  0
VERTEX
  8
01
  5
C101
 10
720.212
 20
-631.303
 30
0.000000
  70
    32
  0
VERTEX
  8
01
  5
C102
 10
720.092
 20
-631.321
 30
0.000000
  70
    32
  0
VERTEX
  8
01
  5
C103
 10
719.973
 20
-631.341
 30
0.000000
  70
    32
  0
VERTEX
  8
01
  5
C104
 10
719.854
 20
-631.363
 30
0.000000
  70
    32
  0
VERTEX
  8
01
  5
C105
 10
719.736
 20
-631.388
 30
0.000000
  70
    32
  0
VERTEX
  8
01
  5
C106
 10
719.619
 20
-631.414
 30
0.000000
  70
    32
  0
VERTEX
  8
01
  5
C107
 10
719.503
 20
-631.443
 30
0.000000
  70
    32
  0
VERTEX
  8
01
  5
C108
 10
719.388
 20
-631.473
 30
0.000000
  70
    32
  0
VERTEX
  8
01
  5
C109
 10
719.274
 20
-631.506
 30
0.000000
  70
    32
  0
VERTEX
  8
01
  5
C10A
 10
719.161
 20
-631.540
 30
0.000000
  70
    32
  0
VERTEX
  8
01
  5
C10B
 10
719.050
 20
-631.577
 30
0.000000
  70
    32
  0
VERTEX
  8
01
  5
C10C
 10
718.940
 20
-631.615
 30
0.000000
  70
    32
  0
VERTEX
  8
01
  5
C10D
 10
718.831
 20
-631.655
 30
0.000000
  70
    32
  0
VERTEX
  8
01
  5
C10E
 10
718.723
 20
-631.698
 30
0.000000
  70
    32
  0
VERTEX
  8
01
  5
C10F
 10
718.617
 20
-631.742
 30
0.000000
  70
    32
  0
VERTEX
  8
01
  5
C110
 10
718.513
 20
-631.788
 30
0.000000
  70
    32
  0
VERTEX
  8
01
  5
C111
 10
718.410
 20
-631.835
 30
0.000000
  70
    32
  0
VERTEX
  8
01
  5
C112
 10
718.309
 20
-631.885
 30
0.000000
  70
    32
  0
VERTEX
  8
01
  5
C113
 10
718.209
 20
-631.936
 30
0.000000
  70
    32
  0
VERTEX
  8
01
  5
C114
 10
718.112
 20
-631.989
 30
0.000000
  70
    32
  0
VERTEX
  8
01
  5
C115
 10
718.016
 20
-632.044
 30
0.000000
  70
    32
  0
VERTEX
  8
01
  5
C116
 10
717.922
 20
-632.100
 30
0.000000
  70
    32
  0
VERTEX
  8
01
  5
C117
 10
717.830
 20
-632.158
 30
0.000000
  70
    32
  0
VERTEX
  8
01
  5
C118
 10
717.740
 20
-632.218
 30
0.000000
  70
    32
  0
VERTEX
  8
01
  5
C119
 10
717.652
 20
-632.279
 30
0.000000
  70
    32
  0
VERTEX
  8
01
  5
C11A
 10
717.566
 20
-632.342
 30
0.000000
  70
    32
  0
VERTEX
  8
01
  5
C11B
 10
717.483
 20
-632.406
 30
0.000000
  70
    32
  0
VERTEX
  8
01
  5
C11C
 10
717.402
 20
-632.472
 30
0.000000
  70
    32
  0
VERTEX
  8
01
  5
C11D
 10
717.323
 20
-632.539
 30
0.000000
  70
    32
  0
VERTEX
  8
01
  5
C11E
 10
717.246
 20
-632.607
 30
0.000000
  70
    32
  0
VERTEX
  8
01
  5
C11F
 10
717.172
 20
-632.677
 30
0.000000
  70
    32
  0
VERTEX
  8
01
  5
C120
 10
717.100
 20
-632.748
 30
0.000000
  70
    32
  0
VERTEX
  8
01
  5
C121
 10
717.030
 20
-632.820
 30
0.000000
  70
    32
  0
VERTEX
  8
01
  5
C122
 10
716.963
 20
-632.893
 30
0.000000
  70
    32
  0
VERTEX
  8
01
  5
C123
 10
716.899
 20
-632.968
 30
0.000000
  70
    32
  0
VERTEX
  8
01
  5
C124
 10
716.837
 20
-633.044
 30
0.000000
  70
    32
  0
VERTEX
  8
01
  5
C125
 10
716.778
 20
-633.120
 30
0.000000
  70
    32
  0
VERTEX
  8
01
  5
C126
 10
716.722
 20
-633.198
 30
0.000000
  70
    32
  0
VERTEX
  8
01
  5
C127
 10
716.668
 20
-633.277
 30
0.000000
  70
    32
  0
VERTEX
  8
01
  5
C128
 10
716.617
 20
-633.356
 30
0.000000
  70
    32
  0
VERTEX
  8
01
  5
C129
 10
716.568
 20
-633.437
 30
0.000000
  70
    32
  0
VERTEX
  8
01
  5
C12A
 10
716.523
 20
-633.518
 30
0.000000
  70
    32
  0
VERTEX
  8
01
  5
C12B
 10
716.480
 20
-633.600
 30
0.000000
  70
    32
  0
VERTEX
  8
01
  5
C12C
 10
716.440
 20
-633.683
 30
0.000000
  70
    32
  0
VERTEX
  8
01
  5
C12D
 10
716.403
 20
-633.767
 30
0.000000
  70
    32
  0
VERTEX
  8
01
  5
C12E
 10
716.369
 20
-633.851
 30
0.000000
  70
    32
  0
VERTEX
  8
01
  5
C12F
 10
716.338
 20
-633.935
 30
0.000000
  70
    32
  0
VERTEX
  8
01
  5
C130
 10
716.309
 20
-634.021
 30
0.000000
  70
    32
  0
VERTEX
  8
01
  5
C131
 10
716.284
 20
-634.106
 30
0.000000
  70
    32
  0
VERTEX
  8
01
  5
C132
 10
716.261
 20
-634.192
 30
0.000000
  70
    32
  0
VERTEX
  8
01
  5
C133
 10
716.242
 20
-634.279
 30
0.000000
  70
    32
  0
VERTEX
  8
01
  5
C134
 10
716.225
 20
-634.366
 30
0.000000
  70
    32
  0
VERTEX
  8
01
  5
C135
 10
716.212
 20
-634.453
 30
0.000000
  70
    32
  0
VERTEX
  8
01
  5
C136
 10
716.201
 20
-634.540
 30
0.000000
  70
    32
  0
VERTEX
  8
01
  5
C137
 10
716.194
 20
-634.627
 30
0.000000
  70
    32
  0
VERTEX
  8
01
  5
C138
 10
716.189
 20
-634.715
 30
0.000000
  70
    32
  0
VERTEX
  8
01
  5
C139
 10
716.188
 20
-634.803
 30
0.000000
  70
    32
  0
SEQEND
  8
01
  5
C13A
  0
LINE
  5
4D5
  8
01
 10
721.18766916632455
 20
-651.23408159774408
 30
0.0
 11
715.18766916632467
 21
-651.23408159774408
 31
0.0
  0
LINE
  5
4D6
  8
01
 10
726.18766916632455
 20
-646.23408159774408
 30
0.0
 11
716.18766916632467
 21
-646.23408159774408
 31
0.0
  0
POLYLINE
  5
4D7
  8
01
 10
726.18766916632455
 20
-647.66566159774368
 30
0.0
 66
     1
 70
     8
  0
VERTEX
  8
01
  5
C13B
 10
726.188
 20
-647.666
 30
0.000000
  70
    32
  0
VERTEX
  8
01
  5
C13C
 10
726.186
 20
-647.753
 30
0.000000
  70
    32
  0
VERTEX
  8
01
  5
C13D
 10
726.182
 20
-647.841
 30
0.000000
  70
    32
  0
VERTEX
  8
01
  5
C13E
 10
726.174
 20
-647.928
 30
0.000000
  70
    32
  0
VERTEX
  8
01
  5
C13F
 10
726.164
 20
-648.015
 30
0.000000
  70
    32
  0
VERTEX
  8
01
  5
C140
 10
726.150
 20
-648.102
 30
0.000000
  70
    32
  0
VERTEX
  8
01
  5
C141
 10
726.134
 20
-648.189
 30
0.000000
  70
    32
  0
VERTEX
  8
01
  5
C142
 10
726.114
 20
-648.276
 30
0.000000
  70
    32
  0
VERTEX
  8
01
  5
C143
 10
726.092
 20
-648.362
 30
0.000000
  70
    32
  0
VERTEX
  8
01
  5
C144
 10
726.066
 20
-648.448
 30
0.000000
  70
    32
  0
VERTEX
  8
01
  5
C145
 10
726.038
 20
-648.533
 30
0.000000
  70
    32
  0
VERTEX
  8
01
  5
C146
 10
726.007
 20
-648.617
 30
0.000000
  70
    32
  0
VERTEX
  8
01
  5
C147
 10
725.972
 20
-648.702
 30
0.000000
  70
    32
  0
VERTEX
  8
01
  5
C148
 10
725.935
 20
-648.785
 30
0.000000
  70
    32
  0
VERTEX
  8
01
  5
C149
 10
725.895
 20
-648.868
 30
0.000000
  70
    32
  0
VERTEX
  8
01
  5
C14A
 10
725.853
 20
-648.950
 30
0.000000
  70
    32
  0
VERTEX
  8
01
  5
C14B
 10
725.807
 20
-649.031
 30
0.000000
  70
    32
  0
VERTEX
  8
01
  5
C14C
 10
725.759
 20
-649.112
 30
0.000000
  70
    32
  0
VERTEX
  8
01
  5
C14D
 10
725.708
 20
-649.191
 30
0.000000
  70
    32
  0
VERTEX
  8
01
  5
C14E
 10
725.654
 20
-649.270
 30
0.000000
  70
    32
  0
VERTEX
  8
01
  5
C14F
 10
725.597
 20
-649.348
 30
0.000000
  70
    32
  0
VERTEX
  8
01
  5
C150
 10
725.538
 20
-649.425
 30
0.000000
  70
    32
  0
VERTEX
  8
01
  5
C151
 10
725.476
 20
-649.500
 30
0.000000
  70
    32
  0
VERTEX
  8
01
  5
C152
 10
725.412
 20
-649.575
 30
0.000000
  70
    32
  0
VERTEX
  8
01
  5
C153
 10
725.345
 20
-649.648
 30
0.000000
  70
    32
  0
VERTEX
  8
01
  5
C154
 10
725.276
 20
-649.720
 30
0.000000
  70
    32
  0
VERTEX
  8
01
  5
C155
 10
725.204
 20
-649.791
 30
0.000000
  70
    32
  0
VERTEX
  8
01
  5
C156
 10
725.129
 20
-649.861
 30
0.000000
  70
    32
  0
VERTEX
  8
01
  5
C157
 10
725.053
 20
-649.929
 30
0.000000
  70
    32
  0
VERTEX
  8
01
  5
C158
 10
724.974
 20
-649.996
 30
0.000000
  70
    32
  0
VERTEX
  8
01
  5
C159
 10
724.892
 20
-650.062
 30
0.000000
  70
    32
  0
VERTEX
  8
01
  5
C15A
 10
724.809
 20
-650.126
 30
0.000000
  70
    32
  0
VERTEX
  8
01
  5
C15B
 10
724.723
 20
-650.189
 30
0.000000
  70
    32
  0
VERTEX
  8
01
  5
C15C
 10
724.635
 20
-650.250
 30
0.000000
  70
    32
  0
VERTEX
  8
01
  5
C15D
 10
724.545
 20
-650.310
 30
0.000000
  70
    32
  0
VERTEX
  8
01
  5
C15E
 10
724.454
 20
-650.368
 30
0.000000
  70
    32
  0
VERTEX
  8
01
  5
C15F
 10
724.360
 20
-650.424
 30
0.000000
  70
    32
  0
VERTEX
  8
01
  5
C160
 10
724.264
 20
-650.479
 30
0.000000
  70
    32
  0
VERTEX
  8
01
  5
C161
 10
724.166
 20
-650.532
 30
0.000000
  70
    32
  0
VERTEX
  8
01
  5
C162
 10
724.067
 20
-650.583
 30
0.000000
  70
    32
  0
VERTEX
  8
01
  5
C163
 10
723.966
 20
-650.633
 30
0.000000
  70
    32
  0
VERTEX
  8
01
  5
C164
 10
723.863
 20
-650.680
 30
0.000000
  70
    32
  0
VERTEX
  8
01
  5
C165
 10
723.758
 20
-650.726
 30
0.000000
  70
    32
  0
VERTEX
  8
01
  5
C166
 10
723.652
 20
-650.770
 30
0.000000
  70
    32
  0
VERTEX
  8
01
  5
C167
 10
723.545
 20
-650.813
 30
0.000000
  70
    32
  0
VERTEX
  8
01
  5
C168
 10
723.436
 20
-650.853
 30
0.000000
  70
    32
  0
VERTEX
  8
01
  5
C169
 10
723.325
 20
-650.891
 30
0.000000
  70
    32
  0
VERTEX
  8
01
  5
C16A
 10
723.214
 20
-650.928
 30
0.000000
  70
    32
  0
VERTEX
  8
01
  5
C16B
 10
723.101
 20
-650.962
 30
0.000000
  70
    32
  0
VERTEX
  8
01
  5
C16C
 10
722.987
 20
-650.995
 30
0.000000
  70
    32
  0
VERTEX
  8
01
  5
C16D
 10
722.872
 20
-651.025
 30
0.000000
  70
    32
  0
VERTEX
  8
01
  5
C16E
 10
722.756
 20
-651.054
 30
0.000000
  70
    32
  0
VERTEX
  8
01
  5
C16F
 10
722.639
 20
-651.080
 30
0.000000
  70
    32
  0
VERTEX
  8
01
  5
C170
 10
722.521
 20
-651.105
 30
0.000000
  70
    32
  0
VERTEX
  8
01
  5
C171
 10
722.403
 20
-651.127
 30
0.000000
  70
    32
  0
VERTEX
  8
01
  5
C172
 10
722.283
 20
-651.147
 30
0.000000
  70
    32
  0
VERTEX
  8
01
  5
C173
 10
722.163
 20
-651.166
 30
0.000000
  70
    32
  0
VERTEX
  8
01
  5
C174
 10
722.042
 20
-651.182
 30
0.000000
  70
    32
  0
VERTEX
  8
01
  5
C175
 10
721.921
 20
-651.195
 30
0.000000
  70
    32
  0
VERTEX
  8
01
  5
C176
 10
721.800
 20
-651.207
 30
0.000000
  70
    32
  0
VERTEX
  8
01
  5
C177
 10
721.678
 20
-651.217
 30
0.000000
  70
    32
  0
VERTEX
  8
01
  5
C178
 10
721.555
 20
-651.224
 30
0.000000
  70
    32
  0
VERTEX
  8
01
  5
C179
 10
721.433
 20
-651.230
 30
0.000000
  70
    32
  0
VERTEX
  8
01
  5
C17A
 10
721.310
 20
-651.233
 30
0.000000
  70
    32
  0
VERTEX
  8
01
  5
C17B
 10
721.188
 20
-651.234
 30
0.000000
  70
    32
  0
VERTEX
  8
01
  5
C17C
 10
721.065
 20
-651.233
 30
0.000000
  70
    32
  0
VERTEX
  8
01
  5
C17D
 10
720.942
 20
-651.230
 30
0.000000
  70
    32
  0
VERTEX
  8
01
  5
C17E
 10
720.820
 20
-651.224
 30
0.000000
  70
    32
  0
VERTEX
  8
01
  5
C17F
 10
720.698
 20
-651.217
 30
0.000000
  70
    32
  0
VERTEX
  8
01
  5
C180
 10
720.576
 20
-651.207
 30
0.000000
  70
    32
  0
VERTEX
  8
01
  5
C181
 10
720.454
 20
-651.195
 30
0.000000
  70
    32
  0
VERTEX
  8
01
  5
C182
 10
720.333
 20
-651.182
 30
0.000000
  70
    32
  0
VERTEX
  8
01
  5
C183
 10
720.212
 20
-651.166
 30
0.000000
  70
    32
  0
VERTEX
  8
01
  5
C184
 10
720.092
 20
-651.147
 30
0.000000
  70
    32
  0
VERTEX
  8
01
  5
C185
 10
719.973
 20
-651.127
 30
0.000000
  70
    32
  0
VERTEX
  8
01
  5
C186
 10
719.854
 20
-651.105
 30
0.000000
  70
    32
  0
VERTEX
  8
01
  5
C187
 10
719.736
 20
-651.080
 30
0.000000
  70
    32
  0
VERTEX
  8
01
  5
C188
 10
719.619
 20
-651.054
 30
0.000000
  70
    32
  0
VERTEX
  8
01
  5
C189
 10
719.503
 20
-651.025
 30
0.000000
  70
    32
  0
VERTEX
  8
01
  5
C18A
 10
719.388
 20
-650.995
 30
0.000000
  70
    32
  0
VERTEX
  8
01
  5
C18B
 10
719.274
 20
-650.962
 30
0.000000
  70
    32
  0
VERTEX
  8
01
  5
C18C
 10
719.161
 20
-650.928
 30
0.000000
  70
    32
  0
VERTEX
  8
01
  5
C18D
 10
719.050
 20
-650.891
 30
0.000000
  70
    32
  0
VERTEX
  8
01
  5
C18E
 10
718.940
 20
-650.853
 30
0.000000
  70
    32
  0
VERTEX
  8
01
  5
C18F
 10
718.831
 20
-650.813
 30
0.000000
  70
    32
  0
VERTEX
  8
01
  5
C190
 10
718.723
 20
-650.770
 30
0.000000
  70
    32
  0
VERTEX
  8
01
  5
C191
 10
718.617
 20
-650.726
 30
0.000000
  70
    32
  0
VERTEX
  8
01
  5
C192
 10
718.513
 20
-650.680
 30
0.000000
  70
    32
  0
VERTEX
  8
01
  5
C193
 10
718.410
 20
-650.633
 30
0.000000
  70
    32
  0
VERTEX
  8
01
  5
C194
 10
718.309
 20
-650.583
 30
0.000000
  70
    32
  0
VERTEX
  8
01
  5
C195
 10
718.209
 20
-650.532
 30
0.000000
  70
    32
  0
VERTEX
  8
01
  5
C196
 10
718.112
 20
-650.479
 30
0.000000
  70
    32
  0
VERTEX
  8
01
  5
C197
 10
718.016
 20
-650.424
 30
0.000000
  70
    32
  0
VERTEX
  8
01
  5
C198
 10
717.922
 20
-650.368
 30
0.000000
  70
    32
  0
VERTEX
  8
01
  5
C199
 10
717.830
 20
-650.310
 30
0.000000
  70
    32
  0
VERTEX
  8
01
  5
C19A
 10
717.740
 20
-650.250
 30
0.000000
  70
    32
  0
VERTEX
  8
01
  5
C19B
 10
717.652
 20
-650.189
 30
0.000000
  70
    32
  0
VERTEX
  8
01
  5
C19C
 10
717.566
 20
-650.126
 30
0.000000
  70
    32
  0
VERTEX
  8
01
  5
C19D
 10
717.483
 20
-650.062
 30
0.000000
  70
    32
  0
VERTEX
  8
01
  5
C19E
 10
717.402
 20
-649.996
 30
0.000000
  70
    32
  0
VERTEX
  8
01
  5
C19F
 10
717.323
 20
-649.929
 30
0.000000
  70
    32
  0
VERTEX
  8
01
  5
C1A0
 10
717.246
 20
-649.861
 30
0.000000
  70
    32
  0
VERTEX
  8
01
  5
C1A1
 10
717.172
 20
-649.791
 30
0.000000
  70
    32
  0
VERTEX
  8
01
  5
C1A2
 10
717.100
 20
-649.720
 30
0.000000
  70
    32
  0
VERTEX
  8
01
  5
C1A3
 10
717.030
 20
-649.648
 30
0.000000
  70
    32
  0
VERTEX
  8
01
  5
C1A4
 10
716.963
 20
-649.575
 30
0.000000
  70
    32
  0
VERTEX
  8
01
  5
C1A5
 10
716.899
 20
-649.500
 30
0.000000
  70
    32
  0
VERTEX
  8
01
  5
C1A6
 10
716.837
 20
-649.425
 30
0.000000
  70
    32
  0
VERTEX
  8
01
  5
C1A7
 10
716.778
 20
-649.348
 30
0.000000
  70
    32
  0
VERTEX
  8
01
  5
C1A8
 10
716.722
 20
-649.270
 30
0.000000
  70
    32
  0
VERTEX
  8
01
  5
C1A9
 10
716.668
 20
-649.191
 30
0.000000
  70
    32
  0
VERTEX
  8
01
  5
C1AA
 10
716.617
 20
-649.112
 30
0.000000
  70
    32
  0
VERTEX
  8
01
  5
C1AB
 10
716.568
 20
-649.031
 30
0.000000
  70
    32
  0
VERTEX
  8
01
  5
C1AC
 10
716.523
 20
-648.950
 30
0.000000
  70
    32
  0
VERTEX
  8
01
  5
C1AD
 10
716.480
 20
-648.868
 30
0.000000
  70
    32
  0
VERTEX
  8
01
  5
C1AE
 10
716.440
 20
-648.785
 30
0.000000
  70
    32
  0
VERTEX
  8
01
  5
C1AF
 10
716.403
 20
-648.702
 30
0.000000
  70
    32
  0
VERTEX
  8
01
  5
C1B0
 10
716.369
 20
-648.617
 30
0.000000
  70
    32
  0
VERTEX
  8
01
  5
C1B1
 10
716.338
 20
-648.533
 30
0.000000
  70
    32
  0
VERTEX
  8
01
  5
C1B2
 10
716.309
 20
-648.448
 30
0.000000
  70
    32
  0
VERTEX
  8
01
  5
C1B3
 10
716.284
 20
-648.362
 30
0.000000
  70
    32
  0
VERTEX
  8
01
  5
C1B4
 10
716.261
 20
-648.276
 30
0.000000
  70
    32
  0
VERTEX
  8
01
  5
C1B5
 10
716.242
 20
-648.189
 30
0.000000
  70
    32
  0
VERTEX
  8
01
  5
C1B6
 10
716.225
 20
-648.102
 30
0.000000
  70
    32
  0
VERTEX
  8
01
  5
C1B7
 10
716.212
 20
-648.015
 30
0.000000
  70
    32
  0
VERTEX
  8
01
  5
C1B8
 10
716.201
 20
-647.928
 30
0.000000
  70
    32
  0
VERTEX
  8
01
  5
C1B9
 10
716.194
 20
-647.841
 30
0.000000
  70
    32
  0
VERTEX
  8
01
  5
C1BA
 10
716.189
 20
-647.753
 30
0.000000
  70
    32
  0
VERTEX
  8
01
  5
C1BB
 10
716.188
 20
-647.666
 30
0.000000
  70
    32
  0
SEQEND
  8
01
  5
C1BC
  0
LINE
  5
4D8
  8
01
 10
726.18766916632455
 20
-634.80250159774357
 30
0.0
 11
726.18766916632455
 21
-647.66566159774447
 31
0.0
  0
LINE
  5
4D9
  8
01
 10
716.18766916632467
 20
-634.80250159774357
 30
0.0
 11
716.18766916632467
 21
-647.66566159774175
 31
0.0
  0
LINE
  5
4DA
  8
01
 10
712.18765416632505
 20
-601.23408159774408
 30
0.0
 11
711.18765416632505
 21
-600.23408159774397
 31
0.0
  0
LINE
  5
4DB
  8
01
 10
713.58767116632487
 20
-601.13410159774412
 30
0.0
 11
712.78769016632475
 21
-600.33412159774343
 31
0.0
  0
LINE
  5
4DC
  8
01
 10
713.58767116632487
 20
-683.33409159774328
 30
0.0
 11
712.78766816632469
 21
-684.13407159774385
 31
0.0
  0
LINE
  5
4DD
  8
01
 10
712.18761616632491
 20
-683.23411159774332
 30
0.0
 11
711.18763116632454
 21
-684.23411159774332
 31
0.0
  0
LINE
  5
4DE
  8
01
 10
715.18766916632467
 20
-707.23408159774397
 30
0.0
 11
711.18766916632467
 21
-707.23408159774397
 31
0.0
  0
LINE
  5
4DF
  8
01
 10
712.78767516632524
 20
-707.23408159774397
 30
0.0
 11
712.78767516632524
 21
-684.13407159774385
 31
0.0
  0
LINE
  5
4E0
  8
01
 10
711.18766916632467
 20
-707.23408159774397
 30
0.0
 11
711.18766916632467
 21
-684.23408159774408
 31
0.0
  0
LINE
  5
4E1
  8
01
 10
712.18766916632455
 20
-601.23408159774408
 30
0.0
 11
712.18766916632455
 21
-683.23408159774397
 31
0.0
  0
LINE
  5
4E3
  8
01
 10
715.18766916632467
 20
-577.23408159774397
 30
0.0
 11
711.18766916632467
 21
-577.23408159774397
 31
0.0
  0
LINE
  5
4E6
  8
01
 10
821.68766916632455
 20
-583.23408159774397
 30
0.0
 11
821.68766916632455
 21
-701.23408159774408
 31
0.0
  0
LINE
  5
4E7
  8
01
 10
846.68766916632455
 20
-583.23408159774397
 30
0.0
 11
846.68766916632455
 21
-701.23408159774408
 31
0.0
  0
ARC
  5
4E8
  8
01
 10
840.68766916632455
 20
-701.23408159774408
 30
0.0
 40
6.0
 50
270.0
 51
0.0
  0
ARC
  5
4EA
  8
01
 10
827.68766916632467
 20
-701.23408159774408
 30
0.0
 40
6.0
 50
180.0
 51
270.0
  0
LINE
  5
4EB
  8
01
 10
841.93766916632467
 20
-634.80250159774357
 30
0.0
 11
841.93766916632467
 21
-647.66566159774345
 31
0.0
  0
LINE
  5
4EC
  8
01
 10
840.93766916632467
 20
-636.23408159774397
 30
0.0
 11
840.93766916632467
 21
-646.23408159774408
 31
0.0
  0
LINE
  5
4ED
  8
01
 10
827.43766916632455
 20
-636.23408159774397
 30
0.0
 11
827.43766916632455
 21
-646.23408159774408
 31
0.0
  0
LINE
  5
4EE
  8
01
 10
826.43766916632455
 20
-634.80250159774357
 30
0.0
 11
826.43766916632455
 21
-647.66566159774345
 31
0.0
  0
ARC
  5
4EF
  8
01
 10
834.18766916632455
 20
-641.0340715977436
 30
0.0
 40
10.199999999999999
 50
220.5530799999753
 51
319.44692000002459
  0
LINE
  5
4F0
  8
01
 10
827.43766916632455
 20
-646.23408159774408
 30
0.0
 11
840.93766916632467
 21
-646.23408159774408
 31
0.0
  0
LINE
  5
4F1
  8
01
 10
827.43766916632455
 20
-636.23408159774397
 30
0.0
 11
840.93766916632467
 21
-636.23408159774397
 31
0.0
  0
ARC
  5
4F2
  8
01
 10
834.18766916632455
 20
-641.43409159774365
 30
0.0
 40
10.199999999999999
 50
40.553083999977588
 51
139.44692000002459
  0
CIRCLE
  5
4F3
  8
01
 10
834.18766916632455
 20
-699.23408159774397
 30
0.0
 40
4.5
  0
CIRCLE
  5
4F4
  8
01
 10
834.18766916632455
 20
-699.23408159774397
 30
0.0
 40
2.75
  0
LINE
  5
4F5
  8
01
 10
827.68766916632467
 20
-707.23408159774397
 30
0.0
 11
840.68766916632455
 21
-707.23408159774397
 31
0.0
  0
ARC
  5
4F6
  8
01
 10
840.68766916632455
 20
-583.23408159774397
 30
0.0
 40
6.0
 50
0.0
 51
90.0
  0
ARC
  5
4F9
  8
01
 10
827.68766916632467
 20
-583.23408159774397
 30
0.0
 40
6.0
 50
90.0
 51
180.0
  0
LINE
  5
4FA
  8
01
 10
827.68766916632467
 20
-577.23408159774397
 30
0.0
 11
840.68766916632455
 21
-577.23408159774397
 31
0.0
  0
CIRCLE
  5
4FB
  8
01
 10
834.18766916632455
 20
-585.23408159774408
 30
0.0
 40
4.5
  0
CIRCLE
  5
4FC
  8
01
 10
834.18766916632455
 20
-585.23408159774408
 30
0.0
 40
2.75
  0
LINE
  5
51F
  8
01
 10
955.58767516632452
 20
-577.23408159774397
 30
0.0
 11
955.58767516632452
 21
-600.33405159774327
 31
0.0
  0
LINE
  5
520
  8
01
 10
957.18766516632502
 20
-577.23408159774397
 30
0.0
 11
957.18766516632502
 21
-600.23408159774397
 31
0.0
  0
LINE
  5
521
  8
01
 10
954.78767516632524
 20
-577.23408159774397
 30
0.0
 11
954.78767516632524
 21
-707.23408159774397
 31
0.0
  0
LINE
  5
522
  8
01
 10
953.18766516632513
 20
-577.23408159774397
 30
0.0
 11
953.18766516632513
 21
-707.23408159774397
 31
0.0
  0
LINE
  5
525
  8
01
 10
956.18766516632513
 20
-679.23408159774397
 30
0.0
 11
977.68766516632525
 21
-679.23408159774397
 31
0.0
  0
LINE
  5
526
  8
01
 10
956.18767516632477
 20
-601.23408159774408
 30
0.0
 11
957.18767516632477
 21
-600.23408159774397
 31
0.0
  0
LINE
  5
527
  8
01
 10
954.7876651663255
 20
-601.13410159774412
 30
0.0
 11
955.58767516632452
 21
-600.33405159774327
 31
0.0
  0
LINE
  5
528
  8
01
 10
946.18766516632513
 20
-631.23408159774408
 30
0.0
 11
953.18766516632513
 21
-631.23408159774408
 31
0.0
  0
LINE
  5
529
  8
01
 10
946.18766516632513
 20
-651.23408159774408
 30
0.0
 11
953.18766516632513
 21
-651.23408159774408
 31
0.0
  0
LINE
  5
52A
  8
01
 10
942.26976516632465
 20
-648.04035159774412
 30
0.0
 11
953.18766516632513
 21
-648.04035159774412
 31
0.0
  0
LINE
  5
52B
  8
01
 10
942.26976516632465
 20
-634.42780159774327
 30
0.0
 11
953.18766516632513
 21
-634.42780159774327
 31
0.0
  0
LINE
  5
52C
  8
01
 10
942.18766516632525
 20
-635.23408159774408
 30
0.0
 11
942.18766516632525
 21
-647.23408159774408
 31
0.0
  0
ARC
  5
52D
  8
01
 10
946.18766516632513
 20
-647.23408159774408
 30
0.0
 40
4.0
 50
179.999989999999
 51
270.0
  0
ARC
  5
52F
  8
01
 10
946.18766516632513
 20
-635.23408159774408
 30
0.0
 40
4.0
 50
90.000002999984659
 51
180.00001000000091
  0
LINE
  5
530
  8
01
 10
954.7876651663255
 20
-683.33409159774328
 30
0.0
 11
955.58767516632452
 21
-684.13407159774385
 31
0.0
  0
LINE
  5
531
  8
01
 10
956.18771516632569
 20
-683.23411159774332
 30
0.0
 11
957.18769516632426
 21
-684.23408159774408
 31
0.0
  0
LINE
  5
532
  8
01
 10
948.18766516632513
 20
-699.23408159774397
 30
0.0
 11
962.18766516632513
 21
-699.23408159774397
 31
0.0
  0
LINE
  5
533
  8
01
 10
953.18766516632513
 20
-707.23408159774397
 30
0.0
 11
957.18766516632502
 21
-707.23408159774397
 31
0.0
  0
LINE
  5
534
  8
01
 10
955.58767516632452
 20
-707.23408159774397
 30
0.0
 11
955.58767516632452
 21
-684.13407159774385
 31
0.0
  0
LINE
  5
535
  8
01
 10
957.18766516632502
 20
-707.23408159774397
 30
0.0
 11
957.18766516632502
 21
-684.23408159774408
 31
0.0
  0
LINE
  5
536
  8
01
 10
956.18766516632513
 20
-601.23408159774408
 30
0.0
 11
956.18766516632513
 21
-683.23408159774397
 31
0.0
  0
LINE
  5
539
  8
01
 10
953.18766516632513
 20
-577.23408159774397
 30
0.0
 11
957.18766516632502
 21
-577.23408159774397
 31
0.0
  0
LINE
  5
53A
  8
01
 10
948.18766516632513
 20
-585.23408159774408
 30
0.0
 11
962.18766516632513
 21
-585.23408159774408
 31
0.0
  0
LINE
  5
545
  8
01
 10
957.1885493483851
 20
-383.73408159877272
 30
0.0
 11
1023.188549348385
 21
-383.73408159877272
 31
0.0
  0
LINE
  5
546
  8
01
 10
957.1885493483851
 20
-385.33405159877202
 30
0.0
 11
1023.188549348385
 21
-385.33405159877202
 31
0.0
  0
LINE
  5
547
  8
01
 10
954.78855934838532
 20
-402.7340815987726
 30
0.0
 11
1023.188549348385
 21
-402.7340815987726
 31
0.0
  0
LINE
  5
548
  8
01
 10
956.38853934838608
 20
-388.23408159877272
 30
0.0
 11
957.1885493483851
 21
-387.43406159877208
 31
0.0
  0
LINE
  5
549
  8
01
 10
957.1885493483851
 20
-382.73408159877272
 30
0.0
 11
957.1885493483851
 21
-387.43406159877208
 31
0.0
  0
LINE
  5
54A
  8
01
 10
954.78855934838532
 20
-388.23405159877262
 30
0.0
 11
955.58854934838655
 21
-387.43409159877228
 31
0.0
  0
LINE
  5
54B
  8
01
 10
942.18854934838498
 20
-400.98408159877272
 30
0.0
 11
953.1885493483851
 21
-400.98408159877272
 31
0.0
  0
LINE
  5
54C
  8
01
 10
942.18854934838498
 20
-400.98408159877272
 30
0.0
 11
942.18854934838498
 21
-398.98408159877272
 31
0.0
  0
LINE
  5
54D
  8
01
 10
953.1885493483851
 20
-380.73408159877272
 30
0.0
 11
954.78855934838532
 21
-380.73408159877272
 31
0.0
  0
LINE
  5
54E
  8
01
 10
954.78855934838532
 20
-380.73408159877272
 30
0.0
 11
954.78855934838532
 21
-388.23408159877272
 31
0.0
  0
LINE
  5
54F
  8
01
 10
955.58855934838618
 20
-382.73408159877272
 30
0.0
 11
955.58855934838618
 21
-387.43406159877208
 31
0.0
  0
LINE
  5
550
  8
01
 10
954.78855934838532
 20
-382.73408159877272
 30
0.0
 11
957.1885493483851
 21
-382.73408159877272
 31
0.0
  0
LINE
  5
551
  8
01
 10
957.1885493483851
 20
-399.0340715987723
 30
0.0
 11
957.1885493483851
 21
-402.7340815987726
 31
0.0
  0
LINE
  5
552
  8
01
 10
956.38855934838557
 20
-398.23405159877262
 30
0.0
 11
957.1885493483851
 21
-399.0340715987723
 31
0.0
  0
LINE
  5
553
  8
01
 10
957.1885493483851
 20
-401.13407159877261
 30
0.0
 11
961.78855934838509
 21
-401.13407159877261
 31
0.0
  0
LINE
  5
554
  8
01
 10
954.78854934838546
 20
-398.23405159877262
 30
0.0
 11
955.58855934838618
 21
-399.0340715987723
 31
0.0
  0
LINE
  5
555
  8
01
 10
954.78855934838532
 20
-398.23408159877272
 30
0.0
 11
954.78855934838532
 21
-405.73408159877272
 31
0.0
  0
LINE
  5
556
  8
01
 10
953.1885493483851
 20
-405.73408159877272
 30
0.0
 11
954.78855934838532
 21
-405.73408159877272
 31
0.0
  0
LINE
  5
557
  8
01
 10
955.58855934838618
 20
-399.0340715987723
 30
0.0
 11
955.58855934838618
 21
-402.7340815987726
 31
0.0
  0
LINE
  5
558
  8
01
 10
953.1885493483851
 20
-373.23408159877272
 30
0.0
 11
953.1885493483851
 21
-413.23408159877272
 31
0.0
  0
LINE
  5
559
  8
01
 10
961.78855934838509
 20
-385.33405159877202
 30
0.0
 11
961.78855934838509
 21
-402.7340815987726
 31
0.0
  0
LINE
  5
55A
  8
01
 10
956.38854934838594
 20
-388.23408159877272
 30
0.0
 11
956.38854934838594
 21
-398.23408159877272
 31
0.0
  0
LINE
  5
55B
  8
01
 10
954.78855934838532
 20
-388.23408159877272
 30
0.0
 11
954.78855934838532
 21
-398.23408159877272
 31
0.0
  0
ARC
  5
55C
  8
01
 10
985.85804934838507
 20
-423.33516159877217
 30
0.0
 40
50.0
 50
130.7976899999974
 51
150.85500000002
  0
LINE
  5
55E
  8
01
 10
985.54989789461706
 20
-427.73411259877139
 30
0.0
 11
1001.172534506068
 21
-427.73411259877139
 31
0.0
  0
LINE
  5
55F
  8
01
 10
1021.588549348386
 20
-385.33405159877202
 30
0.0
 11
1021.588549348386
 21
-402.7340815987726
 31
0.0
  0
LINE
  5
560
  8
01
 10
1023.188549348385
 20
-383.73408159877272
 30
0.0
 11
1023.188549348385
 21
-402.7340815987726
 31
0.0
  0
LINE
  5
562
  8
01
 10
985.54989789461706
 20
-358.73405059877399
 30
0.0
 11
1001.172534506068
 21
-358.73405059877399
 31
0.0
  0
POINT
  5
568
  8
01
 10
854.18766916632455
 20
-663.23408159774408
 30
0.0
  0
LINE
  5
569
  8
01
 10
854.18766916632455
 20
-688.23408159774385
 30
0.0
 11
854.18766916632455
 21
-638.2341815977444
 31
0.0
  0
LINE
  5
92B
  8
01
 10
720.1876731663242
 20
-699.23408159774397
 30
0.0
 11
706.18767316632409
 21
-699.23408159774397
 31
0.0
  0
LINE
  5
92C
  8
01
 10
720.1876731663242
 20
-585.23408159774408
 30
0.0
 11
706.18767316632409
 21
-585.23408159774408
 31
0.0
  0
LINE
  5
92E
  8
01
 10
840.68766916632455
 20
-585.23408159774408
 30
0.0
 11
827.68766916632467
 21
-585.23408159774408
 31
0.0
  0
LINE
  5
92F
  8
01
 10
834.18766916632455
 20
-578.73408159774397
 30
0.0
 11
834.18766916632455
 21
-591.73408159774397
 31
0.0
  0
LINE
  5
931
  8
01
 10
840.68766916632455
 20
-699.23408159774397
 30
0.0
 11
827.68766916632467
 21
-699.23408159774397
 31
0.0
  0
LINE
  5
932
  8
01
 10
834.18766916632455
 20
-692.73408159774408
 30
0.0
 11
834.18766916632455
 21
-705.73408159774408
 31
0.0
  0
LINE
  5
96B
  8
01
 10
694.1876731663242
 20
-663.23408159774408
 30
0.0
 11
634.1876731663242
 21
-663.23408159774408
 31
0.0
  0
LINE
  5
96C
  8
01
 10
664.18767316632409
 20
-633.23408159774397
 30
0.0
 11
664.18767316632409
 21
-693.23408159774408
 31
0.0
  0
LINE
  5
96E
  8
01
 10
974.18766516632502
 20
-663.23408159774419
 30
0.0
 11
1034.1876651663249
 21
-663.23408159774419
 31
0.0
  0
LINE
  5
96F
  8
01
 10
1004.187665166325
 20
-633.23408159774419
 30
0.0
 11
1004.187665166325
 21
-693.23408159774419
 31
0.0
  0
POINT
  5
21C1
  8
01
 10
799.68766916632455
 20
-663.23408159774419
 30
0.0
 50
180.0
  0
CIRCLE
  5
21CE
  8
01
 10
799.68766916632455
 20
-663.23408159774419
 30
0.0
 40
2.5
  0
POINT
  5
21D7
  8
01
 10
868.68766916632467
 20
-663.23408159774419
 30
0.0
  0
LINE
  5
21D8
  8
01
 10
868.28766915632468
 20
-664.98408159774419
 30
0.0
 11
868.28766915632468
 21
-664.13408157774404
 31
0.0
  0
LINE
  5
21D9
  8
01
 10
869.08766917632465
 20
-664.98408159774419
 30
0.0
 11
869.08766917632465
 21
-664.13408157774404
 31
0.0
  0
LINE
  5
21DA
  8
01
 10
867.78766918632482
 20
-663.63408160774406
 30
0.0
 11
866.93766916632467
 21
-663.63408160774406
 31
0.0
  0
LINE
  5
21DB
  8
01
 10
867.78766918632482
 20
-662.83408158774421
 30
0.0
 11
866.93766916632467
 21
-662.83408158774421
 31
0.0
  0
LINE
  5
21DC
  8
01
 10
866.93766916632467
 20
-663.63408160774406
 30
0.0
 11
866.93766916632467
 21
-662.83408158774421
 31
0.0
  0
LINE
  5
21DD
  8
01
 10
869.08766917632465
 20
-664.98408159774419
 30
0.0
 11
868.28766915632468
 21
-664.98408159774419
 31
0.0
  0
LINE
  5
21DE
  8
01
 10
869.08766917632465
 20
-661.48408159774419
 30
0.0
 11
869.08766917632465
 21
-662.33408161774435
 31
0.0
  0
LINE
  5
21DF
  8
01
 10
868.28766915632468
 20
-661.48408159774419
 30
0.0
 11
868.28766915632468
 21
-662.33408161774435
 31
0.0
  0
LINE
  5
21E0
  8
01
 10
869.58766914632452
 20
-662.83408158774421
 30
0.0
 11
870.43766916632467
 21
-662.83408158774421
 31
0.0
  0
LINE
  5
21E1
  8
01
 10
869.58766914632452
 20
-663.63408160774406
 30
0.0
 11
870.43766916632467
 21
-663.63408160774406
 31
0.0
  0
LINE
  5
21E2
  8
01
 10
870.43766916632467
 20
-662.83408158774421
 30
0.0
 11
870.43766916632467
 21
-663.63408160774406
 31
0.0
  0
LINE
  5
21E3
  8
01
 10
868.28766915632468
 20
-661.48408159774419
 30
0.0
 11
869.08766917632465
 21
-661.48408159774419
 31
0.0
  0
CIRCLE
  5
21E4
  8
01
 10
868.68766916632467
 20
-663.23408159774419
 30
0.0
 40
2.5
  0
ARC
  5
21E5
  8
01
 10
869.58766914632452
 20
-662.33408161774435
 30
0.0
 40
0.5
 50
179.9999899999998
 51
270.0
  0
ARC
  5
21E6
  8
01
 10
869.58766914632452
 20
-664.13408157774404
 30
0.0
 40
0.5
 50
90.000003000000945
 51
180.0000100000002
  0
ARC
  5
21E7
  8
01
 10
867.78766918632482
 20
-664.13408157774404
 30
0.0
 40
0.5
 50
0.0
 51
90.000003000000945
  0
ARC
  5
21E8
  8
01
 10
867.78766918632482
 20
-662.33408161774435
 30
0.0
 40
0.5
 50
270.0
 51
0.0
  0
LINE
  5
5977
  8
01
 10
1004.18778150607
 20
-343.23408159877272
 30
0.0
 11
1004.18778150607
 21
-378.23408159877249
 31
0.0
  0
LINE
  5
5978
  8
01
 10
1004.18778150607
 20
-408.23408159877272
 30
0.0
 11
1004.18778150607
 21
-443.23408159877272
 31
0.0
  0
LINE
  5
5979
  8
01
 10
784.18766916632455
 20
-663.23408159774419
 30
0.0
 11
819.18766916632455
 21
-663.23408159774419
 31
0.0
  0
LINE
  5
597A
  8
01
 10
849.18766916632467
 20
-663.23408159774419
 30
0.0
 11
884.18766916632455
 21
-663.23408159774419
 31
0.0
  0
LINE
  5
A5D6
  8
01
 10
953.1885493483851
 20
-413.23408159877272
 30
0.0
 11
1106.942929503417
 21
-413.23408159877272
 31
0.0
  0
LINE
  5
A5D7
  8
01
 10
953.1885493483851
 20
-373.23408159877272
 30
0.0
 11
1106.942929503417
 21
-373.23408159877272
 31
0.0
  0
LINE
  5
B06E
  8
01
 10
1015.18778150607
 20
-422.23408159877272
 30
0.0
 11
993.18778150606977
 21
-422.23408159877272
 31
0.0
  0
ARC
  5
B06F
  8
01
 10
1007.0443651071459
 20
-454.43408159877282
 30
0.0
 40
8.0
 50
194.9999999999944
 51
270.0
  0
LINE
  5
B070
  8
01
 10
990.18778150606977
 20
-422.43408159877271
 30
0.0
 11
1020.18778150607
 21
-422.43408159877271
 31
0.0
  0
LINE
  5
B071
  8
01
 10
1020.18778150607
 20
-422.43408159877271
 30
0.0
 11
1027.699811118194
 21
-450.46935777918281
 31
0.0
  0
LINE
  5
B072
  8
01
 10
990.18778150606977
 20
-422.43408159877271
 30
0.0
 11
999.31695849683365
 21
-456.50463395959281
 31
0.0
  0
LINE
  5
B073
  8
01
 10
1031.5635144233499
 20
-453.43408159877271
 30
0.0
 11
1101.5664178997461
 21
-453.43408159877271
 31
0.0
  0
LINE
  5
B074
  8
01
 10
1007.0443651071459
 20
-462.43408159877282
 30
0.0
 11
1101.5664178997461
 21
-462.43408159877282
 31
0.0
  0
ARC
  5
B075
  8
01
 10
1101.5664178997461
 20
-438.43408159877271
 30
0.0
 40
24.0
 50
270.0
 51
343.78084886597043
  0
LINE
  5
B076
  8
01
 10
1116.530476455303
 20
-442.44368900422631
 30
0.0
 11
1124.2605363326029
 21
-444.51495230579269
 31
0.0
  0
LINE
  5
B077
  8
01
 10
993.18778150606977
 20
-422.2340815987726
 30
0.0
 11
993.18778150606977
 21
-422.43408159877271
 31
0.0
  0
LINE
  5
B078
  8
01
 10
1015.18778150607
 20
-422.234081598773
 30
0.0
 11
1015.18778150607
 21
-422.43408159877271
 31
0.0
  0
LINE
  5
B079
  8
01
 10
993.18778150606977
 20
-422.2340815987726
 30
0.0
 11
1015.18778150607
 21
-422.23408159877278
 31
0.0
  0
ARC
  5
B07A
  8
01
 10
1124.1311268100519
 20
-444.99791521893741
 30
0.0
 40
0.5
 50
343.78084886597043
 51
75.000000000005556
  0
ARC
  5
B07B
  8
01
 10
1031.5635144233499
 20
-449.43408159877271
 30
0.0
 40
4.0
 50
195.00000000000159
 51
270.0
  0
ARC
  5
B07C
  8
01
 10
1101.5664178997461
 20
-438.43408159877271
 30
0.0
 40
15.0
 50
270.0
 51
343.15142835477371
  0
ARC
  5
B07D
  8
01
 10
1116.4010669327511
 20
-442.92665191737092
 30
0.0
 40
0.5
 50
75.000000000005556
 51
163.1514283547736
  0
LINE
  5
B084
  8
01
 10
1012.137781506069
 20
-421.7340815987726
 30
0.0
 11
1012.137781506068
 21
-422.23408159877272
 31
0.0
  0
LINE
  5
B085
  8
01
 10
996.23778150606995
 20
-421.7340815987726
 30
0.0
 11
996.23778150606995
 21
-422.23408159877272
 31
0.0
  0
LINE
  5
B4BF
  8
01
 10
990.18766516632513
 20
-652.73408159774408
 30
0.0
 11
990.18766516632513
 21
-673.73408159774397
 31
0.0
  0
LINE
  5
B4C0
  8
01
 10
1124.772768199005
 20
-652.73408159774431
 30
0.0
 11
1124.772768199005
 21
-673.73408159774408
 31
0.0
  0
LINE
  5
B4C1
  8
01
 10
990.68766516632513
 20
-674.23408159774397
 30
0.0
 11
1124.272768199005
 21
-674.23408159774419
 31
0.0
  0
LINE
  5
B4C2
  8
01
 10
990.68766516632513
 20
-652.23408159774408
 30
0.0
 11
1124.272768199005
 21
-652.23408159774431
 31
0.0
  0
ARC
  5
B4C3
  8
01
 10
990.68766516632513
 20
-673.73408159774397
 30
0.0
 40
0.5
 50
180.0
 51
270.0
  0
ARC
  5
B4C4
  8
01
 10
990.68766516632513
 20
-652.73408159774408
 30
0.0
 40
0.5
 50
90.0
 51
180.0
  0
ARC
  5
B4C5
  8
01
 10
1124.272768199005
 20
-652.73408159774431
 30
0.0
 40
0.5
 50
0.0
 51
90.0
  0
ARC
  5
B4C6
  8
01
 10
1124.272768199005
 20
-673.73408159774408
 30
0.0
 40
0.5
 50
270.0
 51
0.0
  0
LINE
  5
B4C9
  8
01
 10
1004.187665166325
 20
-669.23408159774408
 30
0.0
 11
1004.187665166325
 21
-657.23408159774408
 31
0.0
  0
LINE
  5
B4CA
  8
01
 10
998.18766516632513
 20
-663.23408159774419
 30
0.0
 11
1010.187665166325
 21
-663.23408159774419
 31
0.0
  0
ARC
  5
B6B1
  8
01
 10
899.88766916632437
 20
-674.73408159774419
 30
0.0
 40
0.5
 50
270.0
 51
0.0
  0
ARC
  5
B6B2
  8
01
 10
899.88766916632437
 20
-651.73408159774408
 30
0.0
 40
0.5
 50
0.0
 51
90.0
  0
LINE
  5
B6B3
  8
01
 10
900.38766916632346
 20
-651.73408159774408
 30
0.0
 11
900.38766916632449
 21
-674.73408159774419
 31
0.0
  0
LINE
  5
B6B7
  8
01
 10
863.38766916632437
 20
-675.23408159774419
 30
0.0
 11
899.88766916632437
 21
-675.23408159774419
 31
0.0
  0
LINE
  5
B6B8
  8
01
 10
863.38766916632437
 20
-651.23408159774385
 30
0.0
 11
899.88766916632437
 21
-651.23408159774419
 31
0.0
  0
LINE
  5
B6B9
  8
01
 10
863.38766916632437
 20
-651.23408159774385
 30
0.0
 11
863.38766916632437
 21
-675.23408159774419
 31
0.0
  0
LINE
  5
B72D
  8
01
 10
678.18767316632318
 20
-652.73408159774408
 30
0.0
 11
678.18767316632318
 21
-673.73408159774397
 31
0.0
  0
LINE
  5
B72E
  8
01
 10
543.60257013364287
 20
-652.73408159774431
 30
0.0
 11
543.60257013364287
 21
-673.73408159774408
 31
0.0
  0
LINE
  5
B72F
  8
01
 10
677.68767316632318
 20
-674.23408159774397
 30
0.0
 11
544.10257013364287
 21
-674.23408159774419
 31
0.0
  0
LINE
  5
B730
  8
01
 10
677.68767316632318
 20
-652.23408159774408
 30
0.0
 11
544.10257013364287
 21
-652.23408159774431
 31
0.0
  0
ARC
  5
B731
  8
01
 10
677.68767316632318
 20
-673.73408159774397
 30
0.0
 40
0.5
 50
270.0
 51
0.000000000000007
  0
ARC
  5
B732
  8
01
 10
677.68767316632318
 20
-652.73408159774408
 30
0.0
 40
0.5
 50
0.000000000000007
 51
90.0
  0
ARC
  5
B733
  8
01
 10
544.10257013364287
 20
-652.73408159774431
 30
0.0
 40
0.5
 50
90.0
 51
180.0
  0
ARC
  5
B734
  8
01
 10
544.10257013364287
 20
-673.73408159774408
 30
0.0
 40
0.5
 50
180.0
 51
270.0
  0
ARC
  5
B748
  8
01
 10
768.48766916632394
 20
-674.73408159774419
 30
0.0
 40
0.5
 50
180.0
 51
270.0
  0
ARC
  5
B749
  8
01
 10
768.48766916632394
 20
-651.73408159774408
 30
0.0
 40
0.5
 50
90.0
 51
180.0
  0
LINE
  5
B74A
  8
01
 10
767.98766916632485
 20
-651.73408159774408
 30
0.0
 11
767.98766916632394
 21
-674.73408159774419
 31
0.0
  0
LINE
  5
B74E
  8
01
 10
804.98766916632394
 20
-675.23408159774419
 30
0.0
 11
768.48766916632394
 21
-675.23408159774419
 31
0.0
  0
LINE
  5
B74F
  8
01
 10
804.98766916632394
 20
-651.23408159774385
 30
0.0
 11
768.48766916632394
 21
-651.23408159774419
 31
0.0
  0
LINE
  5
B750
  8
01
 10
804.98766916632394
 20
-651.23408159774385
 30
0.0
 11
804.98766916632394
 21
-675.23408159774419
 31
0.0
  0
LINE
  5
B7BB
  8
01
 10
1015.18778150607
 20
-364.23408159877272
 30
0.0
 11
993.18778150606977
 21
-364.23408159877272
 31
0.0
  0
ARC
  5
B7BC
  8
01
 10
1007.0443651071459
 20
-332.03408159877267
 30
0.0
 40
8.0
 50
90.000000000000028
 51
165.00000000000551
  0
LINE
  5
B7BD
  8
01
 10
990.18778150606977
 20
-364.03408159877267
 30
0.0
 11
1020.18778150607
 21
-364.03408159877267
 31
0.0
  0
LINE
  5
B7BE
  8
01
 10
1020.18778150607
 20
-364.03408159877267
 30
0.0
 11
1027.699811118194
 21
-335.99880541836262
 31
0.0
  0
LINE
  5
B7BF
  8
01
 10
990.18778150606977
 20
-364.03408159877267
 30
0.0
 11
999.31695849683365
 21
-329.96352923795263
 31
0.0
  0
LINE
  5
B7C0
  8
01
 10
1031.5635144233499
 20
-333.03408159877267
 30
0.0
 11
1101.5664178997461
 21
-333.03408159877267
 31
0.0
  0
LINE
  5
B7C1
  8
01
 10
1007.0443651071459
 20
-324.03408159877267
 30
0.0
 11
1101.5664178997461
 21
-324.03408159877267
 31
0.0
  0
ARC
  5
B7C2
  8
01
 10
1101.5664178997461
 20
-348.03408159877267
 30
0.0
 40
24.0
 50
16.219151134029641
 51
90.000000000000028
  0
LINE
  5
B7C3
  8
01
 10
1116.530476455303
 20
-344.02447419331918
 30
0.0
 11
1124.2605363326029
 21
-341.9532108917528
 31
0.0
  0
LINE
  5
B7C4
  8
01
 10
993.18778150606977
 20
-364.23408159877278
 30
0.0
 11
993.18778150606977
 21
-364.03408159877267
 31
0.0
  0
LINE
  5
B7C5
  8
01
 10
1015.18778150607
 20
-364.23408159877238
 30
0.0
 11
1015.18778150607
 21
-364.03408159877267
 31
0.0
  0
LINE
  5
B7C6
  8
01
 10
993.18778150606977
 20
-364.23408159877278
 30
0.0
 11
1015.18778150607
 21
-364.2340815987726
 31
0.0
  0
ARC
  5
B7C7
  8
01
 10
1124.1311268100519
 20
-341.47024797860797
 30
0.0
 40
0.5
 50
284.99999999999437
 51
16.219151134029641
  0
ARC
  5
B7C8
  8
01
 10
1031.5635144233499
 20
-337.03408159877267
 30
0.0
 40
4.0
 50
90.000000000000028
 51
164.99999999999841
  0
ARC
  5
B7C9
  8
01
 10
1101.5664178997461
 20
-348.03408159877267
 30
0.0
 40
15.0
 50
16.848571645226361
 51
90.000000000000028
  0
ARC
  5
B7CA
  8
01
 10
1116.4010669327511
 20
-343.54151128017452
 30
0.0
 40
0.5
 50
196.84857164522629
 51
284.99999999999437
  0
LINE
  5
B7D1
  8
01
 10
1012.137781506069
 20
-364.73408159877278
 30
0.0
 11
1012.137781506068
 21
-364.23408159877272
 31
0.0
  0
LINE
  5
B7D2
  8
01
 10
996.23778150606995
 20
-364.73408159877278
 30
0.0
 11
996.23778150606995
 21
-364.23408159877272
 31
0.0
  0
LINE
  5
BA2C
  8
01
 10
854.18766916632455
 20
-636.73408159774453
 30
0.0
 11
854.18766916632455
 21
-689.73408159774453
 31
0.0
  0
LINE
  5
BA2D
  8
01
 10
862.68766916632455
 20
-689.23408159774453
 30
0.0
 11
862.68766916632455
 21
-637.23408159774453
 31
0.0
  0
ARC
  5
BA2E
  8
01
 10
862.18766916632455
 20
-689.23408159774453
 30
0.0
 40
0.5
 50
270.0
 51
0.0
  0
LINE
  5
BA2F
  8
01
 10
854.18766916632455
 20
-689.73408159774453
 30
0.0
 11
862.18766916632455
 21
-689.73408159774453
 31
0.0
  0
LINE
  5
BA30
  8
01
 10
854.18766916632455
 20
-636.73408159774453
 30
0.0
 11
862.18766916632455
 21
-636.73408159774453
 31
0.0
  0
ARC
  5
BA31
  8
01
 10
862.18766916632455
 20
-637.23408159774453
 30
0.0
 40
0.5
 50
0.0
 51
90.0
  0
LINE
  5
BA32
  8
01
 10
814.18766916632467
 20
-636.73408159774453
 30
0.0
 11
814.18766916632467
 21
-689.73408159774453
 31
0.0
  0
LINE
  5
BA33
  8
01
 10
805.68766916632478
 20
-689.23408159774453
 30
0.0
 11
805.68766916632455
 21
-637.23408159774453
 31
0.0
  0
ARC
  5
BA34
  8
01
 10
806.18766916632467
 20
-637.23408159774453
 30
0.0
 40
0.5
 50
90.0
 51
180.0
  0
LINE
  5
BA35
  8
01
 10
814.18766916632467
 20
-689.73408159774453
 30
0.0
 11
806.18766916632489
 21
-689.73408159774453
 31
0.0
  0
ARC
  5
BA36
  8
01
 10
806.18766916632489
 20
-689.23408159774453
 30
0.0
 40
0.5
 50
180.0
 51
270.0
  0
LINE
  5
BA37
  8
01
 10
814.18766916632467
 20
-636.73408159774453
 30
0.0
 11
806.18766916632467
 21
-636.73408159774453
 31
0.0
  0
TEXT
  5
BACE
  8
01
 10
649.18768516632463
 20
-378.23408159774419
 30
0.0
 40
20.0
  1
1-RST-X-LW-2
  0
LINE
  5
BAD0
  8
01
 10
649.18768516632463
 20
-439.73408159774408
 30
0.0
 11
764.64169479029363
 21
-439.73408159774408
 31
0.0
  0
TEXT
  5
BAD1
  8
01
 10
661.68768516632394
 20
-416.48408159774408
 30
0.0
 40
6.0
  1
表面処理
 72
     1
 11
675.28768516632397
 21
-416.48408159774408
 31
0.0
  0
TEXT
  5
BAD2
  8
01
 10
661.68768516632394
 20
-426.73701458703101
 30
0.0
 40
6.0
  1
クローム
 72
     1
 11
675.28768516632397
 21
-426.73701458703101
 31
0.0
  0
LINE
  5
BAD3
  8
01
 10
649.18768516632463
 20
-408.23408159774419
 30
0.0
 11
764.6416947902934
 21
-408.23408159774419
 31
0.0
  0
LINE
  5
BAD4
  8
01
 10
649.18768516632463
 20
-418.73408159774408
 30
0.0
 11
764.6416947902934
 21
-418.73408159774408
 31
0.0
  0
LINE
  5
BAD5
  8
01
 10
649.18768516632463
 20
-429.23408159774419
 30
0.0
 11
754.18768516632463
 21
-429.23408159774419
 31
0.0
  0
LINE
  5
BAD6
  8
01
 10
649.18768516632463
 20
-429.23408159774419
 30
0.0
 11
764.64169479029363
 21
-429.23408159774419
 31
0.0
  0
LINE
  5
BAD7
  8
01
 10
701.68768516632463
 20
-408.23408159774419
 30
0.0
 11
701.68768516632474
 21
-450.23408159774402
 31
0.0
  0
TEXT
  5
BAD8
  8
01
 10
706.66359358644502
 20
-427.30561707321851
 30
0.0
 40
6.0
  1
1-RST-C-LW-2
 41
0.7
 72
     1
 11
733.26359358644504
 21
-427.30561707321851
 31
0.0
  0
TEXT
  5
BAD9
  8
01
 10
723.26359358644356
 20
-416.48408159774408
 30
0.0
 40
6.0
  1
コード
 72
     1
 11
733.26359358644368
 21
-416.48408159774408
 31
0.0
  0
LINE
  5
BADA
  8
01
 10
649.18768516632463
 20
-450.23408159774419
 30
0.0
 11
764.64169479029363
 21
-450.23408159774419
 31
0.0
  0
LINE
  5
BADC
  8
01
 10
649.18768516632474
 20
-450.23408159774419
 30
0.0
 11
649.18768516632463
 21
-408.23408159774419
 31
0.0
  0
LINE
  5
BADD
  8
01
 10
764.64169479029363
 20
-450.23408159774391
 30
0.0
 11
764.64169479029351
 21
-408.23408159774419
 31
0.0
  0
TEXT
  5
BADF
  8
01
 10
650.8876851663241
 20
-437.2004520151005
 30
0.0
 40
6.0
  1
サテンニッケル
 72
     1
 11
675.28768516632397
 21
-437.2004520151005
 31
0.0
  0
TEXT
  5
BAE0
  8
01
 10
706.56359358644499
 20
-437.80561707321851
 30
0.0
 40
6.0
  1
1-RST-N-LW-2
 41
0.7
 72
     1
 11
733.26359358644504
 21
-437.80561707321851
 31
0.0
  0
TEXT
  5
BAE2
  8
01
 10
650.88768516632399
 20
-447.70045201510038
 30
0.0
 40
6.0
  1
ダークアンバー
 72
     1
 11
675.28768516632397
 21
-447.70045201510038
 31
0.0
  0
TEXT
  5
BAE3
  8
01
 10
704.56359358644477
 20
-448.30561707321851
 30
0.0
 40
6.0
  1
1-RST-4Q-LW-2
 41
0.7
 72
     1
 11
733.26359358644493
 21
-448.30561707321851
 31
0.0
  0
LINE
  5
BB4D
  8
01
  6
DASHED2
 10
1022.187665166325
 20
-636.73408159774453
 30
0.0
 11
1022.187665166325
 21
-679.23408159774397
 31
0.0
  0
LINE
  5
BB57
  8
01
  6
DASHED2
 10
977.68766516632525
 20
-679.23408159774397
 30
0.0
 11
1022.187665166325
 21
-679.23408159774397
 31
0.0
  0
LINE
  5
BD58
  8
01
 10
646.1876851663244
 20
-604.73408159774419
 30
0.0
 11
646.1876851663244
 21
-636.73408159774453
 31
0.0
  0
LINE
  5
BD5A
  8
01
 10
1022.187665166325
 20
-604.73408159774419
 30
0.0
 11
1022.187665166325
 21
-636.73408159774453
 31
0.0
  0
LINE
  5
BD5B
  8
01
  6
BYBLOCK
 10
1001.187665166324
 20
-604.73408159774419
 30
0.0
 11
1007.187665166325
 21
-604.73408159774419
 31
0.0
  0
LINE
  5
BD5C
  8
01
  6
BYBLOCK
 10
1014.187665166325
 20
-604.73408159774419
 30
0.0
 11
1022.187665166325
 21
-604.73408159774419
 31
0.0
  0
LINE
  5
BD5D
  8
01
  6
BYBLOCK
 10
1001.187665166325
 20
-605.7340815977434
 30
0.0
 11
1001.187665166324
 21
-604.73408159774419
 31
0.0
  0
LINE
  5
BD5E
  8
01
  6
BYBLOCK
 10
1007.187665166325
 20
-605.73408159774419
 30
0.0
 11
1007.187665166325
 21
-604.73408159774419
 31
0.0
  0
ARC
  5
BD5F
  8
01
  6
BYBLOCK
 10
997.68766516632456
 20
-605.73408159774419
 30
0.0
 40
3.5
 50
179.99999999998701
 51
0.0000000000130276
  0
ARC
  5
BD60
  8
01
  6
BYBLOCK
 10
1010.687665166325
 20
-605.73408159774419
 30
0.0
 40
3.5
 50
180.0
 51
0.0
  0
CIRCLE
  5
BD61
  8
01
  6
BYBLOCK
 10
1004.187665166036
 20
-613.23408159803284
 30
0.0
 40
6.0
  0
LINE
  5
BD62
  8
01
  6
BYBLOCK
 10
994.18766516632456
 20
-604.73408159774419
 30
0.0
 11
956.1876651663249
 21
-604.73408159774419
 31
0.0
  0
LINE
  5
BD63
  8
01
  6
BYBLOCK
 10
994.18766516632445
 20
-605.7340815977434
 30
0.0
 11
994.18766516632456
 21
-604.73408159774419
 31
0.0
  0
LINE
  5
BD64
  8
01
  6
BYBLOCK
 10
1014.187665166325
 20
-605.73408159774419
 30
0.0
 11
1014.187665166325
 21
-604.73408159774419
 31
0.0
  0
LINE
  5
BD65
  8
01
  6
BYBLOCK
 10
1004.187665166036
 20
-616.78408150471444
 30
0.0
 11
1007.737665072717
 21
-613.23408159803284
 31
0.0
  0
LINE
  5
BD66
  8
01
  6
BYBLOCK
 10
1007.737665072717
 20
-613.23408159803284
 30
0.0
 11
1004.187665166036
 21
-609.68408169135137
 31
0.0
  0
LINE
  5
BD67
  8
01
  6
BYBLOCK
 10
1000.637665259354
 20
-613.23408159803284
 30
0.0
 11
1004.187665166036
 21
-616.78408150471444
 31
0.0
  0
LINE
  5
BD68
  8
01
  6
BYBLOCK
 10
1004.187665166036
 20
-609.68408169135137
 30
0.0
 11
1000.637665259354
 21
-613.23408159803284
 31
0.0
  0
LINE
  5
BD69
  8
01
  6
BYBLOCK
 10
667.1876731663242
 20
-604.73408159774419
 30
0.0
 11
661.18767316632386
 21
-604.73408159774419
 31
0.0
  0
LINE
  5
BD6A
  8
01
  6
BYBLOCK
 10
654.18767316632386
 20
-604.73408159774419
 30
0.0
 11
646.1876851663244
 21
-604.73408159774419
 31
0.0
  0
LINE
  5
BD6B
  8
01
  6
BYBLOCK
 10
667.18767316632386
 20
-605.7340815977434
 30
0.0
 11
667.1876731663242
 21
-604.73408159774419
 31
0.0
  0
LINE
  5
BD6C
  8
01
  6
BYBLOCK
 10
661.18767316632386
 20
-605.73408159774419
 30
0.0
 11
661.18767316632386
 21
-604.73408159774419
 31
0.0
  0
ARC
  5
BD6D
  8
01
  6
BYBLOCK
 10
670.6876731663242
 20
-605.73408159774419
 30
0.0
 40
3.5
 50
179.99999999998701
 51
0.0000000000130276
  0
ARC
  5
BD6E
  8
01
  6
BYBLOCK
 10
657.68767316632386
 20
-605.73408159774419
 30
0.0
 40
3.5
 50
180.0
 51
0.0
  0
CIRCLE
  5
BD6F
  8
01
  6
BYBLOCK
 10
664.18767316661274
 20
-613.23408159803284
 30
0.0
 40
6.0
  0
LINE
  5
BD70
  8
01
  6
BYBLOCK
 10
674.1876731663242
 20
-604.73408159774419
 30
0.0
 11
712.18767316632386
 21
-604.73408159774419
 31
0.0
  0
LINE
  5
BD71
  8
01
  6
BYBLOCK
 10
674.18767316632443
 20
-605.7340815977434
 30
0.0
 11
674.1876731663242
 21
-604.73408159774419
 31
0.0
  0
LINE
  5
BD72
  8
01
  6
BYBLOCK
 10
654.18767316632386
 20
-605.73408159774419
 30
0.0
 11
654.18767316632386
 21
-604.73408159774419
 31
0.0
  0
LINE
  5
BD73
  8
01
  6
BYBLOCK
 10
664.18767316661274
 20
-616.78408150471444
 30
0.0
 11
660.63767325993115
 21
-613.23408159803284
 31
0.0
  0
LINE
  5
BD74
  8
01
  6
BYBLOCK
 10
660.63767325993115
 20
-613.23408159803284
 30
0.0
 11
664.18767316661274
 21
-609.68408169135137
 31
0.0
  0
LINE
  5
BD75
  8
01
  6
BYBLOCK
 10
667.73767307329445
 20
-613.23408159803284
 30
0.0
 11
664.18767316661274
 21
-616.78408150471444
 31
0.0
  0
LINE
  5
BD76
  8
01
  6
BYBLOCK
 10
664.18767316661274
 20
-609.68408169135137
 30
0.0
 11
667.73767307329445
 21
-613.23408159803284
 31
0.0
  0
LINE
  5
BD77
  8
01
  6
BYBLOCK
 10
1010.188549348096
 20
-382.98408159877272
 30
0.0
 11
998.1885493480961
 21
-382.98408159877272
 31
0.0
  0
LINE
  5
BD78
  8
01
  6
BYBLOCK
 10
998.1885493480961
 20
-403.48408159877272
 30
0.0
 11
1010.188549348096
 21
-403.48408159877272
 31
0.0
  0
LINE
  5
BD79
  8
01
  6
BYBLOCK
 10
998.1885493480961
 20
-403.48408159877272
 30
0.0
 11
998.1885493480961
 21
-402.73408159877249
 31
0.0
  0
LINE
  5
BD7A
  8
01
  6
BYBLOCK
 10
998.1885493480961
 20
-383.73408159877272
 30
0.0
 11
998.1885493480961
 21
-382.98408159877272
 31
0.0
  0
LINE
  5
BD7B
  8
01
  6
BYBLOCK
 10
1010.188549348096
 20
-403.48408159877272
 30
0.0
 11
1010.188549348096
 21
-402.73408159877249
 31
0.0
  0
LINE
  5
BD7C
  8
01
  6
BYBLOCK
 10
1010.188549348096
 20
-383.73408159877272
 30
0.0
 11
1010.188549348096
 21
-382.98408159877272
 31
0.0
  0
LINE
  5
BD7E
  8
01
 10
1015.4995534335779
 20
-613.23408159803284
 30
0.0
 11
992.87577689849445
 21
-613.23408159803284
 31
0.0
  0
LINE
  5
BD7F
  8
01
 10
1004.187665166036
 20
-601.92219333049115
 30
0.0
 11
1004.187665166036
 21
-624.54596986557465
 31
0.0
  0
LINE
  5
BEC1
  8
01
 10
1030.1876651663249
 20
-636.73408159774601
 30
0.0
 11
978.18766516632866
 21
-636.73408159774601
 31
0.0
  0
LINE
  5
BEC2
  8
01
 10
978.18766516632866
 20
-689.73408159774601
 30
0.0
 11
1030.1876651663249
 21
-689.73408159774601
 31
0.0
  0
LINE
  5
BEC3
  8
01
 10
977.68766516632877
 20
-637.23408159774601
 30
0.0
 11
977.68766516632877
 21
-689.23408159774601
 31
0.0
  0
ARC
  5
BEC4
  8
01
 10
978.18766516632866
 20
-689.23408159774601
 30
0.0
 40
0.5
 50
180.0
 51
270.0
  0
ARC
  5
BEC5
  8
01
 10
978.18766516632866
 20
-637.23408159774601
 30
0.0
 40
0.5
 50
90.0
 51
180.0
  0
LINE
  5
BEC6
  8
01
 10
1030.6876651663249
 20
-637.23408159774601
 30
0.0
 11
1030.6876651663249
 21
-652.23408159774431
 31
0.0
  0
LINE
  5
BEC7
  8
01
 10
1030.6876651663249
 20
-674.23408159774397
 30
0.0
 11
1030.6876651663249
 21
-689.23408159774601
 31
0.0
  0
ARC
  5
BEC8
  8
01
 10
1030.1876651663249
 20
-689.23408159774601
 30
0.0
 40
0.5
 50
270.0
 51
0.0
  0
ARC
  5
BEC9
  8
01
 10
1030.1876651663249
 20
-637.23408159774601
 30
0.0
 40
0.5
 50
0.0
 51
90.0
  0
LINE
  5
BECA
  8
01
 10
977.68766516632877
 20
-413.23408159877278
 30
0.0
 11
1030.6876651663249
 21
-413.23408159877278
 31
0.0
  0
LINE
  5
BECB
  8
01
 10
978.18766516632866
 20
-421.73408159877278
 30
0.0
 11
1030.1876651663249
 21
-421.73408159877278
 31
0.0
  0
LINE
  5
BECC
  8
01
 10
1030.6876651663249
 20
-413.23408159877278
 30
0.0
 11
1030.6876651663249
 21
-421.23408159877278
 31
0.0
  0
LINE
  5
BECD
  8
01
 10
977.68766516632877
 20
-413.23408159877278
 30
0.0
 11
977.68766516632877
 21
-421.23408159877278
 31
0.0
  0
ARC
  5
BECE
  8
01
 10
978.18766516632866
 20
-421.23408159877278
 30
0.0
 40
0.5
 50
180.0
 51
270.0
  0
ARC
  5
BECF
  8
01
 10
1030.1876651663249
 20
-421.23408159877278
 30
0.0
 40
0.5
 50
270.0
 51
0.0
  0
LINE
  5
BED0
  8
01
 10
977.68766516632877
 20
-373.23408159877278
 30
0.0
 11
1030.6876651663249
 21
-373.23408159877278
 31
0.0
  0
LINE
  5
BED1
  8
01
 10
978.18766516632866
 20
-364.73408159877278
 30
0.0
 11
1030.1876651663249
 21
-364.73408159877278
 31
0.0
  0
LINE
  5
BED2
  8
01
 10
1030.6876651663249
 20
-373.23408159877278
 30
0.0
 11
1030.6876651663249
 21
-365.23408159877278
 31
0.0
  0
LINE
  5
BED3
  8
01
 10
977.68766516632877
 20
-373.23408159877278
 30
0.0
 11
977.68766516632877
 21
-365.23408159877278
 31
0.0
  0
ARC
  5
BED4
  8
01
 10
978.18766516632866
 20
-365.23408159877278
 30
0.0
 40
0.5
 50
90.0
 51
180.0
  0
ARC
  5
BED5
  8
01
 10
1030.1876651663249
 20
-365.23408159877278
 30
0.0
 40
0.5
 50
0.0
 51
90.0
  0
LINE
  5
BED6
  8
01
 10
638.18767316632454
 20
-636.73408159774601
 30
0.0
 11
690.18767316632102
 21
-636.73408159774601
 31
0.0
  0
LINE
  5
BED7
  8
01
 10
690.18767316632102
 20
-689.73408159774601
 30
0.0
 11
638.18767316632454
 21
-689.73408159774601
 31
0.0
  0
LINE
  5
BED8
  8
01
 10
690.68767316632102
 20
-637.23408159774601
 30
0.0
 11
690.68767316632102
 21
-689.23408159774601
 31
0.0
  0
ARC
  5
BED9
  8
01
 10
690.18767316632102
 20
-689.23408159774601
 30
0.0
 40
0.5
 50
270.0
 51
0.0
  0
ARC
  5
BEDA
  8
01
 10
690.18767316632102
 20
-637.23408159774601
 30
0.0
 40
0.5
 50
0.0
 51
90.0
  0
LINE
  5
BEDB
  8
01
 10
637.68767316632454
 20
-637.23408159774601
 30
0.0
 11
637.68767316632488
 21
-652.23408159774431
 31
0.0
  0
LINE
  5
BEDC
  8
01
 10
637.68767316632454
 20
-674.23408159774397
 30
0.0
 11
637.68767316632454
 21
-689.23408159774601
 31
0.0
  0
ARC
  5
BEDD
  8
01
 10
638.18767316632454
 20
-689.23408159774601
 30
0.0
 40
0.5
 50
180.0
 51
270.0
  0
ARC
  5
BEDE
  8
01
 10
638.18767316632454
 20
-637.23408159774601
 30
0.0
 40
0.5
 50
90.0
 51
180.0
  0
LINE
  5
BF97
  8
01
 10
978.18766516632866
 20
-636.73408159774601
 30
0.0
 11
967.88766516632495
 21
-636.73408159774601
 31
0.0
  0
LINE
  5
BF98
  8
01
 10
978.18766516632866
 20
-689.73408159774601
 30
0.0
 11
967.88766516632495
 21
-689.73408159774601
 31
0.0
  0
LINE
  5
BF99
  8
01
 10
969.18766516632502
 20
-639.33408159774604
 30
0.0
 11
969.18766516632502
 21
-687.13408159774588
 31
0.0
  0
LINE
  5
BF9D
  8
01
 10
1010.188549348096
 20
-382.98408159877272
 30
0.0
 11
1045.3489401080981
 21
-382.98408159877272
 31
0.0
  0
LINE
  5
BF9E
  8
01
 10
1010.188549348096
 20
-403.48408159877272
 30
0.0
 11
1045.3489401080981
 21
-403.48408159877272
 31
0.0
  0
LINE
  5
BF9F
  8
01
 10
1044.0489401080979
 20
-385.58408159877268
 30
0.0
 11
1044.0489401080979
 21
-400.8840815987727
 31
0.0
  0
TEXT
  5
BFA3
  8
01
 10
914.58415959267484
 20
-443.6507482654394
 30
0.0
 40
4.5499999999999989
  1
材質：亜鉛ダイキャスト
  0
TEXT
  5
BFA4
  8
01
 10
925.5041595926748
 20
-451.23408159877272
 30
0.0
 40
4.5499999999999989
  1
仕上げ：各種メッキ
  0
SOLID
  5
BFA5
  8
01
 10
1001.610520805609
 20
-432.38806973868282
 30
0.0
 11
1003.928266406386
 21
-431.13274782464748
 31
0.0
 12
1002.142935783176
 22
-433.0719157760139
 32
0.0
 13
1002.142935783176
 23
-433.0719157760139
 33
0.0
1001
ACAD
1000
DSTYLE
1002
{
1070
    40
1040
1.3
1002
}
  0
LINE
  5
BFA7
  8
01
 10
1022.187665166325
 20
-604.73408159774419
 30
0.0
 11
1050.4876651663251
 21
-604.73408159774419
 31
0.0
  0
LINE
  5
BFA8
  8
01
 10
1022.187665166325
 20
-679.23408159774397
 30
0.0
 11
1050.4876651663251
 21
-679.23408159774397
 31
0.0
  0
LINE
  5
BFA9
  8
01
 10
1049.1876651663249
 20
-607.33408159774422
 30
0.0
 11
1049.1876651663249
 21
-676.63408159774394
 31
0.0
  0
LINE
  5
BFAD
  8
01
 10
1124.272768199005
 20
-652.23408159774431
 30
0.0
 11
1141.0727681990049
 21
-652.23408159774431
 31
0.0
  0
LINE
  5
BFAE
  8
01
 10
1124.272768199005
 20
-674.23408159774419
 30
0.0
 11
1141.0727681990049
 21
-674.23408159774419
 31
0.0
  0
LINE
  5
BFAF
  8
01
 10
1139.772768199005
 20
-654.83408159774433
 30
0.0
 11
1139.772768199005
 21
-671.63408159774406
 31
0.0
  0
LINE
  5
BFB3
  8
01
 10
1134.18778150607
 20
-413.23408159877272
 30
0.0
 11
1151.07288453875
 21
-413.23408159877272
 31
0.0
  0
LINE
  5
BFB4
  8
01
 10
1101.5664178997461
 20
-462.43408159877282
 30
0.0
 11
1151.07288453875
 21
-462.43408159877282
 31
0.0
  0
LINE
  5
BFB5
  8
01
 10
1149.7728845387501
 20
-415.83408159877268
 30
0.0
 11
1149.7728845387501
 21
-459.83408159877268
 31
0.0
  0
LINE
  5
BFB9
  8
01
 10
1106.942929503417
 20
-413.23408159877272
 30
0.0
 11
1141.07288453875
 21
-413.23408159877272
 31
0.0
  0
LINE
  5
BFBA
  8
01
 10
1116.4010669327511
 20
-442.42665191737092
 30
0.0
 11
1141.07288453875
 21
-442.42665191737092
 31
0.0
  0
LINE
  5
BFBB
  8
01
 10
1139.7728845387501
 20
-415.83408159877268
 30
0.0
 11
1139.7728845387501
 21
-439.82665191737078
 31
0.0
  0
LINE
  5
BFBF
  8
01
 10
990.18778150606977
 20
-422.43408159877271
 30
0.0
 11
990.18778150606977
 21
-483.73408159877278
 31
0.0
  0
LINE
  5
BFC0
  8
01
 10
1124.631126810051
 20
-472.43408159877271
 30
0.0
 11
1124.631126810051
 21
-483.73408159877278
 31
0.0
  0
LINE
  5
BFC1
  8
01
 10
992.78778150606979
 20
-482.43408159877271
 30
0.0
 11
1122.031126810052
 21
-482.43408159877271
 31
0.0
  0
LINE
  5
BFC5
  8
01
 10
1004.18778150607
 20
-433.02529148562007
 30
0.0
 11
1004.18778150607
 21
-473.73408159877272
 31
0.0
  0
LINE
  5
BFC6
  8
01
 10
1124.631126810051
 20
-444.99791521893741
 30
0.0
 11
1124.631126810051
 21
-473.73408159877272
 31
0.0
  0
LINE
  5
BFC7
  8
01
 10
1006.787781506069
 20
-472.43408159877271
 30
0.0
 11
1122.031126810052
 21
-472.43408159877271
 31
0.0
  0
CIRCLE
  5
BFCB
  8
01
 10
868.68766916632455
 20
-663.23408159774419
 30
0.0
 40
3.0
  0
LINE
  5
BFCC
  8
01
 10
800.98670727200124
 20
-662.48408159774408
 30
0.0
 11
799.68766916632455
 21
-661.73408159774419
 31
0.0
  0
LINE
  5
BFCD
  8
01
 10
799.68766916632455
 20
-661.73408159774419
 30
0.0
 11
798.38863106064787
 21
-662.48408159774408
 31
0.0
  0
LINE
  5
BFCE
  8
01
 10
798.38863106064787
 20
-662.48408159774408
 30
0.0
 11
798.38863106064787
 21
-663.98408159774419
 31
0.0
  0
LINE
  5
BFCF
  8
01
 10
798.38863106064787
 20
-663.98408159774419
 30
0.0
 11
799.68766916632455
 21
-664.73408159774408
 31
0.0
  0
LINE
  5
BFD0
  8
01
 10
799.68766916632455
 20
-664.73408159774408
 30
0.0
 11
800.98670727200124
 21
-663.98408159774419
 31
0.0
  0
LINE
  5
BFD1
  8
01
 10
800.98670727200124
 20
-663.98408159774419
 30
0.0
 11
800.98670727200124
 21
-662.48408159774408
 31
0.0
  0
CIRCLE
  5
BFD2
  8
01
 10
799.68766916632455
 20
-663.23408159774419
 30
0.0
 40
3.0
  0
LINE
  5
BFD3
  8
01
 10
953.18766516632502
 20
-577.23408159774397
 30
0.0
 11
953.18766516632502
 21
-555.93408159774413
 31
0.0
  0
LINE
  5
BFD4
  8
01
 10
1004.187665166325
 20
-632.70371750690708
 30
0.0
 11
1004.187665166325
 21
-555.93408159774413
 31
0.0
  0
LINE
  5
BFD5
  8
01
 10
955.78766516632493
 20
-557.23408159774397
 30
0.0
 11
1001.587665166325
 21
-557.23408159774397
 31
0.0
  0
LINE
  5
BFD9
  8
01
 10
1022.187665166325
 20
-605.23408159774408
 30
0.0
 11
1022.187665166325
 21
-545.93408159774413
 31
0.0
  0
LINE
  5
BFDA
  8
01
 10
953.18766516632502
 20
-577.23408159774397
 30
0.0
 11
953.18766516632502
 21
-545.93408159774413
 31
0.0
  0
LINE
  5
BFDB
  8
01
 10
1019.587665166325
 20
-547.23408159774408
 30
0.0
 11
955.78766516632493
 21
-547.23408159774408
 31
0.0
  0
LINE
  5
BFDF
  8
01
 10
942.18766516632502
 20
-635.23408229587494
 30
0.0
 11
942.18766516632502
 21
-555.93408159774413
 31
0.0
  0
LINE
  5
BFE0
  8
01
 10
953.18766516632502
 20
-577.23408159774397
 30
0.0
 11
953.18766516632502
 21
-555.93408159774413
 31
0.0
  0
LINE
  5
BFE1
  8
01
 10
944.78766516632504
 20
-557.23408159774397
 30
0.0
 11
950.587665166325
 21
-557.23408159774397
 31
0.0
  0
LINE
  5
BFE5
  8
01
 10
821.68766916632444
 20
-583.23408159774397
 30
0.0
 11
821.68766916632444
 21
-555.93408159774413
 31
0.0
  0
LINE
  5
BFE6
  8
01
 10
846.68766916632444
 20
-583.23408159774397
 30
0.0
 11
846.68766916632444
 21
-555.93408159774413
 31
0.0
  0
LINE
  5
BFE7
  8
01
 10
824.28766916632458
 20
-557.23408159774397
 30
0.0
 11
844.08766916632453
 21
-557.23408159774397
 31
0.0
  0
LINE
  5
BFEB
  8
01
 10
840.68766916632455
 20
-577.23408159774397
 30
0.0
 11
895.48766916632439
 21
-577.23408159774397
 31
0.0
  0
LINE
  5
BFEC
  8
01
 10
840.68766916632455
 20
-707.23408159774397
 30
0.0
 11
895.48766916632439
 21
-707.23408159774397
 31
0.0
  0
LINE
  5
BFED
  8
01
 10
894.18766916632455
 20
-579.83408159774399
 30
0.0
 11
894.18766916632455
 21
-704.63408159774394
 31
0.0
  0
LINE
  5
BFF1
  8
01
 10
840.68766916632455
 20
-585.23408159774408
 30
0.0
 11
879.99126020288111
 21
-585.23408159774408
 31
0.0
  0
LINE
  5
BFF2
  8
01
 10
840.68766916632455
 20
-699.23408159774397
 30
0.0
 11
879.99126020288111
 21
-699.23408159774397
 31
0.0
  0
LINE
  5
BFF3
  8
01
 10
878.69126020288127
 20
-587.83408159774399
 30
0.0
 11
878.69126020288127
 21
-696.63408159774394
 31
0.0
  0
TEXT
  5
BFF7
  8
01
 10
877.78126020288153
 20
-631.35369425076237
 30
0.0
 40
4.5499999999999989
  1
114
 50
90.0
  0
LINE
  5
BFF8
  8
01
  6
BYBLOCK
 10
879.3879280968813
 20
-696.63408159774394
 30
0.0
 11
878.69126020288127
 21
-699.23408159774397
 31
0.0
  0
LINE
  5
BFF9
  8
01
  6
BYBLOCK
 10
878.69126020288127
 20
-699.23408159774397
 30
0.0
 11
877.99459230888124
 21
-696.63408159774394
 31
0.0
  0
LINE
  5
BFFA
  8
01
  6
BYBLOCK
 10
878.69126020288127
 20
-699.23408159774397
 30
0.0
 11
878.69126020288127
 21
-696.63408159774394
 31
0.0
  0
LINE
  5
BFFB
  8
01
  6
BYBLOCK
 10
877.99459230888124
 20
-587.83408159774399
 30
0.0
 11
878.69126020288127
 21
-585.23408159774408
 31
0.0
  0
LINE
  5
BFFC
  8
01
  6
BYBLOCK
 10
878.69126020288127
 20
-585.23408159774408
 30
0.0
 11
879.3879280968813
 21
-587.83408159774399
 31
0.0
  0
LINE
  5
BFFD
  8
01
  6
BYBLOCK
 10
878.69126020288127
 20
-585.23408159774408
 30
0.0
 11
878.69126020288127
 21
-587.83408159774399
 31
0.0
  0
TEXT
  5
BFFE
  8
01
 10
893.27766916632481
 20
-631.24536091742914
 30
0.0
 40
4.5499999999999989
  1
130
 50
90.0
  0
LINE
  5
BFFF
  8
01
  6
BYBLOCK
 10
894.88433706032447
 20
-704.63408159774394
 30
0.0
 11
894.18766916632455
 21
-707.23408159774397
 31
0.0
  0
LINE
  5
C000
  8
01
  6
BYBLOCK
 10
894.18766916632455
 20
-707.23408159774397
 30
0.0
 11
893.49100127232452
 21
-704.63408159774394
 31
0.0
  0
LINE
  5
C001
  8
01
  6
BYBLOCK
 10
894.18766916632455
 20
-707.23408159774397
 30
0.0
 11
894.18766916632455
 21
-704.63408159774394
 31
0.0
  0
LINE
  5
C002
  8
01
  6
BYBLOCK
 10
893.49100127232452
 20
-579.83408159774399
 30
0.0
 11
894.18766916632455
 21
-577.23408159774397
 31
0.0
  0
LINE
  5
C003
  8
01
  6
BYBLOCK
 10
894.18766916632455
 20
-577.23408159774397
 30
0.0
 11
894.88433706032447
 21
-579.83408159774399
 31
0.0
  0
LINE
  5
C004
  8
01
  6
BYBLOCK
 10
894.18766916632455
 20
-577.23408159774397
 30
0.0
 11
894.18766916632455
 21
-579.83408159774399
 31
0.0
  0
TEXT
  5
C005
  8
01
 10
829.8543358329913
 20
-556.32408159774411
 30
0.0
 40
4.5499999999999989
  1
25
  0
LINE
  5
C006
  8
01
  6
BYBLOCK
 10
844.08766916632453
 20
-556.53741370374405
 30
0.0
 11
846.68766916632444
 21
-557.23408159774397
 31
0.0
  0
LINE
  5
C007
  8
01
  6
BYBLOCK
 10
846.68766916632444
 20
-557.23408159774397
 30
0.0
 11
844.08766916632453
 21
-557.93074949174411
 31
0.0
  0
LINE
  5
C008
  8
01
  6
BYBLOCK
 10
846.68766916632444
 20
-557.23408159774397
 30
0.0
 11
844.08766916632453
 21
-557.23408159774397
 31
0.0
  0
LINE
  5
C009
  8
01
  6
BYBLOCK
 10
824.28766916632458
 20
-557.93074949174411
 30
0.0
 11
821.68766916632444
 21
-557.23408159774397
 31
0.0
  0
LINE
  5
C00A
  8
01
  6
BYBLOCK
 10
821.68766916632444
 20
-557.23408159774397
 30
0.0
 11
824.28766916632458
 21
-556.53741370374405
 31
0.0
  0
LINE
  5
C00B
  8
01
  6
BYBLOCK
 10
821.68766916632444
 20
-557.23408159774397
 30
0.0
 11
824.28766916632458
 21
-557.23408159774397
 31
0.0
  0
TEXT
  5
C00C
  8
01
 10
943.67933183299158
 20
-556.32408159774411
 30
0.0
 40
4.5499999999999989
  1
11
  0
LINE
  5
C00D
  8
01
  6
BYBLOCK
 10
950.587665166325
 20
-556.53741370374405
 30
0.0
 11
953.18766516632502
 21
-557.23408159774397
 31
0.0
  0
LINE
  5
C00E
  8
01
  6
BYBLOCK
 10
953.18766516632502
 20
-557.23408159774397
 30
0.0
 11
950.587665166325
 21
-557.93074949174411
 31
0.0
  0
LINE
  5
C00F
  8
01
  6
BYBLOCK
 10
953.18766516632502
 20
-557.23408159774397
 30
0.0
 11
950.587665166325
 21
-557.23408159774397
 31
0.0
  0
LINE
  5
C010
  8
01
  6
BYBLOCK
 10
944.78766516632504
 20
-557.93074949174411
 30
0.0
 11
942.18766516632502
 21
-557.23408159774397
 31
0.0
  0
LINE
  5
C011
  8
01
  6
BYBLOCK
 10
942.18766516632502
 20
-557.23408159774397
 30
0.0
 11
944.78766516632504
 21
-556.53741370374405
 31
0.0
  0
LINE
  5
C012
  8
01
  6
BYBLOCK
 10
942.18766516632502
 20
-557.23408159774397
 30
0.0
 11
944.78766516632504
 21
-557.23408159774397
 31
0.0
  0
TEXT
  5
C013
  8
01
 10
983.35433183299153
 20
-546.32408159774411
 30
0.0
 40
4.5499999999999989
  1
69
  0
LINE
  5
C014
  8
01
  6
BYBLOCK
 10
955.78766516632493
 20
-547.93074949174411
 30
0.0
 11
953.18766516632502
 21
-547.23408159774408
 31
0.0
  0
LINE
  5
C015
  8
01
  6
BYBLOCK
 10
953.18766516632502
 20
-547.23408159774408
 30
0.0
 11
955.78766516632493
 21
-546.53741370374405
 31
0.0
  0
LINE
  5
C016
  8
01
  6
BYBLOCK
 10
953.18766516632502
 20
-547.23408159774408
 30
0.0
 11
955.78766516632493
 21
-547.23408159774408
 31
0.0
  0
LINE
  5
C017
  8
01
  6
BYBLOCK
 10
1019.587665166325
 20
-546.53741370374405
 30
0.0
 11
1022.187665166325
 21
-547.23408159774408
 31
0.0
  0
LINE
  5
C018
  8
01
  6
BYBLOCK
 10
1022.187665166325
 20
-547.23408159774408
 30
0.0
 11
1019.587665166325
 21
-547.93074949174411
 31
0.0
  0
LINE
  5
C019
  8
01
  6
BYBLOCK
 10
1022.187665166325
 20
-547.23408159774408
 30
0.0
 11
1019.587665166325
 21
-547.23408159774408
 31
0.0
  0
TEXT
  5
C01A
  8
01
 10
975.00433183299162
 20
-556.32408159774411
 30
0.0
 40
4.5499999999999989
  1
51
  0
LINE
  5
C01B
  8
01
  6
BYBLOCK
 10
1001.587665166325
 20
-556.53741370374405
 30
0.0
 11
1004.187665166325
 21
-557.23408159774397
 31
0.0
  0
LINE
  5
C01C
  8
01
  6
BYBLOCK
 10
1004.187665166325
 20
-557.23408159774397
 30
0.0
 11
1001.587665166325
 21
-557.93074949174411
 31
0.0
  0
LINE
  5
C01D
  8
01
  6
BYBLOCK
 10
1004.187665166325
 20
-557.23408159774397
 30
0.0
 11
1001.587665166325
 21
-557.23408159774397
 31
0.0
  0
LINE
  5
C01E
  8
01
  6
BYBLOCK
 10
955.78766516632493
 20
-557.93074949174411
 30
0.0
 11
953.18766516632502
 21
-557.23408159774397
 31
0.0
  0
LINE
  5
C01F
  8
01
  6
BYBLOCK
 10
953.18766516632502
 20
-557.23408159774397
 30
0.0
 11
955.78766516632493
 21
-556.53741370374405
 31
0.0
  0
LINE
  5
C020
  8
01
  6
BYBLOCK
 10
953.18766516632502
 20
-557.23408159774397
 30
0.0
 11
955.78766516632493
 21
-557.23408159774397
 31
0.0
  0
TEXT
  5
C021
  8
01
 10
1057.58445415806
 20
-471.52408159877268
 30
0.0
 40
4.5499999999999989
  1
120
  0
LINE
  5
C022
  8
01
  6
BYBLOCK
 10
1122.031126810052
 20
-471.73741370477279
 30
0.0
 11
1124.631126810051
 21
-472.43408159877271
 31
0.0
  0
LINE
  5
C023
  8
01
  6
BYBLOCK
 10
1124.631126810051
 20
-472.43408159877271
 30
0.0
 11
1122.031126810052
 21
-473.13074949277268
 31
0.0
  0
LINE
  5
C024
  8
01
  6
BYBLOCK
 10
1124.631126810051
 20
-472.43408159877271
 30
0.0
 11
1122.031126810052
 21
-472.43408159877271
 31
0.0
  0
LINE
  5
C025
  8
01
  6
BYBLOCK
 10
1006.787781506069
 20
-473.13074949277268
 30
0.0
 11
1004.18778150607
 21
-472.43408159877271
 31
0.0
  0
LINE
  5
C026
  8
01
  6
BYBLOCK
 10
1004.18778150607
 20
-472.43408159877271
 30
0.0
 11
1006.787781506069
 21
-471.73741370477279
 31
0.0
  0
LINE
  5
C027
  8
01
  6
BYBLOCK
 10
1004.18778150607
 20
-472.43408159877271
 30
0.0
 11
1006.787781506069
 21
-472.43408159877271
 31
0.0
  0
TEXT
  5
C028
  8
01
 10
1050.4761208247271
 20
-481.5240815987728
 30
0.0
 40
4.5499999999999989
  1
134
  0
LINE
  5
C029
  8
01
  6
BYBLOCK
 10
1122.031126810052
 20
-481.73741370477268
 30
0.0
 11
1124.631126810051
 21
-482.43408159877271
 31
0.0
  0
LINE
  5
C02A
  8
01
  6
BYBLOCK
 10
1124.631126810051
 20
-482.43408159877271
 30
0.0
 11
1122.031126810052
 21
-483.13074949277268
 31
0.0
  0
LINE
  5
C02B
  8
01
  6
BYBLOCK
 10
1124.631126810051
 20
-482.43408159877271
 30
0.0
 11
1122.031126810052
 21
-482.43408159877271
 31
0.0
  0
LINE
  5
C02C
  8
01
  6
BYBLOCK
 10
992.78778150606979
 20
-483.13074949277268
 30
0.0
 11
990.18778150606977
 21
-482.43408159877271
 31
0.0
  0
LINE
  5
C02D
  8
01
  6
BYBLOCK
 10
990.18778150606977
 20
-482.43408159877271
 30
0.0
 11
992.78778150606979
 21
-481.73741370477268
 31
0.0
  0
LINE
  5
C02E
  8
01
  6
BYBLOCK
 10
990.18778150606977
 20
-482.43408159877271
 30
0.0
 11
992.78778150606979
 21
-482.43408159877271
 31
0.0
  0
TEXT
  5
C02F
  8
01
 10
1138.86288453875
 20
-432.05536675807161
 30
0.0
 40
4.5499999999999989
  1
29
 50
90.0
  0
LINE
  5
C030
  8
01
  6
BYBLOCK
 10
1140.4695524327501
 20
-439.82665191737078
 30
0.0
 11
1139.7728845387501
 21
-442.42665191737092
 31
0.0
  0
LINE
  5
C031
  8
01
  6
BYBLOCK
 10
1139.7728845387501
 20
-442.42665191737092
 30
0.0
 11
1139.07621664475
 21
-439.82665191737078
 31
0.0
  0
LINE
  5
C032
  8
01
  6
BYBLOCK
 10
1139.7728845387501
 20
-442.42665191737092
 30
0.0
 11
1139.7728845387501
 21
-439.82665191737078
 31
0.0
  0
LINE
  5
C033
  8
01
  6
BYBLOCK
 10
1139.07621664475
 20
-415.83408159877268
 30
0.0
 11
1139.7728845387501
 21
-413.23408159877272
 31
0.0
  0
LINE
  5
C034
  8
01
  6
BYBLOCK
 10
1139.7728845387501
 20
-413.23408159877272
 30
0.0
 11
1140.4695524327501
 21
-415.83408159877268
 31
0.0
  0
LINE
  5
C035
  8
01
  6
BYBLOCK
 10
1139.7728845387501
 20
-413.23408159877272
 30
0.0
 11
1139.7728845387501
 21
-415.83408159877268
 31
0.0
  0
TEXT
  5
C036
  8
01
 10
1148.86288453875
 20
-442.05908159877248
 30
0.0
 40
4.5499999999999989
  1
49
 50
90.0
  0
LINE
  5
C037
  8
01
  6
BYBLOCK
 10
1150.4695524327501
 20
-459.83408159877268
 30
0.0
 11
1149.7728845387501
 21
-462.43408159877282
 31
0.0
  0
LINE
  5
C038
  8
01
  6
BYBLOCK
 10
1149.7728845387501
 20
-462.43408159877282
 30
0.0
 11
1149.07621664475
 21
-459.83408159877268
 31
0.0
  0
LINE
  5
C039
  8
01
  6
BYBLOCK
 10
1149.7728845387501
 20
-462.43408159877282
 30
0.0
 11
1149.7728845387501
 21
-459.83408159877268
 31
0.0
  0
LINE
  5
C03A
  8
01
  6
BYBLOCK
 10
1149.07621664475
 20
-415.83408159877268
 30
0.0
 11
1149.7728845387501
 21
-413.23408159877272
 31
0.0
  0
LINE
  5
C03B
  8
01
  6
BYBLOCK
 10
1149.7728845387501
 20
-413.23408159877272
 30
0.0
 11
1150.4695524327501
 21
-415.83408159877268
 31
0.0
  0
LINE
  5
C03C
  8
01
  6
BYBLOCK
 10
1149.7728845387501
 20
-413.23408159877272
 30
0.0
 11
1149.7728845387501
 21
-415.83408159877268
 31
0.0
  0
TEXT
  5
C03D
  8
01
 10
1138.862768199006
 20
-667.56741493107745
 30
0.0
 40
4.5499999999999989
  1
22
 50
90.0
  0
LINE
  5
C03E
  8
01
  6
BYBLOCK
 10
1140.469436093005
 20
-671.63408159774406
 30
0.0
 11
1139.772768199005
 21
-674.23408159774419
 31
0.0
  0
LINE
  5
C03F
  8
01
  6
BYBLOCK
 10
1139.772768199005
 20
-674.23408159774419
 30
0.0
 11
1139.076100305005
 21
-671.63408159774406
 31
0.0
  0
LINE
  5
C040
  8
01
  6
BYBLOCK
 10
1139.772768199005
 20
-674.23408159774419
 30
0.0
 11
1139.772768199005
 21
-671.63408159774406
 31
0.0
  0
LINE
  5
C041
  8
01
  6
BYBLOCK
 10
1139.076100305005
 20
-654.83408159774433
 30
0.0
 11
1139.772768199005
 21
-652.23408159774431
 31
0.0
  0
LINE
  5
C042
  8
01
  6
BYBLOCK
 10
1139.772768199005
 20
-652.23408159774431
 30
0.0
 11
1140.469436093005
 21
-654.83408159774433
 31
0.0
  0
LINE
  5
C043
  8
01
  6
BYBLOCK
 10
1139.772768199005
 20
-652.23408159774431
 30
0.0
 11
1139.772768199005
 21
-654.83408159774433
 31
0.0
  0
TEXT
  5
C044
  8
01
 10
1048.2776651663251
 20
-630.92659746357663
 30
0.0
 40
4.5499999999999989
  1
74.5
 50
90.0
  0
LINE
  5
C045
  8
01
  6
BYBLOCK
 10
1049.884333060324
 20
-676.63408159774394
 30
0.0
 11
1049.1876651663249
 21
-679.23408159774397
 31
0.0
  0
LINE
  5
C046
  8
01
  6
BYBLOCK
 10
1049.1876651663249
 20
-679.23408159774397
 30
0.0
 11
1048.490997272324
 21
-676.63408159774394
 31
0.0
  0
LINE
  5
C047
  8
01
  6
BYBLOCK
 10
1049.1876651663249
 20
-679.23408159774397
 30
0.0
 11
1049.1876651663249
 21
-676.63408159774394
 31
0.0
  0
LINE
  5
C048
  8
01
  6
BYBLOCK
 10
1048.490997272324
 20
-607.33408159774422
 30
0.0
 11
1049.1876651663249
 21
-604.73408159774419
 31
0.0
  0
LINE
  5
C049
  8
01
  6
BYBLOCK
 10
1049.1876651663249
 20
-604.73408159774419
 30
0.0
 11
1049.884333060324
 21
-607.33408159774422
 31
0.0
  0
LINE
  5
C04A
  8
01
  6
BYBLOCK
 10
1049.1876651663249
 20
-604.73408159774419
 30
0.0
 11
1049.1876651663249
 21
-607.33408159774422
 31
0.0
  0
LINE
  5
C04B
  8
01
 10
1001.876728294393
 20
-432.72999275734833
 30
0.0
 11
976.94082625934152
 21
-452.14408159877269
 31
0.0
1001
ACAD
1000
DSTYLE
1002
{
1070
    40
1040
1.3
1002
}
  0
LINE
  5
C04C
  8
01
 10
976.94082625934152
 20
-452.14408159877269
 30
0.0
 11
973.43082625934153
 21
-452.14408159877269
 31
0.0
1001
ACAD
1000
DSTYLE
1002
{
1070
    40
1040
1.3
1002
}
  0
TEXT
  5
C04D
  8
01
 10
1043.1389401080969
 20
-400.81741493210581
 30
0.0
 40
4.5499999999999989
  1
20.5
 50
90.0
  0
LINE
  5
C04E
  8
01
  6
BYBLOCK
 10
1044.7456080020979
 20
-400.8840815987727
 30
0.0
 11
1044.0489401080979
 21
-403.48408159877272
 31
0.0
  0
LINE
  5
C04F
  8
01
  6
BYBLOCK
 10
1044.0489401080979
 20
-403.48408159877272
 30
0.0
 11
1043.352272214097
 21
-400.8840815987727
 31
0.0
  0
LINE
  5
C050
  8
01
  6
BYBLOCK
 10
1044.0489401080979
 20
-403.48408159877272
 30
0.0
 11
1044.0489401080979
 21
-400.8840815987727
 31
0.0
  0
LINE
  5
C051
  8
01
  6
BYBLOCK
 10
1043.352272214097
 20
-385.58408159877268
 30
0.0
 11
1044.0489401080979
 21
-382.98408159877272
 31
0.0
  0
LINE
  5
C052
  8
01
  6
BYBLOCK
 10
1044.0489401080979
 20
-382.98408159877272
 30
0.0
 11
1044.7456080020979
 21
-385.58408159877268
 31
0.0
  0
LINE
  5
C053
  8
01
  6
BYBLOCK
 10
1044.0489401080979
 20
-382.98408159877272
 30
0.0
 11
1044.0489401080979
 21
-385.58408159877268
 31
0.0
  0
TEXT
  5
C054
  8
01
 10
968.27766516632505
 20
-671.61549422656549
 30
0.0
 40
4.5499999999999989
  1
□53
 50
90.0
  0
LINE
  5
C055
  8
01
  6
BYBLOCK
 10
969.88433306032505
 20
-687.13408159774588
 30
0.0
 11
969.18766516632502
 21
-689.73408159774601
 31
0.0
  0
LINE
  5
C056
  8
01
  6
BYBLOCK
 10
969.18766516632502
 20
-689.73408159774601
 30
0.0
 11
968.49099727232499
 21
-687.13408159774588
 31
0.0
  0
LINE
  5
C057
  8
01
  6
BYBLOCK
 10
969.18766516632502
 20
-689.73408159774601
 30
0.0
 11
969.18766516632502
 21
-687.13408159774588
 31
0.0
  0
LINE
  5
C058
  8
01
  6
BYBLOCK
 10
968.49099727232499
 20
-639.33408159774604
 30
0.0
 11
969.18766516632502
 21
-636.73408159774601
 31
0.0
  0
LINE
  5
C059
  8
01
  6
BYBLOCK
 10
969.18766516632502
 20
-636.73408159774601
 30
0.0
 11
969.88433306032505
 21
-639.33408159774604
 31
0.0
  0
LINE
  5
C05A
  8
01
  6
BYBLOCK
 10
969.18766516632502
 20
-636.73408159774601
 30
0.0
 11
969.18766516632502
 21
-639.33408159774604
 31
0.0
  0
VIEWPORT
  5
57
 67
     1
  8
0
 10
100.7131883371852
 20
17.563735176621488
 30
0.0
 40
617.38134605695495
 41
283.57685556175397
 68
     1
 69
     1
1001
ACAD
1000
MVIEW
1002
{
1070
    16
1010
0.0
1020
0.0
1030
0.0
1010
0.0
1020
0.0
1030
1.0
1040
0.0
1040
283.57685556175397
1040
100.7131883371852
1040
17.563735176621488
1040
50.0
1040
0.0
1040
0.0
1070
     0
1070
   100
1070
     1
1070
     1
1070
     0
1070
     0
1070
     0
1070
     0
1040
0.0
1040
0.0
1040
0.0
1040
10.0
1040
10.0
1040
10.0
1040
10.0
1070
     0
1002
{
1002
}
1002
}
  0
ENDSEC
  0
EOF
