  0
SECTION
  2
HEADER
  9
$ACADVER
  1
AC1009
  9
$INSBASE
 10
0.0
 20
0.0
 30
0.0
  9
$EXTMIN
 10
550.13638109049225
 20
-718.07002159774402
 30
0.0
  9
$EXTMAX
 10
1139.5390483683241
 20
-299.68408159877322
 30
0.0
  9
$LIMMIN
 10
0.0
 20
0.0
  9
$LIMMAX
 10
420.0
 20
297.0
  9
$ORTHOMODE
 70
     0
  9
$REGENMODE
 70
     1
  9
$FILLMODE
 70
     1
  9
$QTEXTMODE
 70
     0
  9
$MIRRTEXT
 70
     0
  9
$DRAGMODE
 70
     2
  9
$LTSCALE
 40
0.5
  9
$OSMODE
 70
  2175
  9
$ATTMODE
 70
     1
  9
$TEXTSIZE
 40
4.0
  9
$TRACEWID
 40
1.0
  9
$TEXTSTYLE
  7
STANDARD
  9
$CLAYER
  8
1TEXT
  9
$CELTYPE
  6
BYLAYER
  9
$CECOLOR
 62
   256
  9
$DIMSCALE
 40
1.0
  9
$DIMASZ
 40
2.0
  9
$DIMEXO
 40
0.0
  9
$DIMDLI
 40
7.0
  9
$DIMRND
 40
0.0
  9
$DIMDLE
 40
0.0
  9
$DIMEXE
 40
1.0
  9
$DIMTP
 40
0.0
  9
$DIMTM
 40
0.0
  9
$DIMTXT
 40
3.5
  9
$DIMCEN
 40
0.0
  9
$DIMTSZ
 40
0.0
  9
$DIMTOL
 70
     0
  9
$DIMLIM
 70
     0
  9
$DIMTIH
 70
     0
  9
$DIMTOH
 70
     0
  9
$DIMSE1
 70
     0
  9
$DIMSE2
 70
     0
  9
$DIMTAD
 70
     1
  9
$DIMZIN
 70
     8
  9
$DIMBLK
  1

  9
$DIMASO
 70
     1
  9
$DIMSHO
 70
     1
  9
$DIMPOST
  1
 
  9
$DIMAPOST
  1

  9
$DIMALT
 70
     0
  9
$DIMALTD
 70
     2
  9
$DIMALTF
 40
25.399999999999999
  9
$DIMLFAC
 40
1.0
  9
$DIMTOFL
 70
     1
  9
$DIMTVP
 40
0.0
  9
$DIMTIX
 70
     0
  9
$DIMSOXD
 70
     0
  9
$DIMSAH
 70
     1
  9
$DIMBLK1
  1
OPEN30
  9
$DIMBLK2
  1
OPEN30
  9
$DIMSTYLE
  2
NEWX10
  9
$DIMCLRD
 70
   256
  9
$DIMCLRE
 70
   256
  9
$DIMCLRT
 70
   201
  9
$DIMTFAC
 40
0.7
  9
$DIMGAP
 40
0.7
  9
$LUNITS
 70
     2
  9
$LUPREC
 70
     4
  9
$SKETCHINC
 40
1.0
  9
$FILLETRAD
 40
0.0
  9
$AUNITS
 70
     0
  9
$AUPREC
 70
     2
  9
$MENU
  1
acad
  9
$ELEVATION
 40
0.0
  9
$PELEVATION
 40
0.0
  9
$THICKNESS
 40
0.0
  9
$LIMCHECK
 70
     0
  9
$BLIPMODE
 70
     0
  9
$CHAMFERA
 40
10.0
  9
$CHAMFERB
 40
10.0
  9
$SKPOLY
 70
     0
  9
$TDCREATE
 40
2451318.621352917
  9
$TDUPDATE
 40
2456015.8116977671
  9
$TDINDWG
 40
0.4499731481
  9
$TDUSRTIMER
 40
0.4499731481
  9
$USRTIMER
 70
     1
  9
$ANGBASE
 50
0.0
  9
$ANGDIR
 70
     0
  9
$PDMODE
 70
     0
  9
$PDSIZE
 40
0.0
  9
$PLINEWID
 40
0.0
  9
$COORDS
 70
     2
  9
$SPLFRAME
 70
     0
  9
$SPLINETYPE
 70
     6
  9
$SPLINESEGS
 70
     8
  9
$ATTDIA
 70
     0
  9
$ATTREQ
 70
     1
  9
$HANDLING
 70
     1
  9
$HANDSEED
  5
BF29
  9
$SURFTAB1
 70
     6
  9
$SURFTAB2
 70
     6
  9
$SURFTYPE
 70
     6
  9
$SURFU
 70
     6
  9
$SURFV
 70
     6
  9
$UCSNAME
  2

  9
$UCSORG
 10
0.0
 20
0.0
 30
0.0
  9
$UCSXDIR
 10
1.0
 20
0.0
 30
0.0
  9
$UCSYDIR
 10
0.0
 20
1.0
 30
0.0
  9
$PUCSNAME
  2

  9
$PUCSORG
 10
0.0
 20
0.0
 30
0.0
  9
$PUCSXDIR
 10
1.0
 20
0.0
 30
0.0
  9
$PUCSYDIR
 10
0.0
 20
1.0
 30
0.0
  9
$USERI1
 70
     0
  9
$USERI2
 70
     0
  9
$USERI3
 70
     0
  9
$USERI4
 70
     0
  9
$USERI5
 70
     0
  9
$USERR1
 40
0.0
  9
$USERR2
 40
0.0
  9
$USERR3
 40
0.0
  9
$USERR4
 40
0.0
  9
$USERR5
 40
0.0
  9
$WORLDVIEW
 70
     1
  9
$SHADEDGE
 70
     3
  9
$SHADEDIF
 70
    70
  9
$TILEMODE
 70
     1
  9
$MAXACTVP
 70
    48
  9
$PLIMCHECK
 70
     0
  9
$PEXTMIN
 10
1.0000000000000000E+020
 20
1.0000000000000000E+020
 30
1.0000000000000000E+020
  9
$PEXTMAX
 10
-1.0000000000000000E+020
 20
-1.0000000000000000E+020
 30
-1.0000000000000000E+020
  9
$PLIMMIN
 10
0.0
 20
0.0
  9
$PLIMMAX
 10
420.0
 20
297.0
  9
$UNITMODE
 70
     0
  9
$VISRETAIN
 70
     1
  9
$PLINEGEN
 70
     0
  9
$PSLTSCALE
 70
     1
  0
ENDSEC
  0
SECTION
  2
TABLES
  0
TABLE
  2
VPORT
 70
     1
  0
VPORT
  2
*ACTIVE
 70
     0
 10
0.0
 20
0.0
 11
1.0
 21
1.0
 12
844.8474651639832
 22
-508.88685038172082
 13
0.0
 23
0.0
 14
10.0
 24
10.0
 15
10.0
 25
10.0
 16
0.0
 26
0.0
 36
1.0
 17
0.0
 27
0.0
 37
0.0
 40
444.0463513971543
 41
1.5395095367847409
 42
50.0
 43
0.0
 44
0.0
 50
0.0
 51
0.0
 71
     0
 72
   100
 73
     1
 74
     1
 75
     0
 76
     0
 77
     0
 78
     0
  0
ENDTAB
  0
TABLE
  2
LTYPE
 70
    12
  0
LTYPE
  2
CONTINUOUS
 70
     0
  3
Solid line
 72
    65
 73
     0
 40
0.0
  0
LTYPE
  2
XREF1|CENTER2
 70
    48
  3
Center (.5x) ___ _ ___ _ ___ _ ___ _ ___ _ ___
 72
    65
 73
     4
 40
28.574999999999999
 49
19.050000000000001
 49
-3.1749999999999989
 49
3.1749999999999989
 49
-3.1749999999999989
  0
LTYPE
  2
A3WAKUDAKE|CENTER2
 70
    48
  3
Center (.5x) ___ _ ___ _ ___ _ ___ _ ___ _ ___
 72
    65
 73
     4
 40
28.574999999999999
 49
19.050000000000001
 49
-3.1749999999999989
 49
3.1749999999999989
 49
-3.1749999999999989
  0
ENDTAB
  0
TABLE
  2
LAYER
 70
    36
  0
LAYER
  2
0
 70
     0
 62
     7
  6
CONTINUOUS
  0
LAYER
  2
1TEXT
 70
     0
 62
     7
  6
CONTINUOUS
  0
LAYER
  2
01
 70
     0
 62
     1
  6
CONTINUOUS
  0
LAYER
  2
A3WAKUDAKE|THICK
 70
    48
 62
     7
  6
CONTINUOUS
  0
LAYER
  2
A3WAKUDAKE|POINT
 70
    48
 62
     7
  6
CONTINUOUS
  0
LAYER
  2
A3WAKUDAKE|1CENTER
 70
    48
 62
     7
  6
A3WAKUDAKE|CENTER2
  0
LAYER
  2
A3WAKUDAKE|0-6
 70
    48
 62
     7
  6
CONTINUOUS
  0
LAYER
  2
A3WAKUDAKE|1DIM
 70
    48
 62
     7
  6
CONTINUOUS
  0
LAYER
  2
XREF1|1CENTER
 70
    48
 62
     7
  6
XREF1|CENTER2
  0
ENDTAB
  0
TABLE
  2
STYLE
 70
     4
  0
STYLE
  2
STANDARD
 70
     0
 40
0.0
 41
1.0
 50
0.0
 71
     0
 42
4.0
  3
romans.shx
  4
extfont.shx
  0
ENDTAB
  0
TABLE
  2
VIEW
 70
     5
  0
ENDTAB
  0
TABLE
  2
UCS
 70
     0
  0
ENDTAB
  0
TABLE
  2
APPID
 70
     9
  0
APPID
  2
ACAD
 70
     0
  0
APPID
  2
DRAWINGVARIABLESXDATA
 70
     0
  0
APPID
  2
CONTENTTABDATA
 70
     0
  0
APPID
  2
CONTENTCURRENTTAB
 70
     0
  0
APPID
  2
CONTENTBLOCKDESCRIPTION
 70
     0
  0
APPID
  2
CONTENTBLOCKICON
 70
     0
  0
APPID
  2
CONTENTLONGBLOCKNAME
 70
     0
  0
APPID
  2
ACAD_PSEXT
 70
     0
  0
APPID
  2
ACAD_MLEADERVER
 70
     0
  0
ENDTAB
  0
TABLE
  2
DIMSTYLE
 70
     5
  0
DIMSTYLE
  2
NEWX10
 70
     0
  3
 
  4

  5

  6
OPEN30
  7
OPEN30
 40
1.0
 41
2.0
 42
0.0
 43
7.0
 44
1.0
 45
0.0
 46
0.0
 47
0.0
 48
0.0
140
3.5
141
0.0
142
0.0
143
25.399999999999999
144
1.0
145
0.0
146
0.7
147
0.7
 71
     0
 72
     0
 73
     0
 74
     0
 75
     0
 76
     0
 77
     1
 78
     8
170
     0
171
     2
172
     1
173
     1
174
     0
175
     0
176
   256
177
   256
178
   201
  0
ENDTAB
  0
ENDSEC
  0
SECTION
  2
BLOCKS
  0
BLOCK
  8
0
  2
$MODEL_SPACE
 70
     0
 10
0.0
 20
0.0
 30
0.0
  3
$MODEL_SPACE
  1

  0
ENDBLK
  5
1A
  8
0
  0
BLOCK
 67
     1
  8
0
  2
$PAPER_SPACE
 70
     0
 10
0.0
 20
0.0
 30
0.0
  3
$PAPER_SPACE
  1

  0
ENDBLK
  5
17
 67
     1
  8
0
  0
BLOCK
  8
0
  2
_OPEN30
 70
     0
 10
0.0
 20
0.0
 30
0.0
  3
_OPEN30
  1

  0
LINE
  5
44
  8
0
  6
BYBLOCK
 62
     0
 10
-1.0
 20
0.26794919
 30
0.0
 11
0.0
 21
0.0
 31
0.0
  0
LINE
  5
45
  8
0
  6
BYBLOCK
 62
     0
 10
0.0
 20
0.0
 30
0.0
 11
-1.0
 21
-0.26794919
 31
0.0
  0
LINE
  5
46
  8
0
  6
BYBLOCK
 62
     0
 10
0.0
 20
0.0
 30
0.0
 11
-1.0
 21
0.0
 31
0.0
  0
ENDBLK
  5
47
  8
0
  0
BLOCK
  8
0
  2
XREF1
 70
    36
 10
0.0
 20
0.0
 30
0.0
  3
XREF1
  1
D:\ACLT\FORMAT\KAWAJUN(9)図面用.dwg
  0
ENDBLK
  5
5D
  8
0
  0
BLOCK
  8
0
  2
A3WAKUDAKE
 70
    36
 10
0.0
 20
0.0
 30
0.0
  3
A3WAKUDAKE
  1
D:\ACLT\FORMAT\A3WAKUdake.dwg
  0
ENDBLK
  5
6A0
  8
0
  0
BLOCK
  8
0
  2
*U21
 70
     1
 10
0.0
 20
0.0
 30
0.0
  3
*U21
  1

  0
TEXT
  5
BA08
  8
1TEXT
 62
   201
 10
1043.3489401080969
 20
-395.56741493210592
 30
0.0
 40
3.5
  1
20.5
 50
90.0
  0
ENDBLK
  5
BA0A
  8
0
  0
BLOCK
  8
0
  2
*U22
 70
     1
 10
0.0
 20
0.0
 30
0.0
  3
*U22
  1

  0
TEXT
  5
BA0C
  8
1TEXT
 62
   201
 10
1043.1389401080969
 20
-397.31741493210592
 30
0.0
 40
4.5499999999999989
  1
20.5
 50
90.0
  0
ENDBLK
  5
BA0E
  8
0
  0
ENDSEC
  0
SECTION
  2
ENTITIES
  0
LINE
  5
4C5
  8
01
 10
854.18766916632455
 20
-570.73670159774338
 30
0.0
 11
854.18766916632455
 21
-718.07002159774402
 31
0.0
  0
LINE
  5
4C6
  8
01
 10
814.18766916632467
 20
-570.73670159774338
 30
0.0
 11
814.18766916632467
 21
-718.07002159774402
 31
0.0
  0
LINE
  5
4C8
  8
01
 10
712.78767516632524
 20
-577.23408159774397
 30
0.0
 11
712.78767516632524
 21
-600.33405159774327
 31
0.0
  0
LINE
  5
4C9
  8
01
 10
711.18766916632467
 20
-577.23408159774397
 30
0.0
 11
711.18766916632467
 21
-600.23408159774397
 31
0.0
  0
LINE
  5
4CA
  8
01
 10
713.58767816632553
 20
-577.23408159774397
 30
0.0
 11
713.58767816632553
 21
-707.23408159774397
 31
0.0
  0
LINE
  5
4CC
  8
01
 10
715.18766916632467
 20
-577.23408159774397
 30
0.0
 11
715.18766916632467
 21
-707.23408159774397
 31
0.0
  0
LINE
  5
4CF
  8
01
 10
712.18766916632455
 20
-679.23408159774397
 30
0.0
 11
683.39704587862275
 21
-679.23408159774397
 31
0.0
  0
LINE
  5
4D2
  8
01
 10
721.18766916632285
 20
-631.23408159774408
 30
0.0
 11
715.18766916632467
 21
-631.23408159774408
 31
0.0
  0
LINE
  5
4D3
  8
01
 10
726.18766916632455
 20
-636.23408159774397
 30
0.0
 11
716.18766916632467
 21
-636.23408159774397
 31
0.0
  0
POLYLINE
  5
4D4
  8
01
 10
726.18766916632455
 20
-634.80250159774369
 30
0.0
 66
     1
 70
     8
  0
VERTEX
  8
01
  5
BA15
 10
726.188
 20
-634.803
 30
0.000000
  70
    32
  0
VERTEX
  8
01
  5
BA16
 10
726.186
 20
-634.715
 30
0.000000
  70
    32
  0
VERTEX
  8
01
  5
BA17
 10
726.182
 20
-634.627
 30
0.000000
  70
    32
  0
VERTEX
  8
01
  5
BA18
 10
726.174
 20
-634.540
 30
0.000000
  70
    32
  0
VERTEX
  8
01
  5
BA19
 10
726.164
 20
-634.453
 30
0.000000
  70
    32
  0
VERTEX
  8
01
  5
BA1A
 10
726.150
 20
-634.366
 30
0.000000
  70
    32
  0
VERTEX
  8
01
  5
BA1B
 10
726.134
 20
-634.279
 30
0.000000
  70
    32
  0
VERTEX
  8
01
  5
BA1C
 10
726.114
 20
-634.192
 30
0.000000
  70
    32
  0
VERTEX
  8
01
  5
BA1D
 10
726.092
 20
-634.106
 30
0.000000
  70
    32
  0
VERTEX
  8
01
  5
BA1E
 10
726.066
 20
-634.021
 30
0.000000
  70
    32
  0
VERTEX
  8
01
  5
BA1F
 10
726.038
 20
-633.935
 30
0.000000
  70
    32
  0
VERTEX
  8
01
  5
BA20
 10
726.007
 20
-633.851
 30
0.000000
  70
    32
  0
VERTEX
  8
01
  5
BA21
 10
725.972
 20
-633.767
 30
0.000000
  70
    32
  0
VERTEX
  8
01
  5
BA22
 10
725.935
 20
-633.683
 30
0.000000
  70
    32
  0
VERTEX
  8
01
  5
BA23
 10
725.895
 20
-633.600
 30
0.000000
  70
    32
  0
VERTEX
  8
01
  5
BA24
 10
725.853
 20
-633.518
 30
0.000000
  70
    32
  0
VERTEX
  8
01
  5
BA25
 10
725.807
 20
-633.437
 30
0.000000
  70
    32
  0
VERTEX
  8
01
  5
BA26
 10
725.759
 20
-633.356
 30
0.000000
  70
    32
  0
VERTEX
  8
01
  5
BA27
 10
725.708
 20
-633.277
 30
0.000000
  70
    32
  0
VERTEX
  8
01
  5
BA28
 10
725.654
 20
-633.198
 30
0.000000
  70
    32
  0
VERTEX
  8
01
  5
BA29
 10
725.597
 20
-633.120
 30
0.000000
  70
    32
  0
VERTEX
  8
01
  5
BA2A
 10
725.538
 20
-633.044
 30
0.000000
  70
    32
  0
VERTEX
  8
01
  5
BA2B
 10
725.476
 20
-632.968
 30
0.000000
  70
    32
  0
VERTEX
  8
01
  5
BA2C
 10
725.412
 20
-632.893
 30
0.000000
  70
    32
  0
VERTEX
  8
01
  5
BA2D
 10
725.345
 20
-632.820
 30
0.000000
  70
    32
  0
VERTEX
  8
01
  5
BA2E
 10
725.276
 20
-632.748
 30
0.000000
  70
    32
  0
VERTEX
  8
01
  5
BA2F
 10
725.204
 20
-632.677
 30
0.000000
  70
    32
  0
VERTEX
  8
01
  5
BA30
 10
725.129
 20
-632.607
 30
0.000000
  70
    32
  0
VERTEX
  8
01
  5
BA31
 10
725.053
 20
-632.539
 30
0.000000
  70
    32
  0
VERTEX
  8
01
  5
BA32
 10
724.974
 20
-632.472
 30
0.000000
  70
    32
  0
VERTEX
  8
01
  5
BA33
 10
724.892
 20
-632.406
 30
0.000000
  70
    32
  0
VERTEX
  8
01
  5
BA34
 10
724.809
 20
-632.342
 30
0.000000
  70
    32
  0
VERTEX
  8
01
  5
BA35
 10
724.723
 20
-632.279
 30
0.000000
  70
    32
  0
VERTEX
  8
01
  5
BA36
 10
724.635
 20
-632.218
 30
0.000000
  70
    32
  0
VERTEX
  8
01
  5
BA37
 10
724.545
 20
-632.158
 30
0.000000
  70
    32
  0
VERTEX
  8
01
  5
BA38
 10
724.454
 20
-632.100
 30
0.000000
  70
    32
  0
VERTEX
  8
01
  5
BA39
 10
724.360
 20
-632.044
 30
0.000000
  70
    32
  0
VERTEX
  8
01
  5
BA3A
 10
724.264
 20
-631.989
 30
0.000000
  70
    32
  0
VERTEX
  8
01
  5
BA3B
 10
724.166
 20
-631.936
 30
0.000000
  70
    32
  0
VERTEX
  8
01
  5
BA3C
 10
724.067
 20
-631.885
 30
0.000000
  70
    32
  0
VERTEX
  8
01
  5
BA3D
 10
723.966
 20
-631.835
 30
0.000000
  70
    32
  0
VERTEX
  8
01
  5
BA3E
 10
723.863
 20
-631.788
 30
0.000000
  70
    32
  0
VERTEX
  8
01
  5
BA3F
 10
723.758
 20
-631.742
 30
0.000000
  70
    32
  0
VERTEX
  8
01
  5
BA40
 10
723.652
 20
-631.698
 30
0.000000
  70
    32
  0
VERTEX
  8
01
  5
BA41
 10
723.545
 20
-631.655
 30
0.000000
  70
    32
  0
VERTEX
  8
01
  5
BA42
 10
723.436
 20
-631.615
 30
0.000000
  70
    32
  0
VERTEX
  8
01
  5
BA43
 10
723.325
 20
-631.577
 30
0.000000
  70
    32
  0
VERTEX
  8
01
  5
BA44
 10
723.214
 20
-631.540
 30
0.000000
  70
    32
  0
VERTEX
  8
01
  5
BA45
 10
723.101
 20
-631.506
 30
0.000000
  70
    32
  0
VERTEX
  8
01
  5
BA46
 10
722.987
 20
-631.473
 30
0.000000
  70
    32
  0
VERTEX
  8
01
  5
BA47
 10
722.872
 20
-631.443
 30
0.000000
  70
    32
  0
VERTEX
  8
01
  5
BA48
 10
722.756
 20
-631.414
 30
0.000000
  70
    32
  0
VERTEX
  8
01
  5
BA49
 10
722.639
 20
-631.388
 30
0.000000
  70
    32
  0
VERTEX
  8
01
  5
BA4A
 10
722.521
 20
-631.363
 30
0.000000
  70
    32
  0
VERTEX
  8
01
  5
BA4B
 10
722.403
 20
-631.341
 30
0.000000
  70
    32
  0
VERTEX
  8
01
  5
BA4C
 10
722.283
 20
-631.321
 30
0.000000
  70
    32
  0
VERTEX
  8
01
  5
BA4D
 10
722.163
 20
-631.303
 30
0.000000
  70
    32
  0
VERTEX
  8
01
  5
BA4E
 10
722.042
 20
-631.287
 30
0.000000
  70
    32
  0
VERTEX
  8
01
  5
BA4F
 10
721.921
 20
-631.273
 30
0.000000
  70
    32
  0
VERTEX
  8
01
  5
BA50
 10
721.800
 20
-631.261
 30
0.000000
  70
    32
  0
VERTEX
  8
01
  5
BA51
 10
721.678
 20
-631.251
 30
0.000000
  70
    32
  0
VERTEX
  8
01
  5
BA52
 10
721.555
 20
-631.244
 30
0.000000
  70
    32
  0
VERTEX
  8
01
  5
BA53
 10
721.433
 20
-631.238
 30
0.000000
  70
    32
  0
VERTEX
  8
01
  5
BA54
 10
721.310
 20
-631.235
 30
0.000000
  70
    32
  0
VERTEX
  8
01
  5
BA55
 10
721.188
 20
-631.234
 30
0.000000
  70
    32
  0
VERTEX
  8
01
  5
BA56
 10
721.065
 20
-631.235
 30
0.000000
  70
    32
  0
VERTEX
  8
01
  5
BA57
 10
720.942
 20
-631.238
 30
0.000000
  70
    32
  0
VERTEX
  8
01
  5
BA58
 10
720.820
 20
-631.244
 30
0.000000
  70
    32
  0
VERTEX
  8
01
  5
BA59
 10
720.698
 20
-631.251
 30
0.000000
  70
    32
  0
VERTEX
  8
01
  5
BA5A
 10
720.576
 20
-631.261
 30
0.000000
  70
    32
  0
VERTEX
  8
01
  5
BA5B
 10
720.454
 20
-631.273
 30
0.000000
  70
    32
  0
VERTEX
  8
01
  5
BA5C
 10
720.333
 20
-631.287
 30
0.000000
  70
    32
  0
VERTEX
  8
01
  5
BA5D
 10
720.212
 20
-631.303
 30
0.000000
  70
    32
  0
VERTEX
  8
01
  5
BA5E
 10
720.092
 20
-631.321
 30
0.000000
  70
    32
  0
VERTEX
  8
01
  5
BA5F
 10
719.973
 20
-631.341
 30
0.000000
  70
    32
  0
VERTEX
  8
01
  5
BA60
 10
719.854
 20
-631.363
 30
0.000000
  70
    32
  0
VERTEX
  8
01
  5
BA61
 10
719.736
 20
-631.388
 30
0.000000
  70
    32
  0
VERTEX
  8
01
  5
BA62
 10
719.619
 20
-631.414
 30
0.000000
  70
    32
  0
VERTEX
  8
01
  5
BA63
 10
719.503
 20
-631.443
 30
0.000000
  70
    32
  0
VERTEX
  8
01
  5
BA64
 10
719.388
 20
-631.473
 30
0.000000
  70
    32
  0
VERTEX
  8
01
  5
BA65
 10
719.274
 20
-631.506
 30
0.000000
  70
    32
  0
VERTEX
  8
01
  5
BA66
 10
719.161
 20
-631.540
 30
0.000000
  70
    32
  0
VERTEX
  8
01
  5
BA67
 10
719.050
 20
-631.577
 30
0.000000
  70
    32
  0
VERTEX
  8
01
  5
BA68
 10
718.940
 20
-631.615
 30
0.000000
  70
    32
  0
VERTEX
  8
01
  5
BA69
 10
718.831
 20
-631.655
 30
0.000000
  70
    32
  0
VERTEX
  8
01
  5
BA6A
 10
718.723
 20
-631.698
 30
0.000000
  70
    32
  0
VERTEX
  8
01
  5
BA6B
 10
718.617
 20
-631.742
 30
0.000000
  70
    32
  0
VERTEX
  8
01
  5
BA6C
 10
718.513
 20
-631.788
 30
0.000000
  70
    32
  0
VERTEX
  8
01
  5
BA6D
 10
718.410
 20
-631.835
 30
0.000000
  70
    32
  0
VERTEX
  8
01
  5
BA6E
 10
718.309
 20
-631.885
 30
0.000000
  70
    32
  0
VERTEX
  8
01
  5
BA6F
 10
718.209
 20
-631.936
 30
0.000000
  70
    32
  0
VERTEX
  8
01
  5
BA70
 10
718.112
 20
-631.989
 30
0.000000
  70
    32
  0
VERTEX
  8
01
  5
BA71
 10
718.016
 20
-632.044
 30
0.000000
  70
    32
  0
VERTEX
  8
01
  5
BA72
 10
717.922
 20
-632.100
 30
0.000000
  70
    32
  0
VERTEX
  8
01
  5
BA73
 10
717.830
 20
-632.158
 30
0.000000
  70
    32
  0
VERTEX
  8
01
  5
BA74
 10
717.740
 20
-632.218
 30
0.000000
  70
    32
  0
VERTEX
  8
01
  5
BA75
 10
717.652
 20
-632.279
 30
0.000000
  70
    32
  0
VERTEX
  8
01
  5
BA76
 10
717.566
 20
-632.342
 30
0.000000
  70
    32
  0
VERTEX
  8
01
  5
BA77
 10
717.483
 20
-632.406
 30
0.000000
  70
    32
  0
VERTEX
  8
01
  5
BA78
 10
717.402
 20
-632.472
 30
0.000000
  70
    32
  0
VERTEX
  8
01
  5
BA79
 10
717.323
 20
-632.539
 30
0.000000
  70
    32
  0
VERTEX
  8
01
  5
BA7A
 10
717.246
 20
-632.607
 30
0.000000
  70
    32
  0
VERTEX
  8
01
  5
BA7B
 10
717.172
 20
-632.677
 30
0.000000
  70
    32
  0
VERTEX
  8
01
  5
BA7C
 10
717.100
 20
-632.748
 30
0.000000
  70
    32
  0
VERTEX
  8
01
  5
BA7D
 10
717.030
 20
-632.820
 30
0.000000
  70
    32
  0
VERTEX
  8
01
  5
BA7E
 10
716.963
 20
-632.893
 30
0.000000
  70
    32
  0
VERTEX
  8
01
  5
BA7F
 10
716.899
 20
-632.968
 30
0.000000
  70
    32
  0
VERTEX
  8
01
  5
BA80
 10
716.837
 20
-633.044
 30
0.000000
  70
    32
  0
VERTEX
  8
01
  5
BA81
 10
716.778
 20
-633.120
 30
0.000000
  70
    32
  0
VERTEX
  8
01
  5
BA82
 10
716.722
 20
-633.198
 30
0.000000
  70
    32
  0
VERTEX
  8
01
  5
BA83
 10
716.668
 20
-633.277
 30
0.000000
  70
    32
  0
VERTEX
  8
01
  5
BA84
 10
716.617
 20
-633.356
 30
0.000000
  70
    32
  0
VERTEX
  8
01
  5
BA85
 10
716.568
 20
-633.437
 30
0.000000
  70
    32
  0
VERTEX
  8
01
  5
BA86
 10
716.523
 20
-633.518
 30
0.000000
  70
    32
  0
VERTEX
  8
01
  5
BA87
 10
716.480
 20
-633.600
 30
0.000000
  70
    32
  0
VERTEX
  8
01
  5
BA88
 10
716.440
 20
-633.683
 30
0.000000
  70
    32
  0
VERTEX
  8
01
  5
BA89
 10
716.403
 20
-633.767
 30
0.000000
  70
    32
  0
VERTEX
  8
01
  5
BA8A
 10
716.369
 20
-633.851
 30
0.000000
  70
    32
  0
VERTEX
  8
01
  5
BA8B
 10
716.338
 20
-633.935
 30
0.000000
  70
    32
  0
VERTEX
  8
01
  5
BA8C
 10
716.309
 20
-634.021
 30
0.000000
  70
    32
  0
VERTEX
  8
01
  5
BA8D
 10
716.284
 20
-634.106
 30
0.000000
  70
    32
  0
VERTEX
  8
01
  5
BA8E
 10
716.261
 20
-634.192
 30
0.000000
  70
    32
  0
VERTEX
  8
01
  5
BA8F
 10
716.242
 20
-634.279
 30
0.000000
  70
    32
  0
VERTEX
  8
01
  5
BA90
 10
716.225
 20
-634.366
 30
0.000000
  70
    32
  0
VERTEX
  8
01
  5
BA91
 10
716.212
 20
-634.453
 30
0.000000
  70
    32
  0
VERTEX
  8
01
  5
BA92
 10
716.201
 20
-634.540
 30
0.000000
  70
    32
  0
VERTEX
  8
01
  5
BA93
 10
716.194
 20
-634.627
 30
0.000000
  70
    32
  0
VERTEX
  8
01
  5
BA94
 10
716.189
 20
-634.715
 30
0.000000
  70
    32
  0
VERTEX
  8
01
  5
BA95
 10
716.188
 20
-634.803
 30
0.000000
  70
    32
  0
SEQEND
  8
01
  5
BA96
  0
LINE
  5
4D5
  8
01
 10
721.18766916632455
 20
-651.23408159774408
 30
0.0
 11
715.18766916632467
 21
-651.23408159774408
 31
0.0
  0
LINE
  5
4D6
  8
01
 10
726.18766916632455
 20
-646.23408159774408
 30
0.0
 11
716.18766916632467
 21
-646.23408159774408
 31
0.0
  0
POLYLINE
  5
4D7
  8
01
 10
726.18766916632455
 20
-647.66566159774368
 30
0.0
 66
     1
 70
     8
  0
VERTEX
  8
01
  5
BA97
 10
726.188
 20
-647.666
 30
0.000000
  70
    32
  0
VERTEX
  8
01
  5
BA98
 10
726.186
 20
-647.753
 30
0.000000
  70
    32
  0
VERTEX
  8
01
  5
BA99
 10
726.182
 20
-647.841
 30
0.000000
  70
    32
  0
VERTEX
  8
01
  5
BA9A
 10
726.174
 20
-647.928
 30
0.000000
  70
    32
  0
VERTEX
  8
01
  5
BA9B
 10
726.164
 20
-648.015
 30
0.000000
  70
    32
  0
VERTEX
  8
01
  5
BA9C
 10
726.150
 20
-648.102
 30
0.000000
  70
    32
  0
VERTEX
  8
01
  5
BA9D
 10
726.134
 20
-648.189
 30
0.000000
  70
    32
  0
VERTEX
  8
01
  5
BA9E
 10
726.114
 20
-648.276
 30
0.000000
  70
    32
  0
VERTEX
  8
01
  5
BA9F
 10
726.092
 20
-648.362
 30
0.000000
  70
    32
  0
VERTEX
  8
01
  5
BAA0
 10
726.066
 20
-648.448
 30
0.000000
  70
    32
  0
VERTEX
  8
01
  5
BAA1
 10
726.038
 20
-648.533
 30
0.000000
  70
    32
  0
VERTEX
  8
01
  5
BAA2
 10
726.007
 20
-648.617
 30
0.000000
  70
    32
  0
VERTEX
  8
01
  5
BAA3
 10
725.972
 20
-648.702
 30
0.000000
  70
    32
  0
VERTEX
  8
01
  5
BAA4
 10
725.935
 20
-648.785
 30
0.000000
  70
    32
  0
VERTEX
  8
01
  5
BAA5
 10
725.895
 20
-648.868
 30
0.000000
  70
    32
  0
VERTEX
  8
01
  5
BAA6
 10
725.853
 20
-648.950
 30
0.000000
  70
    32
  0
VERTEX
  8
01
  5
BAA7
 10
725.807
 20
-649.031
 30
0.000000
  70
    32
  0
VERTEX
  8
01
  5
BAA8
 10
725.759
 20
-649.112
 30
0.000000
  70
    32
  0
VERTEX
  8
01
  5
BAA9
 10
725.708
 20
-649.191
 30
0.000000
  70
    32
  0
VERTEX
  8
01
  5
BAAA
 10
725.654
 20
-649.270
 30
0.000000
  70
    32
  0
VERTEX
  8
01
  5
BAAB
 10
725.597
 20
-649.348
 30
0.000000
  70
    32
  0
VERTEX
  8
01
  5
BAAC
 10
725.538
 20
-649.425
 30
0.000000
  70
    32
  0
VERTEX
  8
01
  5
BAAD
 10
725.476
 20
-649.500
 30
0.000000
  70
    32
  0
VERTEX
  8
01
  5
BAAE
 10
725.412
 20
-649.575
 30
0.000000
  70
    32
  0
VERTEX
  8
01
  5
BAAF
 10
725.345
 20
-649.648
 30
0.000000
  70
    32
  0
VERTEX
  8
01
  5
BAB0
 10
725.276
 20
-649.720
 30
0.000000
  70
    32
  0
VERTEX
  8
01
  5
BAB1
 10
725.204
 20
-649.791
 30
0.000000
  70
    32
  0
VERTEX
  8
01
  5
BAB2
 10
725.129
 20
-649.861
 30
0.000000
  70
    32
  0
VERTEX
  8
01
  5
BAB3
 10
725.053
 20
-649.929
 30
0.000000
  70
    32
  0
VERTEX
  8
01
  5
BAB4
 10
724.974
 20
-649.996
 30
0.000000
  70
    32
  0
VERTEX
  8
01
  5
BAB5
 10
724.892
 20
-650.062
 30
0.000000
  70
    32
  0
VERTEX
  8
01
  5
BAB6
 10
724.809
 20
-650.126
 30
0.000000
  70
    32
  0
VERTEX
  8
01
  5
BAB7
 10
724.723
 20
-650.189
 30
0.000000
  70
    32
  0
VERTEX
  8
01
  5
BAB8
 10
724.635
 20
-650.250
 30
0.000000
  70
    32
  0
VERTEX
  8
01
  5
BAB9
 10
724.545
 20
-650.310
 30
0.000000
  70
    32
  0
VERTEX
  8
01
  5
BABA
 10
724.454
 20
-650.368
 30
0.000000
  70
    32
  0
VERTEX
  8
01
  5
BABB
 10
724.360
 20
-650.424
 30
0.000000
  70
    32
  0
VERTEX
  8
01
  5
BABC
 10
724.264
 20
-650.479
 30
0.000000
  70
    32
  0
VERTEX
  8
01
  5
BABD
 10
724.166
 20
-650.532
 30
0.000000
  70
    32
  0
VERTEX
  8
01
  5
BABE
 10
724.067
 20
-650.583
 30
0.000000
  70
    32
  0
VERTEX
  8
01
  5
BABF
 10
723.966
 20
-650.633
 30
0.000000
  70
    32
  0
VERTEX
  8
01
  5
BAC0
 10
723.863
 20
-650.680
 30
0.000000
  70
    32
  0
VERTEX
  8
01
  5
BAC1
 10
723.758
 20
-650.726
 30
0.000000
  70
    32
  0
VERTEX
  8
01
  5
BAC2
 10
723.652
 20
-650.770
 30
0.000000
  70
    32
  0
VERTEX
  8
01
  5
BAC3
 10
723.545
 20
-650.813
 30
0.000000
  70
    32
  0
VERTEX
  8
01
  5
BAC4
 10
723.436
 20
-650.853
 30
0.000000
  70
    32
  0
VERTEX
  8
01
  5
BAC5
 10
723.325
 20
-650.891
 30
0.000000
  70
    32
  0
VERTEX
  8
01
  5
BAC6
 10
723.214
 20
-650.928
 30
0.000000
  70
    32
  0
VERTEX
  8
01
  5
BAC7
 10
723.101
 20
-650.962
 30
0.000000
  70
    32
  0
VERTEX
  8
01
  5
BAC8
 10
722.987
 20
-650.995
 30
0.000000
  70
    32
  0
VERTEX
  8
01
  5
BAC9
 10
722.872
 20
-651.025
 30
0.000000
  70
    32
  0
VERTEX
  8
01
  5
BACA
 10
722.756
 20
-651.054
 30
0.000000
  70
    32
  0
VERTEX
  8
01
  5
BACB
 10
722.639
 20
-651.080
 30
0.000000
  70
    32
  0
VERTEX
  8
01
  5
BACC
 10
722.521
 20
-651.105
 30
0.000000
  70
    32
  0
VERTEX
  8
01
  5
BACD
 10
722.403
 20
-651.127
 30
0.000000
  70
    32
  0
VERTEX
  8
01
  5
BACE
 10
722.283
 20
-651.147
 30
0.000000
  70
    32
  0
VERTEX
  8
01
  5
BACF
 10
722.163
 20
-651.166
 30
0.000000
  70
    32
  0
VERTEX
  8
01
  5
BAD0
 10
722.042
 20
-651.182
 30
0.000000
  70
    32
  0
VERTEX
  8
01
  5
BAD1
 10
721.921
 20
-651.195
 30
0.000000
  70
    32
  0
VERTEX
  8
01
  5
BAD2
 10
721.800
 20
-651.207
 30
0.000000
  70
    32
  0
VERTEX
  8
01
  5
BAD3
 10
721.678
 20
-651.217
 30
0.000000
  70
    32
  0
VERTEX
  8
01
  5
BAD4
 10
721.555
 20
-651.224
 30
0.000000
  70
    32
  0
VERTEX
  8
01
  5
BAD5
 10
721.433
 20
-651.230
 30
0.000000
  70
    32
  0
VERTEX
  8
01
  5
BAD6
 10
721.310
 20
-651.233
 30
0.000000
  70
    32
  0
VERTEX
  8
01
  5
BAD7
 10
721.188
 20
-651.234
 30
0.000000
  70
    32
  0
VERTEX
  8
01
  5
BAD8
 10
721.065
 20
-651.233
 30
0.000000
  70
    32
  0
VERTEX
  8
01
  5
BAD9
 10
720.942
 20
-651.230
 30
0.000000
  70
    32
  0
VERTEX
  8
01
  5
BADA
 10
720.820
 20
-651.224
 30
0.000000
  70
    32
  0
VERTEX
  8
01
  5
BADB
 10
720.698
 20
-651.217
 30
0.000000
  70
    32
  0
VERTEX
  8
01
  5
BADC
 10
720.576
 20
-651.207
 30
0.000000
  70
    32
  0
VERTEX
  8
01
  5
BADD
 10
720.454
 20
-651.195
 30
0.000000
  70
    32
  0
VERTEX
  8
01
  5
BADE
 10
720.333
 20
-651.182
 30
0.000000
  70
    32
  0
VERTEX
  8
01
  5
BADF
 10
720.212
 20
-651.166
 30
0.000000
  70
    32
  0
VERTEX
  8
01
  5
BAE0
 10
720.092
 20
-651.147
 30
0.000000
  70
    32
  0
VERTEX
  8
01
  5
BAE1
 10
719.973
 20
-651.127
 30
0.000000
  70
    32
  0
VERTEX
  8
01
  5
BAE2
 10
719.854
 20
-651.105
 30
0.000000
  70
    32
  0
VERTEX
  8
01
  5
BAE3
 10
719.736
 20
-651.080
 30
0.000000
  70
    32
  0
VERTEX
  8
01
  5
BAE4
 10
719.619
 20
-651.054
 30
0.000000
  70
    32
  0
VERTEX
  8
01
  5
BAE5
 10
719.503
 20
-651.025
 30
0.000000
  70
    32
  0
VERTEX
  8
01
  5
BAE6
 10
719.388
 20
-650.995
 30
0.000000
  70
    32
  0
VERTEX
  8
01
  5
BAE7
 10
719.274
 20
-650.962
 30
0.000000
  70
    32
  0
VERTEX
  8
01
  5
BAE8
 10
719.161
 20
-650.928
 30
0.000000
  70
    32
  0
VERTEX
  8
01
  5
BAE9
 10
719.050
 20
-650.891
 30
0.000000
  70
    32
  0
VERTEX
  8
01
  5
BAEA
 10
718.940
 20
-650.853
 30
0.000000
  70
    32
  0
VERTEX
  8
01
  5
BAEB
 10
718.831
 20
-650.813
 30
0.000000
  70
    32
  0
VERTEX
  8
01
  5
BAEC
 10
718.723
 20
-650.770
 30
0.000000
  70
    32
  0
VERTEX
  8
01
  5
BAED
 10
718.617
 20
-650.726
 30
0.000000
  70
    32
  0
VERTEX
  8
01
  5
BAEE
 10
718.513
 20
-650.680
 30
0.000000
  70
    32
  0
VERTEX
  8
01
  5
BAEF
 10
718.410
 20
-650.633
 30
0.000000
  70
    32
  0
VERTEX
  8
01
  5
BAF0
 10
718.309
 20
-650.583
 30
0.000000
  70
    32
  0
VERTEX
  8
01
  5
BAF1
 10
718.209
 20
-650.532
 30
0.000000
  70
    32
  0
VERTEX
  8
01
  5
BAF2
 10
718.112
 20
-650.479
 30
0.000000
  70
    32
  0
VERTEX
  8
01
  5
BAF3
 10
718.016
 20
-650.424
 30
0.000000
  70
    32
  0
VERTEX
  8
01
  5
BAF4
 10
717.922
 20
-650.368
 30
0.000000
  70
    32
  0
VERTEX
  8
01
  5
BAF5
 10
717.830
 20
-650.310
 30
0.000000
  70
    32
  0
VERTEX
  8
01
  5
BAF6
 10
717.740
 20
-650.250
 30
0.000000
  70
    32
  0
VERTEX
  8
01
  5
BAF7
 10
717.652
 20
-650.189
 30
0.000000
  70
    32
  0
VERTEX
  8
01
  5
BAF8
 10
717.566
 20
-650.126
 30
0.000000
  70
    32
  0
VERTEX
  8
01
  5
BAF9
 10
717.483
 20
-650.062
 30
0.000000
  70
    32
  0
VERTEX
  8
01
  5
BAFA
 10
717.402
 20
-649.996
 30
0.000000
  70
    32
  0
VERTEX
  8
01
  5
BAFB
 10
717.323
 20
-649.929
 30
0.000000
  70
    32
  0
VERTEX
  8
01
  5
BAFC
 10
717.246
 20
-649.861
 30
0.000000
  70
    32
  0
VERTEX
  8
01
  5
BAFD
 10
717.172
 20
-649.791
 30
0.000000
  70
    32
  0
VERTEX
  8
01
  5
BAFE
 10
717.100
 20
-649.720
 30
0.000000
  70
    32
  0
VERTEX
  8
01
  5
BAFF
 10
717.030
 20
-649.648
 30
0.000000
  70
    32
  0
VERTEX
  8
01
  5
BB00
 10
716.963
 20
-649.575
 30
0.000000
  70
    32
  0
VERTEX
  8
01
  5
BB01
 10
716.899
 20
-649.500
 30
0.000000
  70
    32
  0
VERTEX
  8
01
  5
BB02
 10
716.837
 20
-649.425
 30
0.000000
  70
    32
  0
VERTEX
  8
01
  5
BB03
 10
716.778
 20
-649.348
 30
0.000000
  70
    32
  0
VERTEX
  8
01
  5
BB04
 10
716.722
 20
-649.270
 30
0.000000
  70
    32
  0
VERTEX
  8
01
  5
BB05
 10
716.668
 20
-649.191
 30
0.000000
  70
    32
  0
VERTEX
  8
01
  5
BB06
 10
716.617
 20
-649.112
 30
0.000000
  70
    32
  0
VERTEX
  8
01
  5
BB07
 10
716.568
 20
-649.031
 30
0.000000
  70
    32
  0
VERTEX
  8
01
  5
BB08
 10
716.523
 20
-648.950
 30
0.000000
  70
    32
  0
VERTEX
  8
01
  5
BB09
 10
716.480
 20
-648.868
 30
0.000000
  70
    32
  0
VERTEX
  8
01
  5
BB0A
 10
716.440
 20
-648.785
 30
0.000000
  70
    32
  0
VERTEX
  8
01
  5
BB0B
 10
716.403
 20
-648.702
 30
0.000000
  70
    32
  0
VERTEX
  8
01
  5
BB0C
 10
716.369
 20
-648.617
 30
0.000000
  70
    32
  0
VERTEX
  8
01
  5
BB0D
 10
716.338
 20
-648.533
 30
0.000000
  70
    32
  0
VERTEX
  8
01
  5
BB0E
 10
716.309
 20
-648.448
 30
0.000000
  70
    32
  0
VERTEX
  8
01
  5
BB0F
 10
716.284
 20
-648.362
 30
0.000000
  70
    32
  0
VERTEX
  8
01
  5
BB10
 10
716.261
 20
-648.276
 30
0.000000
  70
    32
  0
VERTEX
  8
01
  5
BB11
 10
716.242
 20
-648.189
 30
0.000000
  70
    32
  0
VERTEX
  8
01
  5
BB12
 10
716.225
 20
-648.102
 30
0.000000
  70
    32
  0
VERTEX
  8
01
  5
BB13
 10
716.212
 20
-648.015
 30
0.000000
  70
    32
  0
VERTEX
  8
01
  5
BB14
 10
716.201
 20
-647.928
 30
0.000000
  70
    32
  0
VERTEX
  8
01
  5
BB15
 10
716.194
 20
-647.841
 30
0.000000
  70
    32
  0
VERTEX
  8
01
  5
BB16
 10
716.189
 20
-647.753
 30
0.000000
  70
    32
  0
VERTEX
  8
01
  5
BB17
 10
716.188
 20
-647.666
 30
0.000000
  70
    32
  0
SEQEND
  8
01
  5
BB18
  0
LINE
  5
4D8
  8
01
 10
726.18766916632455
 20
-634.80250159774357
 30
0.0
 11
726.18766916632455
 21
-647.66566159774447
 31
0.0
  0
LINE
  5
4D9
  8
01
 10
716.18766916632467
 20
-634.80250159774357
 30
0.0
 11
716.18766916632467
 21
-647.66566159774175
 31
0.0
  0
LINE
  5
4DA
  8
01
 10
712.18765416632505
 20
-601.23408159774408
 30
0.0
 11
711.18765416632505
 21
-600.23408159774397
 31
0.0
  0
LINE
  5
4DB
  8
01
 10
713.58767116632487
 20
-601.13410159774412
 30
0.0
 11
712.78769016632475
 21
-600.33412159774343
 31
0.0
  0
LINE
  5
4DC
  8
01
 10
713.58767116632487
 20
-683.33409159774328
 30
0.0
 11
712.78766816632469
 21
-684.13407159774385
 31
0.0
  0
LINE
  5
4DD
  8
01
 10
712.18761616632491
 20
-683.23411159774332
 30
0.0
 11
711.18763116632454
 21
-684.23411159774332
 31
0.0
  0
LINE
  5
4DE
  8
01
 10
715.18766916632467
 20
-707.23408159774397
 30
0.0
 11
711.18766916632467
 21
-707.23408159774397
 31
0.0
  0
LINE
  5
4DF
  8
01
 10
712.78767516632524
 20
-707.23408159774397
 30
0.0
 11
712.78767516632524
 21
-684.13407159774385
 31
0.0
  0
LINE
  5
4E0
  8
01
 10
711.18766916632467
 20
-707.23408159774397
 30
0.0
 11
711.18766916632467
 21
-684.23408159774408
 31
0.0
  0
LINE
  5
4E1
  8
01
 10
712.18766916632455
 20
-601.23408159774408
 30
0.0
 11
712.18766916632455
 21
-683.23408159774397
 31
0.0
  0
LINE
  5
4E3
  8
01
 10
715.18766916632467
 20
-577.23408159774397
 30
0.0
 11
711.18766916632467
 21
-577.23408159774397
 31
0.0
  0
LINE
  5
4E6
  8
01
 10
821.68766916632455
 20
-583.23408159774397
 30
0.0
 11
821.68766916632455
 21
-701.23408159774408
 31
0.0
  0
LINE
  5
4E7
  8
01
 10
846.68766916632455
 20
-583.23408159774397
 30
0.0
 11
846.68766916632455
 21
-701.23408159774408
 31
0.0
  0
ARC
  5
4E8
  8
01
 10
840.68766916632455
 20
-701.23408159774408
 30
0.0
 40
6.0
 50
270.0
 51
0.0
  0
ARC
  5
4EA
  8
01
 10
827.68766916632467
 20
-701.23408159774408
 30
0.0
 40
6.0
 50
180.0
 51
270.0
  0
LINE
  5
4EB
  8
01
 10
841.93766916632467
 20
-634.80250159774357
 30
0.0
 11
841.93766916632467
 21
-647.66566159774345
 31
0.0
  0
LINE
  5
4EC
  8
01
 10
840.93766916632467
 20
-636.23408159774397
 30
0.0
 11
840.93766916632467
 21
-646.23408159774408
 31
0.0
  0
LINE
  5
4ED
  8
01
 10
827.43766916632455
 20
-636.23408159774397
 30
0.0
 11
827.43766916632455
 21
-646.23408159774408
 31
0.0
  0
LINE
  5
4EE
  8
01
 10
826.43766916632455
 20
-634.80250159774357
 30
0.0
 11
826.43766916632455
 21
-647.66566159774345
 31
0.0
  0
ARC
  5
4EF
  8
01
 10
834.18766916632455
 20
-641.0340715977436
 30
0.0
 40
10.199999999999999
 50
220.5530799999753
 51
319.44692000002459
  0
LINE
  5
4F0
  8
01
 10
827.43766916632455
 20
-646.23408159774408
 30
0.0
 11
840.93766916632467
 21
-646.23408159774408
 31
0.0
  0
LINE
  5
4F1
  8
01
 10
827.43766916632455
 20
-636.23408159774397
 30
0.0
 11
840.93766916632467
 21
-636.23408159774397
 31
0.0
  0
ARC
  5
4F2
  8
01
 10
834.18766916632455
 20
-641.43409159774365
 30
0.0
 40
10.199999999999999
 50
40.553083999977588
 51
139.44692000002459
  0
CIRCLE
  5
4F3
  8
01
 10
834.18766916632455
 20
-699.23408159774397
 30
0.0
 40
4.5
  0
CIRCLE
  5
4F4
  8
01
 10
834.18766916632455
 20
-699.23408159774397
 30
0.0
 40
2.75
  0
LINE
  5
4F5
  8
01
 10
827.68766916632467
 20
-707.23408159774397
 30
0.0
 11
840.68766916632455
 21
-707.23408159774397
 31
0.0
  0
ARC
  5
4F6
  8
01
 10
840.68766916632455
 20
-583.23408159774397
 30
0.0
 40
6.0
 50
0.0
 51
90.0
  0
ARC
  5
4F9
  8
01
 10
827.68766916632467
 20
-583.23408159774397
 30
0.0
 40
6.0
 50
90.0
 51
180.0
  0
LINE
  5
4FA
  8
01
 10
827.68766916632467
 20
-577.23408159774397
 30
0.0
 11
840.68766916632455
 21
-577.23408159774397
 31
0.0
  0
CIRCLE
  5
4FB
  8
01
 10
834.18766916632455
 20
-585.23408159774408
 30
0.0
 40
4.5
  0
CIRCLE
  5
4FC
  8
01
 10
834.18766916632455
 20
-585.23408159774408
 30
0.0
 40
2.75
  0
LINE
  5
51F
  8
01
 10
955.58767516632452
 20
-577.23408159774397
 30
0.0
 11
955.58767516632452
 21
-600.33405159774327
 31
0.0
  0
LINE
  5
520
  8
01
 10
957.18766516632502
 20
-577.23408159774397
 30
0.0
 11
957.18766516632502
 21
-600.23408159774397
 31
0.0
  0
LINE
  5
521
  8
01
 10
954.78767516632524
 20
-577.23408159774397
 30
0.0
 11
954.78767516632524
 21
-707.23408159774397
 31
0.0
  0
LINE
  5
522
  8
01
 10
953.18766516632513
 20
-577.23408159774397
 30
0.0
 11
953.18766516632513
 21
-707.23408159774397
 31
0.0
  0
LINE
  5
525
  8
01
 10
956.18766516632513
 20
-679.23408159774397
 30
0.0
 11
984.97829245402636
 21
-679.23408159774397
 31
0.0
  0
LINE
  5
526
  8
01
 10
956.18767516632477
 20
-601.23408159774408
 30
0.0
 11
957.18767516632477
 21
-600.23408159774397
 31
0.0
  0
LINE
  5
527
  8
01
 10
954.7876651663255
 20
-601.13410159774412
 30
0.0
 11
955.58767516632452
 21
-600.33405159774327
 31
0.0
  0
LINE
  5
528
  8
01
 10
946.18766516632513
 20
-631.23408159774408
 30
0.0
 11
953.18766516632513
 21
-631.23408159774408
 31
0.0
  0
LINE
  5
529
  8
01
 10
946.18766516632513
 20
-651.23408159774408
 30
0.0
 11
953.18766516632513
 21
-651.23408159774408
 31
0.0
  0
LINE
  5
52A
  8
01
 10
942.26976516632465
 20
-648.04035159774412
 30
0.0
 11
953.18766516632513
 21
-648.04035159774412
 31
0.0
  0
LINE
  5
52B
  8
01
 10
942.26976516632465
 20
-634.42780159774327
 30
0.0
 11
953.18766516632513
 21
-634.42780159774327
 31
0.0
  0
LINE
  5
52C
  8
01
 10
942.18766516632525
 20
-635.23408159774408
 30
0.0
 11
942.18766516632525
 21
-647.23408159774408
 31
0.0
  0
ARC
  5
52D
  8
01
 10
946.18766516632513
 20
-647.23408159774408
 30
0.0
 40
4.0
 50
179.999989999999
 51
270.0
  0
ARC
  5
52F
  8
01
 10
946.18766516632513
 20
-635.23408159774408
 30
0.0
 40
4.0
 50
90.000002999984659
 51
180.00001000000091
  0
LINE
  5
530
  8
01
 10
954.7876651663255
 20
-683.33409159774328
 30
0.0
 11
955.58767516632452
 21
-684.13407159774385
 31
0.0
  0
LINE
  5
531
  8
01
 10
956.18771516632569
 20
-683.23411159774332
 30
0.0
 11
957.18769516632426
 21
-684.23408159774408
 31
0.0
  0
LINE
  5
532
  8
01
 10
948.18766516632513
 20
-699.23408159774397
 30
0.0
 11
962.18766516632513
 21
-699.23408159774397
 31
0.0
  0
LINE
  5
533
  8
01
 10
953.18766516632513
 20
-707.23408159774397
 30
0.0
 11
957.18766516632502
 21
-707.23408159774397
 31
0.0
  0
LINE
  5
534
  8
01
 10
955.58767516632452
 20
-707.23408159774397
 30
0.0
 11
955.58767516632452
 21
-684.13407159774385
 31
0.0
  0
LINE
  5
535
  8
01
 10
957.18766516632502
 20
-707.23408159774397
 30
0.0
 11
957.18766516632502
 21
-684.23408159774408
 31
0.0
  0
LINE
  5
536
  8
01
 10
956.18766516632513
 20
-601.23408159774408
 30
0.0
 11
956.18766516632513
 21
-683.23408159774397
 31
0.0
  0
LINE
  5
539
  8
01
 10
953.18766516632513
 20
-577.23408159774397
 30
0.0
 11
957.18766516632502
 21
-577.23408159774397
 31
0.0
  0
LINE
  5
53A
  8
01
 10
948.18766516632513
 20
-585.23408159774408
 30
0.0
 11
962.18766516632513
 21
-585.23408159774408
 31
0.0
  0
LINE
  5
545
  8
01
 10
957.1885493483851
 20
-383.73408159877272
 30
0.0
 11
1023.188549348385
 21
-383.73408159877272
 31
0.0
  0
LINE
  5
546
  8
01
 10
957.1885493483851
 20
-385.33405159877202
 30
0.0
 11
1023.188549348385
 21
-385.33405159877202
 31
0.0
  0
LINE
  5
547
  8
01
 10
954.78855934838532
 20
-402.7340815987726
 30
0.0
 11
1023.188549348385
 21
-402.7340815987726
 31
0.0
  0
LINE
  5
548
  8
01
 10
956.38853934838608
 20
-388.23408159877272
 30
0.0
 11
957.1885493483851
 21
-387.43406159877208
 31
0.0
  0
LINE
  5
549
  8
01
 10
957.1885493483851
 20
-382.73408159877272
 30
0.0
 11
957.1885493483851
 21
-387.43406159877208
 31
0.0
  0
LINE
  5
54A
  8
01
 10
954.78855934838532
 20
-388.23405159877262
 30
0.0
 11
955.58854934838655
 21
-387.43409159877228
 31
0.0
  0
LINE
  5
54B
  8
01
 10
942.18854934838498
 20
-400.98408159877272
 30
0.0
 11
953.1885493483851
 21
-400.98408159877272
 31
0.0
  0
LINE
  5
54C
  8
01
 10
942.18854934838498
 20
-400.98408159877272
 30
0.0
 11
942.18854934838498
 21
-398.98408159877272
 31
0.0
  0
LINE
  5
54D
  8
01
 10
953.1885493483851
 20
-380.73408159877272
 30
0.0
 11
954.78855934838532
 21
-380.73408159877272
 31
0.0
  0
LINE
  5
54E
  8
01
 10
954.78855934838532
 20
-380.73408159877272
 30
0.0
 11
954.78855934838532
 21
-388.23408159877272
 31
0.0
  0
LINE
  5
54F
  8
01
 10
955.58855934838618
 20
-382.73408159877272
 30
0.0
 11
955.58855934838618
 21
-387.43406159877208
 31
0.0
  0
LINE
  5
550
  8
01
 10
954.78855934838532
 20
-382.73408159877272
 30
0.0
 11
957.1885493483851
 21
-382.73408159877272
 31
0.0
  0
LINE
  5
551
  8
01
 10
957.1885493483851
 20
-399.0340715987723
 30
0.0
 11
957.1885493483851
 21
-402.7340815987726
 31
0.0
  0
LINE
  5
552
  8
01
 10
956.38855934838557
 20
-398.23405159877262
 30
0.0
 11
957.1885493483851
 21
-399.0340715987723
 31
0.0
  0
LINE
  5
553
  8
01
 10
957.1885493483851
 20
-401.13407159877261
 30
0.0
 11
961.78855934838509
 21
-401.13407159877261
 31
0.0
  0
LINE
  5
554
  8
01
 10
954.78854934838546
 20
-398.23405159877262
 30
0.0
 11
955.58855934838618
 21
-399.0340715987723
 31
0.0
  0
LINE
  5
555
  8
01
 10
954.78855934838532
 20
-398.23408159877272
 30
0.0
 11
954.78855934838532
 21
-405.73408159877272
 31
0.0
  0
LINE
  5
556
  8
01
 10
953.1885493483851
 20
-405.73408159877272
 30
0.0
 11
954.78855934838532
 21
-405.73408159877272
 31
0.0
  0
LINE
  5
557
  8
01
 10
955.58855934838618
 20
-399.0340715987723
 30
0.0
 11
955.58855934838618
 21
-402.7340815987726
 31
0.0
  0
LINE
  5
558
  8
01
 10
953.1885493483851
 20
-373.23408159877272
 30
0.0
 11
953.1885493483851
 21
-413.23408159877272
 31
0.0
  0
LINE
  5
559
  8
01
 10
961.78855934838509
 20
-385.33405159877202
 30
0.0
 11
961.78855934838509
 21
-402.7340815987726
 31
0.0
  0
LINE
  5
55A
  8
01
 10
956.38854934838594
 20
-388.23408159877272
 30
0.0
 11
956.38854934838594
 21
-398.23408159877272
 31
0.0
  0
LINE
  5
55B
  8
01
 10
954.78855934838532
 20
-388.23408159877272
 30
0.0
 11
954.78855934838532
 21
-398.23408159877272
 31
0.0
  0
ARC
  5
55C
  8
01
 10
985.85804934838507
 20
-423.33516159877217
 30
0.0
 40
50.0
 50
130.7976899999974
 51
150.85500000002
  0
LINE
  5
55E
  8
01
 10
985.54989789461706
 20
-427.73411259877139
 30
0.0
 11
1001.172534506068
 21
-427.73411259877139
 31
0.0
  0
LINE
  5
55F
  8
01
 10
1021.588549348386
 20
-385.33405159877202
 30
0.0
 11
1021.588549348386
 21
-402.7340815987726
 31
0.0
  0
LINE
  5
560
  8
01
 10
1023.188549348385
 20
-383.73408159877272
 30
0.0
 11
1023.188549348385
 21
-402.7340815987726
 31
0.0
  0
LINE
  5
92B
  8
01
 10
720.1876731663242
 20
-699.23408159774397
 30
0.0
 11
706.18767316632409
 21
-699.23408159774397
 31
0.0
  0
LINE
  5
92C
  8
01
 10
720.1876731663242
 20
-585.23408159774408
 30
0.0
 11
706.18767316632409
 21
-585.23408159774408
 31
0.0
  0
LINE
  5
92E
  8
01
 10
840.68766916632455
 20
-585.23408159774408
 30
0.0
 11
827.68766916632467
 21
-585.23408159774408
 31
0.0
  0
LINE
  5
92F
  8
01
 10
834.18766916632455
 20
-578.73408159774397
 30
0.0
 11
834.18766916632455
 21
-591.73408159774397
 31
0.0
  0
LINE
  5
931
  8
01
 10
840.68766916632455
 20
-699.23408159774397
 30
0.0
 11
827.68766916632467
 21
-699.23408159774397
 31
0.0
  0
LINE
  5
932
  8
01
 10
834.18766916632455
 20
-692.73408159774408
 30
0.0
 11
834.18766916632455
 21
-705.73408159774408
 31
0.0
  0
LINE
  5
96E
  8
01
 10
974.18766516632502
 20
-663.23408159774419
 30
0.0
 11
1034.1876651663249
 21
-663.23408159774419
 31
0.0
  0
LINE
  5
96F
  8
01
 10
1004.187665166325
 20
-633.23408159774419
 30
0.0
 11
1004.187665166325
 21
-693.23408159774419
 31
0.0
  0
POINT
  5
21C1
  8
01
 10
799.68766916632455
 20
-663.23408159774419
 30
0.0
 50
180.0
  0
CIRCLE
  5
21CE
  8
01
 10
799.68766916632455
 20
-663.23408159774419
 30
0.0
 40
2.5
  0
LINE
  5
5978
  8
01
 10
1004.18778150607
 20
-408.23408159877272
 30
0.0
 11
1004.18778150607
 21
-443.23408159877272
 31
0.0
  0
LINE
  5
5979
  8
01
 10
784.18766916632455
 20
-663.23408159774419
 30
0.0
 11
819.18766916632455
 21
-663.23408159774419
 31
0.0
  0
LINE
  5
597A
  8
01
 10
849.18766916632467
 20
-663.23408159774419
 30
0.0
 11
884.18766916632455
 21
-663.23408159774419
 31
0.0
  0
LINE
  5
A5D6
  8
01
 10
953.1885493483851
 20
-413.23408159877272
 30
0.0
 11
1106.942929503417
 21
-413.23408159877272
 31
0.0
  0
LINE
  5
A5D7
  8
01
 10
953.1885493483851
 20
-373.23408159877272
 30
0.0
 11
1106.942929503417
 21
-373.23408159877272
 31
0.0
  0
POINT
  5
B120
  8
01
 10
814.18766916632467
 20
-663.23408159774408
 30
0.0
  0
LINE
  5
B121
  8
01
 10
814.18766916632467
 20
-688.23408159774385
 30
0.0
 11
814.18766916632467
 21
-638.2341815977444
 31
0.0
  0
LINE
  5
B51D
  8
01
 10
980.18778150606965
 20
-421.7340815987726
 30
0.0
 11
1028.18778150607
 21
-421.7340815987726
 31
0.0
  0
LINE
  5
B51E
  8
01
 10
979.18778150606965
 20
-413.2340815987726
 30
0.0
 11
979.18778150606965
 21
-420.7340815987726
 31
0.0
  0
ARC
  5
B51F
  8
01
 10
980.18778150606965
 20
-420.73408159877272
 30
0.0
 40
1.0
 50
180.0
 51
270.0
  0
LINE
  5
B520
  8
01
 10
1029.1877815060691
 20
-413.2340815987726
 30
0.0
 11
1029.1877815060691
 21
-420.7340815987726
 31
0.0
  0
ARC
  5
B521
  8
01
 10
1028.18778150607
 20
-420.73408159877272
 30
0.0
 40
1.0
 50
270.0
 51
0.0
  0
ARC
  5
B522
  8
01
 10
1004.187665166325
 20
-663.23408159774419
 30
0.0
 40
25.0
 50
34.650118644348481
 51
348.1578498549859
  0
LINE
  5
B527
  8
01
 10
854.18766916632455
 20
-638.23408159774419
 30
0.0
 11
854.18766916632455
 21
-688.23408159774419
 31
0.0
  0
LINE
  5
B528
  8
01
 10
862.68766916632455
 20
-687.23408159774419
 30
0.0
 11
862.68766916632455
 21
-639.23408159774408
 31
0.0
  0
LINE
  5
B529
  8
01
 10
854.18766916632455
 20
-688.23408159774419
 30
0.0
 11
861.68766916632467
 21
-688.23408159774419
 31
0.0
  0
ARC
  5
B52A
  8
01
 10
861.68766916632467
 20
-687.23408159774419
 30
0.0
 40
1.0
 50
270.0
 51
0.0
  0
LINE
  5
B52B
  8
01
 10
854.18766916632455
 20
-638.23408159774419
 30
0.0
 11
861.68766916632467
 21
-638.23408159774419
 31
0.0
  0
ARC
  5
B52C
  8
01
 10
861.68766916632467
 20
-639.23408159774408
 30
0.0
 40
1.0
 50
0.0
 51
90.0
  0
LINE
  5
B534
  8
01
 10
996.23778450606653
 20
-421.7340815987726
 30
0.0
 11
1012.137778506066
 21
-421.7340815987726
 31
0.0
  0
ARC
  5
B535
  8
01
 10
1106.120230635973
 20
-664.88576598332475
 30
0.0
 40
12.11544485022983
 50
0.2636358195341804
 51
28.194824646090389
  0
ARC
  5
B536
  8
01
 10
1104.18893202858
 20
-665.01539914284433
 30
0.0
 40
14.050000000000001
 50
329.99999999997038
 51
0.0074422741426682
  0
LINE
  5
B537
  8
01
 10
1118.2355709772951
 20
-664.83208572587421
 30
0.0
 11
1118.2389572421571
 21
-665.01631136897333
 31
0.0
  0
ARC
  5
B538
  8
01
 10
1114.5893881430411
 20
-661.65224445826698
 30
0.0
 40
3.0499999999999989
 50
20.89683970046303
 51
72.227359201008468
  0
ARC
  5
B539
  8
01
 10
1046.557650189178
 20
-873.89444394819509
 30
0.0
 40
225.92904480535049
 50
71.886752201455593
 51
101.3721380535423
  0
ARC
  5
B53A
  8
01
 10
1004.187665166325
 20
-663.23408159774419
 30
0.0
 40
11.050000000000001
 50
101.3721380535423
 51
285.75219845624741
  0
ARC
  5
B53B
  8
01
 10
1132.932754958739
 20
-1119.662698692008
 30
0.0
 40
463.18873802994909
 50
97.702016983007496
 51
105.7521984562474
  0
ARC
  5
B53C
  8
01
 10
1073.529424618936
 20
-680.42264674441731
 30
0.0
 40
19.949999999999999
 50
72.361209948440006
 51
97.702016983007496
  0
ARC
  5
B53D
  8
01
 10
1034.1374557762781
 20
-804.31079303250692
 30
0.0
 40
149.94999999999999
 50
66.629605050666555
 51
78.83307398442787
  0
ARC
  5
B53E
  8
01
 10
1133.305862945545
 20
-574.82086510644206
 30
0.0
 40
100.05
 50
246.62960505066661
 51
258.98490457804621
  0
ARC
  5
B53F
  8
01
 10
1114.5812368739921
 20
-671.01539914284433
 30
0.0
 40
2.0499999999999989
 50
212.71138168058729
 51
329.99999999997038
  0
ARC
  5
B540
  8
01
 10
1115.4850623527991
 20
-661.13341878165022
 30
0.0
 40
2.0344389403939038
 50
43.604736863923797
 51
143.9149460994735
  0
ARC
  5
B541
  8
01
 10
1112.5480157799821
 20
-666.60591797837378
 30
0.0
 40
1.8
 50
163.9016694906596
 51
191.0008853575313
  0
ARC
  5
B542
  8
01
 10
1129.84218599512
 20
-671.59707782051748
 30
0.0
 40
19.800000000000001
 50
143.9149460994735
 51
163.9016694906596
  0
ARC
  5
B543
  8
01
 10
1125.309130833328
 20
-664.1252038482786
 30
0.0
 40
14.800000000000001
 50
191.0008853575313
 51
212.71138168058729
  0
LINE
  5
B544
  8
01
 10
1015.237781506069
 20
-422.2340815987726
 30
0.0
 11
1015.237781506069
 21
-451.50791108726492
 31
0.0
  0
ARC
  5
B545
  8
01
 10
1023.307415082102
 20
-445.39827090642717
 30
0.0
 40
11.949999999999999
 50
244.84105075448269
 51
268.09360906930431
  0
LINE
  5
B546
  8
01
 10
1022.909878499399
 20
-457.34165671889298
 30
0.0
 11
1116.4989283556779
 21
-460.45677596920052
 31
0.0
  0
ARC
  5
B547
  8
01
 10
994.93778150606977
 20
-465.59707275747229
 30
0.0
 40
1.8
 50
180.0
 51
260.37904022203458
  0
ARC
  5
B548
  8
01
 10
1116.4390483683251
 20
-462.25577968990649
 30
0.0
 40
1.8
 50
347.1925378060422
 51
88.093609069304293
  0
ARC
  5
B549
  8
01
 10
1109.3062077723009
 20
-484.98408159877221
 30
0.0
 40
1.8
 50
260.37904022203458
 51
337.96053727538907
  0
ARC
  5
B54A
  8
01
 10
972.1212156128322
 20
-429.4478058305275
 30
0.0
 40
149.80000000000001
 50
337.96053727538907
 51
347.1925378060422
  0
ARC
  5
B54B
  8
01
 10
1020.437781506069
 20
-451.50791108726492
 30
0.0
 40
5.2000000000000002
 50
180.0
 51
244.8410507543677
  0
LINE
  5
B54C
  8
01
 10
1015.237781506069
 20
-422.2340815987726
 30
0.0
 11
993.13778150607084
 21
-422.2340815987726
 31
0.0
  0
LINE
  5
B54D
  8
01
 10
1012.13778150607
 20
-422.2340815987726
 30
0.0
 11
1012.13778150607
 21
-421.7340815987726
 31
0.0
  0
LINE
  5
B54E
  8
01
 10
996.23778150606995
 20
-422.2340815987726
 30
0.0
 11
996.23778150606904
 21
-421.7340815987726
 31
0.0
  0
LINE
  5
B550
  8
01
 10
863.18766916632467
 20
-652.18408159774492
 30
0.0
 11
898.03987790468454
 21
-652.18408159774492
 31
0.0
  0
LINE
  5
B551
  8
01
 10
863.18766916632467
 20
-674.28408159774347
 30
0.0
 11
909.94433977346125
 21
-674.28408159774347
 31
0.0
  0
LINE
  5
B552
  8
01
 10
863.18766916632467
 20
-652.18408159774492
 30
0.0
 11
863.18766916632467
 21
-674.28408159774347
 31
0.0
  0
LINE
  5
B553
  8
01
 10
863.18766916632467
 20
-655.28408159774335
 30
0.0
 11
862.68766916632455
 21
-655.28408159774335
 31
0.0
  0
LINE
  5
B554
  8
01
 10
863.18766916632467
 20
-671.1840815977439
 30
0.0
 11
862.68766916632455
 21
-671.1840815977439
 31
0.0
  0
LINE
  5
B555
  8
01
 10
993.13778150607038
 20
-422.2340815987726
 30
0.0
 11
993.13778150607129
 21
-465.5970727574724
 31
0.0
  0
LINE
  5
B556
  8
01
 10
994.6369485324376
 20
-467.37175569309119
 30
0.0
 11
1109.0053747986681
 21
-486.75876453439099
 31
0.0
  0
POLYLINE
  5
B557
  8
01
 10
927.95294988075409
 20
-666.60591797837378
 30
0.0
 66
     1
 70
     8
  0
VERTEX
  8
01
  5
BB19
 10
927.953
 20
-666.606
 30
0.000000
  70
    32
  0
VERTEX
  8
01
  5
BB1A
 10
927.952
 20
-666.377
 30
0.000000
  70
    32
  0
VERTEX
  8
01
  5
BB1B
 10
927.950
 20
-666.148
 30
0.000000
  70
    32
  0
VERTEX
  8
01
  5
BB1C
 10
927.946
 20
-665.920
 30
0.000000
  70
    32
  0
VERTEX
  8
01
  5
BB1D
 10
927.940
 20
-665.691
 30
0.000000
  70
    32
  0
VERTEX
  8
01
  5
BB1E
 10
927.933
 20
-665.463
 30
0.000000
  70
    32
  0
VERTEX
  8
01
  5
BB1F
 10
927.924
 20
-665.235
 30
0.000000
  70
    32
  0
VERTEX
  8
01
  5
BB20
 10
927.913
 20
-665.007
 30
0.000000
  70
    32
  0
VERTEX
  8
01
  5
BB21
 10
927.901
 20
-664.779
 30
0.000000
  70
    32
  0
VERTEX
  8
01
  5
BB22
 10
927.887
 20
-664.551
 30
0.000000
  70
    32
  0
VERTEX
  8
01
  5
BB23
 10
927.872
 20
-664.324
 30
0.000000
  70
    32
  0
VERTEX
  8
01
  5
BB24
 10
927.854
 20
-664.097
 30
0.000000
  70
    32
  0
VERTEX
  8
01
  5
BB25
 10
927.836
 20
-663.871
 30
0.000000
  70
    32
  0
VERTEX
  8
01
  5
BB26
 10
927.815
 20
-663.645
 30
0.000000
  70
    32
  0
VERTEX
  8
01
  5
BB27
 10
927.794
 20
-663.419
 30
0.000000
  70
    32
  0
VERTEX
  8
01
  5
BB28
 10
927.770
 20
-663.194
 30
0.000000
  70
    32
  0
VERTEX
  8
01
  5
BB29
 10
927.745
 20
-662.969
 30
0.000000
  70
    32
  0
VERTEX
  8
01
  5
BB2A
 10
927.718
 20
-662.745
 30
0.000000
  70
    32
  0
VERTEX
  8
01
  5
BB2B
 10
927.690
 20
-662.522
 30
0.000000
  70
    32
  0
VERTEX
  8
01
  5
BB2C
 10
927.660
 20
-662.299
 30
0.000000
  70
    32
  0
VERTEX
  8
01
  5
BB2D
 10
927.628
 20
-662.077
 30
0.000000
  70
    32
  0
VERTEX
  8
01
  5
BB2E
 10
927.595
 20
-661.855
 30
0.000000
  70
    32
  0
VERTEX
  8
01
  5
BB2F
 10
927.561
 20
-661.634
 30
0.000000
  70
    32
  0
VERTEX
  8
01
  5
BB30
 10
927.525
 20
-661.414
 30
0.000000
  70
    32
  0
VERTEX
  8
01
  5
BB31
 10
927.487
 20
-661.195
 30
0.000000
  70
    32
  0
VERTEX
  8
01
  5
BB32
 10
927.447
 20
-660.976
 30
0.000000
  70
    32
  0
VERTEX
  8
01
  5
BB33
 10
927.407
 20
-660.759
 30
0.000000
  70
    32
  0
VERTEX
  8
01
  5
BB34
 10
927.364
 20
-660.542
 30
0.000000
  70
    32
  0
VERTEX
  8
01
  5
BB35
 10
927.320
 20
-660.326
 30
0.000000
  70
    32
  0
VERTEX
  8
01
  5
BB36
 10
927.275
 20
-660.111
 30
0.000000
  70
    32
  0
VERTEX
  8
01
  5
BB37
 10
927.228
 20
-659.897
 30
0.000000
  70
    32
  0
VERTEX
  8
01
  5
BB38
 10
927.179
 20
-659.684
 30
0.000000
  70
    32
  0
VERTEX
  8
01
  5
BB39
 10
927.129
 20
-659.473
 30
0.000000
  70
    32
  0
VERTEX
  8
01
  5
BB3A
 10
927.077
 20
-659.262
 30
0.000000
  70
    32
  0
VERTEX
  8
01
  5
BB3B
 10
927.024
 20
-659.052
 30
0.000000
  70
    32
  0
VERTEX
  8
01
  5
BB3C
 10
926.970
 20
-658.843
 30
0.000000
  70
    32
  0
VERTEX
  8
01
  5
BB3D
 10
926.914
 20
-658.636
 30
0.000000
  70
    32
  0
VERTEX
  8
01
  5
BB3E
 10
926.856
 20
-658.430
 30
0.000000
  70
    32
  0
VERTEX
  8
01
  5
BB3F
 10
926.797
 20
-658.225
 30
0.000000
  70
    32
  0
VERTEX
  8
01
  5
BB40
 10
926.737
 20
-658.021
 30
0.000000
  70
    32
  0
VERTEX
  8
01
  5
BB41
 10
926.675
 20
-657.819
 30
0.000000
  70
    32
  0
VERTEX
  8
01
  5
BB42
 10
926.611
 20
-657.618
 30
0.000000
  70
    32
  0
VERTEX
  8
01
  5
BB43
 10
926.546
 20
-657.418
 30
0.000000
  70
    32
  0
VERTEX
  8
01
  5
BB44
 10
926.480
 20
-657.220
 30
0.000000
  70
    32
  0
VERTEX
  8
01
  5
BB45
 10
926.413
 20
-657.023
 30
0.000000
  70
    32
  0
VERTEX
  8
01
  5
BB46
 10
926.344
 20
-656.827
 30
0.000000
  70
    32
  0
VERTEX
  8
01
  5
BB47
 10
926.273
 20
-656.633
 30
0.000000
  70
    32
  0
VERTEX
  8
01
  5
BB48
 10
926.202
 20
-656.441
 30
0.000000
  70
    32
  0
VERTEX
  8
01
  5
BB49
 10
926.128
 20
-656.250
 30
0.000000
  70
    32
  0
VERTEX
  8
01
  5
BB4A
 10
926.054
 20
-656.060
 30
0.000000
  70
    32
  0
VERTEX
  8
01
  5
BB4B
 10
925.978
 20
-655.873
 30
0.000000
  70
    32
  0
VERTEX
  8
01
  5
BB4C
 10
925.901
 20
-655.686
 30
0.000000
  70
    32
  0
VERTEX
  8
01
  5
BB4D
 10
925.822
 20
-655.502
 30
0.000000
  70
    32
  0
VERTEX
  8
01
  5
BB4E
 10
925.743
 20
-655.319
 30
0.000000
  70
    32
  0
VERTEX
  8
01
  5
BB4F
 10
925.662
 20
-655.138
 30
0.000000
  70
    32
  0
VERTEX
  8
01
  5
BB50
 10
925.579
 20
-654.958
 30
0.000000
  70
    32
  0
VERTEX
  8
01
  5
BB51
 10
925.495
 20
-654.780
 30
0.000000
  70
    32
  0
VERTEX
  8
01
  5
BB52
 10
925.411
 20
-654.605
 30
0.000000
  70
    32
  0
VERTEX
  8
01
  5
BB53
 10
925.324
 20
-654.430
 30
0.000000
  70
    32
  0
VERTEX
  8
01
  5
BB54
 10
925.237
 20
-654.258
 30
0.000000
  70
    32
  0
VERTEX
  8
01
  5
BB55
 10
925.148
 20
-654.088
 30
0.000000
  70
    32
  0
VERTEX
  8
01
  5
BB56
 10
925.059
 20
-653.919
 30
0.000000
  70
    32
  0
VERTEX
  8
01
  5
BB57
 10
924.968
 20
-653.753
 30
0.000000
  70
    32
  0
VERTEX
  8
01
  5
BB58
 10
924.875
 20
-653.588
 30
0.000000
  70
    32
  0
VERTEX
  8
01
  5
BB59
 10
924.782
 20
-653.425
 30
0.000000
  70
    32
  0
VERTEX
  8
01
  5
BB5A
 10
924.687
 20
-653.264
 30
0.000000
  70
    32
  0
VERTEX
  8
01
  5
BB5B
 10
924.592
 20
-653.106
 30
0.000000
  70
    32
  0
VERTEX
  8
01
  5
BB5C
 10
924.495
 20
-652.949
 30
0.000000
  70
    32
  0
VERTEX
  8
01
  5
BB5D
 10
924.397
 20
-652.794
 30
0.000000
  70
    32
  0
VERTEX
  8
01
  5
BB5E
 10
924.298
 20
-652.642
 30
0.000000
  70
    32
  0
VERTEX
  8
01
  5
BB5F
 10
924.198
 20
-652.491
 30
0.000000
  70
    32
  0
VERTEX
  8
01
  5
BB60
 10
924.097
 20
-652.343
 30
0.000000
  70
    32
  0
VERTEX
  8
01
  5
BB61
 10
923.995
 20
-652.197
 30
0.000000
  70
    32
  0
VERTEX
  8
01
  5
BB62
 10
923.892
 20
-652.053
 30
0.000000
  70
    32
  0
VERTEX
  8
01
  5
BB63
 10
923.787
 20
-651.911
 30
0.000000
  70
    32
  0
VERTEX
  8
01
  5
BB64
 10
923.682
 20
-651.771
 30
0.000000
  70
    32
  0
VERTEX
  8
01
  5
BB65
 10
923.576
 20
-651.634
 30
0.000000
  70
    32
  0
VERTEX
  8
01
  5
BB66
 10
923.469
 20
-651.499
 30
0.000000
  70
    32
  0
VERTEX
  8
01
  5
BB67
 10
923.361
 20
-651.366
 30
0.000000
  70
    32
  0
VERTEX
  8
01
  5
BB68
 10
923.251
 20
-651.235
 30
0.000000
  70
    32
  0
VERTEX
  8
01
  5
BB69
 10
923.141
 20
-651.107
 30
0.000000
  70
    32
  0
VERTEX
  8
01
  5
BB6A
 10
923.030
 20
-650.981
 30
0.000000
  70
    32
  0
VERTEX
  8
01
  5
BB6B
 10
922.919
 20
-650.857
 30
0.000000
  70
    32
  0
VERTEX
  8
01
  5
BB6C
 10
922.806
 20
-650.736
 30
0.000000
  70
    32
  0
VERTEX
  8
01
  5
BB6D
 10
922.692
 20
-650.617
 30
0.000000
  70
    32
  0
VERTEX
  8
01
  5
BB6E
 10
922.578
 20
-650.501
 30
0.000000
  70
    32
  0
VERTEX
  8
01
  5
BB6F
 10
922.463
 20
-650.387
 30
0.000000
  70
    32
  0
VERTEX
  8
01
  5
BB70
 10
922.347
 20
-650.276
 30
0.000000
  70
    32
  0
VERTEX
  8
01
  5
BB71
 10
922.230
 20
-650.166
 30
0.000000
  70
    32
  0
VERTEX
  8
01
  5
BB72
 10
922.113
 20
-650.060
 30
0.000000
  70
    32
  0
VERTEX
  8
01
  5
BB73
 10
921.994
 20
-649.956
 30
0.000000
  70
    32
  0
VERTEX
  8
01
  5
BB74
 10
921.875
 20
-649.854
 30
0.000000
  70
    32
  0
VERTEX
  8
01
  5
BB75
 10
921.755
 20
-649.755
 30
0.000000
  70
    32
  0
VERTEX
  8
01
  5
BB76
 10
921.635
 20
-649.659
 30
0.000000
  70
    32
  0
VERTEX
  8
01
  5
BB77
 10
921.514
 20
-649.565
 30
0.000000
  70
    32
  0
VERTEX
  8
01
  5
BB78
 10
921.392
 20
-649.473
 30
0.000000
  70
    32
  0
VERTEX
  8
01
  5
BB79
 10
921.270
 20
-649.384
 30
0.000000
  70
    32
  0
VERTEX
  8
01
  5
BB7A
 10
921.147
 20
-649.298
 30
0.000000
  70
    32
  0
VERTEX
  8
01
  5
BB7B
 10
921.023
 20
-649.214
 30
0.000000
  70
    32
  0
VERTEX
  8
01
  5
BB7C
 10
920.899
 20
-649.133
 30
0.000000
  70
    32
  0
VERTEX
  8
01
  5
BB7D
 10
920.774
 20
-649.055
 30
0.000000
  70
    32
  0
VERTEX
  8
01
  5
BB7E
 10
920.649
 20
-648.979
 30
0.000000
  70
    32
  0
VERTEX
  8
01
  5
BB7F
 10
920.523
 20
-648.906
 30
0.000000
  70
    32
  0
VERTEX
  8
01
  5
BB80
 10
920.396
 20
-648.836
 30
0.000000
  70
    32
  0
VERTEX
  8
01
  5
BB81
 10
920.269
 20
-648.768
 30
0.000000
  70
    32
  0
VERTEX
  8
01
  5
BB82
 10
920.142
 20
-648.703
 30
0.000000
  70
    32
  0
VERTEX
  8
01
  5
BB83
 10
920.014
 20
-648.641
 30
0.000000
  70
    32
  0
VERTEX
  8
01
  5
BB84
 10
919.886
 20
-648.581
 30
0.000000
  70
    32
  0
VERTEX
  8
01
  5
BB85
 10
919.757
 20
-648.524
 30
0.000000
  70
    32
  0
VERTEX
  8
01
  5
BB86
 10
919.628
 20
-648.470
 30
0.000000
  70
    32
  0
VERTEX
  8
01
  5
BB87
 10
919.499
 20
-648.418
 30
0.000000
  70
    32
  0
VERTEX
  8
01
  5
BB88
 10
919.369
 20
-648.370
 30
0.000000
  70
    32
  0
VERTEX
  8
01
  5
BB89
 10
919.239
 20
-648.324
 30
0.000000
  70
    32
  0
VERTEX
  8
01
  5
BB8A
 10
919.108
 20
-648.280
 30
0.000000
  70
    32
  0
VERTEX
  8
01
  5
BB8B
 10
918.978
 20
-648.240
 30
0.000000
  70
    32
  0
VERTEX
  8
01
  5
BB8C
 10
918.846
 20
-648.202
 30
0.000000
  70
    32
  0
VERTEX
  8
01
  5
BB8D
 10
918.715
 20
-648.167
 30
0.000000
  70
    32
  0
VERTEX
  8
01
  5
BB8E
 10
918.584
 20
-648.135
 30
0.000000
  70
    32
  0
VERTEX
  8
01
  5
BB8F
 10
918.452
 20
-648.106
 30
0.000000
  70
    32
  0
VERTEX
  8
01
  5
BB90
 10
918.320
 20
-648.079
 30
0.000000
  70
    32
  0
VERTEX
  8
01
  5
BB91
 10
918.188
 20
-648.055
 30
0.000000
  70
    32
  0
VERTEX
  8
01
  5
BB92
 10
918.055
 20
-648.034
 30
0.000000
  70
    32
  0
VERTEX
  8
01
  5
BB93
 10
917.923
 20
-648.016
 30
0.000000
  70
    32
  0
VERTEX
  8
01
  5
BB94
 10
917.791
 20
-648.000
 30
0.000000
  70
    32
  0
VERTEX
  8
01
  5
BB95
 10
917.658
 20
-647.988
 30
0.000000
  70
    32
  0
VERTEX
  8
01
  5
BB96
 10
917.525
 20
-647.978
 30
0.000000
  70
    32
  0
VERTEX
  8
01
  5
BB97
 10
917.392
 20
-647.971
 30
0.000000
  70
    32
  0
VERTEX
  8
01
  5
BB98
 10
917.259
 20
-647.967
 30
0.000000
  70
    32
  0
VERTEX
  8
01
  5
BB99
 10
917.127
 20
-647.965
 30
0.000000
  70
    32
  0
SEQEND
  8
01
  5
BB9A
  0
POLYLINE
  5
B558
  8
01
 10
908.07121399312018
 20
-663.23408159774419
 30
0.0
 66
     1
 70
     8
  0
VERTEX
  8
01
  5
BB9B
 10
908.071
 20
-663.234
 30
0.000000
  70
    32
  0
VERTEX
  8
01
  5
BB9C
 10
908.072
 20
-663.505
 30
0.000000
  70
    32
  0
VERTEX
  8
01
  5
BB9D
 10
908.073
 20
-663.776
 30
0.000000
  70
    32
  0
VERTEX
  8
01
  5
BB9E
 10
908.076
 20
-664.047
 30
0.000000
  70
    32
  0
VERTEX
  8
01
  5
BB9F
 10
908.080
 20
-664.317
 30
0.000000
  70
    32
  0
VERTEX
  8
01
  5
BBA0
 10
908.085
 20
-664.587
 30
0.000000
  70
    32
  0
VERTEX
  8
01
  5
BBA1
 10
908.091
 20
-664.855
 30
0.000000
  70
    32
  0
VERTEX
  8
01
  5
BBA2
 10
908.099
 20
-665.123
 30
0.000000
  70
    32
  0
VERTEX
  8
01
  5
BBA3
 10
908.107
 20
-665.390
 30
0.000000
  70
    32
  0
VERTEX
  8
01
  5
BBA4
 10
908.117
 20
-665.655
 30
0.000000
  70
    32
  0
VERTEX
  8
01
  5
BBA5
 10
908.127
 20
-665.919
 30
0.000000
  70
    32
  0
VERTEX
  8
01
  5
BBA6
 10
908.139
 20
-666.181
 30
0.000000
  70
    32
  0
VERTEX
  8
01
  5
BBA7
 10
908.152
 20
-666.442
 30
0.000000
  70
    32
  0
VERTEX
  8
01
  5
BBA8
 10
908.166
 20
-666.700
 30
0.000000
  70
    32
  0
VERTEX
  8
01
  5
BBA9
 10
908.181
 20
-666.957
 30
0.000000
  70
    32
  0
VERTEX
  8
01
  5
BBAA
 10
908.197
 20
-667.211
 30
0.000000
  70
    32
  0
VERTEX
  8
01
  5
BBAB
 10
908.214
 20
-667.463
 30
0.000000
  70
    32
  0
VERTEX
  8
01
  5
BBAC
 10
908.232
 20
-667.712
 30
0.000000
  70
    32
  0
VERTEX
  8
01
  5
BBAD
 10
908.251
 20
-667.959
 30
0.000000
  70
    32
  0
VERTEX
  8
01
  5
BBAE
 10
908.271
 20
-668.202
 30
0.000000
  70
    32
  0
VERTEX
  8
01
  5
BBAF
 10
908.292
 20
-668.443
 30
0.000000
  70
    32
  0
VERTEX
  8
01
  5
BBB0
 10
908.315
 20
-668.681
 30
0.000000
  70
    32
  0
VERTEX
  8
01
  5
BBB1
 10
908.338
 20
-668.915
 30
0.000000
  70
    32
  0
VERTEX
  8
01
  5
BBB2
 10
908.362
 20
-669.146
 30
0.000000
  70
    32
  0
VERTEX
  8
01
  5
BBB3
 10
908.387
 20
-669.373
 30
0.000000
  70
    32
  0
VERTEX
  8
01
  5
BBB4
 10
908.413
 20
-669.597
 30
0.000000
  70
    32
  0
VERTEX
  8
01
  5
BBB5
 10
908.440
 20
-669.817
 30
0.000000
  70
    32
  0
VERTEX
  8
01
  5
BBB6
 10
908.468
 20
-670.032
 30
0.000000
  70
    32
  0
VERTEX
  8
01
  5
BBB7
 10
908.496
 20
-670.244
 30
0.000000
  70
    32
  0
VERTEX
  8
01
  5
BBB8
 10
908.526
 20
-670.452
 30
0.000000
  70
    32
  0
VERTEX
  8
01
  5
BBB9
 10
908.556
 20
-670.655
 30
0.000000
  70
    32
  0
VERTEX
  8
01
  5
BBBA
 10
908.588
 20
-670.854
 30
0.000000
  70
    32
  0
VERTEX
  8
01
  5
BBBB
 10
908.620
 20
-671.048
 30
0.000000
  70
    32
  0
VERTEX
  8
01
  5
BBBC
 10
908.653
 20
-671.237
 30
0.000000
  70
    32
  0
VERTEX
  8
01
  5
BBBD
 10
908.686
 20
-671.422
 30
0.000000
  70
    32
  0
VERTEX
  8
01
  5
BBBE
 10
908.721
 20
-671.601
 30
0.000000
  70
    32
  0
VERTEX
  8
01
  5
BBBF
 10
908.756
 20
-671.776
 30
0.000000
  70
    32
  0
VERTEX
  8
01
  5
BBC0
 10
908.792
 20
-671.945
 30
0.000000
  70
    32
  0
VERTEX
  8
01
  5
BBC1
 10
908.829
 20
-672.110
 30
0.000000
  70
    32
  0
VERTEX
  8
01
  5
BBC2
 10
908.866
 20
-672.268
 30
0.000000
  70
    32
  0
VERTEX
  8
01
  5
BBC3
 10
908.904
 20
-672.422
 30
0.000000
  70
    32
  0
VERTEX
  8
01
  5
BBC4
 10
908.942
 20
-672.570
 30
0.000000
  70
    32
  0
VERTEX
  8
01
  5
BBC5
 10
908.981
 20
-672.712
 30
0.000000
  70
    32
  0
VERTEX
  8
01
  5
BBC6
 10
909.021
 20
-672.849
 30
0.000000
  70
    32
  0
VERTEX
  8
01
  5
BBC7
 10
909.061
 20
-672.979
 30
0.000000
  70
    32
  0
VERTEX
  8
01
  5
BBC8
 10
909.102
 20
-673.104
 30
0.000000
  70
    32
  0
VERTEX
  8
01
  5
BBC9
 10
909.143
 20
-673.223
 30
0.000000
  70
    32
  0
VERTEX
  8
01
  5
BBCA
 10
909.185
 20
-673.336
 30
0.000000
  70
    32
  0
VERTEX
  8
01
  5
BBCB
 10
909.228
 20
-673.443
 30
0.000000
  70
    32
  0
VERTEX
  8
01
  5
BBCC
 10
909.270
 20
-673.544
 30
0.000000
  70
    32
  0
VERTEX
  8
01
  5
BBCD
 10
909.313
 20
-673.638
 30
0.000000
  70
    32
  0
VERTEX
  8
01
  5
BBCE
 10
909.357
 20
-673.726
 30
0.000000
  70
    32
  0
VERTEX
  8
01
  5
BBCF
 10
909.401
 20
-673.808
 30
0.000000
  70
    32
  0
VERTEX
  8
01
  5
BBD0
 10
909.445
 20
-673.884
 30
0.000000
  70
    32
  0
VERTEX
  8
01
  5
BBD1
 10
909.489
 20
-673.953
 30
0.000000
  70
    32
  0
VERTEX
  8
01
  5
BBD2
 10
909.534
 20
-674.016
 30
0.000000
  70
    32
  0
VERTEX
  8
01
  5
BBD3
 10
909.579
 20
-674.072
 30
0.000000
  70
    32
  0
VERTEX
  8
01
  5
BBD4
 10
909.624
 20
-674.121
 30
0.000000
  70
    32
  0
VERTEX
  8
01
  5
BBD5
 10
909.669
 20
-674.164
 30
0.000000
  70
    32
  0
VERTEX
  8
01
  5
BBD6
 10
909.715
 20
-674.201
 30
0.000000
  70
    32
  0
VERTEX
  8
01
  5
BBD7
 10
909.761
 20
-674.231
 30
0.000000
  70
    32
  0
VERTEX
  8
01
  5
BBD8
 10
909.807
 20
-674.254
 30
0.000000
  70
    32
  0
VERTEX
  8
01
  5
BBD9
 10
909.852
 20
-674.271
 30
0.000000
  70
    32
  0
VERTEX
  8
01
  5
BBDA
 10
909.898
 20
-674.281
 30
0.000000
  70
    32
  0
VERTEX
  8
01
  5
BBDB
 10
909.944
 20
-674.284
 30
0.000000
  70
    32
  0
VERTEX
  8
01
  5
BBDC
 10
909.990
 20
-674.281
 30
0.000000
  70
    32
  0
VERTEX
  8
01
  5
BBDD
 10
910.036
 20
-674.271
 30
0.000000
  70
    32
  0
VERTEX
  8
01
  5
BBDE
 10
910.082
 20
-674.254
 30
0.000000
  70
    32
  0
VERTEX
  8
01
  5
BBDF
 10
910.128
 20
-674.231
 30
0.000000
  70
    32
  0
VERTEX
  8
01
  5
BBE0
 10
910.174
 20
-674.201
 30
0.000000
  70
    32
  0
VERTEX
  8
01
  5
BBE1
 10
910.219
 20
-674.164
 30
0.000000
  70
    32
  0
VERTEX
  8
01
  5
BBE2
 10
910.265
 20
-674.121
 30
0.000000
  70
    32
  0
VERTEX
  8
01
  5
BBE3
 10
910.310
 20
-674.072
 30
0.000000
  70
    32
  0
VERTEX
  8
01
  5
BBE4
 10
910.355
 20
-674.016
 30
0.000000
  70
    32
  0
VERTEX
  8
01
  5
BBE5
 10
910.399
 20
-673.953
 30
0.000000
  70
    32
  0
VERTEX
  8
01
  5
BBE6
 10
910.444
 20
-673.884
 30
0.000000
  70
    32
  0
VERTEX
  8
01
  5
BBE7
 10
910.488
 20
-673.808
 30
0.000000
  70
    32
  0
VERTEX
  8
01
  5
BBE8
 10
910.532
 20
-673.726
 30
0.000000
  70
    32
  0
VERTEX
  8
01
  5
BBE9
 10
910.575
 20
-673.638
 30
0.000000
  70
    32
  0
VERTEX
  8
01
  5
BBEA
 10
910.618
 20
-673.544
 30
0.000000
  70
    32
  0
VERTEX
  8
01
  5
BBEB
 10
910.661
 20
-673.443
 30
0.000000
  70
    32
  0
VERTEX
  8
01
  5
BBEC
 10
910.703
 20
-673.336
 30
0.000000
  70
    32
  0
VERTEX
  8
01
  5
BBED
 10
910.745
 20
-673.223
 30
0.000000
  70
    32
  0
VERTEX
  8
01
  5
BBEE
 10
910.787
 20
-673.104
 30
0.000000
  70
    32
  0
VERTEX
  8
01
  5
BBEF
 10
910.827
 20
-672.979
 30
0.000000
  70
    32
  0
VERTEX
  8
01
  5
BBF0
 10
910.868
 20
-672.849
 30
0.000000
  70
    32
  0
VERTEX
  8
01
  5
BBF1
 10
910.907
 20
-672.712
 30
0.000000
  70
    32
  0
VERTEX
  8
01
  5
BBF2
 10
910.946
 20
-672.570
 30
0.000000
  70
    32
  0
VERTEX
  8
01
  5
BBF3
 10
910.985
 20
-672.422
 30
0.000000
  70
    32
  0
VERTEX
  8
01
  5
BBF4
 10
911.023
 20
-672.268
 30
0.000000
  70
    32
  0
VERTEX
  8
01
  5
BBF5
 10
911.060
 20
-672.110
 30
0.000000
  70
    32
  0
VERTEX
  8
01
  5
BBF6
 10
911.097
 20
-671.945
 30
0.000000
  70
    32
  0
VERTEX
  8
01
  5
BBF7
 10
911.133
 20
-671.776
 30
0.000000
  70
    32
  0
VERTEX
  8
01
  5
BBF8
 10
911.168
 20
-671.601
 30
0.000000
  70
    32
  0
VERTEX
  8
01
  5
BBF9
 10
911.202
 20
-671.422
 30
0.000000
  70
    32
  0
VERTEX
  8
01
  5
BBFA
 10
911.236
 20
-671.237
 30
0.000000
  70
    32
  0
VERTEX
  8
01
  5
BBFB
 10
911.269
 20
-671.048
 30
0.000000
  70
    32
  0
VERTEX
  8
01
  5
BBFC
 10
911.301
 20
-670.854
 30
0.000000
  70
    32
  0
VERTEX
  8
01
  5
BBFD
 10
911.332
 20
-670.655
 30
0.000000
  70
    32
  0
VERTEX
  8
01
  5
BBFE
 10
911.363
 20
-670.452
 30
0.000000
  70
    32
  0
VERTEX
  8
01
  5
BBFF
 10
911.392
 20
-670.244
 30
0.000000
  70
    32
  0
VERTEX
  8
01
  5
BC00
 10
911.421
 20
-670.032
 30
0.000000
  70
    32
  0
VERTEX
  8
01
  5
BC01
 10
911.449
 20
-669.817
 30
0.000000
  70
    32
  0
VERTEX
  8
01
  5
BC02
 10
911.476
 20
-669.597
 30
0.000000
  70
    32
  0
VERTEX
  8
01
  5
BC03
 10
911.502
 20
-669.373
 30
0.000000
  70
    32
  0
VERTEX
  8
01
  5
BC04
 10
911.527
 20
-669.146
 30
0.000000
  70
    32
  0
VERTEX
  8
01
  5
BC05
 10
911.551
 20
-668.915
 30
0.000000
  70
    32
  0
VERTEX
  8
01
  5
BC06
 10
911.574
 20
-668.681
 30
0.000000
  70
    32
  0
VERTEX
  8
01
  5
BC07
 10
911.596
 20
-668.443
 30
0.000000
  70
    32
  0
VERTEX
  8
01
  5
BC08
 10
911.617
 20
-668.202
 30
0.000000
  70
    32
  0
VERTEX
  8
01
  5
BC09
 10
911.638
 20
-667.959
 30
0.000000
  70
    32
  0
VERTEX
  8
01
  5
BC0A
 10
911.657
 20
-667.712
 30
0.000000
  70
    32
  0
VERTEX
  8
01
  5
BC0B
 10
911.675
 20
-667.463
 30
0.000000
  70
    32
  0
VERTEX
  8
01
  5
BC0C
 10
911.692
 20
-667.211
 30
0.000000
  70
    32
  0
VERTEX
  8
01
  5
BC0D
 10
911.708
 20
-666.957
 30
0.000000
  70
    32
  0
VERTEX
  8
01
  5
BC0E
 10
911.723
 20
-666.700
 30
0.000000
  70
    32
  0
VERTEX
  8
01
  5
BC0F
 10
911.737
 20
-666.442
 30
0.000000
  70
    32
  0
VERTEX
  8
01
  5
BC10
 10
911.750
 20
-666.181
 30
0.000000
  70
    32
  0
VERTEX
  8
01
  5
BC11
 10
911.761
 20
-665.919
 30
0.000000
  70
    32
  0
VERTEX
  8
01
  5
BC12
 10
911.772
 20
-665.655
 30
0.000000
  70
    32
  0
VERTEX
  8
01
  5
BC13
 10
911.781
 20
-665.390
 30
0.000000
  70
    32
  0
VERTEX
  8
01
  5
BC14
 10
911.790
 20
-665.123
 30
0.000000
  70
    32
  0
VERTEX
  8
01
  5
BC15
 10
911.797
 20
-664.855
 30
0.000000
  70
    32
  0
VERTEX
  8
01
  5
BC16
 10
911.803
 20
-664.587
 30
0.000000
  70
    32
  0
VERTEX
  8
01
  5
BC17
 10
911.808
 20
-664.317
 30
0.000000
  70
    32
  0
VERTEX
  8
01
  5
BC18
 10
911.812
 20
-664.047
 30
0.000000
  70
    32
  0
VERTEX
  8
01
  5
BC19
 10
911.815
 20
-663.776
 30
0.000000
  70
    32
  0
VERTEX
  8
01
  5
BC1A
 10
911.817
 20
-663.505
 30
0.000000
  70
    32
  0
VERTEX
  8
01
  5
BC1B
 10
911.817
 20
-663.234
 30
0.000000
  70
    32
  0
SEQEND
  8
01
  5
BC1C
  0
POLYLINE
  5
B559
  8
01
 10
917.12663038513517
 20
-647.96539914284449
 30
0.0
 66
     1
 70
     8
  0
VERTEX
  8
01
  5
BC1D
 10
917.127
 20
-647.965
 30
0.000000
  70
    32
  0
VERTEX
  8
01
  5
BC1E
 10
917.016
 20
-647.967
 30
0.000000
  70
    32
  0
VERTEX
  8
01
  5
BC1F
 10
916.904
 20
-647.970
 30
0.000000
  70
    32
  0
VERTEX
  8
01
  5
BC20
 10
916.793
 20
-647.976
 30
0.000000
  70
    32
  0
VERTEX
  8
01
  5
BC21
 10
916.682
 20
-647.984
 30
0.000000
  70
    32
  0
VERTEX
  8
01
  5
BC22
 10
916.571
 20
-647.994
 30
0.000000
  70
    32
  0
VERTEX
  8
01
  5
BC23
 10
916.460
 20
-648.007
 30
0.000000
  70
    32
  0
VERTEX
  8
01
  5
BC24
 10
916.350
 20
-648.022
 30
0.000000
  70
    32
  0
VERTEX
  8
01
  5
BC25
 10
916.239
 20
-648.039
 30
0.000000
  70
    32
  0
VERTEX
  8
01
  5
BC26
 10
916.129
 20
-648.058
 30
0.000000
  70
    32
  0
VERTEX
  8
01
  5
BC27
 10
916.018
 20
-648.080
 30
0.000000
  70
    32
  0
VERTEX
  8
01
  5
BC28
 10
915.908
 20
-648.104
 30
0.000000
  70
    32
  0
VERTEX
  8
01
  5
BC29
 10
915.798
 20
-648.131
 30
0.000000
  70
    32
  0
VERTEX
  8
01
  5
BC2A
 10
915.688
 20
-648.159
 30
0.000000
  70
    32
  0
VERTEX
  8
01
  5
BC2B
 10
915.578
 20
-648.190
 30
0.000000
  70
    32
  0
VERTEX
  8
01
  5
BC2C
 10
915.469
 20
-648.223
 30
0.000000
  70
    32
  0
VERTEX
  8
01
  5
BC2D
 10
915.360
 20
-648.259
 30
0.000000
  70
    32
  0
VERTEX
  8
01
  5
BC2E
 10
915.251
 20
-648.296
 30
0.000000
  70
    32
  0
VERTEX
  8
01
  5
BC2F
 10
915.143
 20
-648.336
 30
0.000000
  70
    32
  0
VERTEX
  8
01
  5
BC30
 10
915.034
 20
-648.379
 30
0.000000
  70
    32
  0
VERTEX
  8
01
  5
BC31
 10
914.926
 20
-648.423
 30
0.000000
  70
    32
  0
VERTEX
  8
01
  5
BC32
 10
914.819
 20
-648.470
 30
0.000000
  70
    32
  0
VERTEX
  8
01
  5
BC33
 10
914.711
 20
-648.518
 30
0.000000
  70
    32
  0
VERTEX
  8
01
  5
BC34
 10
914.605
 20
-648.570
 30
0.000000
  70
    32
  0
VERTEX
  8
01
  5
BC35
 10
914.498
 20
-648.623
 30
0.000000
  70
    32
  0
VERTEX
  8
01
  5
BC36
 10
914.392
 20
-648.678
 30
0.000000
  70
    32
  0
VERTEX
  8
01
  5
BC37
 10
914.286
 20
-648.736
 30
0.000000
  70
    32
  0
VERTEX
  8
01
  5
BC38
 10
914.181
 20
-648.796
 30
0.000000
  70
    32
  0
VERTEX
  8
01
  5
BC39
 10
914.076
 20
-648.858
 30
0.000000
  70
    32
  0
VERTEX
  8
01
  5
BC3A
 10
913.972
 20
-648.922
 30
0.000000
  70
    32
  0
VERTEX
  8
01
  5
BC3B
 10
913.868
 20
-648.989
 30
0.000000
  70
    32
  0
VERTEX
  8
01
  5
BC3C
 10
913.764
 20
-649.057
 30
0.000000
  70
    32
  0
VERTEX
  8
01
  5
BC3D
 10
913.661
 20
-649.128
 30
0.000000
  70
    32
  0
VERTEX
  8
01
  5
BC3E
 10
913.559
 20
-649.200
 30
0.000000
  70
    32
  0
VERTEX
  8
01
  5
BC3F
 10
913.457
 20
-649.275
 30
0.000000
  70
    32
  0
VERTEX
  8
01
  5
BC40
 10
913.356
 20
-649.352
 30
0.000000
  70
    32
  0
VERTEX
  8
01
  5
BC41
 10
913.255
 20
-649.431
 30
0.000000
  70
    32
  0
VERTEX
  8
01
  5
BC42
 10
913.155
 20
-649.513
 30
0.000000
  70
    32
  0
VERTEX
  8
01
  5
BC43
 10
913.055
 20
-649.596
 30
0.000000
  70
    32
  0
VERTEX
  8
01
  5
BC44
 10
912.956
 20
-649.681
 30
0.000000
  70
    32
  0
VERTEX
  8
01
  5
BC45
 10
912.858
 20
-649.768
 30
0.000000
  70
    32
  0
VERTEX
  8
01
  5
BC46
 10
912.760
 20
-649.858
 30
0.000000
  70
    32
  0
VERTEX
  8
01
  5
BC47
 10
912.663
 20
-649.949
 30
0.000000
  70
    32
  0
VERTEX
  8
01
  5
BC48
 10
912.567
 20
-650.042
 30
0.000000
  70
    32
  0
VERTEX
  8
01
  5
BC49
 10
912.471
 20
-650.138
 30
0.000000
  70
    32
  0
VERTEX
  8
01
  5
BC4A
 10
912.376
 20
-650.235
 30
0.000000
  70
    32
  0
VERTEX
  8
01
  5
BC4B
 10
912.282
 20
-650.334
 30
0.000000
  70
    32
  0
VERTEX
  8
01
  5
BC4C
 10
912.188
 20
-650.435
 30
0.000000
  70
    32
  0
VERTEX
  8
01
  5
BC4D
 10
912.096
 20
-650.539
 30
0.000000
  70
    32
  0
VERTEX
  8
01
  5
BC4E
 10
912.004
 20
-650.644
 30
0.000000
  70
    32
  0
VERTEX
  8
01
  5
BC4F
 10
911.912
 20
-650.751
 30
0.000000
  70
    32
  0
VERTEX
  8
01
  5
BC50
 10
911.822
 20
-650.859
 30
0.000000
  70
    32
  0
VERTEX
  8
01
  5
BC51
 10
911.732
 20
-650.970
 30
0.000000
  70
    32
  0
VERTEX
  8
01
  5
BC52
 10
911.643
 20
-651.083
 30
0.000000
  70
    32
  0
VERTEX
  8
01
  5
BC53
 10
911.555
 20
-651.197
 30
0.000000
  70
    32
  0
VERTEX
  8
01
  5
BC54
 10
911.468
 20
-651.313
 30
0.000000
  70
    32
  0
VERTEX
  8
01
  5
BC55
 10
911.382
 20
-651.431
 30
0.000000
  70
    32
  0
VERTEX
  8
01
  5
BC56
 10
911.296
 20
-651.551
 30
0.000000
  70
    32
  0
VERTEX
  8
01
  5
BC57
 10
911.212
 20
-651.673
 30
0.000000
  70
    32
  0
VERTEX
  8
01
  5
BC58
 10
911.128
 20
-651.796
 30
0.000000
  70
    32
  0
VERTEX
  8
01
  5
BC59
 10
911.045
 20
-651.921
 30
0.000000
  70
    32
  0
VERTEX
  8
01
  5
BC5A
 10
910.964
 20
-652.047
 30
0.000000
  70
    32
  0
VERTEX
  8
01
  5
BC5B
 10
910.883
 20
-652.176
 30
0.000000
  70
    32
  0
VERTEX
  8
01
  5
BC5C
 10
910.803
 20
-652.306
 30
0.000000
  70
    32
  0
VERTEX
  8
01
  5
BC5D
 10
910.723
 20
-652.437
 30
0.000000
  70
    32
  0
VERTEX
  8
01
  5
BC5E
 10
910.645
 20
-652.571
 30
0.000000
  70
    32
  0
VERTEX
  8
01
  5
BC5F
 10
910.568
 20
-652.706
 30
0.000000
  70
    32
  0
VERTEX
  8
01
  5
BC60
 10
910.492
 20
-652.842
 30
0.000000
  70
    32
  0
VERTEX
  8
01
  5
BC61
 10
910.417
 20
-652.980
 30
0.000000
  70
    32
  0
VERTEX
  8
01
  5
BC62
 10
910.343
 20
-653.120
 30
0.000000
  70
    32
  0
VERTEX
  8
01
  5
BC63
 10
910.270
 20
-653.261
 30
0.000000
  70
    32
  0
VERTEX
  8
01
  5
BC64
 10
910.198
 20
-653.404
 30
0.000000
  70
    32
  0
VERTEX
  8
01
  5
BC65
 10
910.127
 20
-653.548
 30
0.000000
  70
    32
  0
VERTEX
  8
01
  5
BC66
 10
910.057
 20
-653.693
 30
0.000000
  70
    32
  0
VERTEX
  8
01
  5
BC67
 10
909.988
 20
-653.840
 30
0.000000
  70
    32
  0
VERTEX
  8
01
  5
BC68
 10
909.920
 20
-653.989
 30
0.000000
  70
    32
  0
VERTEX
  8
01
  5
BC69
 10
909.853
 20
-654.139
 30
0.000000
  70
    32
  0
VERTEX
  8
01
  5
BC6A
 10
909.788
 20
-654.290
 30
0.000000
  70
    32
  0
VERTEX
  8
01
  5
BC6B
 10
909.723
 20
-654.442
 30
0.000000
  70
    32
  0
VERTEX
  8
01
  5
BC6C
 10
909.660
 20
-654.596
 30
0.000000
  70
    32
  0
VERTEX
  8
01
  5
BC6D
 10
909.597
 20
-654.751
 30
0.000000
  70
    32
  0
VERTEX
  8
01
  5
BC6E
 10
909.536
 20
-654.908
 30
0.000000
  70
    32
  0
VERTEX
  8
01
  5
BC6F
 10
909.476
 20
-655.065
 30
0.000000
  70
    32
  0
VERTEX
  8
01
  5
BC70
 10
909.417
 20
-655.224
 30
0.000000
  70
    32
  0
VERTEX
  8
01
  5
BC71
 10
909.360
 20
-655.384
 30
0.000000
  70
    32
  0
VERTEX
  8
01
  5
BC72
 10
909.303
 20
-655.546
 30
0.000000
  70
    32
  0
VERTEX
  8
01
  5
BC73
 10
909.248
 20
-655.708
 30
0.000000
  70
    32
  0
VERTEX
  8
01
  5
BC74
 10
909.193
 20
-655.872
 30
0.000000
  70
    32
  0
VERTEX
  8
01
  5
BC75
 10
909.140
 20
-656.036
 30
0.000000
  70
    32
  0
VERTEX
  8
01
  5
BC76
 10
909.089
 20
-656.202
 30
0.000000
  70
    32
  0
VERTEX
  8
01
  5
BC77
 10
909.038
 20
-656.369
 30
0.000000
  70
    32
  0
VERTEX
  8
01
  5
BC78
 10
908.989
 20
-656.537
 30
0.000000
  70
    32
  0
VERTEX
  8
01
  5
BC79
 10
908.941
 20
-656.706
 30
0.000000
  70
    32
  0
VERTEX
  8
01
  5
BC7A
 10
908.894
 20
-656.876
 30
0.000000
  70
    32
  0
VERTEX
  8
01
  5
BC7B
 10
908.848
 20
-657.047
 30
0.000000
  70
    32
  0
VERTEX
  8
01
  5
BC7C
 10
908.804
 20
-657.218
 30
0.000000
  70
    32
  0
VERTEX
  8
01
  5
BC7D
 10
908.761
 20
-657.391
 30
0.000000
  70
    32
  0
VERTEX
  8
01
  5
BC7E
 10
908.719
 20
-657.565
 30
0.000000
  70
    32
  0
VERTEX
  8
01
  5
BC7F
 10
908.678
 20
-657.739
 30
0.000000
  70
    32
  0
VERTEX
  8
01
  5
BC80
 10
908.639
 20
-657.914
 30
0.000000
  70
    32
  0
VERTEX
  8
01
  5
BC81
 10
908.601
 20
-658.090
 30
0.000000
  70
    32
  0
VERTEX
  8
01
  5
BC82
 10
908.564
 20
-658.267
 30
0.000000
  70
    32
  0
VERTEX
  8
01
  5
BC83
 10
908.528
 20
-658.445
 30
0.000000
  70
    32
  0
VERTEX
  8
01
  5
BC84
 10
908.494
 20
-658.623
 30
0.000000
  70
    32
  0
VERTEX
  8
01
  5
BC85
 10
908.461
 20
-658.802
 30
0.000000
  70
    32
  0
VERTEX
  8
01
  5
BC86
 10
908.430
 20
-658.981
 30
0.000000
  70
    32
  0
VERTEX
  8
01
  5
BC87
 10
908.399
 20
-659.162
 30
0.000000
  70
    32
  0
VERTEX
  8
01
  5
BC88
 10
908.370
 20
-659.343
 30
0.000000
  70
    32
  0
VERTEX
  8
01
  5
BC89
 10
908.343
 20
-659.524
 30
0.000000
  70
    32
  0
VERTEX
  8
01
  5
BC8A
 10
908.316
 20
-659.706
 30
0.000000
  70
    32
  0
VERTEX
  8
01
  5
BC8B
 10
908.291
 20
-659.889
 30
0.000000
  70
    32
  0
VERTEX
  8
01
  5
BC8C
 10
908.268
 20
-660.072
 30
0.000000
  70
    32
  0
VERTEX
  8
01
  5
BC8D
 10
908.245
 20
-660.255
 30
0.000000
  70
    32
  0
VERTEX
  8
01
  5
BC8E
 10
908.224
 20
-660.439
 30
0.000000
  70
    32
  0
VERTEX
  8
01
  5
BC8F
 10
908.205
 20
-660.624
 30
0.000000
  70
    32
  0
VERTEX
  8
01
  5
BC90
 10
908.186
 20
-660.809
 30
0.000000
  70
    32
  0
VERTEX
  8
01
  5
BC91
 10
908.169
 20
-660.994
 30
0.000000
  70
    32
  0
VERTEX
  8
01
  5
BC92
 10
908.154
 20
-661.179
 30
0.000000
  70
    32
  0
VERTEX
  8
01
  5
BC93
 10
908.139
 20
-661.365
 30
0.000000
  70
    32
  0
VERTEX
  8
01
  5
BC94
 10
908.126
 20
-661.551
 30
0.000000
  70
    32
  0
VERTEX
  8
01
  5
BC95
 10
908.115
 20
-661.737
 30
0.000000
  70
    32
  0
VERTEX
  8
01
  5
BC96
 10
908.105
 20
-661.924
 30
0.000000
  70
    32
  0
VERTEX
  8
01
  5
BC97
 10
908.096
 20
-662.111
 30
0.000000
  70
    32
  0
VERTEX
  8
01
  5
BC98
 10
908.088
 20
-662.298
 30
0.000000
  70
    32
  0
VERTEX
  8
01
  5
BC99
 10
908.082
 20
-662.485
 30
0.000000
  70
    32
  0
VERTEX
  8
01
  5
BC9A
 10
908.077
 20
-662.672
 30
0.000000
  70
    32
  0
VERTEX
  8
01
  5
BC9B
 10
908.074
 20
-662.859
 30
0.000000
  70
    32
  0
VERTEX
  8
01
  5
BC9C
 10
908.072
 20
-663.047
 30
0.000000
  70
    32
  0
VERTEX
  8
01
  5
BC9D
 10
908.071
 20
-663.234
 30
0.000000
  70
    32
  0
SEQEND
  8
01
  5
BC9E
  0
ARC
  5
B55A
  8
01
 10
916.59324530298636
 20
-659.87937939014955
 30
0.0
 40
13.20186386360011
 50
245.45475410764229
 51
329.36851625322367
  0
POLYLINE
  5
B55B
  8
01
 10
917.12663038513517
 20
-649.86210867075317
 30
0.0
 66
     1
 70
     8
  0
VERTEX
  8
01
  5
BC9F
 10
917.127
 20
-649.862
 30
0.000000
  70
    32
  0
VERTEX
  8
01
  5
BCA0
 10
917.061
 20
-649.863
 30
0.000000
  70
    32
  0
VERTEX
  8
01
  5
BCA1
 10
916.996
 20
-649.866
 30
0.000000
  70
    32
  0
VERTEX
  8
01
  5
BCA2
 10
916.931
 20
-649.871
 30
0.000000
  70
    32
  0
VERTEX
  8
01
  5
BCA3
 10
916.866
 20
-649.878
 30
0.000000
  70
    32
  0
VERTEX
  8
01
  5
BCA4
 10
916.801
 20
-649.887
 30
0.000000
  70
    32
  0
VERTEX
  8
01
  5
BCA5
 10
916.736
 20
-649.898
 30
0.000000
  70
    32
  0
VERTEX
  8
01
  5
BCA6
 10
916.671
 20
-649.911
 30
0.000000
  70
    32
  0
VERTEX
  8
01
  5
BCA7
 10
916.606
 20
-649.926
 30
0.000000
  70
    32
  0
VERTEX
  8
01
  5
BCA8
 10
916.541
 20
-649.944
 30
0.000000
  70
    32
  0
VERTEX
  8
01
  5
BCA9
 10
916.477
 20
-649.963
 30
0.000000
  70
    32
  0
VERTEX
  8
01
  5
BCAA
 10
916.412
 20
-649.984
 30
0.000000
  70
    32
  0
VERTEX
  8
01
  5
BCAB
 10
916.348
 20
-650.007
 30
0.000000
  70
    32
  0
VERTEX
  8
01
  5
BCAC
 10
916.283
 20
-650.032
 30
0.000000
  70
    32
  0
VERTEX
  8
01
  5
BCAD
 10
916.219
 20
-650.059
 30
0.000000
  70
    32
  0
VERTEX
  8
01
  5
BCAE
 10
916.155
 20
-650.088
 30
0.000000
  70
    32
  0
VERTEX
  8
01
  5
BCAF
 10
916.091
 20
-650.119
 30
0.000000
  70
    32
  0
VERTEX
  8
01
  5
BCB0
 10
916.027
 20
-650.152
 30
0.000000
  70
    32
  0
VERTEX
  8
01
  5
BCB1
 10
915.963
 20
-650.187
 30
0.000000
  70
    32
  0
VERTEX
  8
01
  5
BCB2
 10
915.900
 20
-650.224
 30
0.000000
  70
    32
  0
VERTEX
  8
01
  5
BCB3
 10
915.837
 20
-650.263
 30
0.000000
  70
    32
  0
VERTEX
  8
01
  5
BCB4
 10
915.774
 20
-650.304
 30
0.000000
  70
    32
  0
VERTEX
  8
01
  5
BCB5
 10
915.711
 20
-650.346
 30
0.000000
  70
    32
  0
VERTEX
  8
01
  5
BCB6
 10
915.648
 20
-650.391
 30
0.000000
  70
    32
  0
VERTEX
  8
01
  5
BCB7
 10
915.585
 20
-650.438
 30
0.000000
  70
    32
  0
VERTEX
  8
01
  5
BCB8
 10
915.523
 20
-650.486
 30
0.000000
  70
    32
  0
VERTEX
  8
01
  5
BCB9
 10
915.461
 20
-650.537
 30
0.000000
  70
    32
  0
VERTEX
  8
01
  5
BCBA
 10
915.400
 20
-650.589
 30
0.000000
  70
    32
  0
VERTEX
  8
01
  5
BCBB
 10
915.338
 20
-650.644
 30
0.000000
  70
    32
  0
VERTEX
  8
01
  5
BCBC
 10
915.277
 20
-650.700
 30
0.000000
  70
    32
  0
VERTEX
  8
01
  5
BCBD
 10
915.216
 20
-650.758
 30
0.000000
  70
    32
  0
VERTEX
  8
01
  5
BCBE
 10
915.155
 20
-650.818
 30
0.000000
  70
    32
  0
VERTEX
  8
01
  5
BCBF
 10
915.095
 20
-650.880
 30
0.000000
  70
    32
  0
VERTEX
  8
01
  5
BCC0
 10
915.035
 20
-650.944
 30
0.000000
  70
    32
  0
VERTEX
  8
01
  5
BCC1
 10
914.975
 20
-651.009
 30
0.000000
  70
    32
  0
VERTEX
  8
01
  5
BCC2
 10
914.916
 20
-651.077
 30
0.000000
  70
    32
  0
VERTEX
  8
01
  5
BCC3
 10
914.857
 20
-651.146
 30
0.000000
  70
    32
  0
VERTEX
  8
01
  5
BCC4
 10
914.798
 20
-651.217
 30
0.000000
  70
    32
  0
VERTEX
  8
01
  5
BCC5
 10
914.740
 20
-651.290
 30
0.000000
  70
    32
  0
VERTEX
  8
01
  5
BCC6
 10
914.682
 20
-651.365
 30
0.000000
  70
    32
  0
VERTEX
  8
01
  5
BCC7
 10
914.624
 20
-651.441
 30
0.000000
  70
    32
  0
VERTEX
  8
01
  5
BCC8
 10
914.567
 20
-651.519
 30
0.000000
  70
    32
  0
VERTEX
  8
01
  5
BCC9
 10
914.510
 20
-651.599
 30
0.000000
  70
    32
  0
VERTEX
  8
01
  5
BCCA
 10
914.453
 20
-651.681
 30
0.000000
  70
    32
  0
VERTEX
  8
01
  5
BCCB
 10
914.397
 20
-651.765
 30
0.000000
  70
    32
  0
VERTEX
  8
01
  5
BCCC
 10
914.341
 20
-651.850
 30
0.000000
  70
    32
  0
VERTEX
  8
01
  5
BCCD
 10
914.286
 20
-651.937
 30
0.000000
  70
    32
  0
VERTEX
  8
01
  5
BCCE
 10
914.231
 20
-652.025
 30
0.000000
  70
    32
  0
VERTEX
  8
01
  5
BCCF
 10
914.177
 20
-652.116
 30
0.000000
  70
    32
  0
VERTEX
  8
01
  5
BCD0
 10
914.123
 20
-652.208
 30
0.000000
  70
    32
  0
VERTEX
  8
01
  5
BCD1
 10
914.070
 20
-652.301
 30
0.000000
  70
    32
  0
VERTEX
  8
01
  5
BCD2
 10
914.017
 20
-652.397
 30
0.000000
  70
    32
  0
VERTEX
  8
01
  5
BCD3
 10
913.964
 20
-652.494
 30
0.000000
  70
    32
  0
VERTEX
  8
01
  5
BCD4
 10
913.912
 20
-652.592
 30
0.000000
  70
    32
  0
VERTEX
  8
01
  5
BCD5
 10
913.860
 20
-652.692
 30
0.000000
  70
    32
  0
VERTEX
  8
01
  5
BCD6
 10
913.809
 20
-652.794
 30
0.000000
  70
    32
  0
VERTEX
  8
01
  5
BCD7
 10
913.759
 20
-652.897
 30
0.000000
  70
    32
  0
VERTEX
  8
01
  5
BCD8
 10
913.708
 20
-653.002
 30
0.000000
  70
    32
  0
VERTEX
  8
01
  5
BCD9
 10
913.659
 20
-653.109
 30
0.000000
  70
    32
  0
VERTEX
  8
01
  5
BCDA
 10
913.610
 20
-653.217
 30
0.000000
  70
    32
  0
VERTEX
  8
01
  5
BCDB
 10
913.561
 20
-653.326
 30
0.000000
  70
    32
  0
VERTEX
  8
01
  5
BCDC
 10
913.513
 20
-653.437
 30
0.000000
  70
    32
  0
VERTEX
  8
01
  5
BCDD
 10
913.466
 20
-653.549
 30
0.000000
  70
    32
  0
VERTEX
  8
01
  5
BCDE
 10
913.419
 20
-653.663
 30
0.000000
  70
    32
  0
VERTEX
  8
01
  5
BCDF
 10
913.372
 20
-653.779
 30
0.000000
  70
    32
  0
VERTEX
  8
01
  5
BCE0
 10
913.327
 20
-653.895
 30
0.000000
  70
    32
  0
VERTEX
  8
01
  5
BCE1
 10
913.281
 20
-654.014
 30
0.000000
  70
    32
  0
VERTEX
  8
01
  5
BCE2
 10
913.237
 20
-654.133
 30
0.000000
  70
    32
  0
VERTEX
  8
01
  5
BCE3
 10
913.193
 20
-654.254
 30
0.000000
  70
    32
  0
VERTEX
  8
01
  5
BCE4
 10
913.149
 20
-654.376
 30
0.000000
  70
    32
  0
VERTEX
  8
01
  5
BCE5
 10
913.106
 20
-654.500
 30
0.000000
  70
    32
  0
VERTEX
  8
01
  5
BCE6
 10
913.064
 20
-654.625
 30
0.000000
  70
    32
  0
VERTEX
  8
01
  5
BCE7
 10
913.023
 20
-654.751
 30
0.000000
  70
    32
  0
VERTEX
  8
01
  5
BCE8
 10
912.982
 20
-654.878
 30
0.000000
  70
    32
  0
VERTEX
  8
01
  5
BCE9
 10
912.941
 20
-655.007
 30
0.000000
  70
    32
  0
VERTEX
  8
01
  5
BCEA
 10
912.901
 20
-655.137
 30
0.000000
  70
    32
  0
VERTEX
  8
01
  5
BCEB
 10
912.862
 20
-655.268
 30
0.000000
  70
    32
  0
VERTEX
  8
01
  5
BCEC
 10
912.824
 20
-655.401
 30
0.000000
  70
    32
  0
VERTEX
  8
01
  5
BCED
 10
912.786
 20
-655.534
 30
0.000000
  70
    32
  0
VERTEX
  8
01
  5
BCEE
 10
912.749
 20
-655.669
 30
0.000000
  70
    32
  0
VERTEX
  8
01
  5
BCEF
 10
912.712
 20
-655.805
 30
0.000000
  70
    32
  0
VERTEX
  8
01
  5
BCF0
 10
912.676
 20
-655.942
 30
0.000000
  70
    32
  0
VERTEX
  8
01
  5
BCF1
 10
912.641
 20
-656.080
 30
0.000000
  70
    32
  0
VERTEX
  8
01
  5
BCF2
 10
912.607
 20
-656.219
 30
0.000000
  70
    32
  0
VERTEX
  8
01
  5
BCF3
 10
912.573
 20
-656.360
 30
0.000000
  70
    32
  0
VERTEX
  8
01
  5
BCF4
 10
912.540
 20
-656.501
 30
0.000000
  70
    32
  0
VERTEX
  8
01
  5
BCF5
 10
912.507
 20
-656.643
 30
0.000000
  70
    32
  0
VERTEX
  8
01
  5
BCF6
 10
912.475
 20
-656.786
 30
0.000000
  70
    32
  0
VERTEX
  8
01
  5
BCF7
 10
912.444
 20
-656.931
 30
0.000000
  70
    32
  0
VERTEX
  8
01
  5
BCF8
 10
912.414
 20
-657.076
 30
0.000000
  70
    32
  0
VERTEX
  8
01
  5
BCF9
 10
912.384
 20
-657.222
 30
0.000000
  70
    32
  0
VERTEX
  8
01
  5
BCFA
 10
912.355
 20
-657.369
 30
0.000000
  70
    32
  0
VERTEX
  8
01
  5
BCFB
 10
912.327
 20
-657.517
 30
0.000000
  70
    32
  0
VERTEX
  8
01
  5
BCFC
 10
912.300
 20
-657.666
 30
0.000000
  70
    32
  0
VERTEX
  8
01
  5
BCFD
 10
912.273
 20
-657.815
 30
0.000000
  70
    32
  0
VERTEX
  8
01
  5
BCFE
 10
912.247
 20
-657.966
 30
0.000000
  70
    32
  0
VERTEX
  8
01
  5
BCFF
 10
912.222
 20
-658.117
 30
0.000000
  70
    32
  0
VERTEX
  8
01
  5
BD00
 10
912.197
 20
-658.269
 30
0.000000
  70
    32
  0
VERTEX
  8
01
  5
BD01
 10
912.173
 20
-658.422
 30
0.000000
  70
    32
  0
VERTEX
  8
01
  5
BD02
 10
912.150
 20
-658.575
 30
0.000000
  70
    32
  0
VERTEX
  8
01
  5
BD03
 10
912.128
 20
-658.729
 30
0.000000
  70
    32
  0
VERTEX
  8
01
  5
BD04
 10
912.106
 20
-658.884
 30
0.000000
  70
    32
  0
VERTEX
  8
01
  5
BD05
 10
912.085
 20
-659.040
 30
0.000000
  70
    32
  0
VERTEX
  8
01
  5
BD06
 10
912.065
 20
-659.196
 30
0.000000
  70
    32
  0
VERTEX
  8
01
  5
BD07
 10
912.046
 20
-659.352
 30
0.000000
  70
    32
  0
VERTEX
  8
01
  5
BD08
 10
912.028
 20
-659.510
 30
0.000000
  70
    32
  0
VERTEX
  8
01
  5
BD09
 10
912.010
 20
-659.668
 30
0.000000
  70
    32
  0
VERTEX
  8
01
  5
BD0A
 10
911.993
 20
-659.826
 30
0.000000
  70
    32
  0
VERTEX
  8
01
  5
BD0B
 10
911.977
 20
-659.985
 30
0.000000
  70
    32
  0
VERTEX
  8
01
  5
BD0C
 10
911.961
 20
-660.144
 30
0.000000
  70
    32
  0
VERTEX
  8
01
  5
BD0D
 10
911.946
 20
-660.304
 30
0.000000
  70
    32
  0
VERTEX
  8
01
  5
BD0E
 10
911.933
 20
-660.465
 30
0.000000
  70
    32
  0
VERTEX
  8
01
  5
BD0F
 10
911.919
 20
-660.625
 30
0.000000
  70
    32
  0
VERTEX
  8
01
  5
BD10
 10
911.907
 20
-660.786
 30
0.000000
  70
    32
  0
VERTEX
  8
01
  5
BD11
 10
911.896
 20
-660.948
 30
0.000000
  70
    32
  0
VERTEX
  8
01
  5
BD12
 10
911.885
 20
-661.110
 30
0.000000
  70
    32
  0
VERTEX
  8
01
  5
BD13
 10
911.875
 20
-661.272
 30
0.000000
  70
    32
  0
VERTEX
  8
01
  5
BD14
 10
911.866
 20
-661.434
 30
0.000000
  70
    32
  0
VERTEX
  8
01
  5
BD15
 10
911.857
 20
-661.597
 30
0.000000
  70
    32
  0
VERTEX
  8
01
  5
BD16
 10
911.850
 20
-661.760
 30
0.000000
  70
    32
  0
VERTEX
  8
01
  5
BD17
 10
911.843
 20
-661.923
 30
0.000000
  70
    32
  0
VERTEX
  8
01
  5
BD18
 10
911.837
 20
-662.087
 30
0.000000
  70
    32
  0
VERTEX
  8
01
  5
BD19
 10
911.832
 20
-662.250
 30
0.000000
  70
    32
  0
VERTEX
  8
01
  5
BD1A
 10
911.827
 20
-662.414
 30
0.000000
  70
    32
  0
VERTEX
  8
01
  5
BD1B
 10
911.824
 20
-662.578
 30
0.000000
  70
    32
  0
VERTEX
  8
01
  5
BD1C
 10
911.821
 20
-662.742
 30
0.000000
  70
    32
  0
VERTEX
  8
01
  5
BD1D
 10
911.819
 20
-662.906
 30
0.000000
  70
    32
  0
VERTEX
  8
01
  5
BD1E
 10
911.818
 20
-663.070
 30
0.000000
  70
    32
  0
VERTEX
  8
01
  5
BD1F
 10
911.817
 20
-663.234
 30
0.000000
  70
    32
  0
SEQEND
  8
01
  5
BD20
  0
ARC
  5
B55C
  8
01
 10
913.34191227591407
 20
-676.12886592751693
 30
0.0
 40
28.416631617726772
 50
77.912010037182682
 51
122.5808157056584
  0
LINE
  5
B5EE
  8
01
 10
814.18766916632467
 20
-638.23408159774419
 30
0.0
 11
814.18766916632467
 21
-688.23408159774419
 31
0.0
  0
LINE
  5
B5EF
  8
01
 10
805.68766916632455
 20
-687.23408159774419
 30
0.0
 11
805.68766916632455
 21
-639.23408159774408
 31
0.0
  0
LINE
  5
B5F0
  8
01
 10
814.18766916632467
 20
-688.23408159774419
 30
0.0
 11
806.68766916632455
 21
-688.23408159774419
 31
0.0
  0
ARC
  5
B5F1
  8
01
 10
806.68766916632455
 20
-687.23408159774419
 30
0.0
 40
1.0
 50
180.0
 51
270.0
  0
LINE
  5
B5F2
  8
01
 10
814.18766916632467
 20
-638.23408159774419
 30
0.0
 11
806.68766916632455
 21
-638.23408159774419
 31
0.0
  0
ARC
  5
B5F3
  8
01
 10
806.68766916632455
 20
-639.23408159774408
 30
0.0
 40
1.0
 50
90.0
 51
180.0
  0
LINE
  5
B5F4
  8
01
 10
805.18766916632467
 20
-652.18408159774492
 30
0.0
 11
770.33546042796468
 21
-652.18408159774492
 31
0.0
  0
LINE
  5
B5F5
  8
01
 10
805.18766916632467
 20
-674.28408159774347
 30
0.0
 11
758.43099855918808
 21
-674.28408159774347
 31
0.0
  0
LINE
  5
B5F6
  8
01
 10
805.18766916632467
 20
-652.18408159774492
 30
0.0
 11
805.18766916632467
 21
-674.28408159774347
 31
0.0
  0
LINE
  5
B5F7
  8
01
 10
805.18766916632467
 20
-655.28408159774335
 30
0.0
 11
805.68766916632455
 21
-655.28408159774335
 31
0.0
  0
LINE
  5
B5F8
  8
01
 10
805.18766916632467
 20
-671.1840815977439
 30
0.0
 11
805.68766916632455
 21
-671.1840815977439
 31
0.0
  0
POLYLINE
  5
B5F9
  8
01
 10
740.42238845189513
 20
-666.60591797837378
 30
0.0
 66
     1
 70
     8
  0
VERTEX
  8
01
  5
BD21
 10
740.422
 20
-666.606
 30
0.000000
  70
    32
  0
VERTEX
  8
01
  5
BD22
 10
740.423
 20
-666.377
 30
0.000000
  70
    32
  0
VERTEX
  8
01
  5
BD23
 10
740.426
 20
-666.148
 30
0.000000
  70
    32
  0
VERTEX
  8
01
  5
BD24
 10
740.430
 20
-665.920
 30
0.000000
  70
    32
  0
VERTEX
  8
01
  5
BD25
 10
740.435
 20
-665.691
 30
0.000000
  70
    32
  0
VERTEX
  8
01
  5
BD26
 10
740.443
 20
-665.463
 30
0.000000
  70
    32
  0
VERTEX
  8
01
  5
BD27
 10
740.452
 20
-665.235
 30
0.000000
  70
    32
  0
VERTEX
  8
01
  5
BD28
 10
740.462
 20
-665.007
 30
0.000000
  70
    32
  0
VERTEX
  8
01
  5
BD29
 10
740.475
 20
-664.779
 30
0.000000
  70
    32
  0
VERTEX
  8
01
  5
BD2A
 10
740.488
 20
-664.551
 30
0.000000
  70
    32
  0
VERTEX
  8
01
  5
BD2B
 10
740.504
 20
-664.324
 30
0.000000
  70
    32
  0
VERTEX
  8
01
  5
BD2C
 10
740.521
 20
-664.097
 30
0.000000
  70
    32
  0
VERTEX
  8
01
  5
BD2D
 10
740.540
 20
-663.871
 30
0.000000
  70
    32
  0
VERTEX
  8
01
  5
BD2E
 10
740.560
 20
-663.645
 30
0.000000
  70
    32
  0
VERTEX
  8
01
  5
BD2F
 10
740.582
 20
-663.419
 30
0.000000
  70
    32
  0
VERTEX
  8
01
  5
BD30
 10
740.605
 20
-663.194
 30
0.000000
  70
    32
  0
VERTEX
  8
01
  5
BD31
 10
740.630
 20
-662.969
 30
0.000000
  70
    32
  0
VERTEX
  8
01
  5
BD32
 10
740.657
 20
-662.745
 30
0.000000
  70
    32
  0
VERTEX
  8
01
  5
BD33
 10
740.685
 20
-662.522
 30
0.000000
  70
    32
  0
VERTEX
  8
01
  5
BD34
 10
740.715
 20
-662.299
 30
0.000000
  70
    32
  0
VERTEX
  8
01
  5
BD35
 10
740.747
 20
-662.077
 30
0.000000
  70
    32
  0
VERTEX
  8
01
  5
BD36
 10
740.780
 20
-661.855
 30
0.000000
  70
    32
  0
VERTEX
  8
01
  5
BD37
 10
740.815
 20
-661.634
 30
0.000000
  70
    32
  0
VERTEX
  8
01
  5
BD38
 10
740.851
 20
-661.414
 30
0.000000
  70
    32
  0
VERTEX
  8
01
  5
BD39
 10
740.889
 20
-661.195
 30
0.000000
  70
    32
  0
VERTEX
  8
01
  5
BD3A
 10
740.928
 20
-660.976
 30
0.000000
  70
    32
  0
VERTEX
  8
01
  5
BD3B
 10
740.969
 20
-660.759
 30
0.000000
  70
    32
  0
VERTEX
  8
01
  5
BD3C
 10
741.011
 20
-660.542
 30
0.000000
  70
    32
  0
VERTEX
  8
01
  5
BD3D
 10
741.055
 20
-660.326
 30
0.000000
  70
    32
  0
VERTEX
  8
01
  5
BD3E
 10
741.101
 20
-660.111
 30
0.000000
  70
    32
  0
VERTEX
  8
01
  5
BD3F
 10
741.148
 20
-659.897
 30
0.000000
  70
    32
  0
VERTEX
  8
01
  5
BD40
 10
741.196
 20
-659.684
 30
0.000000
  70
    32
  0
VERTEX
  8
01
  5
BD41
 10
741.246
 20
-659.473
 30
0.000000
  70
    32
  0
VERTEX
  8
01
  5
BD42
 10
741.298
 20
-659.262
 30
0.000000
  70
    32
  0
VERTEX
  8
01
  5
BD43
 10
741.351
 20
-659.052
 30
0.000000
  70
    32
  0
VERTEX
  8
01
  5
BD44
 10
741.406
 20
-658.843
 30
0.000000
  70
    32
  0
VERTEX
  8
01
  5
BD45
 10
741.462
 20
-658.636
 30
0.000000
  70
    32
  0
VERTEX
  8
01
  5
BD46
 10
741.519
 20
-658.430
 30
0.000000
  70
    32
  0
VERTEX
  8
01
  5
BD47
 10
741.578
 20
-658.225
 30
0.000000
  70
    32
  0
VERTEX
  8
01
  5
BD48
 10
741.639
 20
-658.021
 30
0.000000
  70
    32
  0
VERTEX
  8
01
  5
BD49
 10
741.701
 20
-657.819
 30
0.000000
  70
    32
  0
VERTEX
  8
01
  5
BD4A
 10
741.764
 20
-657.618
 30
0.000000
  70
    32
  0
VERTEX
  8
01
  5
BD4B
 10
741.829
 20
-657.418
 30
0.000000
  70
    32
  0
VERTEX
  8
01
  5
BD4C
 10
741.895
 20
-657.220
 30
0.000000
  70
    32
  0
VERTEX
  8
01
  5
BD4D
 10
741.963
 20
-657.023
 30
0.000000
  70
    32
  0
VERTEX
  8
01
  5
BD4E
 10
742.032
 20
-656.827
 30
0.000000
  70
    32
  0
VERTEX
  8
01
  5
BD4F
 10
742.102
 20
-656.633
 30
0.000000
  70
    32
  0
VERTEX
  8
01
  5
BD50
 10
742.174
 20
-656.441
 30
0.000000
  70
    32
  0
VERTEX
  8
01
  5
BD51
 10
742.247
 20
-656.250
 30
0.000000
  70
    32
  0
VERTEX
  8
01
  5
BD52
 10
742.321
 20
-656.060
 30
0.000000
  70
    32
  0
VERTEX
  8
01
  5
BD53
 10
742.397
 20
-655.873
 30
0.000000
  70
    32
  0
VERTEX
  8
01
  5
BD54
 10
742.474
 20
-655.686
 30
0.000000
  70
    32
  0
VERTEX
  8
01
  5
BD55
 10
742.553
 20
-655.502
 30
0.000000
  70
    32
  0
VERTEX
  8
01
  5
BD56
 10
742.633
 20
-655.319
 30
0.000000
  70
    32
  0
VERTEX
  8
01
  5
BD57
 10
742.714
 20
-655.138
 30
0.000000
  70
    32
  0
VERTEX
  8
01
  5
BD58
 10
742.796
 20
-654.958
 30
0.000000
  70
    32
  0
VERTEX
  8
01
  5
BD59
 10
742.880
 20
-654.780
 30
0.000000
  70
    32
  0
VERTEX
  8
01
  5
BD5A
 10
742.965
 20
-654.605
 30
0.000000
  70
    32
  0
VERTEX
  8
01
  5
BD5B
 10
743.051
 20
-654.430
 30
0.000000
  70
    32
  0
VERTEX
  8
01
  5
BD5C
 10
743.138
 20
-654.258
 30
0.000000
  70
    32
  0
VERTEX
  8
01
  5
BD5D
 10
743.227
 20
-654.088
 30
0.000000
  70
    32
  0
VERTEX
  8
01
  5
BD5E
 10
743.317
 20
-653.919
 30
0.000000
  70
    32
  0
VERTEX
  8
01
  5
BD5F
 10
743.408
 20
-653.753
 30
0.000000
  70
    32
  0
VERTEX
  8
01
  5
BD60
 10
743.500
 20
-653.588
 30
0.000000
  70
    32
  0
VERTEX
  8
01
  5
BD61
 10
743.593
 20
-653.425
 30
0.000000
  70
    32
  0
VERTEX
  8
01
  5
BD62
 10
743.688
 20
-653.264
 30
0.000000
  70
    32
  0
VERTEX
  8
01
  5
BD63
 10
743.784
 20
-653.106
 30
0.000000
  70
    32
  0
VERTEX
  8
01
  5
BD64
 10
743.880
 20
-652.949
 30
0.000000
  70
    32
  0
VERTEX
  8
01
  5
BD65
 10
743.978
 20
-652.794
 30
0.000000
  70
    32
  0
VERTEX
  8
01
  5
BD66
 10
744.077
 20
-652.642
 30
0.000000
  70
    32
  0
VERTEX
  8
01
  5
BD67
 10
744.177
 20
-652.491
 30
0.000000
  70
    32
  0
VERTEX
  8
01
  5
BD68
 10
744.278
 20
-652.343
 30
0.000000
  70
    32
  0
VERTEX
  8
01
  5
BD69
 10
744.381
 20
-652.197
 30
0.000000
  70
    32
  0
VERTEX
  8
01
  5
BD6A
 10
744.484
 20
-652.053
 30
0.000000
  70
    32
  0
VERTEX
  8
01
  5
BD6B
 10
744.588
 20
-651.911
 30
0.000000
  70
    32
  0
VERTEX
  8
01
  5
BD6C
 10
744.693
 20
-651.771
 30
0.000000
  70
    32
  0
VERTEX
  8
01
  5
BD6D
 10
744.799
 20
-651.634
 30
0.000000
  70
    32
  0
VERTEX
  8
01
  5
BD6E
 10
744.907
 20
-651.499
 30
0.000000
  70
    32
  0
VERTEX
  8
01
  5
BD6F
 10
745.015
 20
-651.366
 30
0.000000
  70
    32
  0
VERTEX
  8
01
  5
BD70
 10
745.124
 20
-651.235
 30
0.000000
  70
    32
  0
VERTEX
  8
01
  5
BD71
 10
745.234
 20
-651.107
 30
0.000000
  70
    32
  0
VERTEX
  8
01
  5
BD72
 10
745.345
 20
-650.981
 30
0.000000
  70
    32
  0
VERTEX
  8
01
  5
BD73
 10
745.457
 20
-650.857
 30
0.000000
  70
    32
  0
VERTEX
  8
01
  5
BD74
 10
745.569
 20
-650.736
 30
0.000000
  70
    32
  0
VERTEX
  8
01
  5
BD75
 10
745.683
 20
-650.617
 30
0.000000
  70
    32
  0
VERTEX
  8
01
  5
BD76
 10
745.797
 20
-650.501
 30
0.000000
  70
    32
  0
VERTEX
  8
01
  5
BD77
 10
745.912
 20
-650.387
 30
0.000000
  70
    32
  0
VERTEX
  8
01
  5
BD78
 10
746.028
 20
-650.276
 30
0.000000
  70
    32
  0
VERTEX
  8
01
  5
BD79
 10
746.145
 20
-650.166
 30
0.000000
  70
    32
  0
VERTEX
  8
01
  5
BD7A
 10
746.263
 20
-650.060
 30
0.000000
  70
    32
  0
VERTEX
  8
01
  5
BD7B
 10
746.381
 20
-649.956
 30
0.000000
  70
    32
  0
VERTEX
  8
01
  5
BD7C
 10
746.500
 20
-649.854
 30
0.000000
  70
    32
  0
VERTEX
  8
01
  5
BD7D
 10
746.620
 20
-649.755
 30
0.000000
  70
    32
  0
VERTEX
  8
01
  5
BD7E
 10
746.740
 20
-649.659
 30
0.000000
  70
    32
  0
VERTEX
  8
01
  5
BD7F
 10
746.861
 20
-649.565
 30
0.000000
  70
    32
  0
VERTEX
  8
01
  5
BD80
 10
746.983
 20
-649.473
 30
0.000000
  70
    32
  0
VERTEX
  8
01
  5
BD81
 10
747.106
 20
-649.384
 30
0.000000
  70
    32
  0
VERTEX
  8
01
  5
BD82
 10
747.229
 20
-649.298
 30
0.000000
  70
    32
  0
VERTEX
  8
01
  5
BD83
 10
747.352
 20
-649.214
 30
0.000000
  70
    32
  0
VERTEX
  8
01
  5
BD84
 10
747.477
 20
-649.133
 30
0.000000
  70
    32
  0
VERTEX
  8
01
  5
BD85
 10
747.601
 20
-649.055
 30
0.000000
  70
    32
  0
VERTEX
  8
01
  5
BD86
 10
747.727
 20
-648.979
 30
0.000000
  70
    32
  0
VERTEX
  8
01
  5
BD87
 10
747.853
 20
-648.906
 30
0.000000
  70
    32
  0
VERTEX
  8
01
  5
BD88
 10
747.979
 20
-648.836
 30
0.000000
  70
    32
  0
VERTEX
  8
01
  5
BD89
 10
748.106
 20
-648.768
 30
0.000000
  70
    32
  0
VERTEX
  8
01
  5
BD8A
 10
748.233
 20
-648.703
 30
0.000000
  70
    32
  0
VERTEX
  8
01
  5
BD8B
 10
748.361
 20
-648.641
 30
0.000000
  70
    32
  0
VERTEX
  8
01
  5
BD8C
 10
748.489
 20
-648.581
 30
0.000000
  70
    32
  0
VERTEX
  8
01
  5
BD8D
 10
748.618
 20
-648.524
 30
0.000000
  70
    32
  0
VERTEX
  8
01
  5
BD8E
 10
748.747
 20
-648.470
 30
0.000000
  70
    32
  0
VERTEX
  8
01
  5
BD8F
 10
748.877
 20
-648.418
 30
0.000000
  70
    32
  0
VERTEX
  8
01
  5
BD90
 10
749.006
 20
-648.370
 30
0.000000
  70
    32
  0
VERTEX
  8
01
  5
BD91
 10
749.137
 20
-648.324
 30
0.000000
  70
    32
  0
VERTEX
  8
01
  5
BD92
 10
749.267
 20
-648.280
 30
0.000000
  70
    32
  0
VERTEX
  8
01
  5
BD93
 10
749.398
 20
-648.240
 30
0.000000
  70
    32
  0
VERTEX
  8
01
  5
BD94
 10
749.529
 20
-648.202
 30
0.000000
  70
    32
  0
VERTEX
  8
01
  5
BD95
 10
749.660
 20
-648.167
 30
0.000000
  70
    32
  0
VERTEX
  8
01
  5
BD96
 10
749.792
 20
-648.135
 30
0.000000
  70
    32
  0
VERTEX
  8
01
  5
BD97
 10
749.923
 20
-648.106
 30
0.000000
  70
    32
  0
VERTEX
  8
01
  5
BD98
 10
750.055
 20
-648.079
 30
0.000000
  70
    32
  0
VERTEX
  8
01
  5
BD99
 10
750.188
 20
-648.055
 30
0.000000
  70
    32
  0
VERTEX
  8
01
  5
BD9A
 10
750.320
 20
-648.034
 30
0.000000
  70
    32
  0
VERTEX
  8
01
  5
BD9B
 10
750.452
 20
-648.016
 30
0.000000
  70
    32
  0
VERTEX
  8
01
  5
BD9C
 10
750.585
 20
-648.000
 30
0.000000
  70
    32
  0
VERTEX
  8
01
  5
BD9D
 10
750.717
 20
-647.988
 30
0.000000
  70
    32
  0
VERTEX
  8
01
  5
BD9E
 10
750.850
 20
-647.978
 30
0.000000
  70
    32
  0
VERTEX
  8
01
  5
BD9F
 10
750.983
 20
-647.971
 30
0.000000
  70
    32
  0
VERTEX
  8
01
  5
BDA0
 10
751.116
 20
-647.967
 30
0.000000
  70
    32
  0
VERTEX
  8
01
  5
BDA1
 10
751.249
 20
-647.965
 30
0.000000
  70
    32
  0
SEQEND
  8
01
  5
BDA2
  0
POLYLINE
  5
B5FA
  8
01
 10
760.30412433952915
 20
-663.23408159774419
 30
0.0
 66
     1
 70
     8
  0
VERTEX
  8
01
  5
BDA3
 10
760.304
 20
-663.234
 30
0.000000
  70
    32
  0
VERTEX
  8
01
  5
BDA4
 10
760.304
 20
-663.505
 30
0.000000
  70
    32
  0
VERTEX
  8
01
  5
BDA5
 10
760.302
 20
-663.776
 30
0.000000
  70
    32
  0
VERTEX
  8
01
  5
BDA6
 10
760.299
 20
-664.047
 30
0.000000
  70
    32
  0
VERTEX
  8
01
  5
BDA7
 10
760.295
 20
-664.317
 30
0.000000
  70
    32
  0
VERTEX
  8
01
  5
BDA8
 10
760.290
 20
-664.587
 30
0.000000
  70
    32
  0
VERTEX
  8
01
  5
BDA9
 10
760.284
 20
-664.855
 30
0.000000
  70
    32
  0
VERTEX
  8
01
  5
BDAA
 10
760.277
 20
-665.123
 30
0.000000
  70
    32
  0
VERTEX
  8
01
  5
BDAB
 10
760.268
 20
-665.390
 30
0.000000
  70
    32
  0
VERTEX
  8
01
  5
BDAC
 10
760.259
 20
-665.655
 30
0.000000
  70
    32
  0
VERTEX
  8
01
  5
BDAD
 10
760.248
 20
-665.919
 30
0.000000
  70
    32
  0
VERTEX
  8
01
  5
BDAE
 10
760.236
 20
-666.181
 30
0.000000
  70
    32
  0
VERTEX
  8
01
  5
BDAF
 10
760.223
 20
-666.442
 30
0.000000
  70
    32
  0
VERTEX
  8
01
  5
BDB0
 10
760.210
 20
-666.700
 30
0.000000
  70
    32
  0
VERTEX
  8
01
  5
BDB1
 10
760.195
 20
-666.957
 30
0.000000
  70
    32
  0
VERTEX
  8
01
  5
BDB2
 10
760.179
 20
-667.211
 30
0.000000
  70
    32
  0
VERTEX
  8
01
  5
BDB3
 10
760.162
 20
-667.463
 30
0.000000
  70
    32
  0
VERTEX
  8
01
  5
BDB4
 10
760.143
 20
-667.712
 30
0.000000
  70
    32
  0
VERTEX
  8
01
  5
BDB5
 10
760.124
 20
-667.959
 30
0.000000
  70
    32
  0
VERTEX
  8
01
  5
BDB6
 10
760.104
 20
-668.202
 30
0.000000
  70
    32
  0
VERTEX
  8
01
  5
BDB7
 10
760.083
 20
-668.443
 30
0.000000
  70
    32
  0
VERTEX
  8
01
  5
BDB8
 10
760.061
 20
-668.681
 30
0.000000
  70
    32
  0
VERTEX
  8
01
  5
BDB9
 10
760.038
 20
-668.915
 30
0.000000
  70
    32
  0
VERTEX
  8
01
  5
BDBA
 10
760.014
 20
-669.146
 30
0.000000
  70
    32
  0
VERTEX
  8
01
  5
BDBB
 10
759.988
 20
-669.373
 30
0.000000
  70
    32
  0
VERTEX
  8
01
  5
BDBC
 10
759.962
 20
-669.597
 30
0.000000
  70
    32
  0
VERTEX
  8
01
  5
BDBD
 10
759.936
 20
-669.817
 30
0.000000
  70
    32
  0
VERTEX
  8
01
  5
BDBE
 10
759.908
 20
-670.032
 30
0.000000
  70
    32
  0
VERTEX
  8
01
  5
BDBF
 10
759.879
 20
-670.244
 30
0.000000
  70
    32
  0
VERTEX
  8
01
  5
BDC0
 10
759.849
 20
-670.452
 30
0.000000
  70
    32
  0
VERTEX
  8
01
  5
BDC1
 10
759.819
 20
-670.655
 30
0.000000
  70
    32
  0
VERTEX
  8
01
  5
BDC2
 10
759.788
 20
-670.854
 30
0.000000
  70
    32
  0
VERTEX
  8
01
  5
BDC3
 10
759.755
 20
-671.048
 30
0.000000
  70
    32
  0
VERTEX
  8
01
  5
BDC4
 10
759.723
 20
-671.237
 30
0.000000
  70
    32
  0
VERTEX
  8
01
  5
BDC5
 10
759.689
 20
-671.422
 30
0.000000
  70
    32
  0
VERTEX
  8
01
  5
BDC6
 10
759.654
 20
-671.601
 30
0.000000
  70
    32
  0
VERTEX
  8
01
  5
BDC7
 10
759.619
 20
-671.776
 30
0.000000
  70
    32
  0
VERTEX
  8
01
  5
BDC8
 10
759.583
 20
-671.945
 30
0.000000
  70
    32
  0
VERTEX
  8
01
  5
BDC9
 10
759.547
 20
-672.110
 30
0.000000
  70
    32
  0
VERTEX
  8
01
  5
BDCA
 10
759.510
 20
-672.268
 30
0.000000
  70
    32
  0
VERTEX
  8
01
  5
BDCB
 10
759.472
 20
-672.422
 30
0.000000
  70
    32
  0
VERTEX
  8
01
  5
BDCC
 10
759.433
 20
-672.570
 30
0.000000
  70
    32
  0
VERTEX
  8
01
  5
BDCD
 10
759.394
 20
-672.712
 30
0.000000
  70
    32
  0
VERTEX
  8
01
  5
BDCE
 10
759.354
 20
-672.849
 30
0.000000
  70
    32
  0
VERTEX
  8
01
  5
BDCF
 10
759.314
 20
-672.979
 30
0.000000
  70
    32
  0
VERTEX
  8
01
  5
BDD0
 10
759.273
 20
-673.104
 30
0.000000
  70
    32
  0
VERTEX
  8
01
  5
BDD1
 10
759.232
 20
-673.223
 30
0.000000
  70
    32
  0
VERTEX
  8
01
  5
BDD2
 10
759.190
 20
-673.336
 30
0.000000
  70
    32
  0
VERTEX
  8
01
  5
BDD3
 10
759.148
 20
-673.443
 30
0.000000
  70
    32
  0
VERTEX
  8
01
  5
BDD4
 10
759.105
 20
-673.544
 30
0.000000
  70
    32
  0
VERTEX
  8
01
  5
BDD5
 10
759.062
 20
-673.638
 30
0.000000
  70
    32
  0
VERTEX
  8
01
  5
BDD6
 10
759.019
 20
-673.726
 30
0.000000
  70
    32
  0
VERTEX
  8
01
  5
BDD7
 10
758.975
 20
-673.808
 30
0.000000
  70
    32
  0
VERTEX
  8
01
  5
BDD8
 10
758.931
 20
-673.884
 30
0.000000
  70
    32
  0
VERTEX
  8
01
  5
BDD9
 10
758.886
 20
-673.953
 30
0.000000
  70
    32
  0
VERTEX
  8
01
  5
BDDA
 10
758.841
 20
-674.016
 30
0.000000
  70
    32
  0
VERTEX
  8
01
  5
BDDB
 10
758.796
 20
-674.072
 30
0.000000
  70
    32
  0
VERTEX
  8
01
  5
BDDC
 10
758.751
 20
-674.121
 30
0.000000
  70
    32
  0
VERTEX
  8
01
  5
BDDD
 10
758.706
 20
-674.164
 30
0.000000
  70
    32
  0
VERTEX
  8
01
  5
BDDE
 10
758.660
 20
-674.201
 30
0.000000
  70
    32
  0
VERTEX
  8
01
  5
BDDF
 10
758.615
 20
-674.231
 30
0.000000
  70
    32
  0
VERTEX
  8
01
  5
BDE0
 10
758.569
 20
-674.254
 30
0.000000
  70
    32
  0
VERTEX
  8
01
  5
BDE1
 10
758.523
 20
-674.271
 30
0.000000
  70
    32
  0
VERTEX
  8
01
  5
BDE2
 10
758.477
 20
-674.281
 30
0.000000
  70
    32
  0
VERTEX
  8
01
  5
BDE3
 10
758.431
 20
-674.284
 30
0.000000
  70
    32
  0
VERTEX
  8
01
  5
BDE4
 10
758.385
 20
-674.281
 30
0.000000
  70
    32
  0
VERTEX
  8
01
  5
BDE5
 10
758.339
 20
-674.271
 30
0.000000
  70
    32
  0
VERTEX
  8
01
  5
BDE6
 10
758.293
 20
-674.254
 30
0.000000
  70
    32
  0
VERTEX
  8
01
  5
BDE7
 10
758.247
 20
-674.231
 30
0.000000
  70
    32
  0
VERTEX
  8
01
  5
BDE8
 10
758.202
 20
-674.201
 30
0.000000
  70
    32
  0
VERTEX
  8
01
  5
BDE9
 10
758.156
 20
-674.164
 30
0.000000
  70
    32
  0
VERTEX
  8
01
  5
BDEA
 10
758.111
 20
-674.121
 30
0.000000
  70
    32
  0
VERTEX
  8
01
  5
BDEB
 10
758.066
 20
-674.072
 30
0.000000
  70
    32
  0
VERTEX
  8
01
  5
BDEC
 10
758.021
 20
-674.016
 30
0.000000
  70
    32
  0
VERTEX
  8
01
  5
BDED
 10
757.976
 20
-673.953
 30
0.000000
  70
    32
  0
VERTEX
  8
01
  5
BDEE
 10
757.931
 20
-673.884
 30
0.000000
  70
    32
  0
VERTEX
  8
01
  5
BDEF
 10
757.887
 20
-673.808
 30
0.000000
  70
    32
  0
VERTEX
  8
01
  5
BDF0
 10
757.843
 20
-673.726
 30
0.000000
  70
    32
  0
VERTEX
  8
01
  5
BDF1
 10
757.800
 20
-673.638
 30
0.000000
  70
    32
  0
VERTEX
  8
01
  5
BDF2
 10
757.757
 20
-673.544
 30
0.000000
  70
    32
  0
VERTEX
  8
01
  5
BDF3
 10
757.714
 20
-673.443
 30
0.000000
  70
    32
  0
VERTEX
  8
01
  5
BDF4
 10
757.672
 20
-673.336
 30
0.000000
  70
    32
  0
VERTEX
  8
01
  5
BDF5
 10
757.630
 20
-673.223
 30
0.000000
  70
    32
  0
VERTEX
  8
01
  5
BDF6
 10
757.589
 20
-673.104
 30
0.000000
  70
    32
  0
VERTEX
  8
01
  5
BDF7
 10
757.548
 20
-672.979
 30
0.000000
  70
    32
  0
VERTEX
  8
01
  5
BDF8
 10
757.508
 20
-672.849
 30
0.000000
  70
    32
  0
VERTEX
  8
01
  5
BDF9
 10
757.468
 20
-672.712
 30
0.000000
  70
    32
  0
VERTEX
  8
01
  5
BDFA
 10
757.429
 20
-672.570
 30
0.000000
  70
    32
  0
VERTEX
  8
01
  5
BDFB
 10
757.390
 20
-672.422
 30
0.000000
  70
    32
  0
VERTEX
  8
01
  5
BDFC
 10
757.352
 20
-672.268
 30
0.000000
  70
    32
  0
VERTEX
  8
01
  5
BDFD
 10
757.315
 20
-672.110
 30
0.000000
  70
    32
  0
VERTEX
  8
01
  5
BDFE
 10
757.279
 20
-671.945
 30
0.000000
  70
    32
  0
VERTEX
  8
01
  5
BDFF
 10
757.243
 20
-671.776
 30
0.000000
  70
    32
  0
VERTEX
  8
01
  5
BE00
 10
757.208
 20
-671.601
 30
0.000000
  70
    32
  0
VERTEX
  8
01
  5
BE01
 10
757.173
 20
-671.422
 30
0.000000
  70
    32
  0
VERTEX
  8
01
  5
BE02
 10
757.139
 20
-671.237
 30
0.000000
  70
    32
  0
VERTEX
  8
01
  5
BE03
 10
757.106
 20
-671.048
 30
0.000000
  70
    32
  0
VERTEX
  8
01
  5
BE04
 10
757.074
 20
-670.854
 30
0.000000
  70
    32
  0
VERTEX
  8
01
  5
BE05
 10
757.043
 20
-670.655
 30
0.000000
  70
    32
  0
VERTEX
  8
01
  5
BE06
 10
757.013
 20
-670.452
 30
0.000000
  70
    32
  0
VERTEX
  8
01
  5
BE07
 10
756.983
 20
-670.244
 30
0.000000
  70
    32
  0
VERTEX
  8
01
  5
BE08
 10
756.954
 20
-670.032
 30
0.000000
  70
    32
  0
VERTEX
  8
01
  5
BE09
 10
756.926
 20
-669.817
 30
0.000000
  70
    32
  0
VERTEX
  8
01
  5
BE0A
 10
756.900
 20
-669.597
 30
0.000000
  70
    32
  0
VERTEX
  8
01
  5
BE0B
 10
756.874
 20
-669.373
 30
0.000000
  70
    32
  0
VERTEX
  8
01
  5
BE0C
 10
756.848
 20
-669.146
 30
0.000000
  70
    32
  0
VERTEX
  8
01
  5
BE0D
 10
756.824
 20
-668.915
 30
0.000000
  70
    32
  0
VERTEX
  8
01
  5
BE0E
 10
756.801
 20
-668.681
 30
0.000000
  70
    32
  0
VERTEX
  8
01
  5
BE0F
 10
756.779
 20
-668.443
 30
0.000000
  70
    32
  0
VERTEX
  8
01
  5
BE10
 10
756.758
 20
-668.202
 30
0.000000
  70
    32
  0
VERTEX
  8
01
  5
BE11
 10
756.738
 20
-667.959
 30
0.000000
  70
    32
  0
VERTEX
  8
01
  5
BE12
 10
756.719
 20
-667.712
 30
0.000000
  70
    32
  0
VERTEX
  8
01
  5
BE13
 10
756.700
 20
-667.463
 30
0.000000
  70
    32
  0
VERTEX
  8
01
  5
BE14
 10
756.683
 20
-667.211
 30
0.000000
  70
    32
  0
VERTEX
  8
01
  5
BE15
 10
756.667
 20
-666.957
 30
0.000000
  70
    32
  0
VERTEX
  8
01
  5
BE16
 10
756.652
 20
-666.700
 30
0.000000
  70
    32
  0
VERTEX
  8
01
  5
BE17
 10
756.639
 20
-666.442
 30
0.000000
  70
    32
  0
VERTEX
  8
01
  5
BE18
 10
756.626
 20
-666.181
 30
0.000000
  70
    32
  0
VERTEX
  8
01
  5
BE19
 10
756.614
 20
-665.919
 30
0.000000
  70
    32
  0
VERTEX
  8
01
  5
BE1A
 10
756.603
 20
-665.655
 30
0.000000
  70
    32
  0
VERTEX
  8
01
  5
BE1B
 10
756.594
 20
-665.390
 30
0.000000
  70
    32
  0
VERTEX
  8
01
  5
BE1C
 10
756.585
 20
-665.123
 30
0.000000
  70
    32
  0
VERTEX
  8
01
  5
BE1D
 10
756.578
 20
-664.855
 30
0.000000
  70
    32
  0
VERTEX
  8
01
  5
BE1E
 10
756.572
 20
-664.587
 30
0.000000
  70
    32
  0
VERTEX
  8
01
  5
BE1F
 10
756.567
 20
-664.317
 30
0.000000
  70
    32
  0
VERTEX
  8
01
  5
BE20
 10
756.563
 20
-664.047
 30
0.000000
  70
    32
  0
VERTEX
  8
01
  5
BE21
 10
756.560
 20
-663.776
 30
0.000000
  70
    32
  0
VERTEX
  8
01
  5
BE22
 10
756.558
 20
-663.505
 30
0.000000
  70
    32
  0
VERTEX
  8
01
  5
BE23
 10
756.558
 20
-663.234
 30
0.000000
  70
    32
  0
SEQEND
  8
01
  5
BE24
  0
POLYLINE
  5
B5FB
  8
01
 10
751.24870794751405
 20
-647.96539914284449
 30
0.0
 66
     1
 70
     8
  0
VERTEX
  8
01
  5
BE25
 10
751.249
 20
-647.965
 30
0.000000
  70
    32
  0
VERTEX
  8
01
  5
BE26
 10
751.360
 20
-647.967
 30
0.000000
  70
    32
  0
VERTEX
  8
01
  5
BE27
 10
751.471
 20
-647.970
 30
0.000000
  70
    32
  0
VERTEX
  8
01
  5
BE28
 10
751.582
 20
-647.976
 30
0.000000
  70
    32
  0
VERTEX
  8
01
  5
BE29
 10
751.693
 20
-647.984
 30
0.000000
  70
    32
  0
VERTEX
  8
01
  5
BE2A
 10
751.804
 20
-647.994
 30
0.000000
  70
    32
  0
VERTEX
  8
01
  5
BE2B
 10
751.915
 20
-648.007
 30
0.000000
  70
    32
  0
VERTEX
  8
01
  5
BE2C
 10
752.026
 20
-648.022
 30
0.000000
  70
    32
  0
VERTEX
  8
01
  5
BE2D
 10
752.136
 20
-648.039
 30
0.000000
  70
    32
  0
VERTEX
  8
01
  5
BE2E
 10
752.247
 20
-648.058
 30
0.000000
  70
    32
  0
VERTEX
  8
01
  5
BE2F
 10
752.357
 20
-648.080
 30
0.000000
  70
    32
  0
VERTEX
  8
01
  5
BE30
 10
752.467
 20
-648.104
 30
0.000000
  70
    32
  0
VERTEX
  8
01
  5
BE31
 10
752.577
 20
-648.131
 30
0.000000
  70
    32
  0
VERTEX
  8
01
  5
BE32
 10
752.687
 20
-648.159
 30
0.000000
  70
    32
  0
VERTEX
  8
01
  5
BE33
 10
752.797
 20
-648.190
 30
0.000000
  70
    32
  0
VERTEX
  8
01
  5
BE34
 10
752.906
 20
-648.223
 30
0.000000
  70
    32
  0
VERTEX
  8
01
  5
BE35
 10
753.015
 20
-648.259
 30
0.000000
  70
    32
  0
VERTEX
  8
01
  5
BE36
 10
753.124
 20
-648.296
 30
0.000000
  70
    32
  0
VERTEX
  8
01
  5
BE37
 10
753.233
 20
-648.336
 30
0.000000
  70
    32
  0
VERTEX
  8
01
  5
BE38
 10
753.341
 20
-648.379
 30
0.000000
  70
    32
  0
VERTEX
  8
01
  5
BE39
 10
753.449
 20
-648.423
 30
0.000000
  70
    32
  0
VERTEX
  8
01
  5
BE3A
 10
753.557
 20
-648.470
 30
0.000000
  70
    32
  0
VERTEX
  8
01
  5
BE3B
 10
753.664
 20
-648.518
 30
0.000000
  70
    32
  0
VERTEX
  8
01
  5
BE3C
 10
753.771
 20
-648.570
 30
0.000000
  70
    32
  0
VERTEX
  8
01
  5
BE3D
 10
753.877
 20
-648.623
 30
0.000000
  70
    32
  0
VERTEX
  8
01
  5
BE3E
 10
753.983
 20
-648.678
 30
0.000000
  70
    32
  0
VERTEX
  8
01
  5
BE3F
 10
754.089
 20
-648.736
 30
0.000000
  70
    32
  0
VERTEX
  8
01
  5
BE40
 10
754.195
 20
-648.796
 30
0.000000
  70
    32
  0
VERTEX
  8
01
  5
BE41
 10
754.299
 20
-648.858
 30
0.000000
  70
    32
  0
VERTEX
  8
01
  5
BE42
 10
754.404
 20
-648.922
 30
0.000000
  70
    32
  0
VERTEX
  8
01
  5
BE43
 10
754.508
 20
-648.989
 30
0.000000
  70
    32
  0
VERTEX
  8
01
  5
BE44
 10
754.611
 20
-649.057
 30
0.000000
  70
    32
  0
VERTEX
  8
01
  5
BE45
 10
754.714
 20
-649.128
 30
0.000000
  70
    32
  0
VERTEX
  8
01
  5
BE46
 10
754.816
 20
-649.200
 30
0.000000
  70
    32
  0
VERTEX
  8
01
  5
BE47
 10
754.918
 20
-649.275
 30
0.000000
  70
    32
  0
VERTEX
  8
01
  5
BE48
 10
755.020
 20
-649.352
 30
0.000000
  70
    32
  0
VERTEX
  8
01
  5
BE49
 10
755.120
 20
-649.431
 30
0.000000
  70
    32
  0
VERTEX
  8
01
  5
BE4A
 10
755.221
 20
-649.513
 30
0.000000
  70
    32
  0
VERTEX
  8
01
  5
BE4B
 10
755.320
 20
-649.596
 30
0.000000
  70
    32
  0
VERTEX
  8
01
  5
BE4C
 10
755.419
 20
-649.681
 30
0.000000
  70
    32
  0
VERTEX
  8
01
  5
BE4D
 10
755.517
 20
-649.768
 30
0.000000
  70
    32
  0
VERTEX
  8
01
  5
BE4E
 10
755.615
 20
-649.858
 30
0.000000
  70
    32
  0
VERTEX
  8
01
  5
BE4F
 10
755.712
 20
-649.949
 30
0.000000
  70
    32
  0
VERTEX
  8
01
  5
BE50
 10
755.808
 20
-650.042
 30
0.000000
  70
    32
  0
VERTEX
  8
01
  5
BE51
 10
755.904
 20
-650.138
 30
0.000000
  70
    32
  0
VERTEX
  8
01
  5
BE52
 10
755.999
 20
-650.235
 30
0.000000
  70
    32
  0
VERTEX
  8
01
  5
BE53
 10
756.093
 20
-650.334
 30
0.000000
  70
    32
  0
VERTEX
  8
01
  5
BE54
 10
756.187
 20
-650.435
 30
0.000000
  70
    32
  0
VERTEX
  8
01
  5
BE55
 10
756.280
 20
-650.539
 30
0.000000
  70
    32
  0
VERTEX
  8
01
  5
BE56
 10
756.372
 20
-650.644
 30
0.000000
  70
    32
  0
VERTEX
  8
01
  5
BE57
 10
756.463
 20
-650.751
 30
0.000000
  70
    32
  0
VERTEX
  8
01
  5
BE58
 10
756.553
 20
-650.859
 30
0.000000
  70
    32
  0
VERTEX
  8
01
  5
BE59
 10
756.643
 20
-650.970
 30
0.000000
  70
    32
  0
VERTEX
  8
01
  5
BE5A
 10
756.732
 20
-651.083
 30
0.000000
  70
    32
  0
VERTEX
  8
01
  5
BE5B
 10
756.820
 20
-651.197
 30
0.000000
  70
    32
  0
VERTEX
  8
01
  5
BE5C
 10
756.907
 20
-651.313
 30
0.000000
  70
    32
  0
VERTEX
  8
01
  5
BE5D
 10
756.993
 20
-651.431
 30
0.000000
  70
    32
  0
VERTEX
  8
01
  5
BE5E
 10
757.079
 20
-651.551
 30
0.000000
  70
    32
  0
VERTEX
  8
01
  5
BE5F
 10
757.163
 20
-651.673
 30
0.000000
  70
    32
  0
VERTEX
  8
01
  5
BE60
 10
757.247
 20
-651.796
 30
0.000000
  70
    32
  0
VERTEX
  8
01
  5
BE61
 10
757.330
 20
-651.921
 30
0.000000
  70
    32
  0
VERTEX
  8
01
  5
BE62
 10
757.412
 20
-652.047
 30
0.000000
  70
    32
  0
VERTEX
  8
01
  5
BE63
 10
757.493
 20
-652.176
 30
0.000000
  70
    32
  0
VERTEX
  8
01
  5
BE64
 10
757.573
 20
-652.306
 30
0.000000
  70
    32
  0
VERTEX
  8
01
  5
BE65
 10
757.652
 20
-652.437
 30
0.000000
  70
    32
  0
VERTEX
  8
01
  5
BE66
 10
757.730
 20
-652.571
 30
0.000000
  70
    32
  0
VERTEX
  8
01
  5
BE67
 10
757.807
 20
-652.706
 30
0.000000
  70
    32
  0
VERTEX
  8
01
  5
BE68
 10
757.883
 20
-652.842
 30
0.000000
  70
    32
  0
VERTEX
  8
01
  5
BE69
 10
757.958
 20
-652.980
 30
0.000000
  70
    32
  0
VERTEX
  8
01
  5
BE6A
 10
758.032
 20
-653.120
 30
0.000000
  70
    32
  0
VERTEX
  8
01
  5
BE6B
 10
758.106
 20
-653.261
 30
0.000000
  70
    32
  0
VERTEX
  8
01
  5
BE6C
 10
758.178
 20
-653.404
 30
0.000000
  70
    32
  0
VERTEX
  8
01
  5
BE6D
 10
758.249
 20
-653.548
 30
0.000000
  70
    32
  0
VERTEX
  8
01
  5
BE6E
 10
758.319
 20
-653.693
 30
0.000000
  70
    32
  0
VERTEX
  8
01
  5
BE6F
 10
758.388
 20
-653.840
 30
0.000000
  70
    32
  0
VERTEX
  8
01
  5
BE70
 10
758.455
 20
-653.989
 30
0.000000
  70
    32
  0
VERTEX
  8
01
  5
BE71
 10
758.522
 20
-654.139
 30
0.000000
  70
    32
  0
VERTEX
  8
01
  5
BE72
 10
758.588
 20
-654.290
 30
0.000000
  70
    32
  0
VERTEX
  8
01
  5
BE73
 10
758.652
 20
-654.442
 30
0.000000
  70
    32
  0
VERTEX
  8
01
  5
BE74
 10
758.716
 20
-654.596
 30
0.000000
  70
    32
  0
VERTEX
  8
01
  5
BE75
 10
758.778
 20
-654.751
 30
0.000000
  70
    32
  0
VERTEX
  8
01
  5
BE76
 10
758.839
 20
-654.908
 30
0.000000
  70
    32
  0
VERTEX
  8
01
  5
BE77
 10
758.899
 20
-655.065
 30
0.000000
  70
    32
  0
VERTEX
  8
01
  5
BE78
 10
758.958
 20
-655.224
 30
0.000000
  70
    32
  0
VERTEX
  8
01
  5
BE79
 10
759.016
 20
-655.384
 30
0.000000
  70
    32
  0
VERTEX
  8
01
  5
BE7A
 10
759.072
 20
-655.546
 30
0.000000
  70
    32
  0
VERTEX
  8
01
  5
BE7B
 10
759.128
 20
-655.708
 30
0.000000
  70
    32
  0
VERTEX
  8
01
  5
BE7C
 10
759.182
 20
-655.872
 30
0.000000
  70
    32
  0
VERTEX
  8
01
  5
BE7D
 10
759.235
 20
-656.036
 30
0.000000
  70
    32
  0
VERTEX
  8
01
  5
BE7E
 10
759.287
 20
-656.202
 30
0.000000
  70
    32
  0
VERTEX
  8
01
  5
BE7F
 10
759.337
 20
-656.369
 30
0.000000
  70
    32
  0
VERTEX
  8
01
  5
BE80
 10
759.387
 20
-656.537
 30
0.000000
  70
    32
  0
VERTEX
  8
01
  5
BE81
 10
759.435
 20
-656.706
 30
0.000000
  70
    32
  0
VERTEX
  8
01
  5
BE82
 10
759.482
 20
-656.876
 30
0.000000
  70
    32
  0
VERTEX
  8
01
  5
BE83
 10
759.527
 20
-657.047
 30
0.000000
  70
    32
  0
VERTEX
  8
01
  5
BE84
 10
759.572
 20
-657.218
 30
0.000000
  70
    32
  0
VERTEX
  8
01
  5
BE85
 10
759.615
 20
-657.391
 30
0.000000
  70
    32
  0
VERTEX
  8
01
  5
BE86
 10
759.657
 20
-657.565
 30
0.000000
  70
    32
  0
VERTEX
  8
01
  5
BE87
 10
759.697
 20
-657.739
 30
0.000000
  70
    32
  0
VERTEX
  8
01
  5
BE88
 10
759.737
 20
-657.914
 30
0.000000
  70
    32
  0
VERTEX
  8
01
  5
BE89
 10
759.775
 20
-658.090
 30
0.000000
  70
    32
  0
VERTEX
  8
01
  5
BE8A
 10
759.812
 20
-658.267
 30
0.000000
  70
    32
  0
VERTEX
  8
01
  5
BE8B
 10
759.847
 20
-658.445
 30
0.000000
  70
    32
  0
VERTEX
  8
01
  5
BE8C
 10
759.881
 20
-658.623
 30
0.000000
  70
    32
  0
VERTEX
  8
01
  5
BE8D
 10
759.914
 20
-658.802
 30
0.000000
  70
    32
  0
VERTEX
  8
01
  5
BE8E
 10
759.946
 20
-658.981
 30
0.000000
  70
    32
  0
VERTEX
  8
01
  5
BE8F
 10
759.976
 20
-659.162
 30
0.000000
  70
    32
  0
VERTEX
  8
01
  5
BE90
 10
760.005
 20
-659.343
 30
0.000000
  70
    32
  0
VERTEX
  8
01
  5
BE91
 10
760.033
 20
-659.524
 30
0.000000
  70
    32
  0
VERTEX
  8
01
  5
BE92
 10
760.059
 20
-659.706
 30
0.000000
  70
    32
  0
VERTEX
  8
01
  5
BE93
 10
760.084
 20
-659.889
 30
0.000000
  70
    32
  0
VERTEX
  8
01
  5
BE94
 10
760.108
 20
-660.072
 30
0.000000
  70
    32
  0
VERTEX
  8
01
  5
BE95
 10
760.130
 20
-660.255
 30
0.000000
  70
    32
  0
VERTEX
  8
01
  5
BE96
 10
760.151
 20
-660.439
 30
0.000000
  70
    32
  0
VERTEX
  8
01
  5
BE97
 10
760.171
 20
-660.624
 30
0.000000
  70
    32
  0
VERTEX
  8
01
  5
BE98
 10
760.189
 20
-660.809
 30
0.000000
  70
    32
  0
VERTEX
  8
01
  5
BE99
 10
760.206
 20
-660.994
 30
0.000000
  70
    32
  0
VERTEX
  8
01
  5
BE9A
 10
760.222
 20
-661.179
 30
0.000000
  70
    32
  0
VERTEX
  8
01
  5
BE9B
 10
760.236
 20
-661.365
 30
0.000000
  70
    32
  0
VERTEX
  8
01
  5
BE9C
 10
760.249
 20
-661.551
 30
0.000000
  70
    32
  0
VERTEX
  8
01
  5
BE9D
 10
760.261
 20
-661.737
 30
0.000000
  70
    32
  0
VERTEX
  8
01
  5
BE9E
 10
760.271
 20
-661.924
 30
0.000000
  70
    32
  0
VERTEX
  8
01
  5
BE9F
 10
760.280
 20
-662.111
 30
0.000000
  70
    32
  0
VERTEX
  8
01
  5
BEA0
 10
760.287
 20
-662.298
 30
0.000000
  70
    32
  0
VERTEX
  8
01
  5
BEA1
 10
760.293
 20
-662.485
 30
0.000000
  70
    32
  0
VERTEX
  8
01
  5
BEA2
 10
760.298
 20
-662.672
 30
0.000000
  70
    32
  0
VERTEX
  8
01
  5
BEA3
 10
760.301
 20
-662.859
 30
0.000000
  70
    32
  0
VERTEX
  8
01
  5
BEA4
 10
760.303
 20
-663.047
 30
0.000000
  70
    32
  0
VERTEX
  8
01
  5
BEA5
 10
760.304
 20
-663.234
 30
0.000000
  70
    32
  0
SEQEND
  8
01
  5
BEA6
  0
ARC
  5
B5FC
  8
01
 10
751.78209302966286
 20
-659.87937939014955
 30
0.0
 40
13.20186386360011
 50
210.63148374677459
 51
294.54524589235791
  0
POLYLINE
  5
B5FD
  8
01
 10
751.24870794751405
 20
-649.86210867075317
 30
0.0
 66
     1
 70
     8
  0
VERTEX
  8
01
  5
BEA7
 10
751.249
 20
-649.862
 30
0.000000
  70
    32
  0
VERTEX
  8
01
  5
BEA8
 10
751.314
 20
-649.863
 30
0.000000
  70
    32
  0
VERTEX
  8
01
  5
BEA9
 10
751.379
 20
-649.866
 30
0.000000
  70
    32
  0
VERTEX
  8
01
  5
BEAA
 10
751.444
 20
-649.871
 30
0.000000
  70
    32
  0
VERTEX
  8
01
  5
BEAB
 10
751.509
 20
-649.878
 30
0.000000
  70
    32
  0
VERTEX
  8
01
  5
BEAC
 10
751.574
 20
-649.887
 30
0.000000
  70
    32
  0
VERTEX
  8
01
  5
BEAD
 10
751.639
 20
-649.898
 30
0.000000
  70
    32
  0
VERTEX
  8
01
  5
BEAE
 10
751.704
 20
-649.911
 30
0.000000
  70
    32
  0
VERTEX
  8
01
  5
BEAF
 10
751.769
 20
-649.926
 30
0.000000
  70
    32
  0
VERTEX
  8
01
  5
BEB0
 10
751.834
 20
-649.944
 30
0.000000
  70
    32
  0
VERTEX
  8
01
  5
BEB1
 10
751.899
 20
-649.963
 30
0.000000
  70
    32
  0
VERTEX
  8
01
  5
BEB2
 10
751.963
 20
-649.984
 30
0.000000
  70
    32
  0
VERTEX
  8
01
  5
BEB3
 10
752.028
 20
-650.007
 30
0.000000
  70
    32
  0
VERTEX
  8
01
  5
BEB4
 10
752.092
 20
-650.032
 30
0.000000
  70
    32
  0
VERTEX
  8
01
  5
BEB5
 10
752.156
 20
-650.059
 30
0.000000
  70
    32
  0
VERTEX
  8
01
  5
BEB6
 10
752.220
 20
-650.088
 30
0.000000
  70
    32
  0
VERTEX
  8
01
  5
BEB7
 10
752.284
 20
-650.119
 30
0.000000
  70
    32
  0
VERTEX
  8
01
  5
BEB8
 10
752.348
 20
-650.152
 30
0.000000
  70
    32
  0
VERTEX
  8
01
  5
BEB9
 10
752.412
 20
-650.187
 30
0.000000
  70
    32
  0
VERTEX
  8
01
  5
BEBA
 10
752.475
 20
-650.224
 30
0.000000
  70
    32
  0
VERTEX
  8
01
  5
BEBB
 10
752.539
 20
-650.263
 30
0.000000
  70
    32
  0
VERTEX
  8
01
  5
BEBC
 10
752.602
 20
-650.304
 30
0.000000
  70
    32
  0
VERTEX
  8
01
  5
BEBD
 10
752.665
 20
-650.346
 30
0.000000
  70
    32
  0
VERTEX
  8
01
  5
BEBE
 10
752.727
 20
-650.391
 30
0.000000
  70
    32
  0
VERTEX
  8
01
  5
BEBF
 10
752.790
 20
-650.438
 30
0.000000
  70
    32
  0
VERTEX
  8
01
  5
BEC0
 10
752.852
 20
-650.486
 30
0.000000
  70
    32
  0
VERTEX
  8
01
  5
BEC1
 10
752.914
 20
-650.537
 30
0.000000
  70
    32
  0
VERTEX
  8
01
  5
BEC2
 10
752.976
 20
-650.589
 30
0.000000
  70
    32
  0
VERTEX
  8
01
  5
BEC3
 10
753.037
 20
-650.644
 30
0.000000
  70
    32
  0
VERTEX
  8
01
  5
BEC4
 10
753.099
 20
-650.700
 30
0.000000
  70
    32
  0
VERTEX
  8
01
  5
BEC5
 10
753.159
 20
-650.758
 30
0.000000
  70
    32
  0
VERTEX
  8
01
  5
BEC6
 10
753.220
 20
-650.818
 30
0.000000
  70
    32
  0
VERTEX
  8
01
  5
BEC7
 10
753.280
 20
-650.880
 30
0.000000
  70
    32
  0
VERTEX
  8
01
  5
BEC8
 10
753.340
 20
-650.944
 30
0.000000
  70
    32
  0
VERTEX
  8
01
  5
BEC9
 10
753.400
 20
-651.009
 30
0.000000
  70
    32
  0
VERTEX
  8
01
  5
BECA
 10
753.460
 20
-651.077
 30
0.000000
  70
    32
  0
VERTEX
  8
01
  5
BECB
 10
753.519
 20
-651.146
 30
0.000000
  70
    32
  0
VERTEX
  8
01
  5
BECC
 10
753.577
 20
-651.217
 30
0.000000
  70
    32
  0
VERTEX
  8
01
  5
BECD
 10
753.636
 20
-651.290
 30
0.000000
  70
    32
  0
VERTEX
  8
01
  5
BECE
 10
753.694
 20
-651.365
 30
0.000000
  70
    32
  0
VERTEX
  8
01
  5
BECF
 10
753.751
 20
-651.441
 30
0.000000
  70
    32
  0
VERTEX
  8
01
  5
BED0
 10
753.809
 20
-651.519
 30
0.000000
  70
    32
  0
VERTEX
  8
01
  5
BED1
 10
753.866
 20
-651.599
 30
0.000000
  70
    32
  0
VERTEX
  8
01
  5
BED2
 10
753.922
 20
-651.681
 30
0.000000
  70
    32
  0
VERTEX
  8
01
  5
BED3
 10
753.978
 20
-651.765
 30
0.000000
  70
    32
  0
VERTEX
  8
01
  5
BED4
 10
754.034
 20
-651.850
 30
0.000000
  70
    32
  0
VERTEX
  8
01
  5
BED5
 10
754.089
 20
-651.937
 30
0.000000
  70
    32
  0
VERTEX
  8
01
  5
BED6
 10
754.144
 20
-652.025
 30
0.000000
  70
    32
  0
VERTEX
  8
01
  5
BED7
 10
754.198
 20
-652.116
 30
0.000000
  70
    32
  0
VERTEX
  8
01
  5
BED8
 10
754.252
 20
-652.208
 30
0.000000
  70
    32
  0
VERTEX
  8
01
  5
BED9
 10
754.306
 20
-652.301
 30
0.000000
  70
    32
  0
VERTEX
  8
01
  5
BEDA
 10
754.359
 20
-652.397
 30
0.000000
  70
    32
  0
VERTEX
  8
01
  5
BEDB
 10
754.411
 20
-652.494
 30
0.000000
  70
    32
  0
VERTEX
  8
01
  5
BEDC
 10
754.463
 20
-652.592
 30
0.000000
  70
    32
  0
VERTEX
  8
01
  5
BEDD
 10
754.515
 20
-652.692
 30
0.000000
  70
    32
  0
VERTEX
  8
01
  5
BEDE
 10
754.566
 20
-652.794
 30
0.000000
  70
    32
  0
VERTEX
  8
01
  5
BEDF
 10
754.617
 20
-652.897
 30
0.000000
  70
    32
  0
VERTEX
  8
01
  5
BEE0
 10
754.667
 20
-653.002
 30
0.000000
  70
    32
  0
VERTEX
  8
01
  5
BEE1
 10
754.717
 20
-653.109
 30
0.000000
  70
    32
  0
VERTEX
  8
01
  5
BEE2
 10
754.766
 20
-653.217
 30
0.000000
  70
    32
  0
VERTEX
  8
01
  5
BEE3
 10
754.814
 20
-653.326
 30
0.000000
  70
    32
  0
VERTEX
  8
01
  5
BEE4
 10
754.862
 20
-653.437
 30
0.000000
  70
    32
  0
VERTEX
  8
01
  5
BEE5
 10
754.910
 20
-653.549
 30
0.000000
  70
    32
  0
VERTEX
  8
01
  5
BEE6
 10
754.957
 20
-653.663
 30
0.000000
  70
    32
  0
VERTEX
  8
01
  5
BEE7
 10
755.003
 20
-653.779
 30
0.000000
  70
    32
  0
VERTEX
  8
01
  5
BEE8
 10
755.049
 20
-653.895
 30
0.000000
  70
    32
  0
VERTEX
  8
01
  5
BEE9
 10
755.094
 20
-654.014
 30
0.000000
  70
    32
  0
VERTEX
  8
01
  5
BEEA
 10
755.138
 20
-654.133
 30
0.000000
  70
    32
  0
VERTEX
  8
01
  5
BEEB
 10
755.183
 20
-654.254
 30
0.000000
  70
    32
  0
VERTEX
  8
01
  5
BEEC
 10
755.226
 20
-654.376
 30
0.000000
  70
    32
  0
VERTEX
  8
01
  5
BEED
 10
755.269
 20
-654.500
 30
0.000000
  70
    32
  0
VERTEX
  8
01
  5
BEEE
 10
755.311
 20
-654.625
 30
0.000000
  70
    32
  0
VERTEX
  8
01
  5
BEEF
 10
755.353
 20
-654.751
 30
0.000000
  70
    32
  0
VERTEX
  8
01
  5
BEF0
 10
755.394
 20
-654.878
 30
0.000000
  70
    32
  0
VERTEX
  8
01
  5
BEF1
 10
755.434
 20
-655.007
 30
0.000000
  70
    32
  0
VERTEX
  8
01
  5
BEF2
 10
755.474
 20
-655.137
 30
0.000000
  70
    32
  0
VERTEX
  8
01
  5
BEF3
 10
755.513
 20
-655.268
 30
0.000000
  70
    32
  0
VERTEX
  8
01
  5
BEF4
 10
755.552
 20
-655.401
 30
0.000000
  70
    32
  0
VERTEX
  8
01
  5
BEF5
 10
755.589
 20
-655.534
 30
0.000000
  70
    32
  0
VERTEX
  8
01
  5
BEF6
 10
755.627
 20
-655.669
 30
0.000000
  70
    32
  0
VERTEX
  8
01
  5
BEF7
 10
755.663
 20
-655.805
 30
0.000000
  70
    32
  0
VERTEX
  8
01
  5
BEF8
 10
755.699
 20
-655.942
 30
0.000000
  70
    32
  0
VERTEX
  8
01
  5
BEF9
 10
755.734
 20
-656.080
 30
0.000000
  70
    32
  0
VERTEX
  8
01
  5
BEFA
 10
755.769
 20
-656.219
 30
0.000000
  70
    32
  0
VERTEX
  8
01
  5
BEFB
 10
755.803
 20
-656.360
 30
0.000000
  70
    32
  0
VERTEX
  8
01
  5
BEFC
 10
755.836
 20
-656.501
 30
0.000000
  70
    32
  0
VERTEX
  8
01
  5
BEFD
 10
755.868
 20
-656.643
 30
0.000000
  70
    32
  0
VERTEX
  8
01
  5
BEFE
 10
755.900
 20
-656.786
 30
0.000000
  70
    32
  0
VERTEX
  8
01
  5
BEFF
 10
755.931
 20
-656.931
 30
0.000000
  70
    32
  0
VERTEX
  8
01
  5
BF00
 10
755.961
 20
-657.076
 30
0.000000
  70
    32
  0
VERTEX
  8
01
  5
BF01
 10
755.991
 20
-657.222
 30
0.000000
  70
    32
  0
VERTEX
  8
01
  5
BF02
 10
756.020
 20
-657.369
 30
0.000000
  70
    32
  0
VERTEX
  8
01
  5
BF03
 10
756.048
 20
-657.517
 30
0.000000
  70
    32
  0
VERTEX
  8
01
  5
BF04
 10
756.076
 20
-657.666
 30
0.000000
  70
    32
  0
VERTEX
  8
01
  5
BF05
 10
756.102
 20
-657.815
 30
0.000000
  70
    32
  0
VERTEX
  8
01
  5
BF06
 10
756.128
 20
-657.966
 30
0.000000
  70
    32
  0
VERTEX
  8
01
  5
BF07
 10
756.154
 20
-658.117
 30
0.000000
  70
    32
  0
VERTEX
  8
01
  5
BF08
 10
756.178
 20
-658.269
 30
0.000000
  70
    32
  0
VERTEX
  8
01
  5
BF09
 10
756.202
 20
-658.422
 30
0.000000
  70
    32
  0
VERTEX
  8
01
  5
BF0A
 10
756.225
 20
-658.575
 30
0.000000
  70
    32
  0
VERTEX
  8
01
  5
BF0B
 10
756.248
 20
-658.729
 30
0.000000
  70
    32
  0
VERTEX
  8
01
  5
BF0C
 10
756.269
 20
-658.884
 30
0.000000
  70
    32
  0
VERTEX
  8
01
  5
BF0D
 10
756.290
 20
-659.040
 30
0.000000
  70
    32
  0
VERTEX
  8
01
  5
BF0E
 10
756.310
 20
-659.196
 30
0.000000
  70
    32
  0
VERTEX
  8
01
  5
BF0F
 10
756.329
 20
-659.352
 30
0.000000
  70
    32
  0
VERTEX
  8
01
  5
BF10
 10
756.348
 20
-659.510
 30
0.000000
  70
    32
  0
VERTEX
  8
01
  5
BF11
 10
756.366
 20
-659.668
 30
0.000000
  70
    32
  0
VERTEX
  8
01
  5
BF12
 10
756.383
 20
-659.826
 30
0.000000
  70
    32
  0
VERTEX
  8
01
  5
BF13
 10
756.399
 20
-659.985
 30
0.000000
  70
    32
  0
VERTEX
  8
01
  5
BF14
 10
756.414
 20
-660.144
 30
0.000000
  70
    32
  0
VERTEX
  8
01
  5
BF15
 10
756.429
 20
-660.304
 30
0.000000
  70
    32
  0
VERTEX
  8
01
  5
BF16
 10
756.443
 20
-660.465
 30
0.000000
  70
    32
  0
VERTEX
  8
01
  5
BF17
 10
756.456
 20
-660.625
 30
0.000000
  70
    32
  0
VERTEX
  8
01
  5
BF18
 10
756.468
 20
-660.786
 30
0.000000
  70
    32
  0
VERTEX
  8
01
  5
BF19
 10
756.480
 20
-660.948
 30
0.000000
  70
    32
  0
VERTEX
  8
01
  5
BF1A
 10
756.490
 20
-661.110
 30
0.000000
  70
    32
  0
VERTEX
  8
01
  5
BF1B
 10
756.500
 20
-661.272
 30
0.000000
  70
    32
  0
VERTEX
  8
01
  5
BF1C
 10
756.510
 20
-661.434
 30
0.000000
  70
    32
  0
VERTEX
  8
01
  5
BF1D
 10
756.518
 20
-661.597
 30
0.000000
  70
    32
  0
VERTEX
  8
01
  5
BF1E
 10
756.526
 20
-661.760
 30
0.000000
  70
    32
  0
VERTEX
  8
01
  5
BF1F
 10
756.532
 20
-661.923
 30
0.000000
  70
    32
  0
VERTEX
  8
01
  5
BF20
 10
756.538
 20
-662.087
 30
0.000000
  70
    32
  0
VERTEX
  8
01
  5
BF21
 10
756.543
 20
-662.250
 30
0.000000
  70
    32
  0
VERTEX
  8
01
  5
BF22
 10
756.548
 20
-662.414
 30
0.000000
  70
    32
  0
VERTEX
  8
01
  5
BF23
 10
756.551
 20
-662.578
 30
0.000000
  70
    32
  0
VERTEX
  8
01
  5
BF24
 10
756.554
 20
-662.742
 30
0.000000
  70
    32
  0
VERTEX
  8
01
  5
BF25
 10
756.556
 20
-662.906
 30
0.000000
  70
    32
  0
VERTEX
  8
01
  5
BF26
 10
756.557
 20
-663.070
 30
0.000000
  70
    32
  0
VERTEX
  8
01
  5
BF27
 10
756.558
 20
-663.234
 30
0.000000
  70
    32
  0
SEQEND
  8
01
  5
BF28
  0
ARC
  5
B5FE
  8
01
 10
755.03342605673515
 20
-676.12886592751693
 30
0.0
 40
28.416631617726772
 50
57.419184294336361
 51
102.0879899628173
  0
LINE
  5
B5FF
  8
01
 10
694.1876731663242
 20
-663.23408159774419
 30
0.0
 11
634.1876731663242
 21
-663.23408159774419
 31
0.0
  0
LINE
  5
B600
  8
01
 10
664.18767316632409
 20
-633.23408159774419
 30
0.0
 11
664.18767316632409
 21
-693.23408159774419
 31
0.0
  0
ARC
  5
B601
  8
01
 10
664.18767316632409
 20
-663.23408159774419
 30
0.0
 40
25.0
 50
191.8421501450139
 51
145.34988135565351
  0
ARC
  5
B602
  8
01
 10
562.25510769667653
 20
-664.88576598332475
 30
0.0
 40
12.11544485022983
 50
151.80517535391161
 51
179.73636418046581
  0
ARC
  5
B603
  8
01
 10
564.18640630406935
 20
-665.01539914284433
 30
0.0
 40
14.050000000000001
 50
179.9925577258573
 51
210.00000000003249
  0
LINE
  5
B604
  8
01
 10
550.1397673553538
 20
-664.83208572587421
 30
0.0
 11
550.13638109049225
 21
-665.01631136897333
 31
0.0
  0
ARC
  5
B605
  8
01
 10
553.78595018960823
 20
-661.65224445826698
 30
0.0
 40
3.0499999999999989
 50
107.7726407989914
 51
159.10316029953839
  0
ARC
  5
B606
  8
01
 10
621.81768814347095
 20
-873.89444394819509
 30
0.0
 40
225.92904480535049
 50
78.627861946457614
 51
108.11324779854441
  0
ARC
  5
B607
  8
01
 10
664.18767316632409
 20
-663.23408159774419
 30
0.0
 40
11.050000000000001
 50
254.2478015437525
 51
78.627861946457614
  0
ARC
  5
B608
  8
01
 10
535.44258337391057
 20
-1119.662698692008
 30
0.0
 40
463.18873802994909
 50
74.247801543752573
 51
82.297983016992518
  0
ARC
  5
B609
  8
01
 10
594.84591371371334
 20
-680.42264674441731
 30
0.0
 40
19.949999999999999
 50
82.297983016992518
 51
107.63879005155999
  0
ARC
  5
B60A
  8
01
 10
634.23788255637089
 20
-804.31079303250692
 30
0.0
 40
149.94999999999999
 50
101.1669260155722
 51
113.3703949493334
  0
ARC
  5
B60B
  8
01
 10
535.06947538710392
 20
-574.82086510644206
 30
0.0
 40
100.05
 50
281.0150954219539
 51
293.37039494933339
  0
ARC
  5
B60C
  8
01
 10
553.79410145865666
 20
-671.01539914284433
 30
0.0
 40
2.0499999999999989
 50
210.00000000003249
 51
327.2886183194156
  0
ARC
  5
B60D
  8
01
 10
552.89027597985023
 20
-661.13341878165022
 30
0.0
 40
2.0344389403939038
 50
36.085053900522951
 51
136.3952631360757
  0
ARC
  5
B60E
  8
01
 10
555.82732255266717
 20
-666.60591797837378
 30
0.0
 40
1.8
 50
348.9991146424677
 51
16.098330509341981
  0
ARC
  5
B60F
  8
01
 10
538.53315233752892
 20
-671.59707782051748
 30
0.0
 40
19.800000000000001
 50
16.098330509341981
 51
36.085053900522951
  0
ARC
  5
B610
  8
01
 10
543.06620749932063
 20
-664.1252038482786
 30
0.0
 40
14.800000000000001
 50
327.2886183194156
 51
348.9991146424677
  0
TEXT
  5
B62A
  8
01
 10
648.94691791791513
 20
-386.72093360312817
 30
0.0
 40
20.0
  1
1-S1C-X-LW
  0
LINE
  5
B62C
  8
01
 10
648.94691791791513
 20
-448.22093360312817
 30
0.0
 11
753.94691791791513
 21
-448.22093360312817
 31
0.0
  0
TEXT
  5
B62D
  8
01
 10
657.84691791791454
 20
-445.68730402048442
 30
0.0
 40
6.0
  1
ヘアライン
 72
     1
 11
675.04691791791458
 21
-445.68730402048442
 31
0.0
  0
TEXT
  5
B62E
  8
01
 10
661.44691791791445
 20
-424.97093360312817
 30
0.0
 40
6.0
  1
表面処理
 72
     1
 11
675.04691791791458
 21
-424.97093360312817
 31
0.0
  0
TEXT
  5
B62F
  8
01
 10
668.64691791791449
 20
-435.22386659241471
 30
0.0
 40
6.0
  1
鏡面
 72
     1
 11
675.04691791791458
 21
-435.22386659241471
 31
0.0
  0
LINE
  5
B630
  8
01
 10
648.94691791791513
 20
-416.72093360312812
 30
0.0
 11
753.94691791791513
 21
-416.72093360312812
 31
0.0
  0
LINE
  5
B631
  8
01
 10
648.94691791791513
 20
-427.22093360312817
 30
0.0
 11
753.94691791791513
 21
-427.22093360312817
 31
0.0
  0
LINE
  5
B632
  8
01
 10
648.94691791791513
 20
-437.72093360312812
 30
0.0
 11
753.94691791791513
 21
-437.72093360312812
 31
0.0
  0
LINE
  5
B633
  8
01
 10
648.94691791791513
 20
-437.72093360312812
 30
0.0
 11
753.94691791791513
 21
-437.72093360312812
 31
0.0
  0
LINE
  5
B634
  8
01
 10
701.44691791791513
 20
-416.72093360312812
 30
0.0
 11
701.44691791791513
 21
-458.72093360312812
 31
0.0
  0
TEXT
  5
B635
  8
01
 10
705.04691791791595
 20
-435.79246907860221
 30
0.0
 40
6.0
  1
1-S1C-P-LW
 41
0.7
 72
     1
 11
727.54691791791595
 21
-435.79246907860221
 31
0.0
  0
TEXT
  5
B636
  8
01
 10
717.34691791791454
 20
-424.97093360312817
 30
0.0
 40
6.0
  1
コード
 72
     1
 11
727.54691791791458
 21
-424.97093360312817
 31
0.0
  0
LINE
  5
B637
  8
01
 10
648.94691791791513
 20
-458.72093360312812
 30
0.0
 11
753.94691791791513
 21
-458.72093360312812
 31
0.0
  0
TEXT
  5
B638
  8
01
 10
652.87548934648601
 20
-456.18730402048448
 30
0.0
 40
6.0
  1
鏡面+ヘアライン
 41
0.8
 72
     1
 11
675.04691791791458
 21
-456.18730402048448
 31
0.0
  0
LINE
  5
B639
  8
01
 10
648.94691791791513
 20
-458.72093360312812
 30
0.0
 11
648.94691791791513
 21
-416.72093360312812
 31
0.0
  0
LINE
  5
B63A
  8
01
 10
753.94691791791513
 20
-458.72093360312812
 30
0.0
 11
753.94691791791513
 21
-416.72093360312812
 31
0.0
  0
TEXT
  5
B63B
  8
01
 10
705.54691791791595
 20
-446.29246907860232
 30
0.0
 40
6.0
  1
1-S1C-T-LW
 41
0.7
 72
     1
 11
727.54691791791595
 21
-446.29246907860232
 31
0.0
  0
TEXT
  5
B63C
  8
01
 10
703.44691791791593
 20
-456.79246907860221
 30
0.0
 40
6.0
  1
1-S1C-PT-LW
 41
0.7
 72
     1
 11
727.54691791791595
 21
-456.79246907860221
 31
0.0
  0
LINE
  5
B644
  8
01
 10
980.18778150606965
 20
-364.73408159877278
 30
0.0
 11
1028.18778150607
 21
-364.73408159877278
 31
0.0
  0
LINE
  5
B645
  8
01
 10
979.18778150606965
 20
-373.23408159877278
 30
0.0
 11
979.18778150606965
 21
-365.73408159877278
 31
0.0
  0
ARC
  5
B646
  8
01
 10
980.18778150606965
 20
-365.73408159877272
 30
0.0
 40
1.0
 50
90.000000000000028
 51
180.0
  0
LINE
  5
B647
  8
01
 10
1029.1877815060691
 20
-373.23408159877278
 30
0.0
 11
1029.1877815060691
 21
-365.73408159877278
 31
0.0
  0
ARC
  5
B648
  8
01
 10
1028.18778150607
 20
-365.73408159877272
 30
0.0
 40
1.0
 50
0.0
 51
90.000000000000028
  0
LINE
  5
B649
  8
01
 10
996.23778450606653
 20
-364.73408159877278
 30
0.0
 11
1012.137778506066
 21
-364.73408159877278
 31
0.0
  0
LINE
  5
B64A
  8
01
 10
1015.237781506069
 20
-364.23408159877278
 30
0.0
 11
1015.237781506069
 21
-334.96025211028052
 31
0.0
  0
ARC
  5
B64B
  8
01
 10
1023.307415082102
 20
-341.06989229111821
 30
0.0
 40
11.949999999999999
 50
91.906390930695764
 51
115.1589492455185
  0
LINE
  5
B64C
  8
01
 10
1022.909878499399
 20
-329.1265064786524
 30
0.0
 11
1116.4989283556779
 21
-326.01138722834492
 31
0.0
  0
ARC
  5
B64D
  8
01
 10
994.93778150606977
 20
-320.87109044007298
 30
0.0
 40
1.8
 50
99.620959777965808
 51
180.0
  0
ARC
  5
B64E
  8
01
 10
1116.4390483683251
 20
-324.21238350763889
 30
0.0
 40
1.8
 50
271.90639093069581
 51
12.80746219395836
  0
ARC
  5
B64F
  8
01
 10
1109.3062077723009
 20
-301.48408159877317
 30
0.0
 40
1.8
 50
22.039462724611202
 51
99.620959777965808
  0
ARC
  5
B650
  8
01
 10
972.1212156128322
 20
-357.02035736701788
 30
0.0
 40
149.80000000000001
 50
12.80746219395836
 51
22.039462724611202
  0
ARC
  5
B651
  8
01
 10
1020.437781506069
 20
-334.96025211028052
 30
0.0
 40
5.2000000000000002
 50
115.158949245632
 51
180.0
  0
LINE
  5
B652
  8
01
 10
1015.237781506069
 20
-364.23408159877278
 30
0.0
 11
993.13778150607084
 21
-364.23408159877278
 31
0.0
  0
LINE
  5
B653
  8
01
 10
1012.13778150607
 20
-364.23408159877278
 30
0.0
 11
1012.13778150607
 21
-364.73408159877278
 31
0.0
  0
LINE
  5
B654
  8
01
 10
996.23778150606995
 20
-364.23408159877278
 30
0.0
 11
996.23778150606904
 21
-364.73408159877278
 31
0.0
  0
LINE
  5
B655
  8
01
 10
993.13778150607038
 20
-364.23408159877278
 30
0.0
 11
993.13778150607129
 21
-320.87109044007298
 31
0.0
  0
LINE
  5
B656
  8
01
 10
994.6369485324376
 20
-319.09640750445408
 30
0.0
 11
1109.0053747986681
 21
-299.70939866315439
 31
0.0
  0
LINE
  5
B784
  8
01
 10
646.1876851663244
 20
-604.73408159774419
 30
0.0
 11
646.1876851663244
 21
-645.88479247371515
 31
0.0
  0
LINE
  5
B786
  8
01
 10
1022.187665166325
 20
-604.73408159774419
 30
0.0
 11
1022.187665166325
 21
-645.88480492373969
 31
0.0
  0
LINE
  5
B787
  8
01
  6
BYBLOCK
 10
1001.187665166325
 20
-604.73408159774419
 30
0.0
 11
1007.187665166325
 21
-604.73408159774419
 31
0.0
  0
LINE
  5
B788
  8
01
  6
BYBLOCK
 10
1014.187665166325
 20
-604.73408159774419
 30
0.0
 11
1022.187665166325
 21
-604.73408159774419
 31
0.0
  0
LINE
  5
B789
  8
01
  6
BYBLOCK
 10
1001.187665166325
 20
-605.7340815977434
 30
0.0
 11
1001.187665166325
 21
-604.73408159774419
 31
0.0
  0
LINE
  5
B78A
  8
01
  6
BYBLOCK
 10
1007.187665166325
 20
-605.73408159774419
 30
0.0
 11
1007.187665166325
 21
-604.73408159774419
 31
0.0
  0
ARC
  5
B78B
  8
01
  6
BYBLOCK
 10
997.68766516632479
 20
-605.73408159774419
 30
0.0
 40
3.5
 50
179.99999999998701
 51
0.0000000000130276
  0
ARC
  5
B78C
  8
01
  6
BYBLOCK
 10
1010.687665166325
 20
-605.73408159774419
 30
0.0
 40
3.5
 50
180.0
 51
0.0
  0
CIRCLE
  5
B78D
  8
01
  6
BYBLOCK
 10
1004.187665166036
 20
-613.23408159803284
 30
0.0
 40
6.0
  0
LINE
  5
B78E
  8
01
  6
BYBLOCK
 10
994.18766516632479
 20
-604.73408159774419
 30
0.0
 11
956.18766516632513
 21
-604.73408159774419
 31
0.0
  0
LINE
  5
B78F
  8
01
  6
BYBLOCK
 10
994.18766516632456
 20
-605.7340815977434
 30
0.0
 11
994.18766516632479
 21
-604.73408159774419
 31
0.0
  0
LINE
  5
B790
  8
01
  6
BYBLOCK
 10
1014.187665166325
 20
-605.73408159774419
 30
0.0
 11
1014.187665166325
 21
-604.73408159774419
 31
0.0
  0
LINE
  5
B791
  8
01
  6
BYBLOCK
 10
1004.187665166036
 20
-616.78408150471444
 30
0.0
 11
1007.737665072718
 21
-613.23408159803284
 31
0.0
  0
LINE
  5
B792
  8
01
  6
BYBLOCK
 10
1007.737665072718
 20
-613.23408159803284
 30
0.0
 11
1004.187665166036
 21
-609.68408169135137
 31
0.0
  0
LINE
  5
B793
  8
01
  6
BYBLOCK
 10
1000.637665259354
 20
-613.23408159803284
 30
0.0
 11
1004.187665166036
 21
-616.78408150471444
 31
0.0
  0
LINE
  5
B794
  8
01
  6
BYBLOCK
 10
1004.187665166036
 20
-609.68408169135137
 30
0.0
 11
1000.637665259354
 21
-613.23408159803284
 31
0.0
  0
LINE
  5
B795
  8
01
  6
BYBLOCK
 10
667.18767316632432
 20
-604.73408159774419
 30
0.0
 11
661.18767316632398
 21
-604.73408159774419
 31
0.0
  0
LINE
  5
B796
  8
01
  6
BYBLOCK
 10
654.18767316632409
 20
-604.73408159774419
 30
0.0
 11
646.1876851663244
 21
-604.73408159774419
 31
0.0
  0
LINE
  5
B797
  8
01
  6
BYBLOCK
 10
667.18767316632409
 20
-605.7340815977434
 30
0.0
 11
667.18767316632432
 21
-604.73408159774419
 31
0.0
  0
LINE
  5
B798
  8
01
  6
BYBLOCK
 10
661.18767316632398
 20
-605.73408159774419
 30
0.0
 11
661.18767316632398
 21
-604.73408159774419
 31
0.0
  0
ARC
  5
B799
  8
01
  6
BYBLOCK
 10
670.68767316632432
 20
-605.73408159774419
 30
0.0
 40
3.5
 50
179.99999999998701
 51
0.0000000000130276
  0
ARC
  5
B79A
  8
01
  6
BYBLOCK
 10
657.68767316632398
 20
-605.73408159774419
 30
0.0
 40
3.5
 50
180.0
 51
0.0
  0
CIRCLE
  5
B79B
  8
01
  6
BYBLOCK
 10
664.18767316661285
 20
-613.23408159803284
 30
0.0
 40
6.0
  0
LINE
  5
B79C
  8
01
  6
BYBLOCK
 10
674.18767316632432
 20
-604.73408159774419
 30
0.0
 11
712.18767316632409
 21
-604.73408159774419
 31
0.0
  0
LINE
  5
B79D
  8
01
  6
BYBLOCK
 10
674.18767316632454
 20
-605.7340815977434
 30
0.0
 11
674.18767316632432
 21
-604.73408159774419
 31
0.0
  0
LINE
  5
B79E
  8
01
  6
BYBLOCK
 10
654.18767316632409
 20
-605.73408159774419
 30
0.0
 11
654.18767316632409
 21
-604.73408159774419
 31
0.0
  0
LINE
  5
B79F
  8
01
  6
BYBLOCK
 10
664.18767316661285
 20
-616.78408150471444
 30
0.0
 11
660.63767325993126
 21
-613.23408159803284
 31
0.0
  0
LINE
  5
B7A0
  8
01
  6
BYBLOCK
 10
660.63767325993126
 20
-613.23408159803284
 30
0.0
 11
664.18767316661285
 21
-609.68408169135137
 31
0.0
  0
LINE
  5
B7A1
  8
01
  6
BYBLOCK
 10
667.73767307329445
 20
-613.23408159803284
 30
0.0
 11
664.18767316661285
 21
-616.78408150471444
 31
0.0
  0
LINE
  5
B7A2
  8
01
  6
BYBLOCK
 10
664.18767316661285
 20
-609.68408169135137
 30
0.0
 11
667.73767307329445
 21
-613.23408159803284
 31
0.0
  0
LINE
  5
B7A3
  8
01
  6
BYBLOCK
 10
1010.188549348096
 20
-382.98408159877272
 30
0.0
 11
998.18854934809622
 21
-382.98408159877272
 31
0.0
  0
LINE
  5
B7A4
  8
01
  6
BYBLOCK
 10
998.18854934809622
 20
-403.48408159877272
 30
0.0
 11
1010.188549348096
 21
-403.48408159877272
 31
0.0
  0
LINE
  5
B7A5
  8
01
  6
BYBLOCK
 10
998.18854934809622
 20
-403.48408159877272
 30
0.0
 11
998.18854934809622
 21
-402.73408159877249
 31
0.0
  0
LINE
  5
B7A6
  8
01
  6
BYBLOCK
 10
998.18854934809622
 20
-383.73408159877272
 30
0.0
 11
998.18854934809622
 21
-382.98408159877272
 31
0.0
  0
LINE
  5
B7A7
  8
01
  6
BYBLOCK
 10
1010.188549348096
 20
-403.48408159877272
 30
0.0
 11
1010.188549348096
 21
-402.73408159877249
 31
0.0
  0
LINE
  5
B7A8
  8
01
  6
BYBLOCK
 10
1010.188549348096
 20
-383.73408159877272
 30
0.0
 11
1010.188549348096
 21
-382.98408159877272
 31
0.0
  0
LINE
  5
B7AA
  8
01
 10
1015.4995534335779
 20
-613.23408159803284
 30
0.0
 11
992.87577689849445
 21
-613.23408159803284
 31
0.0
  0
LINE
  5
B7AB
  8
01
 10
1004.187665166036
 20
-601.92219333049115
 30
0.0
 11
1004.187665166036
 21
-624.54596986557465
 31
0.0
  0
LINE
  5
B7D6
  8
01
 10
1022.187665166325
 20
-645.88480492373969
 30
0.0
 11
1022.187665166325
 21
-679.23408159774397
 31
0.0
  0
LINE
  5
B7D7
  8
01
 10
1022.187665166325
 20
-679.23408159774397
 30
0.0
 11
984.97829245402636
 21
-679.23408159774397
 31
0.0
  0
TEXT
  5
B8EF
  8
01
 10
931.57082625934174
 20
-443.6507482654394
 30
0.0
 40
4.5499999999999989
  1
材質：ステンレス
  0
TEXT
  5
B8F0
  8
01
 10
925.50415959267514
 20
-451.23408159877272
 30
0.0
 40
4.5499999999999989
  1
仕上げ：各種仕上げ
  0
SOLID
  5
B8F1
  8
01
 10
1001.610520805609
 20
-432.38806973868282
 30
0.0
 11
1003.928266406386
 21
-431.13274782464748
 31
0.0
 12
1002.142935783176
 22
-433.0719157760139
 32
0.0
 13
1002.142935783176
 23
-433.0719157760139
 33
0.0
1001
ACAD
1000
DSTYLE
1002
{
1070
    40
1040
1.3
1002
}
  0
LINE
  5
B8F3
  8
01
 10
1010.188549348096
 20
-382.98408159877272
 30
0.0
 11
1045.3489401080969
 21
-382.98408159877272
 31
0.0
  0
LINE
  5
B8F4
  8
01
 10
1010.188549348096
 20
-403.48408159877272
 30
0.0
 11
1045.3489401080969
 21
-403.48408159877272
 31
0.0
  0
LINE
  5
B8F5
  8
01
 10
1044.0489401080979
 20
-385.58408159877268
 30
0.0
 11
1044.0489401080979
 21
-400.8840815987727
 31
0.0
  0
LINE
  5
B8F9
  8
01
 10
1022.187665166325
 20
-604.73408159774419
 30
0.0
 11
1050.687538378186
 21
-604.73408159774419
 31
0.0
  0
LINE
  5
B8FA
  8
01
 10
1022.187665166325
 20
-679.23408159774397
 30
0.0
 11
1050.687538378186
 21
-679.23408159774397
 31
0.0
  0
LINE
  5
B8FB
  8
01
 10
1049.387538378186
 20
-607.33408159774422
 30
0.0
 11
1049.387538378186
 21
-676.63408159774394
 31
0.0
  0
LINE
  5
B8FF
  8
01
 10
1106.942929503417
 20
-413.23408159877272
 30
0.0
 11
1139.5390483683241
 21
-413.23408159877272
 31
0.0
  0
LINE
  5
B900
  8
01
 10
1109.3062077723009
 20
-486.78408159877222
 30
0.0
 11
1139.5390483683241
 21
-486.78408159877222
 31
0.0
  0
LINE
  5
B901
  8
01
 10
1138.239048368325
 20
-415.83408159877268
 30
0.0
 11
1138.239048368325
 21
-484.1840815987722
 31
0.0
  0
LINE
  5
B905
  8
01
 10
1106.942929503417
 20
-413.23408159877272
 30
0.0
 11
1129.5390483683241
 21
-413.23408159877272
 31
0.0
  0
LINE
  5
B906
  8
01
 10
1116.498928355677
 20
-460.45677596920029
 30
0.0
 11
1129.5390483683241
 21
-460.45677596920029
 31
0.0
  0
LINE
  5
B907
  8
01
 10
1128.239048368325
 20
-415.83408159877268
 30
0.0
 11
1128.239048368325
 21
-457.85677596920038
 31
0.0
  0
LINE
  5
B90B
  8
01
 10
993.13778150607129
 20
-465.5970727574724
 30
0.0
 11
993.13778150607129
 21
-508.08408159877217
 31
0.0
  0
LINE
  5
B90C
  8
01
 10
1118.239048368325
 20
-462.25577968990649
 30
0.0
 11
1118.239048368325
 21
-508.08408159877217
 31
0.0
  0
LINE
  5
B90D
  8
01
 10
995.73778150607154
 20
-506.78408159877222
 30
0.0
 11
1115.6390483683249
 21
-506.78408159877222
 31
0.0
  0
LINE
  5
B911
  8
01
 10
1004.18778150607
 20
-433.02529148562002
 30
0.0
 11
1004.18778150607
 21
-498.08408159877217
 31
0.0
  0
LINE
  5
B912
  8
01
 10
1118.239048368325
 20
-462.25577968990649
 30
0.0
 11
1118.239048368325
 21
-498.08408159877217
 31
0.0
  0
LINE
  5
B913
  8
01
 10
1006.787781506069
 20
-496.78408159877222
 30
0.0
 11
1115.6390483683249
 21
-496.78408159877222
 31
0.0
  0
POINT
  5
B917
  8
01
 10
868.68766916632467
 20
-663.23408159774419
 30
0.0
  0
LINE
  5
B918
  8
01
 10
868.28766915632468
 20
-664.98408159774419
 30
0.0
 11
868.28766915632468
 21
-664.13408157774404
 31
0.0
  0
LINE
  5
B919
  8
01
 10
869.08766917632465
 20
-664.98408159774419
 30
0.0
 11
869.08766917632465
 21
-664.13408157774404
 31
0.0
  0
LINE
  5
B91A
  8
01
 10
867.78766918632482
 20
-663.63408160774406
 30
0.0
 11
866.93766916632467
 21
-663.63408160774406
 31
0.0
  0
LINE
  5
B91B
  8
01
 10
867.78766918632482
 20
-662.83408158774421
 30
0.0
 11
866.93766916632467
 21
-662.83408158774421
 31
0.0
  0
LINE
  5
B91C
  8
01
 10
866.93766916632467
 20
-663.63408160774406
 30
0.0
 11
866.93766916632467
 21
-662.83408158774421
 31
0.0
  0
LINE
  5
B91D
  8
01
 10
869.08766917632465
 20
-664.98408159774419
 30
0.0
 11
868.28766915632468
 21
-664.98408159774419
 31
0.0
  0
LINE
  5
B91E
  8
01
 10
869.08766917632465
 20
-661.48408159774419
 30
0.0
 11
869.08766917632465
 21
-662.33408161774435
 31
0.0
  0
LINE
  5
B91F
  8
01
 10
868.28766915632468
 20
-661.48408159774419
 30
0.0
 11
868.28766915632468
 21
-662.33408161774435
 31
0.0
  0
LINE
  5
B920
  8
01
 10
869.58766914632452
 20
-662.83408158774421
 30
0.0
 11
870.43766916632467
 21
-662.83408158774421
 31
0.0
  0
LINE
  5
B921
  8
01
 10
869.58766914632452
 20
-663.63408160774406
 30
0.0
 11
870.43766916632467
 21
-663.63408160774406
 31
0.0
  0
LINE
  5
B922
  8
01
 10
870.43766916632467
 20
-662.83408158774421
 30
0.0
 11
870.43766916632467
 21
-663.63408160774406
 31
0.0
  0
LINE
  5
B923
  8
01
 10
868.28766915632468
 20
-661.48408159774419
 30
0.0
 11
869.08766917632465
 21
-661.48408159774419
 31
0.0
  0
CIRCLE
  5
B924
  8
01
 10
868.68766916632467
 20
-663.23408159774419
 30
0.0
 40
2.5
  0
ARC
  5
B925
  8
01
 10
869.58766914632452
 20
-662.33408161774435
 30
0.0
 40
0.5
 50
179.999989999999
 51
270.0
  0
ARC
  5
B926
  8
01
 10
869.58766914632452
 20
-664.13408157774404
 30
0.0
 40
0.5
 50
90.00000299999769
 51
180.000010000001
  0
ARC
  5
B927
  8
01
 10
867.78766918632482
 20
-664.13408157774404
 30
0.0
 40
0.5
 50
0.0
 51
90.00000299999769
  0
ARC
  5
B928
  8
01
 10
867.78766918632482
 20
-662.33408161774435
 30
0.0
 40
0.5
 50
270.0
 51
0.0
  0
LINE
  5
B92A
  8
01
 10
1004.187665166325
 20
-638.23408159774419
 30
0.0
 11
967.88766516632495
 21
-638.23408159774419
 31
0.0
  0
LINE
  5
B92B
  8
01
 10
1004.187665166325
 20
-688.23408159774328
 30
0.0
 11
967.88766516632495
 21
-688.23408159774328
 31
0.0
  0
LINE
  5
B92C
  8
01
 10
969.18766516632502
 20
-640.8340815977441
 30
0.0
 11
969.18766516632502
 21
-685.63408159774315
 31
0.0
  0
LINE
  5
B930
  8
01
 10
800.98670727200124
 20
-662.48408159774408
 30
0.0
 11
799.68766916632455
 21
-661.73408159774419
 31
0.0
  0
LINE
  5
B931
  8
01
 10
799.68766916632455
 20
-661.73408159774419
 30
0.0
 11
798.38863106064787
 21
-662.48408159774408
 31
0.0
  0
LINE
  5
B932
  8
01
 10
798.38863106064787
 20
-662.48408159774408
 30
0.0
 11
798.38863106064787
 21
-663.98408159774419
 31
0.0
  0
LINE
  5
B933
  8
01
 10
798.38863106064787
 20
-663.98408159774419
 30
0.0
 11
799.68766916632455
 21
-664.73408159774408
 31
0.0
  0
LINE
  5
B934
  8
01
 10
799.68766916632455
 20
-664.73408159774408
 30
0.0
 11
800.98670727200124
 21
-663.98408159774419
 31
0.0
  0
LINE
  5
B935
  8
01
 10
800.98670727200124
 20
-663.98408159774419
 30
0.0
 11
800.98670727200124
 21
-662.48408159774408
 31
0.0
  0
CIRCLE
  5
B936
  8
01
 10
799.68766916632455
 20
-663.23408159774419
 30
0.0
 40
3.0
  0
LINE
  5
B937
  8
01
 10
953.18766516632502
 20
-577.23408159774397
 30
0.0
 11
953.18766516632502
 21
-555.93408159774413
 31
0.0
  0
LINE
  5
B938
  8
01
 10
1004.187665166325
 20
-632.70371750690708
 30
0.0
 11
1004.187665166325
 21
-555.93408159774413
 31
0.0
  0
LINE
  5
B939
  8
01
 10
955.78766516632493
 20
-557.23408159774397
 30
0.0
 11
1001.587665166325
 21
-557.23408159774397
 31
0.0
  0
LINE
  5
B93D
  8
01
 10
1022.187665166325
 20
-605.23408159774408
 30
0.0
 11
1022.187665166325
 21
-545.93408159774413
 31
0.0
  0
LINE
  5
B93E
  8
01
 10
953.18766516632502
 20
-577.23408159774397
 30
0.0
 11
953.18766516632502
 21
-545.93408159774413
 31
0.0
  0
LINE
  5
B93F
  8
01
 10
1019.587665166325
 20
-547.23408159774408
 30
0.0
 11
955.78766516632493
 21
-547.23408159774408
 31
0.0
  0
LINE
  5
B943
  8
01
 10
942.18766516632502
 20
-635.23408229587494
 30
0.0
 11
942.18766516632502
 21
-555.93408159774413
 31
0.0
  0
LINE
  5
B944
  8
01
 10
953.18766516632502
 20
-577.23408159774397
 30
0.0
 11
953.18766516632502
 21
-555.93408159774413
 31
0.0
  0
LINE
  5
B945
  8
01
 10
944.78766516632504
 20
-557.23408159774397
 30
0.0
 11
950.587665166325
 21
-557.23408159774397
 31
0.0
  0
LINE
  5
B949
  8
01
 10
821.68766916632444
 20
-583.23408159774397
 30
0.0
 11
821.68766916632444
 21
-555.93408159774413
 31
0.0
  0
LINE
  5
B94A
  8
01
 10
846.68766916632444
 20
-583.23408159774397
 30
0.0
 11
846.68766916632444
 21
-555.93408159774413
 31
0.0
  0
LINE
  5
B94B
  8
01
 10
824.28766916632458
 20
-557.23408159774397
 30
0.0
 11
844.08766916632453
 21
-557.23408159774397
 31
0.0
  0
LINE
  5
B94F
  8
01
 10
840.68766916632455
 20
-577.23408159774397
 30
0.0
 11
895.48766916632439
 21
-577.23408159774397
 31
0.0
  0
LINE
  5
B950
  8
01
 10
840.68766916632455
 20
-707.23408159774397
 30
0.0
 11
895.48766916632439
 21
-707.23408159774397
 31
0.0
  0
LINE
  5
B951
  8
01
 10
894.18766916632455
 20
-579.83408159774399
 30
0.0
 11
894.18766916632455
 21
-704.63408159774394
 31
0.0
  0
LINE
  5
B955
  8
01
 10
840.68766916632455
 20
-585.23408159774408
 30
0.0
 11
879.99126020288111
 21
-585.23408159774408
 31
0.0
  0
LINE
  5
B956
  8
01
 10
840.68766916632455
 20
-699.23408159774397
 30
0.0
 11
879.99126020288111
 21
-699.23408159774397
 31
0.0
  0
LINE
  5
B957
  8
01
 10
878.69126020288127
 20
-587.83408159774399
 30
0.0
 11
878.69126020288127
 21
-696.63408159774394
 31
0.0
  0
TEXT
  5
B95B
  8
01
 10
877.78126020288153
 20
-631.35369425076237
 30
0.0
 40
4.5499999999999989
  1
114
 50
90.0
  0
LINE
  5
B95C
  8
01
  6
BYBLOCK
 10
879.3879280968813
 20
-696.63408159774394
 30
0.0
 11
878.69126020288127
 21
-699.23408159774397
 31
0.0
  0
LINE
  5
B95D
  8
01
  6
BYBLOCK
 10
878.69126020288127
 20
-699.23408159774397
 30
0.0
 11
877.99459230888124
 21
-696.63408159774394
 31
0.0
  0
LINE
  5
B95E
  8
01
  6
BYBLOCK
 10
878.69126020288127
 20
-699.23408159774397
 30
0.0
 11
878.69126020288127
 21
-696.63408159774394
 31
0.0
  0
LINE
  5
B95F
  8
01
  6
BYBLOCK
 10
877.99459230888124
 20
-587.83408159774399
 30
0.0
 11
878.69126020288127
 21
-585.23408159774408
 31
0.0
  0
LINE
  5
B960
  8
01
  6
BYBLOCK
 10
878.69126020288127
 20
-585.23408159774408
 30
0.0
 11
879.3879280968813
 21
-587.83408159774399
 31
0.0
  0
LINE
  5
B961
  8
01
  6
BYBLOCK
 10
878.69126020288127
 20
-585.23408159774408
 30
0.0
 11
878.69126020288127
 21
-587.83408159774399
 31
0.0
  0
TEXT
  5
B962
  8
01
 10
893.27766916632481
 20
-631.24536091742914
 30
0.0
 40
4.5499999999999989
  1
130
 50
90.0
  0
LINE
  5
B963
  8
01
  6
BYBLOCK
 10
894.88433706032447
 20
-704.63408159774394
 30
0.0
 11
894.18766916632455
 21
-707.23408159774397
 31
0.0
  0
LINE
  5
B964
  8
01
  6
BYBLOCK
 10
894.18766916632455
 20
-707.23408159774397
 30
0.0
 11
893.49100127232452
 21
-704.63408159774394
 31
0.0
  0
LINE
  5
B965
  8
01
  6
BYBLOCK
 10
894.18766916632455
 20
-707.23408159774397
 30
0.0
 11
894.18766916632455
 21
-704.63408159774394
 31
0.0
  0
LINE
  5
B966
  8
01
  6
BYBLOCK
 10
893.49100127232452
 20
-579.83408159774399
 30
0.0
 11
894.18766916632455
 21
-577.23408159774397
 31
0.0
  0
LINE
  5
B967
  8
01
  6
BYBLOCK
 10
894.18766916632455
 20
-577.23408159774397
 30
0.0
 11
894.88433706032447
 21
-579.83408159774399
 31
0.0
  0
LINE
  5
B968
  8
01
  6
BYBLOCK
 10
894.18766916632455
 20
-577.23408159774397
 30
0.0
 11
894.18766916632455
 21
-579.83408159774399
 31
0.0
  0
TEXT
  5
B969
  8
01
 10
829.8543358329913
 20
-556.32408159774411
 30
0.0
 40
4.5499999999999989
  1
25
  0
LINE
  5
B96A
  8
01
  6
BYBLOCK
 10
844.08766916632453
 20
-556.53741370374405
 30
0.0
 11
846.68766916632444
 21
-557.23408159774397
 31
0.0
  0
LINE
  5
B96B
  8
01
  6
BYBLOCK
 10
846.68766916632444
 20
-557.23408159774397
 30
0.0
 11
844.08766916632453
 21
-557.93074949174411
 31
0.0
  0
LINE
  5
B96C
  8
01
  6
BYBLOCK
 10
846.68766916632444
 20
-557.23408159774397
 30
0.0
 11
844.08766916632453
 21
-557.23408159774397
 31
0.0
  0
LINE
  5
B96D
  8
01
  6
BYBLOCK
 10
824.28766916632458
 20
-557.93074949174411
 30
0.0
 11
821.68766916632444
 21
-557.23408159774397
 31
0.0
  0
LINE
  5
B96E
  8
01
  6
BYBLOCK
 10
821.68766916632444
 20
-557.23408159774397
 30
0.0
 11
824.28766916632458
 21
-556.53741370374405
 31
0.0
  0
LINE
  5
B96F
  8
01
  6
BYBLOCK
 10
821.68766916632444
 20
-557.23408159774397
 30
0.0
 11
824.28766916632458
 21
-557.23408159774397
 31
0.0
  0
TEXT
  5
B970
  8
01
 10
943.67933183299158
 20
-556.32408159774411
 30
0.0
 40
4.5499999999999989
  1
11
  0
LINE
  5
B971
  8
01
  6
BYBLOCK
 10
950.587665166325
 20
-556.53741370374405
 30
0.0
 11
953.18766516632502
 21
-557.23408159774397
 31
0.0
  0
LINE
  5
B972
  8
01
  6
BYBLOCK
 10
953.18766516632502
 20
-557.23408159774397
 30
0.0
 11
950.587665166325
 21
-557.93074949174411
 31
0.0
  0
LINE
  5
B973
  8
01
  6
BYBLOCK
 10
953.18766516632502
 20
-557.23408159774397
 30
0.0
 11
950.587665166325
 21
-557.23408159774397
 31
0.0
  0
LINE
  5
B974
  8
01
  6
BYBLOCK
 10
944.78766516632504
 20
-557.93074949174411
 30
0.0
 11
942.18766516632502
 21
-557.23408159774397
 31
0.0
  0
LINE
  5
B975
  8
01
  6
BYBLOCK
 10
942.18766516632502
 20
-557.23408159774397
 30
0.0
 11
944.78766516632504
 21
-556.53741370374405
 31
0.0
  0
LINE
  5
B976
  8
01
  6
BYBLOCK
 10
942.18766516632502
 20
-557.23408159774397
 30
0.0
 11
944.78766516632504
 21
-557.23408159774397
 31
0.0
  0
TEXT
  5
B977
  8
01
 10
983.35433183299153
 20
-546.32408159774411
 30
0.0
 40
4.5499999999999989
  1
69
  0
LINE
  5
B978
  8
01
  6
BYBLOCK
 10
955.78766516632493
 20
-547.93074949174411
 30
0.0
 11
953.18766516632502
 21
-547.23408159774408
 31
0.0
  0
LINE
  5
B979
  8
01
  6
BYBLOCK
 10
953.18766516632502
 20
-547.23408159774408
 30
0.0
 11
955.78766516632493
 21
-546.53741370374405
 31
0.0
  0
LINE
  5
B97A
  8
01
  6
BYBLOCK
 10
953.18766516632502
 20
-547.23408159774408
 30
0.0
 11
955.78766516632493
 21
-547.23408159774408
 31
0.0
  0
LINE
  5
B97B
  8
01
  6
BYBLOCK
 10
1019.587665166325
 20
-546.53741370374405
 30
0.0
 11
1022.187665166325
 21
-547.23408159774408
 31
0.0
  0
LINE
  5
B97C
  8
01
  6
BYBLOCK
 10
1022.187665166325
 20
-547.23408159774408
 30
0.0
 11
1019.587665166325
 21
-547.93074949174411
 31
0.0
  0
LINE
  5
B97D
  8
01
  6
BYBLOCK
 10
1022.187665166325
 20
-547.23408159774408
 30
0.0
 11
1019.587665166325
 21
-547.23408159774408
 31
0.0
  0
TEXT
  5
B97E
  8
01
 10
975.00433183299162
 20
-556.32408159774411
 30
0.0
 40
4.5499999999999989
  1
51
  0
LINE
  5
B97F
  8
01
  6
BYBLOCK
 10
1001.587665166325
 20
-556.53741370374405
 30
0.0
 11
1004.187665166325
 21
-557.23408159774397
 31
0.0
  0
LINE
  5
B980
  8
01
  6
BYBLOCK
 10
1004.187665166325
 20
-557.23408159774397
 30
0.0
 11
1001.587665166325
 21
-557.93074949174411
 31
0.0
  0
LINE
  5
B981
  8
01
  6
BYBLOCK
 10
1004.187665166325
 20
-557.23408159774397
 30
0.0
 11
1001.587665166325
 21
-557.23408159774397
 31
0.0
  0
LINE
  5
B982
  8
01
  6
BYBLOCK
 10
955.78766516632493
 20
-557.93074949174411
 30
0.0
 11
953.18766516632502
 21
-557.23408159774397
 31
0.0
  0
LINE
  5
B983
  8
01
  6
BYBLOCK
 10
953.18766516632502
 20
-557.23408159774397
 30
0.0
 11
955.78766516632493
 21
-556.53741370374405
 31
0.0
  0
LINE
  5
B984
  8
01
  6
BYBLOCK
 10
953.18766516632502
 20
-557.23408159774397
 30
0.0
 11
955.78766516632493
 21
-557.23408159774397
 31
0.0
  0
TEXT
  5
B985
  8
01
 10
968.27766516632505
 20
-671.76716089323213
 30
0.0
 40
4.5499999999999989
  1
\U+03C650
 50
90.0
  0
LINE
  5
B986
  8
01
  6
BYBLOCK
 10
969.88433306032505
 20
-685.63408159774315
 30
0.0
 11
969.18766516632502
 21
-688.23408159774328
 31
0.0
  0
LINE
  5
B987
  8
01
  6
BYBLOCK
 10
969.18766516632502
 20
-688.23408159774328
 30
0.0
 11
968.49099727232499
 21
-685.63408159774315
 31
0.0
  0
LINE
  5
B988
  8
01
  6
BYBLOCK
 10
969.18766516632502
 20
-688.23408159774328
 30
0.0
 11
969.18766516632502
 21
-685.63408159774315
 31
0.0
  0
LINE
  5
B989
  8
01
  6
BYBLOCK
 10
968.49099727232499
 20
-640.8340815977441
 30
0.0
 11
969.18766516632502
 21
-638.23408159774419
 31
0.0
  0
LINE
  5
B98A
  8
01
  6
BYBLOCK
 10
969.18766516632502
 20
-638.23408159774419
 30
0.0
 11
969.88433306032505
 21
-640.8340815977441
 31
0.0
  0
LINE
  5
B98B
  8
01
  6
BYBLOCK
 10
969.18766516632502
 20
-638.23408159774419
 30
0.0
 11
969.18766516632502
 21
-640.8340815977441
 31
0.0
  0
CIRCLE
  5
B98C
  8
01
 10
868.68766916632467
 20
-663.23408159774419
 30
0.0
 40
3.0
  0
TEXT
  5
B98D
  8
01
 10
1054.2800816038639
 20
-495.87408159877219
 30
0.0
 40
4.5499999999999989
  1
114
  0
LINE
  5
B98E
  8
01
  6
BYBLOCK
 10
1115.6390483683249
 20
-496.08741370477219
 30
0.0
 11
1118.239048368325
 21
-496.78408159877222
 31
0.0
  0
LINE
  5
B98F
  8
01
  6
BYBLOCK
 10
1118.239048368325
 20
-496.78408159877222
 30
0.0
 11
1115.6390483683249
 21
-497.48074949277219
 31
0.0
  0
LINE
  5
B990
  8
01
  6
BYBLOCK
 10
1118.239048368325
 20
-496.78408159877222
 30
0.0
 11
1115.6390483683249
 21
-496.78408159877222
 31
0.0
  0
LINE
  5
B991
  8
01
  6
BYBLOCK
 10
1006.787781506069
 20
-497.48074949277219
 30
0.0
 11
1004.18778150607
 21
-496.78408159877222
 31
0.0
  0
LINE
  5
B992
  8
01
  6
BYBLOCK
 10
1004.18778150607
 20
-496.78408159877222
 30
0.0
 11
1006.787781506069
 21
-496.08741370477219
 31
0.0
  0
LINE
  5
B993
  8
01
  6
BYBLOCK
 10
1004.18778150607
 20
-496.78408159877222
 30
0.0
 11
1006.787781506069
 21
-496.78408159877222
 31
0.0
  0
TEXT
  5
B994
  8
01
 10
1048.8634149371981
 20
-505.87408159877219
 30
0.0
 40
4.5499999999999989
  1
125
  0
LINE
  5
B995
  8
01
  6
BYBLOCK
 10
1115.6390483683249
 20
-506.08741370477219
 30
0.0
 11
1118.239048368325
 21
-506.78408159877222
 31
0.0
  0
LINE
  5
B996
  8
01
  6
BYBLOCK
 10
1118.239048368325
 20
-506.78408159877222
 30
0.0
 11
1115.6390483683249
 21
-507.48074949277208
 31
0.0
  0
LINE
  5
B997
  8
01
  6
BYBLOCK
 10
1118.239048368325
 20
-506.78408159877222
 30
0.0
 11
1115.6390483683249
 21
-506.78408159877222
 31
0.0
  0
LINE
  5
B998
  8
01
  6
BYBLOCK
 10
995.73778150607154
 20
-507.48074949277208
 30
0.0
 11
993.13778150607129
 21
-506.78408159877222
 31
0.0
  0
LINE
  5
B999
  8
01
  6
BYBLOCK
 10
993.13778150607129
 20
-506.78408159877222
 30
0.0
 11
995.73778150607154
 21
-506.08741370477219
 31
0.0
  0
LINE
  5
B99A
  8
01
  6
BYBLOCK
 10
993.13778150607129
 20
-506.78408159877222
 30
0.0
 11
995.73778150607154
 21
-506.78408159877222
 31
0.0
  0
TEXT
  5
B99B
  8
01
 10
1127.329048368324
 20
-441.17876211731959
 30
0.0
 40
4.5499999999999989
  1
47
 50
90.0
  0
LINE
  5
B99C
  8
01
  6
BYBLOCK
 10
1128.9357162623251
 20
-457.85677596920038
 30
0.0
 11
1128.239048368325
 21
-460.45677596920029
 31
0.0
  0
LINE
  5
B99D
  8
01
  6
BYBLOCK
 10
1128.239048368325
 20
-460.45677596920029
 30
0.0
 11
1127.5423804743241
 21
-457.85677596920038
 31
0.0
  0
LINE
  5
B99E
  8
01
  6
BYBLOCK
 10
1128.239048368325
 20
-460.45677596920029
 30
0.0
 11
1128.239048368325
 21
-457.85677596920038
 31
0.0
  0
LINE
  5
B99F
  8
01
  6
BYBLOCK
 10
1127.5423804743241
 20
-415.83408159877268
 30
0.0
 11
1128.239048368325
 21
-413.23408159877272
 31
0.0
  0
LINE
  5
B9A0
  8
01
  6
BYBLOCK
 10
1128.239048368325
 20
-413.23408159877272
 30
0.0
 11
1128.9357162623251
 21
-415.83408159877268
 31
0.0
  0
LINE
  5
B9A1
  8
01
  6
BYBLOCK
 10
1128.239048368325
 20
-413.23408159877272
 30
0.0
 11
1128.239048368325
 21
-415.83408159877268
 31
0.0
  0
TEXT
  5
B9A2
  8
01
 10
1137.329048368324
 20
-454.4507482654389
 30
0.0
 40
4.5499999999999989
  1
74
 50
90.0
  0
LINE
  5
B9A3
  8
01
  6
BYBLOCK
 10
1138.9357162623251
 20
-484.1840815987722
 30
0.0
 11
1138.239048368325
 21
-486.78408159877222
 31
0.0
  0
LINE
  5
B9A4
  8
01
  6
BYBLOCK
 10
1138.239048368325
 20
-486.78408159877222
 30
0.0
 11
1137.5423804743241
 21
-484.1840815987722
 31
0.0
  0
LINE
  5
B9A5
  8
01
  6
BYBLOCK
 10
1138.239048368325
 20
-486.78408159877222
 30
0.0
 11
1138.239048368325
 21
-484.1840815987722
 31
0.0
  0
LINE
  5
B9A6
  8
01
  6
BYBLOCK
 10
1137.5423804743241
 20
-415.83408159877268
 30
0.0
 11
1138.239048368325
 21
-413.23408159877272
 31
0.0
  0
LINE
  5
B9A7
  8
01
  6
BYBLOCK
 10
1138.239048368325
 20
-413.23408159877272
 30
0.0
 11
1138.9357162623251
 21
-415.83408159877268
 31
0.0
  0
LINE
  5
B9A8
  8
01
  6
BYBLOCK
 10
1138.239048368325
 20
-413.23408159877272
 30
0.0
 11
1138.239048368325
 21
-415.83408159877268
 31
0.0
  0
TEXT
  5
B9A9
  8
01
 10
1048.477538378186
 20
-636.93489612723351
 30
0.0
 40
4.5499999999999989
  1
74.5
 50
90.0
  0
LINE
  5
B9AA
  8
01
  6
BYBLOCK
 10
1050.0842062721861
 20
-676.63408159774394
 30
0.0
 11
1049.387538378186
 21
-679.23408159774397
 31
0.0
  0
LINE
  5
B9AB
  8
01
  6
BYBLOCK
 10
1049.387538378186
 20
-679.23408159774397
 30
0.0
 11
1048.690870484186
 21
-676.63408159774394
 31
0.0
  0
LINE
  5
B9AC
  8
01
  6
BYBLOCK
 10
1049.387538378186
 20
-679.23408159774397
 30
0.0
 11
1049.387538378186
 21
-676.63408159774394
 31
0.0
  0
LINE
  5
B9AD
  8
01
  6
BYBLOCK
 10
1048.690870484186
 20
-607.33408159774422
 30
0.0
 11
1049.387538378186
 21
-604.73408159774419
 31
0.0
  0
LINE
  5
B9AE
  8
01
  6
BYBLOCK
 10
1049.387538378186
 20
-604.73408159774419
 30
0.0
 11
1050.0842062721861
 21
-607.33408159774422
 31
0.0
  0
LINE
  5
B9AF
  8
01
  6
BYBLOCK
 10
1049.387538378186
 20
-604.73408159774419
 30
0.0
 11
1049.387538378186
 21
-607.33408159774422
 31
0.0
  0
TEXT
  5
B9B0
  8
01
 10
1043.1389401080969
 20
-400.81741493210581
 30
0.0
 40
4.5499999999999989
  1
20.5
 50
90.0
  0
LINE
  5
B9B1
  8
01
  6
BYBLOCK
 10
1044.7456080020979
 20
-400.8840815987727
 30
0.0
 11
1044.0489401080979
 21
-403.48408159877272
 31
0.0
  0
LINE
  5
B9B2
  8
01
  6
BYBLOCK
 10
1044.0489401080979
 20
-403.48408159877272
 30
0.0
 11
1043.352272214097
 21
-400.8840815987727
 31
0.0
  0
LINE
  5
B9B3
  8
01
  6
BYBLOCK
 10
1044.0489401080979
 20
-403.48408159877272
 30
0.0
 11
1044.0489401080979
 21
-400.8840815987727
 31
0.0
  0
LINE
  5
B9B4
  8
01
  6
BYBLOCK
 10
1043.352272214097
 20
-385.58408159877268
 30
0.0
 11
1044.0489401080979
 21
-382.98408159877272
 31
0.0
  0
LINE
  5
B9B5
  8
01
  6
BYBLOCK
 10
1044.0489401080979
 20
-382.98408159877272
 30
0.0
 11
1044.7456080020979
 21
-385.58408159877268
 31
0.0
  0
LINE
  5
B9B6
  8
01
  6
BYBLOCK
 10
1044.0489401080979
 20
-382.98408159877272
 30
0.0
 11
1044.0489401080979
 21
-385.58408159877268
 31
0.0
  0
LINE
  5
B9B7
  8
01
 10
1001.876728294393
 20
-432.72999275734833
 30
0.0
 11
976.94082625934175
 21
-452.14408159877269
 31
0.0
1001
ACAD
1000
DSTYLE
1002
{
1070
    40
1040
1.3
1002
}
  0
LINE
  5
B9B8
  8
01
 10
976.94082625934175
 20
-452.14408159877269
 30
0.0
 11
973.43082625934176
 21
-452.14408159877269
 31
0.0
1001
ACAD
1000
DSTYLE
1002
{
1070
    40
1040
1.3
1002
}
  0
VIEWPORT
  5
57
 67
     1
  8
0
 10
10.304571855755171
 20
17.566128202775101
 30
0.0
 40
436.89089271664238
 41
283.7857657115182
 68
     1
 69
     1
1001
ACAD
1000
MVIEW
1002
{
1070
    16
1010
0.0
1020
0.0
1030
0.0
1010
0.0
1020
0.0
1030
1.0
1040
0.0
1040
283.7857657115182
1040
10.304571855755171
1040
17.566128202775101
1040
50.0
1040
0.0
1040
0.0
1070
     0
1070
   100
1070
     1
1070
     1
1070
     0
1070
     0
1070
     0
1070
     0
1040
0.0
1040
0.0
1040
0.0
1040
10.0
1040
10.0
1040
10.0
1040
10.0
1070
     0
1002
{
1002
}
1002
}
  0
ENDSEC
  0
EOF
