  0
SECTION
  2
HEADER
  9
$ACADVER
  1
AC1009
  9
$INSBASE
 10
0.0
 20
0.0
 30
0.0
  9
$EXTMIN
 10
548.73767316632348
 20
-718.07002159774402
 30
0.0
  9
$EXTMAX
 10
1139.5390483683241
 20
-306.4570144031411
 30
0.0
  9
$LIMMIN
 10
0.0
 20
0.0
  9
$LIMMAX
 10
420.0
 20
297.0
  9
$ORTHOMODE
 70
     0
  9
$REGENMODE
 70
     1
  9
$FILLMODE
 70
     1
  9
$QTEXTMODE
 70
     0
  9
$MIRRTEXT
 70
     0
  9
$DRAGMODE
 70
     2
  9
$LTSCALE
 40
0.5
  9
$OSMODE
 70
  2175
  9
$ATTMODE
 70
     1
  9
$TEXTSIZE
 40
4.0
  9
$TRACEWID
 40
1.0
  9
$TEXTSTYLE
  7
STANDARD
  9
$CLAYER
  8
1TEXT
  9
$CELTYPE
  6
BYLAYER
  9
$CECOLOR
 62
   256
  9
$DIMSCALE
 40
1.0
  9
$DIMASZ
 40
2.0
  9
$DIMEXO
 40
0.0
  9
$DIMDLI
 40
7.0
  9
$DIMRND
 40
0.0
  9
$DIMDLE
 40
0.0
  9
$DIMEXE
 40
1.0
  9
$DIMTP
 40
0.0
  9
$DIMTM
 40
0.0
  9
$DIMTXT
 40
3.5
  9
$DIMCEN
 40
0.0
  9
$DIMTSZ
 40
0.0
  9
$DIMTOL
 70
     0
  9
$DIMLIM
 70
     0
  9
$DIMTIH
 70
     0
  9
$DIMTOH
 70
     0
  9
$DIMSE1
 70
     0
  9
$DIMSE2
 70
     0
  9
$DIMTAD
 70
     1
  9
$DIMZIN
 70
     8
  9
$DIMBLK
  1

  9
$DIMASO
 70
     1
  9
$DIMSHO
 70
     1
  9
$DIMPOST
  1
 
  9
$DIMAPOST
  1

  9
$DIMALT
 70
     0
  9
$DIMALTD
 70
     2
  9
$DIMALTF
 40
25.399999999999999
  9
$DIMLFAC
 40
1.0
  9
$DIMTOFL
 70
     1
  9
$DIMTVP
 40
0.0
  9
$DIMTIX
 70
     0
  9
$DIMSOXD
 70
     0
  9
$DIMSAH
 70
     1
  9
$DIMBLK1
  1
OPEN30
  9
$DIMBLK2
  1
OPEN30
  9
$DIMSTYLE
  2
NEWX10
  9
$DIMCLRD
 70
   256
  9
$DIMCLRE
 70
   256
  9
$DIMCLRT
 70
   201
  9
$DIMTFAC
 40
0.7
  9
$DIMGAP
 40
0.7
  9
$LUNITS
 70
     2
  9
$LUPREC
 70
     4
  9
$SKETCHINC
 40
1.0
  9
$FILLETRAD
 40
0.0
  9
$AUNITS
 70
     0
  9
$AUPREC
 70
     2
  9
$MENU
  1
acad
  9
$ELEVATION
 40
0.0
  9
$PELEVATION
 40
0.0
  9
$THICKNESS
 40
0.0
  9
$LIMCHECK
 70
     0
  9
$BLIPMODE
 70
     0
  9
$CHAMFERA
 40
10.0
  9
$CHAMFERB
 40
10.0
  9
$SKPOLY
 70
     0
  9
$TDCREATE
 40
2451318.621352917
  9
$TDUPDATE
 40
2456015.811563761
  9
$TDINDWG
 40
0.5818604514
  9
$TDUSRTIMER
 40
0.5818604514
  9
$USRTIMER
 70
     1
  9
$ANGBASE
 50
0.0
  9
$ANGDIR
 70
     0
  9
$PDMODE
 70
     0
  9
$PDSIZE
 40
0.0
  9
$PLINEWID
 40
0.0
  9
$COORDS
 70
     2
  9
$SPLFRAME
 70
     0
  9
$SPLINETYPE
 70
     6
  9
$SPLINESEGS
 70
     8
  9
$ATTDIA
 70
     0
  9
$ATTREQ
 70
     1
  9
$HANDLING
 70
     1
  9
$HANDSEED
  5
BD0F
  9
$SURFTAB1
 70
     6
  9
$SURFTAB2
 70
     6
  9
$SURFTYPE
 70
     6
  9
$SURFU
 70
     6
  9
$SURFV
 70
     6
  9
$UCSNAME
  2

  9
$UCSORG
 10
0.0
 20
0.0
 30
0.0
  9
$UCSXDIR
 10
1.0
 20
0.0
 30
0.0
  9
$UCSYDIR
 10
0.0
 20
1.0
 30
0.0
  9
$PUCSNAME
  2

  9
$PUCSORG
 10
0.0
 20
0.0
 30
0.0
  9
$PUCSXDIR
 10
1.0
 20
0.0
 30
0.0
  9
$PUCSYDIR
 10
0.0
 20
1.0
 30
0.0
  9
$USERI1
 70
     0
  9
$USERI2
 70
     0
  9
$USERI3
 70
     0
  9
$USERI4
 70
     0
  9
$USERI5
 70
     0
  9
$USERR1
 40
0.0
  9
$USERR2
 40
0.0
  9
$USERR3
 40
0.0
  9
$USERR4
 40
0.0
  9
$USERR5
 40
0.0
  9
$WORLDVIEW
 70
     1
  9
$SHADEDGE
 70
     3
  9
$SHADEDIF
 70
    70
  9
$TILEMODE
 70
     1
  9
$MAXACTVP
 70
    48
  9
$PLIMCHECK
 70
     0
  9
$PEXTMIN
 10
1.0000000000000000E+020
 20
1.0000000000000000E+020
 30
1.0000000000000000E+020
  9
$PEXTMAX
 10
-1.0000000000000000E+020
 20
-1.0000000000000000E+020
 30
-1.0000000000000000E+020
  9
$PLIMMIN
 10
0.0
 20
0.0
  9
$PLIMMAX
 10
420.0
 20
297.0
  9
$UNITMODE
 70
     0
  9
$VISRETAIN
 70
     1
  9
$PLINEGEN
 70
     0
  9
$PSLTSCALE
 70
     1
  0
ENDSEC
  0
SECTION
  2
TABLES
  0
TABLE
  2
VPORT
 70
     1
  0
VPORT
  2
*ACTIVE
 70
     0
 10
0.0
 20
0.0
 11
1.0
 21
1.0
 12
844.15194572447194
 22
-512.25565119279452
 13
0.0
 23
0.0
 14
10.0
 24
10.0
 15
10.0
 25
10.0
 16
0.0
 26
0.0
 36
1.0
 17
0.0
 27
0.0
 37
0.0
 40
436.89624355324281
 41
1.5395095367847409
 42
50.0
 43
0.0
 44
0.0
 50
0.0
 51
0.0
 71
     0
 72
   100
 73
     1
 74
     1
 75
     0
 76
     0
 77
     0
 78
     0
  0
ENDTAB
  0
TABLE
  2
LTYPE
 70
    12
  0
LTYPE
  2
CONTINUOUS
 70
     0
  3
Solid line
 72
    65
 73
     0
 40
0.0
  0
LTYPE
  2
XREF1|CENTER2
 70
    48
  3
Center (.5x) ___ _ ___ _ ___ _ ___ _ ___ _ ___
 72
    65
 73
     4
 40
28.574999999999999
 49
19.050000000000001
 49
-3.1749999999999989
 49
3.1749999999999989
 49
-3.1749999999999989
  0
LTYPE
  2
A3WAKUDAKE|CENTER2
 70
    48
  3
Center (.5x) ___ _ ___ _ ___ _ ___ _ ___ _ ___
 72
    65
 73
     4
 40
28.574999999999999
 49
19.050000000000001
 49
-3.1749999999999989
 49
3.1749999999999989
 49
-3.1749999999999989
  0
ENDTAB
  0
TABLE
  2
LAYER
 70
    36
  0
LAYER
  2
0
 70
     0
 62
     7
  6
CONTINUOUS
  0
LAYER
  2
1TEXT
 70
     0
 62
     7
  6
CONTINUOUS
  0
LAYER
  2
01
 70
     0
 62
     1
  6
CONTINUOUS
  0
LAYER
  2
A3WAKUDAKE|THICK
 70
    48
 62
     7
  6
CONTINUOUS
  0
LAYER
  2
A3WAKUDAKE|POINT
 70
    48
 62
     7
  6
CONTINUOUS
  0
LAYER
  2
A3WAKUDAKE|1CENTER
 70
    48
 62
     7
  6
A3WAKUDAKE|CENTER2
  0
LAYER
  2
A3WAKUDAKE|0-6
 70
    48
 62
     7
  6
CONTINUOUS
  0
LAYER
  2
A3WAKUDAKE|1DIM
 70
    48
 62
     7
  6
CONTINUOUS
  0
LAYER
  2
XREF1|1CENTER
 70
    48
 62
     7
  6
XREF1|CENTER2
  0
ENDTAB
  0
TABLE
  2
STYLE
 70
     4
  0
STYLE
  2
STANDARD
 70
     0
 40
0.0
 41
1.0
 50
0.0
 71
     0
 42
4.0
  3
romans.shx
  4
extfont.shx
  0
ENDTAB
  0
TABLE
  2
VIEW
 70
     5
  0
ENDTAB
  0
TABLE
  2
UCS
 70
     0
  0
ENDTAB
  0
TABLE
  2
APPID
 70
     9
  0
APPID
  2
ACAD
 70
     0
  0
APPID
  2
DRAWINGVARIABLESXDATA
 70
     0
  0
APPID
  2
CONTENTTABDATA
 70
     0
  0
APPID
  2
CONTENTCURRENTTAB
 70
     0
  0
APPID
  2
CONTENTBLOCKDESCRIPTION
 70
     0
  0
APPID
  2
CONTENTBLOCKICON
 70
     0
  0
APPID
  2
CONTENTLONGBLOCKNAME
 70
     0
  0
APPID
  2
ACAD_PSEXT
 70
     0
  0
APPID
  2
ACAD_MLEADERVER
 70
     0
  0
ENDTAB
  0
TABLE
  2
DIMSTYLE
 70
     5
  0
DIMSTYLE
  2
NEWX10
 70
     0
  3
 
  4

  5

  6
OPEN30
  7
OPEN30
 40
1.0
 41
2.0
 42
0.0
 43
7.0
 44
1.0
 45
0.0
 46
0.0
 47
0.0
 48
0.0
140
3.5
141
0.0
142
0.0
143
25.399999999999999
144
1.0
145
0.0
146
0.7
147
0.7
 71
     0
 72
     0
 73
     0
 74
     0
 75
     0
 76
     0
 77
     1
 78
     8
170
     0
171
     2
172
     1
173
     1
174
     0
175
     0
176
   256
177
   256
178
   201
  0
ENDTAB
  0
ENDSEC
  0
SECTION
  2
BLOCKS
  0
BLOCK
  8
0
  2
$MODEL_SPACE
 70
     0
 10
0.0
 20
0.0
 30
0.0
  3
$MODEL_SPACE
  1

  0
ENDBLK
  5
1A
  8
0
  0
BLOCK
 67
     1
  8
0
  2
$PAPER_SPACE
 70
     0
 10
0.0
 20
0.0
 30
0.0
  3
$PAPER_SPACE
  1

  0
ENDBLK
  5
17
 67
     1
  8
0
  0
BLOCK
  8
0
  2
_OPEN30
 70
     0
 10
0.0
 20
0.0
 30
0.0
  3
_OPEN30
  1

  0
LINE
  5
44
  8
0
  6
BYBLOCK
 62
     0
 10
-1.0
 20
0.26794919
 30
0.0
 11
0.0
 21
0.0
 31
0.0
  0
LINE
  5
45
  8
0
  6
BYBLOCK
 62
     0
 10
0.0
 20
0.0
 30
0.0
 11
-1.0
 21
-0.26794919
 31
0.0
  0
LINE
  5
46
  8
0
  6
BYBLOCK
 62
     0
 10
0.0
 20
0.0
 30
0.0
 11
-1.0
 21
0.0
 31
0.0
  0
ENDBLK
  5
47
  8
0
  0
BLOCK
  8
0
  2
XREF1
 70
    36
 10
0.0
 20
0.0
 30
0.0
  3
XREF1
  1
D:\ACLT\FORMAT\KAWAJUN(9)図面用.dwg
  0
ENDBLK
  5
5D
  8
0
  0
BLOCK
  8
0
  2
A3WAKUDAKE
 70
    36
 10
0.0
 20
0.0
 30
0.0
  3
A3WAKUDAKE
  1
D:\ACLT\FORMAT\A3WAKUdake.dwg
  0
ENDBLK
  5
6A0
  8
0
  0
BLOCK
  8
0
  2
*U21
 70
     1
 10
0.0
 20
0.0
 30
0.0
  3
*U21
  1

  0
TEXT
  5
BBFE
  8
1TEXT
 62
   201
 10
1043.3489401080969
 20
-395.56741493210592
 30
0.0
 40
3.5
  1
20.5
 50
90.0
  0
ENDBLK
  5
BC00
  8
0
  0
BLOCK
  8
0
  2
*U22
 70
     1
 10
0.0
 20
0.0
 30
0.0
  3
*U22
  1

  0
TEXT
  5
BC02
  8
1TEXT
 62
   201
 10
1043.1389401080969
 20
-397.31741493210592
 30
0.0
 40
4.5499999999999989
  1
20.5
 50
90.0
  0
ENDBLK
  5
BC04
  8
0
  0
ENDSEC
  0
SECTION
  2
ENTITIES
  0
LINE
  5
4C5
  8
01
 10
854.18766916632455
 20
-570.73670159774338
 30
0.0
 11
854.18766916632455
 21
-718.07002159774402
 31
0.0
  0
LINE
  5
4C6
  8
01
 10
814.18766916632467
 20
-570.73670159774338
 30
0.0
 11
814.18766916632467
 21
-718.07002159774402
 31
0.0
  0
LINE
  5
4C8
  8
01
 10
712.78767516632524
 20
-577.23408159774397
 30
0.0
 11
712.78767516632524
 21
-600.33405159774327
 31
0.0
  0
LINE
  5
4C9
  8
01
 10
711.18766916632467
 20
-577.23408159774397
 30
0.0
 11
711.18766916632467
 21
-600.23408159774397
 31
0.0
  0
LINE
  5
4CA
  8
01
 10
713.58767816632553
 20
-577.23408159774397
 30
0.0
 11
713.58767816632553
 21
-707.23408159774397
 31
0.0
  0
LINE
  5
4CC
  8
01
 10
715.18766916632467
 20
-577.23408159774397
 30
0.0
 11
715.18766916632467
 21
-707.23408159774397
 31
0.0
  0
LINE
  5
4CF
  8
01
 10
712.18766916632455
 20
-679.23408159774397
 30
0.0
 11
683.39704587862275
 21
-679.23408159774397
 31
0.0
  0
LINE
  5
4D2
  8
01
 10
721.18766916632285
 20
-631.23408159774408
 30
0.0
 11
715.18766916632467
 21
-631.23408159774408
 31
0.0
  0
LINE
  5
4D3
  8
01
 10
726.18766916632455
 20
-636.23408159774397
 30
0.0
 11
716.18766916632467
 21
-636.23408159774397
 31
0.0
  0
POLYLINE
  5
4D4
  8
01
 10
726.18766916632455
 20
-634.80250159774369
 30
0.0
 66
     1
 70
     8
  0
VERTEX
  8
01
  5
BC0B
 10
726.188
 20
-634.803
 30
0.000000
  70
    32
  0
VERTEX
  8
01
  5
BC0C
 10
726.186
 20
-634.715
 30
0.000000
  70
    32
  0
VERTEX
  8
01
  5
BC0D
 10
726.182
 20
-634.627
 30
0.000000
  70
    32
  0
VERTEX
  8
01
  5
BC0E
 10
726.174
 20
-634.540
 30
0.000000
  70
    32
  0
VERTEX
  8
01
  5
BC0F
 10
726.164
 20
-634.453
 30
0.000000
  70
    32
  0
VERTEX
  8
01
  5
BC10
 10
726.150
 20
-634.366
 30
0.000000
  70
    32
  0
VERTEX
  8
01
  5
BC11
 10
726.134
 20
-634.279
 30
0.000000
  70
    32
  0
VERTEX
  8
01
  5
BC12
 10
726.114
 20
-634.192
 30
0.000000
  70
    32
  0
VERTEX
  8
01
  5
BC13
 10
726.092
 20
-634.106
 30
0.000000
  70
    32
  0
VERTEX
  8
01
  5
BC14
 10
726.066
 20
-634.021
 30
0.000000
  70
    32
  0
VERTEX
  8
01
  5
BC15
 10
726.038
 20
-633.935
 30
0.000000
  70
    32
  0
VERTEX
  8
01
  5
BC16
 10
726.007
 20
-633.851
 30
0.000000
  70
    32
  0
VERTEX
  8
01
  5
BC17
 10
725.972
 20
-633.767
 30
0.000000
  70
    32
  0
VERTEX
  8
01
  5
BC18
 10
725.935
 20
-633.683
 30
0.000000
  70
    32
  0
VERTEX
  8
01
  5
BC19
 10
725.895
 20
-633.600
 30
0.000000
  70
    32
  0
VERTEX
  8
01
  5
BC1A
 10
725.853
 20
-633.518
 30
0.000000
  70
    32
  0
VERTEX
  8
01
  5
BC1B
 10
725.807
 20
-633.437
 30
0.000000
  70
    32
  0
VERTEX
  8
01
  5
BC1C
 10
725.759
 20
-633.356
 30
0.000000
  70
    32
  0
VERTEX
  8
01
  5
BC1D
 10
725.708
 20
-633.277
 30
0.000000
  70
    32
  0
VERTEX
  8
01
  5
BC1E
 10
725.654
 20
-633.198
 30
0.000000
  70
    32
  0
VERTEX
  8
01
  5
BC1F
 10
725.597
 20
-633.120
 30
0.000000
  70
    32
  0
VERTEX
  8
01
  5
BC20
 10
725.538
 20
-633.044
 30
0.000000
  70
    32
  0
VERTEX
  8
01
  5
BC21
 10
725.476
 20
-632.968
 30
0.000000
  70
    32
  0
VERTEX
  8
01
  5
BC22
 10
725.412
 20
-632.893
 30
0.000000
  70
    32
  0
VERTEX
  8
01
  5
BC23
 10
725.345
 20
-632.820
 30
0.000000
  70
    32
  0
VERTEX
  8
01
  5
BC24
 10
725.276
 20
-632.748
 30
0.000000
  70
    32
  0
VERTEX
  8
01
  5
BC25
 10
725.204
 20
-632.677
 30
0.000000
  70
    32
  0
VERTEX
  8
01
  5
BC26
 10
725.129
 20
-632.607
 30
0.000000
  70
    32
  0
VERTEX
  8
01
  5
BC27
 10
725.053
 20
-632.539
 30
0.000000
  70
    32
  0
VERTEX
  8
01
  5
BC28
 10
724.974
 20
-632.472
 30
0.000000
  70
    32
  0
VERTEX
  8
01
  5
BC29
 10
724.892
 20
-632.406
 30
0.000000
  70
    32
  0
VERTEX
  8
01
  5
BC2A
 10
724.809
 20
-632.342
 30
0.000000
  70
    32
  0
VERTEX
  8
01
  5
BC2B
 10
724.723
 20
-632.279
 30
0.000000
  70
    32
  0
VERTEX
  8
01
  5
BC2C
 10
724.635
 20
-632.218
 30
0.000000
  70
    32
  0
VERTEX
  8
01
  5
BC2D
 10
724.545
 20
-632.158
 30
0.000000
  70
    32
  0
VERTEX
  8
01
  5
BC2E
 10
724.454
 20
-632.100
 30
0.000000
  70
    32
  0
VERTEX
  8
01
  5
BC2F
 10
724.360
 20
-632.044
 30
0.000000
  70
    32
  0
VERTEX
  8
01
  5
BC30
 10
724.264
 20
-631.989
 30
0.000000
  70
    32
  0
VERTEX
  8
01
  5
BC31
 10
724.166
 20
-631.936
 30
0.000000
  70
    32
  0
VERTEX
  8
01
  5
BC32
 10
724.067
 20
-631.885
 30
0.000000
  70
    32
  0
VERTEX
  8
01
  5
BC33
 10
723.966
 20
-631.835
 30
0.000000
  70
    32
  0
VERTEX
  8
01
  5
BC34
 10
723.863
 20
-631.788
 30
0.000000
  70
    32
  0
VERTEX
  8
01
  5
BC35
 10
723.758
 20
-631.742
 30
0.000000
  70
    32
  0
VERTEX
  8
01
  5
BC36
 10
723.652
 20
-631.698
 30
0.000000
  70
    32
  0
VERTEX
  8
01
  5
BC37
 10
723.545
 20
-631.655
 30
0.000000
  70
    32
  0
VERTEX
  8
01
  5
BC38
 10
723.436
 20
-631.615
 30
0.000000
  70
    32
  0
VERTEX
  8
01
  5
BC39
 10
723.325
 20
-631.577
 30
0.000000
  70
    32
  0
VERTEX
  8
01
  5
BC3A
 10
723.214
 20
-631.540
 30
0.000000
  70
    32
  0
VERTEX
  8
01
  5
BC3B
 10
723.101
 20
-631.506
 30
0.000000
  70
    32
  0
VERTEX
  8
01
  5
BC3C
 10
722.987
 20
-631.473
 30
0.000000
  70
    32
  0
VERTEX
  8
01
  5
BC3D
 10
722.872
 20
-631.443
 30
0.000000
  70
    32
  0
VERTEX
  8
01
  5
BC3E
 10
722.756
 20
-631.414
 30
0.000000
  70
    32
  0
VERTEX
  8
01
  5
BC3F
 10
722.639
 20
-631.388
 30
0.000000
  70
    32
  0
VERTEX
  8
01
  5
BC40
 10
722.521
 20
-631.363
 30
0.000000
  70
    32
  0
VERTEX
  8
01
  5
BC41
 10
722.403
 20
-631.341
 30
0.000000
  70
    32
  0
VERTEX
  8
01
  5
BC42
 10
722.283
 20
-631.321
 30
0.000000
  70
    32
  0
VERTEX
  8
01
  5
BC43
 10
722.163
 20
-631.303
 30
0.000000
  70
    32
  0
VERTEX
  8
01
  5
BC44
 10
722.042
 20
-631.287
 30
0.000000
  70
    32
  0
VERTEX
  8
01
  5
BC45
 10
721.921
 20
-631.273
 30
0.000000
  70
    32
  0
VERTEX
  8
01
  5
BC46
 10
721.800
 20
-631.261
 30
0.000000
  70
    32
  0
VERTEX
  8
01
  5
BC47
 10
721.678
 20
-631.251
 30
0.000000
  70
    32
  0
VERTEX
  8
01
  5
BC48
 10
721.555
 20
-631.244
 30
0.000000
  70
    32
  0
VERTEX
  8
01
  5
BC49
 10
721.433
 20
-631.238
 30
0.000000
  70
    32
  0
VERTEX
  8
01
  5
BC4A
 10
721.310
 20
-631.235
 30
0.000000
  70
    32
  0
VERTEX
  8
01
  5
BC4B
 10
721.188
 20
-631.234
 30
0.000000
  70
    32
  0
VERTEX
  8
01
  5
BC4C
 10
721.065
 20
-631.235
 30
0.000000
  70
    32
  0
VERTEX
  8
01
  5
BC4D
 10
720.942
 20
-631.238
 30
0.000000
  70
    32
  0
VERTEX
  8
01
  5
BC4E
 10
720.820
 20
-631.244
 30
0.000000
  70
    32
  0
VERTEX
  8
01
  5
BC4F
 10
720.698
 20
-631.251
 30
0.000000
  70
    32
  0
VERTEX
  8
01
  5
BC50
 10
720.576
 20
-631.261
 30
0.000000
  70
    32
  0
VERTEX
  8
01
  5
BC51
 10
720.454
 20
-631.273
 30
0.000000
  70
    32
  0
VERTEX
  8
01
  5
BC52
 10
720.333
 20
-631.287
 30
0.000000
  70
    32
  0
VERTEX
  8
01
  5
BC53
 10
720.212
 20
-631.303
 30
0.000000
  70
    32
  0
VERTEX
  8
01
  5
BC54
 10
720.092
 20
-631.321
 30
0.000000
  70
    32
  0
VERTEX
  8
01
  5
BC55
 10
719.973
 20
-631.341
 30
0.000000
  70
    32
  0
VERTEX
  8
01
  5
BC56
 10
719.854
 20
-631.363
 30
0.000000
  70
    32
  0
VERTEX
  8
01
  5
BC57
 10
719.736
 20
-631.388
 30
0.000000
  70
    32
  0
VERTEX
  8
01
  5
BC58
 10
719.619
 20
-631.414
 30
0.000000
  70
    32
  0
VERTEX
  8
01
  5
BC59
 10
719.503
 20
-631.443
 30
0.000000
  70
    32
  0
VERTEX
  8
01
  5
BC5A
 10
719.388
 20
-631.473
 30
0.000000
  70
    32
  0
VERTEX
  8
01
  5
BC5B
 10
719.274
 20
-631.506
 30
0.000000
  70
    32
  0
VERTEX
  8
01
  5
BC5C
 10
719.161
 20
-631.540
 30
0.000000
  70
    32
  0
VERTEX
  8
01
  5
BC5D
 10
719.050
 20
-631.577
 30
0.000000
  70
    32
  0
VERTEX
  8
01
  5
BC5E
 10
718.940
 20
-631.615
 30
0.000000
  70
    32
  0
VERTEX
  8
01
  5
BC5F
 10
718.831
 20
-631.655
 30
0.000000
  70
    32
  0
VERTEX
  8
01
  5
BC60
 10
718.723
 20
-631.698
 30
0.000000
  70
    32
  0
VERTEX
  8
01
  5
BC61
 10
718.617
 20
-631.742
 30
0.000000
  70
    32
  0
VERTEX
  8
01
  5
BC62
 10
718.513
 20
-631.788
 30
0.000000
  70
    32
  0
VERTEX
  8
01
  5
BC63
 10
718.410
 20
-631.835
 30
0.000000
  70
    32
  0
VERTEX
  8
01
  5
BC64
 10
718.309
 20
-631.885
 30
0.000000
  70
    32
  0
VERTEX
  8
01
  5
BC65
 10
718.209
 20
-631.936
 30
0.000000
  70
    32
  0
VERTEX
  8
01
  5
BC66
 10
718.112
 20
-631.989
 30
0.000000
  70
    32
  0
VERTEX
  8
01
  5
BC67
 10
718.016
 20
-632.044
 30
0.000000
  70
    32
  0
VERTEX
  8
01
  5
BC68
 10
717.922
 20
-632.100
 30
0.000000
  70
    32
  0
VERTEX
  8
01
  5
BC69
 10
717.830
 20
-632.158
 30
0.000000
  70
    32
  0
VERTEX
  8
01
  5
BC6A
 10
717.740
 20
-632.218
 30
0.000000
  70
    32
  0
VERTEX
  8
01
  5
BC6B
 10
717.652
 20
-632.279
 30
0.000000
  70
    32
  0
VERTEX
  8
01
  5
BC6C
 10
717.566
 20
-632.342
 30
0.000000
  70
    32
  0
VERTEX
  8
01
  5
BC6D
 10
717.483
 20
-632.406
 30
0.000000
  70
    32
  0
VERTEX
  8
01
  5
BC6E
 10
717.402
 20
-632.472
 30
0.000000
  70
    32
  0
VERTEX
  8
01
  5
BC6F
 10
717.323
 20
-632.539
 30
0.000000
  70
    32
  0
VERTEX
  8
01
  5
BC70
 10
717.246
 20
-632.607
 30
0.000000
  70
    32
  0
VERTEX
  8
01
  5
BC71
 10
717.172
 20
-632.677
 30
0.000000
  70
    32
  0
VERTEX
  8
01
  5
BC72
 10
717.100
 20
-632.748
 30
0.000000
  70
    32
  0
VERTEX
  8
01
  5
BC73
 10
717.030
 20
-632.820
 30
0.000000
  70
    32
  0
VERTEX
  8
01
  5
BC74
 10
716.963
 20
-632.893
 30
0.000000
  70
    32
  0
VERTEX
  8
01
  5
BC75
 10
716.899
 20
-632.968
 30
0.000000
  70
    32
  0
VERTEX
  8
01
  5
BC76
 10
716.837
 20
-633.044
 30
0.000000
  70
    32
  0
VERTEX
  8
01
  5
BC77
 10
716.778
 20
-633.120
 30
0.000000
  70
    32
  0
VERTEX
  8
01
  5
BC78
 10
716.722
 20
-633.198
 30
0.000000
  70
    32
  0
VERTEX
  8
01
  5
BC79
 10
716.668
 20
-633.277
 30
0.000000
  70
    32
  0
VERTEX
  8
01
  5
BC7A
 10
716.617
 20
-633.356
 30
0.000000
  70
    32
  0
VERTEX
  8
01
  5
BC7B
 10
716.568
 20
-633.437
 30
0.000000
  70
    32
  0
VERTEX
  8
01
  5
BC7C
 10
716.523
 20
-633.518
 30
0.000000
  70
    32
  0
VERTEX
  8
01
  5
BC7D
 10
716.480
 20
-633.600
 30
0.000000
  70
    32
  0
VERTEX
  8
01
  5
BC7E
 10
716.440
 20
-633.683
 30
0.000000
  70
    32
  0
VERTEX
  8
01
  5
BC7F
 10
716.403
 20
-633.767
 30
0.000000
  70
    32
  0
VERTEX
  8
01
  5
BC80
 10
716.369
 20
-633.851
 30
0.000000
  70
    32
  0
VERTEX
  8
01
  5
BC81
 10
716.338
 20
-633.935
 30
0.000000
  70
    32
  0
VERTEX
  8
01
  5
BC82
 10
716.309
 20
-634.021
 30
0.000000
  70
    32
  0
VERTEX
  8
01
  5
BC83
 10
716.284
 20
-634.106
 30
0.000000
  70
    32
  0
VERTEX
  8
01
  5
BC84
 10
716.261
 20
-634.192
 30
0.000000
  70
    32
  0
VERTEX
  8
01
  5
BC85
 10
716.242
 20
-634.279
 30
0.000000
  70
    32
  0
VERTEX
  8
01
  5
BC86
 10
716.225
 20
-634.366
 30
0.000000
  70
    32
  0
VERTEX
  8
01
  5
BC87
 10
716.212
 20
-634.453
 30
0.000000
  70
    32
  0
VERTEX
  8
01
  5
BC88
 10
716.201
 20
-634.540
 30
0.000000
  70
    32
  0
VERTEX
  8
01
  5
BC89
 10
716.194
 20
-634.627
 30
0.000000
  70
    32
  0
VERTEX
  8
01
  5
BC8A
 10
716.189
 20
-634.715
 30
0.000000
  70
    32
  0
VERTEX
  8
01
  5
BC8B
 10
716.188
 20
-634.803
 30
0.000000
  70
    32
  0
SEQEND
  8
01
  5
BC8C
  0
LINE
  5
4D5
  8
01
 10
721.18766916632455
 20
-651.23408159774408
 30
0.0
 11
715.18766916632467
 21
-651.23408159774408
 31
0.0
  0
LINE
  5
4D6
  8
01
 10
726.18766916632455
 20
-646.23408159774408
 30
0.0
 11
716.18766916632467
 21
-646.23408159774408
 31
0.0
  0
POLYLINE
  5
4D7
  8
01
 10
726.18766916632455
 20
-647.66566159774368
 30
0.0
 66
     1
 70
     8
  0
VERTEX
  8
01
  5
BC8D
 10
726.188
 20
-647.666
 30
0.000000
  70
    32
  0
VERTEX
  8
01
  5
BC8E
 10
726.186
 20
-647.753
 30
0.000000
  70
    32
  0
VERTEX
  8
01
  5
BC8F
 10
726.182
 20
-647.841
 30
0.000000
  70
    32
  0
VERTEX
  8
01
  5
BC90
 10
726.174
 20
-647.928
 30
0.000000
  70
    32
  0
VERTEX
  8
01
  5
BC91
 10
726.164
 20
-648.015
 30
0.000000
  70
    32
  0
VERTEX
  8
01
  5
BC92
 10
726.150
 20
-648.102
 30
0.000000
  70
    32
  0
VERTEX
  8
01
  5
BC93
 10
726.134
 20
-648.189
 30
0.000000
  70
    32
  0
VERTEX
  8
01
  5
BC94
 10
726.114
 20
-648.276
 30
0.000000
  70
    32
  0
VERTEX
  8
01
  5
BC95
 10
726.092
 20
-648.362
 30
0.000000
  70
    32
  0
VERTEX
  8
01
  5
BC96
 10
726.066
 20
-648.448
 30
0.000000
  70
    32
  0
VERTEX
  8
01
  5
BC97
 10
726.038
 20
-648.533
 30
0.000000
  70
    32
  0
VERTEX
  8
01
  5
BC98
 10
726.007
 20
-648.617
 30
0.000000
  70
    32
  0
VERTEX
  8
01
  5
BC99
 10
725.972
 20
-648.702
 30
0.000000
  70
    32
  0
VERTEX
  8
01
  5
BC9A
 10
725.935
 20
-648.785
 30
0.000000
  70
    32
  0
VERTEX
  8
01
  5
BC9B
 10
725.895
 20
-648.868
 30
0.000000
  70
    32
  0
VERTEX
  8
01
  5
BC9C
 10
725.853
 20
-648.950
 30
0.000000
  70
    32
  0
VERTEX
  8
01
  5
BC9D
 10
725.807
 20
-649.031
 30
0.000000
  70
    32
  0
VERTEX
  8
01
  5
BC9E
 10
725.759
 20
-649.112
 30
0.000000
  70
    32
  0
VERTEX
  8
01
  5
BC9F
 10
725.708
 20
-649.191
 30
0.000000
  70
    32
  0
VERTEX
  8
01
  5
BCA0
 10
725.654
 20
-649.270
 30
0.000000
  70
    32
  0
VERTEX
  8
01
  5
BCA1
 10
725.597
 20
-649.348
 30
0.000000
  70
    32
  0
VERTEX
  8
01
  5
BCA2
 10
725.538
 20
-649.425
 30
0.000000
  70
    32
  0
VERTEX
  8
01
  5
BCA3
 10
725.476
 20
-649.500
 30
0.000000
  70
    32
  0
VERTEX
  8
01
  5
BCA4
 10
725.412
 20
-649.575
 30
0.000000
  70
    32
  0
VERTEX
  8
01
  5
BCA5
 10
725.345
 20
-649.648
 30
0.000000
  70
    32
  0
VERTEX
  8
01
  5
BCA6
 10
725.276
 20
-649.720
 30
0.000000
  70
    32
  0
VERTEX
  8
01
  5
BCA7
 10
725.204
 20
-649.791
 30
0.000000
  70
    32
  0
VERTEX
  8
01
  5
BCA8
 10
725.129
 20
-649.861
 30
0.000000
  70
    32
  0
VERTEX
  8
01
  5
BCA9
 10
725.053
 20
-649.929
 30
0.000000
  70
    32
  0
VERTEX
  8
01
  5
BCAA
 10
724.974
 20
-649.996
 30
0.000000
  70
    32
  0
VERTEX
  8
01
  5
BCAB
 10
724.892
 20
-650.062
 30
0.000000
  70
    32
  0
VERTEX
  8
01
  5
BCAC
 10
724.809
 20
-650.126
 30
0.000000
  70
    32
  0
VERTEX
  8
01
  5
BCAD
 10
724.723
 20
-650.189
 30
0.000000
  70
    32
  0
VERTEX
  8
01
  5
BCAE
 10
724.635
 20
-650.250
 30
0.000000
  70
    32
  0
VERTEX
  8
01
  5
BCAF
 10
724.545
 20
-650.310
 30
0.000000
  70
    32
  0
VERTEX
  8
01
  5
BCB0
 10
724.454
 20
-650.368
 30
0.000000
  70
    32
  0
VERTEX
  8
01
  5
BCB1
 10
724.360
 20
-650.424
 30
0.000000
  70
    32
  0
VERTEX
  8
01
  5
BCB2
 10
724.264
 20
-650.479
 30
0.000000
  70
    32
  0
VERTEX
  8
01
  5
BCB3
 10
724.166
 20
-650.532
 30
0.000000
  70
    32
  0
VERTEX
  8
01
  5
BCB4
 10
724.067
 20
-650.583
 30
0.000000
  70
    32
  0
VERTEX
  8
01
  5
BCB5
 10
723.966
 20
-650.633
 30
0.000000
  70
    32
  0
VERTEX
  8
01
  5
BCB6
 10
723.863
 20
-650.680
 30
0.000000
  70
    32
  0
VERTEX
  8
01
  5
BCB7
 10
723.758
 20
-650.726
 30
0.000000
  70
    32
  0
VERTEX
  8
01
  5
BCB8
 10
723.652
 20
-650.770
 30
0.000000
  70
    32
  0
VERTEX
  8
01
  5
BCB9
 10
723.545
 20
-650.813
 30
0.000000
  70
    32
  0
VERTEX
  8
01
  5
BCBA
 10
723.436
 20
-650.853
 30
0.000000
  70
    32
  0
VERTEX
  8
01
  5
BCBB
 10
723.325
 20
-650.891
 30
0.000000
  70
    32
  0
VERTEX
  8
01
  5
BCBC
 10
723.214
 20
-650.928
 30
0.000000
  70
    32
  0
VERTEX
  8
01
  5
BCBD
 10
723.101
 20
-650.962
 30
0.000000
  70
    32
  0
VERTEX
  8
01
  5
BCBE
 10
722.987
 20
-650.995
 30
0.000000
  70
    32
  0
VERTEX
  8
01
  5
BCBF
 10
722.872
 20
-651.025
 30
0.000000
  70
    32
  0
VERTEX
  8
01
  5
BCC0
 10
722.756
 20
-651.054
 30
0.000000
  70
    32
  0
VERTEX
  8
01
  5
BCC1
 10
722.639
 20
-651.080
 30
0.000000
  70
    32
  0
VERTEX
  8
01
  5
BCC2
 10
722.521
 20
-651.105
 30
0.000000
  70
    32
  0
VERTEX
  8
01
  5
BCC3
 10
722.403
 20
-651.127
 30
0.000000
  70
    32
  0
VERTEX
  8
01
  5
BCC4
 10
722.283
 20
-651.147
 30
0.000000
  70
    32
  0
VERTEX
  8
01
  5
BCC5
 10
722.163
 20
-651.166
 30
0.000000
  70
    32
  0
VERTEX
  8
01
  5
BCC6
 10
722.042
 20
-651.182
 30
0.000000
  70
    32
  0
VERTEX
  8
01
  5
BCC7
 10
721.921
 20
-651.195
 30
0.000000
  70
    32
  0
VERTEX
  8
01
  5
BCC8
 10
721.800
 20
-651.207
 30
0.000000
  70
    32
  0
VERTEX
  8
01
  5
BCC9
 10
721.678
 20
-651.217
 30
0.000000
  70
    32
  0
VERTEX
  8
01
  5
BCCA
 10
721.555
 20
-651.224
 30
0.000000
  70
    32
  0
VERTEX
  8
01
  5
BCCB
 10
721.433
 20
-651.230
 30
0.000000
  70
    32
  0
VERTEX
  8
01
  5
BCCC
 10
721.310
 20
-651.233
 30
0.000000
  70
    32
  0
VERTEX
  8
01
  5
BCCD
 10
721.188
 20
-651.234
 30
0.000000
  70
    32
  0
VERTEX
  8
01
  5
BCCE
 10
721.065
 20
-651.233
 30
0.000000
  70
    32
  0
VERTEX
  8
01
  5
BCCF
 10
720.942
 20
-651.230
 30
0.000000
  70
    32
  0
VERTEX
  8
01
  5
BCD0
 10
720.820
 20
-651.224
 30
0.000000
  70
    32
  0
VERTEX
  8
01
  5
BCD1
 10
720.698
 20
-651.217
 30
0.000000
  70
    32
  0
VERTEX
  8
01
  5
BCD2
 10
720.576
 20
-651.207
 30
0.000000
  70
    32
  0
VERTEX
  8
01
  5
BCD3
 10
720.454
 20
-651.195
 30
0.000000
  70
    32
  0
VERTEX
  8
01
  5
BCD4
 10
720.333
 20
-651.182
 30
0.000000
  70
    32
  0
VERTEX
  8
01
  5
BCD5
 10
720.212
 20
-651.166
 30
0.000000
  70
    32
  0
VERTEX
  8
01
  5
BCD6
 10
720.092
 20
-651.147
 30
0.000000
  70
    32
  0
VERTEX
  8
01
  5
BCD7
 10
719.973
 20
-651.127
 30
0.000000
  70
    32
  0
VERTEX
  8
01
  5
BCD8
 10
719.854
 20
-651.105
 30
0.000000
  70
    32
  0
VERTEX
  8
01
  5
BCD9
 10
719.736
 20
-651.080
 30
0.000000
  70
    32
  0
VERTEX
  8
01
  5
BCDA
 10
719.619
 20
-651.054
 30
0.000000
  70
    32
  0
VERTEX
  8
01
  5
BCDB
 10
719.503
 20
-651.025
 30
0.000000
  70
    32
  0
VERTEX
  8
01
  5
BCDC
 10
719.388
 20
-650.995
 30
0.000000
  70
    32
  0
VERTEX
  8
01
  5
BCDD
 10
719.274
 20
-650.962
 30
0.000000
  70
    32
  0
VERTEX
  8
01
  5
BCDE
 10
719.161
 20
-650.928
 30
0.000000
  70
    32
  0
VERTEX
  8
01
  5
BCDF
 10
719.050
 20
-650.891
 30
0.000000
  70
    32
  0
VERTEX
  8
01
  5
BCE0
 10
718.940
 20
-650.853
 30
0.000000
  70
    32
  0
VERTEX
  8
01
  5
BCE1
 10
718.831
 20
-650.813
 30
0.000000
  70
    32
  0
VERTEX
  8
01
  5
BCE2
 10
718.723
 20
-650.770
 30
0.000000
  70
    32
  0
VERTEX
  8
01
  5
BCE3
 10
718.617
 20
-650.726
 30
0.000000
  70
    32
  0
VERTEX
  8
01
  5
BCE4
 10
718.513
 20
-650.680
 30
0.000000
  70
    32
  0
VERTEX
  8
01
  5
BCE5
 10
718.410
 20
-650.633
 30
0.000000
  70
    32
  0
VERTEX
  8
01
  5
BCE6
 10
718.309
 20
-650.583
 30
0.000000
  70
    32
  0
VERTEX
  8
01
  5
BCE7
 10
718.209
 20
-650.532
 30
0.000000
  70
    32
  0
VERTEX
  8
01
  5
BCE8
 10
718.112
 20
-650.479
 30
0.000000
  70
    32
  0
VERTEX
  8
01
  5
BCE9
 10
718.016
 20
-650.424
 30
0.000000
  70
    32
  0
VERTEX
  8
01
  5
BCEA
 10
717.922
 20
-650.368
 30
0.000000
  70
    32
  0
VERTEX
  8
01
  5
BCEB
 10
717.830
 20
-650.310
 30
0.000000
  70
    32
  0
VERTEX
  8
01
  5
BCEC
 10
717.740
 20
-650.250
 30
0.000000
  70
    32
  0
VERTEX
  8
01
  5
BCED
 10
717.652
 20
-650.189
 30
0.000000
  70
    32
  0
VERTEX
  8
01
  5
BCEE
 10
717.566
 20
-650.126
 30
0.000000
  70
    32
  0
VERTEX
  8
01
  5
BCEF
 10
717.483
 20
-650.062
 30
0.000000
  70
    32
  0
VERTEX
  8
01
  5
BCF0
 10
717.402
 20
-649.996
 30
0.000000
  70
    32
  0
VERTEX
  8
01
  5
BCF1
 10
717.323
 20
-649.929
 30
0.000000
  70
    32
  0
VERTEX
  8
01
  5
BCF2
 10
717.246
 20
-649.861
 30
0.000000
  70
    32
  0
VERTEX
  8
01
  5
BCF3
 10
717.172
 20
-649.791
 30
0.000000
  70
    32
  0
VERTEX
  8
01
  5
BCF4
 10
717.100
 20
-649.720
 30
0.000000
  70
    32
  0
VERTEX
  8
01
  5
BCF5
 10
717.030
 20
-649.648
 30
0.000000
  70
    32
  0
VERTEX
  8
01
  5
BCF6
 10
716.963
 20
-649.575
 30
0.000000
  70
    32
  0
VERTEX
  8
01
  5
BCF7
 10
716.899
 20
-649.500
 30
0.000000
  70
    32
  0
VERTEX
  8
01
  5
BCF8
 10
716.837
 20
-649.425
 30
0.000000
  70
    32
  0
VERTEX
  8
01
  5
BCF9
 10
716.778
 20
-649.348
 30
0.000000
  70
    32
  0
VERTEX
  8
01
  5
BCFA
 10
716.722
 20
-649.270
 30
0.000000
  70
    32
  0
VERTEX
  8
01
  5
BCFB
 10
716.668
 20
-649.191
 30
0.000000
  70
    32
  0
VERTEX
  8
01
  5
BCFC
 10
716.617
 20
-649.112
 30
0.000000
  70
    32
  0
VERTEX
  8
01
  5
BCFD
 10
716.568
 20
-649.031
 30
0.000000
  70
    32
  0
VERTEX
  8
01
  5
BCFE
 10
716.523
 20
-648.950
 30
0.000000
  70
    32
  0
VERTEX
  8
01
  5
BCFF
 10
716.480
 20
-648.868
 30
0.000000
  70
    32
  0
VERTEX
  8
01
  5
BD00
 10
716.440
 20
-648.785
 30
0.000000
  70
    32
  0
VERTEX
  8
01
  5
BD01
 10
716.403
 20
-648.702
 30
0.000000
  70
    32
  0
VERTEX
  8
01
  5
BD02
 10
716.369
 20
-648.617
 30
0.000000
  70
    32
  0
VERTEX
  8
01
  5
BD03
 10
716.338
 20
-648.533
 30
0.000000
  70
    32
  0
VERTEX
  8
01
  5
BD04
 10
716.309
 20
-648.448
 30
0.000000
  70
    32
  0
VERTEX
  8
01
  5
BD05
 10
716.284
 20
-648.362
 30
0.000000
  70
    32
  0
VERTEX
  8
01
  5
BD06
 10
716.261
 20
-648.276
 30
0.000000
  70
    32
  0
VERTEX
  8
01
  5
BD07
 10
716.242
 20
-648.189
 30
0.000000
  70
    32
  0
VERTEX
  8
01
  5
BD08
 10
716.225
 20
-648.102
 30
0.000000
  70
    32
  0
VERTEX
  8
01
  5
BD09
 10
716.212
 20
-648.015
 30
0.000000
  70
    32
  0
VERTEX
  8
01
  5
BD0A
 10
716.201
 20
-647.928
 30
0.000000
  70
    32
  0
VERTEX
  8
01
  5
BD0B
 10
716.194
 20
-647.841
 30
0.000000
  70
    32
  0
VERTEX
  8
01
  5
BD0C
 10
716.189
 20
-647.753
 30
0.000000
  70
    32
  0
VERTEX
  8
01
  5
BD0D
 10
716.188
 20
-647.666
 30
0.000000
  70
    32
  0
SEQEND
  8
01
  5
BD0E
  0
LINE
  5
4D8
  8
01
 10
726.18766916632455
 20
-634.80250159774357
 30
0.0
 11
726.18766916632455
 21
-647.66566159774447
 31
0.0
  0
LINE
  5
4D9
  8
01
 10
716.18766916632467
 20
-634.80250159774357
 30
0.0
 11
716.18766916632467
 21
-647.66566159774175
 31
0.0
  0
LINE
  5
4DA
  8
01
 10
712.18765416632505
 20
-601.23408159774408
 30
0.0
 11
711.18765416632505
 21
-600.23408159774397
 31
0.0
  0
LINE
  5
4DB
  8
01
 10
713.58767116632487
 20
-601.13410159774412
 30
0.0
 11
712.78769016632475
 21
-600.33412159774343
 31
0.0
  0
LINE
  5
4DC
  8
01
 10
713.58767116632487
 20
-683.33409159774328
 30
0.0
 11
712.78766816632469
 21
-684.13407159774385
 31
0.0
  0
LINE
  5
4DD
  8
01
 10
712.18761616632491
 20
-683.23411159774332
 30
0.0
 11
711.18763116632454
 21
-684.23411159774332
 31
0.0
  0
LINE
  5
4DE
  8
01
 10
715.18766916632467
 20
-707.23408159774397
 30
0.0
 11
711.18766916632467
 21
-707.23408159774397
 31
0.0
  0
LINE
  5
4DF
  8
01
 10
712.78767516632524
 20
-707.23408159774397
 30
0.0
 11
712.78767516632524
 21
-684.13407159774385
 31
0.0
  0
LINE
  5
4E0
  8
01
 10
711.18766916632467
 20
-707.23408159774397
 30
0.0
 11
711.18766916632467
 21
-684.23408159774408
 31
0.0
  0
LINE
  5
4E1
  8
01
 10
712.18766916632455
 20
-601.23408159774408
 30
0.0
 11
712.18766916632455
 21
-683.23408159774397
 31
0.0
  0
LINE
  5
4E3
  8
01
 10
715.18766916632467
 20
-577.23408159774397
 30
0.0
 11
711.18766916632467
 21
-577.23408159774397
 31
0.0
  0
LINE
  5
4E6
  8
01
 10
821.68766916632455
 20
-583.23408159774397
 30
0.0
 11
821.68766916632455
 21
-701.23408159774408
 31
0.0
  0
LINE
  5
4E7
  8
01
 10
846.68766916632455
 20
-583.23408159774397
 30
0.0
 11
846.68766916632455
 21
-701.23408159774408
 31
0.0
  0
ARC
  5
4E8
  8
01
 10
840.68766916632455
 20
-701.23408159774408
 30
0.0
 40
6.0
 50
270.0
 51
0.0
  0
ARC
  5
4EA
  8
01
 10
827.68766916632467
 20
-701.23408159774408
 30
0.0
 40
6.0
 50
180.0
 51
270.0
  0
LINE
  5
4EB
  8
01
 10
841.93766916632467
 20
-634.80250159774357
 30
0.0
 11
841.93766916632467
 21
-647.66566159774345
 31
0.0
  0
LINE
  5
4EC
  8
01
 10
840.93766916632467
 20
-636.23408159774397
 30
0.0
 11
840.93766916632467
 21
-646.23408159774408
 31
0.0
  0
LINE
  5
4ED
  8
01
 10
827.43766916632455
 20
-636.23408159774397
 30
0.0
 11
827.43766916632455
 21
-646.23408159774408
 31
0.0
  0
LINE
  5
4EE
  8
01
 10
826.43766916632455
 20
-634.80250159774357
 30
0.0
 11
826.43766916632455
 21
-647.66566159774345
 31
0.0
  0
ARC
  5
4EF
  8
01
 10
834.18766916632455
 20
-641.0340715977436
 30
0.0
 40
10.199999999999999
 50
220.5530799999753
 51
319.44692000002459
  0
LINE
  5
4F0
  8
01
 10
827.43766916632455
 20
-646.23408159774408
 30
0.0
 11
840.93766916632467
 21
-646.23408159774408
 31
0.0
  0
LINE
  5
4F1
  8
01
 10
827.43766916632455
 20
-636.23408159774397
 30
0.0
 11
840.93766916632467
 21
-636.23408159774397
 31
0.0
  0
ARC
  5
4F2
  8
01
 10
834.18766916632455
 20
-641.43409159774365
 30
0.0
 40
10.199999999999999
 50
40.553083999977588
 51
139.44692000002459
  0
CIRCLE
  5
4F3
  8
01
 10
834.18766916632455
 20
-699.23408159774397
 30
0.0
 40
4.5
  0
CIRCLE
  5
4F4
  8
01
 10
834.18766916632455
 20
-699.23408159774397
 30
0.0
 40
2.75
  0
LINE
  5
4F5
  8
01
 10
827.68766916632467
 20
-707.23408159774397
 30
0.0
 11
840.68766916632455
 21
-707.23408159774397
 31
0.0
  0
ARC
  5
4F6
  8
01
 10
840.68766916632455
 20
-583.23408159774397
 30
0.0
 40
6.0
 50
0.0
 51
90.0
  0
ARC
  5
4F9
  8
01
 10
827.68766916632467
 20
-583.23408159774397
 30
0.0
 40
6.0
 50
90.0
 51
180.0
  0
LINE
  5
4FA
  8
01
 10
827.68766916632467
 20
-577.23408159774397
 30
0.0
 11
840.68766916632455
 21
-577.23408159774397
 31
0.0
  0
CIRCLE
  5
4FB
  8
01
 10
834.18766916632455
 20
-585.23408159774408
 30
0.0
 40
4.5
  0
CIRCLE
  5
4FC
  8
01
 10
834.18766916632455
 20
-585.23408159774408
 30
0.0
 40
2.75
  0
LINE
  5
51F
  8
01
 10
955.58767516632452
 20
-577.23408159774397
 30
0.0
 11
955.58767516632452
 21
-600.33405159774327
 31
0.0
  0
LINE
  5
520
  8
01
 10
957.18766516632502
 20
-577.23408159774397
 30
0.0
 11
957.18766516632502
 21
-600.23408159774397
 31
0.0
  0
LINE
  5
521
  8
01
 10
954.78767516632524
 20
-577.23408159774397
 30
0.0
 11
954.78767516632524
 21
-707.23408159774397
 31
0.0
  0
LINE
  5
522
  8
01
 10
953.18766516632513
 20
-577.23408159774397
 30
0.0
 11
953.18766516632513
 21
-707.23408159774397
 31
0.0
  0
LINE
  5
525
  8
01
 10
956.18766516632513
 20
-679.23408159774397
 30
0.0
 11
984.97829245402636
 21
-679.23408159774397
 31
0.0
  0
LINE
  5
526
  8
01
 10
956.18767516632477
 20
-601.23408159774408
 30
0.0
 11
957.18767516632477
 21
-600.23408159774397
 31
0.0
  0
LINE
  5
527
  8
01
 10
954.7876651663255
 20
-601.13410159774412
 30
0.0
 11
955.58767516632452
 21
-600.33405159774327
 31
0.0
  0
LINE
  5
528
  8
01
 10
946.18766516632513
 20
-631.23408159774408
 30
0.0
 11
953.18766516632513
 21
-631.23408159774408
 31
0.0
  0
LINE
  5
529
  8
01
 10
946.18766516632513
 20
-651.23408159774408
 30
0.0
 11
953.18766516632513
 21
-651.23408159774408
 31
0.0
  0
LINE
  5
52A
  8
01
 10
942.26976516632465
 20
-648.04035159774412
 30
0.0
 11
953.18766516632513
 21
-648.04035159774412
 31
0.0
  0
LINE
  5
52B
  8
01
 10
942.26976516632465
 20
-634.42780159774327
 30
0.0
 11
953.18766516632513
 21
-634.42780159774327
 31
0.0
  0
LINE
  5
52C
  8
01
 10
942.18766516632525
 20
-635.23408159774408
 30
0.0
 11
942.18766516632525
 21
-647.23408159774408
 31
0.0
  0
ARC
  5
52D
  8
01
 10
946.18766516632513
 20
-647.23408159774408
 30
0.0
 40
4.0
 50
179.999989999999
 51
270.0
  0
ARC
  5
52F
  8
01
 10
946.18766516632513
 20
-635.23408159774408
 30
0.0
 40
4.0
 50
90.000002999984659
 51
180.00001000000091
  0
LINE
  5
530
  8
01
 10
954.7876651663255
 20
-683.33409159774328
 30
0.0
 11
955.58767516632452
 21
-684.13407159774385
 31
0.0
  0
LINE
  5
531
  8
01
 10
956.18771516632569
 20
-683.23411159774332
 30
0.0
 11
957.18769516632426
 21
-684.23408159774408
 31
0.0
  0
LINE
  5
532
  8
01
 10
948.18766516632513
 20
-699.23408159774397
 30
0.0
 11
962.18766516632513
 21
-699.23408159774397
 31
0.0
  0
LINE
  5
533
  8
01
 10
953.18766516632513
 20
-707.23408159774397
 30
0.0
 11
957.18766516632502
 21
-707.23408159774397
 31
0.0
  0
LINE
  5
534
  8
01
 10
955.58767516632452
 20
-707.23408159774397
 30
0.0
 11
955.58767516632452
 21
-684.13407159774385
 31
0.0
  0
LINE
  5
535
  8
01
 10
957.18766516632502
 20
-707.23408159774397
 30
0.0
 11
957.18766516632502
 21
-684.23408159774408
 31
0.0
  0
LINE
  5
536
  8
01
 10
956.18766516632513
 20
-601.23408159774408
 30
0.0
 11
956.18766516632513
 21
-683.23408159774397
 31
0.0
  0
LINE
  5
539
  8
01
 10
953.18766516632513
 20
-577.23408159774397
 30
0.0
 11
957.18766516632502
 21
-577.23408159774397
 31
0.0
  0
LINE
  5
53A
  8
01
 10
948.18766516632513
 20
-585.23408159774408
 30
0.0
 11
962.18766516632513
 21
-585.23408159774408
 31
0.0
  0
LINE
  5
545
  8
01
 10
957.1885493483851
 20
-383.73408159877272
 30
0.0
 11
1023.188549348385
 21
-383.73408159877272
 31
0.0
  0
LINE
  5
546
  8
01
 10
957.1885493483851
 20
-385.33405159877202
 30
0.0
 11
1023.188549348385
 21
-385.33405159877202
 31
0.0
  0
LINE
  5
547
  8
01
 10
954.78855934838532
 20
-402.7340815987726
 30
0.0
 11
1023.188549348385
 21
-402.7340815987726
 31
0.0
  0
LINE
  5
548
  8
01
 10
956.38853934838608
 20
-388.23408159877272
 30
0.0
 11
957.1885493483851
 21
-387.43406159877208
 31
0.0
  0
LINE
  5
549
  8
01
 10
957.1885493483851
 20
-382.73408159877272
 30
0.0
 11
957.1885493483851
 21
-387.43406159877208
 31
0.0
  0
LINE
  5
54A
  8
01
 10
954.78855934838532
 20
-388.23405159877262
 30
0.0
 11
955.58854934838655
 21
-387.43409159877228
 31
0.0
  0
LINE
  5
54B
  8
01
 10
942.18854934838498
 20
-400.98408159877272
 30
0.0
 11
953.1885493483851
 21
-400.98408159877272
 31
0.0
  0
LINE
  5
54C
  8
01
 10
942.18854934838498
 20
-400.98408159877272
 30
0.0
 11
942.18854934838498
 21
-398.98408159877272
 31
0.0
  0
LINE
  5
54D
  8
01
 10
953.1885493483851
 20
-380.73408159877272
 30
0.0
 11
954.78855934838532
 21
-380.73408159877272
 31
0.0
  0
LINE
  5
54E
  8
01
 10
954.78855934838532
 20
-380.73408159877272
 30
0.0
 11
954.78855934838532
 21
-388.23408159877272
 31
0.0
  0
LINE
  5
54F
  8
01
 10
955.58855934838618
 20
-382.73408159877272
 30
0.0
 11
955.58855934838618
 21
-387.43406159877208
 31
0.0
  0
LINE
  5
550
  8
01
 10
954.78855934838532
 20
-382.73408159877272
 30
0.0
 11
957.1885493483851
 21
-382.73408159877272
 31
0.0
  0
LINE
  5
551
  8
01
 10
957.1885493483851
 20
-399.0340715987723
 30
0.0
 11
957.1885493483851
 21
-402.7340815987726
 31
0.0
  0
LINE
  5
552
  8
01
 10
956.38855934838557
 20
-398.23405159877262
 30
0.0
 11
957.1885493483851
 21
-399.0340715987723
 31
0.0
  0
LINE
  5
553
  8
01
 10
957.1885493483851
 20
-401.13407159877261
 30
0.0
 11
961.78855934838509
 21
-401.13407159877261
 31
0.0
  0
LINE
  5
554
  8
01
 10
954.78854934838546
 20
-398.23405159877262
 30
0.0
 11
955.58855934838618
 21
-399.0340715987723
 31
0.0
  0
LINE
  5
555
  8
01
 10
954.78855934838532
 20
-398.23408159877272
 30
0.0
 11
954.78855934838532
 21
-405.73408159877272
 31
0.0
  0
LINE
  5
556
  8
01
 10
953.1885493483851
 20
-405.73408159877272
 30
0.0
 11
954.78855934838532
 21
-405.73408159877272
 31
0.0
  0
LINE
  5
557
  8
01
 10
955.58855934838618
 20
-399.0340715987723
 30
0.0
 11
955.58855934838618
 21
-402.7340815987726
 31
0.0
  0
LINE
  5
558
  8
01
 10
953.1885493483851
 20
-373.23408159877272
 30
0.0
 11
953.1885493483851
 21
-413.23408159877272
 31
0.0
  0
LINE
  5
559
  8
01
 10
961.78855934838509
 20
-385.33405159877202
 30
0.0
 11
961.78855934838509
 21
-402.7340815987726
 31
0.0
  0
LINE
  5
55A
  8
01
 10
956.38854934838594
 20
-388.23408159877272
 30
0.0
 11
956.38854934838594
 21
-398.23408159877272
 31
0.0
  0
LINE
  5
55B
  8
01
 10
954.78855934838532
 20
-388.23408159877272
 30
0.0
 11
954.78855934838532
 21
-398.23408159877272
 31
0.0
  0
ARC
  5
55C
  8
01
 10
985.85804934838507
 20
-423.33516159877217
 30
0.0
 40
50.0
 50
130.7976899999974
 51
150.85500000002
  0
LINE
  5
55F
  8
01
 10
1021.588549348386
 20
-385.33405159877202
 30
0.0
 11
1021.588549348386
 21
-402.7340815987726
 31
0.0
  0
LINE
  5
560
  8
01
 10
1023.188549348385
 20
-383.73408159877272
 30
0.0
 11
1023.188549348385
 21
-402.7340815987726
 31
0.0
  0
LINE
  5
92B
  8
01
 10
720.1876731663242
 20
-699.23408159774397
 30
0.0
 11
706.18767316632409
 21
-699.23408159774397
 31
0.0
  0
LINE
  5
92C
  8
01
 10
720.1876731663242
 20
-585.23408159774408
 30
0.0
 11
706.18767316632409
 21
-585.23408159774408
 31
0.0
  0
LINE
  5
92E
  8
01
 10
840.68766916632455
 20
-585.23408159774408
 30
0.0
 11
827.68766916632467
 21
-585.23408159774408
 31
0.0
  0
LINE
  5
92F
  8
01
 10
834.18766916632455
 20
-578.73408159774397
 30
0.0
 11
834.18766916632455
 21
-591.73408159774397
 31
0.0
  0
LINE
  5
931
  8
01
 10
840.68766916632455
 20
-699.23408159774397
 30
0.0
 11
827.68766916632467
 21
-699.23408159774397
 31
0.0
  0
LINE
  5
932
  8
01
 10
834.18766916632455
 20
-692.73408159774408
 30
0.0
 11
834.18766916632455
 21
-705.73408159774408
 31
0.0
  0
LINE
  5
96E
  8
01
 10
974.18766516632502
 20
-663.23408159774419
 30
0.0
 11
1034.1876651663249
 21
-663.23408159774419
 31
0.0
  0
LINE
  5
96F
  8
01
 10
1004.187665166325
 20
-633.23408159774419
 30
0.0
 11
1004.187665166325
 21
-693.23408159774419
 31
0.0
  0
POINT
  5
21C1
  8
01
 10
799.68766916632455
 20
-663.23408159774419
 30
0.0
 50
180.0
  0
CIRCLE
  5
21CE
  8
01
 10
799.68766916632455
 20
-663.23408159774419
 30
0.0
 40
2.5
  0
LINE
  5
5978
  8
01
 10
1004.18778150607
 20
-408.23408159877272
 30
0.0
 11
1004.18778150607
 21
-443.23408159877272
 31
0.0
  0
LINE
  5
5979
  8
01
 10
784.18766916632455
 20
-663.23408159774419
 30
0.0
 11
819.18766916632455
 21
-663.23408159774419
 31
0.0
  0
LINE
  5
597A
  8
01
 10
849.18766916632467
 20
-663.23408159774419
 30
0.0
 11
884.18766916632455
 21
-663.23408159774419
 31
0.0
  0
LINE
  5
A5D6
  8
01
 10
953.1885493483851
 20
-413.23408159877272
 30
0.0
 11
1106.942929503417
 21
-413.23408159877272
 31
0.0
  0
LINE
  5
A5D7
  8
01
 10
953.1885493483851
 20
-373.23408159877272
 30
0.0
 11
1106.942929503417
 21
-373.23408159877272
 31
0.0
  0
POINT
  5
B120
  8
01
 10
814.18766916632467
 20
-663.23408159774408
 30
0.0
  0
LINE
  5
B121
  8
01
 10
814.18766916632467
 20
-688.23408159774385
 30
0.0
 11
814.18766916632467
 21
-638.2341815977444
 31
0.0
  0
LINE
  5
B527
  8
01
 10
854.18766916632455
 20
-638.23408159774419
 30
0.0
 11
854.18766916632455
 21
-688.23408159774419
 31
0.0
  0
LINE
  5
B528
  8
01
 10
862.68766916632455
 20
-687.23408159774419
 30
0.0
 11
862.68766916632455
 21
-639.23408159774408
 31
0.0
  0
LINE
  5
B529
  8
01
 10
854.18766916632455
 20
-688.23408159774419
 30
0.0
 11
861.68766916632467
 21
-688.23408159774419
 31
0.0
  0
ARC
  5
B52A
  8
01
 10
861.68766916632467
 20
-687.23408159774419
 30
0.0
 40
1.0
 50
270.0
 51
0.0
  0
LINE
  5
B52B
  8
01
 10
854.18766916632455
 20
-638.23408159774419
 30
0.0
 11
861.68766916632467
 21
-638.23408159774419
 31
0.0
  0
ARC
  5
B52C
  8
01
 10
861.68766916632467
 20
-639.23408159774408
 30
0.0
 40
1.0
 50
0.0
 51
90.0
  0
LINE
  5
B5EE
  8
01
 10
814.18766916632467
 20
-638.23408159774419
 30
0.0
 11
814.18766916632467
 21
-688.23408159774419
 31
0.0
  0
LINE
  5
B5EF
  8
01
 10
805.68766916632455
 20
-687.23408159774419
 30
0.0
 11
805.68766916632455
 21
-639.23408159774408
 31
0.0
  0
LINE
  5
B5F0
  8
01
 10
814.18766916632467
 20
-688.23408159774419
 30
0.0
 11
806.68766916632455
 21
-688.23408159774419
 31
0.0
  0
ARC
  5
B5F1
  8
01
 10
806.68766916632455
 20
-687.23408159774419
 30
0.0
 40
1.0
 50
180.0
 51
270.0
  0
LINE
  5
B5F2
  8
01
 10
814.18766916632467
 20
-638.23408159774419
 30
0.0
 11
806.68766916632455
 21
-638.23408159774419
 31
0.0
  0
ARC
  5
B5F3
  8
01
 10
806.68766916632455
 20
-639.23408159774408
 30
0.0
 40
1.0
 50
90.0
 51
180.0
  0
LINE
  5
B5FF
  8
01
 10
694.1876731663242
 20
-663.23408159774419
 30
0.0
 11
634.1876731663242
 21
-663.23408159774419
 31
0.0
  0
LINE
  5
B600
  8
01
 10
664.18767316632409
 20
-633.23408159774419
 30
0.0
 11
664.18767316632409
 21
-693.23408159774419
 31
0.0
  0
TEXT
  5
B62A
  8
01
 10
648.94691791791513
 20
-386.72093360312817
 30
0.0
 40
20.0
  1
1-S2C-X-LW
  0
LINE
  5
B62C
  8
01
 10
648.94691791791513
 20
-448.22093360312817
 30
0.0
 11
753.94691791791513
 21
-448.22093360312817
 31
0.0
  0
TEXT
  5
B62E
  8
01
 10
661.44691791791445
 20
-424.97093360312817
 30
0.0
 40
6.0
  1
表面処理
 72
     1
 11
675.04691791791458
 21
-424.97093360312817
 31
0.0
  0
LINE
  5
B630
  8
01
 10
648.94691791791513
 20
-416.72093360312812
 30
0.0
 11
753.94691791791513
 21
-416.72093360312812
 31
0.0
  0
LINE
  5
B631
  8
01
 10
648.94691791791513
 20
-427.22093360312817
 30
0.0
 11
753.94691791791513
 21
-427.22093360312817
 31
0.0
  0
LINE
  5
B632
  8
01
 10
648.94691791791513
 20
-437.72093360312812
 30
0.0
 11
753.94691791791513
 21
-437.72093360312812
 31
0.0
  0
LINE
  5
B633
  8
01
 10
648.94691791791513
 20
-437.72093360312812
 30
0.0
 11
753.94691791791513
 21
-437.72093360312812
 31
0.0
  0
LINE
  5
B634
  8
01
 10
701.44691791791513
 20
-416.72093360312812
 30
0.0
 11
701.44691791791513
 21
-458.72093360312812
 31
0.0
  0
TEXT
  5
B635
  8
01
 10
705.04691791791595
 20
-435.79246907860221
 30
0.0
 40
6.0
  1
1-S2C-P-LW
 41
0.7
 72
     1
 11
727.54691791791595
 21
-435.79246907860221
 31
0.0
  0
TEXT
  5
B636
  8
01
 10
717.34691791791454
 20
-424.97093360312817
 30
0.0
 40
6.0
  1
コード
 72
     1
 11
727.54691791791458
 21
-424.97093360312817
 31
0.0
  0
LINE
  5
B637
  8
01
 10
648.94691791791513
 20
-458.72093360312812
 30
0.0
 11
753.94691791791513
 21
-458.72093360312812
 31
0.0
  0
LINE
  5
B639
  8
01
 10
648.94691791791513
 20
-458.72093360312812
 30
0.0
 11
648.94691791791513
 21
-416.72093360312812
 31
0.0
  0
LINE
  5
B63A
  8
01
 10
753.94691791791513
 20
-458.72093360312812
 30
0.0
 11
753.94691791791513
 21
-416.72093360312812
 31
0.0
  0
TEXT
  5
B63B
  8
01
 10
705.54691791791595
 20
-446.29246907860232
 30
0.0
 40
6.0
  1
1-S2C-T-LW
 41
0.7
 72
     1
 11
727.54691791791595
 21
-446.29246907860232
 31
0.0
  0
TEXT
  5
B63C
  8
01
 10
703.44691791791593
 20
-456.79246907860221
 30
0.0
 40
6.0
  1
1-S2C-PT-LW
 41
0.7
 72
     1
 11
727.54691791791595
 21
-456.79246907860221
 31
0.0
  0
LINE
  5
B748
  8
01
 10
980.18778150606965
 20
-421.7340815987726
 30
0.0
 11
1028.18778150607
 21
-421.7340815987726
 31
0.0
  0
LINE
  5
B749
  8
01
 10
979.18778150606965
 20
-413.2340815987726
 30
0.0
 11
979.18778150606965
 21
-420.73408159877249
 31
0.0
  0
ARC
  5
B74A
  8
01
 10
980.18778150606965
 20
-420.73408159877272
 30
0.0
 40
1.0
 50
180.0
 51
270.0
  0
LINE
  5
B74B
  8
01
 10
1029.1877815060691
 20
-413.2340815987726
 30
0.0
 11
1029.1877815060691
 21
-420.73408159877249
 31
0.0
  0
ARC
  5
B74C
  8
01
 10
1028.18778150607
 20
-420.73408159877272
 30
0.0
 40
1.0
 50
270.0
 51
0.0
  0
ARC
  5
B74D
  8
01
 10
1004.187665166325
 20
-663.23408159774419
 30
0.0
 40
25.0
 50
13.60303104671622
 51
346.39696895328382
  0
LINE
  5
B760
  8
01
 10
996.23778450606653
 20
-422.0340815987725
 30
0.0
 11
1012.137778506066
 21
-422.03408159877262
 31
0.0
  0
ARC
  5
B765
  8
01
 10
1018.941516934528
 20
-683.2814601913866
 30
0.0
 40
15.0
 50
84.112682133585537
 51
138.90232941312351
  0
ARC
  5
B766
  8
01
 10
1018.941516934528
 20
-643.18670300410145
 30
0.0
 40
15.0
 50
221.09767058687649
 51
275.88731786641449
  0
ARC
  5
B767
  8
01
 10
987.73766516632531
 20
-663.23408159774419
 30
0.0
 40
26.0
 50
13.99822588534515
 51
17.600626102077431
  0
ARC
  5
B768
  8
01
 10
987.73766516632531
 20
-663.23408159774419
 30
0.0
 40
26.0
 50
342.3993738979226
 51
346.00177411465489
  0
ARC
  5
B769
  8
01
 10
1020.637665166326
 20
-663.23408159774419
 30
0.0
 40
26.0
 50
162.3993738979226
 51
180.0
  0
LINE
  5
B76A
  8
01
 10
863.18766916632467
 20
-648.23408159774408
 30
0.0
 11
863.18766916632558
 21
-663.23408159774419
 31
0.0
  0
LINE
  5
B76B
  8
01
 10
864.18766916632467
 20
-648.23408159774408
 30
0.0
 11
863.18766916632467
 21
-648.23408159774408
 31
0.0
  0
LINE
  5
B76C
  8
01
 10
864.18766916632467
 20
-678.23408159774408
 30
0.0
 11
863.18766916632467
 21
-678.23408159774408
 31
0.0
  0
ARC
  5
B76D
  8
01
 10
908.68766916632467
 20
-643.73408159774408
 30
0.0
 40
27.0
 50
265.09485852090688
 51
279.68980735130953
  0
ARC
  5
B76E
  8
01
 10
908.68766916632467
 20
-682.73408159774419
 30
0.0
 40
27.0
 50
80.310192648690474
 51
94.905141479093075
  0
ARC
  5
B76F
  8
01
 10
911.21237953991829
 20
-658.52008300209593
 30
0.0
 40
12.0
 50
279.68980735130953
 51
313.51196948267392
  0
ARC
  5
B770
  8
01
 10
911.21237953991829
 20
-667.94808019339337
 30
0.0
 40
12.0
 50
46.488030517326052
 51
80.310192648690474
  0
ARC
  5
B771
  8
01
 10
915.68766916632455
 20
-663.23408159774419
 30
0.0
 40
5.5
 50
313.51196948267392
 51
0.0
  0
ARC
  5
B772
  8
01
 10
915.68766916632455
 20
-663.23408159774419
 30
0.0
 40
5.5
 50
0.0
 51
46.488030517326052
  0
ARC
  5
B773
  8
01
 10
1066.6376651663261
 20
-220.73408159774419
 30
0.0
 40
450.0
 50
264.11268213358551
 51
274.76302667072468
  0
ARC
  5
B774
  8
01
 10
1066.6376651663261
 20
-1105.7340815977441
 30
0.0
 40
450.0
 50
85.236973329275273
 51
95.887317866414477
  0
ARC
  5
B775
  8
01
 10
1099.021230459482
 20
-609.38727494485124
 30
0.0
 40
60.0
 50
274.76302667072468
 51
288.5874268575318
  0
ARC
  5
B776
  8
01
 10
1112.6376651663261
 20
-663.23408159774419
 30
0.0
 40
7.0
 50
346.9639612751115
 51
13.036038724888501
  0
ARC
  5
B777
  8
01
 10
1099.021230459482
 20
-717.08088825063703
 30
0.0
 40
60.0
 50
71.412573142468204
 51
85.236973329275273
  0
ARC
  5
B778
  8
01
 10
1117.508807061788
 20
-664.36190101337399
 30
0.0
 40
2.0
 50
288.5874268575318
 51
346.9639612751194
  0
ARC
  5
B779
  8
01
 10
1117.508807061788
 20
-662.10626218211405
 30
0.0
 40
2.0
 50
13.03603872488056
 51
71.412573142468204
  0
ARC
  5
B77A
  8
01
 10
1020.637665166326
 20
-663.23408159774419
 30
0.0
 40
26.0
 50
180.0
 51
197.6006261020774
  0
LINE
  5
B77B
  8
01
 10
863.18766916632558
 20
-663.23408159774419
 30
0.0
 11
863.18766916632467
 21
-678.23408159774408
 31
0.0
  0
ARC
  5
B77C
  8
01
 10
1000.129100892815
 20
-659.30313760981164
 30
0.0
 40
13.0
 50
17.600626102077431
 51
39.112573138824601
  0
ARC
  5
B77D
  8
01
 10
1008.246229439835
 20
-659.30313760981164
 30
0.0
 40
13.0
 50
140.88742686117541
 51
162.3993738979226
  0
ARC
  5
B77E
  8
01
 10
1004.187665166325
 20
-656.00335280058948
 30
0.0
 40
7.769271202845375
 50
39.112573138824601
 51
140.88742686117541
  0
ARC
  5
B77F
  8
01
 10
1000.129100892815
 20
-667.16502558567674
 30
0.0
 40
13.0
 50
320.88742686117541
 51
342.3993738979226
  0
ARC
  5
B780
  8
01
 10
1008.246229439835
 20
-667.16502558567674
 30
0.0
 40
13.0
 50
197.6006261020774
 51
219.11257313882459
  0
ARC
  5
B781
  8
01
 10
1004.187665166325
 20
-670.46481039489868
 30
0.0
 40
7.769271202845375
 50
219.11257313882459
 51
320.88742686117541
  0
ARC
  5
B782
  8
01
 10
864.18766916632467
 20
-783.03408159774438
 30
0.0
 40
134.80000000000001
 50
76.908280987877504
 51
90.0
  0
ARC
  5
B783
  8
01
 10
881.130657246601
 20
-710.17822970572718
 30
0.0
 40
60.0
 50
55.917936414953139
 51
76.908280987877504
  0
ARC
  5
B784
  8
01
 10
864.18766916632467
 20
-543.43408159774481
 30
0.0
 40
134.80000000000001
 50
270.0
 51
283.0917190121225
  0
ARC
  5
B785
  8
01
 10
881.13065724660191
 20
-616.28993348976201
 30
0.0
 40
60.0
 50
283.0917190121225
 51
304.08206358504691
  0
LINE
  5
B786
  8
01
 10
862.68766916632455
 20
-671.18191461802428
 30
0.0
 11
863.18766916632467
 21
-671.18191461802428
 31
0.0
  0
LINE
  5
B787
  8
01
 10
862.68766916632455
 20
-655.28624857746502
 30
0.0
 11
863.18766916632467
 21
-655.28624857746502
 31
0.0
  0
LINE
  5
B788
  8
01
 10
994.6377815060705
 20
-422.01114879440428
 30
0.0
 11
1013.73778150607
 21
-422.01114879440428
 31
0.0
  0
ARC
  5
B789
  8
01
 10
1144.63778150607
 20
-423.01114879440428
 30
0.0
 40
150.0
 50
180.0
 51
191.7775769343049
  0
LINE
  5
B78A
  8
01
 10
994.6377815060705
 20
-423.01114879440428
 30
0.0
 11
994.6377815060705
 21
-422.01114879440428
 31
0.0
  0
LINE
  5
B78B
  8
01
 10
1013.73778150607
 20
-423.01114879440428
 30
0.0
 11
1013.73778150607
 21
-422.01114879440428
 31
0.0
  0
ARC
  5
B78C
  8
01
 10
1066.63778150607
 20
-805.01114879440433
 30
0.0
 40
350.0
 50
85.048450687360216
 51
97.39596647792149
  0
ARC
  5
B78D
  8
01
 10
1066.63778150607
 20
-300.01114879440428
 30
0.0
 40
180.0
 50
253.36654646881101
 51
279.81121064858797
  0
ARC
  5
B78E
  8
01
 10
1091.6686401073759
 20
-516.09341635542535
 30
0.0
 40
60.0
 50
65.70264377333001
 51
85.048450687360216
  0
ARC
  5
B78F
  8
01
 10
1083.678011856628
 20
-398.54860639099502
 30
0.0
 40
80.0
 50
279.81121064858797
 51
294.0957960710428
  0
ARC
  5
B790
  8
01
 10
1114.0631871454341
 20
-466.4888899292057
 30
0.0
 40
5.5745943606361834
 50
294.0957960710428
 51
65.70264377333001
  0
ARC
  5
B791
  8
01
 10
1020.553950707505
 20
-449.98962756093141
 30
0.0
 40
8.0
 50
174.97488167901051
 51
277.3959664779216
  0
ARC
  5
B792
  8
01
 10
1022.269363428401
 20
-448.52526757536469
 30
0.0
 40
25.0
 50
191.7775769343049
 51
253.36654646881101
  0
ARC
  5
B793
  8
01
 10
863.73778150606995
 20
-423.01114879440138
 30
0.0
 40
150.0
 50
357.32522551226049
 51
0.0
  0
ARC
  5
B794
  8
01
 10
776.06976427990139
 20
-427.48266890967051
 30
0.0
 40
237.51805361880409
 50
354.73233232330699
 51
359.3900507343858
  0
LINE
  5
B796
  8
01
 10
1012.13778150607
 20
-422.01114879440428
 30
0.0
 11
1012.13778150607
 21
-421.7340815987726
 31
0.0
  0
LINE
  5
B797
  8
01
 10
996.23778150606995
 20
-422.01114879440428
 30
0.0
 11
996.23778150606904
 21
-421.7340815987726
 31
0.0
  0
LINE
  5
B825
  8
01
 10
1004.18778150607
 20
-378.23408159877272
 30
0.0
 11
1004.18778150607
 21
-343.23408159877272
 31
0.0
  0
LINE
  5
B826
  8
01
 10
980.18778150606965
 20
-364.73408159877278
 30
0.0
 11
1028.18778150607
 21
-364.73408159877278
 31
0.0
  0
LINE
  5
B827
  8
01
 10
979.18778150606965
 20
-373.23408159877278
 30
0.0
 11
979.18778150606965
 21
-365.73408159877278
 31
0.0
  0
ARC
  5
B828
  8
01
 10
980.18778150606965
 20
-365.73408159877272
 30
0.0
 40
1.0
 50
90.000000000000028
 51
180.0
  0
LINE
  5
B829
  8
01
 10
1029.1877815060691
 20
-373.23408159877278
 30
0.0
 11
1029.1877815060691
 21
-365.73408159877278
 31
0.0
  0
ARC
  5
B82A
  8
01
 10
1028.18778150607
 20
-365.73408159877272
 30
0.0
 40
1.0
 50
0.0
 51
90.000000000000028
  0
LINE
  5
B82B
  8
01
 10
996.23778450606653
 20
-364.43408159877288
 30
0.0
 11
1012.137778506066
 21
-364.43408159877282
 31
0.0
  0
LINE
  5
B82C
  8
01
 10
994.6377815060705
 20
-364.4570144031411
 30
0.0
 11
1013.73778150607
 21
-364.4570144031411
 31
0.0
  0
ARC
  5
B82D
  8
01
 10
1144.63778150607
 20
-363.4570144031411
 30
0.0
 40
150.0
 50
168.2224230656953
 51
180.0
  0
LINE
  5
B82E
  8
01
 10
994.6377815060705
 20
-363.4570144031411
 30
0.0
 11
994.6377815060705
 21
-364.4570144031411
 31
0.0
  0
LINE
  5
B82F
  8
01
 10
1013.73778150607
 20
-363.4570144031411
 30
0.0
 11
1013.73778150607
 21
-364.4570144031411
 31
0.0
  0
ARC
  5
B830
  8
01
 10
1066.63778150607
 20
18.542985596858902
 30
0.0
 40
350.0
 50
262.60403352207811
 51
274.95154931263988
  0
ARC
  5
B831
  8
01
 10
1066.63778150607
 20
-486.4570144031411
 30
0.0
 40
180.0
 50
80.188789351411856
 51
106.63345353118881
  0
ARC
  5
B832
  8
01
 10
1091.6686401073759
 20
-270.37474684211998
 30
0.0
 40
60.0
 50
274.95154931263988
 51
294.29735622666988
  0
ARC
  5
B833
  8
01
 10
1083.678011856628
 20
-387.91955680655042
 30
0.0
 40
80.0
 50
65.904203928958125
 51
80.188789351411856
  0
ARC
  5
B834
  8
01
 10
1114.0631871454341
 20
-319.97927326833968
 30
0.0
 40
5.5745943606361834
 50
294.29735622666988
 51
65.904203928958125
  0
ARC
  5
B835
  8
01
 10
1020.553950707505
 20
-336.47853563661403
 30
0.0
 40
8.0
 50
82.604033522078112
 51
185.02511832098929
  0
ARC
  5
B836
  8
01
 10
1022.269363428401
 20
-337.94289562218069
 30
0.0
 40
25.0
 50
106.63345353118881
 51
168.2224230656953
  0
ARC
  5
B837
  8
01
 10
863.73778150606995
 20
-363.45701440314411
 30
0.0
 40
150.0
 50
0.0
 51
2.6747744877394961
  0
ARC
  5
B838
  8
01
 10
776.06976427990139
 20
-358.98549428787487
 30
0.0
 40
237.51805361880409
 50
0.60994926561421
 51
5.2676676766931054
  0
LINE
  5
B83A
  8
01
 10
1012.13778150607
 20
-364.4570144031411
 30
0.0
 11
1012.13778150607
 21
-364.73408159877278
 31
0.0
  0
LINE
  5
B83B
  8
01
 10
996.23778150606995
 20
-364.4570144031411
 30
0.0
 11
996.23778150606904
 21
-364.73408159877278
 31
0.0
  0
ARC
  5
B83E
  8
01
 10
664.18767316632409
 20
-663.23408159774419
 30
0.0
 40
25.0
 50
193.60303104671519
 51
166.39696895328481
  0
ARC
  5
B83F
  8
01
 10
649.43382139812093
 20
-683.2814601913866
 30
0.0
 40
15.0
 50
41.097670586878962
 51
95.887317866414477
  0
ARC
  5
B840
  8
01
 10
649.43382139812093
 20
-643.18670300410145
 30
0.0
 40
15.0
 50
264.11268213358551
 51
318.90232941312098
  0
ARC
  5
B841
  8
01
 10
680.63767316632402
 20
-663.23408159774419
 30
0.0
 40
26.0
 50
162.3993738979207
 51
166.00177411465339
  0
ARC
  5
B842
  8
01
 10
680.63767316632402
 20
-663.23408159774419
 30
0.0
 40
26.0
 50
193.9982258853465
 51
197.6006261020793
  0
ARC
  5
B843
  8
01
 10
647.73767316632336
 20
-663.23408159774419
 30
0.0
 40
26.0
 50
0.000000000000007
 51
17.60062610207931
  0
LINE
  5
B844
  8
01
 10
805.18766916632467
 20
-648.23408159774408
 30
0.0
 11
805.18766916632364
 21
-663.23408159774419
 31
0.0
  0
LINE
  5
B845
  8
01
 10
804.18766916632455
 20
-648.23408159774408
 30
0.0
 11
805.18766916632467
 21
-648.23408159774408
 31
0.0
  0
LINE
  5
B846
  8
01
 10
804.18766916632455
 20
-678.23408159774408
 30
0.0
 11
805.18766916632467
 21
-678.23408159774408
 31
0.0
  0
ARC
  5
B847
  8
01
 10
759.68766916632455
 20
-643.73408159774408
 30
0.0
 40
27.0
 50
260.31019264869047
 51
274.90514147909317
  0
ARC
  5
B848
  8
01
 10
759.68766916632455
 20
-682.73408159774419
 30
0.0
 40
27.0
 50
85.094858520906854
 51
99.689807351309483
  0
ARC
  5
B849
  8
01
 10
757.16295879273093
 20
-658.52008300209593
 30
0.0
 40
12.0
 50
226.488030517326
 51
260.31019264869047
  0
ARC
  5
B84A
  8
01
 10
757.16295879273093
 20
-667.94808019339337
 30
0.0
 40
12.0
 50
99.689807351309483
 51
133.511969482674
  0
ARC
  5
B84B
  8
01
 10
752.68766916632467
 20
-663.23408159774419
 30
0.0
 40
5.5
 50
180.0
 51
226.488030517326
  0
ARC
  5
B84C
  8
01
 10
752.68766916632467
 20
-663.23408159774419
 30
0.0
 40
5.5
 50
133.511969482674
 51
180.0
  0
ARC
  5
B84D
  8
01
 10
601.73767316632336
 20
-220.73408159774419
 30
0.0
 40
450.0
 50
265.2369733292752
 51
275.88731786641449
  0
ARC
  5
B84E
  8
01
 10
601.73767316632336
 20
-1105.7340815977441
 30
0.0
 40
450.0
 50
84.112682133585508
 51
94.763026670724699
  0
ARC
  5
B84F
  8
01
 10
569.35410787316675
 20
-609.38727494485124
 30
0.0
 40
60.0
 50
251.41257314246829
 51
265.2369733292752
  0
ARC
  5
B850
  8
01
 10
555.73767316632336
 20
-663.23408159774419
 30
0.0
 40
7.0
 50
166.96396127511099
 51
193.03603872488901
  0
ARC
  5
B851
  8
01
 10
569.35410787316675
 20
-717.08088825063703
 30
0.0
 40
60.0
 50
94.763026670724699
 51
108.5874268575317
  0
ARC
  5
B852
  8
01
 10
550.86653127086174
 20
-664.36190101337399
 30
0.0
 40
2.0
 50
193.03603872488151
 51
251.41257314246829
  0
ARC
  5
B853
  8
01
 10
550.86653127086174
 20
-662.10626218211405
 30
0.0
 40
2.0
 50
108.5874268575317
 51
166.96396127511849
  0
ARC
  5
B854
  8
01
 10
647.73767316632336
 20
-663.23408159774419
 30
0.0
 40
26.0
 50
342.39937389792073
 51
0.000000000000007
  0
LINE
  5
B855
  8
01
 10
805.18766916632364
 20
-663.23408159774419
 30
0.0
 11
805.18766916632467
 21
-678.23408159774408
 31
0.0
  0
ARC
  5
B856
  8
01
 10
668.24623743983375
 20
-659.30313760981164
 30
0.0
 40
13.0
 50
140.8874268611732
 51
162.3993738979207
  0
ARC
  5
B857
  8
01
 10
660.12910889281375
 20
-659.30313760981164
 30
0.0
 40
13.0
 50
17.60062610207931
 51
39.112573138826733
  0
ARC
  5
B858
  8
01
 10
664.18767316632409
 20
-656.00335280058948
 30
0.0
 40
7.769271202845375
 50
39.112573138826733
 51
140.8874268611732
  0
ARC
  5
B859
  8
01
 10
668.24623743983375
 20
-667.16502558567674
 30
0.0
 40
13.0
 50
197.6006261020793
 51
219.11257313882669
  0
ARC
  5
B85A
  8
01
 10
660.12910889281375
 20
-667.16502558567674
 30
0.0
 40
13.0
 50
320.88742686117331
 51
342.39937389792073
  0
ARC
  5
B85B
  8
01
 10
664.18767316632409
 20
-670.46481039489868
 30
0.0
 40
7.769271202845375
 50
219.11257313882669
 51
320.88742686117331
  0
ARC
  5
B85C
  8
01
 10
804.18766916632455
 20
-783.03408159774438
 30
0.0
 40
134.80000000000001
 50
90.0
 51
103.0917190121225
  0
ARC
  5
B85D
  8
01
 10
787.24468108604833
 20
-710.17822970572718
 30
0.0
 40
60.0
 50
103.0917190121225
 51
124.0820635850469
  0
ARC
  5
B85E
  8
01
 10
804.18766916632455
 20
-543.43408159774481
 30
0.0
 40
134.80000000000001
 50
256.9082809878775
 51
270.0
  0
ARC
  5
B85F
  8
01
 10
787.24468108604742
 20
-616.28993348976201
 30
0.0
 40
60.0
 50
235.917936414953
 51
256.9082809878775
  0
LINE
  5
B860
  8
01
 10
805.68766916632455
 20
-671.18191461802428
 30
0.0
 11
805.18766916632467
 21
-671.18191461802428
 31
0.0
  0
LINE
  5
B861
  8
01
 10
805.68766916632455
 20
-655.28624857746502
 30
0.0
 11
805.18766916632467
 21
-655.28624857746502
 31
0.0
  0
LINE
  5
B864
  8
01
 10
991.45409919803751
 20
-427.73408159877249
 30
0.0
 11
1001.953128811449
 21
-427.73408159877249
 31
0.0
  0
LINE
  5
B865
  8
01
 10
991.45409919803751
 20
-358.73408159877278
 30
0.0
 11
1001.953128811449
 21
-358.73408159877278
 31
0.0
  0
TEXT
  5
B8BA
  8
01
 10
657.84691791791454
 20
-445.68730402048442
 30
0.0
 40
6.0
  1
ヘアライン
 72
     1
 11
675.04691791791458
 21
-445.68730402048442
 31
0.0
  0
TEXT
  5
B8BB
  8
01
 10
668.64691791791449
 20
-435.22386659241471
 30
0.0
 40
6.0
  1
鏡面
 72
     1
 11
675.04691791791458
 21
-435.22386659241471
 31
0.0
  0
TEXT
  5
B8BC
  8
01
 10
652.87548934648601
 20
-456.18730402048448
 30
0.0
 40
6.0
  1
鏡面+ヘアライン
 41
0.8
 72
     1
 11
675.04691791791458
 21
-456.18730402048448
 31
0.0
  0
LINE
  5
B983
  8
01
 10
646.1876851663244
 20
-604.73408159774419
 30
0.0
 11
646.1876851663244
 21
-645.88479247371515
 31
0.0
  0
LINE
  5
B985
  8
01
 10
1022.187665166325
 20
-604.73408159774419
 30
0.0
 11
1022.187665166325
 21
-645.88480492373969
 31
0.0
  0
LINE
  5
B986
  8
01
  6
BYBLOCK
 10
1001.187665166325
 20
-604.73408159774419
 30
0.0
 11
1007.187665166325
 21
-604.73408159774419
 31
0.0
  0
LINE
  5
B987
  8
01
  6
BYBLOCK
 10
1014.187665166325
 20
-604.73408159774419
 30
0.0
 11
1022.187665166325
 21
-604.73408159774419
 31
0.0
  0
LINE
  5
B988
  8
01
  6
BYBLOCK
 10
1001.187665166325
 20
-605.7340815977434
 30
0.0
 11
1001.187665166325
 21
-604.73408159774419
 31
0.0
  0
LINE
  5
B989
  8
01
  6
BYBLOCK
 10
1007.187665166325
 20
-605.73408159774419
 30
0.0
 11
1007.187665166325
 21
-604.73408159774419
 31
0.0
  0
ARC
  5
B98A
  8
01
  6
BYBLOCK
 10
997.68766516632479
 20
-605.73408159774419
 30
0.0
 40
3.5
 50
179.99999999998701
 51
0.0000000000130276
  0
ARC
  5
B98B
  8
01
  6
BYBLOCK
 10
1010.687665166325
 20
-605.73408159774419
 30
0.0
 40
3.5
 50
180.0
 51
0.0
  0
CIRCLE
  5
B98C
  8
01
  6
BYBLOCK
 10
1004.187665166036
 20
-613.23408159803284
 30
0.0
 40
6.0
  0
LINE
  5
B98D
  8
01
  6
BYBLOCK
 10
994.18766516632479
 20
-604.73408159774419
 30
0.0
 11
956.18766516632513
 21
-604.73408159774419
 31
0.0
  0
LINE
  5
B98E
  8
01
  6
BYBLOCK
 10
994.18766516632456
 20
-605.7340815977434
 30
0.0
 11
994.18766516632479
 21
-604.73408159774419
 31
0.0
  0
LINE
  5
B98F
  8
01
  6
BYBLOCK
 10
1014.187665166325
 20
-605.73408159774419
 30
0.0
 11
1014.187665166325
 21
-604.73408159774419
 31
0.0
  0
LINE
  5
B990
  8
01
  6
BYBLOCK
 10
1004.187665166036
 20
-616.78408150471444
 30
0.0
 11
1007.737665072718
 21
-613.23408159803284
 31
0.0
  0
LINE
  5
B991
  8
01
  6
BYBLOCK
 10
1007.737665072718
 20
-613.23408159803284
 30
0.0
 11
1004.187665166036
 21
-609.68408169135137
 31
0.0
  0
LINE
  5
B992
  8
01
  6
BYBLOCK
 10
1000.637665259354
 20
-613.23408159803284
 30
0.0
 11
1004.187665166036
 21
-616.78408150471444
 31
0.0
  0
LINE
  5
B993
  8
01
  6
BYBLOCK
 10
1004.187665166036
 20
-609.68408169135137
 30
0.0
 11
1000.637665259354
 21
-613.23408159803284
 31
0.0
  0
LINE
  5
B994
  8
01
  6
BYBLOCK
 10
667.18767316632432
 20
-604.73408159774419
 30
0.0
 11
661.18767316632398
 21
-604.73408159774419
 31
0.0
  0
LINE
  5
B995
  8
01
  6
BYBLOCK
 10
654.18767316632409
 20
-604.73408159774419
 30
0.0
 11
646.1876851663244
 21
-604.73408159774419
 31
0.0
  0
LINE
  5
B996
  8
01
  6
BYBLOCK
 10
667.18767316632409
 20
-605.7340815977434
 30
0.0
 11
667.18767316632432
 21
-604.73408159774419
 31
0.0
  0
LINE
  5
B997
  8
01
  6
BYBLOCK
 10
661.18767316632398
 20
-605.73408159774419
 30
0.0
 11
661.18767316632398
 21
-604.73408159774419
 31
0.0
  0
ARC
  5
B998
  8
01
  6
BYBLOCK
 10
670.68767316632432
 20
-605.73408159774419
 30
0.0
 40
3.5
 50
179.99999999998701
 51
0.0000000000130276
  0
ARC
  5
B999
  8
01
  6
BYBLOCK
 10
657.68767316632398
 20
-605.73408159774419
 30
0.0
 40
3.5
 50
180.0
 51
0.0
  0
CIRCLE
  5
B99A
  8
01
  6
BYBLOCK
 10
664.18767316661285
 20
-613.23408159803284
 30
0.0
 40
6.0
  0
LINE
  5
B99B
  8
01
  6
BYBLOCK
 10
674.18767316632432
 20
-604.73408159774419
 30
0.0
 11
712.18767316632409
 21
-604.73408159774419
 31
0.0
  0
LINE
  5
B99C
  8
01
  6
BYBLOCK
 10
674.18767316632454
 20
-605.7340815977434
 30
0.0
 11
674.18767316632432
 21
-604.73408159774419
 31
0.0
  0
LINE
  5
B99D
  8
01
  6
BYBLOCK
 10
654.18767316632409
 20
-605.73408159774419
 30
0.0
 11
654.18767316632409
 21
-604.73408159774419
 31
0.0
  0
LINE
  5
B99E
  8
01
  6
BYBLOCK
 10
664.18767316661285
 20
-616.78408150471444
 30
0.0
 11
660.63767325993126
 21
-613.23408159803284
 31
0.0
  0
LINE
  5
B99F
  8
01
  6
BYBLOCK
 10
660.63767325993126
 20
-613.23408159803284
 30
0.0
 11
664.18767316661285
 21
-609.68408169135137
 31
0.0
  0
LINE
  5
B9A0
  8
01
  6
BYBLOCK
 10
667.73767307329445
 20
-613.23408159803284
 30
0.0
 11
664.18767316661285
 21
-616.78408150471444
 31
0.0
  0
LINE
  5
B9A1
  8
01
  6
BYBLOCK
 10
664.18767316661285
 20
-609.68408169135137
 30
0.0
 11
667.73767307329445
 21
-613.23408159803284
 31
0.0
  0
LINE
  5
B9A2
  8
01
  6
BYBLOCK
 10
1010.188549348096
 20
-382.98408159877272
 30
0.0
 11
998.18854934809622
 21
-382.98408159877272
 31
0.0
  0
LINE
  5
B9A3
  8
01
  6
BYBLOCK
 10
998.18854934809622
 20
-403.48408159877272
 30
0.0
 11
1010.188549348096
 21
-403.48408159877272
 31
0.0
  0
LINE
  5
B9A4
  8
01
  6
BYBLOCK
 10
998.18854934809622
 20
-403.48408159877272
 30
0.0
 11
998.18854934809622
 21
-402.73408159877249
 31
0.0
  0
LINE
  5
B9A5
  8
01
  6
BYBLOCK
 10
998.18854934809622
 20
-383.73408159877272
 30
0.0
 11
998.18854934809622
 21
-382.98408159877272
 31
0.0
  0
LINE
  5
B9A6
  8
01
  6
BYBLOCK
 10
1010.188549348096
 20
-403.48408159877272
 30
0.0
 11
1010.188549348096
 21
-402.73408159877249
 31
0.0
  0
LINE
  5
B9A7
  8
01
  6
BYBLOCK
 10
1010.188549348096
 20
-383.73408159877272
 30
0.0
 11
1010.188549348096
 21
-382.98408159877272
 31
0.0
  0
LINE
  5
B9A9
  8
01
 10
1015.4995534335779
 20
-613.23408159803284
 30
0.0
 11
992.87577689849445
 21
-613.23408159803284
 31
0.0
  0
LINE
  5
B9AA
  8
01
 10
1004.187665166036
 20
-601.92219333049115
 30
0.0
 11
1004.187665166036
 21
-624.54596986557465
 31
0.0
  0
LINE
  5
B9D5
  8
01
 10
1022.187665166325
 20
-645.88480492373969
 30
0.0
 11
1022.187665166325
 21
-679.23408159774397
 31
0.0
  0
LINE
  5
B9D6
  8
01
 10
1022.187665166325
 20
-679.23408159774397
 30
0.0
 11
984.97829245402636
 21
-679.23408159774397
 31
0.0
  0
TEXT
  5
BAE5
  8
01
 10
931.57082625934174
 20
-443.6507482654394
 30
0.0
 40
4.5499999999999989
  1
材質：ステンレス
  0
TEXT
  5
BAE6
  8
01
 10
925.50415959267514
 20
-451.23408159877272
 30
0.0
 40
4.5499999999999989
  1
仕上げ：各種仕上げ
  0
SOLID
  5
BAE7
  8
01
 10
1001.610520805609
 20
-432.38806973868282
 30
0.0
 11
1003.928266406386
 21
-431.13274782464748
 31
0.0
 12
1002.142935783176
 22
-433.0719157760139
 32
0.0
 13
1002.142935783176
 23
-433.0719157760139
 33
0.0
1001
ACAD
1000
DSTYLE
1002
{
1070
    40
1040
1.3
1002
}
  0
LINE
  5
BAE9
  8
01
 10
1010.188549348096
 20
-382.98408159877272
 30
0.0
 11
1045.3489401080969
 21
-382.98408159877272
 31
0.0
  0
LINE
  5
BAEA
  8
01
 10
1010.188549348096
 20
-403.48408159877272
 30
0.0
 11
1045.3489401080969
 21
-403.48408159877272
 31
0.0
  0
LINE
  5
BAEB
  8
01
 10
1044.0489401080979
 20
-385.58408159877268
 30
0.0
 11
1044.0489401080979
 21
-400.8840815987727
 31
0.0
  0
LINE
  5
BAEF
  8
01
 10
1022.187665166325
 20
-604.73408159774419
 30
0.0
 11
1050.4876651663251
 21
-604.73408159774419
 31
0.0
  0
LINE
  5
BAF0
  8
01
 10
1022.187665166325
 20
-679.23408159774397
 30
0.0
 11
1050.4876651663251
 21
-679.23408159774397
 31
0.0
  0
LINE
  5
BAF1
  8
01
 10
1049.1876651663249
 20
-607.33408159774422
 30
0.0
 11
1049.1876651663249
 21
-676.63408159774394
 31
0.0
  0
LINE
  5
BAF5
  8
01
 10
1106.942929503417
 20
-413.23408159877272
 30
0.0
 11
1139.5390483683241
 21
-413.23408159877272
 31
0.0
  0
LINE
  5
BAF6
  8
01
 10
1066.63778150607
 20
-480.01114879440428
 30
0.0
 11
1139.5390483683241
 21
-480.01114879440428
 31
0.0
  0
LINE
  5
BAF7
  8
01
 10
1138.239048368325
 20
-415.83408159877268
 30
0.0
 11
1138.239048368325
 21
-477.4111487944042
 31
0.0
  0
LINE
  5
BAFB
  8
01
 10
1106.942929503417
 20
-413.23408159877272
 30
0.0
 11
1129.5390483683241
 21
-413.23408159877272
 31
0.0
  0
LINE
  5
BAFC
  8
01
 10
1066.63778150607
 20
-455.01114879440428
 30
0.0
 11
1129.5390483683241
 21
-455.01114879440428
 31
0.0
  0
LINE
  5
BAFD
  8
01
 10
1128.239048368325
 20
-415.83408159877268
 30
0.0
 11
1128.239048368325
 21
-452.4111487944042
 31
0.0
  0
LINE
  5
BB01
  8
01
 10
994.6377815060705
 20
-422.01114879440428
 30
0.0
 11
994.6377815060705
 21
-508.08408159877217
 31
0.0
  0
LINE
  5
BB02
  8
01
 10
1119.6377728824959
 20
-466.49869532444649
 30
0.0
 11
1119.6377728824959
 21
-508.08408159877217
 31
0.0
  0
LINE
  5
BB03
  8
01
 10
997.23778150607041
 20
-506.7840815987721
 30
0.0
 11
1117.037772882496
 21
-506.7840815987721
 31
0.0
  0
LINE
  5
BB07
  8
01
 10
1004.18778150607
 20
-433.0252914856199
 30
0.0
 11
1004.18778150607
 21
-498.08408159877217
 31
0.0
  0
LINE
  5
BB08
  8
01
 10
1119.6377728824959
 20
-466.49869532444649
 30
0.0
 11
1119.6377728824959
 21
-498.08408159877217
 31
0.0
  0
LINE
  5
BB09
  8
01
 10
1006.787781506069
 20
-496.78408159877222
 30
0.0
 11
1117.037772882496
 21
-496.78408159877222
 31
0.0
  0
POINT
  5
BB0D
  8
01
 10
868.68766916632467
 20
-663.23408159774419
 30
0.0
  0
LINE
  5
BB0E
  8
01
 10
868.28766915632468
 20
-664.98408159774419
 30
0.0
 11
868.28766915632468
 21
-664.13408157774404
 31
0.0
  0
LINE
  5
BB0F
  8
01
 10
869.08766917632465
 20
-664.98408159774419
 30
0.0
 11
869.08766917632465
 21
-664.13408157774404
 31
0.0
  0
LINE
  5
BB10
  8
01
 10
867.78766918632482
 20
-663.63408160774406
 30
0.0
 11
866.93766916632467
 21
-663.63408160774406
 31
0.0
  0
LINE
  5
BB11
  8
01
 10
867.78766918632482
 20
-662.83408158774421
 30
0.0
 11
866.93766916632467
 21
-662.83408158774421
 31
0.0
  0
LINE
  5
BB12
  8
01
 10
866.93766916632467
 20
-663.63408160774406
 30
0.0
 11
866.93766916632467
 21
-662.83408158774421
 31
0.0
  0
LINE
  5
BB13
  8
01
 10
869.08766917632465
 20
-664.98408159774419
 30
0.0
 11
868.28766915632468
 21
-664.98408159774419
 31
0.0
  0
LINE
  5
BB14
  8
01
 10
869.08766917632465
 20
-661.48408159774419
 30
0.0
 11
869.08766917632465
 21
-662.33408161774435
 31
0.0
  0
LINE
  5
BB15
  8
01
 10
868.28766915632468
 20
-661.48408159774419
 30
0.0
 11
868.28766915632468
 21
-662.33408161774435
 31
0.0
  0
LINE
  5
BB16
  8
01
 10
869.58766914632452
 20
-662.83408158774421
 30
0.0
 11
870.43766916632467
 21
-662.83408158774421
 31
0.0
  0
LINE
  5
BB17
  8
01
 10
869.58766914632452
 20
-663.63408160774406
 30
0.0
 11
870.43766916632467
 21
-663.63408160774406
 31
0.0
  0
LINE
  5
BB18
  8
01
 10
870.43766916632467
 20
-662.83408158774421
 30
0.0
 11
870.43766916632467
 21
-663.63408160774406
 31
0.0
  0
LINE
  5
BB19
  8
01
 10
868.28766915632468
 20
-661.48408159774419
 30
0.0
 11
869.08766917632465
 21
-661.48408159774419
 31
0.0
  0
CIRCLE
  5
BB1A
  8
01
 10
868.68766916632467
 20
-663.23408159774419
 30
0.0
 40
2.5
  0
ARC
  5
BB1B
  8
01
 10
869.58766914632452
 20
-662.33408161774435
 30
0.0
 40
0.5
 50
179.999989999999
 51
270.0
  0
ARC
  5
BB1C
  8
01
 10
869.58766914632452
 20
-664.13408157774404
 30
0.0
 40
0.5
 50
90.00000299999769
 51
180.000010000001
  0
ARC
  5
BB1D
  8
01
 10
867.78766918632482
 20
-664.13408157774404
 30
0.0
 40
0.5
 50
0.0
 51
90.00000299999769
  0
ARC
  5
BB1E
  8
01
 10
867.78766918632482
 20
-662.33408161774435
 30
0.0
 40
0.5
 50
270.0
 51
0.0
  0
LINE
  5
BB20
  8
01
 10
1004.187665166325
 20
-638.23408159774419
 30
0.0
 11
967.88766516632495
 21
-638.23408159774419
 31
0.0
  0
LINE
  5
BB21
  8
01
 10
1004.187665166325
 20
-688.23408159774328
 30
0.0
 11
967.88766516632495
 21
-688.23408159774328
 31
0.0
  0
LINE
  5
BB22
  8
01
 10
969.18766516632502
 20
-640.8340815977441
 30
0.0
 11
969.18766516632502
 21
-685.63408159774315
 31
0.0
  0
LINE
  5
BB26
  8
01
 10
800.98670727200124
 20
-662.48408159774408
 30
0.0
 11
799.68766916632455
 21
-661.73408159774419
 31
0.0
  0
LINE
  5
BB27
  8
01
 10
799.68766916632455
 20
-661.73408159774419
 30
0.0
 11
798.38863106064787
 21
-662.48408159774408
 31
0.0
  0
LINE
  5
BB28
  8
01
 10
798.38863106064787
 20
-662.48408159774408
 30
0.0
 11
798.38863106064787
 21
-663.98408159774419
 31
0.0
  0
LINE
  5
BB29
  8
01
 10
798.38863106064787
 20
-663.98408159774419
 30
0.0
 11
799.68766916632455
 21
-664.73408159774408
 31
0.0
  0
LINE
  5
BB2A
  8
01
 10
799.68766916632455
 20
-664.73408159774408
 30
0.0
 11
800.98670727200124
 21
-663.98408159774419
 31
0.0
  0
LINE
  5
BB2B
  8
01
 10
800.98670727200124
 20
-663.98408159774419
 30
0.0
 11
800.98670727200124
 21
-662.48408159774408
 31
0.0
  0
CIRCLE
  5
BB2C
  8
01
 10
799.68766916632455
 20
-663.23408159774419
 30
0.0
 40
3.0
  0
LINE
  5
BB2D
  8
01
 10
953.18766516632502
 20
-577.23408159774397
 30
0.0
 11
953.18766516632502
 21
-555.93408159774413
 31
0.0
  0
LINE
  5
BB2E
  8
01
 10
1004.187665166325
 20
-632.70371750690708
 30
0.0
 11
1004.187665166325
 21
-555.93408159774413
 31
0.0
  0
LINE
  5
BB2F
  8
01
 10
955.78766516632493
 20
-557.23408159774397
 30
0.0
 11
1001.587665166325
 21
-557.23408159774397
 31
0.0
  0
LINE
  5
BB33
  8
01
 10
1022.187665166325
 20
-605.23408159774408
 30
0.0
 11
1022.187665166325
 21
-545.93408159774413
 31
0.0
  0
LINE
  5
BB34
  8
01
 10
953.18766516632502
 20
-577.23408159774397
 30
0.0
 11
953.18766516632502
 21
-545.93408159774413
 31
0.0
  0
LINE
  5
BB35
  8
01
 10
1019.587665166325
 20
-547.23408159774408
 30
0.0
 11
955.78766516632493
 21
-547.23408159774408
 31
0.0
  0
LINE
  5
BB39
  8
01
 10
942.18766516632502
 20
-635.23408229587494
 30
0.0
 11
942.18766516632502
 21
-555.93408159774413
 31
0.0
  0
LINE
  5
BB3A
  8
01
 10
953.18766516632502
 20
-577.23408159774397
 30
0.0
 11
953.18766516632502
 21
-555.93408159774413
 31
0.0
  0
LINE
  5
BB3B
  8
01
 10
944.78766516632504
 20
-557.23408159774397
 30
0.0
 11
950.587665166325
 21
-557.23408159774397
 31
0.0
  0
LINE
  5
BB3F
  8
01
 10
821.68766916632444
 20
-583.23408159774397
 30
0.0
 11
821.68766916632444
 21
-555.93408159774413
 31
0.0
  0
LINE
  5
BB40
  8
01
 10
846.68766916632444
 20
-583.23408159774397
 30
0.0
 11
846.68766916632444
 21
-555.93408159774413
 31
0.0
  0
LINE
  5
BB41
  8
01
 10
824.28766916632458
 20
-557.23408159774397
 30
0.0
 11
844.08766916632453
 21
-557.23408159774397
 31
0.0
  0
LINE
  5
BB45
  8
01
 10
840.68766916632455
 20
-577.23408159774397
 30
0.0
 11
895.48766916632439
 21
-577.23408159774397
 31
0.0
  0
LINE
  5
BB46
  8
01
 10
840.68766916632455
 20
-707.23408159774397
 30
0.0
 11
895.48766916632439
 21
-707.23408159774397
 31
0.0
  0
LINE
  5
BB47
  8
01
 10
894.18766916632455
 20
-579.83408159774399
 30
0.0
 11
894.18766916632455
 21
-704.63408159774394
 31
0.0
  0
LINE
  5
BB4B
  8
01
 10
840.68766916632455
 20
-585.23408159774408
 30
0.0
 11
879.99126020288111
 21
-585.23408159774408
 31
0.0
  0
LINE
  5
BB4C
  8
01
 10
840.68766916632455
 20
-699.23408159774397
 30
0.0
 11
879.99126020288111
 21
-699.23408159774397
 31
0.0
  0
LINE
  5
BB4D
  8
01
 10
878.69126020288127
 20
-587.83408159774399
 30
0.0
 11
878.69126020288127
 21
-696.63408159774394
 31
0.0
  0
TEXT
  5
BB51
  8
01
 10
877.78126020288153
 20
-631.35369425076237
 30
0.0
 40
4.5499999999999989
  1
114
 50
90.0
  0
LINE
  5
BB52
  8
01
  6
BYBLOCK
 10
879.3879280968813
 20
-696.63408159774394
 30
0.0
 11
878.69126020288127
 21
-699.23408159774397
 31
0.0
  0
LINE
  5
BB53
  8
01
  6
BYBLOCK
 10
878.69126020288127
 20
-699.23408159774397
 30
0.0
 11
877.99459230888124
 21
-696.63408159774394
 31
0.0
  0
LINE
  5
BB54
  8
01
  6
BYBLOCK
 10
878.69126020288127
 20
-699.23408159774397
 30
0.0
 11
878.69126020288127
 21
-696.63408159774394
 31
0.0
  0
LINE
  5
BB55
  8
01
  6
BYBLOCK
 10
877.99459230888124
 20
-587.83408159774399
 30
0.0
 11
878.69126020288127
 21
-585.23408159774408
 31
0.0
  0
LINE
  5
BB56
  8
01
  6
BYBLOCK
 10
878.69126020288127
 20
-585.23408159774408
 30
0.0
 11
879.3879280968813
 21
-587.83408159774399
 31
0.0
  0
LINE
  5
BB57
  8
01
  6
BYBLOCK
 10
878.69126020288127
 20
-585.23408159774408
 30
0.0
 11
878.69126020288127
 21
-587.83408159774399
 31
0.0
  0
TEXT
  5
BB58
  8
01
 10
893.27766916632481
 20
-631.24536091742914
 30
0.0
 40
4.5499999999999989
  1
130
 50
90.0
  0
LINE
  5
BB59
  8
01
  6
BYBLOCK
 10
894.88433706032447
 20
-704.63408159774394
 30
0.0
 11
894.18766916632455
 21
-707.23408159774397
 31
0.0
  0
LINE
  5
BB5A
  8
01
  6
BYBLOCK
 10
894.18766916632455
 20
-707.23408159774397
 30
0.0
 11
893.49100127232452
 21
-704.63408159774394
 31
0.0
  0
LINE
  5
BB5B
  8
01
  6
BYBLOCK
 10
894.18766916632455
 20
-707.23408159774397
 30
0.0
 11
894.18766916632455
 21
-704.63408159774394
 31
0.0
  0
LINE
  5
BB5C
  8
01
  6
BYBLOCK
 10
893.49100127232452
 20
-579.83408159774399
 30
0.0
 11
894.18766916632455
 21
-577.23408159774397
 31
0.0
  0
LINE
  5
BB5D
  8
01
  6
BYBLOCK
 10
894.18766916632455
 20
-577.23408159774397
 30
0.0
 11
894.88433706032447
 21
-579.83408159774399
 31
0.0
  0
LINE
  5
BB5E
  8
01
  6
BYBLOCK
 10
894.18766916632455
 20
-577.23408159774397
 30
0.0
 11
894.18766916632455
 21
-579.83408159774399
 31
0.0
  0
TEXT
  5
BB5F
  8
01
 10
829.8543358329913
 20
-556.32408159774411
 30
0.0
 40
4.5499999999999989
  1
25
  0
LINE
  5
BB60
  8
01
  6
BYBLOCK
 10
844.08766916632453
 20
-556.53741370374405
 30
0.0
 11
846.68766916632444
 21
-557.23408159774397
 31
0.0
  0
LINE
  5
BB61
  8
01
  6
BYBLOCK
 10
846.68766916632444
 20
-557.23408159774397
 30
0.0
 11
844.08766916632453
 21
-557.93074949174411
 31
0.0
  0
LINE
  5
BB62
  8
01
  6
BYBLOCK
 10
846.68766916632444
 20
-557.23408159774397
 30
0.0
 11
844.08766916632453
 21
-557.23408159774397
 31
0.0
  0
LINE
  5
BB63
  8
01
  6
BYBLOCK
 10
824.28766916632458
 20
-557.93074949174411
 30
0.0
 11
821.68766916632444
 21
-557.23408159774397
 31
0.0
  0
LINE
  5
BB64
  8
01
  6
BYBLOCK
 10
821.68766916632444
 20
-557.23408159774397
 30
0.0
 11
824.28766916632458
 21
-556.53741370374405
 31
0.0
  0
LINE
  5
BB65
  8
01
  6
BYBLOCK
 10
821.68766916632444
 20
-557.23408159774397
 30
0.0
 11
824.28766916632458
 21
-557.23408159774397
 31
0.0
  0
TEXT
  5
BB66
  8
01
 10
943.67933183299158
 20
-556.32408159774411
 30
0.0
 40
4.5499999999999989
  1
11
  0
LINE
  5
BB67
  8
01
  6
BYBLOCK
 10
950.587665166325
 20
-556.53741370374405
 30
0.0
 11
953.18766516632502
 21
-557.23408159774397
 31
0.0
  0
LINE
  5
BB68
  8
01
  6
BYBLOCK
 10
953.18766516632502
 20
-557.23408159774397
 30
0.0
 11
950.587665166325
 21
-557.93074949174411
 31
0.0
  0
LINE
  5
BB69
  8
01
  6
BYBLOCK
 10
953.18766516632502
 20
-557.23408159774397
 30
0.0
 11
950.587665166325
 21
-557.23408159774397
 31
0.0
  0
LINE
  5
BB6A
  8
01
  6
BYBLOCK
 10
944.78766516632504
 20
-557.93074949174411
 30
0.0
 11
942.18766516632502
 21
-557.23408159774397
 31
0.0
  0
LINE
  5
BB6B
  8
01
  6
BYBLOCK
 10
942.18766516632502
 20
-557.23408159774397
 30
0.0
 11
944.78766516632504
 21
-556.53741370374405
 31
0.0
  0
LINE
  5
BB6C
  8
01
  6
BYBLOCK
 10
942.18766516632502
 20
-557.23408159774397
 30
0.0
 11
944.78766516632504
 21
-557.23408159774397
 31
0.0
  0
TEXT
  5
BB6D
  8
01
 10
983.35433183299153
 20
-546.32408159774411
 30
0.0
 40
4.5499999999999989
  1
69
  0
LINE
  5
BB6E
  8
01
  6
BYBLOCK
 10
955.78766516632493
 20
-547.93074949174411
 30
0.0
 11
953.18766516632502
 21
-547.23408159774408
 31
0.0
  0
LINE
  5
BB6F
  8
01
  6
BYBLOCK
 10
953.18766516632502
 20
-547.23408159774408
 30
0.0
 11
955.78766516632493
 21
-546.53741370374405
 31
0.0
  0
LINE
  5
BB70
  8
01
  6
BYBLOCK
 10
953.18766516632502
 20
-547.23408159774408
 30
0.0
 11
955.78766516632493
 21
-547.23408159774408
 31
0.0
  0
LINE
  5
BB71
  8
01
  6
BYBLOCK
 10
1019.587665166325
 20
-546.53741370374405
 30
0.0
 11
1022.187665166325
 21
-547.23408159774408
 31
0.0
  0
LINE
  5
BB72
  8
01
  6
BYBLOCK
 10
1022.187665166325
 20
-547.23408159774408
 30
0.0
 11
1019.587665166325
 21
-547.93074949174411
 31
0.0
  0
LINE
  5
BB73
  8
01
  6
BYBLOCK
 10
1022.187665166325
 20
-547.23408159774408
 30
0.0
 11
1019.587665166325
 21
-547.23408159774408
 31
0.0
  0
TEXT
  5
BB74
  8
01
 10
975.00433183299162
 20
-556.32408159774411
 30
0.0
 40
4.5499999999999989
  1
51
  0
LINE
  5
BB75
  8
01
  6
BYBLOCK
 10
1001.587665166325
 20
-556.53741370374405
 30
0.0
 11
1004.187665166325
 21
-557.23408159774397
 31
0.0
  0
LINE
  5
BB76
  8
01
  6
BYBLOCK
 10
1004.187665166325
 20
-557.23408159774397
 30
0.0
 11
1001.587665166325
 21
-557.93074949174411
 31
0.0
  0
LINE
  5
BB77
  8
01
  6
BYBLOCK
 10
1004.187665166325
 20
-557.23408159774397
 30
0.0
 11
1001.587665166325
 21
-557.23408159774397
 31
0.0
  0
LINE
  5
BB78
  8
01
  6
BYBLOCK
 10
955.78766516632493
 20
-557.93074949174411
 30
0.0
 11
953.18766516632502
 21
-557.23408159774397
 31
0.0
  0
LINE
  5
BB79
  8
01
  6
BYBLOCK
 10
953.18766516632502
 20
-557.23408159774397
 30
0.0
 11
955.78766516632493
 21
-556.53741370374405
 31
0.0
  0
LINE
  5
BB7A
  8
01
  6
BYBLOCK
 10
953.18766516632502
 20
-557.23408159774397
 30
0.0
 11
955.78766516632493
 21
-557.23408159774397
 31
0.0
  0
TEXT
  5
BB7B
  8
01
 10
968.27766516632505
 20
-671.76716089323213
 30
0.0
 40
4.5499999999999989
  1
\U+03C650
 50
90.0
  0
LINE
  5
BB7C
  8
01
  6
BYBLOCK
 10
969.88433306032505
 20
-685.63408159774315
 30
0.0
 11
969.18766516632502
 21
-688.23408159774328
 31
0.0
  0
LINE
  5
BB7D
  8
01
  6
BYBLOCK
 10
969.18766516632502
 20
-688.23408159774328
 30
0.0
 11
968.49099727232499
 21
-685.63408159774315
 31
0.0
  0
LINE
  5
BB7E
  8
01
  6
BYBLOCK
 10
969.18766516632502
 20
-688.23408159774328
 30
0.0
 11
969.18766516632502
 21
-685.63408159774315
 31
0.0
  0
LINE
  5
BB7F
  8
01
  6
BYBLOCK
 10
968.49099727232499
 20
-640.8340815977441
 30
0.0
 11
969.18766516632502
 21
-638.23408159774419
 31
0.0
  0
LINE
  5
BB80
  8
01
  6
BYBLOCK
 10
969.18766516632502
 20
-638.23408159774419
 30
0.0
 11
969.88433306032505
 21
-640.8340815977441
 31
0.0
  0
LINE
  5
BB81
  8
01
  6
BYBLOCK
 10
969.18766516632502
 20
-638.23408159774419
 30
0.0
 11
969.18766516632502
 21
-640.8340815977441
 31
0.0
  0
CIRCLE
  5
BB82
  8
01
 10
868.68766916632467
 20
-663.23408159774419
 30
0.0
 40
3.0
  0
TEXT
  5
BB83
  8
01
 10
1055.087777194283
 20
-495.87408159877219
 30
0.0
 40
4.5499999999999989
  1
115
  0
LINE
  5
BB84
  8
01
  6
BYBLOCK
 10
1117.037772882496
 20
-496.08741370477219
 30
0.0
 11
1119.6377728824959
 21
-496.78408159877222
 31
0.0
  0
LINE
  5
BB85
  8
01
  6
BYBLOCK
 10
1119.6377728824959
 20
-496.78408159877222
 30
0.0
 11
1117.037772882496
 21
-497.48074949277219
 31
0.0
  0
LINE
  5
BB86
  8
01
  6
BYBLOCK
 10
1119.6377728824959
 20
-496.78408159877222
 30
0.0
 11
1117.037772882496
 21
-496.78408159877222
 31
0.0
  0
LINE
  5
BB87
  8
01
  6
BYBLOCK
 10
1006.787781506069
 20
-497.48074949277219
 30
0.0
 11
1004.18778150607
 21
-496.78408159877222
 31
0.0
  0
LINE
  5
BB88
  8
01
  6
BYBLOCK
 10
1004.18778150607
 20
-496.78408159877222
 30
0.0
 11
1006.787781506069
 21
-496.08741370477219
 31
0.0
  0
LINE
  5
BB89
  8
01
  6
BYBLOCK
 10
1004.18778150607
 20
-496.78408159877222
 30
0.0
 11
1006.787781506069
 21
-496.78408159877222
 31
0.0
  0
TEXT
  5
BB8A
  8
01
 10
1050.3127771942829
 20
-505.87408159877219
 30
0.0
 40
4.5499999999999989
  1
125
  0
LINE
  5
BB8B
  8
01
  6
BYBLOCK
 10
1117.037772882496
 20
-506.08741370477208
 30
0.0
 11
1119.6377728824959
 21
-506.7840815987721
 31
0.0
  0
LINE
  5
BB8C
  8
01
  6
BYBLOCK
 10
1119.6377728824959
 20
-506.7840815987721
 30
0.0
 11
1117.037772882496
 21
-507.48074949277208
 31
0.0
  0
LINE
  5
BB8D
  8
01
  6
BYBLOCK
 10
1119.6377728824959
 20
-506.7840815987721
 30
0.0
 11
1117.037772882496
 21
-506.7840815987721
 31
0.0
  0
LINE
  5
BB8E
  8
01
  6
BYBLOCK
 10
997.23778150607041
 20
-507.48074949277208
 30
0.0
 11
994.6377815060705
 21
-506.7840815987721
 31
0.0
  0
LINE
  5
BB8F
  8
01
  6
BYBLOCK
 10
994.6377815060705
 20
-506.7840815987721
 30
0.0
 11
997.23778150607041
 21
-506.08741370477208
 31
0.0
  0
LINE
  5
BB90
  8
01
  6
BYBLOCK
 10
994.6377815060705
 20
-506.7840815987721
 30
0.0
 11
997.23778150607041
 21
-506.7840815987721
 31
0.0
  0
TEXT
  5
BB91
  8
01
 10
1127.329048368324
 20
-438.45594852992173
 30
0.0
 40
4.5499999999999989
  1
42
 50
90.0
  0
LINE
  5
BB92
  8
01
  6
BYBLOCK
 10
1128.9357162623251
 20
-452.4111487944042
 30
0.0
 11
1128.239048368325
 21
-455.01114879440428
 31
0.0
  0
LINE
  5
BB93
  8
01
  6
BYBLOCK
 10
1128.239048368325
 20
-455.01114879440428
 30
0.0
 11
1127.5423804743241
 21
-452.4111487944042
 31
0.0
  0
LINE
  5
BB94
  8
01
  6
BYBLOCK
 10
1128.239048368325
 20
-455.01114879440428
 30
0.0
 11
1128.239048368325
 21
-452.4111487944042
 31
0.0
  0
LINE
  5
BB95
  8
01
  6
BYBLOCK
 10
1127.5423804743241
 20
-415.83408159877268
 30
0.0
 11
1128.239048368325
 21
-413.23408159877272
 31
0.0
  0
LINE
  5
BB96
  8
01
  6
BYBLOCK
 10
1128.239048368325
 20
-413.23408159877272
 30
0.0
 11
1128.9357162623251
 21
-415.83408159877268
 31
0.0
  0
LINE
  5
BB97
  8
01
  6
BYBLOCK
 10
1128.239048368325
 20
-413.23408159877272
 30
0.0
 11
1128.239048368325
 21
-415.83408159877268
 31
0.0
  0
TEXT
  5
BB98
  8
01
 10
1137.329048368324
 20
-451.06428186325502
 30
0.0
 40
4.5499999999999989
  1
67
 50
90.0
  0
LINE
  5
BB99
  8
01
  6
BYBLOCK
 10
1138.9357162623251
 20
-477.4111487944042
 30
0.0
 11
1138.239048368325
 21
-480.01114879440428
 31
0.0
  0
LINE
  5
BB9A
  8
01
  6
BYBLOCK
 10
1138.239048368325
 20
-480.01114879440428
 30
0.0
 11
1137.5423804743241
 21
-477.4111487944042
 31
0.0
  0
LINE
  5
BB9B
  8
01
  6
BYBLOCK
 10
1138.239048368325
 20
-480.01114879440428
 30
0.0
 11
1138.239048368325
 21
-477.4111487944042
 31
0.0
  0
LINE
  5
BB9C
  8
01
  6
BYBLOCK
 10
1137.5423804743241
 20
-415.83408159877268
 30
0.0
 11
1138.239048368325
 21
-413.23408159877272
 31
0.0
  0
LINE
  5
BB9D
  8
01
  6
BYBLOCK
 10
1138.239048368325
 20
-413.23408159877272
 30
0.0
 11
1138.9357162623251
 21
-415.83408159877268
 31
0.0
  0
LINE
  5
BB9E
  8
01
  6
BYBLOCK
 10
1138.239048368325
 20
-413.23408159877272
 30
0.0
 11
1138.239048368325
 21
-415.83408159877268
 31
0.0
  0
TEXT
  5
BB9F
  8
01
 10
1048.2776651663251
 20
-649.56741493107722
 30
0.0
 40
4.5499999999999989
  1
74.5
 50
90.0
  0
LINE
  5
BBA0
  8
01
  6
BYBLOCK
 10
1049.8843330603249
 20
-676.63408159774394
 30
0.0
 11
1049.1876651663249
 21
-679.23408159774397
 31
0.0
  0
LINE
  5
BBA1
  8
01
  6
BYBLOCK
 10
1049.1876651663249
 20
-679.23408159774397
 30
0.0
 11
1048.4909972723251
 21
-676.63408159774394
 31
0.0
  0
LINE
  5
BBA2
  8
01
  6
BYBLOCK
 10
1049.1876651663249
 20
-679.23408159774397
 30
0.0
 11
1049.1876651663249
 21
-676.63408159774394
 31
0.0
  0
LINE
  5
BBA3
  8
01
  6
BYBLOCK
 10
1048.4909972723251
 20
-607.33408159774422
 30
0.0
 11
1049.1876651663249
 21
-604.73408159774419
 31
0.0
  0
LINE
  5
BBA4
  8
01
  6
BYBLOCK
 10
1049.1876651663249
 20
-604.73408159774419
 30
0.0
 11
1049.8843330603249
 21
-607.33408159774422
 31
0.0
  0
LINE
  5
BBA5
  8
01
  6
BYBLOCK
 10
1049.1876651663249
 20
-604.73408159774419
 30
0.0
 11
1049.1876651663249
 21
-607.33408159774422
 31
0.0
  0
TEXT
  5
BBA6
  8
01
 10
1043.1389401080969
 20
-400.81741493210581
 30
0.0
 40
4.5499999999999989
  1
20.5
 50
90.0
  0
LINE
  5
BBA7
  8
01
  6
BYBLOCK
 10
1044.7456080020979
 20
-400.8840815987727
 30
0.0
 11
1044.0489401080979
 21
-403.48408159877272
 31
0.0
  0
LINE
  5
BBA8
  8
01
  6
BYBLOCK
 10
1044.0489401080979
 20
-403.48408159877272
 30
0.0
 11
1043.352272214097
 21
-400.8840815987727
 31
0.0
  0
LINE
  5
BBA9
  8
01
  6
BYBLOCK
 10
1044.0489401080979
 20
-403.48408159877272
 30
0.0
 11
1044.0489401080979
 21
-400.8840815987727
 31
0.0
  0
LINE
  5
BBAA
  8
01
  6
BYBLOCK
 10
1043.352272214097
 20
-385.58408159877268
 30
0.0
 11
1044.0489401080979
 21
-382.98408159877272
 31
0.0
  0
LINE
  5
BBAB
  8
01
  6
BYBLOCK
 10
1044.0489401080979
 20
-382.98408159877272
 30
0.0
 11
1044.7456080020979
 21
-385.58408159877268
 31
0.0
  0
LINE
  5
BBAC
  8
01
  6
BYBLOCK
 10
1044.0489401080979
 20
-382.98408159877272
 30
0.0
 11
1044.0489401080979
 21
-385.58408159877268
 31
0.0
  0
LINE
  5
BBAD
  8
01
 10
1001.876728294393
 20
-432.72999275734833
 30
0.0
 11
976.94082625934175
 21
-452.14408159877269
 31
0.0
1001
ACAD
1000
DSTYLE
1002
{
1070
    40
1040
1.3
1002
}
  0
LINE
  5
BBAE
  8
01
 10
976.94082625934175
 20
-452.14408159877269
 30
0.0
 11
973.43082625934176
 21
-452.14408159877269
 31
0.0
1001
ACAD
1000
DSTYLE
1002
{
1070
    40
1040
1.3
1002
}
  0
VIEWPORT
  5
57
 67
     1
  8
0
 10
10.314876837828511
 20
17.569686992234409
 30
0.0
 40
437.22509538167179
 41
284.00284956650188
 68
     1
 69
     1
1001
ACAD
1000
MVIEW
1002
{
1070
    16
1010
0.0
1020
0.0
1030
0.0
1010
0.0
1020
0.0
1030
1.0
1040
0.0
1040
284.00284956650188
1040
10.314876837828511
1040
17.569686992234409
1040
50.0
1040
0.0
1040
0.0
1070
     0
1070
   100
1070
     1
1070
     1
1070
     0
1070
     0
1070
     0
1070
     0
1040
0.0
1040
0.0
1040
0.0
1040
10.0
1040
10.0
1040
10.0
1040
10.0
1070
     0
1002
{
1002
}
1002
}
  0
ENDSEC
  0
EOF
