  0
SECTION
  2
HEADER
  9
$ACADVER
  1
AC1009
  9
$DWGCODEPAGE
  3
ansi_932
  9
$INSBASE
 10
0.0
 20
0.0
 30
0.0
  9
$EXTMIN
 10
2394.923226628011
 20
-657.7041256933007
 30
0.0000000001127424
  9
$EXTMAX
 10
3016.225499442986
 20
-239.2411943050979
 30
0.0000000001691137
  9
$LIMMIN
 10
0.0
 20
0.0
  9
$LIMMAX
 10
420.0
 20
297.0
  9
$ORTHOMODE
 70
     0
  9
$REGENMODE
 70
     1
  9
$FILLMODE
 70
     1
  9
$QTEXTMODE
 70
     0
  9
$MIRRTEXT
 70
     0
  9
$DRAGMODE
 70
     2
  9
$LTSCALE
 40
0.5
  9
$OSMODE
 70
  6271
  9
$ATTMODE
 70
     1
  9
$TEXTSIZE
 40
4.0
  9
$TRACEWID
 40
1.0
  9
$TEXTSTYLE
  7
STANDARD
  9
$CLAYER
  8
1TEXT
  9
$CELTYPE
  6
BYLAYER
  9
$CECOLOR
 62
   256
  9
$DIMSCALE
 40
1.0
  9
$DIMASZ
 40
2.0
  9
$DIMEXO
 40
0.0
  9
$DIMDLI
 40
7.0
  9
$DIMRND
 40
0.0
  9
$DIMDLE
 40
0.0
  9
$DIMEXE
 40
1.0
  9
$DIMTP
 40
0.0
  9
$DIMTM
 40
0.0
  9
$DIMTXT
 40
3.5
  9
$DIMCEN
 40
0.0
  9
$DIMTSZ
 40
0.0
  9
$DIMTOL
 70
     0
  9
$DIMLIM
 70
     0
  9
$DIMTIH
 70
     0
  9
$DIMTOH
 70
     0
  9
$DIMSE1
 70
     0
  9
$DIMSE2
 70
     0
  9
$DIMTAD
 70
     1
  9
$DIMZIN
 70
     8
  9
$DIMBLK
  1

  9
$DIMASO
 70
     1
  9
$DIMSHO
 70
     1
  9
$DIMPOST
  1
 
  9
$DIMAPOST
  1

  9
$DIMALT
 70
     0
  9
$DIMALTD
 70
     2
  9
$DIMALTF
 40
25.4
  9
$DIMLFAC
 40
1.0
  9
$DIMTOFL
 70
     1
  9
$DIMTVP
 40
0.0
  9
$DIMTIX
 70
     0
  9
$DIMSOXD
 70
     0
  9
$DIMSAH
 70
     1
  9
$DIMBLK1
  1
OPEN30
  9
$DIMBLK2
  1
OPEN30
  9
$DIMSTYLE
  2
NEWX10
  9
$DIMCLRD
 70
   256
  9
$DIMCLRE
 70
   256
  9
$DIMCLRT
 70
   201
  9
$DIMTFAC
 40
0.7
  9
$DIMGAP
 40
0.7
  9
$LUNITS
 70
     2
  9
$LUPREC
 70
     4
  9
$SKETCHINC
 40
1.0
  9
$FILLETRAD
 40
0.0
  9
$AUNITS
 70
     0
  9
$AUPREC
 70
     2
  9
$MENU
  1
acad
  9
$ELEVATION
 40
0.0
  9
$PELEVATION
 40
0.0
  9
$THICKNESS
 40
0.0
  9
$LIMCHECK
 70
     0
  9
$CHAMFERA
 40
10.0
  9
$CHAMFERB
 40
10.0
  9
$SKPOLY
 70
     0
  9
$TDCREATE
 40
2451318.621352917
  9
$TDUPDATE
 40
2460406.464123831
  9
$TDINDWG
 40
1.6737882292
  9
$TDUSRTIMER
 40
1.6737882292
  9
$USRTIMER
 70
     1
  9
$ANGBASE
 50
0.0
  9
$ANGDIR
 70
     0
  9
$PDMODE
 70
     0
  9
$PDSIZE
 40
0.0
  9
$PLINEWID
 40
0.0
  9
$COORDS
 70
     2
  9
$SPLFRAME
 70
     0
  9
$SPLINETYPE
 70
     6
  9
$SPLINESEGS
 70
     8
  9
$ATTDIA
 70
     0
  9
$ATTREQ
 70
     1
  9
$HANDLING
 70
     1
  9
$HANDSEED
  5
1B9D5
  9
$SURFTAB1
 70
     6
  9
$SURFTAB2
 70
     6
  9
$SURFTYPE
 70
     6
  9
$SURFU
 70
     6
  9
$SURFV
 70
     6
  9
$UCSNAME
  2

  9
$UCSORG
 10
0.0
 20
0.0
 30
0.0
  9
$UCSXDIR
 10
1.0
 20
0.0
 30
0.0
  9
$UCSYDIR
 10
0.0
 20
1.0
 30
0.0
  9
$PUCSNAME
  2

  9
$PUCSORG
 10
0.0
 20
0.0
 30
0.0
  9
$PUCSXDIR
 10
1.0
 20
0.0
 30
0.0
  9
$PUCSYDIR
 10
0.0
 20
1.0
 30
0.0
  9
$USERI1
 70
     0
  9
$USERI2
 70
     0
  9
$USERI3
 70
     0
  9
$USERI4
 70
     0
  9
$USERI5
 70
     0
  9
$USERR1
 40
0.0
  9
$USERR2
 40
0.0
  9
$USERR3
 40
0.0
  9
$USERR4
 40
0.0
  9
$USERR5
 40
0.0
  9
$WORLDVIEW
 70
     1
  9
$SHADEDGE
 70
     3
  9
$SHADEDIF
 70
    70
  9
$TILEMODE
 70
     1
  9
$MAXACTVP
 70
    48
  9
$PLIMCHECK
 70
     0
  9
$PEXTMIN
 10
1.000000000000000E+20
 20
1.000000000000000E+20
 30
1.000000000000000E+20
  9
$PEXTMAX
 10
-1.000000000000000E+20
 20
-1.000000000000000E+20
 30
-1.000000000000000E+20
  9
$PLIMMIN
 10
0.0
 20
0.0
  9
$PLIMMAX
 10
420.0
 20
297.0
  9
$UNITMODE
 70
     0
  9
$VISRETAIN
 70
     1
  9
$PLINEGEN
 70
     0
  9
$PSLTSCALE
 70
     1
  0
ENDSEC
  0
SECTION
  2
TABLES
  0
TABLE
  2
VPORT
 70
     1
  0
VPORT
  2
*ACTIVE
 70
     0
 10
0.0
 20
0.0
 11
1.0
 21
1.0
 12
2705.574363035499
 22
-448.4726599991993
 13
0.0
 23
0.0
 14
10.0
 24
10.0
 15
10.0
 25
10.0
 16
0.0
 26
0.0
 36
1.0
 17
0.0
 27
0.0
 37
0.0
 40
449.2970421220705
 41
1.83275663206459
 42
50.0
 43
0.0
 44
0.0
 50
0.0
 51
0.0
 71
    16
 72
  1000
 73
     1
 74
     1
 75
     0
 76
     0
 77
     0
 78
     0
  0
ENDTAB
  0
TABLE
  2
LTYPE
 70
    12
  0
LTYPE
  2
CONTINUOUS
 70
     0
  3
Solid line
 72
    65
 73
     0
 40
0.0
  0
LTYPE
  2
CENTER2
 70
     0
  3
Center (.5x) ___ _ ___ _ ___ _ ___ _ ___ _ ___
 72
    65
 73
     4
 40
28.575
 49
19.05
 49
-3.175
 49
3.175
 49
-3.175
  0
ENDTAB
  0
TABLE
  2
LAYER
 70
    43
  0
LAYER
  2
0
 70
     0
 62
     7
  6
CONTINUOUS
  0
LAYER
  2
1CENTER
 70
     0
 62
     7
  6
CENTER2
  0
LAYER
  2
1TEXT
 70
     0
 62
     7
  6
CONTINUOUS
  0
LAYER
  2
01
 70
     0
 62
     1
  6
CONTINUOUS
  0
LAYER
  2
1DIM
 70
     0
 62
     7
  6
CONTINUOUS
  0
ENDTAB
  0
TABLE
  2
STYLE
 70
    23
  0
STYLE
  2
STANDARD
 70
     0
 40
0.0
 41
1.0
 50
0.0
 71
     0
 42
4.0
  3
txt.shx
  4
extfont.shx
  0
ENDTAB
  0
TABLE
  2
VIEW
 70
     0
  0
ENDTAB
  0
TABLE
  2
UCS
 70
     5
  0
UCS
  2
U
 70
     0
 10
0.0
 20
0.0
 30
0.0
 11
1.0
 21
0.0
 31
0.0
 12
0.0
 22
2.220446049250313E-16
 32
1.0
  0
UCS
  2
L
 70
     0
 10
0.0
 20
0.0
 30
0.0
 11
-2.220446049250313E-16
 21
-1.0
 31
2.220446049250313E-16
 12
0.0
 22
2.220446049250313E-16
 32
1.0
  0
UCS
  2
R
 70
     0
 10
0.0
 20
0.0
 30
0.0
 11
3.445092848397667E-16
 21
1.0
 31
-2.220446049250313E-16
 12
0.0
 22
2.220446049250313E-16
 32
1.0
  0
UCS
  2
ISOME
 70
     0
 10
0.0
 20
0.0
 30
0.0
 11
0.7071450863198265
 21
-0.7070684729403536
 31
-3.830824619466267E-5
 12
0.4082704059428734
 22
0.4082704077401151
 32
0.8164744636514736
  0
UCS
  2
PERSPECTIVE
 70
     0
 10
0.0
 20
0.0
 30
0.0
 11
0.8191477691768964
 21
-0.5735823260466403
 31
-0.0004974931557765462
 12
0.1584844715982971
 22
0.225502028986108
 32
0.961265575782966
  0
ENDTAB
  0
TABLE
  2
APPID
 70
    15
  0
APPID
  2
ACAD
 70
     0
  0
APPID
  2
DRAWINGVARIABLESXDATA
 70
     0
  0
APPID
  2
CONTENTTABDATA
 70
     0
  0
APPID
  2
CONTENTCURRENTTAB
 70
     0
  0
APPID
  2
CONTENTBLOCKDESCRIPTION
 70
     0
  0
APPID
  2
CONTENTBLOCKICON
 70
     0
  0
APPID
  2
CONTENTLONGBLOCKNAME
 70
     0
  0
APPID
  2
ACAD_PSEXT
 70
     0
  0
APPID
  2
ACAD_MLEADERVER
 70
     0
  0
APPID
  2
ACADANNOTATIVE
 70
     0
  0
APPID
  2
ACDBBLOCKREPETAG
 70
     0
  0
APPID
  2
ACLAYERTOOLS
 70
     0
  0
APPID
  2
ACAD_NAV_VCDISPLAY
 70
     0
  0
APPID
  2
ACAD_OBJECT_CHANGE_GUID
 70
     0
  0
APPID
  2
ACAECLAYERSTANDARD
 70
     0
  0
ENDTAB
  0
TABLE
  2
DIMSTYLE
 70
     2
  0
DIMSTYLE
  2
NEWX10
 70
     0
  3
 
  4

  5

  6
OPEN30
  7
OPEN30
 40
1.0
 41
2.0
 42
0.0
 43
7.0
 44
1.0
 45
0.0
 46
0.0
 47
0.0
 48
0.0
140
3.5
141
0.0
142
0.0
143
25.4
144
1.0
145
0.0
146
0.7
147
0.7
 71
     0
 72
     0
 73
     0
 74
     0
 75
     0
 76
     0
 77
     1
 78
     8
170
     0
171
     2
172
     1
173
     1
174
     0
175
     0
176
   256
177
   256
178
   201
  0
ENDTAB
  0
ENDSEC
  0
SECTION
  2
BLOCKS
  0
BLOCK
  8
0
  2
$MODEL_SPACE
 70
     0
 10
0.0
 20
0.0
 30
0.0
  3
$MODEL_SPACE
  1

  0
ENDBLK
  5
1A
  8
0
  0
BLOCK
 67
     1
  8
0
  2
$PAPER_SPACE
 70
     0
 10
0.0
 20
0.0
 30
0.0
  3
$PAPER_SPACE
  1

  0
ENDBLK
  5
17
 67
     1
  8
0
  0
BLOCK
  8
0
  2
_OPEN30
 70
     0
 10
0.0
 20
0.0
 30
0.0
  3
_OPEN30
  1

  0
LINE
  5
44
  8
0
  6
BYBLOCK
 62
     0
 10
-1.0
 20
0.26794919
 30
0.0
 11
0.0
 21
0.0
 31
0.0
  0
LINE
  5
45
  8
0
  6
BYBLOCK
 62
     0
 10
0.0
 20
0.0
 30
0.0
 11
-1.0
 21
-0.26794919
 31
0.0
  0
LINE
  5
46
  8
0
  6
BYBLOCK
 62
     0
 10
0.0
 20
0.0
 30
0.0
 11
-1.0
 21
0.0
 31
0.0
  0
ENDBLK
  5
47
  8
0
  0
BLOCK
  8
0
  2
A3WAKUKAWAJUN2017_HYOUDAI_
 70
     0
 10
0.0
 20
0.0
 30
0.0
  3
A3WAKUKAWAJUN2017_HYOUDAI_
  1

  0
LINE
  5
19D44
  8
0
 10
13.26299999998673
 20
-0.0001000000000317
 30
0.0
 11
9.236999999990758
 21
8.999899999990987
 31
0.0
1001
ACAD
1000
ASC_BOUNDS
1002
{
1070
    19
1005
19D85
1002
}
  0
LINE
  5
19D45
  8
0
 10
5.657999999994331
 20
0.9999999999989768
 30
0.0
 11
9.236999999990758
 21
8.999999999991019
 31
0.0
1001
ACAD
1000
ASC_BOUNDS
1002
{
1070
    19
1005
19D85
1002
}
  0
LINE
  5
19D46
  8
0
 10
18.59199999998134
 20
-0.2368999999997641
 30
0.0
 11
16.46099999998353
 21
5.432899999994561
 31
0.0
1001
ACAD
1000
ASC_BOUNDS
1002
{
1070
    19
1005
19D86
1002
}
  0
LINE
  5
19D47
  8
0
 10
18.59199999998134
 20
-0.2368999999997641
 30
0.0
 11
22.38199999997767
 21
8.763099999991255
 31
0.0
1001
ACAD
1000
ASC_BOUNDS
1002
{
1070
    19
1005
19D86
1002
}
  0
LINE
  5
19D48
  8
0
 10
14.32899999998563
 20
-0.2368999999997641
 30
0.0
 11
16.46099999998353
 21
5.432899999994561
 31
0.0
1001
ACAD
1000
ASC_BOUNDS
1002
{
1070
    19
1005
19D86
1002
}
  0
LINE
  5
19D49
  8
0
 10
14.32899999998563
 20
-0.2368999999997641
 30
0.0
 11
10.53899999998941
 21
8.763099999991255
 31
0.0
1001
ACAD
1000
ASC_BOUNDS
1002
{
1070
    19
1005
19D86
1002
}
  0
LINE
  5
19D4A
  8
0
 10
19.53899999998043
 20
-0.0001000000000317
 30
0.0
 11
23.56599999997638
 21
8.999899999990987
 31
0.0
1001
ACAD
1000
ASC_BOUNDS
1002
{
1070
    19
1005
19D87
1002
}
  0
LINE
  5
19D4B
  8
0
 10
26.97358892824991
 20
1.383099999991202
 30
0.0
 11
23.56599999997638
 21
8.999899999990987
 31
0.0
1001
ACAD
1000
ASC_BOUNDS
1002
{
1070
    19
1005
19D87
1002
}
  0
LINE
  5
19D4C
  8
0
 10
5.657999999994331
 20
0.9999999999989768
 30
0.0
 11
3.181999999996833
 21
4.668599999995308
 31
0.0
1001
ACAD
1000
ASC_BOUNDS
1002
{
1070
    19
1005
19D85
1002
}
  0
LINE
  5
19D4D
  8
0
 10
4.617999999995391
 20
-0.0001000000000317
 30
0.0
 11
1.420999999998571
 21
4.736799999995242
 31
0.0
1001
ACAD
1000
ASC_BOUNDS
1002
{
1070
    19
1005
19D85
1002
}
  0
LINE
  5
19D4E
  8
0
 10
1.420999999998571
 20
8.763099999991255
 30
0.0
 11
1.420999999998571
 21
0.0
 31
0.0
1001
ACAD
1000
ASC_BOUNDS
1002
{
1070
    19
1005
19D8A
1002
}
  0
LINE
  5
19D4F
  8
0
 10
0.0
 20
8.763099999991255
 30
0.0
 11
0.0
 21
0.0
 31
0.0
1001
ACAD
1000
ASC_BOUNDS
1002
{
1070
    19
1005
19D8A
1002
}
  0
LINE
  5
19D50
  8
0
 10
6.766999999993232
 20
-0.0001000000000317
 30
0.0
 11
7.826999999992154
 21
2.368399999997621
 31
0.0
1001
ACAD
1000
ASC_BOUNDS
1002
{
1070
    19
1005
19D85
1002
}
  0
LINE
  5
19D51
  8
0
 10
0.0
 20
0.0
 30
0.0
 11
1.420999999998571
 21
0.0
 31
0.0
1001
ACAD
1000
ASC_BOUNDS
1002
{
1070
    19
1005
19D8A
1002
}
  0
LINE
  5
19D52
  8
0
 10
4.617999999995391
 20
0.0
 30
0.0
 11
6.766999999993232
 21
0.0
 31
0.0
1001
ACAD
1000
ASC_BOUNDS
1002
{
1070
    19
1005
19D85
1002
}
  0
LINE
  5
19D53
  8
0
 10
11.70599999998831
 20
-0.0001000000000317
 30
0.0
 11
10.64699999998936
 21
2.368399999997621
 31
0.0
1001
ACAD
1000
ASC_BOUNDS
1002
{
1070
    19
1005
19D85
1002
}
  0
LINE
  5
19D54
  8
0
 10
7.826999999992154
 20
2.368399999997621
 30
0.0
 11
10.64699999998936
 21
2.368399999997621
 31
0.0
1001
ACAD
1000
ASC_BOUNDS
1002
{
1070
    19
1005
19D85
1002
}
  0
LINE
  5
19D55
  8
0
 10
11.70599999998831
 20
0.0
 30
0.0
 11
13.26299999998673
 21
0.0
 31
0.0
1001
ACAD
1000
ASC_BOUNDS
1002
{
1070
    19
1005
19D85
1002
}
  0
LINE
  5
19D56
  8
0
 10
22.15599999997789
 20
2.368399999997621
 30
0.0
 11
24.97599999997499
 21
2.368399999997621
 31
0.0
1001
ACAD
1000
ASC_BOUNDS
1002
{
1070
    19
1005
19D87
1002
}
  0
LINE
  5
19D57
  8
0
 10
19.53899999998043
 20
0.0
 30
0.0
 11
21.09599999997886
 21
0.0
 31
0.0
1001
ACAD
1000
ASC_BOUNDS
1002
{
1070
    19
1005
19D87
1002
}
  0
LINE
  5
19D58
  8
0
 10
21.09599999997886
 20
-0.0001000000000317
 30
0.0
 11
22.15599999997789
 21
2.368399999997621
 31
0.0
1001
ACAD
1000
ASC_BOUNDS
1002
{
1070
    19
1005
19D87
1002
}
  0
LINE
  5
19D59
  8
0
 10
26.02015566812236
 20
0.0330999999912365
 30
0.0
 11
24.97599999997499
 21
2.368399999997621
 31
0.0
1001
ACAD
1000
ASC_BOUNDS
1002
{
1070
    19
1005
19D87
1002
}
  0
LINE
  5
19D5A
  8
0
 10
14.32399999998563
 20
3.315799999996671
 30
0.0
 11
16.46099999998353
 21
8.999899999990987
 31
0.0
1001
ACAD
1000
ASC_BOUNDS
1002
{
1070
    19
1005
19D86
1002
}
  0
LINE
  5
19D5B
  8
0
 10
6.432999999993513
 20
8.763099999991255
 30
0.0
 11
3.181999999996833
 21
4.668599999995308
 31
0.0
1001
ACAD
1000
ASC_BOUNDS
1002
{
1070
    19
1005
19D85
1002
}
  0
LINE
  5
19D5C
  8
0
 10
4.617999999995391
 20
8.763099999991255
 30
0.0
 11
1.420999999998571
 21
4.736799999995242
 31
0.0
1001
ACAD
1000
ASC_BOUNDS
1002
{
1070
    19
1005
19D85
1002
}
  0
LINE
  5
19D5D
  8
0
 10
0.0
 20
8.763099999991255
 30
0.0
 11
1.420999999998571
 21
8.763099999991255
 31
0.0
1001
ACAD
1000
ASC_BOUNDS
1002
{
1070
    19
1005
19D8A
1002
}
  0
LINE
  5
19D5E
  8
0
 10
4.617999999995391
 20
8.763099999991255
 30
0.0
 11
6.432999999993513
 21
8.763099999991255
 31
0.0
1001
ACAD
1000
ASC_BOUNDS
1002
{
1070
    19
1005
19D85
1002
}
  0
LINE
  5
19D5F
  8
0
 10
14.32399999998563
 20
3.315799999996671
 30
0.0
 11
12.02999999998792
 21
8.763099999991255
 31
0.0
1001
ACAD
1000
ASC_BOUNDS
1002
{
1070
    19
1005
19D86
1002
}
  0
LINE
  5
19D60
  8
0
 10
10.06399999998996
 20
3.670999999996297
 30
0.0
 11
9.236999999990758
 21
5.5200999999945
 31
0.0
1001
ACAD
1000
ASC_BOUNDS
1002
{
1070
    19
1005
19D85
1002
}
  0
LINE
  5
19D61
  8
0
 10
8.409999999991555
 20
3.670999999996297
 30
0.0
 11
9.236999999990758
 21
5.5200999999945
 31
0.0
1001
ACAD
1000
ASC_BOUNDS
1002
{
1070
    19
1005
19D85
1002
}
  0
LINE
  5
19D62
  8
0
 10
8.409999999991555
 20
3.670999999996297
 30
0.0
 11
10.06399999998996
 21
3.670999999996297
 31
0.0
1001
ACAD
1000
ASC_BOUNDS
1002
{
1070
    19
1005
19D85
1002
}
  0
LINE
  5
19D63
  8
0
 10
10.53899999998941
 20
8.763099999991255
 30
0.0
 11
12.02999999998792
 21
8.763099999991255
 31
0.0
1001
ACAD
1000
ASC_BOUNDS
1002
{
1070
    19
1005
19D86
1002
}
  0
LINE
  5
19D64
  8
0
 10
22.7389999999773
 20
3.670999999996297
 30
0.0
 11
23.56599999997638
 21
5.5200999999945
 31
0.0
1001
ACAD
1000
ASC_BOUNDS
1002
{
1070
    19
1005
19D87
1002
}
  0
LINE
  5
19D65
  8
0
 10
22.7389999999773
 20
3.670999999996297
 30
0.0
 11
24.39299999997559
 21
3.670999999996297
 31
0.0
1001
ACAD
1000
ASC_BOUNDS
1002
{
1070
    19
1005
19D87
1002
}
  0
LINE
  5
19D66
  8
0
 10
18.59799999998143
 20
3.315799999996671
 30
0.0
 11
20.89099999997916
 21
8.763099999991255
 31
0.0
1001
ACAD
1000
ASC_BOUNDS
1002
{
1070
    19
1005
19D86
1002
}
  0
LINE
  5
19D67
  8
0
 10
18.59799999998143
 20
3.315799999996671
 30
0.0
 11
16.46099999998353
 21
8.999899999990987
 31
0.0
1001
ACAD
1000
ASC_BOUNDS
1002
{
1070
    19
1005
19D86
1002
}
  0
LINE
  5
19D68
  8
0
 10
20.89099999997916
 20
8.763099999991255
 30
0.0
 11
22.38199999997767
 21
8.763099999991255
 31
0.0
1001
ACAD
1000
ASC_BOUNDS
1002
{
1070
    19
1005
19D86
1002
}
  0
LINE
  5
19D69
  8
0
 10
24.39299999997559
 20
3.670999999996297
 30
0.0
 11
23.56599999997638
 21
5.5200999999945
 31
0.0
1001
ACAD
1000
ASC_BOUNDS
1002
{
1070
    19
1005
19D87
1002
}
  0
LINE
  5
19D6A
  8
0
 10
44.99999999995498
 20
-0.2368999999997641
 30
0.0
 11
40.02599999995994
 21
5.341799999994635
 31
0.0
1001
ACAD
1000
ASC_BOUNDS
1002
{
1070
    19
1005
19D89
1002
}
  0
LINE
  5
19D6B
  8
0
 10
40.02599999995994
 20
5.341799999994635
 30
0.0
 11
40.02599999995994
 21
0.0
 31
0.0
1001
ACAD
1000
ASC_BOUNDS
1002
{
1070
    19
1005
19D89
1002
}
  0
LINE
  5
19D6C
  8
0
 10
38.60499999996136
 20
8.999999999991019
 30
0.0
 11
38.60499999996136
 21
0.0
 31
0.0
1001
ACAD
1000
ASC_BOUNDS
1002
{
1070
    19
1005
19D89
1002
}
  0
LINE
  5
19D6D
  8
0
 10
44.99999999995498
 20
8.763099999991255
 30
0.0
 11
44.99999999995498
 21
-0.2368999999997641
 31
0.0
1001
ACAD
1000
ASC_BOUNDS
1002
{
1070
    19
1005
19D89
1002
}
  0
LINE
  5
19D6E
  8
0
 10
38.60499999996136
 20
0.0
 30
0.0
 11
40.02599999995994
 21
0.0
 31
0.0
1001
ACAD
1000
ASC_BOUNDS
1002
{
1070
    19
1005
19D89
1002
}
  0
LINE
  5
19D6F
  8
0
 10
43.57899999995641
 20
3.421199999996588
 30
0.0
 11
38.60499999996136
 21
8.999899999990987
 31
0.0
1001
ACAD
1000
ASC_BOUNDS
1002
{
1070
    19
1005
19D89
1002
}
  0
LINE
  5
19D70
  8
0
 10
43.57899999995641
 20
8.763099999991255
 30
0.0
 11
43.57899999995641
 21
3.421199999996588
 31
0.0
1001
ACAD
1000
ASC_BOUNDS
1002
{
1070
    19
1005
19D89
1002
}
  0
LINE
  5
19D71
  8
0
 10
43.57899999995641
 20
8.763099999991255
 30
0.0
 11
44.99999999995498
 21
8.763099999991255
 31
0.0
1001
ACAD
1000
ASC_BOUNDS
1002
{
1070
    19
1005
19D89
1002
}
  0
LINE
  5
19D72
  8
0
 10
37.67199999996831
 20
8.763099999991255
 30
0.0
 11
36.23199999996837
 21
8.763099999991255
 31
0.0
  0
LINE
  5
19D73
  8
0
 10
31.64199999996833
 20
8.763099999991255
 30
0.0
 11
31.64199999996833
 21
2.481619422925121
 31
0.0
  0
LINE
  5
19D74
  8
0
 10
37.67199999996831
 20
8.763099999991255
 30
0.0
 11
37.67199999996831
 21
2.481619422925121
 31
0.0
  0
LINE
  5
19D75
  8
0
 10
36.23199999996837
 20
8.763099999991255
 30
0.0
 11
36.23199999996837
 21
2.481619422925064
 31
0.0
  0
LINE
  5
19D76
  8
0
 10
33.08199999996839
 20
8.763099999991255
 30
0.0
 11
33.08199999996839
 21
2.481619422925121
 31
0.0
  0
ARC
  5
19D77
  8
0
 10
34.65699999996832
 20
3.183099999991214
 30
0.0
 40
3.420000000000007
 50
240.0000000000255
 51
299.9999999999766
  0
ARC
  5
19D78
  8
0
 10
34.65699999996832
 20
3.183099999991214
 30
0.0
 40
1.97999999999999
 50
240.000000000026
 51
299.9999999999703
  0
LINE
  5
19D79
  8
0
 10
33.08199999996828
 20
8.763099999991255
 30
0.0
 11
31.64199999996833
 21
8.763099999991255
 31
0.0
  0
ARC
  5
19D7A
  8
0
 10
35.06199999996829
 20
2.481619422925064
 30
0.0
 40
1.17
 50
299.9999999999699
 51
0.0
  0
ARC
  5
19D7B
  8
0
 10
34.25199999996835
 20
2.481619422925121
 30
0.0
 40
1.17
 50
180.0
 51
240.0000000000238
  0
ARC
  5
19D7C
  8
0
 10
35.06199999996841
 20
2.481619422925121
 30
0.0
 40
2.61
 50
299.9999999999756
 51
0.0
  0
ARC
  5
19D7D
  8
0
 10
34.25199999996835
 20
2.481619422925121
 30
0.0
 40
2.61
 50
180.0
 51
240.0000000000244
  0
LINE
  5
19D7E
  8
0
 10
29.30199999996933
 20
8.763099999991255
 30
0.0
 11
30.74199999996927
 21
8.763099999991255
 31
0.0
1001
ACAD
1000
ASC_BOUNDS
1002
{
1070
    19
1005
19D87
1002
}
  0
LINE
  5
19D7F
  8
0
 10
30.74199999996927
 20
8.763099999991255
 30
0.0
 11
30.74199999996927
 21
2.373099999991211
 31
0.0
1001
ACAD
1000
ASC_BOUNDS
1002
{
1070
    19
1005
19D87
1002
}
  0
LINE
  5
19D80
  8
0
 10
26.02015566812236
 20
0.0330999999912365
 30
0.0
 11
28.40199999996923
 21
0.0330999999912365
 31
0.0
1001
ACAD
1000
ASC_BOUNDS
1002
{
1070
    19
1005
19D87
1002
}
  0
LINE
  5
19D81
  8
0
 10
29.30199999996933
 20
8.763099999991255
 30
0.0
 11
29.30199999996933
 21
2.283099999991236
 31
0.0
1001
ACAD
1000
ASC_BOUNDS
1002
{
1070
    19
1005
19D87
1002
}
  0
LINE
  5
19D82
  8
0
 10
26.97358892824991
 20
1.383099999991202
 30
0.0
 11
28.40199999996923
 21
1.383099999991202
 31
0.0
1001
ACAD
1000
ASC_BOUNDS
1002
{
1070
    19
1005
19D87
1002
}
  0
ARC
  5
19D83
  8
0
 10
28.40199999996923
 20
2.283099999991236
 30
0.0
 40
0.9
 50
270.0
 51
0.0
1001
ACAD
1000
ASC_BOUNDS
1002
{
1070
    19
1005
19D87
1002
}
  0
ARC
  5
19D84
  8
0
 10
28.40199999996923
 20
2.373099999991211
 30
0.0
 40
2.34
 50
270.0
 51
0.0
1001
ACAD
1000
ASC_BOUNDS
1002
{
1070
    19
1005
19D87
1002
}
  0
INSERT
  5
19D85
  8
0
  2
*X22
 10
0.0
 20
0.0
 30
0.0
1001
ACAD
1000
HATCH
1002
{
1070
    19
1000
ANSI37
1040
0.15
1040
0.0
1000
ASC_BOUNDS
1070
     2
1070
     2
1070
    12
1005
19D44
1005
19D45
1005
19D4C
1005
19D5B
1005
19D5E
1005
19D5C
1005
19D4D
1005
19D52
1005
19D50
1005
19D54
1005
19D53
1005
19D55
1070
     2
1070
     3
1005
19D60
1005
19D62
1005
19D61
1000
ASC_SEEDPOINT
1011
3.614004224891801
1021
2.996669441146025
1031
0.0
1021
2.996669441146025
1031
0.0
1000
R14_HATCH_DATA
1000
19D85
1011
1.0
1021
0.0
1031
0.0
1021
0.0
1031
0.0
1011
0.0
1021
1.0
1031
0.0
1021
1.0
1031
0.0
1011
0.0
1021
0.0
1031
1.0
1021
0.0
1031
1.0
1040
0.0
1010
0.0
1020
0.0
1030
1.0
1000
ANSI37
1070
     0
1070
     1
1071
        2
1071
        7
1070
     0
1070
     1
1071
       17
1040
13.26299999998673
1040
-0.0001000000000317
1040
9.236999999990758
1040
8.999899999990987
1040
9.236999999990758
1040
8.999999999991019
1040
5.657999999994331
1040
0.9999999999989768
1040
3.181999999996833
1040
4.668599999995308
1040
6.432999999993513
1040
8.763099999991255
1040
4.617999999995391
1040
8.763099999991255
1040
1.420999999998571
1040
4.736799999995242
1040
4.617999999995391
1040
-0.0001000000000317
1040
4.617999999995391
1040
0.0
1040
6.766999999993232
1040
0.0
1040
6.766999999993232
1040
-0.0001000000000317
1040
7.826999999992154
1040
2.368399999997621
1040
10.64699999998936
1040
2.368399999997621
1040
11.70599999998831
1040
-0.0001000000000317
1040
11.70599999998831
1040
0.0
1040
13.26299999998673
1040
0.0
1071
       12
1005
19D44
1005
19D45
1005
19D4C
1005
19D5B
1005
19D5E
1005
19D5C
1005
19D4D
1005
19D52
1005
19D50
1005
19D54
1005
19D53
1005
19D55
1071
       22
1070
     0
1070
     1
1071
        3
1040
9.236999999990758
1040
5.5200999999945
1040
10.06399999998996
1040
3.670999999996297
1040
8.409999999991555
1040
3.670999999996297
1071
        3
1005
19D60
1005
19D62
1005
19D61
1070
     0
1070
     1
1040
0.0
1040
0.15
1070
     0
1070
     2
1040
0.7853981633974483
1040
49.29960901727088
1040
-10.17736998311392
1040
-0.3367596045400932
1040
0.3367596045400932
1070
     0
1040
2.356194490192345
1040
49.29960901727088
1040
-10.17736998311392
1040
-0.3367596045400932
1040
-0.3367596045400932
1070
     0
1040
0.0110235143455945
1071
        2
1040
3.614004224891801
1040
2.996669441146025
1040
0.0
1040
3.614004224891801
1040
2.996669441146025
1040
0.0
1002
}
  0
INSERT
  5
19D86
  8
0
  2
*X23
 10
0.0
 20
0.0
 30
0.0
1001
ACAD
1000
HATCH
1002
{
1070
    19
1000
ANSI37
1040
0.15
1040
0.0
1000
ASC_BOUNDS
1070
     1
1070
     2
1070
    10
1005
19D46
1005
19D47
1005
19D68
1005
19D66
1005
19D67
1005
19D5A
1005
19D5F
1005
19D63
1005
19D49
1005
19D48
1000
ASC_SEEDPOINT
1011
14.73245321214324
1021
2.798246178283421
1031
0.0
1021
2.798246178283421
1031
0.0
1000
R14_HATCH_DATA
1000
19D86
1011
1.0
1021
0.0
1031
0.0
1021
0.0
1031
0.0
1011
0.0
1021
1.0
1031
0.0
1021
1.0
1031
0.0
1011
0.0
1021
0.0
1031
1.0
1021
0.0
1031
1.0
1040
0.0
1010
0.0
1020
0.0
1030
1.0
1000
ANSI37
1070
     0
1070
     1
1071
        1
1071
        7
1070
     0
1070
     1
1071
       10
1040
16.46099999998353
1040
5.432899999994561
1040
18.59199999998134
1040
-0.2368999999997641
1040
22.38199999997767
1040
8.763099999991255
1040
20.89099999997916
1040
8.763099999991255
1040
18.59799999998143
1040
3.315799999996671
1040
16.46099999998353
1040
8.999899999990987
1040
14.32399999998563
1040
3.315799999996671
1040
12.02999999998792
1040
8.763099999991255
1040
10.53899999998941
1040
8.763099999991255
1040
14.32899999998563
1040
-0.2368999999997641
1071
       10
1005
19D46
1005
19D47
1005
19D68
1005
19D66
1005
19D67
1005
19D5A
1005
19D5F
1005
19D63
1005
19D49
1005
19D48
1070
     0
1070
     1
1040
0.0
1040
0.15
1070
     0
1070
     2
1040
0.7853981633974483
1040
49.29960901727088
1040
-10.17736998311392
1040
-0.3367596045400932
1040
0.3367596045400932
1070
     0
1040
2.356194490192345
1040
49.29960901727088
1040
-10.17736998311392
1040
-0.3367596045400932
1040
-0.3367596045400932
1070
     0
1040
0.0110235143455945
1071
        1
1040
14.73245321214324
1040
2.798246178283421
1040
0.0
1002
}
  0
INSERT
  5
19D87
  8
0
  2
*X24
 10
0.0
 20
0.0
 30
0.0
1001
ACAD
1000
HATCH
1002
{
1070
    19
1000
ANSI37
1040
0.15
1040
0.0
1000
ASC_BOUNDS
1070
     2
1070
     2
1070
    13
1005
19D4A
1005
19D57
1005
19D58
1005
19D56
1005
19D59
1005
19D80
1005
19D84
1005
19D7F
1005
19D7E
1005
19D81
1005
19D83
1005
19D82
1005
19D4B
1070
     2
1070
     3
1005
19D64
1005
19D69
1005
19D65
1000
ASC_SEEDPOINT
1011
21.97929957367762
1021
3.294304244259308
1031
0.0
1021
3.294304244259308
1031
0.0
1000
R14_HATCH_DATA
1000
19D87
1011
1.0
1021
0.0
1031
0.0
1021
0.0
1031
0.0
1011
0.0
1021
1.0
1031
0.0
1021
1.0
1031
0.0
1011
0.0
1021
0.0
1031
1.0
1021
0.0
1031
1.0
1040
0.0
1010
0.0
1020
0.0
1030
1.0
1000
ANSI37
1070
     0
1070
     1
1071
        2
1071
        7
1070
     1
1070
     1
1071
       15
1040
23.56599999997638
1040
8.999899999990987
1040
0.0
1040
19.53899999998043
1040
-0.0001000000000317
1040
0.0
1040
19.53899999998043
1040
0.0
1040
0.0
1040
21.09599999997886
1040
0.0
1040
0.0
1040
21.09599999997886
1040
-0.0001000000000317
1040
0.0
1040
22.15599999997789
1040
2.368399999997621
1040
0.0
1040
24.97599999997499
1040
2.368399999997621
1040
0.0
1040
26.02015566812236
1040
0.0330999999912365
1040
0.0
1040
28.40199999996923
1040
0.0330999999912365
1040
0.414213562373095
1040
30.74199999996923
1040
2.373099999991211
1040
0.0
1040
30.74199999996927
1040
8.763099999991255
1040
0.0
1040
29.30199999996933
1040
8.763099999991255
1040
0.0
1040
29.30199999996933
1040
2.283099999991236
1040
-0.414213562373095
1040
28.40199999996923
1040
1.383099999991237
1040
0.0
1040
26.97358892824991
1040
1.383099999991202
1040
0.0
1071
       13
1005
19D4A
1005
19D57
1005
19D58
1005
19D56
1005
19D59
1005
19D80
1005
19D84
1005
19D7F
1005
19D7E
1005
19D81
1005
19D83
1005
19D82
1005
19D4B
1071
       22
1070
     0
1070
     1
1071
        3
1040
22.7389999999773
1040
3.670999999996297
1040
23.56599999997638
1040
5.5200999999945
1040
24.39299999997559
1040
3.670999999996297
1071
        3
1005
19D64
1005
19D69
1005
19D65
1070
     0
1070
     1
1040
0.0
1040
0.15
1070
     0
1070
     2
1040
0.7853981633974483
1040
49.29960901727088
1040
-10.17736998311392
1040
-0.3367596045400932
1040
0.3367596045400932
1070
     0
1040
2.356194490192345
1040
49.29960901727088
1040
-10.17736998311392
1040
-0.3367596045400932
1040
-0.3367596045400932
1070
     0
1040
0.0110235143455945
1071
        2
1040
21.97929957367762
1040
3.294304244259308
1040
0.0
1040
21.97929957367762
1040
3.294304244259308
1040
0.0
1002
}
  0
INSERT
  5
19D88
  8
0
  2
*X25
 10
0.0
 20
0.0
 30
0.0
1001
ACAD
1000
HATCH
1002
{
1070
    19
1000
ANSI37
1040
0.15
1040
0.0
1000
R14_HATCH_DATA
1000
19D88
1011
1.0
1021
0.0
1031
0.0
1021
0.0
1031
0.0
1011
0.0
1021
1.0
1031
0.0
1021
1.0
1031
0.0
1011
0.0
1021
0.0
1031
1.0
1021
0.0
1031
1.0
1040
0.0
1010
0.0
1020
0.0
1030
1.0
1000
ANSI37
1070
     0
1070
     1
1071
        1
1071
        7
1070
     1
1070
     1
1071
       12
1040
31.64199999996833
1040
2.481619422925121
1040
0.2679491924310942
1040
32.94699999997067
1040
0.2212931190493919
1040
0.2679491924301353
1040
36.36699999995983
1040
0.2212931190459813
1040
0.2679491924321411
1040
37.67199999996831
1040
2.481619422928361
1040
0.0
1040
37.67199999996831
1040
8.763099999991255
1040
0.0
1040
36.23199999996837
1040
8.763099999991255
1040
0.0
1040
36.23199999996837
1040
2.481619422925064
1040
-0.2679491924310291
1040
35.64699999996708
1040
1.468369700498386
1040
-0.267949192430519
1040
33.66699999997093
1040
1.468369700497703
1040
-0.267949192431809
1040
33.08199999996839
1040
2.481619422926997
1040
0.0
1040
33.08199999996839
1040
8.763099999991255
1040
0.0
1040
31.64199999996833
1040
8.763099999991255
1040
0.0
1071
        0
1070
     0
1070
     1
1040
0.0
1040
0.15
1070
     0
1070
     2
1040
0.7853981633974483
1040
49.29960901727088
1040
-10.17736998311392
1040
-0.3367596045400932
1040
0.3367596045400932
1070
     0
1040
2.356194490192345
1040
49.29960901727088
1040
-10.17736998311392
1040
-0.3367596045400932
1040
-0.3367596045400932
1070
     0
1040
0.0110235143455945
1071
        1
1040
32.30357378967278
1040
3.988785755459219
1040
0.0
1002
}
  0
INSERT
  5
19D89
  8
0
  2
*X26
 10
0.0
 20
0.0
 30
0.0
1001
ACAD
1000
HATCH
1002
{
1070
    19
1000
ANSI37
1040
0.15
1040
0.0
1000
ASC_BOUNDS
1070
     1
1070
     2
1070
     8
1005
19D6A
1005
19D6D
1005
19D71
1005
19D70
1005
19D6F
1005
19D6C
1005
19D6E
1005
19D6B
1000
ASC_SEEDPOINT
1011
39.74896370716704
1021
4.484843821435049
1031
0.0
1021
4.484843821435049
1031
0.0
1000
R14_HATCH_DATA
1000
19D89
1011
1.0
1021
0.0
1031
0.0
1021
0.0
1031
0.0
1011
0.0
1021
1.0
1031
0.0
1021
1.0
1031
0.0
1011
0.0
1021
0.0
1031
1.0
1021
0.0
1031
1.0
1040
0.0
1010
0.0
1020
0.0
1030
1.0
1000
ANSI37
1070
     0
1070
     1
1071
        1
1071
        7
1070
     0
1070
     1
1071
        9
1040
40.02599999995994
1040
5.341799999994635
1040
44.99999999995498
1040
-0.2368999999997641
1040
44.99999999995498
1040
8.763099999991255
1040
43.57899999995641
1040
8.763099999991255
1040
43.57899999995641
1040
3.421199999996588
1040
38.60499999996136
1040
8.999899999990987
1040
38.60499999996136
1040
8.999999999991019
1040
38.60499999996136
1040
0.0
1040
40.02599999995994
1040
0.0
1071
        8
1005
19D6A
1005
19D6D
1005
19D71
1005
19D70
1005
19D6F
1005
19D6C
1005
19D6E
1005
19D6B
1070
     0
1070
     1
1040
0.0
1040
0.15
1070
     0
1070
     2
1040
0.7853981633974483
1040
49.29960901727088
1040
-10.17736998311392
1040
-0.3367596045400932
1040
0.3367596045400932
1070
     0
1040
2.356194490192345
1040
49.29960901727088
1040
-10.17736998311392
1040
-0.3367596045400932
1040
-0.3367596045400932
1070
     0
1040
0.0110235143455945
1071
        1
1040
39.74896370716704
1040
4.484843821435049
1040
0.0
1002
}
  0
INSERT
  5
19D8A
  8
0
  2
*X27
 10
0.0
 20
0.0
 30
0.0
1001
ACAD
1000
HATCH
1002
{
1070
    19
1000
ANSI37
1040
0.15
1040
0.0
1000
ASC_BOUNDS
1070
     1
1070
     2
1070
     4
1005
19D4E
1005
19D5D
1005
19D4F
1005
19D51
1000
ASC_SEEDPOINT
1011
1.079051535452663
1021
4.148538732891836
1031
0.0
1021
4.148538732891836
1031
0.0
1000
R14_HATCH_DATA
1000
19D8A
1011
1.0
1021
0.0
1031
0.0
1021
0.0
1031
0.0
1011
0.0
1021
1.0
1031
0.0
1021
1.0
1031
0.0
1011
0.0
1021
0.0
1031
1.0
1021
0.0
1031
1.0
1040
0.0
1010
0.0
1020
0.0
1030
1.0
1000
ANSI37
1070
     0
1070
     1
1071
        1
1071
        7
1070
     0
1070
     1
1071
        4
1040
1.420999999998571
1040
0.0
1040
1.420999999998571
1040
8.763099999991255
1040
0.0
1040
8.763099999991255
1040
0.0
1040
0.0
1071
        4
1005
19D4E
1005
19D5D
1005
19D4F
1005
19D51
1070
     0
1070
     1
1040
0.0
1040
0.15
1070
     0
1070
     2
1040
0.7853981633974483
1040
49.29960901727088
1040
-10.17736998311392
1040
-0.3367596045400932
1040
0.3367596045400932
1070
     0
1040
2.356194490192345
1040
49.29960901727088
1040
-10.17736998311392
1040
-0.3367596045400932
1040
-0.3367596045400932
1070
     0
1040
0.0053004257112761
1071
        1
1040
1.079051535452663
1040
4.148538732891836
1040
0.0
1002
}
  0
ENDBLK
  5
1A551
  8
0
  0
BLOCK
  8
0
  2
*X22
 70
     1
 10
0.0
 20
0.0
 30
0.0
  3
*X22
  1

  0
LINE
  5
1B815
  8
0
  6
CONTINUOUS
 10
3.418023043697893
 20
7.251849696850613
 30
0.0
 11
4.929273346838536
 21
8.763099999991255
 31
0.0
  0
LINE
  5
1B816
  8
0
  6
CONTINUOUS
 10
1.483656411257782
 20
4.643963855330318
 30
0.0
 11
5.60279255591872
 21
8.763099999991255
 31
0.0
  0
LINE
  5
1B817
  8
0
  6
CONTINUOUS
 10
1.755053947328235
 20
4.241842182320584
 30
0.0
 11
6.276311764998907
 21
8.763099999991255
 31
0.0
  0
LINE
  5
1B818
  8
0
  6
CONTINUOUS
 10
2.026451483398688
 20
3.839720509310849
 30
0.0
 11
4.441040904851878
 21
6.254309930764039
 31
0.0
  0
LINE
  5
1B819
  8
0
  6
CONTINUOUS
 10
2.297849019469139
 20
3.437598836301114
 30
0.0
 11
3.321765168359338
 21
4.461514985191313
 31
0.0
  0
LINE
  5
1B81A
  8
0
  6
CONTINUOUS
 10
2.569246555539591
 20
3.03547716329138
 30
0.0
 11
3.593163397972743
 21
4.059394005724531
 31
0.0
  0
LINE
  5
1B81B
  8
0
  6
CONTINUOUS
 10
2.840644091610043
 20
2.633355490281646
 30
0.0
 11
3.864561627586149
 21
3.657273026257751
 31
0.0
  0
LINE
  5
1B81C
  8
0
  6
CONTINUOUS
 10
3.112041627680496
 20
2.231233817271911
 30
0.0
 11
4.135959857199554
 21
3.25515204679097
 31
0.0
  0
LINE
  5
1B81D
  8
0
  6
CONTINUOUS
 10
3.383439163750948
 20
1.829112144262177
 30
0.0
 11
4.40735808681296
 21
2.853031067324189
 31
0.0
  0
LINE
  5
1B81E
  8
0
  6
CONTINUOUS
 10
3.654836699821399
 20
1.426990471252442
 30
0.0
 11
4.678756316426365
 21
2.450910087857407
 31
0.0
  0
LINE
  5
1B81F
  8
0
  6
CONTINUOUS
 10
3.926234235891853
 20
1.024868798242709
 30
0.0
 11
4.95015454603977
 21
2.048789108390626
 31
0.0
  0
LINE
  5
1B820
  8
0
  6
CONTINUOUS
 10
4.197631771962304
 20
0.6227471252329737
 30
0.0
 11
5.221552775653176
 21
1.646668128923846
 31
0.0
  0
LINE
  5
1B821
  8
0
  6
CONTINUOUS
 10
8.715877546767851
 20
7.835069736359266
 30
0.0
 11
9.435953450375058
 21
8.555145639966472
 31
0.0
  0
LINE
  5
1B822
  8
0
  6
CONTINUOUS
 10
8.170620868422267
 20
6.616293848933497
 30
0.0
 11
9.644120833743461
 21
8.08979381425469
 31
0.0
  0
LINE
  5
1B823
  8
0
  6
CONTINUOUS
 10
7.625364190076684
 20
5.397517961507727
 30
0.0
 11
9.852288217111864
 21
7.624441988542907
 31
0.0
  0
LINE
  5
1B824
  8
0
  6
CONTINUOUS
 10
7.080107511731101
 20
4.178742074081957
 30
0.0
 11
10.06045560048027
 21
7.159090162831124
 31
0.0
  0
LINE
  5
1B825
  8
0
  6
CONTINUOUS
 10
6.534850833385518
 20
2.959966186656187
 30
0.0
 11
10.26862298384867
 21
6.693738337119342
 31
0.0
  0
LINE
  5
1B826
  8
0
  6
CONTINUOUS
 10
4.469029308032756
 20
0.2206254522232385
 30
0.0
 11
5.492951005266582
 21
1.244547149457064
 31
0.0
  0
LINE
  5
1B827
  8
0
  6
CONTINUOUS
 10
5.989594155039935
 20
1.741190299230417
 30
0.0
 11
8.806950407233131
 21
4.558546551423613
 31
0.0
  0
LINE
  5
1B828
  8
0
  6
CONTINUOUS
 10
9.401251593263643
 20
5.152847737454126
 30
0.0
 11
10.47679036721708
 21
6.228386511407559
 31
0.0
  0
LINE
  5
1B829
  8
0
  6
CONTINUOUS
 10
4.921837203428691
 20
-0.0000858614610131
 30
0.0
 11
8.592923064886001
 21
3.670999999996297
 31
0.0
  0
LINE
  5
1B82A
  8
0
  6
CONTINUOUS
 10
9.609390446785305
 20
4.6874673818956
 30
0.0
 11
10.68495775058548
 21
5.763034685695775
 31
0.0
  0
LINE
  5
1B82B
  8
0
  6
CONTINUOUS
 10
5.595387755019432
 20
-0.0000545189504582
 30
0.0
 11
7.716137258923768
 21
2.120694984953879
 31
0.0
  0
LINE
  5
1B82C
  8
0
  6
CONTINUOUS
 10
6.268938306610172
 20
-0.000023176439905
 30
0.0
 11
7.170485805526503
 21
0.9015243224764267
 31
0.0
  0
LINE
  5
1B82D
  8
0
  6
CONTINUOUS
 10
7.963842273967511
 20
2.368399999997621
 30
0.0
 11
9.266442273966188
 21
3.670999999996297
 31
0.0
  0
LINE
  5
1B82E
  8
0
  6
CONTINUOUS
 10
8.637361483047696
 20
2.368399999997621
 30
0.0
 11
9.939961483046375
 21
3.670999999996297
 31
0.0
  0
LINE
  5
1B82F
  8
0
  6
CONTINUOUS
 10
9.817529300306965
 20
4.222087026337075
 30
0.0
 11
10.89312513395388
 21
5.297682859983993
 31
0.0
  0
LINE
  5
1B830
  8
0
  6
CONTINUOUS
 10
10.02566815382863
 20
3.756706670778549
 30
0.0
 11
11.10129251732229
 21
4.832331034272211
 31
0.0
  0
LINE
  5
1B831
  8
0
  6
CONTINUOUS
 10
9.310880692127883
 20
2.368399999997621
 30
0.0
 11
11.30945990069069
 21
4.366979208560428
 31
0.0
  0
LINE
  5
1B832
  8
0
  6
CONTINUOUS
 10
9.98439990120807
 20
2.36839999999762
 30
0.0
 11
11.5176272840591
 21
3.901627382848645
 31
0.0
  0
LINE
  5
1B833
  8
0
  6
CONTINUOUS
 10
10.65037369446246
 20
2.36085458417182
 30
0.0
 11
11.7257946674275
 21
3.436275557136862
 31
0.0
  0
LINE
  5
1B834
  8
0
  6
CONTINUOUS
 10
10.85847197087848
 20
1.895433651507656
 30
0.0
 11
11.9339620507959
 21
2.97092373142508
 31
0.0
  0
LINE
  5
1B835
  8
0
  6
CONTINUOUS
 10
11.0665702472945
 20
1.430012718843491
 30
0.0
 11
12.14212943416431
 21
2.505571905713296
 31
0.0
  0
LINE
  5
1B836
  8
0
  6
CONTINUOUS
 10
11.27466852371052
 20
0.9645917861793256
 30
0.0
 11
12.35029681753271
 21
2.040220080001513
 31
0.0
  0
LINE
  5
1B837
  8
0
  6
CONTINUOUS
 10
11.48276680012654
 20
0.4991708535151611
 30
0.0
 11
12.55846420090111
 21
1.57486825428973
 31
0.0
  0
LINE
  5
1B838
  8
0
  6
CONTINUOUS
 10
11.69086507654257
 20
0.0337499208509957
 30
0.0
 11
12.76663158426952
 21
1.109516428577947
 31
0.0
  0
LINE
  5
1B839
  8
0
  6
CONTINUOUS
 10
12.33057447873954
 20
-0.0000598860322123
 30
0.0
 11
12.97479896763792
 21
0.6441646028661663
 31
0.0
  0
LINE
  5
1B83A
  8
0
  6
CONTINUOUS
 10
13.00413694809395
 20
-0.0000166257579952
 30
0.0
 11
13.18296635100632
 21
0.1788127771543824
 31
0.0
  0
LINE
  5
1B83B
  8
0
  6
CONTINUOUS
 10
4.772852165289667
 20
-0.000092794222212
 30
0.0
 11
4.296495091028902
 21
0.4762642800385528
 31
0.0
  0
LINE
  5
1B83C
  8
0
  6
CONTINUOUS
 10
5.446340034776103
 20
-0.0000614546284616
 30
0.0
 11
2.898195908335625
 21
2.548082671812017
 31
0.0
  0
LINE
  5
1B83D
  8
0
  6
CONTINUOUS
 10
6.119827904262539
 20
-0.0000301150347113
 30
0.0
 11
1.499896725642348
 21
4.61990106358548
 31
0.0
  0
LINE
  5
1B83E
  8
0
  6
CONTINUOUS
 10
6.775136745476159
 20
0.0181802528318542
 30
0.0
 11
5.699826040202669
 21
1.093490958105344
 31
0.0
  0
LINE
  5
1B83F
  8
0
  6
CONTINUOUS
 10
6.983376846288489
 20
0.4834593610997118
 30
0.0
 11
5.908008617934405
 21
1.558827589453796
 31
0.0
  0
LINE
  5
1B840
  8
0
  6
CONTINUOUS
 10
5.377063484962296
 20
1.416253513345719
 30
0.0
 11
1.702276957014131
 21
5.091040041293883
 31
0.0
  0
LINE
  5
1B841
  8
0
  6
CONTINUOUS
 10
3.978745891735324
 20
3.488090315652877
 30
0.0
 11
2.000373521109399
 21
5.466462686278803
 31
0.0
  0
LINE
  5
1B842
  8
0
  6
CONTINUOUS
 10
7.191616947100819
 20
0.948738469367568
 30
0.0
 11
6.11619119566614
 21
2.024164220802247
 31
0.0
  0
LINE
  5
1B843
  8
0
  6
CONTINUOUS
 10
7.399857047913149
 20
1.414017577635424
 30
0.0
 11
6.324373773397875
 21
2.489500852150698
 31
0.0
  0
LINE
  5
1B844
  8
0
  6
CONTINUOUS
 10
7.608097148725479
 20
1.879296685903281
 30
0.0
 11
6.53255635112961
 21
2.95483748349915
 31
0.0
  0
LINE
  5
1B845
  8
0
  6
CONTINUOUS
 10
7.816337249537808
 20
2.344575794171138
 30
0.0
 11
6.740738928861345
 21
3.420174114847601
 31
0.0
  0
LINE
  5
1B846
  8
0
  6
CONTINUOUS
 10
3.310241080789734
 20
4.830114335678653
 30
0.0
 11
2.298470085204666
 21
5.84188533126372
 31
0.0
  0
LINE
  5
1B847
  8
0
  6
CONTINUOUS
 10
3.60832983563551
 20
5.205544789913063
 30
0.0
 11
2.596566649299935
 21
6.217307976248638
 31
0.0
  0
LINE
  5
1B848
  8
0
  6
CONTINUOUS
 10
3.906418590481286
 20
5.580975244147473
 30
0.0
 11
2.894663213395203
 21
6.592730621233557
 31
0.0
  0
LINE
  5
1B849
  8
0
  6
CONTINUOUS
 10
4.204507345327062
 20
5.956405698381884
 30
0.0
 11
3.192759777490472
 21
6.968153266218474
 31
0.0
  0
LINE
  5
1B84A
  8
0
  6
CONTINUOUS
 10
8.466032252791512
 20
2.368399999997621
 30
0.0
 11
6.948921506593081
 21
3.885510746196053
 31
0.0
  0
LINE
  5
1B84B
  8
0
  6
CONTINUOUS
 10
9.139551461871699
 20
2.36839999999762
 30
0.0
 11
7.157104084324816
 21
4.350847377544504
 31
0.0
  0
LINE
  5
1B84C
  8
0
  6
CONTINUOUS
 10
4.502596100172839
 20
6.331836152616295
 30
0.0
 11
3.49085634158574
 21
7.343575911203393
 31
0.0
  0
LINE
  5
1B84D
  8
0
  6
CONTINUOUS
 10
4.800684855018615
 20
6.707266606850705
 30
0.0
 11
3.788952905681008
 21
7.718998556188312
 31
0.0
  0
LINE
  5
1B84E
  8
0
  6
CONTINUOUS
 10
12.18154012887317
 20
-0.0000694579236642
 30
0.0
 11
11.32140332908496
 21
0.8600673418645499
 31
0.0
  0
LINE
  5
1B84F
  8
0
  6
CONTINUOUS
 10
12.85501608323566
 20
-0.0000262032059659
 30
0.0
 11
10.77672456435345
 21
2.078265315676246
 31
0.0
  0
LINE
  5
1B850
  8
0
  6
CONTINUOUS
 10
9.813070670951886
 20
2.36839999999762
 30
0.0
 11
8.51047067095321
 21
3.670999999996297
 31
0.0
  0
LINE
  5
1B851
  8
0
  6
CONTINUOUS
 10
10.48658988003207
 20
2.36839999999762
 30
0.0
 11
9.183989880033396
 21
3.670999999996297
 31
0.0
  0
LINE
  5
1B852
  8
0
  6
CONTINUOUS
 10
8.441048632286794
 20
3.740422038662712
 30
0.0
 11
7.365286662056551
 21
4.816184008892956
 31
0.0
  0
LINE
  5
1B853
  8
0
  6
CONTINUOUS
 10
8.649187485808454
 20
4.205802394221237
 30
0.0
 11
7.573469239788285
 21
5.281520640241407
 31
0.0
  0
LINE
  5
1B854
  8
0
  6
CONTINUOUS
 10
5.098773609864391
 20
7.082697061085115
 30
0.0
 11
4.087049469776277
 21
8.09442120117323
 31
0.0
  0
LINE
  5
1B855
  8
0
  6
CONTINUOUS
 10
5.396862364710167
 20
7.458127515319526
 30
0.0
 11
4.385146033871544
 21
8.469843846158149
 31
0.0
  0
LINE
  5
1B856
  8
0
  6
CONTINUOUS
 10
13.04801363231285
 20
0.4804954567970334
 30
0.0
 11
9.85750908911358
 21
3.670999999996297
 31
0.0
  0
LINE
  5
1B857
  8
0
  6
CONTINUOUS
 10
8.857326339330116
 20
4.671182749779763
 30
0.0
 11
7.781651817520021
 21
5.746857271589858
 31
0.0
  0
LINE
  5
1B858
  8
0
  6
CONTINUOUS
 10
5.694951119555943
 20
7.833557969553937
 30
0.0
 11
4.765409089118624
 21
8.763099999991255
 31
0.0
  0
LINE
  5
1B859
  8
0
  6
CONTINUOUS
 10
12.50286117236978
 20
1.699167125820288
 30
0.0
 11
9.68611877250287
 21
4.515909525687196
 31
0.0
  0
LINE
  5
1B85A
  8
0
  6
CONTINUOUS
 10
9.065465192851777
 20
5.136563105338288
 30
0.0
 11
7.989834395251757
 21
6.21219390293831
 31
0.0
  0
LINE
  5
1B85B
  8
0
  6
CONTINUOUS
 10
5.993039874401719
 20
8.208988423788346
 30
0.0
 11
5.43892829819881
 21
8.763099999991255
 31
0.0
  0
LINE
  5
1B85C
  8
0
  6
CONTINUOUS
 10
11.95770871242671
 20
2.917838794843543
 30
0.0
 11
8.19801697298349
 21
6.677530534286761
 31
0.0
  0
LINE
  5
1B85D
  8
0
  6
CONTINUOUS
 10
6.291128629247495
 20
8.584418878022756
 30
0.0
 11
6.112447507278997
 21
8.763099999991255
 31
0.0
  0
LINE
  5
1B85E
  8
0
  6
CONTINUOUS
 10
11.41255625248364
 20
4.136510463866797
 30
0.0
 11
8.406199550715227
 21
7.142867165635211
 31
0.0
  0
LINE
  5
1B85F
  8
0
  6
CONTINUOUS
 10
10.86740379254057
 20
5.355182132890051
 30
0.0
 11
8.614382128446962
 21
7.608203796983664
 31
0.0
  0
LINE
  5
1B860
  8
0
  6
CONTINUOUS
 10
10.3222513325975
 20
6.573853801913305
 30
0.0
 11
8.822564706178696
 21
8.073540428332114
 31
0.0
  0
LINE
  5
1B861
  8
0
  6
CONTINUOUS
 10
9.777098872654436
 20
7.792525470936562
 30
0.0
 11
9.030747283910433
 21
8.538877059680566
 31
0.0
  0
ENDBLK
  5
1B9A3
  8
0
  0
BLOCK
  8
0
  2
*X23
 70
     1
 10
0.0
 20
0.0
 30
0.0
  3
*X23
  1

  0
LINE
  5
1B863
  8
0
  6
CONTINUOUS
 10
10.67292308101235
 20
8.445076852443387
 30
0.0
 11
10.99094622856022
 21
8.763099999991255
 31
0.0
  0
LINE
  5
1B864
  8
0
  6
CONTINUOUS
 10
10.87250383178748
 20
7.971138394138331
 30
0.0
 11
11.6644654376404
 21
8.763099999991255
 31
0.0
  0
LINE
  5
1B865
  8
0
  6
CONTINUOUS
 10
11.07208458256261
 20
7.497199935833273
 30
0.0
 11
12.12126590876355
 21
8.546381262034211
 31
0.0
  0
LINE
  5
1B866
  8
0
  6
CONTINUOUS
 10
11.27166533333774
 20
7.023261477528216
 30
0.0
 11
12.32085164573666
 21
8.072447789927136
 31
0.0
  0
LINE
  5
1B867
  8
0
  6
CONTINUOUS
 10
11.47124608411287
 20
6.549323019223158
 30
0.0
 11
12.52043738270977
 21
7.59851431782006
 31
0.0
  0
LINE
  5
1B868
  8
0
  6
CONTINUOUS
 10
11.670826834888
 20
6.075384560918101
 30
0.0
 11
12.72002311968288
 21
7.124580845712984
 31
0.0
  0
LINE
  5
1B869
  8
0
  6
CONTINUOUS
 10
11.87040758566313
 20
5.601446102613043
 30
0.0
 11
12.91960885665599
 21
6.650647373605907
 31
0.0
  0
LINE
  5
1B86A
  8
0
  6
CONTINUOUS
 10
12.06998833643825
 20
5.127507644307986
 30
0.0
 11
13.1191945936291
 21
6.176713901498832
 31
0.0
  0
LINE
  5
1B86B
  8
0
  6
CONTINUOUS
 10
12.26956908721338
 20
4.65356918600293
 30
0.0
 11
13.31878033060221
 21
5.702780429391757
 31
0.0
  0
LINE
  5
1B86C
  8
0
  6
CONTINUOUS
 10
12.46914983798851
 20
4.179630727697873
 30
0.0
 11
13.51836606757532
 21
5.228846957284683
 31
0.0
  0
LINE
  5
1B86D
  8
0
  6
CONTINUOUS
 10
12.66873058876364
 20
3.705692269392816
 30
0.0
 11
13.71795180454843
 21
4.754913485177607
 31
0.0
  0
LINE
  5
1B86E
  8
0
  6
CONTINUOUS
 10
12.86831133953877
 20
3.231753811087759
 30
0.0
 11
13.91753754152154
 21
4.280980013070531
 31
0.0
  0
LINE
  5
1B86F
  8
0
  6
CONTINUOUS
 10
13.0678920903139
 20
2.757815352782702
 30
0.0
 11
14.11712327849465
 21
3.807046540963456
 31
0.0
  0
LINE
  5
1B870
  8
0
  6
CONTINUOUS
 10
13.26747284108903
 20
2.283876894477644
 30
0.0
 11
14.31670901546777
 21
3.333113068856379
 31
0.0
  0
LINE
  5
1B871
  8
0
  6
CONTINUOUS
 10
16.36767838827179
 20
8.751678487061342
 30
0.0
 11
16.50332410898388
 21
8.887324207773432
 31
0.0
  0
LINE
  5
1B872
  8
0
  6
CONTINUOUS
 10
15.96190732182191
 20
7.67238821153127
 30
0.0
 11
16.68735328004734
 21
8.397834169756699
 31
0.0
  0
LINE
  5
1B873
  8
0
  6
CONTINUOUS
 10
15.55613625537202
 20
6.593097936001196
 30
0.0
 11
16.87138245111079
 21
7.908344131739965
 31
0.0
  0
LINE
  5
1B874
  8
0
  6
CONTINUOUS
 10
15.15036518892213
 20
5.513807660471122
 30
0.0
 11
17.05541162217424
 21
7.418854093723231
 31
0.0
  0
LINE
  5
1B875
  8
0
  6
CONTINUOUS
 10
14.74459412247225
 20
4.434517384941048
 30
0.0
 11
17.2394407932377
 21
6.929364055706499
 31
0.0
  0
LINE
  5
1B876
  8
0
  6
CONTINUOUS
 10
14.33882305602236
 20
3.355227109410975
 30
0.0
 11
17.42346996430115
 21
6.439874017689766
 31
0.0
  0
LINE
  5
1B877
  8
0
  6
CONTINUOUS
 10
13.46705359186416
 20
1.809938436172586
 30
0.0
 11
16.0819338255367
 21
4.424818669845129
 31
0.0
  0
LINE
  5
1B878
  8
0
  6
CONTINUOUS
 10
16.63283254238972
 20
4.975717386698149
 30
0.0
 11
17.60749913536461
 21
5.950383979673033
 31
0.0
  0
LINE
  5
1B879
  8
0
  6
CONTINUOUS
 10
13.66663434263929
 20
1.335999977867529
 30
0.0
 11
15.67604797733754
 21
3.345413612565779
 31
0.0
  0
LINE
  5
1B87A
  8
0
  6
CONTINUOUS
 10
13.86621509341442
 20
0.8620615195624723
 30
0.0
 11
15.27016212913838
 21
2.26600855528643
 31
0.0
  0
LINE
  5
1B87B
  8
0
  6
CONTINUOUS
 10
16.81682257348267
 20
4.486188208710908
 30
0.0
 11
17.79152830642806
 21
5.460893941656299
 31
0.0
  0
LINE
  5
1B87C
  8
0
  6
CONTINUOUS
 10
17.00081260457561
 20
3.996659030723667
 30
0.0
 11
17.97555747749151
 21
4.971403903639565
 31
0.0
  0
LINE
  5
1B87D
  8
0
  6
CONTINUOUS
 10
20.74362343514722
 20
8.412989070375462
 30
0.0
 11
21.09373436476302
 21
8.763099999991256
 31
0.0
  0
LINE
  5
1B87E
  8
0
  6
CONTINUOUS
 10
20.25401257174777
 20
7.249858997895826
 30
0.0
 11
21.7672535738432
 21
8.763099999991255
 31
0.0
  0
LINE
  5
1B87F
  8
0
  6
CONTINUOUS
 10
14.06579584418955
 20
0.3881230612574149
 30
0.0
 11
14.86427628093921
 21
1.186603498007082
 31
0.0
  0
LINE
  5
1B880
  8
0
  6
CONTINUOUS
 10
14.26537659496467
 20
-0.0858153970476412
 30
0.0
 11
14.45839043274005
 21
0.1071984407277329
 31
0.0
  0
LINE
  5
1B881
  8
0
  6
CONTINUOUS
 10
17.18480263566856
 20
3.507129852736426
 30
0.0
 11
18.15958664855496
 21
4.481913865622833
 31
0.0
  0
LINE
  5
1B882
  8
0
  6
CONTINUOUS
 10
17.3687926667615
 20
3.017600674749186
 30
0.0
 11
18.34361581961842
 21
3.9924238276061
 31
0.0
  0
LINE
  5
1B883
  8
0
  6
CONTINUOUS
 10
19.76440170834832
 20
6.086728925416191
 30
0.0
 11
22.33924590259489
 21
8.661573119662755
 31
0.0
  0
LINE
  5
1B884
  8
0
  6
CONTINUOUS
 10
19.27479084494887
 20
4.923598852936555
 30
0.0
 11
21.84929622842713
 21
7.498104236414807
 31
0.0
  0
LINE
  5
1B885
  8
0
  6
CONTINUOUS
 10
17.55278269785445
 20
2.528071496761945
 30
0.0
 11
18.52764499068187
 21
3.502933789589366
 31
0.0
  0
LINE
  5
1B886
  8
0
  6
CONTINUOUS
 10
18.78517998154942
 20
3.760468780456919
 30
0.0
 11
21.35934655425936
 21
6.33463535316686
 31
0.0
  0
LINE
  5
1B887
  8
0
  6
CONTINUOUS
 10
17.73677272894739
 20
2.038542318774704
 30
0.0
 11
20.8693968800916
 21
5.171166469918914
 31
0.0
  0
LINE
  5
1B888
  8
0
  6
CONTINUOUS
 10
17.92076276004034
 20
1.549013140787464
 30
0.0
 11
20.37944720592384
 21
4.007697586670968
 31
0.0
  0
LINE
  5
1B889
  8
0
  6
CONTINUOUS
 10
18.10475279113329
 20
1.059483962800223
 30
0.0
 11
19.88949753175608
 21
2.84422870342302
 31
0.0
  0
LINE
  5
1B88A
  8
0
  6
CONTINUOUS
 10
18.28874282222623
 20
0.5699547848129822
 30
0.0
 11
19.39954785758832
 21
1.680759820175074
 31
0.0
  0
LINE
  5
1B88B
  8
0
  6
CONTINUOUS
 10
18.47273285331918
 20
0.0804256068257416
 30
0.0
 11
18.90959818342056
 21
0.517290936927127
 31
0.0
  0
LINE
  5
1B88C
  8
0
  6
CONTINUOUS
 10
14.3590401358224
 20
-0.1570118376323384
 30
0.0
 11
14.24903296539946
 21
-0.0470046672093929
 31
0.0
  0
LINE
  5
1B88D
  8
0
  6
CONTINUOUS
 10
14.54309291258661
 20
0.332454594683643
 30
0.0
 11
13.75908329123172
 21
1.116464216038529
 31
0.0
  0
LINE
  5
1B88E
  8
0
  6
CONTINUOUS
 10
14.72714568935081
 20
0.8219210269996244
 30
0.0
 11
13.26913361706399
 21
2.27993309928645
 31
0.0
  0
LINE
  5
1B88F
  8
0
  6
CONTINUOUS
 10
14.91119846611502
 20
1.311387459315606
 30
0.0
 11
12.77918394289625
 21
3.443401982534371
 31
0.0
  0
LINE
  5
1B890
  8
0
  6
CONTINUOUS
 10
15.09525124287922
 20
1.800853891631587
 30
0.0
 11
12.28923426872852
 21
4.606870865782293
 31
0.0
  0
LINE
  5
1B891
  8
0
  6
CONTINUOUS
 10
15.27930401964343
 20
2.290320323947569
 30
0.0
 11
11.79928459456078
 21
5.770339749030213
 31
0.0
  0
LINE
  5
1B892
  8
0
  6
CONTINUOUS
 10
15.46335679640763
 20
2.77978675626355
 30
0.0
 11
14.48885470994921
 21
3.754288842721972
 31
0.0
  0
LINE
  5
1B893
  8
0
  6
CONTINUOUS
 10
13.88507249233704
 20
4.358071060334137
 30
0.0
 11
11.30933492039305
 21
6.933808632278135
 31
0.0
  0
LINE
  5
1B894
  8
0
  6
CONTINUOUS
 10
18.75840522805855
 20
0.1582575336928151
 30
0.0
 11
18.25383727664818
 21
0.6628254851031863
 31
0.0
  0
LINE
  5
1B895
  8
0
  6
CONTINUOUS
 10
15.64740957317184
 20
3.269253188579531
 30
0.0
 11
14.67288388101266
 21
4.243778880738705
 31
0.0
  0
LINE
  5
1B896
  8
0
  6
CONTINUOUS
 10
13.39509276772158
 20
5.521569994029786
 30
0.0
 11
10.81938524622531
 21
8.097277515526056
 31
0.0
  0
LINE
  5
1B897
  8
0
  6
CONTINUOUS
 10
18.95798597883369
 20
0.6321959919978686
 30
0.0
 11
17.84825644852853
 21
1.741925522303024
 31
0.0
  0
LINE
  5
1B898
  8
0
  6
CONTINUOUS
 10
19.15756672960882
 20
1.106134450302922
 30
0.0
 11
17.44267562040888
 21
2.821025559502861
 31
0.0
  0
LINE
  5
1B899
  8
0
  6
CONTINUOUS
 10
15.83146234993604
 20
3.758719620895513
 30
0.0
 11
14.85691305207612
 21
4.733268918755439
 31
0.0
  0
LINE
  5
1B89A
  8
0
  6
CONTINUOUS
 10
16.01551512670025
 20
4.248186053211494
 30
0.0
 11
15.04094222313957
 21
5.222758956772172
 31
0.0
  0
LINE
  5
1B89B
  8
0
  6
CONTINUOUS
 10
12.90511304310612
 20
6.685068927725435
 30
0.0
 11
10.8270819708403
 21
8.763099999991255
 31
0.0
  0
LINE
  5
1B89C
  8
0
  6
CONTINUOUS
 10
12.41513331849066
 20
7.848567861421083
 30
0.0
 11
11.50060117992049
 21
8.763099999991255
 31
0.0
  0
LINE
  5
1B89D
  8
0
  6
CONTINUOUS
 10
19.35714748038395
 20
1.580072908607975
 30
0.0
 11
17.03709479228923
 21
3.900125596702697
 31
0.0
  0
LINE
  5
1B89E
  8
0
  6
CONTINUOUS
 10
19.55672823115909
 20
2.054011366913028
 30
0.0
 11
16.63151396416958
 21
4.979225633902534
 31
0.0
  0
LINE
  5
1B89F
  8
0
  6
CONTINUOUS
 10
16.19956790346445
 20
4.737652485527476
 30
0.0
 11
15.22497139420302
 21
5.712248994788904
 31
0.0
  0
LINE
  5
1B8A0
  8
0
  6
CONTINUOUS
 10
16.38362068022866
 20
5.227118917843457
 30
0.0
 11
15.40900056526648
 21
6.201739032805637
 31
0.0
  0
LINE
  5
1B8A1
  8
0
  6
CONTINUOUS
 10
19.75630898193422
 20
2.527949825218081
 30
0.0
 11
18.70774536448286
 21
3.576513442669441
 31
0.0
  0
LINE
  5
1B8A2
  8
0
  6
CONTINUOUS
 10
19.95588973270936
 20
3.001888283523134
 30
0.0
 11
18.90726987211446
 21
4.050508144118028
 31
0.0
  0
LINE
  5
1B8A3
  8
0
  6
CONTINUOUS
 10
20.15547048348449
 20
3.475826741828186
 30
0.0
 11
19.10679437974606
 21
4.524502845566614
 31
0.0
  0
LINE
  5
1B8A4
  8
0
  6
CONTINUOUS
 10
20.35505123425962
 20
3.94976520013324
 30
0.0
 11
19.30631888737766
 21
4.998497547015201
 31
0.0
  0
LINE
  5
1B8A5
  8
0
  6
CONTINUOUS
 10
20.55463198503475
 20
4.423703658438292
 30
0.0
 11
19.50584339500926
 21
5.472492248463787
 31
0.0
  0
LINE
  5
1B8A6
  8
0
  6
CONTINUOUS
 10
18.37481191085755
 20
3.909446896294752
 30
0.0
 11
15.59302973632993
 21
6.691229070822371
 31
0.0
  0
LINE
  5
1B8A7
  8
0
  6
CONTINUOUS
 10
17.96904084440766
 20
4.988737171824825
 30
0.0
 11
15.77705890739338
 21
7.180719108839104
 31
0.0
  0
LINE
  5
1B8A8
  8
0
  6
CONTINUOUS
 10
17.56326977795777
 20
6.068027447354899
 30
0.0
 11
15.96108807845684
 21
7.670209146855838
 31
0.0
  0
LINE
  5
1B8A9
  8
0
  6
CONTINUOUS
 10
17.15749871150789
 20
7.147317722884972
 30
0.0
 11
16.14511724952029
 21
8.15969918487257
 31
0.0
  0
LINE
  5
1B8AA
  8
0
  6
CONTINUOUS
 10
16.751727645058
 20
8.226607998415046
 30
0.0
 11
16.32914642058374
 21
8.649189222889303
 31
0.0
  0
LINE
  5
1B8AB
  8
0
  6
CONTINUOUS
 10
20.75421273580989
 20
4.897642116743345
 30
0.0
 11
19.70536790264086
 21
5.946486949912374
 31
0.0
  0
LINE
  5
1B8AC
  8
0
  6
CONTINUOUS
 10
20.95379348658502
 20
5.371580575048398
 30
0.0
 11
19.90489241027246
 21
6.42048165136096
 31
0.0
  0
LINE
  5
1B8AD
  8
0
  6
CONTINUOUS
 10
21.15337423736015
 20
5.845519033353452
 30
0.0
 11
20.10441691790406
 21
6.894476352809547
 31
0.0
  0
LINE
  5
1B8AE
  8
0
  6
CONTINUOUS
 10
21.35295498813529
 20
6.319457491658505
 30
0.0
 11
20.30394142553566
 21
7.368471054258134
 31
0.0
  0
LINE
  5
1B8AF
  8
0
  6
CONTINUOUS
 10
21.55253573891042
 20
6.793395949963558
 30
0.0
 11
20.50346593316726
 21
7.842465755706721
 31
0.0
  0
LINE
  5
1B8B0
  8
0
  6
CONTINUOUS
 10
21.75211648968556
 20
7.267334408268612
 30
0.0
 11
20.70299044079886
 21
8.316460457155308
 31
0.0
  0
LINE
  5
1B8B1
  8
0
  6
CONTINUOUS
 10
21.95169724046069
 20
7.741272866573663
 30
0.0
 11
20.9298701070431
 21
8.763099999991256
 31
0.0
  0
LINE
  5
1B8B2
  8
0
  6
CONTINUOUS
 10
22.15127799123582
 20
8.215211324878716
 30
0.0
 11
21.60338931612328
 21
8.763099999991256
 31
0.0
  0
LINE
  5
1B8B3
  8
0
  6
CONTINUOUS
 10
22.35085874201096
 20
8.689149783183769
 30
0.0
 11
22.27690852520347
 21
8.763099999991255
 31
0.0
  0
ENDBLK
  5
1B9A5
  8
0
  0
BLOCK
  8
0
  2
*X24
 70
     1
 10
0.0
 20
0.0
 30
0.0
  3
*X24
  1

  0
LINE
  5
1B8B5
  8
0
  6
CONTINUOUS
 10
23.19462913593892
 20
8.169917934846424
 30
0.0
 11
23.70775465517246
 21
8.683043454079957
 31
0.0
  0
LINE
  5
1B8B6
  8
0
  6
CONTINUOUS
 10
22.64923161835078
 20
6.951001208178088
 30
0.0
 11
23.9159364069932
 21
8.217705996820516
 31
0.0
  0
LINE
  5
1B8B7
  8
0
  6
CONTINUOUS
 10
22.10383410076263
 20
5.732084481509751
 30
0.0
 11
24.12411815881395
 21
7.752368539561078
 31
0.0
  0
LINE
  5
1B8B8
  8
0
  6
CONTINUOUS
 10
21.55843658317447
 20
4.513167754841414
 30
0.0
 11
24.3322999106347
 21
7.287031082301639
 31
0.0
  0
LINE
  5
1B8B9
  8
0
  6
CONTINUOUS
 10
21.01303906558632
 20
3.294251028173077
 30
0.0
 11
24.54048166245544
 21
6.821693625042199
 31
0.0
  0
LINE
  5
1B8BA
  8
0
  6
CONTINUOUS
 10
20.46764154799817
 20
2.075334301504738
 30
0.0
 11
23.28571549467848
 21
4.89340824818505
 31
0.0
  0
LINE
  5
1B8BB
  8
0
  6
CONTINUOUS
 10
19.92224403041002
 20
0.8564175748364002
 30
0.0
 11
22.74075865492779
 21
3.674932199354171
 31
0.0
  0
LINE
  5
1B8BC
  8
0
  6
CONTINUOUS
 10
23.67305085490148
 20
5.280743608408048
 30
0.0
 11
24.74866341427619
 21
6.356356167782759
 31
0.0
  0
LINE
  5
1B8BD
  8
0
  6
CONTINUOUS
 10
23.88118970842314
 20
4.815363252849522
 30
0.0
 11
24.95684516609694
 21
5.89101871052332
 31
0.0
  0
LINE
  5
1B8BE
  8
0
  6
CONTINUOUS
 10
19.73925852647308
 20
-0.0000871381807288
 30
0.0
 11
23.4103456646501
 21
3.670999999996297
 31
0.0
  0
LINE
  5
1B8BF
  8
0
  6
CONTINUOUS
 10
24.0893285619448
 20
4.349982897290997
 30
0.0
 11
25.16502691791769
 21
5.42568125326388
 31
0.0
  0
LINE
  5
1B8C0
  8
0
  6
CONTINUOUS
 10
20.41282099582748
 20
-0.0000438779065108
 30
0.0
 11
21.64944178675636
 21
1.236576913022366
 31
0.0
  0
LINE
  5
1B8C1
  8
0
  6
CONTINUOUS
 10
22.78126487373161
 20
2.36839999999762
 30
0.0
 11
24.08386487373029
 21
3.670999999996297
 31
0.0
  0
LINE
  5
1B8C2
  8
0
  6
CONTINUOUS
 10
24.29746741546646
 20
3.884602541732471
 30
0.0
 11
25.37320866973843
 21
4.960343796004441
 31
0.0
  0
LINE
  5
1B8C3
  8
0
  6
CONTINUOUS
 10
21.08638346518189
 20
-0.0000006176322938
 30
0.0
 11
21.10379033335899
 21
0.0174062505448083
 31
0.0
  0
LINE
  5
1B8C4
  8
0
  6
CONTINUOUS
 10
23.4547840828118
 20
2.36839999999762
 30
0.0
 11
25.58139042155918
 21
4.495006338745002
 31
0.0
  0
LINE
  5
1B8C5
  8
0
  6
CONTINUOUS
 10
29.30199999996933
 20
8.215615917155148
 30
0.0
 11
29.84948408280543
 21
8.763099999991255
 31
0.0
  0
LINE
  5
1B8C6
  8
0
  6
CONTINUOUS
 10
24.12830329189199
 20
2.36839999999762
 30
0.0
 11
25.78957217337993
 21
4.029668881485562
 31
0.0
  0
LINE
  5
1B8C7
  8
0
  6
CONTINUOUS
 10
29.30199999996933
 20
7.54209670807496
 30
0.0
 11
30.52300329188562
 21
8.763099999991255
 31
0.0
  0
LINE
  5
1B8C8
  8
0
  6
CONTINUOUS
 10
24.80182250097217
 20
2.36839999999762
 30
0.0
 11
25.99775392520067
 21
3.564331424226122
 31
0.0
  0
LINE
  5
1B8C9
  8
0
  6
CONTINUOUS
 10
29.30199999996933
 20
6.868577498994774
 30
0.0
 11
30.74199999996926
 21
8.308577498994712
 31
0.0
  0
LINE
  5
1B8CA
  8
0
  6
CONTINUOUS
 10
25.13028238392013
 20
2.023340673865392
 30
0.0
 11
26.20593567702142
 21
3.098993966966683
 31
0.0
  0
LINE
  5
1B8CB
  8
0
  6
CONTINUOUS
 10
25.33838066033617
 20
1.557919741201244
 30
0.0
 11
26.41411742884217
 21
2.633656509707244
 31
0.0
  0
LINE
  5
1B8CC
  8
0
  6
CONTINUOUS
 10
25.54647893675221
 20
1.092498808537098
 30
0.0
 11
26.62229918066291
 21
2.168319052447804
 31
0.0
  0
LINE
  5
1B8CD
  8
0
  6
CONTINUOUS
 10
25.75457721316825
 20
0.62707787587295
 30
0.0
 11
26.83048093248366
 21
1.702981595188365
 31
0.0
  0
LINE
  5
1B8CE
  8
0
  6
CONTINUOUS
 10
29.30199999996933
 20
6.195058289914587
 30
0.0
 11
30.74199999996926
 21
7.635058289914522
 31
0.0
  0
LINE
  5
1B8CF
  8
0
  6
CONTINUOUS
 10
29.30199999996933
 20
5.521539080834401
 30
0.0
 11
30.74199999996926
 21
6.961539080834331
 31
0.0
  0
LINE
  5
1B8D0
  8
0
  6
CONTINUOUS
 10
29.30199999996933
 20
4.848019871754214
 30
0.0
 11
30.74199999996925
 21
6.288019871754143
 31
0.0
  0
LINE
  5
1B8D1
  8
0
  6
CONTINUOUS
 10
29.30199999996933
 20
4.174500662674028
 30
0.0
 11
30.74199999996925
 21
5.614500662673953
 31
0.0
  0
LINE
  5
1B8D2
  8
0
  6
CONTINUOUS
 10
25.96267548958429
 20
0.1616569432088024
 30
0.0
 11
27.18411854636669
 21
1.383099999991207
 31
0.0
  0
LINE
  5
1B8D3
  8
0
  6
CONTINUOUS
 10
29.30199999996933
 20
3.500981453593841
 30
0.0
 11
30.74199999996925
 21
4.940981453593762
 31
0.0
  0
LINE
  5
1B8D4
  8
0
  6
CONTINUOUS
 10
26.50763775544691
 20
0.0330999999912356
 30
0.0
 11
27.85763775544689
 21
1.383099999991223
 31
0.0
  0
LINE
  5
1B8D5
  8
0
  6
CONTINUOUS
 10
29.30199999996933
 20
2.827462244513656
 30
0.0
 11
30.74199999996925
 21
4.267462244513574
 31
0.0
  0
LINE
  5
1B8D6
  8
0
  6
CONTINUOUS
 10
27.18115696452709
 20
0.0330999999912356
 30
0.0
 11
28.6224847300034
 21
1.474427765467545
 31
0.0
  0
LINE
  5
1B8D7
  8
0
  6
CONTINUOUS
 10
29.21067223449293
 20
2.062615269957069
 30
0.0
 11
30.74199999996924
 21
3.593943035433383
 31
0.0
  0
LINE
  5
1B8D8
  8
0
  6
CONTINUOUS
 10
27.85467617360728
 20
0.0330999999912356
 30
0.0
 11
30.74199999996924
 21
2.920423826353195
 31
0.0
  0
LINE
  5
1B8D9
  8
0
  6
CONTINUOUS
 10
28.57438609860264
 20
0.0792907159064073
 30
0.0
 11
30.69580928405405
 21
2.200713901357819
 31
0.0
  0
LINE
  5
1B8DA
  8
0
  6
CONTINUOUS
 10
29.49443044814297
 20
0.3258158563665496
 30
0.0
 11
30.44928414359389
 21
1.280669551817477
 31
0.0
  0
LINE
  5
1B8DB
  8
0
  6
CONTINUOUS
 10
19.59027867740337
 20
-0.0000967065718083
 30
0.0
 11
19.55485265190471
 21
0.035329318926844
 31
0.0
  0
LINE
  5
1B8DC
  8
0
  6
CONTINUOUS
 10
20.26375463176586
 20
-0.0000534518541091
 30
0.0
 11
19.76305575737534
 21
0.5006454225364014
 31
0.0
  0
LINE
  5
1B8DD
  8
0
  6
CONTINUOUS
 10
20.93723058612834
 20
-0.0000101971364099
 30
0.0
 11
19.97125886284597
 21
0.965961526145958
 31
0.0
  0
LINE
  5
1B8DE
  8
0
  6
CONTINUOUS
 10
21.25514828313686
 20
0.355591314935257
 30
0.0
 11
20.1794619683166
 21
1.431277629755512
 31
0.0
  0
LINE
  5
1B8DF
  8
0
  6
CONTINUOUS
 10
21.46338838394921
 20
0.8208704232030986
 30
0.0
 11
20.38766507378723
 21
1.896593733365069
 31
0.0
  0
LINE
  5
1B8E0
  8
0
  6
CONTINUOUS
 10
21.67162848476155
 20
1.28614953147094
 30
0.0
 11
20.59586817925786
 21
2.361909836974626
 31
0.0
  0
LINE
  5
1B8E1
  8
0
  6
CONTINUOUS
 10
21.8798685855739
 20
1.751428639738782
 30
0.0
 11
20.80407128472849
 21
2.827225940584183
 31
0.0
  0
LINE
  5
1B8E2
  8
0
  6
CONTINUOUS
 10
22.08810868638624
 20
2.216707748006623
 30
0.0
 11
21.01227439019912
 21
3.292542044193739
 31
0.0
  0
LINE
  5
1B8E3
  8
0
  6
CONTINUOUS
 10
22.60993564347543
 20
2.36839999999762
 30
0.0
 11
21.22047749566975
 21
3.757858147803296
 31
0.0
  0
LINE
  5
1B8E4
  8
0
  6
CONTINUOUS
 10
23.28345485255561
 20
2.36839999999762
 30
0.0
 11
21.42868060114038
 21
4.223174251412853
 31
0.0
  0
LINE
  5
1B8E5
  8
0
  6
CONTINUOUS
 10
26.29227406164219
 20
0.0330999999912356
 30
0.0
 11
25.80009199592872
 21
0.5252820657046957
 31
0.0
  0
LINE
  5
1B8E6
  8
0
  6
CONTINUOUS
 10
23.9569740616358
 20
2.36839999999762
 30
0.0
 11
21.63688370661101
 21
4.688490355022409
 31
0.0
  0
LINE
  5
1B8E7
  8
0
  6
CONTINUOUS
 10
26.96579327072237
 20
0.0330999999912356
 30
0.0
 11
25.2554132311971
 21
1.743480039516508
 31
0.0
  0
LINE
  5
1B8E8
  8
0
  6
CONTINUOUS
 10
24.63049327071599
 20
2.36839999999762
 30
0.0
 11
23.32789327071731
 21
3.670999999996297
 31
0.0
  0
LINE
  5
1B8E9
  8
0
  6
CONTINUOUS
 10
22.92098674744635
 20
4.077906523267254
 30
0.0
 11
21.84508681208164
 21
5.153806458631966
 31
0.0
  0
LINE
  5
1B8EA
  8
0
  6
CONTINUOUS
 10
27.63931247980256
 20
0.0330999999912356
 30
0.0
 11
24.0014124797975
 21
3.670999999996297
 31
0.0
  0
LINE
  5
1B8EB
  8
0
  6
CONTINUOUS
 10
23.129125600968
 20
4.5432868788258
 30
0.0
 11
22.05328991755227
 21
5.619122562241522
 31
0.0
  0
LINE
  5
1B8EC
  8
0
  6
CONTINUOUS
 10
28.31283168888275
 20
0.0330999999912356
 30
0.0
 11
24.16488385994816
 21
4.181047828925828
 31
0.0
  0
LINE
  5
1B8ED
  8
0
  6
CONTINUOUS
 10
23.33726445448964
 20
5.008667234384345
 30
0.0
 11
22.2614930230229
 21
6.084438665851079
 31
0.0
  0
LINE
  5
1B8EE
  8
0
  6
CONTINUOUS
 10
28.86286302309502
 20
0.1565878748591523
 30
0.0
 11
27.63635089796295
 21
1.383099999991217
 31
0.0
  0
LINE
  5
1B8EF
  8
0
  6
CONTINUOUS
 10
26.43704649509776
 20
2.582404402856405
 30
0.0
 11
23.61992702019732
 21
5.399523877756844
 31
0.0
  0
LINE
  5
1B8F0
  8
0
  6
CONTINUOUS
 10
23.54540330801128
 20
5.47404758994289
 30
0.0
 11
22.46969612849353
 21
6.549754769460635
 31
0.0
  0
LINE
  5
1B8F1
  8
0
  6
CONTINUOUS
 10
29.39405087596853
 20
0.2989192310658284
 30
0.0
 11
28.30987010704312
 21
1.383099999991234
 31
0.0
  0
LINE
  5
1B8F2
  8
0
  6
CONTINUOUS
 10
25.89179548232307
 20
3.801174624711282
 30
0.0
 11
22.67789923396416
 21
7.015070873070191
 31
0.0
  0
LINE
  5
1B8F3
  8
0
  6
CONTINUOUS
 10
29.79594438047407
 20
0.570544935640473
 30
0.0
 11
28.81310432793121
 21
1.553384988183336
 31
0.0
  0
LINE
  5
1B8F4
  8
0
  6
CONTINUOUS
 10
25.34654446954838
 20
5.01994484656616
 30
0.0
 11
22.88610233943479
 21
7.480386976679748
 31
0.0
  0
LINE
  5
1B8F5
  8
0
  6
CONTINUOUS
 10
30.13270398501416
 20
0.9073045401805646
 30
0.0
 11
29.14234640337737
 21
1.897662121817355
 31
0.0
  0
LINE
  5
1B8F6
  8
0
  6
CONTINUOUS
 10
24.80129345677369
 20
6.238715068421037
 30
0.0
 11
23.09430544490542
 21
7.945703080289305
 31
0.0
  0
LINE
  5
1B8F7
  8
0
  6
CONTINUOUS
 10
30.44581292956759
 20
1.26771480470732
 30
0.0
 11
29.30199999996933
 21
2.411527734305588
 31
0.0
  0
LINE
  5
1B8F8
  8
0
  6
CONTINUOUS
 10
30.58814428577427
 20
1.798902657580827
 30
0.0
 11
29.30199999996933
 21
3.085046943385775
 31
0.0
  0
LINE
  5
1B8F9
  8
0
  6
CONTINUOUS
 10
24.256042443999
 20
7.457485290275915
 30
0.0
 11
23.30250855037605
 21
8.411019183898862
 31
0.0
  0
LINE
  5
1B8FA
  8
0
  6
CONTINUOUS
 10
23.71079143122431
 20
8.676255512130794
 30
0.0
 11
23.51071165584668
 21
8.876335287508418
 31
0.0
  0
LINE
  5
1B8FB
  8
0
  6
CONTINUOUS
 10
30.73047564198095
 20
2.330090510454333
 30
0.0
 11
29.30199999996933
 21
3.758566152465961
 31
0.0
  0
LINE
  5
1B8FC
  8
0
  6
CONTINUOUS
 10
30.74199999996924
 20
2.992085361546236
 30
0.0
 11
29.30199999996933
 21
4.432085361546148
 31
0.0
  0
LINE
  5
1B8FD
  8
0
  6
CONTINUOUS
 10
30.74199999996924
 20
3.665604570626419
 30
0.0
 11
29.30199999996933
 21
5.105604570626333
 31
0.0
  0
LINE
  5
1B8FE
  8
0
  6
CONTINUOUS
 10
30.74199999996925
 20
4.339123779706602
 30
0.0
 11
29.30199999996933
 21
5.77912377970652
 31
0.0
  0
LINE
  5
1B8FF
  8
0
  6
CONTINUOUS
 10
30.74199999996925
 20
5.012642988786785
 30
0.0
 11
29.30199999996933
 21
6.452642988786707
 31
0.0
  0
LINE
  5
1B900
  8
0
  6
CONTINUOUS
 10
30.74199999996925
 20
5.68616219786697
 30
0.0
 11
29.30199999996933
 21
7.126162197866894
 31
0.0
  0
LINE
  5
1B901
  8
0
  6
CONTINUOUS
 10
30.74199999996925
 20
6.359681406947153
 30
0.0
 11
29.30199999996933
 21
7.799681406947081
 31
0.0
  0
LINE
  5
1B902
  8
0
  6
CONTINUOUS
 10
30.74199999996926
 20
7.033200616027337
 30
0.0
 11
29.30199999996933
 21
8.473200616027269
 31
0.0
  0
LINE
  5
1B903
  8
0
  6
CONTINUOUS
 10
30.74199999996926
 20
7.706719825107518
 30
0.0
 11
29.68561982508552
 21
8.763099999991255
 31
0.0
  0
LINE
  5
1B904
  8
0
  6
CONTINUOUS
 10
30.74199999996926
 20
8.380239034187703
 30
0.0
 11
30.35913903416571
 21
8.763099999991255
 31
0.0
  0
ENDBLK
  5
1B9A7
  8
0
  0
BLOCK
  8
0
  2
*X25
 70
     1
 10
0.0
 20
0.0
 30
0.0
  3
*X25
  1

  0
LINE
  5
1B906
  8
0
  6
CONTINUOUS
 10
31.64199999996833
 20
8.5350582899136
 30
0.0
 11
31.87004171004599
 21
8.763099999991255
 31
0.0
  0
LINE
  5
1B907
  8
0
  6
CONTINUOUS
 10
31.64199999996833
 20
7.861539080833413
 30
0.0
 11
32.54356091912618
 21
8.763099999991255
 31
0.0
  0
LINE
  5
1B908
  8
0
  6
CONTINUOUS
 10
31.64199999996833
 20
7.188019871753227
 30
0.0
 11
33.08199999996839
 21
8.628019871753281
 31
0.0
  0
LINE
  5
1B909
  8
0
  6
CONTINUOUS
 10
31.64199999996833
 20
6.514500662673041
 30
0.0
 11
33.08199999996839
 21
7.954500662673095
 31
0.0
  0
LINE
  5
1B90A
  8
0
  6
CONTINUOUS
 10
31.64199999996833
 20
5.840981453592855
 30
0.0
 11
33.08199999996839
 21
7.28098145359291
 31
0.0
  0
LINE
  5
1B90B
  8
0
  6
CONTINUOUS
 10
31.64199999996833
 20
5.167462244512668
 30
0.0
 11
33.08199999996839
 21
6.607462244512723
 31
0.0
  0
LINE
  5
1B90C
  8
0
  6
CONTINUOUS
 10
31.64199999996833
 20
4.493943035432482
 30
0.0
 11
33.08199999996839
 21
5.933943035432536
 31
0.0
  0
LINE
  5
1B90D
  8
0
  6
CONTINUOUS
 10
31.64199999996833
 20
3.820423826352294
 30
0.0
 11
33.08199999996839
 21
5.260423826352349
 31
0.0
  0
LINE
  5
1B90E
  8
0
  6
CONTINUOUS
 10
31.64199999996833
 20
3.146904617272108
 30
0.0
 11
33.08199999996839
 21
4.586904617272163
 31
0.0
  0
LINE
  5
1B90F
  8
0
  6
CONTINUOUS
 10
36.23199999996837
 20
8.410423826352327
 30
0.0
 11
36.58467617360729
 21
8.763099999991255
 31
0.0
  0
LINE
  5
1B910
  8
0
  6
CONTINUOUS
 10
36.23199999996837
 20
7.73690461727214
 30
0.0
 11
37.25819538268748
 21
8.763099999991255
 31
0.0
  0
LINE
  5
1B911
  8
0
  6
CONTINUOUS
 10
31.64323424774199
 20
2.474619655965573
 30
0.0
 11
33.08199999996839
 21
3.913385408191976
 31
0.0
  0
LINE
  5
1B912
  8
0
  6
CONTINUOUS
 10
31.74419223861915
 20
1.902058437762552
 30
0.0
 11
33.08199999996839
 21
3.239866199111789
 31
0.0
  0
LINE
  5
1B913
  8
0
  6
CONTINUOUS
 10
36.23199999996837
 20
7.063385408191953
 30
0.0
 11
37.67199999996831
 21
8.503385408191894
 31
0.0
  0
LINE
  5
1B914
  8
0
  6
CONTINUOUS
 10
36.23199999996837
 20
6.389866199111767
 30
0.0
 11
37.67199999996831
 21
7.829866199111708
 31
0.0
  0
LINE
  5
1B915
  8
0
  6
CONTINUOUS
 10
31.91111233414976
 20
1.39545932421297
 30
0.0
 11
33.08199999996839
 21
2.566346990031603
 31
0.0
  0
LINE
  5
1B916
  8
0
  6
CONTINUOUS
 10
36.23199999996837
 20
5.71634699003158
 30
0.0
 11
37.67199999996831
 21
7.156346990031522
 31
0.0
  0
LINE
  5
1B917
  8
0
  6
CONTINUOUS
 10
32.1576374746103
 20
0.9684652555933289
 30
0.0
 11
33.20642631446081
 21
2.017254095443838
 31
0.0
  0
LINE
  5
1B918
  8
0
  6
CONTINUOUS
 10
36.23199999996837
 20
5.042827780951393
 30
0.0
 11
37.67199999996831
 21
6.482827780951334
 31
0.0
  0
LINE
  5
1B919
  8
0
  6
CONTINUOUS
 10
32.47774023927325
 20
0.6150488111760914
 30
0.0
 11
33.49903056428258
 21
1.636339136185419
 31
0.0
  0
LINE
  5
1B91A
  8
0
  6
CONTINUOUS
 10
36.23199999996837
 20
4.369308571871207
 30
0.0
 11
37.67199999996831
 21
5.809308571871148
 31
0.0
  0
LINE
  5
1B91B
  8
0
  6
CONTINUOUS
 10
32.84396249154443
 20
0.3077518543670883
 30
0.0
 11
33.93324121824649
 21
1.397030581069146
 31
0.0
  0
LINE
  5
1B91C
  8
0
  6
CONTINUOUS
 10
36.23199999996837
 20
3.695789362791021
 30
0.0
 11
37.67199999996831
 21
5.135789362790963
 31
0.0
  0
LINE
  5
1B91D
  8
0
  6
CONTINUOUS
 10
33.30186329036846
 20
0.0921334441109263
 30
0.0
 11
34.46442907112041
 21
1.254699224862875
 31
0.0
  0
LINE
  5
1B91E
  8
0
  6
CONTINUOUS
 10
36.23199999996837
 20
3.022270153710834
 30
0.0
 11
37.67199999996831
 21
4.462270153710776
 31
0.0
  0
LINE
  5
1B91F
  8
0
  6
CONTINUOUS
 10
33.79565647746294
 20
-0.0875925778747773
 30
0.0
 11
35.24350171668284
 21
1.360252661345124
 31
0.0
  0
LINE
  5
1B920
  8
0
  6
CONTINUOUS
 10
36.18336676155003
 20
2.300117706212308
 30
0.0
 11
37.67199999996831
 21
3.788750944630589
 31
0.0
  0
LINE
  5
1B921
  8
0
  6
CONTINUOUS
 10
34.37182574910968
 20
-0.184942515308224
 30
0.0
 11
37.67199999996831
 21
3.115231735550402
 31
0.0
  0
LINE
  5
1B922
  8
0
  6
CONTINUOUS
 10
35.0453449581892
 20
-0.1849425153088955
 30
0.0
 11
37.66345697088136
 21
2.433169497383271
 31
0.0
  0
LINE
  5
1B923
  8
0
  6
CONTINUOUS
 10
35.98667157609191
 20
0.0828648935136398
 30
0.0
 11
37.51927401744566
 21
1.615467334867382
 31
0.0
  0
LINE
  5
1B924
  8
0
  6
CONTINUOUS
 10
32.27747408544484
 20
0.7830920669904482
 30
0.0
 11
32.24716210471949
 21
0.8134040477157893
 31
0.0
  0
LINE
  5
1B925
  8
0
  6
CONTINUOUS
 10
33.83656881101902
 20
-0.1024834495035494
 30
0.0
 11
31.72538911593758
 21
2.008696245577891
 31
0.0
  0
LINE
  5
1B926
  8
0
  6
CONTINUOUS
 10
34.5925470859041
 20
-0.1849425153084434
 30
0.0
 11
31.64199999996833
 21
2.765604570627322
 31
0.0
  0
LINE
  5
1B927
  8
0
  6
CONTINUOUS
 10
35.26201302775981
 20
-0.1808892480839752
 30
0.0
 11
31.64199999996833
 21
3.439123779707508
 31
0.0
  0
LINE
  5
1B928
  8
0
  6
CONTINUOUS
 10
35.75580621485512
 20
-0.0011632260990879
 30
0.0
 11
34.51294304365551
 21
1.241699945100514
 31
0.0
  0
LINE
  5
1B929
  8
0
  6
CONTINUOUS
 10
33.08199999996839
 20
2.672642988787641
 30
0.0
 11
31.64199999996833
 21
4.112642988787695
 31
0.0
  0
LINE
  5
1B92A
  8
0
  6
CONTINUOUS
 10
36.24959940195042
 20
0.1785627958857976
 30
0.0
 11
35.10501653033629
 21
1.323145667499924
 31
0.0
  0
LINE
  5
1B92B
  8
0
  6
CONTINUOUS
 10
33.08199999996839
 20
3.346162197867827
 30
0.0
 11
31.64199999996833
 21
4.786162197867881
 31
0.0
  0
LINE
  5
1B92C
  8
0
  6
CONTINUOUS
 10
36.64615197150552
 20
0.4555294354108876
 30
0.0
 11
35.6362043832099
 21
1.465477023706505
 31
0.0
  0
LINE
  5
1B92D
  8
0
  6
CONTINUOUS
 10
33.08199999996839
 20
4.019681406948013
 30
0.0
 11
31.64199999996833
 21
5.459681406948068
 31
0.0
  0
LINE
  5
1B92E
  8
0
  6
CONTINUOUS
 10
37.0123742237774
 20
0.7628263922191891
 30
0.0
 11
35.97691545773309
 21
1.798285158263504
 31
0.0
  0
LINE
  5
1B92F
  8
0
  6
CONTINUOUS
 10
33.08199999996839
 20
4.6932006160282
 30
0.0
 11
31.64199999996833
 21
6.133200616028255
 31
0.0
  0
LINE
  5
1B930
  8
0
  6
CONTINUOUS
 10
37.27491524157143
 20
1.173804583505349
 30
0.0
 11
36.17602012811361
 21
2.272699696963169
 31
0.0
  0
LINE
  5
1B931
  8
0
  6
CONTINUOUS
 10
33.08199999996839
 20
5.366719825108387
 30
0.0
 11
31.64199999996833
 21
6.806719825108441
 31
0.0
  0
LINE
  5
1B932
  8
0
  6
CONTINUOUS
 10
37.51739996707661
 20
1.604839067080355
 30
0.0
 11
36.23199999996837
 21
2.890239034188595
 31
0.0
  0
LINE
  5
1B933
  8
0
  6
CONTINUOUS
 10
37.6183579579535
 20
2.177400285283649
 30
0.0
 11
36.23199999996837
 21
3.563758243268782
 31
0.0
  0
LINE
  5
1B934
  8
0
  6
CONTINUOUS
 10
33.08199999996839
 20
6.040239034188573
 30
0.0
 11
31.64199999996833
 21
7.480239034188628
 31
0.0
  0
LINE
  5
1B935
  8
0
  6
CONTINUOUS
 10
33.08199999996839
 20
6.713758243268759
 30
0.0
 11
31.64199999996833
 21
8.153758243268815
 31
0.0
  0
LINE
  5
1B936
  8
0
  6
CONTINUOUS
 10
37.67199999996831
 20
2.797277452349027
 30
0.0
 11
36.23199999996837
 21
4.237277452348969
 31
0.0
  0
LINE
  5
1B937
  8
0
  6
CONTINUOUS
 10
37.67199999996831
 20
3.470796661429214
 30
0.0
 11
36.23199999996837
 21
4.910796661429155
 31
0.0
  0
LINE
  5
1B938
  8
0
  6
CONTINUOUS
 10
37.67199999996831
 20
4.1443158705094
 30
0.0
 11
36.23199999996837
 21
5.584315870509341
 31
0.0
  0
LINE
  5
1B939
  8
0
  6
CONTINUOUS
 10
33.08199999996839
 20
7.387277452348946
 30
0.0
 11
31.70617745232608
 21
8.763099999991255
 31
0.0
  0
LINE
  5
1B93A
  8
0
  6
CONTINUOUS
 10
33.08199999996839
 20
8.060796661429134
 30
0.0
 11
32.37969666140626
 21
8.763099999991255
 31
0.0
  0
LINE
  5
1B93B
  8
0
  6
CONTINUOUS
 10
33.08199999996839
 20
8.734315870509318
 30
0.0
 11
33.05321587048645
 21
8.763099999991255
 31
0.0
  0
LINE
  5
1B93C
  8
0
  6
CONTINUOUS
 10
37.67199999996831
 20
4.817835079589586
 30
0.0
 11
36.23199999996837
 21
6.257835079589528
 31
0.0
  0
LINE
  5
1B93D
  8
0
  6
CONTINUOUS
 10
37.67199999996831
 20
5.491354288669772
 30
0.0
 11
36.23199999996837
 21
6.931354288669715
 31
0.0
  0
LINE
  5
1B93E
  8
0
  6
CONTINUOUS
 10
37.67199999996831
 20
6.164873497749959
 30
0.0
 11
36.23199999996837
 21
7.6048734977499
 31
0.0
  0
LINE
  5
1B93F
  8
0
  6
CONTINUOUS
 10
37.67199999996831
 20
6.838392706830145
 30
0.0
 11
36.23199999996837
 21
8.278392706830086
 31
0.0
  0
LINE
  5
1B940
  8
0
  6
CONTINUOUS
 10
37.67199999996831
 20
7.511911915910333
 30
0.0
 11
36.42081191588738
 21
8.763099999991255
 31
0.0
  0
LINE
  5
1B941
  8
0
  6
CONTINUOUS
 10
37.67199999996831
 20
8.185431124990519
 30
0.0
 11
37.09433112496757
 21
8.763099999991255
 31
0.0
  0
ENDBLK
  5
1B9A9
  8
0
  0
BLOCK
  8
0
  2
*X26
 70
     1
 10
0.0
 20
0.0
 30
0.0
  3
*X26
  1

  0
LINE
  5
1B943
  8
0
  6
CONTINUOUS
 10
38.60499999996136
 20
8.762866199104765
 30
0.0
 11
38.71672554182345
 21
8.874591740966855
 31
0.0
  0
LINE
  5
1B944
  8
0
  6
CONTINUOUS
 10
38.60499999996136
 20
8.089346990024577
 30
0.0
 11
39.03418785440363
 21
8.518534844466847
 31
0.0
  0
LINE
  5
1B945
  8
0
  6
CONTINUOUS
 10
38.60499999996136
 20
7.41582778094439
 30
0.0
 11
39.35165016698382
 21
8.16247794796684
 31
0.0
  0
LINE
  5
1B946
  8
0
  6
CONTINUOUS
 10
38.60499999996136
 20
6.742308571864204
 30
0.0
 11
39.66911247956399
 21
7.806421051466834
 31
0.0
  0
LINE
  5
1B947
  8
0
  6
CONTINUOUS
 10
38.60499999996136
 20
6.068789362784018
 30
0.0
 11
39.98657479214418
 21
7.450364154966827
 31
0.0
  0
LINE
  5
1B948
  8
0
  6
CONTINUOUS
 10
38.60499999996136
 20
5.395270153703832
 30
0.0
 11
40.30403710472435
 21
7.09430725846682
 31
0.0
  0
LINE
  5
1B949
  8
0
  6
CONTINUOUS
 10
38.60499999996136
 20
4.721750944623645
 30
0.0
 11
40.62149941730453
 21
6.738250361966813
 31
0.0
  0
LINE
  5
1B94A
  8
0
  6
CONTINUOUS
 10
38.60499999996136
 20
4.048231735543458
 30
0.0
 11
40.93896172988471
 21
6.382193465466806
 31
0.0
  0
LINE
  5
1B94B
  8
0
  6
CONTINUOUS
 10
38.60499999996136
 20
3.374712526463272
 30
0.0
 11
40.02599999995994
 21
4.795712526461843
 31
0.0
  0
LINE
  5
1B94C
  8
0
  6
CONTINUOUS
 10
38.60499999996136
 20
2.701193317383085
 30
0.0
 11
40.02599999995994
 21
4.122193317381657
 31
0.0
  0
LINE
  5
1B94D
  8
0
  6
CONTINUOUS
 10
40.28339754687704
 20
5.053110073378947
 30
0.0
 11
41.25642404246489
 21
6.026136568966799
 31
0.0
  0
LINE
  5
1B94E
  8
0
  6
CONTINUOUS
 10
40.60085985945722
 20
4.697053176878939
 30
0.0
 11
41.57388635504507
 21
5.670079672466793
 31
0.0
  0
LINE
  5
1B94F
  8
0
  6
CONTINUOUS
 10
43.57899999995641
 20
8.348712526458318
 30
0.0
 11
43.99338747348935
 21
8.763099999991255
 31
0.0
  0
LINE
  5
1B950
  8
0
  6
CONTINUOUS
 10
43.57899999995641
 20
7.675193317378131
 30
0.0
 11
44.66690668256953
 21
8.763099999991255
 31
0.0
  0
LINE
  5
1B951
  8
0
  6
CONTINUOUS
 10
38.60499999996136
 20
2.027674108302898
 30
0.0
 11
40.02599999995994
 21
3.44867410830147
 31
0.0
  0
LINE
  5
1B952
  8
0
  6
CONTINUOUS
 10
38.60499999996136
 20
1.354154899222712
 30
0.0
 11
40.02599999995994
 21
2.775154899221284
 31
0.0
  0
LINE
  5
1B953
  8
0
  6
CONTINUOUS
 10
38.60499999996136
 20
0.6806356901425255
 30
0.0
 11
40.02599999995994
 21
2.101635690141098
 31
0.0
  0
LINE
  5
1B954
  8
0
  6
CONTINUOUS
 10
38.60499999996136
 20
0.0071164810623383
 30
0.0
 11
40.02599999995994
 21
1.428116481060911
 31
0.0
  0
LINE
  5
1B955
  8
0
  6
CONTINUOUS
 10
40.9183221720374
 20
4.340996280378933
 30
0.0
 11
41.89134866762525
 21
5.314022775966786
 31
0.0
  0
LINE
  5
1B956
  8
0
  6
CONTINUOUS
 10
41.23578448461758
 20
3.984939383878926
 30
0.0
 11
42.20881098020543
 21
4.957965879466778
 31
0.0
  0
LINE
  5
1B957
  8
0
  6
CONTINUOUS
 10
41.55324679719776
 20
3.628882487378919
 30
0.0
 11
42.52627329278561
 21
4.601908982966772
 31
0.0
  0
LINE
  5
1B958
  8
0
  6
CONTINUOUS
 10
41.87070910977793
 20
3.272825590878912
 30
0.0
 11
42.84373560536579
 21
4.245852086466765
 31
0.0
  0
LINE
  5
1B959
  8
0
  6
CONTINUOUS
 10
43.57899999995641
 20
7.001674108297943
 30
0.0
 11
44.99999999995498
 21
8.422674108296516
 31
0.0
  0
LINE
  5
1B95A
  8
0
  6
CONTINUOUS
 10
43.57899999995641
 20
6.328154899217758
 30
0.0
 11
44.99999999995498
 21
7.749154899216329
 31
0.0
  0
LINE
  5
1B95B
  8
0
  6
CONTINUOUS
 10
43.57899999995641
 20
5.654635690137571
 30
0.0
 11
44.99999999995498
 21
7.075635690136142
 31
0.0
  0
LINE
  5
1B95C
  8
0
  6
CONTINUOUS
 10
43.57899999995641
 20
4.981116481057384
 30
0.0
 11
44.99999999995498
 21
6.402116481055955
 31
0.0
  0
LINE
  5
1B95D
  8
0
  6
CONTINUOUS
 10
39.27140272797921
 20
-0.0000000000000009
 30
0.0
 11
40.02599999995994
 21
0.7545972719807246
 31
0.0
  0
LINE
  5
1B95E
  8
0
  6
CONTINUOUS
 10
39.9449219370594
 20
-0.0000000000000009
 30
0.0
 11
40.02599999995994
 21
0.0810780629005379
 31
0.0
  0
LINE
  5
1B95F
  8
0
  6
CONTINUOUS
 10
42.18817142235812
 20
2.916768694378905
 30
0.0
 11
43.16119791794597
 21
3.889795189966758
 31
0.0
  0
LINE
  5
1B960
  8
0
  6
CONTINUOUS
 10
42.50563373493829
 20
2.560711797878898
 30
0.0
 11
43.47866023052615
 21
3.533738293466751
 31
0.0
  0
LINE
  5
1B961
  8
0
  6
CONTINUOUS
 10
43.57899999995641
 20
4.307597271977198
 30
0.0
 11
44.99999999995498
 21
5.728597271975769
 31
0.0
  0
LINE
  5
1B962
  8
0
  6
CONTINUOUS
 10
43.57899999995641
 20
3.634078062897011
 30
0.0
 11
44.99999999995498
 21
5.055078062895582
 31
0.0
  0
LINE
  5
1B963
  8
0
  6
CONTINUOUS
 10
42.82309604751848
 20
2.204654901378891
 30
0.0
 11
44.99999999995498
 21
4.381558853815395
 31
0.0
  0
LINE
  5
1B964
  8
0
  6
CONTINUOUS
 10
43.14055836009865
 20
1.848598004878885
 30
0.0
 11
44.99999999995498
 21
3.70803964473521
 31
0.0
  0
LINE
  5
1B965
  8
0
  6
CONTINUOUS
 10
43.45802067267883
 20
1.492541108378878
 30
0.0
 11
44.99999999995498
 21
3.034520435655023
 31
0.0
  0
LINE
  5
1B966
  8
0
  6
CONTINUOUS
 10
43.77548298525902
 20
1.136484211878871
 30
0.0
 11
44.99999999995498
 21
2.361001226574837
 31
0.0
  0
LINE
  5
1B967
  8
0
  6
CONTINUOUS
 10
44.09294529783919
 20
0.7804273153788639
 30
0.0
 11
44.99999999995498
 21
1.687482017494649
 31
0.0
  0
LINE
  5
1B968
  8
0
  6
CONTINUOUS
 10
44.41040761041938
 20
0.4243704188788566
 30
0.0
 11
44.99999999995498
 21
1.013962808414463
 31
0.0
  0
LINE
  5
1B969
  8
0
  6
CONTINUOUS
 10
44.72786992299955
 20
0.0683135223788494
 30
0.0
 11
44.99999999995498
 21
0.340443599334276
 31
0.0
  0
LINE
  5
1B96A
  8
0
  6
CONTINUOUS
 10
39.12223903415696
 20
-0.0000000000000009
 30
0.0
 11
38.60499999996136
 21
0.5172390341955961
 31
0.0
  0
LINE
  5
1B96B
  8
0
  6
CONTINUOUS
 10
39.79575824323715
 20
-0.0000000000000009
 30
0.0
 11
38.60499999996136
 21
1.190758243275783
 31
0.0
  0
LINE
  5
1B96C
  8
0
  6
CONTINUOUS
 10
40.02599999995994
 20
0.443277452357397
 30
0.0
 11
38.60499999996136
 21
1.864277452355969
 31
0.0
  0
LINE
  5
1B96D
  8
0
  6
CONTINUOUS
 10
40.02599999995994
 20
1.116796661437583
 30
0.0
 11
38.60499999996136
 21
2.537796661436155
 31
0.0
  0
LINE
  5
1B96E
  8
0
  6
CONTINUOUS
 10
40.02599999995994
 20
1.79031587051777
 30
0.0
 11
38.60499999996136
 21
3.211315870516341
 31
0.0
  0
LINE
  5
1B96F
  8
0
  6
CONTINUOUS
 10
40.02599999995994
 20
2.463835079597956
 30
0.0
 11
38.60499999996136
 21
3.884835079596527
 31
0.0
  0
LINE
  5
1B970
  8
0
  6
CONTINUOUS
 10
40.02599999995994
 20
3.137354288678143
 30
0.0
 11
38.60499999996136
 21
4.558354288676714
 31
0.0
  0
LINE
  5
1B971
  8
0
  6
CONTINUOUS
 10
40.02599999995994
 20
3.810873497758329
 30
0.0
 11
38.60499999996136
 21
5.2318734977569
 31
0.0
  0
LINE
  5
1B972
  8
0
  6
CONTINUOUS
 10
40.02599999995994
 20
4.484392706838515
 30
0.0
 11
38.60499999996136
 21
5.905392706837086
 31
0.0
  0
LINE
  5
1B973
  8
0
  6
CONTINUOUS
 10
44.99999999995498
 20
0.183911915923658
 30
0.0
 11
41.53858364506288
 21
3.64532827081576
 31
0.0
  0
LINE
  5
1B974
  8
0
  6
CONTINUOUS
 10
40.02599999995994
 20
5.157911915918703
 30
0.0
 11
38.60499999996136
 21
6.578911915917274
 31
0.0
  0
LINE
  5
1B975
  8
0
  6
CONTINUOUS
 10
44.99999999995498
 20
0.8574311250038447
 30
0.0
 11
38.60499999996136
 21
7.25243112499746
 31
0.0
  0
LINE
  5
1B976
  8
0
  6
CONTINUOUS
 10
44.99999999995498
 20
1.530950334084031
 30
0.0
 11
38.60499999996136
 21
7.925950334077647
 31
0.0
  0
LINE
  5
1B977
  8
0
  6
CONTINUOUS
 10
44.99999999995498
 20
2.204469543164218
 30
0.0
 11
43.57899999995641
 21
3.625469543162789
 31
0.0
  0
LINE
  5
1B978
  8
0
  6
CONTINUOUS
 10
41.89876730984767
 20
5.305702233271528
 30
0.0
 11
38.60499999996136
 21
8.599469543157834
 31
0.0
  0
LINE
  5
1B979
  8
0
  6
CONTINUOUS
 10
44.99999999995498
 20
2.877988752244405
 30
0.0
 11
43.57899999995641
 21
4.298988752242975
 31
0.0
  0
LINE
  5
1B97A
  8
0
  6
CONTINUOUS
 10
44.99999999995498
 20
3.551507961324591
 30
0.0
 11
43.57899999995641
 21
4.972507961323163
 31
0.0
  0
LINE
  5
1B97B
  8
0
  6
CONTINUOUS
 10
44.99999999995498
 20
4.225027170404777
 30
0.0
 11
43.57899999995641
 21
5.646027170403348
 31
0.0
  0
LINE
  5
1B97C
  8
0
  6
CONTINUOUS
 10
44.99999999995498
 20
4.898546379484964
 30
0.0
 11
43.57899999995641
 21
6.319546379483535
 31
0.0
  0
LINE
  5
1B97D
  8
0
  6
CONTINUOUS
 10
44.99999999995498
 20
5.572065588565151
 30
0.0
 11
43.57899999995641
 21
6.993065588563722
 31
0.0
  0
LINE
  5
1B97E
  8
0
  6
CONTINUOUS
 10
44.99999999995498
 20
6.245584797645336
 30
0.0
 11
43.57899999995641
 21
7.666584797643908
 31
0.0
  0
LINE
  5
1B97F
  8
0
  6
CONTINUOUS
 10
44.99999999995498
 20
6.919104006725522
 30
0.0
 11
43.57899999995641
 21
8.340104006724093
 31
0.0
  0
LINE
  5
1B980
  8
0
  6
CONTINUOUS
 10
44.99999999995498
 20
7.592623215805709
 30
0.0
 11
43.82952321576943
 21
8.763099999991255
 31
0.0
  0
LINE
  5
1B981
  8
0
  6
CONTINUOUS
 10
44.99999999995498
 20
8.266142424885896
 30
0.0
 11
44.50304242484962
 21
8.763099999991255
 31
0.0
  0
ENDBLK
  5
1B9AB
  8
0
  0
BLOCK
  8
0
  2
*X27
 70
     1
 10
0.0
 20
0.0
 30
0.0
  3
*X27
  1

  0
LINE
  5
1B983
  8
0
  6
CONTINUOUS
 10
0.0
 20
8.548461116714023
 30
0.0
 11
0.2146388832772324
 21
8.763099999991255
 31
0.0
  0
LINE
  5
1B984
  8
0
  6
CONTINUOUS
 10
-0.0000000000000002
 20
7.874941907633837
 30
0.0
 11
0.8881580923574184
 21
8.763099999991255
 31
0.0
  0
LINE
  5
1B985
  8
0
  6
CONTINUOUS
 10
0.0
 20
7.20142269855365
 30
0.0
 11
1.420999999998572
 21
8.622422698552223
 31
0.0
  0
LINE
  5
1B986
  8
0
  6
CONTINUOUS
 10
-0.0000000000000001
 20
6.527903489473465
 30
0.0
 11
1.420999999998571
 21
7.948903489472036
 31
0.0
  0
LINE
  5
1B987
  8
0
  6
CONTINUOUS
 10
-0.0000000000000002
 20
5.854384280393278
 30
0.0
 11
1.420999999998571
 21
7.275384280391849
 31
0.0
  0
LINE
  5
1B988
  8
0
  6
CONTINUOUS
 10
-0.0000000000000002
 20
5.180865071313091
 30
0.0
 11
1.420999999998571
 21
6.601865071311663
 31
0.0
  0
LINE
  5
1B989
  8
0
  6
CONTINUOUS
 10
0.0
 20
4.507345862232905
 30
0.0
 11
1.420999999998571
 21
5.928345862231477
 31
0.0
  0
LINE
  5
1B98A
  8
0
  6
CONTINUOUS
 10
-0.0000000000000003
 20
3.833826653152718
 30
0.0
 11
1.420999999998571
 21
5.25482665315129
 31
0.0
  0
LINE
  5
1B98B
  8
0
  6
CONTINUOUS
 10
-0.0000000000000002
 20
3.160307444072532
 30
0.0
 11
1.420999999998571
 21
4.581307444071103
 31
0.0
  0
LINE
  5
1B98C
  8
0
  6
CONTINUOUS
 10
-0.0000000000000001
 20
2.486788234992345
 30
0.0
 11
1.420999999998571
 21
3.907788234990917
 31
0.0
  0
LINE
  5
1B98D
  8
0
  6
CONTINUOUS
 10
-0.0000000000000006
 20
1.813269025912159
 30
0.0
 11
1.420999999998571
 21
3.234269025910731
 31
0.0
  0
LINE
  5
1B98E
  8
0
  6
CONTINUOUS
 10
0.0
 20
1.139749816831973
 30
0.0
 11
1.420999999998571
 21
2.560749816830544
 31
0.0
  0
LINE
  5
1B98F
  8
0
  6
CONTINUOUS
 10
0.0000000000000002
 20
0.466230607751787
 30
0.0
 11
1.420999999998571
 21
1.887230607750358
 31
0.0
  0
LINE
  5
1B990
  8
0
  6
CONTINUOUS
 10
0.2072886013284003
 20
-0.0000000000000009
 30
0.0
 11
1.420999999998571
 21
1.213711398670171
 31
0.0
  0
LINE
  5
1B991
  8
0
  6
CONTINUOUS
 10
0.8808078104085864
 20
-0.0000000000000009
 30
0.0
 11
1.420999999998571
 21
0.5401921895899839
 31
0.0
  0
LINE
  5
1B992
  8
0
  6
CONTINUOUS
 10
0.0581249075061505
 20
-0.0000000000000009
 30
0.0
 11
-0.0000000000000002
 21
0.0581249075061496
 31
0.0
  0
LINE
  5
1B993
  8
0
  6
CONTINUOUS
 10
0.7316441165863372
 20
-0.0000000000000009
 30
0.0
 11
-0.0000000000000002
 21
0.7316441165863363
 31
0.0
  0
LINE
  5
1B994
  8
0
  6
CONTINUOUS
 10
1.405163325666523
 20
-0.0000000000000009
 30
0.0
 11
-0.0000000000000002
 21
1.405163325666523
 31
0.0
  0
LINE
  5
1B995
  8
0
  6
CONTINUOUS
 10
1.420999999998572
 20
0.6576825347481381
 30
0.0
 11
-0.0000000000000001
 21
2.07868253474671
 31
0.0
  0
LINE
  5
1B996
  8
0
  6
CONTINUOUS
 10
1.420999999998571
 20
1.331201743828324
 30
0.0
 11
-0.0000000000000001
 21
2.752201743826896
 31
0.0
  0
LINE
  5
1B997
  8
0
  6
CONTINUOUS
 10
1.420999999998571
 20
2.004720952908511
 30
0.0
 11
-0.0000000000000002
 21
3.425720952907082
 31
0.0
  0
LINE
  5
1B998
  8
0
  6
CONTINUOUS
 10
1.420999999998571
 20
2.678240161988697
 30
0.0
 11
-0.0000000000000001
 21
4.099240161987269
 31
0.0
  0
LINE
  5
1B999
  8
0
  6
CONTINUOUS
 10
1.420999999998572
 20
3.351759371068884
 30
0.0
 11
0.0
 21
4.772759371067455
 31
0.0
  0
LINE
  5
1B99A
  8
0
  6
CONTINUOUS
 10
1.420999999998571
 20
4.02527858014907
 30
0.0
 11
-0.0000000000000003
 21
5.446278580147642
 31
0.0
  0
LINE
  5
1B99B
  8
0
  6
CONTINUOUS
 10
1.420999999998571
 20
4.698797789229257
 30
0.0
 11
0.0
 21
6.119797789227828
 31
0.0
  0
LINE
  5
1B99C
  8
0
  6
CONTINUOUS
 10
1.420999999998571
 20
5.372316998309444
 30
0.0
 11
-0.0000000000000001
 21
6.793316998308015
 31
0.0
  0
LINE
  5
1B99D
  8
0
  6
CONTINUOUS
 10
1.420999999998572
 20
6.045836207389629
 30
0.0
 11
-0.0000000000000004
 21
7.466836207388202
 31
0.0
  0
LINE
  5
1B99E
  8
0
  6
CONTINUOUS
 10
1.420999999998571
 20
6.719355416469816
 30
0.0
 11
0.0
 21
8.140355416468388
 31
0.0
  0
LINE
  5
1B99F
  8
0
  6
CONTINUOUS
 10
1.420999999998571
 20
7.392874625550003
 30
0.0
 11
0.0507746255573185
 21
8.763099999991255
 31
0.0
  0
LINE
  5
1B9A0
  8
0
  6
CONTINUOUS
 10
1.420999999998571
 20
8.06639383463019
 30
0.0
 11
0.7242938346375052
 21
8.763099999991255
 31
0.0
  0
LINE
  5
1B9A1
  8
0
  6
CONTINUOUS
 10
1.420999999998571
 20
8.739913043710375
 30
0.0
 11
1.397813043717691
 21
8.763099999991255
 31
0.0
  0
ENDBLK
  5
1B9AD
  8
0
  0
ENDSEC
  0
SECTION
  2
ENTITIES
  0
LINE
  5
1ABFB
  8
01
 10
2803.925499442986
 20
-509.7041256933003
 30
0.0000000001127424
 11
2817.925499442986
 21
-509.7041256933003
 31
0.0000000001127424
  0
LINE
  5
1ABFC
  8
01
 10
2808.926383625046
 20
-297.7041256943289
 30
0.0000000001127424
 11
2962.680763780078
 21
-297.7041256943289
 31
0.0000000001127424
  0
LINE
  5
1ABFD
  8
01
  6
BYBLOCK
 10
2808.926383625046
 20
-297.7041256943289
 30
0.0000000001127424
 11
2808.926383625046
 21
-337.7041256943289
 31
0.0000000001127424
  0
LINE
  5
1AC01
  8
01
 10
2859.925499442984
 20
-302.7041256953576
 30
0.0000000001127424
 11
2859.925499442984
 21
-271.7860455061086
 31
0.0000000001127424
  0
LINE
  5
1AC02
  8
01
  6
BYBLOCK
 10
2810.425499442986
 20
-501.8041256933002
 30
0.0000000001127424
 11
2810.425499442986
 21
-631.6041256933001
 31
0.0000000001127424
  0
LINE
  5
1AC03
  8
01
  6
BYBLOCK
 10
2810.425499442986
 20
-630.7041256933003
 30
0.0000000001127424
 11
2812.925499442986
 21
-630.7041256933003
 31
0.0000000001127424
  0
LINE
  5
1AC04
  8
01
  6
BYBLOCK
 10
2812.925499442986
 20
-630.7041256933003
 30
0.0000000001127424
 11
2812.925499442986
 21
-614.2011819681479
 31
0.0000000001127424
  0
LINE
  5
1AC05
  8
01
  6
BYBLOCK
 10
2808.925499442986
 20
-501.8041256933002
 30
0.0000000001127424
 11
2808.925499442986
 21
-631.6041256933001
 31
0.0000000001127424
  0
LINE
  5
1AC06
  8
01
  6
BYBLOCK
 10
2808.925499442986
 20
-631.6041256933001
 30
0.0000000001127424
 11
2810.425499442986
 21
-631.6041256933001
 31
0.0000000001127424
  0
LINE
  5
1AC07
  8
01
  6
BYBLOCK
 10
2810.425499442986
 20
-502.7041256933003
 30
0.0000000001127424
 11
2812.925499442986
 21
-502.7041256933003
 31
0.0000000001127424
  0
LINE
  5
1AC08
  8
01
  6
BYBLOCK
 10
2808.925499442986
 20
-501.8041256933002
 30
0.0000000001127424
 11
2810.425499442986
 21
-501.8041256933002
 31
0.0000000001127424
  0
LINE
  5
1AC09
  8
01
  6
BYBLOCK
 10
2810.425499442986
 20
-526.7041256933003
 30
0.0000000001127424
 11
2811.625499442986
 21
-526.7041256933003
 31
0.0000000001127424
  0
LINE
  5
1AC0A
  8
01
  6
BYBLOCK
 10
2811.625499442986
 20
-521.0041256933
 30
0.0000000001127424
 11
2811.625499442986
 21
-612.4041256933001
 31
0.0000000001127424
  0
LINE
  5
1AC0B
  8
01
  6
BYBLOCK
 10
2811.725499442986
 20
-630.7041256933003
 30
0.0000000001127424
 11
2811.725499442986
 21
-614.1041256933001
 31
0.0000000001127424
  0
LINE
  5
1AC0C
  8
01
  6
BYBLOCK
 10
2811.725499442986
 20
-614.1041256933001
 30
0.0000000001127424
 11
2810.776971305561
 21
-613.1555975558763
 31
0.0000000001127424
  0
LINE
  5
1AC0D
  8
01
  6
BYBLOCK
 10
2812.574027580409
 20
-613.352653830724
 30
0.0000000001127424
 11
2811.625499442986
 21
-612.4041256933001
 31
0.0000000001127424
  0
ARC
  5
1AC0E
  8
01
  6
BYBLOCK
 10
2811.725499442986
 20
-614.2011819681479
 30
0.0000000001127424
 40
1.2
 50
0.0
 51
45.00000000005988
  0
ARC
  5
1AC0F
  8
01
  6
BYBLOCK
 10
2811.625499442986
 20
-612.3070694184523
 30
0.0000000001127424
 40
1.2
 50
180.0
 51
225.0000000000599
  0
LINE
  5
1AC10
  8
01
  6
BYBLOCK
 10
2812.925499442986
 20
-502.7041256933003
 30
0.0000000001127424
 11
2812.925499442986
 21
-519.2070694184524
 31
0.0000000001127424
  0
LINE
  5
1AC11
  8
01
  6
BYBLOCK
 10
2811.725499442986
 20
-502.7041256933003
 30
0.0000000001127424
 11
2811.725499442986
 21
-519.3041256933002
 31
0.0000000001127424
  0
LINE
  5
1AC12
  8
01
  6
BYBLOCK
 10
2811.725499442986
 20
-519.3041256933002
 30
0.0000000001127424
 11
2810.776971305561
 21
-520.2526538307241
 31
0.0000000001127424
  0
LINE
  5
1AC13
  8
01
  6
BYBLOCK
 10
2812.574027580409
 20
-520.0555975558764
 30
0.0000000001127424
 11
2811.625499442986
 21
-521.0041256933002
 31
0.0000000001127424
  0
ARC
  5
1AC14
  8
01
  6
BYBLOCK
 10
2811.725499442986
 20
-519.2070694184524
 30
0.0000000001127424
 40
1.2
 50
314.9999999999401
 51
0.0
  0
ARC
  5
1AC15
  8
01
  6
BYBLOCK
 10
2811.625499442986
 20
-521.101181968148
 30
0.0000000001127424
 40
1.2
 50
134.9999999999401
 51
180.0
  0
CIRCLE
  5
1AC16
  8
01
  6
BYBLOCK
 10
2859.925499442986
 20
-537.7041256933003
 30
0.0000000001127424
 40
4.75
  0
LINE
  5
1AC17
  8
01
  6
BYBLOCK
 10
2811.625499442986
 20
-603.7041256933005
 30
0.0000000001127424
 11
2840.716126730686
 21
-603.7041256933003
 31
0.0000000001127424
  0
ARC
  5
1AC18
  8
01
  6
BYBLOCK
 10
2812.026383625046
 20
-314.142875151329
 30
0.0000000001127424
 40
1.6
 50
115.944479772022
 51
180.0
  0
ARC
  5
1AC19
  8
01
  6
BYBLOCK
 10
2812.026383625046
 20
-321.2653762373288
 30
0.0000000001127424
 40
1.6
 50
180.0
 51
244.055520227978
  0
ARC
  5
1AC1A
  8
01
  6
BYBLOCK
 10
2811.326383625045
 20
-322.5428751513289
 30
0.0000000001127424
 40
1.6
 50
0.0
 51
64.05552022797804
  0
ARC
  5
1AC1B
  8
01
  6
BYBLOCK
 10
2811.326383625045
 20
-312.865376237329
 30
0.0000000001127424
 40
1.6
 50
295.944479772022
 51
0.0
  0
LINE
  5
1AC1C
  8
01
  6
BYBLOCK
 10
2812.926383625046
 20
-312.865376237329
 30
0.0000000001127424
 11
2812.926383625046
 21
-305.5041256943289
 31
0.0000000001127424
  0
LINE
  5
1AC1D
  8
01
  6
BYBLOCK
 10
2812.026383625046
 20
-321.104125694329
 30
0.0000000001127424
 11
2812.026383625046
 21
-314.3041256943288
 31
0.0000000001127424
  0
LINE
  5
1AC1E
  8
01
  6
BYBLOCK
 10
2812.926383625046
 20
-329.7041256943289
 30
0.0000000001127424
 11
2812.926383625046
 21
-322.5428751513289
 31
0.0000000001127424
  0
LINE
  5
1AC1F
  8
01
  6
BYBLOCK
 10
2811.326383625045
 20
-312.7041256943289
 30
0.0000000001127424
 11
2811.326383625046
 21
-305.5041256943289
 31
0.0000000001127424
  0
LINE
  5
1AC20
  8
01
  6
BYBLOCK
 10
2811.326383625045
 20
-322.7041256943289
 30
0.0000000001127424
 11
2811.326383625045
 21
-329.8041256943288
 31
0.0000000001127424
  0
ARC
  5
1AC21
  8
01
  6
BYBLOCK
 10
2876.326383625045
 20
-309.8041256943288
 30
0.0000000001127424
 40
1.6
 50
0.0
 51
90.0
  0
LINE
  5
1AC22
  8
01
  6
BYBLOCK
 10
2810.426383625046
 20
-305.3041256943288
 30
0.0000000001127424
 11
2810.426383625046
 21
-330.1041256943288
 31
0.0000000001127424
  0
LINE
  5
1AC23
  8
01
  6
BYBLOCK
 10
2876.326383625045
 20
-308.2041256943289
 30
0.0000000001127424
 11
2812.926383625046
 21
-308.2041256943289
 31
0.0000000001127424
  0
LINE
  5
1AC24
  8
01
  6
BYBLOCK
 10
2876.326383625045
 20
-325.404125694329
 30
0.0000000001127424
 11
2876.326383625045
 21
-308.2041256943289
 31
0.0000000001127424
  0
LINE
  5
1AC25
  8
01
  6
BYBLOCK
 10
2877.926383625046
 20
-327.0041256943289
 30
0.0000000001127424
 11
2877.926383625046
 21
-309.8041256943288
 31
0.0000000001127424
  0
LINE
  5
1AC26
  8
01
  6
BYBLOCK
 10
2810.426383625046
 20
-305.5041256943289
 30
0.0000000001127424
 11
2812.926383625046
 21
-305.5041256943289
 31
0.0000000001127424
  0
LINE
  5
1AC27
  8
01
  6
BYBLOCK
 10
2812.926383625046
 20
-329.7041256943289
 30
0.0000000001127424
 11
2811.326383625045
 21
-329.7041256943289
 31
0.0000000001127424
  0
LINE
  5
1AC28
  8
01
  6
BYBLOCK
 10
2811.326383625045
 20
-329.8041256943288
 30
0.0000000001127424
 11
2810.426383625046
 21
-329.8041256943288
 31
0.0000000001127424
  0
ARC
  5
1AC29
  8
01
  6
BYBLOCK
 10
2807.626978552445
 20
-323.4041256943283
 30
0.0000000001127424
 40
0.3000000000000051
 50
232.8678058729389
 51
270.0
  0
LINE
  5
1AC2A
  8
01
  6
BYBLOCK
 10
2808.426383625046
 20
-323.7041256943282
 30
0.0000000001127424
 11
2807.626978552445
 21
-323.7041256943282
 31
0.0000000001127424
  0
LINE
  5
1AC2B
  8
01
  6
BYBLOCK
 10
2798.026383625046
 20
-314.0311368281241
 30
0.0000000001127424
 11
2798.026383625046
 21
-314.2017588836732
 31
0.0000000001127424
  0
ARC
  5
1AC2C
  8
01
  6
BYBLOCK
 10
2798.326383625045
 20
-314.2017588836732
 30
0.0000000001127424
 40
0.3
 50
180.0
 51
217.7405295629614
  0
ARC
  5
1AC2D
  8
01
  6
BYBLOCK
 10
2837.62868422433
 20
-283.7810559397324
 30
0.0000000001127424
 40
50.00000000000002
 50
217.7405295629796
 51
232.8678058729936
  0
LINE
  5
1AC2E
  8
01
  6
BYBLOCK
 10
2797.826383625045
 20
-312.9041256943287
 30
0.0000000001127424
 11
2797.826383625045
 21
-312.2041256943289
 31
0.0000000001127424
  0
ARC
  5
1AC2F
  8
01
  6
BYBLOCK
 10
2798.326383625045
 20
-312.2041256943289
 30
0.0000000001127424
 40
0.5000000000000142
 50
90.0
 51
180.0
  0
LINE
  5
1AC30
  8
01
  6
BYBLOCK
 10
2808.426383625046
 20
-311.7041256943289
 30
0.0000000001127424
 11
2798.326383625045
 21
-311.7041256943289
 31
0.0000000001127424
  0
LINE
  5
1AC31
  8
01
  6
BYBLOCK
 10
2797.826383625045
 20
-313.2828053507692
 30
0.0000000001127424
 11
2797.826383625045
 21
-312.9041256943287
 31
0.0000000001127424
  0
POLYLINE
  5
1AC32
  8
01
  6
BYBLOCK
 66
     1
 10
0.0
 20
0.0
 30
0.0000000001127424
  0
VERTEX
  5
1B565
  8
01
  6
BYBLOCK
 10
2797.85211616631
 20
-313.5594557802183
 30
0.0000000001127424
  0
VERTEX
  5
1B566
  8
01
  6
BYBLOCK
 10
2797.849980546146
 20
-313.5478192968879
 30
0.0000000001127424
  0
VERTEX
  5
1B567
  8
01
  6
BYBLOCK
 10
2797.847940385603
 20
-313.5361823066318
 30
0.0000000001127424
  0
VERTEX
  5
1B568
  8
01
  6
BYBLOCK
 10
2797.845995277314
 20
-313.524546175597
 30
0.0000000001127424
  0
VERTEX
  5
1B569
  8
01
  6
BYBLOCK
 10
2797.84414481391
 20
-313.512912269931
 30
0.0000000001127424
  0
VERTEX
  5
1B56A
  8
01
  6
BYBLOCK
 10
2797.842388588022
 20
-313.5012819557808
 30
0.0000000001127424
  0
VERTEX
  5
1B56B
  8
01
  6
BYBLOCK
 10
2797.840726192285
 20
-313.4896565992938
 30
0.0000000001127424
  0
VERTEX
  5
1B56C
  8
01
  6
BYBLOCK
 10
2797.839157219328
 20
-313.4780375666171
 30
0.0000000001127424
  0
VERTEX
  5
1B56D
  8
01
  6
BYBLOCK
 10
2797.837681261785
 20
-313.4664262238981
 30
0.0000000001127424
  0
VERTEX
  5
1B56E
  8
01
  6
BYBLOCK
 10
2797.836297912287
 20
-313.4548239372838
 30
0.0000000001127424
  0
VERTEX
  5
1B56F
  8
01
  6
BYBLOCK
 10
2797.835006763466
 20
-313.4432320729217
 30
0.0000000001127424
  0
VERTEX
  5
1B570
  8
01
  6
BYBLOCK
 10
2797.833807407956
 20
-313.4316519969587
 30
0.0000000001127424
  0
VERTEX
  5
1B571
  8
01
  6
BYBLOCK
 10
2797.832699438386
 20
-313.4200850755424
 30
0.0000000001127424
  0
VERTEX
  5
1B572
  8
01
  6
BYBLOCK
 10
2797.83168244739
 20
-313.4085326748199
 30
0.0000000001127424
  0
VERTEX
  5
1B573
  8
01
  6
BYBLOCK
 10
2797.8307560276
 20
-313.3969961609383
 30
0.0000000001127424
  0
VERTEX
  5
1B574
  8
01
  6
BYBLOCK
 10
2797.829919771646
 20
-313.385476900045
 30
0.0000000001127424
  0
VERTEX
  5
1B575
  8
01
  6
BYBLOCK
 10
2797.829173272163
 20
-313.373976258287
 30
0.0000000001127424
  0
VERTEX
  5
1B576
  8
01
  6
BYBLOCK
 10
2797.828516121782
 20
-313.3624956018119
 30
0.0000000001127424
  0
VERTEX
  5
1B577
  8
01
  6
BYBLOCK
 10
2797.827947913134
 20
-313.3510362967667
 30
0.0000000001127424
  0
VERTEX
  5
1B578
  8
01
  6
BYBLOCK
 10
2797.827468238851
 20
-313.3395997092986
 30
0.0000000001127424
  0
VERTEX
  5
1B579
  8
01
  6
BYBLOCK
 10
2797.827076691567
 20
-313.3281872055549
 30
0.0000000001127424
  0
VERTEX
  5
1B57A
  8
01
  6
BYBLOCK
 10
2797.826772863912
 20
-313.3168001516829
 30
0.0000000001127424
  0
VERTEX
  5
1B57B
  8
01
  6
BYBLOCK
 10
2797.826556348518
 20
-313.3054399138296
 30
0.0000000001127424
  0
VERTEX
  5
1B57C
  8
01
  6
BYBLOCK
 10
2797.826426738019
 20
-313.2941078581425
 30
0.0000000001127424
  0
VERTEX
  5
1B57D
  8
01
  6
BYBLOCK
 10
2797.826383625045
 20
-313.2828053507687
 30
0.0000000001127424
  0
SEQEND
  5
1B9AE
  8
01
  6
BYBLOCK
  0
ARC
  5
1AC33
  8
01
  6
BYBLOCK
 10
2799.326383625045
 20
-313.2828053507692
 30
0.0000000001127424
 40
1.499999999999998
 50
190.628112987605
 51
225.000000000046
  0
LINE
  5
1AC34
  8
01
  6
BYBLOCK
 10
2808.926383625046
 20
-310.8541256943288
 30
0.0000000001127424
 11
2808.426383625046
 21
-310.8541256943288
 31
0.0000000001127424
  0
LINE
  5
1AC35
  8
01
  6
BYBLOCK
 10
2808.426383625046
 20
-324.5541256943288
 30
0.0000000001127424
 11
2808.926383625046
 21
-324.5541256943288
 31
0.0000000001127424
  0
LINE
  5
1AC36
  8
01
  6
BYBLOCK
 10
2808.426383625046
 20
-324.5541256943288
 30
0.0000000001127424
 11
2808.426383625046
 21
-310.8541256943288
 31
0.0000000001127424
  0
LINE
  5
1AC37
  8
01
  6
BYBLOCK
 10
2808.926383625046
 20
-305.3041256943288
 30
0.0000000001127424
 11
2810.426383625046
 21
-305.3041256943288
 31
0.0000000001127424
  0
LINE
  5
1AC38
  8
01
  6
BYBLOCK
 10
2808.926383625046
 20
-330.1041256943288
 30
0.0000000001127424
 11
2810.426383625046
 21
-330.1041256943288
 31
0.0000000001127424
  0
LINE
  5
1AC39
  8
01
  6
BYBLOCK
 10
2808.926383625046
 20
-330.1041256943288
 30
0.0000000001127424
 11
2808.926383625046
 21
-305.3041256943288
 31
0.0000000001127424
  0
LINE
  5
1AC3A
  8
01
  6
BYBLOCK
 10
2877.926383625046
 20
-325.404125694329
 30
0.0000000001127424
 11
2812.926383625046
 21
-325.404125694329
 31
0.0000000001127424
  0
LINE
  5
1AC3B
  8
01
  6
BYBLOCK
 10
2877.926383625046
 20
-327.0041256943289
 30
0.0000000001127424
 11
2827.526383625046
 21
-327.0041256943289
 31
0.0000000001127424
  0
LINE
  5
1AC3C
  8
01
  6
BYBLOCK
 10
2830.363641925249
 20
-327.0041256943289
 30
0.0000000001127424
 11
2812.926383625046
 21
-327.0041256943289
 31
0.0000000001127424
  0
LINE
  5
1AC3D
  8
01
  6
BYBLOCK
 10
2807.479937015639
 20
-323.5576790849223
 30
0.0000000001127424
 11
2798.265723453265
 21
-314.3434655225492
 31
0.0000000001127424
  0
ARC
  5
1AC3E
  8
01
  6
BYBLOCK
 10
2807.833490406232
 20
-323.2041256943289
 30
0.0000000001127424
 40
0.5
 50
224.9999999999908
 51
270.0
  0
LINE
  5
1AC3F
  8
01
  6
BYBLOCK
 10
2808.426383625046
 20
-323.7041256943289
 30
0.0000000001127424
 11
2807.833490406232
 21
-323.7041256943289
 31
0.0000000001127424
  0
LINE
  5
1AC41
  8
01
  6
BYBLOCK
 10
2856.319254858934
 20
-537.7041256933003
 30
0.0000000001127424
 11
2859.925499442986
 21
-534.0978811092489
 31
0.0000000001127424
  0
LINE
  5
1AC42
  8
01
  6
BYBLOCK
 10
2863.531744027037
 20
-537.7041256933003
 30
0.0000000001127424
 11
2859.925499442986
 21
-534.0978811092489
 31
0.0000000001127424
  0
LINE
  5
1AC43
  8
01
  6
BYBLOCK
 10
2856.319254858934
 20
-537.7041256933003
 30
0.0000000001127424
 11
2859.925499442986
 21
-541.3103702773515
 31
0.0000000001127424
  0
LINE
  5
1AC44
  8
01
  6
BYBLOCK
 10
2863.531744027037
 20
-537.7041256933003
 30
0.0000000001127424
 11
2859.925499442986
 21
-541.3103702773515
 31
0.0000000001127424
  0
LINE
  5
1AC45
  8
01
  6
BYBLOCK
 10
2797.925499442986
 20
-556.6724554262842
 30
0.0000000001127424
 11
2797.925499442986
 21
-574.73579596029
 31
0.0000000001127424
  0
LINE
  5
1AC46
  8
01
  6
BYBLOCK
 10
2802.218392661799
 20
-555.7041256932871
 30
0.0000000001127424
 11
2808.925499442986
 21
-555.7041256932871
 31
0.0000000001127424
  0
LINE
  5
1AC47
  8
01
  6
BYBLOCK
 10
2802.218392661799
 20
-575.7041256932871
 30
0.0000000001127424
 11
2808.925499442986
 21
-575.7041256932871
 31
0.0000000001127424
  0
LINE
  5
1AC48
  8
01
  6
BYBLOCK
 10
2807.7183926618
 20
-560.4541256932871
 30
0.0000000001127424
 11
2807.718392661799
 21
-570.9541256932871
 31
0.0000000001127424
  0
ARC
  5
1AC49
  8
01
  6
BYBLOCK
 10
2802.218392661799
 20
-565.7041256932871
 30
0.0000000001127424
 40
10.00000000000009
 50
53.13010235413383
 51
115.4224671781423
  0
ARC
  5
1AC4A
  8
01
  6
BYBLOCK
 10
2802.218392661799
 20
-565.7041256932869
 30
0.0000000001127424
 40
10.00000000000009
 50
244.5775328218577
 51
306.8698976458662
  0
LINE
  5
1AC4B
  8
01
  6
BYBLOCK
 10
2808.2183926618
 20
-557.7041256932871
 30
0.0000000001127424
 11
2808.2183926618
 21
-573.7041256932871
 31
0.0000000001127424
  0
LINE
  5
1AC4C
  8
01
  6
BYBLOCK
 10
2797.925499442986
 20
-560.4541256932871
 30
0.0000000001127424
 11
2807.7183926618
 21
-560.4541256932871
 31
0.0000000001127424
  0
LINE
  5
1AC4D
  8
01
  6
BYBLOCK
 10
2797.925499442986
 20
-570.9541256932871
 30
0.0000000001127424
 11
2807.7183926618
 21
-570.9541256932871
 31
0.0000000001127424
  0
LINE
  5
1AC4E
  8
01
  6
BYBLOCK
 10
2683.525615782731
 20
-501.8041256933009
 30
0.0000000001127424
 11
2696.32561578273
 21
-501.8041256933009
 31
0.0000000001127424
  0
LINE
  5
1AC4F
  8
01
  6
BYBLOCK
 10
2683.525615782731
 20
-631.6041256933008
 30
0.0000000001127424
 11
2696.32561578273
 21
-631.6041256933008
 31
0.0000000001127424
  0
LINE
  5
1AC50
  8
01
  6
BYBLOCK
 10
2677.525615782731
 20
-507.8041256933009
 30
0.0000000001127424
 11
2677.525615782731
 21
-625.6041256933008
 31
0.0000000001127424
  0
LINE
  5
1AC51
  8
01
  6
BYBLOCK
 10
2702.32561578273
 20
-507.8041256933009
 30
0.0000000001127424
 11
2702.32561578273
 21
-625.6041256933008
 31
0.0000000001127424
  0
ARC
  5
1AC52
  8
01
  6
BYBLOCK
 10
2683.525615782731
 20
-625.6041256933008
 30
0.0000000001127424
 40
6.0
 50
180.0
 51
270.0
  0
ARC
  5
1AC53
  8
01
  6
BYBLOCK
 10
2696.32561578273
 20
-625.6041256933008
 30
0.0000000001127424
 40
6.0
 50
270.0
 51
0.0
  0
ARC
  5
1AC54
  8
01
  6
BYBLOCK
 10
2683.525615782731
 20
-507.8041256933009
 30
0.0000000001127424
 40
6.0
 50
90.0
 51
180.0
  0
ARC
  5
1AC55
  8
01
  6
BYBLOCK
 10
2696.32561578273
 20
-507.8041256933009
 30
0.0000000001127424
 40
6.0
 50
0.0
 51
90.0
  0
CIRCLE
  5
1AC56
  8
01
  6
BYBLOCK
 10
2689.92561578273
 20
-623.7041256933007
 30
0.0000000001127424
 40
2.75
  0
CIRCLE
  5
1AC57
  8
01
  6
BYBLOCK
 10
2689.92561578273
 20
-623.7041256933007
 30
0.0000000001127424
 40
4.25
  0
CIRCLE
  5
1AC58
  8
01
  6
BYBLOCK
 10
2689.92561578273
 20
-509.704125693301
 30
0.0000000001127424
 40
2.75
  0
CIRCLE
  5
1AC59
  8
01
  6
BYBLOCK
 10
2689.92561578273
 20
-509.704125693301
 30
0.0000000001127424
 40
4.25
  0
LINE
  5
1AC5A
  8
1CENTER
 10
2695.800641190636
 20
-623.704125693301
 30
0.0000000001127424
 11
2684.050590374824
 21
-623.704125693301
 31
0.0000000001127424
  0
LINE
  5
1AC5B
  8
1CENTER
 10
2689.92561578273
 20
-617.8291002853946
 30
0.0000000001127424
 11
2689.92561578273
 21
-629.5791511012071
 31
0.0000000001127424
  0
LINE
  5
1AC5C
  8
1CENTER
 10
2695.800641190636
 20
-509.704125693301
 30
0.0000000001127424
 11
2684.050590374824
 21
-509.704125693301
 31
0.0000000001127424
  0
LINE
  5
1AC5D
  8
1CENTER
 10
2689.92561578273
 20
-503.8291002853946
 30
0.0000000001127424
 11
2689.92561578273
 21
-515.5791511012071
 31
0.0000000001127424
  0
ARC
  5
1AC5E
  8
01
  6
BYBLOCK
 10
2689.92561578273
 20
-565.7041256933007
 30
0.0000000001127424
 40
10.15
 50
231.9925780701392
 51
308.0074219298607
  0
LINE
  5
1AC5F
  8
01
  6
BYBLOCK
 10
2683.67561578273
 20
-557.7066260840479
 30
0.0000000001127424
 11
2683.67561578273
 21
-573.7016253025536
 31
0.0000000001127424
  0
LINE
  5
1AC60
  8
01
  6
BYBLOCK
 10
2696.17561578273
 20
-557.7066260840479
 30
0.0000000001127424
 11
2696.17561578273
 21
-573.7016253025536
 31
0.0000000001127424
  0
ARC
  5
1AC61
  8
01
  6
BYBLOCK
 10
2689.92561578273
 20
-565.7041256933007
 30
0.0000000001127424
 40
10.15
 50
51.99257807013929
 51
128.0074219298607
  0
LINE
  5
1AC62
  8
01
  6
BYBLOCK
 10
2685.42561578273
 20
-560.4541256933007
 30
0.0000000001127424
 11
2685.42561578273
 21
-570.9541256933007
 31
0.0000000001127424
  0
LINE
  5
1AC63
  8
01
  6
BYBLOCK
 10
2695.42561578273
 20
-560.4541256933007
 30
0.0000000001127424
 11
2695.42561578273
 21
-570.9541256933007
 31
0.0000000001127424
  0
LINE
  5
1AC64
  8
01
  6
BYBLOCK
 10
2685.92561578273
 20
-556.3755405915824
 30
0.0000000001127424
 11
2685.92561578273
 21
-560.454125693301
 31
0.0000000001127424
  0
LINE
  5
1AC65
  8
01
  6
BYBLOCK
 10
2684.42561578273
 20
-560.454125693301
 30
0.0000000001127424
 11
2684.42561578273
 21
-570.9541256933007
 31
0.0000000001127424
  0
LINE
  5
1AC66
  8
01
  6
BYBLOCK
 10
2685.92561578273
 20
-570.9541256933007
 30
0.0000000001127424
 11
2685.92561578273
 21
-575.032710795019
 31
0.0000000001127424
  0
LINE
  5
1AC67
  8
01
  6
BYBLOCK
 10
2684.42561578273
 20
-560.4541256933007
 30
0.0000000001127424
 11
2695.42561578273
 21
-560.4541256933007
 31
0.0000000001127424
  0
LINE
  5
1AC68
  8
01
  6
BYBLOCK
 10
2684.42561578273
 20
-570.9541256933007
 30
0.0000000001127424
 11
2695.42561578273
 21
-570.9541256933007
 31
0.0000000001127424
  0
LINE
  5
1AC6A
  8
01
 10
2669.925732122473
 20
-467.7041256933005
 30
0.0000000001127424
 11
2669.925732122473
 21
-657.7041256933007
 31
0.0000000001127424
  0
LINE
  5
1AC6B
  8
01
 10
2672.054017504905
 20
-587.7041256933007
 30
0.0000000001127424
 11
2649.425732122473
 21
-587.7041256933007
 31
0.0000000001127424
  0
LINE
  5
1AC6C
  8
01
 10
2803.925499443273
 20
-623.7041256930115
 30
0.0000000001127424
 11
2817.925499443273
 21
-623.7041256930115
 31
0.0000000001127424
  0
LINE
  5
1AC6D
  8
01
 10
2871.237387710526
 20
-537.7041256933003
 30
0.0000000001127424
 11
2848.613611175443
 21
-537.7041256933003
 31
0.0000000001127424
  0
LINE
  5
1AC6E
  8
01
 10
2859.925499442986
 20
-526.3922374257586
 30
0.0000000001127424
 11
2859.925499442986
 21
-549.016013960842
 31
0.0000000001127424
  0
LINE
  5
1AC6F
  8
01
  6
BYBLOCK
 10
2581.925732122477
 20
-556.6724554262842
 30
0.0000000001127424
 11
2581.925732122477
 21
-574.73579596029
 31
0.0000000001127424
  0
LINE
  5
1AC70
  8
01
  6
BYBLOCK
 10
2577.632838903663
 20
-555.7041256932871
 30
0.0000000001127424
 11
2570.925732122477
 21
-555.7041256932871
 31
0.0000000001127424
  0
LINE
  5
1AC71
  8
01
  6
BYBLOCK
 10
2577.632838903663
 20
-575.7041256932871
 30
0.0000000001127424
 11
2570.925732122477
 21
-575.7041256932871
 31
0.0000000001127424
  0
ARC
  5
1AC72
  8
01
  6
BYBLOCK
 10
2577.632838903663
 20
-565.7041256932871
 30
0.0000000001127424
 40
10.00000000000009
 50
64.57753282185774
 51
90.0
  0
LINE
  5
1AC73
  8
01
  6
CONTINUOUS
 10
2581.425732122477
 20
-574.0189198861178
 30
0.0000000001127424
 11
2570.925732122477
 21
-574.0189198861178
 31
0.0000000001127424
  0
ARC
  5
1AC74
  8
01
  6
CONTINUOUS
 10
2581.46431236939
 20
-573.5567806553111
 30
0.0000000001127424
 40
0.4637468103423796
 50
265.2279066161988
 51
354.2577450626191
  0
LINE
  5
1AC75
  8
01
  6
CONTINUOUS
 10
2581.925732122477
 20
-558.220810919739
 30
0.0000000001127424
 11
2581.925732122477
 21
-573.1874404668349
 31
0.0000000001127424
  0
ARC
  5
1AC76
  8
01
  6
CONTINUOUS
 10
2581.46431236939
 20
-557.8514707312627
 30
0.0000000001127424
 40
0.4637468103423387
 50
5.742254937380988
 51
94.77209338380122
  0
ARC
  5
1AC77
  8
01
  6
BYBLOCK
 10
2577.632838903663
 20
-565.7041256932869
 30
0.0000000001127424
 40
10.00000000000009
 50
270.0
 51
295.4224671781423
  0
LINE
  5
1AC78
  8
01
  6
CONTINUOUS
 10
2570.925732122477
 20
-557.3893315004559
 30
0.0000000001127424
 11
2581.425732122477
 21
-557.3893315004559
 31
0.0000000001127424
  0
LINE
  5
1AC79
  8
01
 10
2877.925499442986
 20
-570.3547741204031
 30
0.0000000001127424
 11
2877.925499442986
 21
-602.5041256933002
 31
0.0000000001127424
  0
ARC
  5
1AC7A
  8
01
 10
2876.925499442986
 20
-602.7041256933003
 30
0.0000000001127424
 40
1.0
 50
270.0
 51
0.0
  0
LINE
  5
1AC7B
  8
01
 10
2840.716126730687
 20
-603.7041256933003
 30
0.0000000001127424
 11
2876.925499442986
 21
-603.7041256933
 31
0.0000000001127424
  0
LINE
  5
1AC7C
  8
01
 10
2549.925732122477
 20
-587.7041256933003
 30
0.0000000001127424
 11
2489.925732122477
 21
-587.7041256933003
 31
0.0000000001127424
  0
LINE
  5
1AC7D
  8
01
 10
2519.925732122477
 20
-557.7041256933003
 30
0.0000000001127424
 11
2519.925732122477
 21
-617.7041256933003
 31
0.0000000001127424
  0
LINE
  5
1AC7E
  8
01
  6
BYBLOCK
 10
2877.925499442986
 20
-540.922006725722
 30
0.0000000001128561
 11
2877.925499442986
 21
-570.3547741204031
 31
0.0000000001127424
  0
LINE
  5
1AC7F
  8
01
  6
BYBLOCK
 10
2811.625499442986
 20
-529.7041256933003
 30
0.0000000001127424
 11
2840.082396365003
 21
-529.7041256933003
 31
0.0000000001128561
  0
ARC
  5
1AC80
  8
01
  6
BYBLOCK
 10
2876.925499442986
 20
-530.7041256933003
 30
0.0000000001127424
 40
1.0
 50
0.0
 51
90.0
  0
LINE
  5
1AC81
  8
01
  6
BYBLOCK
 10
2840.082396365003
 20
-529.7041256933003
 30
0.0000000001128561
 11
2876.925499442986
 21
-529.7041256933003
 31
0.0000000001127424
  0
LINE
  5
1AC82
  8
01
  6
BYBLOCK
 10
2877.925499442986
 20
-530.7041256933003
 30
0.0000000001127424
 11
2877.925499442986
 21
-540.922006725722
 31
0.0000000001128561
  0
LINE
  5
1AC83
  8
01
 10
2575.925732122477
 20
-509.7041256933003
 30
0.0000000001127424
 11
2561.925732122477
 21
-509.7041256933003
 31
0.0000000001127424
  0
LINE
  5
1AC84
  8
01
  6
BYBLOCK
 10
2569.425732122477
 20
-501.8041256933002
 30
0.0000000001127424
 11
2569.425732122477
 21
-631.6041256933001
 31
0.0000000001127424
  0
LINE
  5
1AC85
  8
01
  6
BYBLOCK
 10
2569.425732122477
 20
-630.7041256933003
 30
0.0000000001127424
 11
2566.925732122477
 21
-630.7041256933003
 31
0.0000000001127424
  0
LINE
  5
1AC86
  8
01
  6
BYBLOCK
 10
2566.925732122477
 20
-630.7041256933003
 30
0.0000000001127424
 11
2566.925732122477
 21
-614.2011819681479
 31
0.0000000001127424
  0
LINE
  5
1AC87
  8
01
  6
BYBLOCK
 10
2570.925732122477
 20
-501.8041256933002
 30
0.0000000001127424
 11
2570.925732122477
 21
-631.6041256933001
 31
0.0000000001127424
  0
LINE
  5
1AC88
  8
01
  6
BYBLOCK
 10
2570.925732122477
 20
-631.6041256933001
 30
0.0000000001127424
 11
2569.425732122477
 21
-631.6041256933001
 31
0.0000000001127424
  0
LINE
  5
1AC89
  8
01
  6
BYBLOCK
 10
2569.425732122477
 20
-502.7041256933003
 30
0.0000000001127424
 11
2566.925732122477
 21
-502.7041256933003
 31
0.0000000001127424
  0
LINE
  5
1AC8A
  8
01
  6
BYBLOCK
 10
2570.925732122477
 20
-501.8041256933002
 30
0.0000000001127424
 11
2569.425732122477
 21
-501.8041256933002
 31
0.0000000001127424
  0
LINE
  5
1AC8B
  8
01
  6
BYBLOCK
 10
2569.425732122477
 20
-526.7041256933003
 30
0.0000000001127424
 11
2568.225732122477
 21
-526.7041256933003
 31
0.0000000001127424
  0
LINE
  5
1AC8C
  8
01
  6
BYBLOCK
 10
2568.225732122477
 20
-521.0041256933
 30
0.0000000001127424
 11
2568.225732122477
 21
-612.4041256933001
 31
0.0000000001127424
  0
LINE
  5
1AC8D
  8
01
  6
BYBLOCK
 10
2568.125732122477
 20
-630.7041256933003
 30
0.0000000001127424
 11
2568.125732122477
 21
-614.1041256933001
 31
0.0000000001127424
  0
LINE
  5
1AC8E
  8
01
  6
BYBLOCK
 10
2568.125732122477
 20
-614.1041256933001
 30
0.0000000001127424
 11
2569.074260259901
 21
-613.1555975558763
 31
0.0000000001127424
  0
LINE
  5
1AC8F
  8
01
  6
BYBLOCK
 10
2567.277203985053
 20
-613.352653830724
 30
0.0000000001127424
 11
2568.225732122477
 21
-612.4041256933001
 31
0.0000000001127424
  0
ARC
  5
1AC90
  8
01
  6
BYBLOCK
 10
2568.125732122477
 20
-614.2011819681479
 30
0.0000000001127424
 40
1.2
 50
134.9999999999401
 51
180.0
  0
ARC
  5
1AC91
  8
01
  6
BYBLOCK
 10
2568.225732122477
 20
-612.3070694184523
 30
0.0000000001127424
 40
1.2
 50
314.9999999999401
 51
0.0
  0
LINE
  5
1AC92
  8
01
  6
BYBLOCK
 10
2566.925732122477
 20
-502.7041256933003
 30
0.0000000001127424
 11
2566.925732122477
 21
-519.2070694184524
 31
0.0000000001127424
  0
LINE
  5
1AC93
  8
01
  6
BYBLOCK
 10
2568.125732122477
 20
-502.7041256933003
 30
0.0000000001127424
 11
2568.125732122477
 21
-519.3041256933002
 31
0.0000000001127424
  0
LINE
  5
1AC94
  8
01
  6
BYBLOCK
 10
2568.125732122477
 20
-519.3041256933002
 30
0.0000000001127424
 11
2569.074260259901
 21
-520.2526538307241
 31
0.0000000001127424
  0
LINE
  5
1AC95
  8
01
  6
BYBLOCK
 10
2567.277203985053
 20
-520.0555975558764
 30
0.0000000001127424
 11
2568.225732122477
 21
-521.0041256933002
 31
0.0000000001127424
  0
ARC
  5
1AC96
  8
01
  6
BYBLOCK
 10
2568.125732122477
 20
-519.2070694184524
 30
0.0000000001127424
 40
1.2
 50
180.0
 51
225.0000000000599
  0
ARC
  5
1AC97
  8
01
  6
BYBLOCK
 10
2568.225732122477
 20
-521.101181968148
 30
0.0000000001127424
 40
1.2
 50
0.0
 51
45.00000000005988
  0
CIRCLE
  5
1AC98
  8
01
  6
BYBLOCK
 10
2519.925732122477
 20
-537.7041256933003
 30
0.0000000001127424
 40
4.749999999999998
  0
LINE
  5
1AC99
  8
01
  6
BYBLOCK
 10
2568.225732122477
 20
-603.7041256933005
 30
0.0000000001127424
 11
2539.135104834776
 21
-603.7041256933003
 31
0.0000000001127424
  0
LINE
  5
1AC9A
  8
01
  6
BYBLOCK
 10
2523.531976706528
 20
-537.7041256933003
 30
0.0000000001127424
 11
2519.925732122477
 21
-534.0978811092489
 31
0.0000000001127424
  0
LINE
  5
1AC9B
  8
01
  6
BYBLOCK
 10
2516.319487538425
 20
-537.7041256933003
 30
0.0000000001127424
 11
2519.925732122477
 21
-534.0978811092489
 31
0.0000000001127424
  0
LINE
  5
1AC9C
  8
01
  6
BYBLOCK
 10
2523.531976706528
 20
-537.7041256933003
 30
0.0000000001127424
 11
2519.925732122477
 21
-541.3103702773515
 31
0.0000000001127424
  0
LINE
  5
1AC9D
  8
01
  6
BYBLOCK
 10
2516.319487538425
 20
-537.7041256933003
 30
0.0000000001127424
 11
2519.925732122477
 21
-541.3103702773515
 31
0.0000000001127424
  0
LINE
  5
1AC9E
  8
01
  6
BYBLOCK
 10
2577.632838903663
 20
-555.7041256932871
 30
0.0000000001127424
 11
2570.925732122477
 21
-555.7041256932871
 31
0.0000000001127424
  0
LINE
  5
1AC9F
  8
01
  6
BYBLOCK
 10
2577.632838903663
 20
-575.7041256932871
 30
0.0000000001127424
 11
2570.925732122477
 21
-575.7041256932871
 31
0.0000000001127424
  0
LINE
  5
1ACA0
  8
01
 10
2575.925732122189
 20
-623.7041256930115
 30
0.0000000001127424
 11
2561.925732122189
 21
-623.7041256930115
 31
0.0000000001127424
  0
LINE
  5
1ACA1
  8
01
  6
BYBLOCK
 10
2501.925732122477
 20
-540.922006725722
 30
0.0000000001128561
 11
2501.925732122477
 21
-570.3547741204031
 31
0.0000000001127424
  0
LINE
  5
1ACA2
  8
01
  6
BYBLOCK
 10
2568.225732122477
 20
-529.7041256933003
 30
0.0000000001127424
 11
2539.76883520046
 21
-529.7041256933003
 31
0.0000000001128561
  0
ARC
  5
1ACA3
  8
01
  6
BYBLOCK
 10
2502.925732122477
 20
-530.7041256933003
 30
0.0000000001127424
 40
0.9999999999999996
 50
90.0
 51
180.0
  0
LINE
  5
1ACA4
  8
01
  6
BYBLOCK
 10
2539.76883520046
 20
-529.7041256933003
 30
0.0000000001128561
 11
2502.925732122477
 21
-529.7041256933003
 31
0.0000000001127424
  0
LINE
  5
1ACA5
  8
01
  6
BYBLOCK
 10
2501.925732122477
 20
-530.7041256933003
 30
0.0000000001127424
 11
2501.925732122477
 21
-540.922006725722
 31
0.0000000001128561
  0
TEXT
  5
1ACA8
  8
1TEXT
 10
2501.92563178273
 20
-306.2041256933003
 30
0.0000000001127424
 40
20.0
  1
1-T1C-※-LJ
  0
LINE
  5
1ACC2
  8
01
  6
BYBLOCK
 10
2808.926383625046
 20
-337.7041256943289
 30
0.0000000001127424
 11
2962.680763780077
 21
-337.7041256943289
 31
0.0000000001127424
  0
LINE
  5
1ACC3
  8
01
 10
2859.925615782729
 20
-332.7041256943289
 30
0.0000000001127424
 11
2859.925615782729
 21
-359.2041256943289
 31
0.0000000001127424
  0
LINE
  5
1ACC4
  8
01
 10
2709.925499442986
 20
-467.7028073801976
 30
0.0000000001127424
 11
2709.925499442986
 21
-657.7028073801976
 31
0.0000000001127424
  0
LINE
  5
1ACC5
  8
1CENTER
 10
2724.425499442986
 20
-612.7027324812934
 30
0.0000000001127424
 11
2724.425499442986
 21
-594.7028073801976
 31
0.0000000001127424
  0
LINE
  5
1ACC6
  8
01
 10
2829.925499442986
 20
-587.7028073801976
 30
0.0000000001127424
 11
2889.925499442986
 21
-587.7028073801976
 31
0.0000000001127424
  0
LINE
  5
1ACC7
  8
01
 10
2859.925499442986
 20
-557.7028073801976
 30
0.0000000001127424
 11
2859.925499442986
 21
-617.7028073801976
 31
0.0000000001127424
  0
LINE
  5
1ACC8
  8
01
 10
2709.925499442986
 20
-562.7028073801976
 30
0.0000000001127424
 11
2709.925499442986
 21
-612.7028073801976
 31
0.0000000001127424
  0
LINE
  5
1ACC9
  8
01
 10
2707.797214060555
 20
-587.7028073801976
 30
0.0000000001127424
 11
2730.425499442986
 21
-587.7028073801976
 31
0.0000000001127424
  0
POLYLINE
  5
1ACCE
  8
01
 66
     1
 10
0.0
 20
0.0
 30
0.0000000001127424
  0
VERTEX
  5
1B57E
  8
01
 10
2730.27700011765
 20
-569.8074067612488
 30
0.0000000001127424
  0
VERTEX
  5
1B57F
  8
01
 10
2730.285612785865
 20
-569.8113664293757
 30
0.0000000001127424
  0
VERTEX
  5
1B580
  8
01
 10
2730.294225849913
 20
-569.8153252372047
 30
0.0000000001127424
  0
VERTEX
  5
1B581
  8
01
 10
2730.302839309667
 20
-569.8192831846765
 30
0.0000000001127424
  0
VERTEX
  5
1B582
  8
01
 10
2730.311453164996
 20
-569.823240271732
 30
0.0000000001127424
  0
VERTEX
  5
1B583
  8
01
 10
2730.320067415772
 20
-569.8271964983115
 30
0.0000000001127424
  0
VERTEX
  5
1B584
  8
01
 10
2730.328682061866
 20
-569.8311518643562
 30
0.0000000001127424
  0
VERTEX
  5
1B585
  8
01
 10
2730.33729710315
 20
-569.8351063698066
 30
0.0000000001127424
  0
VERTEX
  5
1B586
  8
01
 10
2730.345912539494
 20
-569.8390600146035
 30
0.0000000001127424
  0
VERTEX
  5
1B587
  8
01
 10
2730.354528370768
 20
-569.8430127986877
 30
0.0000000001127424
  0
VERTEX
  5
1B588
  8
01
 10
2730.363144596845
 20
-569.8469647219999
 30
0.0000000001127424
  0
VERTEX
  5
1B589
  8
01
 10
2730.371761217595
 20
-569.8509157844812
 30
0.0000000001127424
  0
VERTEX
  5
1B58A
  8
01
 10
2730.380378232889
 20
-569.8548659860724
 30
0.0000000001127424
  0
VERTEX
  5
1B58B
  8
01
 10
2730.388995642598
 20
-569.8588153267143
 30
0.0000000001127424
  0
VERTEX
  5
1B58C
  8
01
 10
2730.397613446593
 20
-569.862763806348
 30
0.0000000001127424
  0
VERTEX
  5
1B58D
  8
01
 10
2730.406231644745
 20
-569.8667114249143
 30
0.0000000001127424
  0
VERTEX
  5
1B58E
  8
01
 10
2730.414850236925
 20
-569.8706581823544
 30
0.0000000001127424
  0
SEQEND
  5
1B9AF
  8
01
  0
POLYLINE
  5
1ACCF
  8
01
 66
     1
 10
0.0
 20
0.0
 30
0.0000000001127424
  0
VERTEX
  5
1B58F
  8
01
 10
2730.440248391083
 20
-569.8865578048208
 30
0.0000000001127424
  0
VERTEX
  5
1B590
  8
01
 10
2730.438788377333
 20
-569.8853836656547
 30
0.0000000001127424
  0
VERTEX
  5
1B591
  8
01
 10
2730.437308832386
 20
-569.8842315941213
 30
0.0000000001127424
  0
VERTEX
  5
1B592
  8
01
 10
2730.43581025854
 20
-569.8831020713203
 30
0.0000000001127424
  0
VERTEX
  5
1B593
  8
01
 10
2730.434293173723
 20
-569.881995563024
 30
0.0000000001127424
  0
VERTEX
  5
1B594
  8
01
 10
2730.432758110913
 20
-569.8809125190495
 30
0.0000000001127424
  0
VERTEX
  5
1B595
  8
01
 10
2730.431205617514
 20
-569.8798533726551
 30
0.0000000001127424
  0
VERTEX
  5
1B596
  8
01
 10
2730.429636254707
 20
-569.8788185399688
 30
0.0000000001127424
  0
VERTEX
  5
1B597
  8
01
 10
2730.428050596782
 20
-569.8778084194447
 30
0.0000000001127424
  0
VERTEX
  5
1B598
  8
01
 10
2730.426449230432
 20
-569.8768233913534
 30
0.0000000001127424
  0
VERTEX
  5
1B599
  8
01
 10
2730.424832754032
 20
-569.8758638173042
 30
0.0000000001127424
  0
VERTEX
  5
1B59A
  8
01
 10
2730.423201776896
 20
-569.8749300398036
 30
0.0000000001127424
  0
VERTEX
  5
1B59B
  8
01
 10
2730.421556918508
 20
-569.8740223818485
 30
0.0000000001127424
  0
VERTEX
  5
1B59C
  8
01
 10
2730.419898807742
 20
-569.8731411465565
 30
0.0000000001127424
  0
VERTEX
  5
1B59D
  8
01
 10
2730.418228082065
 20
-569.8722866168339
 30
0.0000000001127424
  0
VERTEX
  5
1B59E
  8
01
 10
2730.416545386724
 20
-569.8714590550827
 30
0.0000000001127424
  0
VERTEX
  5
1B59F
  8
01
 10
2730.414851373917
 20
-569.8706587029455
 30
0.0000000001127424
  0
SEQEND
  5
1B9B0
  8
01
  0
POLYLINE
  5
1ACD0
  8
01
 66
     1
 10
0.0
 20
0.0
 30
0.0000000001127424
  0
VERTEX
  5
1B5A0
  8
01
 10
2730.407653969264
 20
-569.8676729861254
 30
0.0000000001127424
  0
VERTEX
  5
1B5A1
  8
01
 10
2730.406704803683
 20
-569.8673241397713
 30
0.0000000001127424
  0
VERTEX
  5
1B5A2
  8
01
 10
2730.405751974415
 20
-569.8669844287165
 30
0.0000000001127424
  0
VERTEX
  5
1B5A3
  8
01
 10
2730.40479561351
 20
-569.8666539096872
 30
0.0000000001127424
  0
VERTEX
  5
1B5A4
  8
01
 10
2730.403835854172
 20
-569.8663326368605
 30
0.0000000001127424
  0
VERTEX
  5
1B5A5
  8
01
 10
2730.402872830696
 20
-569.8660206618354
 30
0.0000000001127424
  0
VERTEX
  5
1B5A6
  8
01
 10
2730.401906678409
 20
-569.8657180336053
 30
0.0000000001127424
  0
VERTEX
  5
1B5A7
  8
01
 10
2730.400937533604
 20
-569.8654247985332
 30
0.0000000001127424
  0
VERTEX
  5
1B5A8
  8
01
 10
2730.399965533477
 20
-569.8651410003279
 30
0.0000000001127424
  0
VERTEX
  5
1B5A9
  8
01
 10
2730.398990816062
 20
-569.8648666800217
 30
0.0000000001127424
  0
VERTEX
  5
1B5AA
  8
01
 10
2730.398013520168
 20
-569.864601875952
 30
0.0000000001127424
  0
VERTEX
  5
1B5AB
  8
01
 10
2730.397033785307
 20
-569.8643466237421
 30
0.0000000001127424
  0
VERTEX
  5
1B5AC
  8
01
 10
2730.396051751635
 20
-569.864100956286
 30
0.0000000001127424
  0
VERTEX
  5
1B5AD
  8
01
 10
2730.395067559881
 20
-569.8638649037343
 30
0.0000000001127424
  0
VERTEX
  5
1B5AE
  8
01
 10
2730.394081351279
 20
-569.8636384934821
 30
0.0000000001127424
  0
VERTEX
  5
1B5AF
  8
01
 10
2730.393093267504
 20
-569.8634217501592
 30
0.0000000001127424
  0
VERTEX
  5
1B5B0
  8
01
 10
2730.392103450603
 20
-569.8632146956215
 30
0.0000000001127424
  0
SEQEND
  5
1B9B1
  8
01
  0
POLYLINE
  5
1ACD1
  8
01
 10
0.0
 20
0.0
 30
0.0
 66
     1
 70
     8
  0
VERTEX
  5
1B5B1
  8
01
 10
2731.845984195435
 20
-570.5846062600631
 30
0.0000000001127424
 70
    32
  0
VERTEX
  5
1B5B2
  8
01
 10
2731.846008486469
 20
-570.5843030842002
 30
0.0000000001127424
 70
    32
  0
VERTEX
  5
1B5B3
  8
01
 10
2731.846032777504
 20
-570.5839999083375
 30
0.0000000001127424
 70
    32
  0
VERTEX
  5
1B5B4
  8
01
 10
2731.846057068539
 20
-570.5836967324748
 30
0.0000000001127424
 70
    32
  0
VERTEX
  5
1B5B5
  8
01
 10
2731.846081359574
 20
-570.583393556612
 30
0.0000000001127424
 70
    32
  0
VERTEX
  5
1B5B6
  8
01
 10
2731.846105650609
 20
-570.5830903807491
 30
0.0000000001127424
 70
    32
  0
VERTEX
  5
1B5B7
  8
01
 10
2731.846129941644
 20
-570.5827872048864
 30
0.0000000001127424
 70
    32
  0
VERTEX
  5
1B5B8
  8
01
 10
2731.846154232679
 20
-570.5824840290236
 30
0.0000000001127424
 70
    32
  0
VERTEX
  5
1B5B9
  8
01
 10
2731.846178523714
 20
-570.5821808531607
 30
0.0000000001127424
 70
    32
  0
VERTEX
  5
1B5BA
  8
01
 10
2731.846202814749
 20
-570.5818776772978
 30
0.0000000001127424
 70
    32
  0
VERTEX
  5
1B5BB
  8
01
 10
2731.846227105783
 20
-570.5815745014351
 30
0.0000000001127424
 70
    32
  0
VERTEX
  5
1B5BC
  8
01
 10
2731.846251396818
 20
-570.5812713255722
 30
0.0000000001127424
 70
    32
  0
VERTEX
  5
1B5BD
  8
01
 10
2731.846275687853
 20
-570.5809681497094
 30
0.0000000001127424
 70
    32
  0
VERTEX
  5
1B5BE
  8
01
 10
2731.846299978889
 20
-570.5806649738465
 30
0.0000000001127424
 70
    32
  0
VERTEX
  5
1B5BF
  8
01
 10
2731.846324269924
 20
-570.5803617979836
 30
0.0000000001127424
 70
    32
  0
VERTEX
  5
1B5C0
  8
01
 10
2731.846348560959
 20
-570.5800586221208
 30
0.0000000001127424
 70
    32
  0
VERTEX
  5
1B5C1
  8
01
 10
2731.846372851994
 20
-570.5797554462579
 30
0.0000000001127424
 70
    32
  0
SEQEND
  5
1B9B2
  8
01
  0
LINE
  5
1ACD2
  8
01
 10
2715.625499442985
 20
-562.7027324812925
 30
0.0000000001127424
 11
2715.625499442985
 21
-612.7027324812934
 31
0.0000000001127424
  0
LINE
  5
1ACD3
  8
01
 10
2711.625499442985
 20
-562.7027324812925
 30
0.0000000001127424
 11
2711.625499442985
 21
-612.7027324812934
 31
0.0000000001127424
  0
LINE
  5
1ACD4
  8
01
 10
2715.625499442985
 20
-612.7027324812934
 30
0.0000000001127424
 11
2711.625499442985
 21
-612.7027324812934
 31
0.0000000001127424
  0
LINE
  5
1ACD5
  8
01
 10
2715.625499442985
 20
-562.7027324812925
 30
0.0000000001127424
 11
2711.625499442985
 21
-562.7027324812925
 31
0.0000000001127424
  0
ARC
  5
1ACD6
  8
01
 10
2777.782796817558
 20
-662.8024023349371
 30
0.0000000001127424
 40
74.97979918721913
 50
98.60877270640039
 51
118.0236299168886
  0
ARC
  5
1ACD7
  8
01
 10
2804.530600467063
 20
-719.5286894441042
 30
0.0000000001127424
 40
137.6558010829148
 50
116.7580761817457
 51
125.3351083491045
  0
ARC
  5
1ACD8
  8
01
 10
2694.27679338393
 20
-565.8268489921365
 30
0.0000000001127424
 40
51.50840420052681
 50
294.4859660151389
 51
306.5015976327675
  0
ARC
  5
1ACD9
  8
01
 10
2752.220635192361
 20
-564.5998870359463
 30
0.0000000001127424
 40
10.55957840464655
 50
264.7064877114765
 51
272.347327989484
  0
ARC
  5
1ACDA
  8
01
 10
2757.673830595239
 20
-492.0127799632583
 30
0.0000000001127424
 40
83.34983966754666
 50
257.3874064512713
 51
265.5773302881367
  0
ARC
  5
1ACDB
  8
01
 10
3198.491092376474
 20
404.5898138871571
 30
0.0000000001127424
 40
1081.047914932037
 50
244.0191891617887
 51
244.4944528242154
  0
ARC
  5
1ACDC
  8
01
 10
2748.575992447212
 20
-536.6517477304869
 30
0.0000000001127424
 40
37.81146723568217
 50
245.6625405545528
 51
256.0705420425804
  0
ARC
  5
1ACDD
  8
01
 10
18507.62689836219
 20
31989.9316268443
 30
0.0000000001127424
 40
36180.95233566153
 50
244.1209527919309
 51
244.1373044022354
  0
ARC
  5
1ACDE
  8
01
 10
2737.273507687048
 20
-610.1809736592477
 30
0.0000000001127424
 40
39.4095161311463
 50
41.56206184766717
 51
55.05052839400258
  0
ARC
  5
1ACDF
  8
01
 10
2743.840991673172
 20
-602.5758588863146
 30
0.0000000001127424
 40
29.43162331184761
 50
57.04920384907627
 51
75.17853118939972
  0
ARC
  5
1ACE0
  8
01
 10
2739.350633329494
 20
-609.5761026660393
 30
0.0000000001127424
 40
37.46547413852948
 50
40.14337613942921
 51
42.97748033609862
  0
ARC
  5
1ACE1
  8
01
 10
2752.58747294094
 20
-573.883432542746
 30
0.0000000001127424
 40
1.268871991168467
 50
272.9658518659851
 51
284.1781281936792
  0
ARC
  5
1ACE2
  8
01
 10
2752.835606995736
 20
-574.8732442623359
 30
0.0000000001127424
 40
0.248440728366443
 50
284.6085142048009
 51
306.1786146983602
  0
ARC
  5
1ACE3
  8
01
 10
2752.949849962043
 20
-575.0320447412787
 30
0.0000000001127424
 40
0.052843953261427
 50
307.8333043117128
 51
349.3718737423646
  0
ARC
  5
1ACE4
  8
01
 10
2752.950876935332
 20
-575.035415499643
 30
0.0000000001127424
 40
0.0513080807641571
 50
352.8620740455015
 51
22.24131455633427
  0
LINE
  5
1ACE5
  8
01
 10
2752.986047123984
 20
-575.0040420238993
 30
0.0000000001127424
 11
2751.369836666677
 21
-574.1234961753853
 31
0.0000000001127424
  0
ARC
  5
1ACE6
  8
01
 10
2752.965013888745
 20
-575.0380480896592
 30
0.0000000001127424
 40
0.0399851158945239
 50
33.47227103024409
 51
58.26261966209844
  0
ARC
  5
1ACE7
  8
01
 10
2758.750737412683
 20
-506.8223025313664
 30
0.0000000001127424
 40
67.70471447197825
 50
258.700678769546
 51
263.7414015410403
  0
ARC
  5
1ACE8
  8
01
 10
2741.044157634408
 20
-603.2137794077707
 30
0.0000000001127424
 40
30.32600447172325
 50
81.57942311876897
 51
89.13287487198495
  0
ARC
  5
1ACE9
  8
01
 10
2741.09393483875
 20
-575.7923326435748
 30
0.0000000001127424
 40
2.929796701681882
 50
81.9720382020952
 51
123.5732909411269
  0
ARC
  5
1ACEA
  8
01
 10
2766.428200143449
 20
-586.6144344301374
 30
0.0000000001127424
 40
1.996953838373148
 50
310.0940408071641
 51
354.9307720048449
  0
ARC
  5
1ACEB
  8
01
 10
2766.489591563076
 20
-586.6411395542955
 30
0.0000000001127424
 40
1.933558857340185
 50
355.55828288029
 51
38.74624229264009
  0
ARC
  5
1ACEC
  8
01
 10
2766.433413532298
 20
-586.85804900123
 30
0.0000000001127424
 40
1.813691215017145
 50
273.980537749734
 51
314.9303267466072
  0
LINE
  5
1ACED
  8
01
 10
2709.925499442986
 20
-610.2028073801976
 30
0.0000000001127424
 11
2711.625499442985
 21
-610.2028073801976
 31
0.0000000001127424
  0
LINE
  5
1ACEE
  8
01
 10
2709.925499442986
 20
-565.2028073801976
 30
0.0000000001127424
 11
2711.625499442985
 21
-565.2028073801976
 31
0.0000000001127424
  0
POLYLINE
  5
1ACEF
  8
01
 10
0.0
 20
0.0
 30
0.0
 66
     1
 70
     8
  0
VERTEX
  5
1B5C2
  8
01
 10
2731.845984195435
 20
-570.5846062600631
 30
0.0000000001127424
 70
    32
  0
VERTEX
  5
1B5C3
  8
01
 10
2731.846008486469
 20
-570.5843030842002
 30
0.0000000001127424
 70
    32
  0
VERTEX
  5
1B5C4
  8
01
 10
2731.846032777504
 20
-570.5839999083375
 30
0.0000000001127424
 70
    32
  0
VERTEX
  5
1B5C5
  8
01
 10
2731.846057068539
 20
-570.5836967324748
 30
0.0000000001127424
 70
    32
  0
VERTEX
  5
1B5C6
  8
01
 10
2731.846081359574
 20
-570.583393556612
 30
0.0000000001127424
 70
    32
  0
VERTEX
  5
1B5C7
  8
01
 10
2731.846105650609
 20
-570.5830903807491
 30
0.0000000001127424
 70
    32
  0
VERTEX
  5
1B5C8
  8
01
 10
2731.846129941644
 20
-570.5827872048864
 30
0.0000000001127424
 70
    32
  0
VERTEX
  5
1B5C9
  8
01
 10
2731.846154232679
 20
-570.5824840290236
 30
0.0000000001127424
 70
    32
  0
VERTEX
  5
1B5CA
  8
01
 10
2731.846178523714
 20
-570.5821808531607
 30
0.0000000001127424
 70
    32
  0
VERTEX
  5
1B5CB
  8
01
 10
2731.846202814749
 20
-570.5818776772978
 30
0.0000000001127424
 70
    32
  0
VERTEX
  5
1B5CC
  8
01
 10
2731.846227105783
 20
-570.5815745014351
 30
0.0000000001127424
 70
    32
  0
VERTEX
  5
1B5CD
  8
01
 10
2731.846251396818
 20
-570.5812713255722
 30
0.0000000001127424
 70
    32
  0
VERTEX
  5
1B5CE
  8
01
 10
2731.846275687853
 20
-570.5809681497094
 30
0.0000000001127424
 70
    32
  0
VERTEX
  5
1B5CF
  8
01
 10
2731.846299978889
 20
-570.5806649738465
 30
0.0000000001127424
 70
    32
  0
VERTEX
  5
1B5D0
  8
01
 10
2731.846324269924
 20
-570.5803617979836
 30
0.0000000001127424
 70
    32
  0
VERTEX
  5
1B5D1
  8
01
 10
2731.846348560959
 20
-570.5800586221208
 30
0.0000000001127424
 70
    32
  0
VERTEX
  5
1B5D2
  8
01
 10
2731.846372851994
 20
-570.5797554462579
 30
0.0000000001127424
 70
    32
  0
SEQEND
  5
1B9B3
  8
01
  0
POLYLINE
  5
1ACF0
  8
01
 10
0.0
 20
0.0
 30
0.0
 66
     1
 70
     8
  0
VERTEX
  5
1B5D3
  8
01
 10
2731.845984195435
 20
-570.5846062600631
 30
0.0000000001127424
 70
    32
  0
VERTEX
  5
1B5D4
  8
01
 10
2731.846008486469
 20
-570.5843030842002
 30
0.0000000001127424
 70
    32
  0
VERTEX
  5
1B5D5
  8
01
 10
2731.846032777504
 20
-570.5839999083375
 30
0.0000000001127424
 70
    32
  0
VERTEX
  5
1B5D6
  8
01
 10
2731.846057068539
 20
-570.5836967324748
 30
0.0000000001127424
 70
    32
  0
VERTEX
  5
1B5D7
  8
01
 10
2731.846081359574
 20
-570.583393556612
 30
0.0000000001127424
 70
    32
  0
VERTEX
  5
1B5D8
  8
01
 10
2731.846105650609
 20
-570.5830903807491
 30
0.0000000001127424
 70
    32
  0
VERTEX
  5
1B5D9
  8
01
 10
2731.846129941644
 20
-570.5827872048864
 30
0.0000000001127424
 70
    32
  0
VERTEX
  5
1B5DA
  8
01
 10
2731.846154232679
 20
-570.5824840290236
 30
0.0000000001127424
 70
    32
  0
VERTEX
  5
1B5DB
  8
01
 10
2731.846178523714
 20
-570.5821808531607
 30
0.0000000001127424
 70
    32
  0
VERTEX
  5
1B5DC
  8
01
 10
2731.846202814749
 20
-570.5818776772978
 30
0.0000000001127424
 70
    32
  0
VERTEX
  5
1B5DD
  8
01
 10
2731.846227105783
 20
-570.5815745014351
 30
0.0000000001127424
 70
    32
  0
VERTEX
  5
1B5DE
  8
01
 10
2731.846251396818
 20
-570.5812713255722
 30
0.0000000001127424
 70
    32
  0
VERTEX
  5
1B5DF
  8
01
 10
2731.846275687853
 20
-570.5809681497094
 30
0.0000000001127424
 70
    32
  0
VERTEX
  5
1B5E0
  8
01
 10
2731.846299978889
 20
-570.5806649738465
 30
0.0000000001127424
 70
    32
  0
VERTEX
  5
1B5E1
  8
01
 10
2731.846324269924
 20
-570.5803617979836
 30
0.0000000001127424
 70
    32
  0
VERTEX
  5
1B5E2
  8
01
 10
2731.846348560959
 20
-570.5800586221208
 30
0.0000000001127424
 70
    32
  0
VERTEX
  5
1B5E3
  8
01
 10
2731.846372851994
 20
-570.5797554462579
 30
0.0000000001127424
 70
    32
  0
SEQEND
  5
1B9B4
  8
01
  0
POLYLINE
  5
1ACF1
  8
01
 10
0.0
 20
0.0
 30
0.0
 66
     1
 70
     8
  0
VERTEX
  5
1B5E4
  8
01
 10
2731.845984195435
 20
-570.5846062600631
 30
0.0000000001127424
 70
    32
  0
VERTEX
  5
1B5E5
  8
01
 10
2731.846008486469
 20
-570.5843030842002
 30
0.0000000001127424
 70
    32
  0
VERTEX
  5
1B5E6
  8
01
 10
2731.846032777504
 20
-570.5839999083375
 30
0.0000000001127424
 70
    32
  0
VERTEX
  5
1B5E7
  8
01
 10
2731.846057068539
 20
-570.5836967324748
 30
0.0000000001127424
 70
    32
  0
VERTEX
  5
1B5E8
  8
01
 10
2731.846081359574
 20
-570.583393556612
 30
0.0000000001127424
 70
    32
  0
VERTEX
  5
1B5E9
  8
01
 10
2731.846105650609
 20
-570.5830903807491
 30
0.0000000001127424
 70
    32
  0
VERTEX
  5
1B5EA
  8
01
 10
2731.846129941644
 20
-570.5827872048864
 30
0.0000000001127424
 70
    32
  0
VERTEX
  5
1B5EB
  8
01
 10
2731.846154232679
 20
-570.5824840290236
 30
0.0000000001127424
 70
    32
  0
VERTEX
  5
1B5EC
  8
01
 10
2731.846178523714
 20
-570.5821808531607
 30
0.0000000001127424
 70
    32
  0
VERTEX
  5
1B5ED
  8
01
 10
2731.846202814749
 20
-570.5818776772978
 30
0.0000000001127424
 70
    32
  0
VERTEX
  5
1B5EE
  8
01
 10
2731.846227105783
 20
-570.5815745014351
 30
0.0000000001127424
 70
    32
  0
VERTEX
  5
1B5EF
  8
01
 10
2731.846251396818
 20
-570.5812713255722
 30
0.0000000001127424
 70
    32
  0
VERTEX
  5
1B5F0
  8
01
 10
2731.846275687853
 20
-570.5809681497094
 30
0.0000000001127424
 70
    32
  0
VERTEX
  5
1B5F1
  8
01
 10
2731.846299978889
 20
-570.5806649738465
 30
0.0000000001127424
 70
    32
  0
VERTEX
  5
1B5F2
  8
01
 10
2731.846324269924
 20
-570.5803617979836
 30
0.0000000001127424
 70
    32
  0
VERTEX
  5
1B5F3
  8
01
 10
2731.846348560959
 20
-570.5800586221208
 30
0.0000000001127424
 70
    32
  0
VERTEX
  5
1B5F4
  8
01
 10
2731.846372851994
 20
-570.5797554462579
 30
0.0000000001127424
 70
    32
  0
SEQEND
  5
1B9B5
  8
01
  0
POLYLINE
  5
1ACF2
  8
01
 10
0.0
 20
0.0
 30
0.0
 66
     1
 70
     8
  0
VERTEX
  5
1B5F5
  8
01
 10
2731.845984195435
 20
-570.5846062600631
 30
0.0000000001127424
 70
    32
  0
VERTEX
  5
1B5F6
  8
01
 10
2731.846008486469
 20
-570.5843030842002
 30
0.0000000001127424
 70
    32
  0
VERTEX
  5
1B5F7
  8
01
 10
2731.846032777504
 20
-570.5839999083375
 30
0.0000000001127424
 70
    32
  0
VERTEX
  5
1B5F8
  8
01
 10
2731.846057068539
 20
-570.5836967324748
 30
0.0000000001127424
 70
    32
  0
VERTEX
  5
1B5F9
  8
01
 10
2731.846081359574
 20
-570.583393556612
 30
0.0000000001127424
 70
    32
  0
VERTEX
  5
1B5FA
  8
01
 10
2731.846105650609
 20
-570.5830903807491
 30
0.0000000001127424
 70
    32
  0
VERTEX
  5
1B5FB
  8
01
 10
2731.846129941644
 20
-570.5827872048864
 30
0.0000000001127424
 70
    32
  0
VERTEX
  5
1B5FC
  8
01
 10
2731.846154232679
 20
-570.5824840290236
 30
0.0000000001127424
 70
    32
  0
VERTEX
  5
1B5FD
  8
01
 10
2731.846178523714
 20
-570.5821808531607
 30
0.0000000001127424
 70
    32
  0
VERTEX
  5
1B5FE
  8
01
 10
2731.846202814749
 20
-570.5818776772978
 30
0.0000000001127424
 70
    32
  0
VERTEX
  5
1B5FF
  8
01
 10
2731.846227105783
 20
-570.5815745014351
 30
0.0000000001127424
 70
    32
  0
VERTEX
  5
1B600
  8
01
 10
2731.846251396818
 20
-570.5812713255722
 30
0.0000000001127424
 70
    32
  0
VERTEX
  5
1B601
  8
01
 10
2731.846275687853
 20
-570.5809681497094
 30
0.0000000001127424
 70
    32
  0
VERTEX
  5
1B602
  8
01
 10
2731.846299978889
 20
-570.5806649738465
 30
0.0000000001127424
 70
    32
  0
VERTEX
  5
1B603
  8
01
 10
2731.846324269924
 20
-570.5803617979836
 30
0.0000000001127424
 70
    32
  0
VERTEX
  5
1B604
  8
01
 10
2731.846348560959
 20
-570.5800586221208
 30
0.0000000001127424
 70
    32
  0
VERTEX
  5
1B605
  8
01
 10
2731.846372851994
 20
-570.5797554462579
 30
0.0000000001127424
 70
    32
  0
SEQEND
  5
1B9B6
  8
01
  0
POLYLINE
  5
1ACF3
  8
01
 10
0.0
 20
0.0
 30
0.0
 66
     1
 70
     8
  0
VERTEX
  5
1B606
  8
01
 10
2731.845984195435
 20
-570.5846062600631
 30
0.0000000001127424
 70
    32
  0
VERTEX
  5
1B607
  8
01
 10
2731.846008486469
 20
-570.5843030842002
 30
0.0000000001127424
 70
    32
  0
VERTEX
  5
1B608
  8
01
 10
2731.846032777504
 20
-570.5839999083375
 30
0.0000000001127424
 70
    32
  0
VERTEX
  5
1B609
  8
01
 10
2731.846057068539
 20
-570.5836967324748
 30
0.0000000001127424
 70
    32
  0
VERTEX
  5
1B60A
  8
01
 10
2731.846081359574
 20
-570.583393556612
 30
0.0000000001127424
 70
    32
  0
VERTEX
  5
1B60B
  8
01
 10
2731.846105650609
 20
-570.5830903807491
 30
0.0000000001127424
 70
    32
  0
VERTEX
  5
1B60C
  8
01
 10
2731.846129941644
 20
-570.5827872048864
 30
0.0000000001127424
 70
    32
  0
VERTEX
  5
1B60D
  8
01
 10
2731.846154232679
 20
-570.5824840290236
 30
0.0000000001127424
 70
    32
  0
VERTEX
  5
1B60E
  8
01
 10
2731.846178523714
 20
-570.5821808531607
 30
0.0000000001127424
 70
    32
  0
VERTEX
  5
1B60F
  8
01
 10
2731.846202814749
 20
-570.5818776772978
 30
0.0000000001127424
 70
    32
  0
VERTEX
  5
1B610
  8
01
 10
2731.846227105783
 20
-570.5815745014351
 30
0.0000000001127424
 70
    32
  0
VERTEX
  5
1B611
  8
01
 10
2731.846251396818
 20
-570.5812713255722
 30
0.0000000001127424
 70
    32
  0
VERTEX
  5
1B612
  8
01
 10
2731.846275687853
 20
-570.5809681497094
 30
0.0000000001127424
 70
    32
  0
VERTEX
  5
1B613
  8
01
 10
2731.846299978889
 20
-570.5806649738465
 30
0.0000000001127424
 70
    32
  0
VERTEX
  5
1B614
  8
01
 10
2731.846324269924
 20
-570.5803617979836
 30
0.0000000001127424
 70
    32
  0
VERTEX
  5
1B615
  8
01
 10
2731.846348560959
 20
-570.5800586221208
 30
0.0000000001127424
 70
    32
  0
VERTEX
  5
1B616
  8
01
 10
2731.846372851994
 20
-570.5797554462579
 30
0.0000000001127424
 70
    32
  0
SEQEND
  5
1B9B7
  8
01
  0
POLYLINE
  5
1ACF4
  8
01
 10
0.0
 20
0.0
 30
0.0
 66
     1
 70
     8
  0
VERTEX
  5
1B617
  8
01
 10
2731.845984195435
 20
-570.5846062600631
 30
0.0000000001127424
 70
    32
  0
VERTEX
  5
1B618
  8
01
 10
2731.846008486469
 20
-570.5843030842002
 30
0.0000000001127424
 70
    32
  0
VERTEX
  5
1B619
  8
01
 10
2731.846032777504
 20
-570.5839999083375
 30
0.0000000001127424
 70
    32
  0
VERTEX
  5
1B61A
  8
01
 10
2731.846057068539
 20
-570.5836967324748
 30
0.0000000001127424
 70
    32
  0
VERTEX
  5
1B61B
  8
01
 10
2731.846081359574
 20
-570.583393556612
 30
0.0000000001127424
 70
    32
  0
VERTEX
  5
1B61C
  8
01
 10
2731.846105650609
 20
-570.5830903807491
 30
0.0000000001127424
 70
    32
  0
VERTEX
  5
1B61D
  8
01
 10
2731.846129941644
 20
-570.5827872048864
 30
0.0000000001127424
 70
    32
  0
VERTEX
  5
1B61E
  8
01
 10
2731.846154232679
 20
-570.5824840290236
 30
0.0000000001127424
 70
    32
  0
VERTEX
  5
1B61F
  8
01
 10
2731.846178523714
 20
-570.5821808531607
 30
0.0000000001127424
 70
    32
  0
VERTEX
  5
1B620
  8
01
 10
2731.846202814749
 20
-570.5818776772978
 30
0.0000000001127424
 70
    32
  0
VERTEX
  5
1B621
  8
01
 10
2731.846227105783
 20
-570.5815745014351
 30
0.0000000001127424
 70
    32
  0
VERTEX
  5
1B622
  8
01
 10
2731.846251396818
 20
-570.5812713255722
 30
0.0000000001127424
 70
    32
  0
VERTEX
  5
1B623
  8
01
 10
2731.846275687853
 20
-570.5809681497094
 30
0.0000000001127424
 70
    32
  0
VERTEX
  5
1B624
  8
01
 10
2731.846299978889
 20
-570.5806649738465
 30
0.0000000001127424
 70
    32
  0
VERTEX
  5
1B625
  8
01
 10
2731.846324269924
 20
-570.5803617979836
 30
0.0000000001127424
 70
    32
  0
VERTEX
  5
1B626
  8
01
 10
2731.846348560959
 20
-570.5800586221208
 30
0.0000000001127424
 70
    32
  0
VERTEX
  5
1B627
  8
01
 10
2731.846372851994
 20
-570.5797554462579
 30
0.0000000001127424
 70
    32
  0
SEQEND
  5
1B9B8
  8
01
  0
POLYLINE
  5
1ACF5
  8
01
 10
0.0
 20
0.0
 30
0.0
 66
     1
 70
     8
  0
VERTEX
  5
1B628
  8
01
 10
2731.845984195435
 20
-570.5846062600631
 30
0.0000000001127424
 70
    32
  0
VERTEX
  5
1B629
  8
01
 10
2731.846008486469
 20
-570.5843030842002
 30
0.0000000001127424
 70
    32
  0
VERTEX
  5
1B62A
  8
01
 10
2731.846032777504
 20
-570.5839999083375
 30
0.0000000001127424
 70
    32
  0
VERTEX
  5
1B62B
  8
01
 10
2731.846057068539
 20
-570.5836967324748
 30
0.0000000001127424
 70
    32
  0
VERTEX
  5
1B62C
  8
01
 10
2731.846081359574
 20
-570.583393556612
 30
0.0000000001127424
 70
    32
  0
VERTEX
  5
1B62D
  8
01
 10
2731.846105650609
 20
-570.5830903807491
 30
0.0000000001127424
 70
    32
  0
VERTEX
  5
1B62E
  8
01
 10
2731.846129941644
 20
-570.5827872048864
 30
0.0000000001127424
 70
    32
  0
VERTEX
  5
1B62F
  8
01
 10
2731.846154232679
 20
-570.5824840290236
 30
0.0000000001127424
 70
    32
  0
VERTEX
  5
1B630
  8
01
 10
2731.846178523714
 20
-570.5821808531607
 30
0.0000000001127424
 70
    32
  0
VERTEX
  5
1B631
  8
01
 10
2731.846202814749
 20
-570.5818776772978
 30
0.0000000001127424
 70
    32
  0
VERTEX
  5
1B632
  8
01
 10
2731.846227105783
 20
-570.5815745014351
 30
0.0000000001127424
 70
    32
  0
VERTEX
  5
1B633
  8
01
 10
2731.846251396818
 20
-570.5812713255722
 30
0.0000000001127424
 70
    32
  0
VERTEX
  5
1B634
  8
01
 10
2731.846275687853
 20
-570.5809681497094
 30
0.0000000001127424
 70
    32
  0
VERTEX
  5
1B635
  8
01
 10
2731.846299978889
 20
-570.5806649738465
 30
0.0000000001127424
 70
    32
  0
VERTEX
  5
1B636
  8
01
 10
2731.846324269924
 20
-570.5803617979836
 30
0.0000000001127424
 70
    32
  0
VERTEX
  5
1B637
  8
01
 10
2731.846348560959
 20
-570.5800586221208
 30
0.0000000001127424
 70
    32
  0
VERTEX
  5
1B638
  8
01
 10
2731.846372851994
 20
-570.5797554462579
 30
0.0000000001127424
 70
    32
  0
SEQEND
  5
1B9B9
  8
01
  0
LINE
  5
1ACF6
  8
01
 10
2709.925499442986
 20
-565.2028073801976
 30
0.0000000001127424
 11
2709.925499442986
 21
-610.2028073801976
 31
0.0000000001127424
  0
LINE
  5
1ACF7
  8
01
 10
2834.925615782729
 20
-339.4041256943287
 30
0.0000000001127424
 11
2884.925615782729
 21
-339.4041256943287
 31
0.0000000001127424
  0
LINE
  5
1ACF8
  8
01
 10
2882.425615782727
 20
-337.7041256943289
 30
0.0000000001127424
 11
2882.425615782727
 21
-339.4041256943287
 31
0.0000000001127424
  0
LINE
  5
1ACF9
  8
01
 10
2837.425615782729
 20
-337.7041256943289
 30
0.0000000001127424
 11
2837.425615782729
 21
-339.4041256943287
 31
0.0000000001127424
  0
POLYLINE
  5
1ACFA
  8
01
 66
     1
 10
0.0
 20
0.0
 30
0.0000000001127424
  0
VERTEX
  5
1B639
  8
01
 10
2884.921500301783
 20
-343.4074197067853
 30
0.0000000001127424
  0
VERTEX
  5
1B63A
  8
01
 10
2884.921706499568
 20
-343.4072159412902
 30
0.0000000001127424
  0
VERTEX
  5
1B63B
  8
01
 10
2884.921912616166
 20
-343.4070120934414
 30
0.0000000001127424
  0
VERTEX
  5
1B63C
  8
01
 10
2884.922118651526
 20
-343.4068081632874
 30
0.0000000001127424
  0
VERTEX
  5
1B63D
  8
01
 10
2884.9223246056
 20
-343.4066041508765
 30
0.0000000001127424
  0
VERTEX
  5
1B63E
  8
01
 10
2884.922530478339
 20
-343.4064000562576
 30
0.0000000001127424
  0
VERTEX
  5
1B63F
  8
01
 10
2884.922736269693
 20
-343.4061958794792
 30
0.0000000001127424
  0
VERTEX
  5
1B640
  8
01
 10
2884.922941979612
 20
-343.40599162059
 30
0.0000000001127424
  0
VERTEX
  5
1B641
  8
01
 10
2884.923147608049
 20
-343.4057872796388
 30
0.0000000001127424
  0
VERTEX
  5
1B642
  8
01
 10
2884.923353154952
 20
-343.4055828566742
 30
0.0000000001127424
  0
VERTEX
  5
1B643
  8
01
 10
2884.923558620275
 20
-343.4053783517453
 30
0.0000000001127424
  0
VERTEX
  5
1B644
  8
01
 10
2884.923764003967
 20
-343.4051737649007
 30
0.0000000001127424
  0
VERTEX
  5
1B645
  8
01
 10
2884.92396930598
 20
-343.4049690961893
 30
0.0000000001127424
  0
VERTEX
  5
1B646
  8
01
 10
2884.924174526265
 20
-343.4047643456602
 30
0.0000000001127424
  0
VERTEX
  5
1B647
  8
01
 10
2884.924379664772
 20
-343.4045595133622
 30
0.0000000001127424
  0
VERTEX
  5
1B648
  8
01
 10
2884.924584721453
 20
-343.4043545993443
 30
0.0000000001127424
  0
VERTEX
  5
1B649
  8
01
 10
2884.92478969626
 20
-343.4041496036557
 30
0.0000000001127424
  0
SEQEND
  5
1B9BA
  8
01
  0
POLYLINE
  5
1ACFB
  8
01
 10
0.0
 20
0.0
 30
0.0
 66
     1
 70
     8
  0
VERTEX
  5
1B64A
  8
01
 10
2892.138076593451
 20
-395.9887554970624
 30
0.0000000001127424
 70
    32
  0
VERTEX
  5
1B64B
  8
01
 10
2892.13807659347
 20
-395.9889283264786
 30
0.0000000001127424
 70
    32
  0
VERTEX
  5
1B64C
  8
01
 10
2892.138076593487
 20
-395.9890678623703
 30
0.0000000001127424
 70
    32
  0
VERTEX
  5
1B64D
  8
01
 10
2892.138076593503
 20
-395.9891740851579
 30
0.0000000001127424
 70
    32
  0
VERTEX
  5
1B64E
  8
01
 10
2892.138076593517
 20
-395.9892469752617
 30
0.0000000001127424
 70
    32
  0
VERTEX
  5
1B64F
  8
01
 10
2892.13807659353
 20
-395.9892865131023
 30
0.0000000001127424
 70
    32
  0
VERTEX
  5
1B650
  8
01
 10
2892.138076593541
 20
-395.9892926791001
 30
0.0000000001127424
 70
    32
  0
VERTEX
  5
1B651
  8
01
 10
2892.138076593551
 20
-395.9892654536755
 30
0.0000000001127424
 70
    32
  0
VERTEX
  5
1B652
  8
01
 10
2892.138076593561
 20
-395.9892048172489
 30
0.0000000001127424
 70
    32
  0
VERTEX
  5
1B653
  8
01
 10
2892.138076593569
 20
-395.9891107502407
 30
0.0000000001127424
 70
    32
  0
VERTEX
  5
1B654
  8
01
 10
2892.138076593576
 20
-395.9889832330714
 30
0.0000000001127424
 70
    32
  0
VERTEX
  5
1B655
  8
01
 10
2892.138076593582
 20
-395.9888222461615
 30
0.0000000001127424
 70
    32
  0
VERTEX
  5
1B656
  8
01
 10
2892.138076593588
 20
-395.9886277699312
 30
0.0000000001127424
 70
    32
  0
VERTEX
  5
1B657
  8
01
 10
2892.138076593592
 20
-395.9883997848012
 30
0.0000000001127424
 70
    32
  0
VERTEX
  5
1B658
  8
01
 10
2892.138076593596
 20
-395.9881382711917
 30
0.0000000001127424
 70
    32
  0
VERTEX
  5
1B659
  8
01
 10
2892.138076593599
 20
-395.9878432095232
 30
0.0000000001127424
 70
    32
  0
VERTEX
  5
1B65A
  8
01
 10
2892.138076593601
 20
-395.9875145802163
 30
0.0000000001127424
 70
    32
  0
VERTEX
  5
1B65B
  8
01
 10
2892.138076593604
 20
-395.9871523636912
 30
0.0000000001127424
 70
    32
  0
VERTEX
  5
1B65C
  8
01
 10
2892.138076593605
 20
-395.9867565403685
 30
0.0000000001127424
 70
    32
  0
VERTEX
  5
1B65D
  8
01
 10
2892.138076593606
 20
-395.9863270906685
 30
0.0000000001127424
 70
    32
  0
VERTEX
  5
1B65E
  8
01
 10
2892.138076593606
 20
-395.9858639950117
 30
0.0000000001127424
 70
    32
  0
VERTEX
  5
1B65F
  8
01
 10
2892.138076593607
 20
-395.9853672338185
 30
0.0000000001127424
 70
    32
  0
VERTEX
  5
1B660
  8
01
 10
2892.138076593607
 20
-395.9848367875093
 30
0.0000000001127424
 70
    32
  0
VERTEX
  5
1B661
  8
01
 10
2892.138076593607
 20
-395.9842726365047
 30
0.0000000001127424
 70
    32
  0
VERTEX
  5
1B662
  8
01
 10
2892.138076593607
 20
-395.9836747612248
 30
0.0000000001127424
 70
    32
  0
SEQEND
  5
1B9BB
  8
01
  0
POLYLINE
  5
1ACFC
  8
01
 10
0.0
 20
0.0
 30
0.0
 66
     1
 70
     8
  0
VERTEX
  5
1B663
  8
01
 10
2848.753789950294
 20
-373.5636722485719
 30
0.0000000001127424
 70
    32
  0
VERTEX
  5
1B664
  8
01
 10
2848.75322563843
 20
-373.5637601598294
 30
0.0000000001127424
 70
    32
  0
VERTEX
  5
1B665
  8
01
 10
2848.752661326566
 20
-373.5638480710868
 30
0.0000000001127424
 70
    32
  0
VERTEX
  5
1B666
  8
01
 10
2848.752097014702
 20
-373.5639359823442
 30
0.0000000001127424
 70
    32
  0
VERTEX
  5
1B667
  8
01
 10
2848.751532702838
 20
-373.5640238936015
 30
0.0000000001127424
 70
    32
  0
VERTEX
  5
1B668
  8
01
 10
2848.750968390973
 20
-373.5641118048589
 30
0.0000000001127424
 70
    32
  0
VERTEX
  5
1B669
  8
01
 10
2848.750404079109
 20
-373.5641997161163
 30
0.0000000001127424
 70
    32
  0
VERTEX
  5
1B66A
  8
01
 10
2848.749839767245
 20
-373.5642876273736
 30
0.0000000001127424
 70
    32
  0
VERTEX
  5
1B66B
  8
01
 10
2848.749275455381
 20
-373.5643755386309
 30
0.0000000001127424
 70
    32
  0
VERTEX
  5
1B66C
  8
01
 10
2848.748711143517
 20
-373.5644634498882
 30
0.0000000001127424
 70
    32
  0
VERTEX
  5
1B66D
  8
01
 10
2848.748146831652
 20
-373.5645513611455
 30
0.0000000001127424
 70
    32
  0
VERTEX
  5
1B66E
  8
01
 10
2848.747582519788
 20
-373.5646392724028
 30
0.0000000001127424
 70
    32
  0
VERTEX
  5
1B66F
  8
01
 10
2848.747018207924
 20
-373.56472718366
 30
0.0000000001127424
 70
    32
  0
VERTEX
  5
1B670
  8
01
 10
2848.746453896059
 20
-373.5648150949173
 30
0.0000000001127424
 70
    32
  0
VERTEX
  5
1B671
  8
01
 10
2848.745889584196
 20
-373.5649030061745
 30
0.0000000001127424
 70
    32
  0
VERTEX
  5
1B672
  8
01
 10
2848.745325272331
 20
-373.5649909174317
 30
0.0000000001127424
 70
    32
  0
VERTEX
  5
1B673
  8
01
 10
2848.744760960467
 20
-373.5650788286889
 30
0.0000000001127424
 70
    32
  0
SEQEND
  5
1B9BC
  8
01
  0
POLYLINE
  5
1ACFD
  8
01
 10
0.0
 20
0.0
 30
0.0
 66
     1
 70
     8
  0
VERTEX
  5
1B674
  8
01
 10
2884.92476577007
 20
-343.4041256971973
 30
0.0000000001127424
 70
    32
  0
VERTEX
  5
1B675
  8
01
 10
2884.924657089251
 20
-343.4041256970171
 30
0.0000000001127424
 70
    32
  0
VERTEX
  5
1B676
  8
01
 10
2884.924548408431
 20
-343.4041256968369
 30
0.0000000001127424
 70
    32
  0
VERTEX
  5
1B677
  8
01
 10
2884.924439727612
 20
-343.4041256966567
 30
0.0000000001127424
 70
    32
  0
VERTEX
  5
1B678
  8
01
 10
2884.924331046793
 20
-343.4041256964765
 30
0.0000000001127424
 70
    32
  0
VERTEX
  5
1B679
  8
01
 10
2884.924222365974
 20
-343.4041256962963
 30
0.0000000001127424
 70
    32
  0
VERTEX
  5
1B67A
  8
01
 10
2884.924113685154
 20
-343.4041256961161
 30
0.0000000001127424
 70
    32
  0
VERTEX
  5
1B67B
  8
01
 10
2884.924005004335
 20
-343.4041256959359
 30
0.0000000001127424
 70
    32
  0
VERTEX
  5
1B67C
  8
01
 10
2884.923896323516
 20
-343.4041256957557
 30
0.0000000001127424
 70
    32
  0
VERTEX
  5
1B67D
  8
01
 10
2884.923787642697
 20
-343.4041256955755
 30
0.0000000001127424
 70
    32
  0
VERTEX
  5
1B67E
  8
01
 10
2884.923678961877
 20
-343.4041256953954
 30
0.0000000001127424
 70
    32
  0
VERTEX
  5
1B67F
  8
01
 10
2884.923570281058
 20
-343.4041256952152
 30
0.0000000001127424
 70
    32
  0
VERTEX
  5
1B680
  8
01
 10
2884.923461600239
 20
-343.404125695035
 30
0.0000000001127424
 70
    32
  0
VERTEX
  5
1B681
  8
01
 10
2884.92335291942
 20
-343.4041256948548
 30
0.0000000001127424
 70
    32
  0
VERTEX
  5
1B682
  8
01
 10
2884.9232442386
 20
-343.4041256946746
 30
0.0000000001127424
 70
    32
  0
VERTEX
  5
1B683
  8
01
 10
2884.923135557781
 20
-343.4041256944944
 30
0.0000000001127424
 70
    32
  0
VERTEX
  5
1B684
  8
01
 10
2884.923026876962
 20
-343.4041256943142
 30
0.0000000001127424
 70
    32
  0
SEQEND
  5
1B9BD
  8
01
  0
POLYLINE
  5
1ACFE
  8
01
 10
0.0
 20
0.0
 30
0.0
 66
     1
 70
     8
  0
VERTEX
  5
1B685
  8
01
 10
2834.925615782729
 20
-339.4041256943287
 30
0.0000000001127424
 70
    32
  0
VERTEX
  5
1B686
  8
01
 10
2834.925615782729
 20
-339.6541256943287
 30
0.0000000001127424
 70
    32
  0
VERTEX
  5
1B687
  8
01
 10
2834.925615782729
 20
-339.9041256943287
 30
0.0000000001127424
 70
    32
  0
VERTEX
  5
1B688
  8
01
 10
2834.925615782729
 20
-340.1541256943287
 30
0.0000000001127424
 70
    32
  0
VERTEX
  5
1B689
  8
01
 10
2834.925615782729
 20
-340.4041256943287
 30
0.0000000001127424
 70
    32
  0
VERTEX
  5
1B68A
  8
01
 10
2834.925615782729
 20
-340.6541256943287
 30
0.0000000001127424
 70
    32
  0
VERTEX
  5
1B68B
  8
01
 10
2834.925615782729
 20
-340.9041256943287
 30
0.0000000001127424
 70
    32
  0
VERTEX
  5
1B68C
  8
01
 10
2834.925615782729
 20
-341.1541256943287
 30
0.0000000001127424
 70
    32
  0
VERTEX
  5
1B68D
  8
01
 10
2834.925615782729
 20
-341.4041256943287
 30
0.0000000001127424
 70
    32
  0
VERTEX
  5
1B68E
  8
01
 10
2834.925615782729
 20
-341.6541256943287
 30
0.0000000001127424
 70
    32
  0
VERTEX
  5
1B68F
  8
01
 10
2834.925615782729
 20
-341.9041256943287
 30
0.0000000001127424
 70
    32
  0
VERTEX
  5
1B690
  8
01
 10
2834.925615782729
 20
-342.1541256943287
 30
0.0000000001127424
 70
    32
  0
VERTEX
  5
1B691
  8
01
 10
2834.925615782729
 20
-342.4041256943287
 30
0.0000000001127424
 70
    32
  0
VERTEX
  5
1B692
  8
01
 10
2834.925615782729
 20
-342.6541256943287
 30
0.0000000001127424
 70
    32
  0
VERTEX
  5
1B693
  8
01
 10
2834.925615782729
 20
-342.9041256943287
 30
0.0000000001127424
 70
    32
  0
VERTEX
  5
1B694
  8
01
 10
2834.925615782729
 20
-343.1541256943287
 30
0.0000000001127424
 70
    32
  0
VERTEX
  5
1B695
  8
01
 10
2834.925615782729
 20
-343.4041256943287
 30
0.0000000001127424
 70
    32
  0
SEQEND
  5
1B9BE
  8
01
  0
POLYLINE
  5
1ACFF
  8
01
 66
     1
 10
0.0
 20
0.0
 30
0.0000000001127424
  0
VERTEX
  5
1B696
  8
01
 10
2884.923026876962
 20
-343.4041256943142
 30
0.0000000001127424
  0
VERTEX
  5
1B697
  8
01
 10
2884.91531614275
 20
-343.4118374402829
 30
0.0000000001127424
  0
VERTEX
  5
1B698
  8
01
 10
2884.907607374743
 20
-343.4195511552105
 30
0.0000000001127424
  0
VERTEX
  5
1B699
  8
01
 10
2884.899900573695
 20
-343.4272668383451
 30
0.0000000001127424
  0
VERTEX
  5
1B69A
  8
01
 10
2884.89219574036
 20
-343.4349844889342
 30
0.0000000001127424
  0
VERTEX
  5
1B69B
  8
01
 10
2884.884492875491
 20
-343.4427041062249
 30
0.0000000001127424
  0
VERTEX
  5
1B69C
  8
01
 10
2884.87679197984
 20
-343.450425689464
 30
0.0000000001127424
  0
VERTEX
  5
1B69D
  8
01
 10
2884.869093054161
 20
-343.458149237898
 30
0.0000000001127424
  0
VERTEX
  5
1B69E
  8
01
 10
2884.861396099206
 20
-343.4658747507728
 30
0.0000000001127424
  0
VERTEX
  5
1B69F
  8
01
 10
2884.853701115725
 20
-343.4736022273341
 30
0.0000000001127424
  0
VERTEX
  5
1B6A0
  8
01
 10
2884.846008104472
 20
-343.4813316668273
 30
0.0000000001127424
  0
VERTEX
  5
1B6A1
  8
01
 10
2884.838317066195
 20
-343.489063068497
 30
0.0000000001127424
  0
VERTEX
  5
1B6A2
  8
01
 10
2884.830628001648
 20
-343.4967964315878
 30
0.0000000001127424
  0
VERTEX
  5
1B6A3
  8
01
 10
2884.822940911579
 20
-343.5045317553438
 30
0.0000000001127424
  0
VERTEX
  5
1B6A4
  8
01
 10
2884.815255796739
 20
-343.5122690390087
 30
0.0000000001127424
  0
VERTEX
  5
1B6A5
  8
01
 10
2884.807572657875
 20
-343.520008281826
 30
0.0000000001127424
  0
VERTEX
  5
1B6A6
  8
01
 10
2884.79989149574
 20
-343.5277494830384
 30
0.0000000001127424
  0
SEQEND
  5
1B9BF
  8
01
  0
POLYLINE
  5
1AD00
  8
01
 10
0.0
 20
0.0
 30
0.0
 66
     1
 70
     8
  0
VERTEX
  5
1B6A7
  8
01
 10
2859.925406748694
 20
-343.4041256943215
 30
0.0000000001127424
 70
    32
  0
VERTEX
  5
1B6A8
  8
01
 10
2858.362919813321
 20
-343.4041256943219
 30
0.0000000001127424
 70
    32
  0
VERTEX
  5
1B6A9
  8
01
 10
2856.800432877948
 20
-343.4041256943224
 30
0.0000000001127424
 70
    32
  0
VERTEX
  5
1B6AA
  8
01
 10
2855.237945942575
 20
-343.4041256943228
 30
0.0000000001127424
 70
    32
  0
VERTEX
  5
1B6AB
  8
01
 10
2853.675459007202
 20
-343.4041256943233
 30
0.0000000001127424
 70
    32
  0
VERTEX
  5
1B6AC
  8
01
 10
2852.11297207183
 20
-343.4041256943237
 30
0.0000000001127424
 70
    32
  0
VERTEX
  5
1B6AD
  8
01
 10
2850.550485136457
 20
-343.4041256943242
 30
0.0000000001127424
 70
    32
  0
VERTEX
  5
1B6AE
  8
01
 10
2848.987998201083
 20
-343.4041256943246
 30
0.0000000001127424
 70
    32
  0
VERTEX
  5
1B6AF
  8
01
 10
2847.425511265711
 20
-343.4041256943251
 30
0.0000000001127424
 70
    32
  0
VERTEX
  5
1B6B0
  8
01
 10
2845.863024330339
 20
-343.4041256943256
 30
0.0000000001127424
 70
    32
  0
VERTEX
  5
1B6B1
  8
01
 10
2844.300537394965
 20
-343.404125694326
 30
0.0000000001127424
 70
    32
  0
VERTEX
  5
1B6B2
  8
01
 10
2842.738050459592
 20
-343.4041256943265
 30
0.0000000001127424
 70
    32
  0
VERTEX
  5
1B6B3
  8
01
 10
2841.17556352422
 20
-343.4041256943269
 30
0.0000000001127424
 70
    32
  0
VERTEX
  5
1B6B4
  8
01
 10
2839.613076588847
 20
-343.4041256943274
 30
0.0000000001127424
 70
    32
  0
VERTEX
  5
1B6B5
  8
01
 10
2838.050589653474
 20
-343.4041256943278
 30
0.0000000001127424
 70
    32
  0
VERTEX
  5
1B6B6
  8
01
 10
2836.488102718101
 20
-343.4041256943283
 30
0.0000000001127424
 70
    32
  0
VERTEX
  5
1B6B7
  8
01
 10
2834.925615782729
 20
-343.4041256943287
 30
0.0000000001127424
 70
    32
  0
SEQEND
  5
1B9C0
  8
01
  0
POLYLINE
  5
1AD01
  8
01
 10
0.0
 20
0.0
 30
0.0
 66
     1
 70
     8
  0
VERTEX
  5
1B6B8
  8
01
 10
2859.925406748694
 20
-343.4041256943215
 30
0.0000000001127424
 70
    32
  0
VERTEX
  5
1B6B9
  8
01
 10
2860.609076022192
 20
-343.4041256943212
 30
0.0000000001127424
 70
    32
  0
VERTEX
  5
1B6BA
  8
01
 10
2861.292745295691
 20
-343.404125694321
 30
0.0000000001127424
 70
    32
  0
VERTEX
  5
1B6BB
  8
01
 10
2861.976414569189
 20
-343.4041256943208
 30
0.0000000001127424
 70
    32
  0
VERTEX
  5
1B6BC
  8
01
 10
2862.660083842688
 20
-343.4041256943206
 30
0.0000000001127424
 70
    32
  0
VERTEX
  5
1B6BD
  8
01
 10
2863.343753116186
 20
-343.4041256943203
 30
0.0000000001127424
 70
    32
  0
VERTEX
  5
1B6BE
  8
01
 10
2864.027422389684
 20
-343.4041256943201
 30
0.0000000001127424
 70
    32
  0
VERTEX
  5
1B6BF
  8
01
 10
2864.711091663183
 20
-343.4041256943199
 30
0.0000000001127424
 70
    32
  0
VERTEX
  5
1B6C0
  8
01
 10
2865.394760936681
 20
-343.4041256943196
 30
0.0000000001127424
 70
    32
  0
VERTEX
  5
1B6C1
  8
01
 10
2866.078430210179
 20
-343.4041256943194
 30
0.0000000001127424
 70
    32
  0
VERTEX
  5
1B6C2
  8
01
 10
2866.762099483678
 20
-343.4041256943192
 30
0.0000000001127424
 70
    32
  0
VERTEX
  5
1B6C3
  8
01
 10
2867.445768757176
 20
-343.404125694319
 30
0.0000000001127424
 70
    32
  0
VERTEX
  5
1B6C4
  8
01
 10
2868.129438030674
 20
-343.4041256943187
 30
0.0000000001127424
 70
    32
  0
VERTEX
  5
1B6C5
  8
01
 10
2868.813107304172
 20
-343.4041256943185
 30
0.0000000001127424
 70
    32
  0
VERTEX
  5
1B6C6
  8
01
 10
2869.496776577671
 20
-343.4041256943183
 30
0.0000000001127424
 70
    32
  0
VERTEX
  5
1B6C7
  8
01
 10
2870.180445851169
 20
-343.4041256943181
 30
0.0000000001127424
 70
    32
  0
VERTEX
  5
1B6C8
  8
01
 10
2870.864115124667
 20
-343.4041256943178
 30
0.0000000001127424
 70
    32
  0
SEQEND
  5
1B9C1
  8
01
  0
LINE
  5
1AD02
  8
01
 10
2880.461564781593
 20
-348.3980527521048
 30
0.0000000001127424
 11
2881.111511406701
 21
-347.6130592360892
 31
0.0000000001127424
  0
ARC
  5
1AD03
  8
01
 10
2933.957935349064
 20
2675.398288810402
 30
0.0000000001127424
 40
3071.565345893962
 50
268.9696292704473
 51
270.4096535453596
  0
LINE
  5
1AD04
  8
01
 10
2884.925615782729
 20
-339.4041256943287
 30
0.0000000001127424
 11
2834.925615782729
 21
-339.4041256943287
 31
0.0000000001127424
  0
LINE
  5
1AD05
  8
01
 10
2884.921500301797
 20
-343.4074197067853
 30
0.0000000001127424
 11
2834.925615782729
 21
-343.4074197067853
 31
0.0000000001127424
  0
LINE
  5
1AD06
  8
01
 10
2834.925615782729
 20
-339.4041256943287
 30
0.0000000001127424
 11
2834.925615782729
 21
-343.4074197067853
 31
0.0000000001127424
  0
LINE
  5
1AD07
  8
01
 10
2884.925615782729
 20
-339.4041256943287
 30
0.0000000001127424
 11
2884.923026876962
 21
-343.4041256943142
 31
0.0000000001127424
  0
ARC
  5
1AD08
  8
01
 10
2877.045143045588
 20
-360.0571380982951
 30
0.0000000001127424
 40
16.71502533770776
 50
95.06646797814071
 51
138.2753432356648
  0
ARC
  5
1AD09
  8
01
 10
2879.660974000951
 20
-362.3186494303641
 30
0.0000000001127424
 40
20.17257792134071
 50
138.4261263608686
 51
165.9891017290348
  0
ARC
  5
1AD0A
  8
01
 10
2881.489166126684
 20
-361.9459267499819
 30
0.0000000001127424
 40
21.87093441027351
 50
168.0964917737715
 51
195.3253673514455
  0
ARC
  5
1AD0B
  8
01
 10
2878.612045084533
 20
-362.2711224703539
 30
0.0000000001127424
 40
19.01542280120887
 50
196.6717279956922
 51
230.5466442848187
  0
ARC
  5
1AD0C
  8
01
 10
2876.06758813961
 20
-366.7020438915838
 30
0.0000000001127424
 40
14.00312600677861
 50
227.0627321641538
 51
267.9595921316337
  0
ARC
  5
1AD0D
  8
01
 10
2876.97021235145
 20
-367.1224626035068
 30
0.0000000001127424
 40
13.64595833581675
 50
264.1063604859633
 51
279.5884251916192
  0
ARC
  5
1AD0E
  8
01
 10
2847.802670595792
 20
-45.83221612082207
 30
0.0000000001127424
 40
336.2188308590173
 50
275.3656905796435
 51
280.8930531848424
  0
LINE
  5
1AD0F
  8
01
 10
2911.340089556424
 20
-375.9929324636746
 30
0.0000000001127424
 11
2932.043950971175
 21
-372.5378066147446
 31
0.0000000001127424
  0
ARC
  5
1AD10
  8
01
 10
3005.395016922593
 20
-716.3036054085874
 30
0.0000000001127424
 40
351.5043432115423
 50
98.32194336654706
 51
102.0448646861141
  0
ARC
  5
1AD11
  8
01
 10
2958.35158766627
 20
-422.6148121267865
 30
0.0000000001127424
 40
56.09378904943307
 50
78.93762853334144
 51
102.7813012028312
  0
ARC
  5
1AD12
  8
01
 10
2953.974800235698
 20
-328.7546357331562
 30
0.0000000001127424
 40
67.36197079016037
 50
271.6537595670242
 51
282.9884559605963
  0
ARC
  5
1AD13
  8
01
 10
2962.617491212431
 20
-396.787276216844
 30
0.0000000001127424
 40
29.93750703625965
 50
50.49794173542288
 51
77.46555839706305
  0
ARC
  5
1AD14
  8
01
 10
2962.687221624204
 20
-367.177586216178
 30
0.0000000001127424
 40
27.96428169569596
 50
283.2880516717933
 51
312.7263447939862
  0
ARC
  5
1AD15
  8
01
 10
2975.358302456719
 20
-381.3581066623497
 30
0.0000000001127424
 40
9.927840661044746
 50
26.98740582447972
 51
50.59169898531243
  0
ARC
  5
1AD16
  8
01
 10
2976.234880796775
 20
-380.3174749717705
 30
0.0000000001127424
 40
8.690630349575482
 50
359.0904431678201
 51
23.49416543943164
  0
ARC
  5
1AD17
  8
01
 10
2976.709422663757
 20
-380.8980585323293
 30
0.0000000001127424
 40
8.226909301699713
 50
336.2463090649919
 51
3.084141051271812
  0
ARC
  5
1AD18
  8
01
 10
2973.739330791765
 20
-379.1964694247595
 30
0.0000000001127424
 40
11.63640436824534
 50
312.9029788137788
 51
334.4681727061663
  0
ARC
  5
1AD19
  8
01
 10
2806.607533100973
 20
159.4648719829943
 30
0.0000000001127424
 40
543.8816576443234
 50
277.5553038976967
 51
281.1365681483641
  0
ARC
  5
1AD1A
  8
01
 10
2760.915808132158
 20
547.7833515335919
 30
0.0000000001127424
 40
934.2005681967211
 50
279.285775720485
 51
281.423434160186
  0
ARC
  5
1AD1B
  8
01
 10
2877.841617315159
 20
-374.5513305497857
 30
0.0000000001127424
 40
5.15116025745746
 50
253.5052345056729
 51
273.0843856353649
  0
ARC
  5
1AD1C
  8
01
 10
2936.122402539419
 20
-393.6343446513015
 30
0.0000000001127424
 40
71.72482809106272
 50
135.54744277879
 51
145.9122599963881
  0
ARC
  5
1AD1D
  8
01
 10
2936.333769580578
 20
-395.156201053212
 30
0.0000000001127424
 40
72.76178146589776
 50
145.0130349996349
 51
155.0485502375248
  0
ARC
  5
1AD1E
  8
01
 10
2883.444279530474
 20
-370.37491467053
 30
0.0000000001127424
 40
14.35557004281338
 50
155.6747818016501
 51
181.9442963321754
  0
ARC
  5
1AD1F
  8
01
 10
2880.07846537893
 20
-369.4208864871985
 30
0.0000000001127424
 40
11.07564289041386
 50
187.4761056788784
 51
219.027544041259
  0
ARC
  5
1AD20
  8
01
 10
2880.796865465491
 20
-367.0569895049771
 30
0.0000000001127424
 40
13.19504248503225
 50
225.0482745883455
 51
250.4391384827613
  0
ARC
  5
1AD21
  8
01
 10
2208.449071596587
 20
-656.4736437552706
 30
0.0000000001127424
 40
700.3466176447392
 50
25.31046907029307
 51
26.55240153379512
  0
ARC
  5
1AD22
  8
01
 10
2531.862488530788
 20
-501.1316592838079
 30
0.0000000001127424
 40
341.574020840444
 50
22.26710475999702
 51
24.94761814099012
  0
ARC
  5
1AD23
  8
01
 10
2958.933831378176
 20
-326.8126854995785
 30
0.0000000001127424
 40
119.7043919156803
 50
202.0237567742716
 51
207.1318929426971
  0
ARC
  5
1AD24
  8
01
 10
2876.319722091378
 20
-366.9773635767037
 30
0.0000000001127424
 40
27.93129026844504
 50
211.0950023140452
 51
238.550904077064
  0
ARC
  5
1AD25
  8
01
 10
2878.821321814926
 20
-360.9230492477759
 30
0.0000000001127424
 40
34.41830015685566
 50
240.2522929304456
 51
248.4426130292811
  0
ARC
  5
1AD26
  8
01
 10
2894.048393797783
 20
-301.7389003171816
 30
0.0000000001127424
 40
95.35952645652287
 50
253.00435909214
 51
259.4154517286338
  0
ARC
  5
1AD27
  8
01
 10
2879.01664149344
 20
-379.9270778190435
 30
0.0000000001127424
 40
15.74604109607406
 50
260.9216705533191
 51
268.9345162609592
  0
ARC
  5
1AD28
  8
01
 10
2961.938007644288
 20
-404.6555891122994
 30
0.0000000001127424
 40
36.90827984237766
 50
68.08340575248917
 51
85.82953471338062
  0
ARC
  5
1AD29
  8
01
 10
2962.885721795251
 20
-419.263100744342
 30
0.0000000001127424
 40
51.44737314533389
 50
88.06583528307533
 51
99.35829378370975
  0
LINE
  5
1AD2A
  8
01
 10
2837.425615782729
 20
-337.7041256943289
 30
0.0000000001127424
 11
2882.425615782727
 21
-337.7041256943289
 31
0.0000000001127424
  0
LINE
  5
1AD2B
  8
01
 10
2873.767617713061
 20
-589.4874245531073
 30
0.0000000001127424
 11
2955.86187797398
 21
-588.5938756978549
 31
0.0000000001127424
  0
LINE
  5
1AD2C
  8
01
 10
2874.087710937119
 20
-575.1465254341028
 30
0.0000000001127424
 11
2955.864020655516
 21
-572.961004865193
 31
0.0000000001127424
  0
ARC
  5
1AD2D
  8
01
 10
2859.925499442986
 20
-587.7028073801976
 30
0.0000000001127424
 40
24.99979096596576
 50
30.67066781964537
 51
356.1840549373142
  0
ARC
  5
1AD2E
  8
01
 10
2860.101839788721
 20
-593.3613915338055
 30
0.0000000001127424
 40
29.51711322463888
 50
58.16901965993942
 51
64.91934069216303
  0
ARC
  5
1AD2F
  8
01
 10
2865.927292756826
 20
-581.0069986335775
 30
0.0000000001127424
 40
15.85826769269537
 50
65.06108856685938
 51
77.43358022767434
  0
ARC
  5
1AD30
  8
01
 10
2867.692009842677
 20
-573.4508247180374
 30
0.0000000001127424
 40
8.099534243652876
 50
77.98844364389373
 51
101.2396936476894
  0
ARC
  5
1AD31
  8
01
 10
2868.49260102541
 20
-576.3845000410383
 30
0.0000000001127424
 40
11.13503455607863
 50
102.3379328297767
 51
126.4097168783744
  0
ARC
  5
1AD32
  8
01
 10
2864.972645514937
 20
-571.8477177292125
 30
0.0000000001127424
 40
5.396391158680872
 50
124.9230625732206
 51
166.2700422301354
  0
ARC
  5
1AD33
  8
01
 10
2863.964079413331
 20
-571.5630795391617
 30
0.0000000001127424
 40
4.349245370029341
 50
166.759129010429
 51
182.675333623956
  0
ARC
  5
1AD34
  8
01
 10
2862.183129530057
 20
-571.6867129271632
 30
0.0000000001127424
 40
2.564783586505675
 50
181.7734477164632
 51
208.3064081362689
  0
ARC
  5
1AD35
  8
01
 10
2872.021550664885
 20
-518.240581010441
 30
0.0000000001127424
 40
56.94344149258469
 50
261.9150713707861
 51
272.0794011025137
  0
ARC
  5
1AD36
  8
01
 10
2862.512268517056
 20
-571.1146382663765
 30
0.0000000001127424
 40
3.145102773129
 50
214.651670304116
 51
258.464777224475
  0
ARC
  5
1AD37
  8
01
 10
2865.870785285509
 20
-559.6519752666
 30
0.0000000001127424
 40
15.08093668083644
 50
254.6685217954485
 51
262.9238127543682
  0
ARC
  5
1AD38
  8
01
 10
2960.553491971125
 20
-692.0531072176191
 30
0.0000000001127424
 40
119.1843948843166
 50
85.21275332141903
 51
92.25496207301535
  0
ARC
  5
1AD39
  8
01
 10
2968.061200535444
 20
-605.8411235975409
 30
0.0000000001127424
 40
32.64785966672855
 50
73.4196890030193
 51
85.71574501937926
  0
ARC
  5
1AD3A
  8
01
 10
2954.270599272167
 20
-480.7130880370378
 30
0.0000000001127424
 40
107.8925229764554
 50
270.8450711585127
 51
278.6514583703841
  0
ARC
  5
1AD3B
  8
01
 10
2966.480517092464
 20
-555.4191351984855
 30
0.0000000001127424
 40
32.21063361533734
 50
277.168748607897
 51
289.7736896844871
  0
ARC
  5
1AD3C
  8
01
 10
2973.402280829691
 20
-592.9660149274614
 30
0.0000000001127424
 40
18.83945955420323
 50
57.12041277987076
 51
77.81855510310807
  0
ARC
  5
1AD3D
  8
01
 10
2972.358494686808
 20
-567.4862527824962
 30
0.0000000001127424
 40
18.92204771753521
 50
285.3817907974916
 51
306.5602849771927
  0
ARC
  5
1AD3E
  8
01
 10
2981.326827506194
 20
-579.9170528768091
 30
0.0000000001127424
 40
3.600712235186706
 50
309.7602339458095
 51
0.5561680733788124
  0
ARC
  5
1AD3F
  8
01
 10
2981.52912490875
 20
-579.8164124527111
 30
0.0000000001127424
 40
3.398880028698698
 50
358.8925951720863
 51
51.8270887918262
  0
LINE
  5
1AD40
  8
01
 10
2892.138169287898
 20
-587.951609386113
 30
0.0000000001127424
 11
2955.861877973984
 21
-588.5938756978549
 31
0.0000000001127424
  0
ARC
  5
1AD41
  8
01
 10
2885.96170529531
 20
-1373.535407086373
 30
0.0000000001127424
 40
785.6080778076408
 50
89.54953497189283
 51
91.03283153146577
  0
ARC
  5
1AD42
  8
01
 10
2879.773543440812
 20
-704.622074412212
 30
0.0000000001127424
 40
116.8394382932455
 50
93.91269024729569
 51
98.53430409078851
  0
ARC
  5
1AD43
  8
01
 10
2867.732729855238
 20
-615.3181143634301
 30
0.0000000001127424
 40
26.77127486492728
 50
101.4148434400436
 51
115.0066434464459
  0
ARC
  5
1AD44
  8
01
 10
2859.901909760131
 20
-599.6124510356431
 30
0.0000000001127424
 40
9.23894837916856
 50
112.1676604002392
 51
137.8572001926417
  0
ARC
  5
1AD45
  8
01
 10
2859.987336020032
 20
-598.793337920225
 30
0.0000000001127424
 40
8.77788172044793
 50
142.1998580522941
 51
172.3370119023201
  0
ARC
  5
1AD46
  8
01
 10
2862.858979014746
 20
-599.6364378798071
 30
0.0000000001127424
 40
11.74502933276003
 50
170.1283092310063
 51
194.1693147909039
  0
ARC
  5
1AD47
  8
01
 10
2862.467419201931
 20
-599.5650273984566
 30
0.0000000001127424
 40
11.38405962301786
 50
195.0002246762303
 51
220.0465423502911
  0
ARC
  5
1AD48
  8
01
 10
2863.774209029595
 20
-598.8640727924303
 30
0.0000000001127424
 40
12.83904139673257
 50
218.6888635522039
 51
249.5935846426431
  0
ARC
  5
1AD49
  8
01
 10
2864.328743209872
 20
-591.6992088148754
 30
0.0000000001127424
 40
19.84647679739424
 50
255.3148888289354
 51
283.8029318284479
  0
ARC
  5
1AD4A
  8
01
 10
2861.025678606734
 20
-606.5717122718279
 30
0.0000000001127424
 40
2.778981984552072
 50
81.09162997886553
 51
105.8512747472161
  0
ARC
  5
1AD4B
  8
01
 10
2861.252267348039
 20
-605.0563709418611
 30
0.0000000001127424
 40
1.246878291068781
 50
45.08503790236953
 51
80.59524391974581
  0
ARC
  5
1AD4C
  8
01
 10
2861.198359196075
 20
-604.9770337882846
 30
0.0000000001127424
 40
1.232362359911368
 50
350.1927101834384
 51
40.70153424883286
  0
ARC
  5
1AD4D
  8
01
 10
2861.461277781343
 20
-608.3732669614938
 30
0.0000000001127424
 40
4.631586763479185
 50
104.9476370362885
 51
127.5282071782097
  0
ARC
  5
1AD4E
  8
01
 10
2860.767100192422
 20
-607.5454445194855
 30
0.0000000001127424
 40
3.552520702786541
 50
126.7822508423358
 51
149.3588573032202
  0
ARC
  5
1AD4F
  8
01
 10
2859.333103106213
 20
-606.7308410419373
 30
0.0000000001127424
 40
1.903809481831612
 50
148.4564254437732
 51
185.0020125448449
  0
ARC
  5
1AD50
  8
01
 10
2859.554202601687
 20
-604.7621018975124
 30
0.0000000001127424
 40
2.889908447323687
 50
327.5786558395369
 51
351.5462940448909
  0
ARC
  5
1AD51
  8
01
 10
2858.379773681575
 20
-604.1015998490029
 30
0.0000000001127424
 40
4.236013342244362
 50
308.6432688616882
 51
328.5540725435547
  0
ARC
  5
1AD52
  8
01
 10
2858.773347580001
 20
-606.7365677303378
 30
0.0000000001127424
 40
1.346376446120278
 50
186.8364960577533
 51
234.6722542324581
  0
ARC
  5
1AD53
  8
01
 10
2858.832552476627
 20
-604.7379652218469
 30
0.0000000001127424
 40
3.45651100728506
 50
283.0688718287458
 51
309.3684693644178
  0
ARC
  5
1AD54
  8
01
 10
2859.003185034278
 20
-606.4061314185738
 30
0.0000000001127424
 40
1.748873214865161
 50
234.7889203135329
 51
262.0346872525496
  0
ARC
  5
1AD55
  8
01
 10
2859.096238985704
 20
-605.7749363126723
 30
0.0000000001127424
 40
2.386878064591476
 50
261.9221246985193
 51
282.5317720201044
  0
LINE
  5
1AD57
  8
01
 10
2834.925615782729
 20
-296.0041256943291
 30
0.0000000001127424
 11
2884.925615782729
 21
-296.0041256943291
 31
0.0000000001127424
  0
LINE
  5
1AD58
  8
01
 10
2882.425615782727
 20
-297.7041256943289
 30
0.0000000001127424
 11
2882.425615782727
 21
-296.0041256943291
 31
0.0000000001127424
  0
LINE
  5
1AD59
  8
01
 10
2837.425615782729
 20
-297.7041256943289
 30
0.0000000001127424
 11
2837.425615782729
 21
-296.0041256943291
 31
0.0000000001127424
  0
POLYLINE
  5
1AD5A
  8
01
 66
     1
 10
0.0
 20
0.0
 30
0.0000000001127424
  0
VERTEX
  5
1B6C9
  8
01
 10
2884.921500301783
 20
-292.0008316818726
 30
0.0000000001127424
  0
VERTEX
  5
1B6CA
  8
01
 10
2884.921706499568
 20
-292.0010354473675
 30
0.0000000001127424
  0
VERTEX
  5
1B6CB
  8
01
 10
2884.921912616166
 20
-292.0012392952164
 30
0.0000000001127424
  0
VERTEX
  5
1B6CC
  8
01
 10
2884.922118651526
 20
-292.0014432253705
 30
0.0000000001127424
  0
VERTEX
  5
1B6CD
  8
01
 10
2884.9223246056
 20
-292.0016472377814
 30
0.0000000001127424
  0
VERTEX
  5
1B6CE
  8
01
 10
2884.922530478339
 20
-292.0018513324003
 30
0.0000000001127424
  0
VERTEX
  5
1B6CF
  8
01
 10
2884.922736269693
 20
-292.0020555091787
 30
0.0000000001127424
  0
VERTEX
  5
1B6D0
  8
01
 10
2884.922941979612
 20
-292.0022597680679
 30
0.0000000001127424
  0
VERTEX
  5
1B6D1
  8
01
 10
2884.923147608049
 20
-292.0024641090191
 30
0.0000000001127424
  0
VERTEX
  5
1B6D2
  8
01
 10
2884.923353154952
 20
-292.0026685319836
 30
0.0000000001127424
  0
VERTEX
  5
1B6D3
  8
01
 10
2884.923558620275
 20
-292.0028730369125
 30
0.0000000001127424
  0
VERTEX
  5
1B6D4
  8
01
 10
2884.923764003967
 20
-292.0030776237572
 30
0.0000000001127424
  0
VERTEX
  5
1B6D5
  8
01
 10
2884.92396930598
 20
-292.0032822924685
 30
0.0000000001127424
  0
VERTEX
  5
1B6D6
  8
01
 10
2884.924174526265
 20
-292.0034870429976
 30
0.0000000001127424
  0
VERTEX
  5
1B6D7
  8
01
 10
2884.924379664772
 20
-292.0036918752957
 30
0.0000000001127424
  0
VERTEX
  5
1B6D8
  8
01
 10
2884.924584721453
 20
-292.0038967893135
 30
0.0000000001127424
  0
VERTEX
  5
1B6D9
  8
01
 10
2884.92478969626
 20
-292.0041017850022
 30
0.0000000001127424
  0
SEQEND
  5
1B9C2
  8
01
  0
POLYLINE
  5
1AD5B
  8
01
 10
0.0
 20
0.0
 30
0.0
 66
     1
 70
     8
  0
VERTEX
  5
1B6DA
  8
01
 10
2892.138076593451
 20
-239.4194958915955
 30
0.0000000001127424
 70
    32
  0
VERTEX
  5
1B6DB
  8
01
 10
2892.13807659347
 20
-239.4193230621792
 30
0.0000000001127424
 70
    32
  0
VERTEX
  5
1B6DC
  8
01
 10
2892.138076593487
 20
-239.4191835262875
 30
0.0000000001127424
 70
    32
  0
VERTEX
  5
1B6DD
  8
01
 10
2892.138076593503
 20
-239.4190773035
 30
0.0000000001127424
 70
    32
  0
VERTEX
  5
1B6DE
  8
01
 10
2892.138076593517
 20
-239.4190044133961
 30
0.0000000001127424
 70
    32
  0
VERTEX
  5
1B6DF
  8
01
 10
2892.13807659353
 20
-239.4189648755555
 30
0.0000000001127424
 70
    32
  0
VERTEX
  5
1B6E0
  8
01
 10
2892.138076593541
 20
-239.4189587095577
 30
0.0000000001127424
 70
    32
  0
VERTEX
  5
1B6E1
  8
01
 10
2892.138076593551
 20
-239.4189859349823
 30
0.0000000001127424
 70
    32
  0
VERTEX
  5
1B6E2
  8
01
 10
2892.138076593561
 20
-239.419046571409
 30
0.0000000001127424
 70
    32
  0
VERTEX
  5
1B6E3
  8
01
 10
2892.138076593569
 20
-239.4191406384171
 30
0.0000000001127424
 70
    32
  0
VERTEX
  5
1B6E4
  8
01
 10
2892.138076593576
 20
-239.4192681555864
 30
0.0000000001127424
 70
    32
  0
VERTEX
  5
1B6E5
  8
01
 10
2892.138076593582
 20
-239.4194291424964
 30
0.0000000001127424
 70
    32
  0
VERTEX
  5
1B6E6
  8
01
 10
2892.138076593588
 20
-239.4196236187266
 30
0.0000000001127424
 70
    32
  0
VERTEX
  5
1B6E7
  8
01
 10
2892.138076593592
 20
-239.4198516038567
 30
0.0000000001127424
 70
    32
  0
VERTEX
  5
1B6E8
  8
01
 10
2892.138076593596
 20
-239.4201131174661
 30
0.0000000001127424
 70
    32
  0
VERTEX
  5
1B6E9
  8
01
 10
2892.138076593599
 20
-239.4204081791346
 30
0.0000000001127424
 70
    32
  0
VERTEX
  5
1B6EA
  8
01
 10
2892.138076593601
 20
-239.4207368084415
 30
0.0000000001127424
 70
    32
  0
VERTEX
  5
1B6EB
  8
01
 10
2892.138076593604
 20
-239.4210990249666
 30
0.0000000001127424
 70
    32
  0
VERTEX
  5
1B6EC
  8
01
 10
2892.138076593605
 20
-239.4214948482893
 30
0.0000000001127424
 70
    32
  0
VERTEX
  5
1B6ED
  8
01
 10
2892.138076593606
 20
-239.4219242979894
 30
0.0000000001127424
 70
    32
  0
VERTEX
  5
1B6EE
  8
01
 10
2892.138076593606
 20
-239.4223873936461
 30
0.0000000001127424
 70
    32
  0
VERTEX
  5
1B6EF
  8
01
 10
2892.138076593607
 20
-239.4228841548394
 30
0.0000000001127424
 70
    32
  0
VERTEX
  5
1B6F0
  8
01
 10
2892.138076593607
 20
-239.4234146011486
 30
0.0000000001127424
 70
    32
  0
VERTEX
  5
1B6F1
  8
01
 10
2892.138076593607
 20
-239.4239787521532
 30
0.0000000001127424
 70
    32
  0
VERTEX
  5
1B6F2
  8
01
 10
2892.138076593607
 20
-239.424576627433
 30
0.0000000001127424
 70
    32
  0
SEQEND
  5
1B9C3
  8
01
  0
POLYLINE
  5
1AD5C
  8
01
 10
0.0
 20
0.0
 30
0.0
 66
     1
 70
     8
  0
VERTEX
  5
1B6F3
  8
01
 10
2848.753789950294
 20
-261.8445791400859
 30
0.0000000001127424
 70
    32
  0
VERTEX
  5
1B6F4
  8
01
 10
2848.75322563843
 20
-261.8444912288285
 30
0.0000000001127424
 70
    32
  0
VERTEX
  5
1B6F5
  8
01
 10
2848.752661326566
 20
-261.8444033175711
 30
0.0000000001127424
 70
    32
  0
VERTEX
  5
1B6F6
  8
01
 10
2848.752097014702
 20
-261.8443154063137
 30
0.0000000001127424
 70
    32
  0
VERTEX
  5
1B6F7
  8
01
 10
2848.751532702838
 20
-261.8442274950563
 30
0.0000000001127424
 70
    32
  0
VERTEX
  5
1B6F8
  8
01
 10
2848.750968390973
 20
-261.8441395837989
 30
0.0000000001127424
 70
    32
  0
VERTEX
  5
1B6F9
  8
01
 10
2848.750404079109
 20
-261.8440516725416
 30
0.0000000001127424
 70
    32
  0
VERTEX
  5
1B6FA
  8
01
 10
2848.749839767245
 20
-261.8439637612843
 30
0.0000000001127424
 70
    32
  0
VERTEX
  5
1B6FB
  8
01
 10
2848.749275455381
 20
-261.843875850027
 30
0.0000000001127424
 70
    32
  0
VERTEX
  5
1B6FC
  8
01
 10
2848.748711143517
 20
-261.8437879387697
 30
0.0000000001127424
 70
    32
  0
VERTEX
  5
1B6FD
  8
01
 10
2848.748146831652
 20
-261.8437000275123
 30
0.0000000001127424
 70
    32
  0
VERTEX
  5
1B6FE
  8
01
 10
2848.747582519788
 20
-261.8436121162551
 30
0.0000000001127424
 70
    32
  0
VERTEX
  5
1B6FF
  8
01
 10
2848.747018207924
 20
-261.8435242049978
 30
0.0000000001127424
 70
    32
  0
VERTEX
  5
1B700
  8
01
 10
2848.746453896059
 20
-261.8434362937406
 30
0.0000000001127424
 70
    32
  0
VERTEX
  5
1B701
  8
01
 10
2848.745889584196
 20
-261.8433483824833
 30
0.0000000001127424
 70
    32
  0
VERTEX
  5
1B702
  8
01
 10
2848.745325272331
 20
-261.8432604712261
 30
0.0000000001127424
 70
    32
  0
VERTEX
  5
1B703
  8
01
 10
2848.744760960467
 20
-261.843172559969
 30
0.0000000001127424
 70
    32
  0
SEQEND
  5
1B9C4
  8
01
  0
POLYLINE
  5
1AD5D
  8
01
 10
0.0
 20
0.0
 30
0.0
 66
     1
 70
     8
  0
VERTEX
  5
1B704
  8
01
 10
2884.92476577007
 20
-292.0041256914606
 30
0.0000000001127424
 70
    32
  0
VERTEX
  5
1B705
  8
01
 10
2884.924657089251
 20
-292.0041256916408
 30
0.0000000001127424
 70
    32
  0
VERTEX
  5
1B706
  8
01
 10
2884.924548408431
 20
-292.0041256918209
 30
0.0000000001127424
 70
    32
  0
VERTEX
  5
1B707
  8
01
 10
2884.924439727612
 20
-292.0041256920011
 30
0.0000000001127424
 70
    32
  0
VERTEX
  5
1B708
  8
01
 10
2884.924331046793
 20
-292.0041256921813
 30
0.0000000001127424
 70
    32
  0
VERTEX
  5
1B709
  8
01
 10
2884.924222365974
 20
-292.0041256923615
 30
0.0000000001127424
 70
    32
  0
VERTEX
  5
1B70A
  8
01
 10
2884.924113685154
 20
-292.0041256925417
 30
0.0000000001127424
 70
    32
  0
VERTEX
  5
1B70B
  8
01
 10
2884.924005004335
 20
-292.0041256927219
 30
0.0000000001127424
 70
    32
  0
VERTEX
  5
1B70C
  8
01
 10
2884.923896323516
 20
-292.0041256929021
 30
0.0000000001127424
 70
    32
  0
VERTEX
  5
1B70D
  8
01
 10
2884.923787642697
 20
-292.0041256930823
 30
0.0000000001127424
 70
    32
  0
VERTEX
  5
1B70E
  8
01
 10
2884.923678961877
 20
-292.0041256932625
 30
0.0000000001127424
 70
    32
  0
VERTEX
  5
1B70F
  8
01
 10
2884.923570281058
 20
-292.0041256934427
 30
0.0000000001127424
 70
    32
  0
VERTEX
  5
1B710
  8
01
 10
2884.923461600239
 20
-292.0041256936229
 30
0.0000000001127424
 70
    32
  0
VERTEX
  5
1B711
  8
01
 10
2884.92335291942
 20
-292.0041256938031
 30
0.0000000001127424
 70
    32
  0
VERTEX
  5
1B712
  8
01
 10
2884.9232442386
 20
-292.0041256939833
 30
0.0000000001127424
 70
    32
  0
VERTEX
  5
1B713
  8
01
 10
2884.923135557781
 20
-292.0041256941635
 30
0.0000000001127424
 70
    32
  0
VERTEX
  5
1B714
  8
01
 10
2884.923026876962
 20
-292.0041256943437
 30
0.0000000001127424
 70
    32
  0
SEQEND
  5
1B9C5
  8
01
  0
POLYLINE
  5
1AD5E
  8
01
 10
0.0
 20
0.0
 30
0.0
 66
     1
 70
     8
  0
VERTEX
  5
1B715
  8
01
 10
2834.925615782729
 20
-296.0041256943291
 30
0.0000000001127424
 70
    32
  0
VERTEX
  5
1B716
  8
01
 10
2834.925615782729
 20
-295.7541256943291
 30
0.0000000001127424
 70
    32
  0
VERTEX
  5
1B717
  8
01
 10
2834.925615782729
 20
-295.5041256943291
 30
0.0000000001127424
 70
    32
  0
VERTEX
  5
1B718
  8
01
 10
2834.925615782729
 20
-295.2541256943291
 30
0.0000000001127424
 70
    32
  0
VERTEX
  5
1B719
  8
01
 10
2834.925615782729
 20
-295.0041256943291
 30
0.0000000001127424
 70
    32
  0
VERTEX
  5
1B71A
  8
01
 10
2834.925615782729
 20
-294.7541256943291
 30
0.0000000001127424
 70
    32
  0
VERTEX
  5
1B71B
  8
01
 10
2834.925615782729
 20
-294.5041256943291
 30
0.0000000001127424
 70
    32
  0
VERTEX
  5
1B71C
  8
01
 10
2834.925615782729
 20
-294.2541256943291
 30
0.0000000001127424
 70
    32
  0
VERTEX
  5
1B71D
  8
01
 10
2834.925615782729
 20
-294.0041256943291
 30
0.0000000001127424
 70
    32
  0
VERTEX
  5
1B71E
  8
01
 10
2834.925615782729
 20
-293.7541256943291
 30
0.0000000001127424
 70
    32
  0
VERTEX
  5
1B71F
  8
01
 10
2834.925615782729
 20
-293.5041256943291
 30
0.0000000001127424
 70
    32
  0
VERTEX
  5
1B720
  8
01
 10
2834.925615782729
 20
-293.2541256943291
 30
0.0000000001127424
 70
    32
  0
VERTEX
  5
1B721
  8
01
 10
2834.925615782729
 20
-293.0041256943291
 30
0.0000000001127424
 70
    32
  0
VERTEX
  5
1B722
  8
01
 10
2834.925615782729
 20
-292.7541256943291
 30
0.0000000001127424
 70
    32
  0
VERTEX
  5
1B723
  8
01
 10
2834.925615782729
 20
-292.5041256943291
 30
0.0000000001127424
 70
    32
  0
VERTEX
  5
1B724
  8
01
 10
2834.925615782729
 20
-292.2541256943291
 30
0.0000000001127424
 70
    32
  0
VERTEX
  5
1B725
  8
01
 10
2834.925615782729
 20
-292.0041256943291
 30
0.0000000001127424
 70
    32
  0
SEQEND
  5
1B9C6
  8
01
  0
POLYLINE
  5
1AD5F
  8
01
 66
     1
 10
0.0
 20
0.0
 30
0.0000000001127424
  0
VERTEX
  5
1B726
  8
01
 10
2884.923026876962
 20
-292.0041256943437
 30
0.0000000001127424
  0
VERTEX
  5
1B727
  8
01
 10
2884.91531614275
 20
-291.996413948375
 30
0.0000000001127424
  0
VERTEX
  5
1B728
  8
01
 10
2884.907607374743
 20
-291.9887002334473
 30
0.0000000001127424
  0
VERTEX
  5
1B729
  8
01
 10
2884.899900573695
 20
-291.9809845503128
 30
0.0000000001127424
  0
VERTEX
  5
1B72A
  8
01
 10
2884.89219574036
 20
-291.9732668997237
 30
0.0000000001127424
  0
VERTEX
  5
1B72B
  8
01
 10
2884.884492875491
 20
-291.965547282433
 30
0.0000000001127424
  0
VERTEX
  5
1B72C
  8
01
 10
2884.87679197984
 20
-291.9578256991938
 30
0.0000000001127424
  0
VERTEX
  5
1B72D
  8
01
 10
2884.869093054161
 20
-291.9501021507599
 30
0.0000000001127424
  0
VERTEX
  5
1B72E
  8
01
 10
2884.861396099206
 20
-291.942376637885
 30
0.0000000001127424
  0
VERTEX
  5
1B72F
  8
01
 10
2884.853701115725
 20
-291.9346491613237
 30
0.0000000001127424
  0
VERTEX
  5
1B730
  8
01
 10
2884.846008104472
 20
-291.9269197218306
 30
0.0000000001127424
  0
VERTEX
  5
1B731
  8
01
 10
2884.838317066195
 20
-291.9191883201609
 30
0.0000000001127424
  0
VERTEX
  5
1B732
  8
01
 10
2884.830628001648
 20
-291.9114549570701
 30
0.0000000001127424
  0
VERTEX
  5
1B733
  8
01
 10
2884.822940911579
 20
-291.903719633314
 30
0.0000000001127424
  0
VERTEX
  5
1B734
  8
01
 10
2884.815255796739
 20
-291.8959823496491
 30
0.0000000001127424
  0
VERTEX
  5
1B735
  8
01
 10
2884.807572657875
 20
-291.8882431068319
 30
0.0000000001127424
  0
VERTEX
  5
1B736
  8
01
 10
2884.79989149574
 20
-291.8805019056194
 30
0.0000000001127424
  0
SEQEND
  5
1B9C7
  8
01
  0
POLYLINE
  5
1AD60
  8
01
 10
0.0
 20
0.0
 30
0.0
 66
     1
 70
     8
  0
VERTEX
  5
1B737
  8
01
 10
2859.925406748694
 20
-292.0041256943364
 30
0.0000000001127424
 70
    32
  0
VERTEX
  5
1B738
  8
01
 10
2858.362919813321
 20
-292.0041256943359
 30
0.0000000001127424
 70
    32
  0
VERTEX
  5
1B739
  8
01
 10
2856.800432877948
 20
-292.0041256943355
 30
0.0000000001127424
 70
    32
  0
VERTEX
  5
1B73A
  8
01
 10
2855.237945942575
 20
-292.004125694335
 30
0.0000000001127424
 70
    32
  0
VERTEX
  5
1B73B
  8
01
 10
2853.675459007202
 20
-292.0041256943346
 30
0.0000000001127424
 70
    32
  0
VERTEX
  5
1B73C
  8
01
 10
2852.11297207183
 20
-292.0041256943341
 30
0.0000000001127424
 70
    32
  0
VERTEX
  5
1B73D
  8
01
 10
2850.550485136457
 20
-292.0041256943337
 30
0.0000000001127424
 70
    32
  0
VERTEX
  5
1B73E
  8
01
 10
2848.987998201083
 20
-292.0041256943332
 30
0.0000000001127424
 70
    32
  0
VERTEX
  5
1B73F
  8
01
 10
2847.425511265711
 20
-292.0041256943327
 30
0.0000000001127424
 70
    32
  0
VERTEX
  5
1B740
  8
01
 10
2845.863024330339
 20
-292.0041256943323
 30
0.0000000001127424
 70
    32
  0
VERTEX
  5
1B741
  8
01
 10
2844.300537394965
 20
-292.0041256943318
 30
0.0000000001127424
 70
    32
  0
VERTEX
  5
1B742
  8
01
 10
2842.738050459592
 20
-292.0041256943314
 30
0.0000000001127424
 70
    32
  0
VERTEX
  5
1B743
  8
01
 10
2841.17556352422
 20
-292.0041256943309
 30
0.0000000001127424
 70
    32
  0
VERTEX
  5
1B744
  8
01
 10
2839.613076588847
 20
-292.0041256943305
 30
0.0000000001127424
 70
    32
  0
VERTEX
  5
1B745
  8
01
 10
2838.050589653474
 20
-292.00412569433
 30
0.0000000001127424
 70
    32
  0
VERTEX
  5
1B746
  8
01
 10
2836.488102718101
 20
-292.0041256943296
 30
0.0000000001127424
 70
    32
  0
VERTEX
  5
1B747
  8
01
 10
2834.925615782729
 20
-292.0041256943291
 30
0.0000000001127424
 70
    32
  0
SEQEND
  5
1B9C8
  8
01
  0
POLYLINE
  5
1AD61
  8
01
 10
0.0
 20
0.0
 30
0.0
 66
     1
 70
     8
  0
VERTEX
  5
1B748
  8
01
 10
2859.925406748694
 20
-292.0041256943364
 30
0.0000000001127424
 70
    32
  0
VERTEX
  5
1B749
  8
01
 10
2860.609076022192
 20
-292.0041256943366
 30
0.0000000001127424
 70
    32
  0
VERTEX
  5
1B74A
  8
01
 10
2861.292745295691
 20
-292.0041256943368
 30
0.0000000001127424
 70
    32
  0
VERTEX
  5
1B74B
  8
01
 10
2861.976414569189
 20
-292.0041256943371
 30
0.0000000001127424
 70
    32
  0
VERTEX
  5
1B74C
  8
01
 10
2862.660083842688
 20
-292.0041256943373
 30
0.0000000001127424
 70
    32
  0
VERTEX
  5
1B74D
  8
01
 10
2863.343753116186
 20
-292.0041256943375
 30
0.0000000001127424
 70
    32
  0
VERTEX
  5
1B74E
  8
01
 10
2864.027422389684
 20
-292.0041256943377
 30
0.0000000001127424
 70
    32
  0
VERTEX
  5
1B74F
  8
01
 10
2864.711091663183
 20
-292.004125694338
 30
0.0000000001127424
 70
    32
  0
VERTEX
  5
1B750
  8
01
 10
2865.394760936681
 20
-292.0041256943382
 30
0.0000000001127424
 70
    32
  0
VERTEX
  5
1B751
  8
01
 10
2866.078430210179
 20
-292.0041256943384
 30
0.0000000001127424
 70
    32
  0
VERTEX
  5
1B752
  8
01
 10
2866.762099483678
 20
-292.0041256943387
 30
0.0000000001127424
 70
    32
  0
VERTEX
  5
1B753
  8
01
 10
2867.445768757176
 20
-292.0041256943389
 30
0.0000000001127424
 70
    32
  0
VERTEX
  5
1B754
  8
01
 10
2868.129438030674
 20
-292.0041256943391
 30
0.0000000001127424
 70
    32
  0
VERTEX
  5
1B755
  8
01
 10
2868.813107304172
 20
-292.0041256943393
 30
0.0000000001127424
 70
    32
  0
VERTEX
  5
1B756
  8
01
 10
2869.496776577671
 20
-292.0041256943396
 30
0.0000000001127424
 70
    32
  0
VERTEX
  5
1B757
  8
01
 10
2870.180445851169
 20
-292.0041256943398
 30
0.0000000001127424
 70
    32
  0
VERTEX
  5
1B758
  8
01
 10
2870.864115124667
 20
-292.00412569434
 30
0.0000000001127424
 70
    32
  0
SEQEND
  5
1B9C9
  8
01
  0
LINE
  5
1AD62
  8
01
 10
2880.461564781593
 20
-287.010198636553
 30
0.0000000001127424
 11
2881.111511406701
 21
-287.7951921525687
 31
0.0000000001127424
  0
ARC
  5
1AD63
  8
01
 10
2933.957935349064
 20
-3310.80654019906
 30
0.0000000001127424
 40
3071.565345893962
 50
89.59034645464045
 51
91.03037072955269
  0
LINE
  5
1AD64
  8
01
 10
2884.925615782729
 20
-296.0041256943291
 30
0.0000000001127424
 11
2834.925615782729
 21
-296.0041256943291
 31
0.0000000001127424
  0
LINE
  5
1AD65
  8
01
 10
2884.921500301797
 20
-292.0008316818726
 30
0.0000000001127424
 11
2834.925615782729
 21
-292.0008316818726
 31
0.0000000001127424
  0
LINE
  5
1AD66
  8
01
 10
2834.925615782729
 20
-296.0041256943291
 30
0.0000000001127424
 11
2834.925615782729
 21
-292.0008316818726
 31
0.0000000001127424
  0
LINE
  5
1AD67
  8
01
 10
2884.925615782729
 20
-296.0041256943291
 30
0.0000000001127424
 11
2884.923026876962
 21
-292.0041256943437
 31
0.0000000001127424
  0
ARC
  5
1AD68
  8
01
 10
2877.045143045588
 20
-275.3511132903627
 30
0.0000000001127424
 40
16.71502533770776
 50
221.7246567643487
 51
264.9335320218593
  0
ARC
  5
1AD69
  8
01
 10
2879.660974000951
 20
-273.0896019582938
 30
0.0000000001127424
 40
20.17257792134071
 50
194.0108982709652
 51
221.5738736391266
  0
ARC
  5
1AD6A
  8
01
 10
2881.489166126684
 20
-273.4623246386759
 30
0.0000000001127424
 40
21.87093441027351
 50
164.6746326485545
 51
191.9035082262285
  0
ARC
  5
1AD6B
  8
01
 10
2878.612045084533
 20
-273.1371289183039
 30
0.0000000001127424
 40
19.01542280120887
 50
129.4533557151813
 51
163.3282720043078
  0
ARC
  5
1AD6C
  8
01
 10
2876.06758813961
 20
-268.706207497074
 30
0.0000000001127424
 40
14.00312600677861
 50
92.0404078683663
 51
132.937267835883
  0
ARC
  5
1AD6D
  8
01
 10
2876.97021235145
 20
-268.285788785151
 30
0.0000000001127424
 40
13.64595833581675
 50
80.41157480838075
 51
95.89363951403666
  0
ARC
  5
1AD6E
  8
01
 10
2847.802670595792
 20
-589.5760352678358
 30
0.0000000001127424
 40
336.2188308590173
 50
79.10694681515766
 51
84.63430942035653
  0
LINE
  5
1AD6F
  8
01
 10
2911.340089556424
 20
-259.4153189249832
 30
0.0000000001127424
 11
2932.043950971175
 21
-262.8704447739133
 31
0.0000000001127424
  0
ARC
  5
1AD70
  8
01
 10
3005.395016922593
 20
80.89535401992953
 30
0.0000000001127424
 40
351.5043432115423
 50
257.9551353138859
 51
261.678056633453
  0
ARC
  5
1AD71
  8
01
 10
2958.35158766627
 20
-212.7934392618713
 30
0.0000000001127424
 40
56.09378904943307
 50
257.2186987971688
 51
281.0623714666585
  0
ARC
  5
1AD72
  8
01
 10
2953.974800235698
 20
-306.6536156555017
 30
0.0000000001127424
 40
67.36197079016037
 50
77.0115440394037
 51
88.34624043297578
  0
ARC
  5
1AD73
  8
01
 10
2962.617491212431
 20
-238.6209751718138
 30
0.0000000001127424
 40
29.93750703625965
 50
282.534441602937
 51
309.5020582645772
  0
ARC
  5
1AD74
  8
01
 10
2962.687221624204
 20
-268.2306651724798
 30
0.0000000001127424
 40
27.96428169569596
 50
47.27365520601381
 51
76.71194832820674
  0
ARC
  5
1AD75
  8
01
 10
2975.358302456719
 20
-254.0501447263082
 30
0.0000000001127424
 40
9.927840661044746
 50
309.4083010146875
 51
333.0125941755086
  0
ARC
  5
1AD76
  8
01
 10
2976.234880796775
 20
-255.0907764168874
 30
0.0000000001127424
 40
8.690630349575482
 50
336.5058345605684
 51
0.9095568321798156
  0
ARC
  5
1AD77
  8
01
 10
2976.709422663757
 20
-254.5101928563286
 30
0.0000000001127424
 40
8.226909301699713
 50
356.9158589487282
 51
23.75369093501405
  0
ARC
  5
1AD78
  8
01
 10
2973.739330791765
 20
-256.2117819638984
 30
0.0000000001127424
 40
11.63640436824534
 50
25.53182729383365
 51
47.09702118622121
  0
ARC
  5
1AD79
  8
01
 10
2806.607533100973
 20
-794.8731233716521
 30
0.0000000001127424
 40
543.8816576443234
 50
78.8634318516359
 51
82.44469610230328
  0
ARC
  5
1AD7A
  8
01
 10
2760.915808132158
 20
-1183.19160292225
 30
0.0000000001127424
 40
934.2005681967211
 50
78.57656583981404
 51
80.71422427951502
  0
ARC
  5
1AD7B
  8
01
 10
2877.841617315159
 20
-260.8569208388722
 30
0.0000000001127424
 40
5.15116025745746
 50
86.91561436463506
 51
106.4947654943271
  0
ARC
  5
1AD7C
  8
01
 10
2936.122402539419
 20
-241.7739067373564
 30
0.0000000001127424
 40
71.72482809106272
 50
214.0877400036119
 51
224.45255722121
  0
ARC
  5
1AD7D
  8
01
 10
2936.333769580578
 20
-240.2520503354458
 30
0.0000000001127424
 40
72.76178146589776
 50
204.9514497624752
 51
214.9869650003652
  0
ARC
  5
1AD7E
  8
01
 10
2883.444279530474
 20
-265.0333367181279
 30
0.0000000001127424
 40
14.35557004281338
 50
178.0557036678246
 51
204.3252181983499
  0
ARC
  5
1AD7F
  8
01
 10
2880.07846537893
 20
-265.9873649014594
 30
0.0000000001127424
 40
11.07564289041386
 50
140.972455958741
 51
172.5238943211216
  0
ARC
  5
1AD80
  8
01
 10
2880.796865465491
 20
-268.3512618836808
 30
0.0000000001127424
 40
13.19504248503225
 50
109.5608615172387
 51
134.9517254116545
  0
ARC
  5
1AD81
  8
01
 10
2208.449071596587
 20
21.06539236661274
 30
0.0000000001127424
 40
700.3466176447392
 50
333.4475984661933
 51
334.6895309297187
  0
ARC
  5
1AD82
  8
01
 10
2531.862488530788
 20
-134.2765921048499
 30
0.0000000001127424
 40
341.574020840444
 50
335.0523818590099
 51
337.732895240003
  0
ARC
  5
1AD83
  8
01
 10
2958.933831378176
 20
-308.5955658890794
 30
0.0000000001127424
 40
119.7043919156803
 50
152.8681070573029
 51
157.9762432257405
  0
ARC
  5
1AD84
  8
01
 10
2876.319722091378
 20
-268.4308878119541
 30
0.0000000001127424
 40
27.93129026844504
 50
121.449095922936
 51
148.9049976859426
  0
ARC
  5
1AD85
  8
01
 10
2878.821321814926
 20
-274.4852021408819
 30
0.0000000001127424
 40
34.41830015685566
 50
111.5573869707189
 51
119.7477070695544
  0
ARC
  5
1AD86
  8
01
 10
2894.048393797783
 20
-333.6693510714763
 30
0.0000000001127424
 40
95.35952645652287
 50
100.5845482713662
 51
106.9956409078601
  0
ARC
  5
1AD87
  8
01
 10
2879.01664149344
 20
-255.4811735696144
 30
0.0000000001127424
 40
15.74604109607406
 50
91.06548373904079
 51
99.07832944668091
  0
ARC
  5
1AD88
  8
01
 10
2961.938007644288
 20
-230.7526622763585
 30
0.0000000001127424
 40
36.90827984237766
 50
274.1704652866193
 51
291.9165942475108
  0
ARC
  5
1AD89
  8
01
 10
2962.885721795251
 20
-216.1451506443159
 30
0.0000000001127424
 40
51.44737314533389
 50
260.6417062162902
 51
271.9341647169247
  0
LINE
  5
1AD8A
  8
01
 10
2837.425615782729
 20
-297.7041256943289
 30
0.0000000001127424
 11
2882.425615782727
 21
-297.7041256943289
 31
0.0000000001127424
  0
LINE
  5
1AD8B
  8
01
 10
2669.925732122475
 20
-562.7028073801976
 30
0.0000000001127424
 11
2669.925732122475
 21
-612.7028073801976
 31
0.0000000001127424
  0
POLYLINE
  5
1AD8C
  8
01
 66
     1
 10
0.0
 20
0.0
 30
0.0000000001127424
  0
VERTEX
  5
1B759
  8
01
 10
2649.574231447811
 20
-569.8074067612488
 30
0.0000000001127424
  0
VERTEX
  5
1B75A
  8
01
 10
2649.565618779596
 20
-569.8113664293757
 30
0.0000000001127424
  0
VERTEX
  5
1B75B
  8
01
 10
2649.557005715548
 20
-569.8153252372047
 30
0.0000000001127424
  0
VERTEX
  5
1B75C
  8
01
 10
2649.548392255794
 20
-569.8192831846765
 30
0.0000000001127424
  0
VERTEX
  5
1B75D
  8
01
 10
2649.539778400464
 20
-569.823240271732
 30
0.0000000001127424
  0
VERTEX
  5
1B75E
  8
01
 10
2649.531164149688
 20
-569.8271964983115
 30
0.0000000001127424
  0
VERTEX
  5
1B75F
  8
01
 10
2649.522549503594
 20
-569.8311518643562
 30
0.0000000001127424
  0
VERTEX
  5
1B760
  8
01
 10
2649.51393446231
 20
-569.8351063698066
 30
0.0000000001127424
  0
VERTEX
  5
1B761
  8
01
 10
2649.505319025967
 20
-569.8390600146035
 30
0.0000000001127424
  0
VERTEX
  5
1B762
  8
01
 10
2649.496703194692
 20
-569.8430127986877
 30
0.0000000001127424
  0
VERTEX
  5
1B763
  8
01
 10
2649.488086968615
 20
-569.8469647219999
 30
0.0000000001127424
  0
VERTEX
  5
1B764
  8
01
 10
2649.479470347866
 20
-569.8509157844812
 30
0.0000000001127424
  0
VERTEX
  5
1B765
  8
01
 10
2649.470853332572
 20
-569.8548659860724
 30
0.0000000001127424
  0
VERTEX
  5
1B766
  8
01
 10
2649.462235922863
 20
-569.8588153267143
 30
0.0000000001127424
  0
VERTEX
  5
1B767
  8
01
 10
2649.453618118868
 20
-569.862763806348
 30
0.0000000001127424
  0
VERTEX
  5
1B768
  8
01
 10
2649.444999920716
 20
-569.8667114249143
 30
0.0000000001127424
  0
VERTEX
  5
1B769
  8
01
 10
2649.436381328535
 20
-569.8706581823544
 30
0.0000000001127424
  0
SEQEND
  5
1B9CA
  8
01
  0
POLYLINE
  5
1AD8D
  8
01
 66
     1
 10
0.0
 20
0.0
 30
0.0000000001127424
  0
VERTEX
  5
1B76A
  8
01
 10
2649.410983174378
 20
-569.8865578048208
 30
0.0000000001127424
  0
VERTEX
  5
1B76B
  8
01
 10
2649.412443188128
 20
-569.8853836656547
 30
0.0000000001127424
  0
VERTEX
  5
1B76C
  8
01
 10
2649.413922733074
 20
-569.8842315941213
 30
0.0000000001127424
  0
VERTEX
  5
1B76D
  8
01
 10
2649.415421306921
 20
-569.8831020713203
 30
0.0000000001127424
  0
VERTEX
  5
1B76E
  8
01
 10
2649.416938391737
 20
-569.881995563024
 30
0.0000000001127424
  0
VERTEX
  5
1B76F
  8
01
 10
2649.418473454547
 20
-569.8809125190495
 30
0.0000000001127424
  0
VERTEX
  5
1B770
  8
01
 10
2649.420025947947
 20
-569.8798533726551
 30
0.0000000001127424
  0
VERTEX
  5
1B771
  8
01
 10
2649.421595310754
 20
-569.8788185399688
 30
0.0000000001127424
  0
VERTEX
  5
1B772
  8
01
 10
2649.423180968678
 20
-569.8778084194447
 30
0.0000000001127424
  0
VERTEX
  5
1B773
  8
01
 10
2649.424782335028
 20
-569.8768233913534
 30
0.0000000001127424
  0
VERTEX
  5
1B774
  8
01
 10
2649.426398811428
 20
-569.8758638173042
 30
0.0000000001127424
  0
VERTEX
  5
1B775
  8
01
 10
2649.428029788565
 20
-569.8749300398036
 30
0.0000000001127424
  0
VERTEX
  5
1B776
  8
01
 10
2649.429674646953
 20
-569.8740223818485
 30
0.0000000001127424
  0
VERTEX
  5
1B777
  8
01
 10
2649.431332757719
 20
-569.8731411465565
 30
0.0000000001127424
  0
VERTEX
  5
1B778
  8
01
 10
2649.433003483395
 20
-569.8722866168339
 30
0.0000000001127424
  0
VERTEX
  5
1B779
  8
01
 10
2649.434686178737
 20
-569.8714590550827
 30
0.0000000001127424
  0
VERTEX
  5
1B77A
  8
01
 10
2649.436380191543
 20
-569.8706587029455
 30
0.0000000001127424
  0
SEQEND
  5
1B9CB
  8
01
  0
POLYLINE
  5
1AD8E
  8
01
 66
     1
 10
0.0
 20
0.0
 30
0.0000000001127424
  0
VERTEX
  5
1B77B
  8
01
 10
2649.443577596197
 20
-569.8676729861254
 30
0.0000000001127424
  0
VERTEX
  5
1B77C
  8
01
 10
2649.444526761778
 20
-569.8673241397713
 30
0.0000000001127424
  0
VERTEX
  5
1B77D
  8
01
 10
2649.445479591046
 20
-569.8669844287165
 30
0.0000000001127424
  0
VERTEX
  5
1B77E
  8
01
 10
2649.446435951951
 20
-569.8666539096872
 30
0.0000000001127424
  0
VERTEX
  5
1B77F
  8
01
 10
2649.447395711289
 20
-569.8663326368605
 30
0.0000000001127424
  0
VERTEX
  5
1B780
  8
01
 10
2649.448358734764
 20
-569.8660206618354
 30
0.0000000001127424
  0
VERTEX
  5
1B781
  8
01
 10
2649.449324887052
 20
-569.8657180336053
 30
0.0000000001127424
  0
VERTEX
  5
1B782
  8
01
 10
2649.450294031857
 20
-569.8654247985332
 30
0.0000000001127424
  0
VERTEX
  5
1B783
  8
01
 10
2649.451266031985
 20
-569.8651410003279
 30
0.0000000001127424
  0
VERTEX
  5
1B784
  8
01
 10
2649.452240749399
 20
-569.8648666800217
 30
0.0000000001127424
  0
VERTEX
  5
1B785
  8
01
 10
2649.453218045293
 20
-569.864601875952
 30
0.0000000001127424
  0
VERTEX
  5
1B786
  8
01
 10
2649.454197780153
 20
-569.8643466237421
 30
0.0000000001127424
  0
VERTEX
  5
1B787
  8
01
 10
2649.455179813825
 20
-569.864100956286
 30
0.0000000001127424
  0
VERTEX
  5
1B788
  8
01
 10
2649.45616400558
 20
-569.8638649037343
 30
0.0000000001127424
  0
VERTEX
  5
1B789
  8
01
 10
2649.457150214182
 20
-569.8636384934821
 30
0.0000000001127424
  0
VERTEX
  5
1B78A
  8
01
 10
2649.458138297956
 20
-569.8634217501592
 30
0.0000000001127424
  0
VERTEX
  5
1B78B
  8
01
 10
2649.459128114858
 20
-569.8632146956215
 30
0.0000000001127424
  0
SEQEND
  5
1B9CC
  8
01
  0
POLYLINE
  5
1AD8F
  8
01
 10
0.0
 20
0.0
 30
0.0
 66
     1
 70
     8
  0
VERTEX
  5
1B78C
  8
01
 10
2648.005247370026
 20
-570.5846062600631
 30
0.0000000001127424
 70
    32
  0
VERTEX
  5
1B78D
  8
01
 10
2648.005223078992
 20
-570.5843030842002
 30
0.0000000001127424
 70
    32
  0
VERTEX
  5
1B78E
  8
01
 10
2648.005198787956
 20
-570.5839999083375
 30
0.0000000001127424
 70
    32
  0
VERTEX
  5
1B78F
  8
01
 10
2648.005174496921
 20
-570.5836967324748
 30
0.0000000001127424
 70
    32
  0
VERTEX
  5
1B790
  8
01
 10
2648.005150205887
 20
-570.583393556612
 30
0.0000000001127424
 70
    32
  0
VERTEX
  5
1B791
  8
01
 10
2648.005125914852
 20
-570.5830903807491
 30
0.0000000001127424
 70
    32
  0
VERTEX
  5
1B792
  8
01
 10
2648.005101623817
 20
-570.5827872048864
 30
0.0000000001127424
 70
    32
  0
VERTEX
  5
1B793
  8
01
 10
2648.005077332782
 20
-570.5824840290236
 30
0.0000000001127424
 70
    32
  0
VERTEX
  5
1B794
  8
01
 10
2648.005053041747
 20
-570.5821808531607
 30
0.0000000001127424
 70
    32
  0
VERTEX
  5
1B795
  8
01
 10
2648.005028750712
 20
-570.5818776772978
 30
0.0000000001127424
 70
    32
  0
VERTEX
  5
1B796
  8
01
 10
2648.005004459677
 20
-570.5815745014351
 30
0.0000000001127424
 70
    32
  0
VERTEX
  5
1B797
  8
01
 10
2648.004980168642
 20
-570.5812713255722
 30
0.0000000001127424
 70
    32
  0
VERTEX
  5
1B798
  8
01
 10
2648.004955877607
 20
-570.5809681497094
 30
0.0000000001127424
 70
    32
  0
VERTEX
  5
1B799
  8
01
 10
2648.004931586572
 20
-570.5806649738465
 30
0.0000000001127424
 70
    32
  0
VERTEX
  5
1B79A
  8
01
 10
2648.004907295537
 20
-570.5803617979836
 30
0.0000000001127424
 70
    32
  0
VERTEX
  5
1B79B
  8
01
 10
2648.004883004502
 20
-570.5800586221208
 30
0.0000000001127424
 70
    32
  0
VERTEX
  5
1B79C
  8
01
 10
2648.004858713467
 20
-570.5797554462579
 30
0.0000000001127424
 70
    32
  0
SEQEND
  5
1B9CD
  8
01
  0
LINE
  5
1AD90
  8
01
 10
2664.225732122476
 20
-562.7027324812925
 30
0.0000000001127424
 11
2664.225732122476
 21
-612.7027324812934
 31
0.0000000001127424
  0
LINE
  5
1AD91
  8
01
 10
2668.225732122476
 20
-562.7027324812925
 30
0.0000000001127424
 11
2668.225732122476
 21
-612.7027324812934
 31
0.0000000001127424
  0
LINE
  5
1AD92
  8
01
 10
2664.225732122476
 20
-612.7027324812934
 30
0.0000000001127424
 11
2668.225732122476
 21
-612.7027324812934
 31
0.0000000001127424
  0
LINE
  5
1AD93
  8
01
 10
2664.225732122476
 20
-562.7027324812925
 30
0.0000000001127424
 11
2668.225732122476
 21
-562.7027324812925
 31
0.0000000001127424
  0
ARC
  5
1AD94
  8
01
 10
2602.068434747903
 20
-662.8024023349371
 30
0.0000000001127424
 40
74.97979918721913
 50
61.97637008316968
 51
81.39122729365309
  0
ARC
  5
1AD95
  8
01
 10
2575.320631098398
 20
-719.5286894441042
 30
0.0000000001127424
 40
137.6558010829148
 50
54.66489165089928
 51
63.24192381831256
  0
ARC
  5
1AD96
  8
01
 10
2685.57443818153
 20
-565.8268489921365
 30
0.0000000001127424
 40
51.50840420052681
 50
233.4984023672976
 51
245.5140339849193
  0
ARC
  5
1AD97
  8
01
 10
2627.6305963731
 20
-564.5998870359463
 30
0.0000000001127424
 40
10.55957840464655
 50
267.652672010516
 51
275.2935122885235
  0
ARC
  5
1AD98
  8
01
 10
2622.177400970221
 20
-492.0127799632583
 30
0.0000000001127424
 40
83.34983966754666
 50
274.4226697118633
 51
282.6125935486763
  0
ARC
  5
1AD99
  8
01
 10
2181.360139188987
 20
404.5898138871571
 30
0.0000000001127424
 40
1081.047914932037
 50
295.5055471758428
 51
295.9808108382113
  0
ARC
  5
1AD9A
  8
01
 10
2631.275239118248
 20
-536.6517477304869
 30
0.0000000001127424
 40
37.81146723568217
 50
283.9294579574196
 51
294.3374594454446
  0
ARC
  5
1AD9B
  8
01
 10
-13127.77566679673
 20
31989.9316268443
 30
0.0000000001127424
 40
36180.95233566153
 50
295.8626955977064
 51
295.8790472080691
  0
ARC
  5
1AD9C
  8
01
 10
2642.577723878413
 20
-610.1809736592477
 30
0.0000000001127424
 40
39.4095161311463
 50
124.9494716059974
 51
138.4379381523328
  0
ARC
  5
1AD9D
  8
01
 10
2636.010239892289
 20
-602.5758588863146
 30
0.0000000001127424
 40
29.43162331184761
 50
104.8214688106003
 51
122.9507961508658
  0
ARC
  5
1AD9E
  8
01
 10
2640.500598235966
 20
-609.5761026660393
 30
0.0000000001127424
 40
37.46547413852948
 50
137.0225196639014
 51
139.8566238605241
  0
ARC
  5
1AD9F
  8
01
 10
2627.263758624521
 20
-573.883432542746
 30
0.0000000001127424
 40
1.268871991168467
 50
255.8218718063744
 51
267.0341481340149
  0
ARC
  5
1ADA0
  8
01
 10
2627.015624569724
 20
-574.8732442623359
 30
0.0000000001127424
 40
0.248440728366443
 50
233.8213853016398
 51
255.3914857952527
  0
ARC
  5
1ADA1
  8
01
 10
2626.901381603418
 20
-575.0320447412787
 30
0.0000000001127424
 40
0.052843953261427
 50
190.6281262576355
 51
232.1666956883524
  0
ARC
  5
1ADA2
  8
01
 10
2626.900354630129
 20
-575.035415499643
 30
0.0000000001127424
 40
0.0513080807641571
 50
157.7586854436778
 51
187.1379259544985
  0
LINE
  5
1ADA3
  8
01
 10
2626.865184441477
 20
-575.0040420238993
 30
0.0000000001127424
 11
2628.481394898784
 21
-574.1234961753853
 31
0.0000000001127424
  0
ARC
  5
1ADA4
  8
01
 10
2626.886217676715
 20
-575.0380480896592
 30
0.0000000001127424
 40
0.0399851158945239
 50
121.737380337963
 51
146.5277289697559
  0
ARC
  5
1ADA5
  8
01
 10
2621.100494152778
 20
-506.8223025313664
 30
0.0000000001127424
 40
67.70471447197825
 50
276.2585984589597
 51
281.299321230454
  0
ARC
  5
1ADA6
  8
01
 10
2638.807073931052
 20
-603.2137794077707
 30
0.0000000001127424
 40
30.32600447172325
 50
90.86712512806716
 51
98.42057688123103
  0
ARC
  5
1ADA7
  8
01
 10
2638.757296726711
 20
-575.7923326435748
 30
0.0000000001127424
 40
2.929796701681882
 50
56.42670905881526
 51
98.0279617979048
  0
ARC
  5
1ADA8
  8
01
 10
2613.423031422012
 20
-586.6144344301374
 30
0.0000000001127424
 40
1.996953838373148
 50
185.0692279951552
 51
229.9059591928501
  0
ARC
  5
1ADA9
  8
01
 10
2613.361640002385
 20
-586.6411395542955
 30
0.0000000001127424
 40
1.933558857340185
 50
141.253757707365
 51
184.44171711971
  0
ARC
  5
1ADAA
  8
01
 10
2613.417818033163
 20
-586.85804900123
 30
0.0000000001127424
 40
1.813691215017145
 50
225.0696732533789
 51
266.019462250266
  0
LINE
  5
1ADAB
  8
01
 10
2669.925732122475
 20
-610.2028073801976
 30
0.0000000001127424
 11
2668.225732122476
 21
-610.2028073801976
 31
0.0000000001127424
  0
LINE
  5
1ADAC
  8
01
 10
2669.925732122475
 20
-565.2028073801976
 30
0.0000000001127424
 11
2668.225732122476
 21
-565.2028073801976
 31
0.0000000001127424
  0
POLYLINE
  5
1ADAD
  8
01
 10
0.0
 20
0.0
 30
0.0
 66
     1
 70
     8
  0
VERTEX
  5
1B79D
  8
01
 10
2648.005247370026
 20
-570.5846062600631
 30
0.0000000001127424
 70
    32
  0
VERTEX
  5
1B79E
  8
01
 10
2648.005223078992
 20
-570.5843030842002
 30
0.0000000001127424
 70
    32
  0
VERTEX
  5
1B79F
  8
01
 10
2648.005198787956
 20
-570.5839999083375
 30
0.0000000001127424
 70
    32
  0
VERTEX
  5
1B7A0
  8
01
 10
2648.005174496921
 20
-570.5836967324748
 30
0.0000000001127424
 70
    32
  0
VERTEX
  5
1B7A1
  8
01
 10
2648.005150205887
 20
-570.583393556612
 30
0.0000000001127424
 70
    32
  0
VERTEX
  5
1B7A2
  8
01
 10
2648.005125914852
 20
-570.5830903807491
 30
0.0000000001127424
 70
    32
  0
VERTEX
  5
1B7A3
  8
01
 10
2648.005101623817
 20
-570.5827872048864
 30
0.0000000001127424
 70
    32
  0
VERTEX
  5
1B7A4
  8
01
 10
2648.005077332782
 20
-570.5824840290236
 30
0.0000000001127424
 70
    32
  0
VERTEX
  5
1B7A5
  8
01
 10
2648.005053041747
 20
-570.5821808531607
 30
0.0000000001127424
 70
    32
  0
VERTEX
  5
1B7A6
  8
01
 10
2648.005028750712
 20
-570.5818776772978
 30
0.0000000001127424
 70
    32
  0
VERTEX
  5
1B7A7
  8
01
 10
2648.005004459677
 20
-570.5815745014351
 30
0.0000000001127424
 70
    32
  0
VERTEX
  5
1B7A8
  8
01
 10
2648.004980168642
 20
-570.5812713255722
 30
0.0000000001127424
 70
    32
  0
VERTEX
  5
1B7A9
  8
01
 10
2648.004955877607
 20
-570.5809681497094
 30
0.0000000001127424
 70
    32
  0
VERTEX
  5
1B7AA
  8
01
 10
2648.004931586572
 20
-570.5806649738465
 30
0.0000000001127424
 70
    32
  0
VERTEX
  5
1B7AB
  8
01
 10
2648.004907295537
 20
-570.5803617979836
 30
0.0000000001127424
 70
    32
  0
VERTEX
  5
1B7AC
  8
01
 10
2648.004883004502
 20
-570.5800586221208
 30
0.0000000001127424
 70
    32
  0
VERTEX
  5
1B7AD
  8
01
 10
2648.004858713467
 20
-570.5797554462579
 30
0.0000000001127424
 70
    32
  0
SEQEND
  5
1B9CE
  8
01
  0
POLYLINE
  5
1ADAE
  8
01
 10
0.0
 20
0.0
 30
0.0
 66
     1
 70
     8
  0
VERTEX
  5
1B7AE
  8
01
 10
2648.005247370026
 20
-570.5846062600631
 30
0.0000000001127424
 70
    32
  0
VERTEX
  5
1B7AF
  8
01
 10
2648.005223078992
 20
-570.5843030842002
 30
0.0000000001127424
 70
    32
  0
VERTEX
  5
1B7B0
  8
01
 10
2648.005198787956
 20
-570.5839999083375
 30
0.0000000001127424
 70
    32
  0
VERTEX
  5
1B7B1
  8
01
 10
2648.005174496921
 20
-570.5836967324748
 30
0.0000000001127424
 70
    32
  0
VERTEX
  5
1B7B2
  8
01
 10
2648.005150205887
 20
-570.583393556612
 30
0.0000000001127424
 70
    32
  0
VERTEX
  5
1B7B3
  8
01
 10
2648.005125914852
 20
-570.5830903807491
 30
0.0000000001127424
 70
    32
  0
VERTEX
  5
1B7B4
  8
01
 10
2648.005101623817
 20
-570.5827872048864
 30
0.0000000001127424
 70
    32
  0
VERTEX
  5
1B7B5
  8
01
 10
2648.005077332782
 20
-570.5824840290236
 30
0.0000000001127424
 70
    32
  0
VERTEX
  5
1B7B6
  8
01
 10
2648.005053041747
 20
-570.5821808531607
 30
0.0000000001127424
 70
    32
  0
VERTEX
  5
1B7B7
  8
01
 10
2648.005028750712
 20
-570.5818776772978
 30
0.0000000001127424
 70
    32
  0
VERTEX
  5
1B7B8
  8
01
 10
2648.005004459677
 20
-570.5815745014351
 30
0.0000000001127424
 70
    32
  0
VERTEX
  5
1B7B9
  8
01
 10
2648.004980168642
 20
-570.5812713255722
 30
0.0000000001127424
 70
    32
  0
VERTEX
  5
1B7BA
  8
01
 10
2648.004955877607
 20
-570.5809681497094
 30
0.0000000001127424
 70
    32
  0
VERTEX
  5
1B7BB
  8
01
 10
2648.004931586572
 20
-570.5806649738465
 30
0.0000000001127424
 70
    32
  0
VERTEX
  5
1B7BC
  8
01
 10
2648.004907295537
 20
-570.5803617979836
 30
0.0000000001127424
 70
    32
  0
VERTEX
  5
1B7BD
  8
01
 10
2648.004883004502
 20
-570.5800586221208
 30
0.0000000001127424
 70
    32
  0
VERTEX
  5
1B7BE
  8
01
 10
2648.004858713467
 20
-570.5797554462579
 30
0.0000000001127424
 70
    32
  0
SEQEND
  5
1B9CF
  8
01
  0
POLYLINE
  5
1ADAF
  8
01
 10
0.0
 20
0.0
 30
0.0
 66
     1
 70
     8
  0
VERTEX
  5
1B7BF
  8
01
 10
2648.005247370026
 20
-570.5846062600631
 30
0.0000000001127424
 70
    32
  0
VERTEX
  5
1B7C0
  8
01
 10
2648.005223078992
 20
-570.5843030842002
 30
0.0000000001127424
 70
    32
  0
VERTEX
  5
1B7C1
  8
01
 10
2648.005198787956
 20
-570.5839999083375
 30
0.0000000001127424
 70
    32
  0
VERTEX
  5
1B7C2
  8
01
 10
2648.005174496921
 20
-570.5836967324748
 30
0.0000000001127424
 70
    32
  0
VERTEX
  5
1B7C3
  8
01
 10
2648.005150205887
 20
-570.583393556612
 30
0.0000000001127424
 70
    32
  0
VERTEX
  5
1B7C4
  8
01
 10
2648.005125914852
 20
-570.5830903807491
 30
0.0000000001127424
 70
    32
  0
VERTEX
  5
1B7C5
  8
01
 10
2648.005101623817
 20
-570.5827872048864
 30
0.0000000001127424
 70
    32
  0
VERTEX
  5
1B7C6
  8
01
 10
2648.005077332782
 20
-570.5824840290236
 30
0.0000000001127424
 70
    32
  0
VERTEX
  5
1B7C7
  8
01
 10
2648.005053041747
 20
-570.5821808531607
 30
0.0000000001127424
 70
    32
  0
VERTEX
  5
1B7C8
  8
01
 10
2648.005028750712
 20
-570.5818776772978
 30
0.0000000001127424
 70
    32
  0
VERTEX
  5
1B7C9
  8
01
 10
2648.005004459677
 20
-570.5815745014351
 30
0.0000000001127424
 70
    32
  0
VERTEX
  5
1B7CA
  8
01
 10
2648.004980168642
 20
-570.5812713255722
 30
0.0000000001127424
 70
    32
  0
VERTEX
  5
1B7CB
  8
01
 10
2648.004955877607
 20
-570.5809681497094
 30
0.0000000001127424
 70
    32
  0
VERTEX
  5
1B7CC
  8
01
 10
2648.004931586572
 20
-570.5806649738465
 30
0.0000000001127424
 70
    32
  0
VERTEX
  5
1B7CD
  8
01
 10
2648.004907295537
 20
-570.5803617979836
 30
0.0000000001127424
 70
    32
  0
VERTEX
  5
1B7CE
  8
01
 10
2648.004883004502
 20
-570.5800586221208
 30
0.0000000001127424
 70
    32
  0
VERTEX
  5
1B7CF
  8
01
 10
2648.004858713467
 20
-570.5797554462579
 30
0.0000000001127424
 70
    32
  0
SEQEND
  5
1B9D0
  8
01
  0
POLYLINE
  5
1ADB0
  8
01
 10
0.0
 20
0.0
 30
0.0
 66
     1
 70
     8
  0
VERTEX
  5
1B7D0
  8
01
 10
2648.005247370026
 20
-570.5846062600631
 30
0.0000000001127424
 70
    32
  0
VERTEX
  5
1B7D1
  8
01
 10
2648.005223078992
 20
-570.5843030842002
 30
0.0000000001127424
 70
    32
  0
VERTEX
  5
1B7D2
  8
01
 10
2648.005198787956
 20
-570.5839999083375
 30
0.0000000001127424
 70
    32
  0
VERTEX
  5
1B7D3
  8
01
 10
2648.005174496921
 20
-570.5836967324748
 30
0.0000000001127424
 70
    32
  0
VERTEX
  5
1B7D4
  8
01
 10
2648.005150205887
 20
-570.583393556612
 30
0.0000000001127424
 70
    32
  0
VERTEX
  5
1B7D5
  8
01
 10
2648.005125914852
 20
-570.5830903807491
 30
0.0000000001127424
 70
    32
  0
VERTEX
  5
1B7D6
  8
01
 10
2648.005101623817
 20
-570.5827872048864
 30
0.0000000001127424
 70
    32
  0
VERTEX
  5
1B7D7
  8
01
 10
2648.005077332782
 20
-570.5824840290236
 30
0.0000000001127424
 70
    32
  0
VERTEX
  5
1B7D8
  8
01
 10
2648.005053041747
 20
-570.5821808531607
 30
0.0000000001127424
 70
    32
  0
VERTEX
  5
1B7D9
  8
01
 10
2648.005028750712
 20
-570.5818776772978
 30
0.0000000001127424
 70
    32
  0
VERTEX
  5
1B7DA
  8
01
 10
2648.005004459677
 20
-570.5815745014351
 30
0.0000000001127424
 70
    32
  0
VERTEX
  5
1B7DB
  8
01
 10
2648.004980168642
 20
-570.5812713255722
 30
0.0000000001127424
 70
    32
  0
VERTEX
  5
1B7DC
  8
01
 10
2648.004955877607
 20
-570.5809681497094
 30
0.0000000001127424
 70
    32
  0
VERTEX
  5
1B7DD
  8
01
 10
2648.004931586572
 20
-570.5806649738465
 30
0.0000000001127424
 70
    32
  0
VERTEX
  5
1B7DE
  8
01
 10
2648.004907295537
 20
-570.5803617979836
 30
0.0000000001127424
 70
    32
  0
VERTEX
  5
1B7DF
  8
01
 10
2648.004883004502
 20
-570.5800586221208
 30
0.0000000001127424
 70
    32
  0
VERTEX
  5
1B7E0
  8
01
 10
2648.004858713467
 20
-570.5797554462579
 30
0.0000000001127424
 70
    32
  0
SEQEND
  5
1B9D1
  8
01
  0
POLYLINE
  5
1ADB1
  8
01
 10
0.0
 20
0.0
 30
0.0
 66
     1
 70
     8
  0
VERTEX
  5
1B7E1
  8
01
 10
2648.005247370026
 20
-570.5846062600631
 30
0.0000000001127424
 70
    32
  0
VERTEX
  5
1B7E2
  8
01
 10
2648.005223078992
 20
-570.5843030842002
 30
0.0000000001127424
 70
    32
  0
VERTEX
  5
1B7E3
  8
01
 10
2648.005198787956
 20
-570.5839999083375
 30
0.0000000001127424
 70
    32
  0
VERTEX
  5
1B7E4
  8
01
 10
2648.005174496921
 20
-570.5836967324748
 30
0.0000000001127424
 70
    32
  0
VERTEX
  5
1B7E5
  8
01
 10
2648.005150205887
 20
-570.583393556612
 30
0.0000000001127424
 70
    32
  0
VERTEX
  5
1B7E6
  8
01
 10
2648.005125914852
 20
-570.5830903807491
 30
0.0000000001127424
 70
    32
  0
VERTEX
  5
1B7E7
  8
01
 10
2648.005101623817
 20
-570.5827872048864
 30
0.0000000001127424
 70
    32
  0
VERTEX
  5
1B7E8
  8
01
 10
2648.005077332782
 20
-570.5824840290236
 30
0.0000000001127424
 70
    32
  0
VERTEX
  5
1B7E9
  8
01
 10
2648.005053041747
 20
-570.5821808531607
 30
0.0000000001127424
 70
    32
  0
VERTEX
  5
1B7EA
  8
01
 10
2648.005028750712
 20
-570.5818776772978
 30
0.0000000001127424
 70
    32
  0
VERTEX
  5
1B7EB
  8
01
 10
2648.005004459677
 20
-570.5815745014351
 30
0.0000000001127424
 70
    32
  0
VERTEX
  5
1B7EC
  8
01
 10
2648.004980168642
 20
-570.5812713255722
 30
0.0000000001127424
 70
    32
  0
VERTEX
  5
1B7ED
  8
01
 10
2648.004955877607
 20
-570.5809681497094
 30
0.0000000001127424
 70
    32
  0
VERTEX
  5
1B7EE
  8
01
 10
2648.004931586572
 20
-570.5806649738465
 30
0.0000000001127424
 70
    32
  0
VERTEX
  5
1B7EF
  8
01
 10
2648.004907295537
 20
-570.5803617979836
 30
0.0000000001127424
 70
    32
  0
VERTEX
  5
1B7F0
  8
01
 10
2648.004883004502
 20
-570.5800586221208
 30
0.0000000001127424
 70
    32
  0
VERTEX
  5
1B7F1
  8
01
 10
2648.004858713467
 20
-570.5797554462579
 30
0.0000000001127424
 70
    32
  0
SEQEND
  5
1B9D2
  8
01
  0
POLYLINE
  5
1ADB2
  8
01
 10
0.0
 20
0.0
 30
0.0
 66
     1
 70
     8
  0
VERTEX
  5
1B7F2
  8
01
 10
2648.005247370026
 20
-570.5846062600631
 30
0.0000000001127424
 70
    32
  0
VERTEX
  5
1B7F3
  8
01
 10
2648.005223078992
 20
-570.5843030842002
 30
0.0000000001127424
 70
    32
  0
VERTEX
  5
1B7F4
  8
01
 10
2648.005198787956
 20
-570.5839999083375
 30
0.0000000001127424
 70
    32
  0
VERTEX
  5
1B7F5
  8
01
 10
2648.005174496921
 20
-570.5836967324748
 30
0.0000000001127424
 70
    32
  0
VERTEX
  5
1B7F6
  8
01
 10
2648.005150205887
 20
-570.583393556612
 30
0.0000000001127424
 70
    32
  0
VERTEX
  5
1B7F7
  8
01
 10
2648.005125914852
 20
-570.5830903807491
 30
0.0000000001127424
 70
    32
  0
VERTEX
  5
1B7F8
  8
01
 10
2648.005101623817
 20
-570.5827872048864
 30
0.0000000001127424
 70
    32
  0
VERTEX
  5
1B7F9
  8
01
 10
2648.005077332782
 20
-570.5824840290236
 30
0.0000000001127424
 70
    32
  0
VERTEX
  5
1B7FA
  8
01
 10
2648.005053041747
 20
-570.5821808531607
 30
0.0000000001127424
 70
    32
  0
VERTEX
  5
1B7FB
  8
01
 10
2648.005028750712
 20
-570.5818776772978
 30
0.0000000001127424
 70
    32
  0
VERTEX
  5
1B7FC
  8
01
 10
2648.005004459677
 20
-570.5815745014351
 30
0.0000000001127424
 70
    32
  0
VERTEX
  5
1B7FD
  8
01
 10
2648.004980168642
 20
-570.5812713255722
 30
0.0000000001127424
 70
    32
  0
VERTEX
  5
1B7FE
  8
01
 10
2648.004955877607
 20
-570.5809681497094
 30
0.0000000001127424
 70
    32
  0
VERTEX
  5
1B7FF
  8
01
 10
2648.004931586572
 20
-570.5806649738465
 30
0.0000000001127424
 70
    32
  0
VERTEX
  5
1B800
  8
01
 10
2648.004907295537
 20
-570.5803617979836
 30
0.0000000001127424
 70
    32
  0
VERTEX
  5
1B801
  8
01
 10
2648.004883004502
 20
-570.5800586221208
 30
0.0000000001127424
 70
    32
  0
VERTEX
  5
1B802
  8
01
 10
2648.004858713467
 20
-570.5797554462579
 30
0.0000000001127424
 70
    32
  0
SEQEND
  5
1B9D3
  8
01
  0
POLYLINE
  5
1ADB3
  8
01
 10
0.0
 20
0.0
 30
0.0
 66
     1
 70
     8
  0
VERTEX
  5
1B803
  8
01
 10
2648.005247370026
 20
-570.5846062600631
 30
0.0000000001127424
 70
    32
  0
VERTEX
  5
1B804
  8
01
 10
2648.005223078992
 20
-570.5843030842002
 30
0.0000000001127424
 70
    32
  0
VERTEX
  5
1B805
  8
01
 10
2648.005198787956
 20
-570.5839999083375
 30
0.0000000001127424
 70
    32
  0
VERTEX
  5
1B806
  8
01
 10
2648.005174496921
 20
-570.5836967324748
 30
0.0000000001127424
 70
    32
  0
VERTEX
  5
1B807
  8
01
 10
2648.005150205887
 20
-570.583393556612
 30
0.0000000001127424
 70
    32
  0
VERTEX
  5
1B808
  8
01
 10
2648.005125914852
 20
-570.5830903807491
 30
0.0000000001127424
 70
    32
  0
VERTEX
  5
1B809
  8
01
 10
2648.005101623817
 20
-570.5827872048864
 30
0.0000000001127424
 70
    32
  0
VERTEX
  5
1B80A
  8
01
 10
2648.005077332782
 20
-570.5824840290236
 30
0.0000000001127424
 70
    32
  0
VERTEX
  5
1B80B
  8
01
 10
2648.005053041747
 20
-570.5821808531607
 30
0.0000000001127424
 70
    32
  0
VERTEX
  5
1B80C
  8
01
 10
2648.005028750712
 20
-570.5818776772978
 30
0.0000000001127424
 70
    32
  0
VERTEX
  5
1B80D
  8
01
 10
2648.005004459677
 20
-570.5815745014351
 30
0.0000000001127424
 70
    32
  0
VERTEX
  5
1B80E
  8
01
 10
2648.004980168642
 20
-570.5812713255722
 30
0.0000000001127424
 70
    32
  0
VERTEX
  5
1B80F
  8
01
 10
2648.004955877607
 20
-570.5809681497094
 30
0.0000000001127424
 70
    32
  0
VERTEX
  5
1B810
  8
01
 10
2648.004931586572
 20
-570.5806649738465
 30
0.0000000001127424
 70
    32
  0
VERTEX
  5
1B811
  8
01
 10
2648.004907295537
 20
-570.5803617979836
 30
0.0000000001127424
 70
    32
  0
VERTEX
  5
1B812
  8
01
 10
2648.004883004502
 20
-570.5800586221208
 30
0.0000000001127424
 70
    32
  0
VERTEX
  5
1B813
  8
01
 10
2648.004858713467
 20
-570.5797554462579
 30
0.0000000001127424
 70
    32
  0
SEQEND
  5
1B9D4
  8
01
  0
LINE
  5
1ADB4
  8
01
 10
2669.925732122475
 20
-565.2028073801976
 30
0.0000000001127424
 11
2669.925732122475
 21
-610.2028073801976
 31
0.0000000001127424
  0
LINE
  5
1ADB5
  8
01
 10
2506.0836138524
 20
-589.4874245531073
 30
0.0000000001127424
 11
2423.989353591481
 21
-588.5938756978549
 31
0.0000000001127424
  0
LINE
  5
1ADB6
  8
01
 10
2505.763520628342
 20
-575.1465254341028
 30
0.0000000001127424
 11
2423.987210909944
 21
-572.961004865193
 31
0.0000000001127424
  0
ARC
  5
1ADB7
  8
01
 10
2519.925732122475
 20
-587.7028073801976
 30
0.0000000001127424
 40
24.99979096596576
 50
183.8159450626858
 51
149.3293321803546
  0
ARC
  5
1ADB8
  8
01
 10
2519.74939177674
 20
-593.3613915338055
 30
0.0000000001127424
 40
29.51711322463888
 50
115.080659307837
 51
121.8309803400606
  0
ARC
  5
1ADB9
  8
01
 10
2513.923938808634
 20
-581.0069986335775
 30
0.0000000001127424
 40
15.85826769269537
 50
102.5664197723256
 51
114.9389114331406
  0
ARC
  5
1ADBA
  8
01
 10
2512.159221722784
 20
-573.4508247180374
 30
0.0000000001127424
 40
8.099534243652876
 50
78.76030635231065
 51
102.0115563561063
  0
ARC
  5
1ADBB
  8
01
 10
2511.35863054005
 20
-576.3845000410383
 30
0.0000000001127424
 40
11.13503455607863
 50
53.59028312162563
 51
77.66206717022331
  0
ARC
  5
1ADBC
  8
01
 10
2514.878586050524
 20
-571.8477177292125
 30
0.0000000001127424
 40
5.396391158680872
 50
13.72995776987091
 51
55.07693742677935
  0
ARC
  5
1ADBD
  8
01
 10
2515.88715215213
 20
-571.5630795391617
 30
0.0000000001127424
 40
4.349245370029341
 50
357.324666376044
 51
13.24087098958671
  0
ARC
  5
1ADBE
  8
01
 10
2517.668102035404
 20
-571.6867129271632
 30
0.0000000001127424
 40
2.564783586505675
 50
331.6935918637196
 51
358.2265522835368
  0
ARC
  5
1ADBF
  8
01
 10
2507.829680900576
 20
-518.240581010441
 30
0.0000000001127424
 40
56.94344149258469
 50
267.9205988974863
 51
278.0849286292139
  0
ARC
  5
1ADC0
  8
01
 10
2517.338963048404
 20
-571.1146382663765
 30
0.0000000001127424
 40
3.145102773129
 50
281.535222775525
 51
325.348329695884
  0
ARC
  5
1ADC1
  8
01
 10
2513.980446279952
 20
-559.6519752666
 30
0.0000000001127424
 40
15.08093668083644
 50
277.0761872456318
 51
285.3314782045515
  0
ARC
  5
1ADC2
  8
01
 10
2419.297739594335
 20
-692.0531072176191
 30
0.0000000001127424
 40
119.1843948843166
 50
87.74503792698465
 51
94.78724667858097
  0
ARC
  5
1ADC3
  8
01
 10
2411.790031030017
 20
-605.8411235975409
 30
0.0000000001127424
 40
32.64785966672855
 50
94.28425498062074
 51
106.5803109969807
  0
ARC
  5
1ADC4
  8
01
 10
2425.580632293294
 20
-480.7130880370378
 30
0.0000000001127424
 40
107.8925229764554
 50
261.3485416296159
 51
269.1549288414873
  0
ARC
  5
1ADC5
  8
01
 10
2413.370714472997
 20
-555.4191351984855
 30
0.0000000001127424
 40
32.21063361533734
 50
250.2263103155129
 51
262.831251392103
  0
ARC
  5
1ADC6
  8
01
 10
2406.448950735769
 20
-592.9660149274614
 30
0.0000000001127424
 40
18.83945955420323
 50
102.1814448968919
 51
122.8795872201293
  0
ARC
  5
1ADC7
  8
01
 10
2407.492736878653
 20
-567.4862527824962
 30
0.0000000001127424
 40
18.92204771753521
 50
233.4397150227565
 51
254.6182092025084
  0
ARC
  5
1ADC8
  8
01
 10
2398.524404059267
 20
-579.9170528768091
 30
0.0000000001127424
 40
3.600712235186706
 50
179.4438319266212
 51
230.2397660542046
  0
ARC
  5
1ADC9
  8
01
 10
2398.32210665671
 20
-579.8164124527111
 30
0.0000000001127424
 40
3.398880028698698
 50
128.1729112081738
 51
181.1074048279137
  0
LINE
  5
1ADCA
  8
01
 10
2487.713062277563
 20
-587.951609386113
 30
0.0000000001127424
 11
2423.989353591477
 21
-588.5938756978549
 31
0.0000000001127424
  0
ARC
  5
1ADCB
  8
01
 10
2493.889526270151
 20
-1373.535407086373
 30
0.0000000001127424
 40
785.6080778076408
 50
88.96716846853423
 51
90.45046502810717
  0
ARC
  5
1ADCC
  8
01
 10
2500.077688124648
 20
-704.622074412212
 30
0.0000000001127424
 40
116.8394382932455
 50
81.46569590921149
 51
86.08730975270431
  0
ARC
  5
1ADCD
  8
01
 10
2512.118501710223
 20
-615.3181143634301
 30
0.0000000001127424
 40
26.77127486492728
 50
64.99335655355682
 51
78.5851565599564
  0
ARC
  5
1ADCE
  8
01
 10
2519.949321805329
 20
-599.6124510356431
 30
0.0000000001127424
 40
9.23894837916856
 50
42.14279980735831
 51
67.83233959976079
  0
ARC
  5
1ADCF
  8
01
 10
2519.863895545429
 20
-598.793337920225
 30
0.0000000001127424
 40
8.77788172044793
 50
7.662988097679852
 51
37.80014194772417
  0
ARC
  5
1ADD0
  8
01
 10
2516.992252550715
 20
-599.6364378798071
 30
0.0000000001127424
 40
11.74502933276003
 50
345.8306852090835
 51
9.871690768980892
  0
ARC
  5
1ADD1
  8
01
 10
2517.38381236353
 20
-599.5650273984566
 30
0.0000000001127424
 40
11.38405962301786
 50
319.9534576497223
 51
344.9997753237635
  0
ARC
  5
1ADD2
  8
01
 10
2516.077022535866
 20
-598.8640727924303
 30
0.0000000001127424
 40
12.83904139673257
 50
290.4064153573569
 51
321.3111364477961
  0
ARC
  5
1ADD3
  8
01
 10
2515.522488355588
 20
-591.6992088148754
 30
0.0000000001127424
 40
19.84647679739424
 50
256.1970681715521
 51
284.6851111710645
  0
ARC
  5
1ADD4
  8
01
 10
2518.825552958727
 20
-606.5717122718279
 30
0.0000000001127424
 40
2.778981984552072
 50
74.14872525278386
 51
98.90837002113446
  0
ARC
  5
1ADD5
  8
01
 10
2518.598964217422
 20
-605.0563709418611
 30
0.0000000001127424
 40
1.246878291068781
 50
99.40475608025419
 51
134.9149620976443
  0
ARC
  5
1ADD6
  8
01
 10
2518.652872369385
 20
-604.9770337882846
 30
0.0000000001127424
 40
1.232362359911368
 50
139.2984657511671
 51
189.8072898165616
  0
ARC
  5
1ADD7
  8
01
 10
2518.389953784118
 20
-608.3732669614938
 30
0.0000000001127424
 40
4.631586763479185
 50
52.4717928217903
 51
75.05236296371154
  0
ARC
  5
1ADD8
  8
01
 10
2519.084131373039
 20
-607.5454445194855
 30
0.0000000001127424
 40
3.552520702786541
 50
30.64114269676199
 51
53.21774915766423
  0
ARC
  5
1ADD9
  8
01
 10
2520.518128459248
 20
-606.7308410419373
 30
0.0000000001127424
 40
1.903809481831612
 50
354.9979874551551
 51
31.54357455622682
  0
ARC
  5
1ADDA
  8
01
 10
2520.297028963773
 20
-604.7621018975124
 30
0.0000000001127424
 40
2.889908447323687
 50
188.453705955109
 51
212.4213441604217
  0
ARC
  5
1ADDB
  8
01
 10
2521.471457883886
 20
-604.1015998490029
 30
0.0000000001127424
 40
4.236013342244362
 50
211.4459274564218
 51
231.3567311383077
  0
ARC
  5
1ADDC
  8
01
 10
2521.07788398546
 20
-606.7365677303378
 30
0.0000000001127424
 40
1.346376446120278
 50
305.3277457675563
 51
353.1635039422467
  0
ARC
  5
1ADDD
  8
01
 10
2521.018679088834
 20
-604.7379652218469
 30
0.0000000001127424
 40
3.45651100728506
 50
230.631530635568
 51
256.9311281712542
  0
ARC
  5
1ADDE
  8
01
 10
2520.848046531183
 20
-606.4061314185738
 30
0.0000000001127424
 40
1.748873214865161
 50
277.9653127474504
 51
305.2110796864671
  0
ARC
  5
1ADDF
  8
01
 10
2520.754992579757
 20
-605.7749363126723
 30
0.0000000001127424
 40
2.386878064591476
 50
257.4682279798956
 51
278.0778753014807
  0
LINE
  5
1B07A
  8
1CENTER
 10
2655.425732122475
 20
-612.7027324812934
 30
0.0000000001127424
 11
2655.425732122475
 21
-594.7028073801976
 31
0.0000000001127424
  0
TEXT
  5
1B4A5
  8
01
  6
CONTINUOUS
 10
2770.928660536004
 20
-382.7041256943289
 30
0.0000000001127424
 40
4.55
  1
材質：亜鉛ダイキャスト
  0
LINE
  5
1B4A6
  8
01
 10
2797.925499442986
 20
-559.7041263914316
 30
0.0000000001127424
 11
2797.925499442986
 21
-456.9826336086123
 31
0.0000000001127424
1001
ACAD
1000
DSTYLE
1002
{
1070
    40
1040
1.3
1070
    45
1040
0.5
1002
}
  0
LINE
  5
1B4A7
  8
01
 10
2808.925499442986
 20
-501.8328083421427
 30
0.0000000001127424
 11
2808.925499442986
 21
-456.9826336086123
 31
0.0000000001127424
1001
ACAD
1000
DSTYLE
1002
{
1070
    40
1040
1.3
1070
    45
1040
0.5
1002
}
  0
LINE
  5
1B4A8
  8
01
 10
2800.525499442986
 20
-458.2826336086123
 30
0.0000000001127424
 11
2806.325499442986
 21
-458.2826336086123
 31
0.0000000001127424
1001
ACAD
1000
DSTYLE
1002
{
1070
    40
1040
1.3
1070
    45
1040
0.5
1002
}
  0
LINE
  5
1B4AC
  8
01
 10
2877.925499442986
 20
-529.7041256933003
 30
0.0000000001127424
 11
2906.225499442986
 21
-529.7041256933003
 31
0.0000000001127424
1001
ACAD
1000
DSTYLE
1002
{
1070
    40
1040
1.3
1070
    45
1040
0.5
1002
}
  0
LINE
  5
1B4AD
  8
01
 10
2877.925499442986
 20
-603.7041256933007
 30
0.0000000001127424
 11
2906.225499442986
 21
-603.7041256933007
 31
0.0000000001127424
1001
ACAD
1000
DSTYLE
1002
{
1070
    40
1040
1.3
1070
    45
1040
0.5
1002
}
  0
LINE
  5
1B4AE
  8
01
 10
2904.925499442986
 20
-532.3041256933003
 30
0.0000000001127424
 11
2904.925499442986
 21
-601.1041256933007
 31
0.0000000001127424
1001
ACAD
1000
DSTYLE
1002
{
1070
    40
1040
1.3
1070
    45
1040
0.5
1002
}
  0
LINE
  5
1B4B2
  8
01
 10
2877.925499442986
 20
-529.7041256933003
 30
0.0000000001127424
 11
2877.925499442986
 21
-446.9027661405641
 31
0.0000000001127424
1001
ACAD
1000
DSTYLE
1002
{
1070
    40
1040
1.3
1070
    45
1040
0.5
1002
}
  0
LINE
  5
1B4B3
  8
01
 10
2808.925499442986
 20
-501.8328083421427
 30
0.0000000001127424
 11
2808.925499442986
 21
-446.9027661405641
 31
0.0000000001127424
1001
ACAD
1000
DSTYLE
1002
{
1070
    40
1040
1.3
1070
    45
1040
0.5
1002
}
  0
LINE
  5
1B4B4
  8
01
 10
2875.325499442986
 20
-448.2027661405641
 30
0.0000000001127424
 11
2811.525499442986
 21
-448.2027661405641
 31
0.0000000001127424
1001
ACAD
1000
DSTYLE
1002
{
1070
    40
1040
1.3
1070
    45
1040
0.5
1002
}
  0
LINE
  5
1B4B8
  8
01
 10
2808.925499442986
 20
-501.8328083421427
 30
0.0000000001127424
 11
2808.925499442986
 21
-456.9826336086123
 31
0.0000000001127424
1001
ACAD
1000
DSTYLE
1002
{
1070
    40
1040
1.3
1070
    45
1040
0.5
1002
}
  0
LINE
  5
1B4B9
  8
01
 10
2859.925499442986
 20
-537.7041256933003
 30
0.0000000001127424
 11
2859.925499442986
 21
-456.9826336086123
 31
0.0000000001127424
1001
ACAD
1000
DSTYLE
1002
{
1070
    40
1040
1.3
1070
    45
1040
0.5
1002
}
  0
LINE
  5
1B4BA
  8
01
 10
2811.525499442986
 20
-458.2826336086123
 30
0.0000000001127424
 11
2857.325499442986
 21
-458.2826336086123
 31
0.0000000001127424
1001
ACAD
1000
DSTYLE
1002
{
1070
    40
1040
1.3
1070
    45
1040
0.5
1002
}
  0
LINE
  5
1B4BE
  8
01
 10
2677.42561578273
 20
-507.7041256933007
 30
0.0000000001127424
 11
2677.42561578273
 21
-456.9826336086125
 31
0.0000000001127424
1001
ACAD
1000
DSTYLE
1002
{
1070
    40
1040
1.3
1070
    45
1040
0.5
1002
}
  0
LINE
  5
1B4BF
  8
01
 10
2702.42561578273
 20
-507.7041256933007
 30
0.0000000001127424
 11
2702.42561578273
 21
-456.9826336086125
 31
0.0000000001127424
1001
ACAD
1000
DSTYLE
1002
{
1070
    40
1040
1.3
1070
    45
1040
0.5
1002
}
  0
LINE
  5
1B4C0
  8
01
 10
2680.02561578273
 20
-458.2826336086125
 30
0.0000000001127424
 11
2699.82561578273
 21
-458.2826336086125
 31
0.0000000001127424
1001
ACAD
1000
DSTYLE
1002
{
1070
    40
1040
1.3
1070
    45
1040
0.5
1002
}
  0
LINE
  5
1B4C4
  8
01
 10
2695.727555385966
 20
-509.7036805488844
 30
0.0000000001691137
 11
2776.013686554174
 21
-509.7036805488844
 31
0.0000000001691137
1001
ACAD
1000
DSTYLE
1002
{
1070
    40
1040
1.3
1070
    45
1040
0.5
1002
}
  0
LINE
  5
1B4C5
  8
01
 10
2695.727555385966
 20
-623.7036805488844
 30
0.0000000001691137
 11
2776.013686554174
 21
-623.7036805488844
 31
0.0000000001691137
1001
ACAD
1000
DSTYLE
1002
{
1070
    40
1040
1.3
1070
    45
1040
0.5
1002
}
  0
LINE
  5
1B4C6
  8
01
 10
2774.713686554174
 20
-512.3036805488844
 30
0.0000000001691137
 11
2774.713686554174
 21
-621.1036805488844
 31
0.0000000001691137
1001
ACAD
1000
DSTYLE
1002
{
1070
    40
1040
1.3
1070
    45
1040
0.5
1002
}
  0
LINE
  5
1B4CA
  8
01
 10
2696.32561578273
 20
-501.8041256933009
 30
0.0000000001691137
 11
2785.378020720399
 21
-501.8041256933009
 31
0.0000000001691137
1001
ACAD
1000
DSTYLE
1002
{
1070
    40
1040
1.3
1070
    45
1040
0.5
1002
}
  0
LINE
  5
1B4CB
  8
01
 10
2696.25252997806
 20
-631.6036805488843
 30
0.0000000001691137
 11
2785.378020720399
 21
-631.6036805488843
 31
0.0000000001691137
1001
ACAD
1000
DSTYLE
1002
{
1070
    40
1040
1.3
1070
    45
1040
0.5
1002
}
  0
LINE
  5
1B4CC
  8
01
 10
2784.078020720399
 20
-504.4041256933009
 30
0.0000000001691137
 11
2784.078020720399
 21
-629.0036805488843
 31
0.0000000001691137
1001
ACAD
1000
DSTYLE
1002
{
1070
    40
1040
1.3
1070
    45
1040
0.5
1002
}
  0
LINE
  5
1B4D0
  8
01
 10
2859.925499442986
 20
-562.7028073801976
 30
0.0000000001127424
 11
2823.625499442986
 21
-562.7028073801976
 31
0.0000000001127424
1001
ACAD
1000
DSTYLE
1002
{
1070
     3
1000
φ<>
1070
    40
1040
1.3
1070
    45
1040
0.5
1002
}
  0
LINE
  5
1B4D1
  8
01
 10
2859.925499442986
 20
-612.7028073801966
 30
0.0000000001127424
 11
2823.625499442986
 21
-612.7028073801966
 31
0.0000000001127424
1001
ACAD
1000
DSTYLE
1002
{
1070
     3
1000
φ<>
1070
    40
1040
1.3
1070
    45
1040
0.5
1002
}
  0
LINE
  5
1B4D2
  8
01
 10
2824.925499442986
 20
-565.3028073801976
 30
0.0000000001127424
 11
2824.925499442986
 21
-610.1028073801966
 31
0.0000000001127424
1001
ACAD
1000
DSTYLE
1002
{
1070
     3
1000
φ<>
1070
    40
1040
1.3
1070
    45
1040
0.5
1002
}
  0
LINE
  5
1B4D6
  8
01
  6
BYBLOCK
 10
2800.525499442986
 20
-458.9793015026123
 30
0.0000000001127424
 11
2797.925499442986
 21
-458.2826336086123
 31
0.0000000001127424
  0
LINE
  5
1B4D7
  8
01
  6
BYBLOCK
 10
2797.925499442986
 20
-458.2826336086123
 30
0.0000000001127424
 11
2800.525499442986
 21
-457.5859657146123
 31
0.0000000001127424
  0
LINE
  5
1B4D8
  8
01
  6
BYBLOCK
 10
2797.925499442986
 20
-458.2826336086123
 30
0.0000000001127424
 11
2800.525499442986
 21
-458.2826336086123
 31
0.0000000001127424
  0
LINE
  5
1B4D9
  8
01
  6
BYBLOCK
 10
2806.325499442986
 20
-457.5859657146123
 30
0.0000000001127424
 11
2808.925499442986
 21
-458.2826336086123
 31
0.0000000001127424
  0
LINE
  5
1B4DA
  8
01
  6
BYBLOCK
 10
2808.925499442986
 20
-458.2826336086123
 30
0.0000000001127424
 11
2806.325499442986
 21
-458.9793015026123
 31
0.0000000001127424
  0
LINE
  5
1B4DB
  8
01
  6
BYBLOCK
 10
2808.925499442986
 20
-458.2826336086123
 30
0.0000000001127424
 11
2806.325499442986
 21
-458.2826336086123
 31
0.0000000001127424
  0
TEXT
  5
1B4DC
  8
01
  6
CONTINUOUS
 10
2801.150499442986
 20
-457.3726336086123
 30
0.0000000001127424
 40
4.55
  1
11
1001
ACAD
1000
DSTYLE
1002
{
1070
    40
1040
1.3
1070
    45
1040
0.5
1002
}
  0
LINE
  5
1B4DD
  8
01
  6
BYBLOCK
 10
2904.228831548986
 20
-532.3041256933003
 30
0.0000000001127424
 11
2904.925499442986
 21
-529.7041256933003
 31
0.0000000001127424
  0
LINE
  5
1B4DE
  8
01
  6
BYBLOCK
 10
2904.925499442986
 20
-529.7041256933003
 30
0.0000000001127424
 11
2905.622167336986
 21
-532.3041256933003
 31
0.0000000001127424
  0
LINE
  5
1B4DF
  8
01
  6
BYBLOCK
 10
2904.925499442986
 20
-529.7041256933003
 30
0.0000000001127424
 11
2904.925499442986
 21
-532.3041256933003
 31
0.0000000001127424
  0
LINE
  5
1B4E0
  8
01
  6
BYBLOCK
 10
2905.622167336986
 20
-601.1041256933007
 30
0.0000000001127424
 11
2904.925499442986
 21
-603.7041256933007
 31
0.0000000001127424
  0
LINE
  5
1B4E1
  8
01
  6
BYBLOCK
 10
2904.925499442986
 20
-603.7041256933007
 30
0.0000000001127424
 11
2904.228831548986
 21
-601.1041256933007
 31
0.0000000001127424
  0
LINE
  5
1B4E2
  8
01
  6
BYBLOCK
 10
2904.925499442986
 20
-603.7041256933007
 30
0.0000000001127424
 11
2904.925499442986
 21
-601.1041256933007
 31
0.0000000001127424
  0
TEXT
  5
1B4E3
  8
01
  6
CONTINUOUS
 10
2904.015499442985
 20
-548.7327816072816
 30
0.0000000001127424
 40
4.55
  1
74
 50
90.0
1001
ACAD
1000
DSTYLE
1002
{
1070
    40
1040
1.3
1070
    45
1040
0.5
1002
}
  0
LINE
  5
1B4E4
  8
01
  6
BYBLOCK
 10
2875.325499442986
 20
-447.5060982465641
 30
0.0000000001127424
 11
2877.925499442986
 21
-448.2027661405641
 31
0.0000000001127424
  0
LINE
  5
1B4E5
  8
01
  6
BYBLOCK
 10
2877.925499442986
 20
-448.2027661405641
 30
0.0000000001127424
 11
2875.325499442986
 21
-448.8994340345641
 31
0.0000000001127424
  0
LINE
  5
1B4E6
  8
01
  6
BYBLOCK
 10
2877.925499442986
 20
-448.2027661405641
 30
0.0000000001127424
 11
2875.325499442986
 21
-448.2027661405641
 31
0.0000000001127424
  0
LINE
  5
1B4E7
  8
01
  6
BYBLOCK
 10
2811.525499442986
 20
-448.8994340345641
 30
0.0000000001127424
 11
2808.925499442986
 21
-448.2027661405641
 31
0.0000000001127424
  0
LINE
  5
1B4E8
  8
01
  6
BYBLOCK
 10
2808.925499442986
 20
-448.2027661405641
 30
0.0000000001127424
 11
2811.525499442986
 21
-447.5060982465641
 31
0.0000000001127424
  0
LINE
  5
1B4E9
  8
01
  6
BYBLOCK
 10
2808.925499442986
 20
-448.2027661405641
 30
0.0000000001127424
 11
2811.525499442986
 21
-448.2027661405641
 31
0.0000000001127424
  0
TEXT
  5
1B4EA
  8
01
  6
CONTINUOUS
 10
2839.616980924467
 20
-447.2927661405641
 30
0.0000000001127424
 40
4.55
  1
69
1001
ACAD
1000
DSTYLE
1002
{
1070
    40
1040
1.3
1070
    45
1040
0.5
1002
}
  0
LINE
  5
1B4EB
  8
01
  6
BYBLOCK
 10
2811.525499442986
 20
-458.9793015026123
 30
0.0000000001127424
 11
2808.925499442986
 21
-458.2826336086123
 31
0.0000000001127424
  0
LINE
  5
1B4EC
  8
01
  6
BYBLOCK
 10
2808.925499442986
 20
-458.2826336086123
 30
0.0000000001127424
 11
2811.525499442986
 21
-457.5859657146123
 31
0.0000000001127424
  0
LINE
  5
1B4ED
  8
01
  6
BYBLOCK
 10
2808.925499442986
 20
-458.2826336086123
 30
0.0000000001127424
 11
2811.525499442986
 21
-458.2826336086123
 31
0.0000000001127424
  0
LINE
  5
1B4EE
  8
01
  6
BYBLOCK
 10
2857.325499442986
 20
-457.5859657146123
 30
0.0000000001127424
 11
2859.925499442986
 21
-458.2826336086123
 31
0.0000000001127424
  0
LINE
  5
1B4EF
  8
01
  6
BYBLOCK
 10
2859.925499442986
 20
-458.2826336086123
 30
0.0000000001127424
 11
2857.325499442986
 21
-458.9793015026123
 31
0.0000000001127424
  0
LINE
  5
1B4F0
  8
01
  6
BYBLOCK
 10
2859.925499442986
 20
-458.2826336086123
 30
0.0000000001127424
 11
2857.325499442986
 21
-458.2826336086123
 31
0.0000000001127424
  0
TEXT
  5
1B4F1
  8
01
  6
CONTINUOUS
 10
2831.376367498541
 20
-457.3726336086123
 30
0.0000000001127424
 40
4.55
  1
51
1001
ACAD
1000
DSTYLE
1002
{
1070
    40
1040
1.3
1070
    45
1040
0.5
1002
}
  0
LINE
  5
1B4F2
  8
01
  6
BYBLOCK
 10
2680.02561578273
 20
-458.9793015026125
 30
0.0000000001127424
 11
2677.42561578273
 21
-458.2826336086125
 31
0.0000000001127424
  0
LINE
  5
1B4F3
  8
01
  6
BYBLOCK
 10
2677.42561578273
 20
-458.2826336086125
 30
0.0000000001127424
 11
2680.02561578273
 21
-457.5859657146125
 31
0.0000000001127424
  0
LINE
  5
1B4F4
  8
01
  6
BYBLOCK
 10
2677.42561578273
 20
-458.2826336086125
 30
0.0000000001127424
 11
2680.02561578273
 21
-458.2826336086125
 31
0.0000000001127424
  0
LINE
  5
1B4F5
  8
01
  6
BYBLOCK
 10
2699.82561578273
 20
-457.5859657146125
 30
0.0000000001127424
 11
2702.42561578273
 21
-458.2826336086125
 31
0.0000000001127424
  0
LINE
  5
1B4F6
  8
01
  6
BYBLOCK
 10
2702.42561578273
 20
-458.2826336086125
 30
0.0000000001127424
 11
2699.82561578273
 21
-458.9793015026125
 31
0.0000000001127424
  0
LINE
  5
1B4F7
  8
01
  6
BYBLOCK
 10
2702.42561578273
 20
-458.2826336086125
 30
0.0000000001127424
 11
2699.82561578273
 21
-458.2826336086125
 31
0.0000000001127424
  0
TEXT
  5
1B4F8
  8
01
  6
CONTINUOUS
 10
2686.133949116064
 20
-457.3726336086125
 30
0.0000000001127424
 40
4.55
  1
25
1001
ACAD
1000
DSTYLE
1002
{
1070
    40
1040
1.3
1070
    45
1040
0.5
1002
}
  0
LINE
  5
1B4F9
  8
01
  6
BYBLOCK
 10
2774.017018660174
 20
-512.3036805488845
 30
0.0000000001691137
 11
2774.713686554174
 21
-509.7036805488844
 31
0.0000000001691137
  0
LINE
  5
1B4FA
  8
01
  6
BYBLOCK
 10
2774.713686554174
 20
-509.7036805488844
 30
0.0000000001691137
 11
2775.410354448174
 21
-512.3036805488845
 31
0.0000000001691137
  0
LINE
  5
1B4FB
  8
01
  6
BYBLOCK
 10
2774.713686554174
 20
-509.7036805488844
 30
0.0000000001691137
 11
2774.713686554174
 21
-512.3036805488845
 31
0.0000000001691137
  0
LINE
  5
1B4FC
  8
01
  6
BYBLOCK
 10
2775.410354448174
 20
-621.1036805488844
 30
0.0000000001691137
 11
2774.713686554174
 21
-623.7036805488844
 31
0.0000000001691137
  0
LINE
  5
1B4FD
  8
01
  6
BYBLOCK
 10
2774.713686554174
 20
-623.7036805488844
 30
0.0000000001691137
 11
2774.017018660174
 21
-621.1036805488844
 31
0.0000000001691137
  0
LINE
  5
1B4FE
  8
01
  6
BYBLOCK
 10
2774.713686554174
 20
-623.7036805488844
 30
0.0000000001691137
 11
2774.713686554174
 21
-621.1036805488844
 31
0.0000000001691137
  0
TEXT
  5
1B4FF
  8
01
  6
CONTINUOUS
 10
2773.803686554174
 20
-542.1206582009631
 30
0.0000000001691137
 40
4.55
  1
114
 50
90.0
1001
ACAD
1000
DSTYLE
1002
{
1070
    40
1040
1.3
1070
    45
1040
0.5
1002
}
  0
LINE
  5
1B500
  8
01
  6
BYBLOCK
 10
2783.381352826399
 20
-504.4041256933009
 30
0.0000000001691137
 11
2784.078020720399
 21
-501.8041256933009
 31
0.0000000001691137
  0
LINE
  5
1B501
  8
01
  6
BYBLOCK
 10
2784.078020720399
 20
-501.8041256933009
 30
0.0000000001691137
 11
2784.774688614399
 21
-504.4041256933009
 31
0.0000000001691137
  0
LINE
  5
1B502
  8
01
  6
BYBLOCK
 10
2784.078020720399
 20
-501.8041256933009
 30
0.0000000001691137
 11
2784.078020720399
 21
-504.4041256933009
 31
0.0000000001691137
  0
LINE
  5
1B503
  8
01
  6
BYBLOCK
 10
2784.774688614399
 20
-629.0036805488843
 30
0.0000000001691137
 11
2784.078020720399
 21
-631.6036805488843
 31
0.0000000001691137
  0
LINE
  5
1B504
  8
01
  6
BYBLOCK
 10
2784.078020720399
 20
-631.6036805488843
 30
0.0000000001691137
 11
2783.381352826399
 21
-629.0036805488843
 31
0.0000000001691137
  0
LINE
  5
1B505
  8
01
  6
BYBLOCK
 10
2784.078020720399
 20
-631.6036805488843
 30
0.0000000001691137
 11
2784.078020720399
 21
-629.0036805488843
 31
0.0000000001691137
  0
TEXT
  5
1B506
  8
01
  6
CONTINUOUS
 10
2783.168020720399
 20
-542.9052222037703
 30
0.0000000001691137
 40
4.55
  1
130
 50
90.0
1001
ACAD
1000
DSTYLE
1002
{
1070
    40
1040
1.3
1070
    45
1040
0.5
1002
}
  0
LINE
  5
1B507
  8
01
  6
BYBLOCK
 10
2824.228831548986
 20
-565.3028073801976
 30
0.0000000001127424
 11
2824.925499442986
 21
-562.7028073801976
 31
0.0000000001127424
  0
LINE
  5
1B508
  8
01
  6
BYBLOCK
 10
2824.925499442986
 20
-562.7028073801976
 30
0.0000000001127424
 11
2825.622167336986
 21
-565.3028073801976
 31
0.0000000001127424
  0
LINE
  5
1B509
  8
01
  6
BYBLOCK
 10
2824.925499442986
 20
-562.7028073801976
 30
0.0000000001127424
 11
2824.925499442986
 21
-565.3028073801976
 31
0.0000000001127424
  0
LINE
  5
1B50A
  8
01
  6
BYBLOCK
 10
2825.622167336986
 20
-610.1028073801966
 30
0.0000000001127424
 11
2824.925499442986
 21
-612.7028073801966
 31
0.0000000001127424
  0
LINE
  5
1B50B
  8
01
  6
BYBLOCK
 10
2824.925499442986
 20
-612.7028073801966
 30
0.0000000001127424
 11
2824.228831548986
 21
-610.1028073801966
 31
0.0000000001127424
  0
LINE
  5
1B50C
  8
01
  6
BYBLOCK
 10
2824.925499442986
 20
-612.7028073801966
 30
0.0000000001127424
 11
2824.925499442986
 21
-610.1028073801966
 31
0.0000000001127424
  0
TEXT
  5
1B50D
  8
01
  6
CONTINUOUS
 10
2824.015499442985
 20
-595.9023102867964
 30
0.0000000001127424
 40
4.55
  1
φ50
 50
90.0
1001
ACAD
1000
DSTYLE
1002
{
1070
     3
1000
φ<>
1070
    40
1040
1.3
1070
    45
1040
0.5
1002
}
  0
LINE
  5
1B50F
  8
1DIM
 10
2857.546248712692
 20
-364.1081914099697
 30
0.0000000001127424
 11
2830.078660536004
 21
-383.6141256943289
 31
0.0000000001127424
1001
ACAD
1000
DSTYLE
1002
{
1070
    40
1040
1.3
1070
    45
1040
0.5
1002
}
  0
LINE
  5
1B510
  8
1DIM
 10
2876.326383625045
 20
-308.2041256943289
 30
0.0000000001127424
 11
2896.886774384759
 21
-308.2041256943289
 31
0.0000000001127424
1001
ACAD
1000
DSTYLE
1002
{
1070
    45
1040
0.5
1070
    40
1040
1.3
1002
}
  0
LINE
  5
1B511
  8
1DIM
 10
2877.926383625046
 20
-327.0041256943289
 30
0.0000000001127424
 11
2896.886774384759
 21
-327.0041256943289
 31
0.0000000001127424
1001
ACAD
1000
DSTYLE
1002
{
1070
    45
1040
0.5
1070
    40
1040
1.3
1002
}
  0
LINE
  5
1B512
  8
1DIM
 10
2895.586774384758
 20
-310.8041256943289
 30
0.0000000001127424
 11
2895.586774384758
 21
-324.4041256943289
 31
0.0000000001127424
1001
ACAD
1000
DSTYLE
1002
{
1070
    45
1040
0.5
1070
    40
1040
1.3
1002
}
  0
LINE
  5
1B516
  8
1DIM
 10
2859.925615782729
 20
-359.2041256943289
 30
0.0000000001127424
 11
2859.925615782729
 21
-422.3885486912089
 31
0.0000000001127424
1001
ACAD
1000
DSTYLE
1002
{
1070
    40
1040
1.3
1070
    45
1040
0.5
1002
}
  0
LINE
  5
1B517
  8
1DIM
 10
2984.924416114937
 20
-380.4554308609654
 30
0.0000000001127424
 11
2984.924416114937
 21
-422.3885486912089
 31
0.0000000001127424
1001
ACAD
1000
DSTYLE
1002
{
1070
    40
1040
1.3
1070
    45
1040
0.5
1002
}
  0
LINE
  5
1B518
  8
1DIM
 10
2862.525615782728
 20
-421.0885486912089
 30
0.0000000001127424
 11
2982.324416114937
 21
-421.0885486912089
 31
0.0000000001127424
1001
ACAD
1000
DSTYLE
1002
{
1070
    40
1040
1.3
1070
    45
1040
0.5
1002
}
  0
LINE
  5
1B51C
  8
1DIM
 10
2834.927262921828
 20
-343.4074197062996
 30
0.0000000001127424
 11
2834.927262921828
 21
-432.3885486912089
 31
0.0000000001127424
1001
ACAD
1000
DSTYLE
1002
{
1070
    40
1040
1.3
1070
    45
1040
0.5
1002
}
  0
LINE
  5
1B51D
  8
1DIM
 10
2984.924416114937
 20
-380.4554308609654
 30
0.0000000001127424
 11
2984.924416114937
 21
-432.3885486912089
 31
0.0000000001127424
1001
ACAD
1000
DSTYLE
1002
{
1070
    40
1040
1.3
1070
    45
1040
0.5
1002
}
  0
LINE
  5
1B51E
  8
1DIM
 10
2837.527262921828
 20
-431.0885486912089
 30
0.0000000001127424
 11
2982.324416114937
 21
-431.0885486912089
 31
0.0000000001127424
1001
ACAD
1000
DSTYLE
1002
{
1070
    40
1040
1.3
1070
    45
1040
0.5
1002
}
  0
LINE
  5
1B522
  8
1DIM
 10
2958.35158766627
 20
-366.5210230773532
 30
0.0000000001127424
 11
3006.224416114937
 21
-366.5210230773532
 31
0.0000000001127424
1001
ACAD
1000
DSTYLE
1002
{
1070
    40
1040
1.3
1070
    45
1040
0.5
1002
}
  0
LINE
  5
1B523
  8
1DIM
 10
2962.680763780077
 20
-337.7041256943289
 30
0.0000000001127424
 11
3006.224416114937
 21
-337.7041256943289
 31
0.0000000001127424
1001
ACAD
1000
DSTYLE
1002
{
1070
    40
1040
1.3
1070
    45
1040
0.5
1002
}
  0
LINE
  5
1B524
  8
1DIM
 10
3004.924416114937
 20
-363.9210230773532
 30
0.0000000001127424
 11
3004.924416114937
 21
-340.3041256943289
 31
0.0000000001127424
1001
ACAD
1000
DSTYLE
1002
{
1070
    40
1040
1.3
1070
    45
1040
0.5
1002
}
  0
LINE
  5
1B528
  8
1DIM
 10
2955.918835855694
 20
-396.0885486912089
 30
0.0000000001127424
 11
3016.224416114937
 21
-396.0885486912089
 31
0.0000000001127424
1001
ACAD
1000
DSTYLE
1002
{
1070
    40
1040
1.3
1070
    45
1040
0.5
1002
}
  0
LINE
  5
1B529
  8
1DIM
 10
2962.680763780077
 20
-337.7041256943289
 30
0.0000000001127424
 11
3016.224416114937
 21
-337.7041256943289
 31
0.0000000001127424
1001
ACAD
1000
DSTYLE
1002
{
1070
    40
1040
1.3
1070
    45
1040
0.5
1002
}
  0
LINE
  5
1B52A
  8
1DIM
 10
3014.924416114937
 20
-393.4885486912088
 30
0.0000000001127424
 11
3014.924416114937
 21
-340.3041256943289
 31
0.0000000001127424
1001
ACAD
1000
DSTYLE
1002
{
1070
    40
1040
1.3
1070
    45
1040
0.5
1002
}
  0
LINE
  5
1B52E
  8
1DIM
 10
2960.553491971125
 20
-572.868712333302
 30
0.0000000001127424
 11
3016.225499442986
 21
-572.868712333302
 31
0.0000000001127424
1001
ACAD
1000
DSTYLE
1002
{
1070
    40
1040
1.3
1070
   271
1070
     0
1002
}
  0
LINE
  5
1B52F
  8
1DIM
 10
2955.861877973876
 20
-588.5938756978558
 30
0.0000000001127424
 11
3016.225499442986
 21
-588.5938756978558
 31
0.0000000001127424
1001
ACAD
1000
DSTYLE
1002
{
1070
    40
1040
1.3
1070
   271
1070
     0
1002
}
  0
LINE
  5
1B530
  8
1DIM
 10
3014.925499442986
 20
-575.468712333302
 30
0.0000000001127424
 11
3014.925499442986
 21
-585.9938756978557
 31
0.0000000001127424
1001
ACAD
1000
DSTYLE
1002
{
1070
    40
1040
1.3
1070
   271
1070
     0
1002
}
  0
TEXT
  5
1B534
  8
1DIM
  6
CONTINUOUS
 10
2502.218246660639
 20
-324.7833399010062
 30
0.0000000001127424
 40
10.0
  1
※には色品番が入ります。
  0
LINE
  5
1B535
  8
0
  6
BYBLOCK
 10
2857.142878138784
 20
-363.5401787915936
 30
0.0000000001127424
 11
2859.666100683046
 21
-362.6027919202038
 31
0.0000000001127424
  0
LINE
  5
1B536
  8
0
  6
BYBLOCK
 10
2859.666100683046
 20
-362.6027919202038
 30
0.0000000001127424
 11
2857.949619286602
 21
-364.6762040283459
 31
0.0000000001127424
  0
LINE
  5
1B537
  8
0
  6
BYBLOCK
 10
2859.666100683046
 20
-362.6027919202038
 30
0.0000000001127424
 11
2857.546248712692
 21
-364.1081914099697
 31
0.0000000001127424
  0
LINE
  5
1B538
  8
0
  6
BYBLOCK
 10
2894.890106490759
 20
-310.8041256943289
 30
0.0000000001127424
 11
2895.586774384758
 21
-308.2041256943289
 31
0.0000000001127424
  0
LINE
  5
1B539
  8
0
  6
BYBLOCK
 10
2895.586774384758
 20
-308.2041256943289
 30
0.0000000001127424
 11
2896.283442278758
 21
-310.8041256943289
 31
0.0000000001127424
  0
LINE
  5
1B53A
  8
0
  6
BYBLOCK
 10
2895.586774384758
 20
-308.2041256943289
 30
0.0000000001127424
 11
2895.586774384758
 21
-310.8041256943289
 31
0.0000000001127424
  0
LINE
  5
1B53B
  8
0
  6
BYBLOCK
 10
2896.283442278758
 20
-324.4041256943289
 30
0.0000000001127424
 11
2895.586774384758
 21
-327.0041256943289
 31
0.0000000001127424
  0
LINE
  5
1B53C
  8
0
  6
BYBLOCK
 10
2895.586774384758
 20
-327.0041256943289
 30
0.0000000001127424
 11
2894.890106490759
 21
-324.4041256943289
 31
0.0000000001127424
  0
LINE
  5
1B53D
  8
0
  6
BYBLOCK
 10
2895.586774384758
 20
-327.0041256943289
 30
0.0000000001127424
 11
2895.586774384758
 21
-324.4041256943289
 31
0.0000000001127424
  0
TEXT
  5
1B53E
  8
1DIM
  6
CONTINUOUS
 10
2894.676774384759
 20
-320.6385122684032
 30
0.0000000001127424
 40
4.55
  1
19
 50
90.0
1001
ACAD
1000
DSTYLE
1002
{
1070
    45
1040
0.5
1070
    40
1040
1.3
1002
}
  0
LINE
  5
1B53F
  8
0
  6
BYBLOCK
 10
2862.525615782728
 20
-421.7852165852088
 30
0.0000000001127424
 11
2859.925615782729
 21
-421.0885486912089
 31
0.0000000001127424
  0
LINE
  5
1B540
  8
0
  6
BYBLOCK
 10
2859.925615782729
 20
-421.0885486912089
 30
0.0000000001127424
 11
2862.525615782728
 21
-420.3918807972089
 31
0.0000000001127424
  0
LINE
  5
1B541
  8
0
  6
BYBLOCK
 10
2859.925615782729
 20
-421.0885486912089
 30
0.0000000001127424
 11
2862.525615782728
 21
-421.0885486912089
 31
0.0000000001127424
  0
LINE
  5
1B542
  8
0
  6
BYBLOCK
 10
2982.324416114937
 20
-420.3918807972089
 30
0.0000000001127424
 11
2984.924416114937
 21
-421.0885486912089
 31
0.0000000001127424
  0
LINE
  5
1B543
  8
0
  6
BYBLOCK
 10
2984.924416114937
 20
-421.0885486912089
 30
0.0000000001127424
 11
2982.324416114937
 21
-421.7852165852088
 31
0.0000000001127424
  0
LINE
  5
1B544
  8
0
  6
BYBLOCK
 10
2984.924416114937
 20
-421.0885486912089
 30
0.0000000001127424
 11
2982.324416114937
 21
-421.0885486912089
 31
0.0000000001127424
  0
TEXT
  5
1B545
  8
1DIM
  6
CONTINUOUS
 10
2917.116682615499
 20
-420.1785486912089
 30
0.0000000001127424
 40
4.55
  1
125
1001
ACAD
1000
DSTYLE
1002
{
1070
    40
1040
1.3
1070
    45
1040
0.5
1002
}
  0
LINE
  5
1B546
  8
0
  6
BYBLOCK
 10
2837.527262921828
 20
-431.7852165852088
 30
0.0000000001127424
 11
2834.927262921828
 21
-431.0885486912089
 31
0.0000000001127424
  0
LINE
  5
1B547
  8
0
  6
BYBLOCK
 10
2834.927262921828
 20
-431.0885486912089
 30
0.0000000001127424
 11
2837.527262921828
 21
-430.3918807972089
 31
0.0000000001127424
  0
LINE
  5
1B548
  8
0
  6
BYBLOCK
 10
2834.927262921828
 20
-431.0885486912089
 30
0.0000000001127424
 11
2837.527262921828
 21
-431.0885486912089
 31
0.0000000001127424
  0
LINE
  5
1B549
  8
0
  6
BYBLOCK
 10
2982.324416114937
 20
-430.3918807972089
 30
0.0000000001127424
 11
2984.924416114937
 21
-431.0885486912089
 31
0.0000000001127424
  0
LINE
  5
1B54A
  8
0
  6
BYBLOCK
 10
2984.924416114937
 20
-431.0885486912089
 30
0.0000000001127424
 11
2982.324416114937
 21
-431.7852165852088
 31
0.0000000001127424
  0
LINE
  5
1B54B
  8
0
  6
BYBLOCK
 10
2984.924416114937
 20
-431.0885486912089
 30
0.0000000001127424
 11
2982.324416114937
 21
-431.0885486912089
 31
0.0000000001127424
  0
TEXT
  5
1B54C
  8
1DIM
  6
CONTINUOUS
 10
2904.886082573938
 20
-430.1785486912089
 30
0.0000000001127424
 40
4.55
  1
150
1001
ACAD
1000
DSTYLE
1002
{
1070
    40
1040
1.3
1070
    45
1040
0.5
1002
}
  0
LINE
  5
1B54D
  8
0
  6
BYBLOCK
 10
3005.621084008937
 20
-363.9210230773532
 30
0.0000000001127424
 11
3004.924416114937
 21
-366.5210230773532
 31
0.0000000001127424
  0
LINE
  5
1B54E
  8
0
  6
BYBLOCK
 10
3004.924416114937
 20
-366.5210230773532
 30
0.0000000001127424
 11
3004.227748220937
 21
-363.9210230773532
 31
0.0000000001127424
  0
LINE
  5
1B54F
  8
0
  6
BYBLOCK
 10
3004.924416114937
 20
-366.5210230773532
 30
0.0000000001127424
 11
3004.924416114937
 21
-363.9210230773532
 31
0.0000000001127424
  0
LINE
  5
1B550
  8
0
  6
BYBLOCK
 10
3004.227748220937
 20
-340.3041256943289
 30
0.0000000001127424
 11
3004.924416114937
 21
-337.7041256943289
 31
0.0000000001127424
  0
LINE
  5
1B551
  8
0
  6
BYBLOCK
 10
3004.924416114937
 20
-337.7041256943289
 30
0.0000000001127424
 11
3005.621084008937
 21
-340.3041256943289
 31
0.0000000001127424
  0
LINE
  5
1B552
  8
0
  6
BYBLOCK
 10
3004.924416114937
 20
-337.7041256943289
 30
0.0000000001127424
 11
3004.924416114937
 21
-340.3041256943289
 31
0.0000000001127424
  0
TEXT
  5
1B553
  8
1DIM
  6
CONTINUOUS
 10
3004.014416114937
 20
-355.9052942932481
 30
0.0000000001127424
 40
4.55
  1
29
 50
90.0
1001
ACAD
1000
DSTYLE
1002
{
1070
    40
1040
1.3
1070
    45
1040
0.5
1002
}
  0
LINE
  5
1B554
  8
0
  6
BYBLOCK
 10
3015.621084008937
 20
-393.4885486912088
 30
0.0000000001127424
 11
3014.924416114937
 21
-396.0885486912089
 31
0.0000000001127424
  0
LINE
  5
1B555
  8
0
  6
BYBLOCK
 10
3014.924416114937
 20
-396.0885486912089
 30
0.0000000001127424
 11
3014.227748220937
 21
-393.4885486912088
 31
0.0000000001127424
  0
LINE
  5
1B556
  8
0
  6
BYBLOCK
 10
3014.924416114937
 20
-396.0885486912089
 30
0.0000000001127424
 11
3014.924416114937
 21
-393.4885486912088
 31
0.0000000001127424
  0
LINE
  5
1B557
  8
0
  6
BYBLOCK
 10
3014.227748220937
 20
-340.3041256943289
 30
0.0000000001127424
 11
3014.924416114937
 21
-337.7041256943289
 31
0.0000000001127424
  0
LINE
  5
1B558
  8
0
  6
BYBLOCK
 10
3014.924416114937
 20
-337.7041256943289
 30
0.0000000001127424
 11
3015.621084008937
 21
-340.3041256943289
 31
0.0000000001127424
  0
LINE
  5
1B559
  8
0
  6
BYBLOCK
 10
3014.924416114937
 20
-337.7041256943289
 30
0.0000000001127424
 11
3014.924416114937
 21
-340.3041256943289
 31
0.0000000001127424
  0
TEXT
  5
1B55A
  8
1DIM
  6
CONTINUOUS
 10
3014.014416114937
 20
-370.7038024705462
 30
0.0000000001127424
 40
4.55
  1
58
 50
90.0
1001
ACAD
1000
DSTYLE
1002
{
1070
    40
1040
1.3
1070
    45
1040
0.5
1002
}
  0
LINE
  5
1B55B
  8
0
  6
BYBLOCK
 10
3014.228831548986
 20
-575.468712333302
 30
0.0000000001127424
 11
3014.925499442986
 21
-572.868712333302
 31
0.0000000001127424
  0
LINE
  5
1B55C
  8
0
  6
BYBLOCK
 10
3014.925499442986
 20
-572.868712333302
 30
0.0000000001127424
 11
3015.622167336986
 21
-575.468712333302
 31
0.0000000001127424
  0
LINE
  5
1B55D
  8
0
  6
BYBLOCK
 10
3014.925499442986
 20
-572.868712333302
 30
0.0000000001127424
 11
3014.925499442986
 21
-575.468712333302
 31
0.0000000001127424
  0
LINE
  5
1B55E
  8
0
  6
BYBLOCK
 10
3015.622167336986
 20
-585.9938756978557
 30
0.0000000001127424
 11
3014.925499442986
 21
-588.5938756978558
 31
0.0000000001127424
  0
LINE
  5
1B55F
  8
0
  6
BYBLOCK
 10
3014.925499442986
 20
-588.5938756978558
 30
0.0000000001127424
 11
3014.228831548986
 21
-585.9938756978557
 31
0.0000000001127424
  0
LINE
  5
1B560
  8
0
  6
BYBLOCK
 10
3014.925499442986
 20
-588.5938756978558
 30
0.0000000001127424
 11
3014.925499442986
 21
-585.9938756978557
 31
0.0000000001127424
  0
TEXT
  5
1B561
  8
1DIM
  6
CONTINUOUS
 10
3014.015499442986
 20
-583.7646273489117
 30
0.0000000001127424
 40
4.55
  1
16
 50
90.0
1001
ACAD
1000
DSTYLE
1002
{
1070
    40
1040
1.3
1070
   271
1070
     0
1002
}
  0
VIEWPORT
  5
57
 67
     1
  8
0
 10
0.0
 20
0.0
 30
0.0
 40
544.3287197231833
 41
297.0
 68
     1
 69
     1
1001
ACAD
1000
MVIEW
1002
{
1070
    16
1010
0.0
1020
0.0
1030
0.0
1010
0.0
1020
0.0
1030
1.0
1040
0.0
1040
297.0
1040
-4.171999999925333
1040
12.83903210976956
1040
50.0
1040
0.0
1040
0.0
1070
    16
1070
   100
1070
     0
1070
     1
1070
     0
1070
     0
1070
     0
1070
     0
1040
0.0
1040
0.0
1040
0.0
1040
10.0
1040
10.0
1040
10.0
1040
10.0
1070
     0
1002
{
1002
}
1002
}
  0
ENDSEC
  0
EOF
