  0
SECTION
  2
HEADER
  9
$ACADVER
  1
AC1012
  9
$DWGCODEPAGE
  3
ansi_932
  9
$INSBASE
 10
0.0
 20
0.0
 30
0.0
  9
$EXTMIN
 10
2633.539985105429
 20
-590.7648572134785
 30
0.0000000001127424
  9
$EXTMAX
 10
3259.028379851496
 20
-168.7648230852278
 30
0.0000000003382273
  9
$LIMMIN
 10
0.0
 20
0.0
  9
$LIMMAX
 10
420.0
 20
297.0
  9
$ORTHOMODE
 70
     0
  9
$REGENMODE
 70
     1
  9
$FILLMODE
 70
     1
  9
$QTEXTMODE
 70
     0
  9
$MIRRTEXT
 70
     0
  9
$DRAGMODE
 70
     2
  9
$LTSCALE
 40
0.5
  9
$OSMODE
 70
 14463
  9
$ATTMODE
 70
     1
  9
$TEXTSIZE
 40
4.0
  9
$TRACEWID
 40
1.0
  9
$TEXTSTYLE
  7
STANDARD
  9
$CLAYER
  8
1TEXT
  9
$CELTYPE
  6
BYLAYER
  9
$CECOLOR
 62
   256
  9
$CELTSCALE
 40
1.0
  9
$DELOBJ
 70
     1
  9
$DISPSILH
 70
     0
  9
$DIMSCALE
 40
1.0
  9
$DIMASZ
 40
2.0
  9
$DIMEXO
 40
0.0
  9
$DIMDLI
 40
7.0
  9
$DIMRND
 40
0.0
  9
$DIMDLE
 40
0.0
  9
$DIMEXE
 40
1.0
  9
$DIMTP
 40
0.0
  9
$DIMTM
 40
0.0
  9
$DIMTXT
 40
3.5
  9
$DIMCEN
 40
0.0
  9
$DIMTSZ
 40
0.0
  9
$DIMTOL
 70
     0
  9
$DIMLIM
 70
     0
  9
$DIMTIH
 70
     0
  9
$DIMTOH
 70
     0
  9
$DIMSE1
 70
     0
  9
$DIMSE2
 70
     0
  9
$DIMTAD
 70
     1
  9
$DIMZIN
 70
     8
  9
$DIMBLK
  1

  9
$DIMASO
 70
     1
  9
$DIMSHO
 70
     1
  9
$DIMPOST
  1
 
  9
$DIMAPOST
  1

  9
$DIMALT
 70
     0
  9
$DIMALTD
 70
     2
  9
$DIMALTF
 40
25.4
  9
$DIMLFAC
 40
1.0
  9
$DIMTOFL
 70
     1
  9
$DIMTVP
 40
0.0
  9
$DIMTIX
 70
     0
  9
$DIMSOXD
 70
     0
  9
$DIMSAH
 70
     1
  9
$DIMBLK1
  1
OPEN30
  9
$DIMBLK2
  1
OPEN30
  9
$DIMSTYLE
  2
NEWX10
  9
$DIMCLRD
 70
   256
  9
$DIMCLRE
 70
   256
  9
$DIMCLRT
 70
   201
  9
$DIMTFAC
 40
0.7
  9
$DIMGAP
 40
0.7
  9
$DIMJUST
 70
     0
  9
$DIMSD1
 70
     0
  9
$DIMSD2
 70
     0
  9
$DIMTOLJ
 70
     1
  9
$DIMTZIN
 70
     8
  9
$DIMALTZ
 70
     0
  9
$DIMALTTZ
 70
     0
  9
$DIMFIT
 70
     2
  9
$DIMUPT
 70
     0
  9
$DIMUNIT
 70
     2
  9
$DIMDEC
 70
     2
  9
$DIMTDEC
 70
     4
  9
$DIMALTU
 70
     2
  9
$DIMALTTD
 70
     2
  9
$DIMTXSTY
  7
STANDARD
  9
$DIMAUNIT
 70
     0
  9
$LUNITS
 70
     2
  9
$LUPREC
 70
     4
  9
$SKETCHINC
 40
1.0
  9
$FILLETRAD
 40
0.0
  9
$AUNITS
 70
     0
  9
$AUPREC
 70
     2
  9
$MENU
  1
acad
  9
$ELEVATION
 40
0.0
  9
$PELEVATION
 40
0.0
  9
$THICKNESS
 40
0.0
  9
$LIMCHECK
 70
     0
  9
$CHAMFERA
 40
10.0
  9
$CHAMFERB
 40
10.0
  9
$CHAMFERC
 40
20.0
  9
$CHAMFERD
 40
0.0
  9
$SKPOLY
 70
     0
  9
$TDCREATE
 40
2451318.621352917
  9
$TDUPDATE
 40
2458152.591536076
  9
$TDINDWG
 40
1.6405853935
  9
$TDUSRTIMER
 40
1.6405853935
  9
$USRTIMER
 70
     1
  9
$ANGBASE
 50
0.0
  9
$ANGDIR
 70
     0
  9
$PDMODE
 70
     0
  9
$PDSIZE
 40
0.0
  9
$PLINEWID
 40
0.0
  9
$COORDS
 70
     2
  9
$SPLFRAME
 70
     0
  9
$SPLINETYPE
 70
     6
  9
$SPLINESEGS
 70
     8
  9
$ATTDIA
 70
     0
  9
$ATTREQ
 70
     1
  9
$HANDLING
 70
     1
  9
$HANDSEED
  5
1B1D7
  9
$SURFTAB1
 70
     6
  9
$SURFTAB2
 70
     6
  9
$SURFTYPE
 70
     6
  9
$SURFU
 70
     6
  9
$SURFV
 70
     6
  9
$UCSNAME
  2

  9
$UCSORG
 10
0.0
 20
0.0
 30
0.0
  9
$UCSXDIR
 10
1.0
 20
0.0
 30
0.0
  9
$UCSYDIR
 10
0.0
 20
1.0
 30
0.0
  9
$PUCSNAME
  2

  9
$PUCSORG
 10
0.0
 20
0.0
 30
0.0
  9
$PUCSXDIR
 10
1.0
 20
0.0
 30
0.0
  9
$PUCSYDIR
 10
0.0
 20
1.0
 30
0.0
  9
$USERI1
 70
     0
  9
$USERI2
 70
     0
  9
$USERI3
 70
     0
  9
$USERI4
 70
     0
  9
$USERI5
 70
     0
  9
$USERR1
 40
0.0
  9
$USERR2
 40
0.0
  9
$USERR3
 40
0.0
  9
$USERR4
 40
0.0
  9
$USERR5
 40
0.0
  9
$WORLDVIEW
 70
     1
  9
$SHADEDGE
 70
     3
  9
$SHADEDIF
 70
    70
  9
$TILEMODE
 70
     1
  9
$MAXACTVP
 70
    48
  9
$PINSBASE
 10
0.0
 20
0.0
 30
0.0
  9
$PLIMCHECK
 70
     0
  9
$PEXTMIN
 10
1.000000000000000E+20
 20
1.000000000000000E+20
 30
1.000000000000000E+20
  9
$PEXTMAX
 10
-1.000000000000000E+20
 20
-1.000000000000000E+20
 30
-1.000000000000000E+20
  9
$PLIMMIN
 10
0.0
 20
0.0
  9
$PLIMMAX
 10
420.0
 20
297.0
  9
$UNITMODE
 70
     0
  9
$VISRETAIN
 70
     1
  9
$PLINEGEN
 70
     0
  9
$PSLTSCALE
 70
     1
  9
$TREEDEPTH
 70
  3020
  9
$PICKSTYLE
 70
     1
  9
$CMLSTYLE
  2
STANDARD
  9
$CMLJUST
 70
     0
  9
$CMLSCALE
 40
20.0
  9
$SAVEIMAGES
 70
     1
  0
ENDSEC
  0
SECTION
  2
CLASSES
  0
CLASS
  1
DICTIONARYVAR
  2
AcDbDictionaryVar
  3
ObjectDBX Classes
 90
        0
280
     0
281
     0
  0
CLASS
  1
IDBUFFER
  2
AcDbIdBuffer
  3
ObjectDBX Classes
 90
    32768
280
     0
281
     0
  0
CLASS
  1
LWPOLYLINE
  2
AcDbPolyline
  3
ObjectDBX Classes
 90
    32768
280
     0
281
     1
  0
CLASS
  1
ACDBDICTIONARYWDFLT
  2
AcDbDictionaryWithDefault
  3
ObjectDBX Classes
 90
    32768
280
     0
281
     0
  0
CLASS
  1
ACDBPLACEHOLDER
  2
AcDbPlaceHolder
  3
ObjectDBX Classes
 90
        0
280
     0
281
     0
  0
CLASS
  1
LAYOUT
  2
AcDbLayout
  3
ObjectDBX Classes
 90
        0
280
     0
281
     0
  0
CLASS
  1
TABLESTYLE
  2
AcDbTableStyle
  3
ObjectDBX Classes
 90
     4095
280
     0
281
     0
  0
CLASS
  1
SORTENTSTABLE
  2
AcDbSortentsTable
  3
ObjectDBX Classes
 90
    32768
280
     0
281
     0
  0
CLASS
  1
MATERIAL
  2
AcDbMaterial
  3
ObjectDBX Classes
 90
     1153
280
     0
281
     0
  0
CLASS
  1
VISUALSTYLE
  2
AcDbVisualStyle
  3
ObjectDBX Classes
 90
     4095
280
     0
281
     0
  0
CLASS
  1
SCALE
  2
AcDbScale
  3
ObjectDBX Classes
 90
     1153
280
     0
281
     0
  0
CLASS
  1
MLEADERSTYLE
  2
AcDbMLeaderStyle
  3
ACDB_MLEADERSTYLE_CLASS
 90
     4095
280
     0
281
     0
  0
CLASS
  1
CELLSTYLEMAP
  2
AcDbCellStyleMap
  3
ObjectDBX Classes
 90
     1152
280
     0
281
     0
  0
CLASS
  1
SUN
  2
AcDbSun
  3
SCENEOE
 90
     1153
280
     0
281
     0
  0
CLASS
  1
AEC_REFEDIT_STATUS_TRACKER
  2
AecDbRefEditStatusTracker
  3
AecArchBase60|Product Desc: Autodesk Architectural Desktop 2007 |Company: Autodesk,Inc. |WEB Address: www.autodesk.com
 90
   -32639
280
     1
281
     0
  0
CLASS
  1
NPOCOLLECTION
  2
AcDbImpNonPersistentObjectsCollection
  3
ObjectDBX Classes
 90
   -31615
280
     1
281
     0
  0
CLASS
  1
XRECORD
  2
AcDbXrecord
  3
ObjectDBX Classes
 90
    32768
280
     0
281
     0
  0
CLASS
  1
HATCH
  2
AcDbHatch
  3
ObjectDBX Classes
 90
    32768
280
     0
281
     1
  0
ENDSEC
  0
SECTION
  2
TABLES
  0
TABLE
  2
VPORT
  5
8
330
0
100
AcDbSymbolTable
 70
     1
  0
VPORT
  5
D991
330
8
100
AcDbSymbolTableRecord
100
AcDbViewportTableRecord
  2
*ACTIVE
 70
     0
 10
0.0
 20
0.0
 11
1.0
 21
1.0
 12
2946.284182478462
 22
-379.7648401493532
 13
0.0
 23
0.0
 14
10.0
 24
10.0
 15
10.0
 25
10.0
 16
0.0
 26
0.0
 36
1.0
 17
0.0
 27
0.0
 37
0.0
 40
453.0947734850693
 41
2.233782129742962
 42
50.0
 43
0.0
 44
0.0
 50
0.0
 51
0.0
 71
    16
 72
   100
 73
     1
 74
     1
 75
     0
 76
     0
 77
     0
 78
     0
  0
ENDTAB
  0
TABLE
  2
LTYPE
  5
5
330
0
100
AcDbSymbolTable
 70
     2
  0
LTYPE
  5
12
330
5
100
AcDbSymbolTableRecord
100
AcDbLinetypeTableRecord
  2
BYBLOCK
 70
     0
  3

 72
    65
 73
     0
 40
0.0
  0
LTYPE
  5
13
330
5
100
AcDbSymbolTableRecord
100
AcDbLinetypeTableRecord
  2
BYLAYER
 70
     0
  3

 72
    65
 73
     0
 40
0.0
  0
LTYPE
  5
14
330
5
100
AcDbSymbolTableRecord
100
AcDbLinetypeTableRecord
  2
CONTINUOUS
 70
     0
  3
Solid line
 72
    65
 73
     0
 40
0.0
  0
LTYPE
  5
13839
330
5
100
AcDbSymbolTableRecord
100
AcDbLinetypeTableRecord
  2
CENTER2
 70
     0
  3
Center (.5x) ___ _ ___ _ ___ _ ___ _ ___ _ ___
 72
    65
 73
     4
 40
28.575
 49
19.05
 74
     0
 49
-3.175
 74
     0
 49
3.175
 74
     0
 49
-3.175
 74
     0
  0
ENDTAB
  0
TABLE
  2
LAYER
  5
2
102
{ACAD_XDICTIONARY
360
E6A6
102
}
330
0
100
AcDbSymbolTable
 70
     5
  0
LAYER
  5
E
102
{ACAD_XDICTIONARY
360
DA05
102
}
330
2
100
AcDbSymbolTableRecord
100
AcDbLayerTableRecord
  2
0
 70
     0
 62
     7
  6
CONTINUOUS
  0
LAYER
  5
29
102
{ACAD_XDICTIONARY
360
DA07
102
}
330
2
100
AcDbSymbolTableRecord
100
AcDbLayerTableRecord
  2
1CENTER
 70
     0
 62
     7
  6
CENTER2
  0
LAYER
  5
31
102
{ACAD_XDICTIONARY
360
DA09
102
}
330
2
100
AcDbSymbolTableRecord
100
AcDbLayerTableRecord
  2
1TEXT
 70
     0
 62
     7
  6
CONTINUOUS
  0
LAYER
  5
243
102
{ACAD_XDICTIONARY
360
DA0F
102
}
330
2
100
AcDbSymbolTableRecord
100
AcDbLayerTableRecord
  2
01
 70
     0
 62
     1
  6
CONTINUOUS
  0
LAYER
  5
24E
102
{ACAD_XDICTIONARY
360
DA15
102
}
330
2
100
AcDbSymbolTableRecord
100
AcDbLayerTableRecord
  2
1DIM
 70
     0
 62
     7
  6
CONTINUOUS
  0
ENDTAB
  0
TABLE
  2
STYLE
  5
3
330
0
100
AcDbSymbolTable
 70
     1
  0
STYLE
  5
F
330
3
100
AcDbSymbolTableRecord
100
AcDbTextStyleTableRecord
  2
STANDARD
 70
     0
 40
0.0
 41
1.0
 50
0.0
 71
     0
 42
4.0
  3
txt.shx
  4
extfont.shx
  0
ENDTAB
  0
TABLE
  2
VIEW
  5
6
330
0
100
AcDbSymbolTable
 70
     0
  0
ENDTAB
  0
TABLE
  2
UCS
  5
7
330
0
100
AcDbSymbolTable
 70
     0
  0
ENDTAB
  0
TABLE
  2
APPID
  5
9
330
0
100
AcDbSymbolTable
 70
    15
  0
APPID
  5
10
330
9
100
AcDbSymbolTableRecord
100
AcDbRegAppTableRecord
  2
ACAD
 70
     0
  0
APPID
  5
21
330
9
100
AcDbSymbolTableRecord
100
AcDbRegAppTableRecord
  2
DRAWINGVARIABLESXDATA
 70
     0
  0
APPID
  5
64
330
9
100
AcDbSymbolTableRecord
100
AcDbRegAppTableRecord
  2
CONTENTTABDATA
 70
     0
  0
APPID
  5
65
330
9
100
AcDbSymbolTableRecord
100
AcDbRegAppTableRecord
  2
CONTENTCURRENTTAB
 70
     0
  0
APPID
  5
66
330
9
100
AcDbSymbolTableRecord
100
AcDbRegAppTableRecord
  2
CONTENTBLOCKDESCRIPTION
 70
     0
  0
APPID
  5
67
330
9
100
AcDbSymbolTableRecord
100
AcDbRegAppTableRecord
  2
CONTENTBLOCKICON
 70
     0
  0
APPID
  5
68
330
9
100
AcDbSymbolTableRecord
100
AcDbRegAppTableRecord
  2
CONTENTLONGBLOCKNAME
 70
     0
  0
APPID
  5
2AE
330
9
100
AcDbSymbolTableRecord
100
AcDbRegAppTableRecord
  2
ACAD_PSEXT
 70
     0
  0
APPID
  5
D9E9
330
9
100
AcDbSymbolTableRecord
100
AcDbRegAppTableRecord
  2
ACAD_MLEADERVER
 70
     0
  0
APPID
  5
19CF0
330
9
100
AcDbSymbolTableRecord
100
AcDbRegAppTableRecord
  2
ACADANNOTATIVE
 70
     0
  0
APPID
  5
19CF1
330
9
100
AcDbSymbolTableRecord
100
AcDbRegAppTableRecord
  2
ACDBBLOCKREPETAG
 70
     0
  0
APPID
  5
19CF2
330
9
100
AcDbSymbolTableRecord
100
AcDbRegAppTableRecord
  2
ACLAYERTOOLS
 70
     0
  0
APPID
  5
19CF3
330
9
100
AcDbSymbolTableRecord
100
AcDbRegAppTableRecord
  2
ACAD_NAV_VCDISPLAY
 70
     0
  0
APPID
  5
1A86C
330
9
100
AcDbSymbolTableRecord
100
AcDbRegAppTableRecord
  2
ACAD_OBJECT_CHANGE_GUID
 70
     0
  0
APPID
  5
1A9FE
330
9
100
AcDbSymbolTableRecord
100
AcDbRegAppTableRecord
  2
ACAECLAYERSTANDARD
 70
     0
  0
ENDTAB
  0
TABLE
  2
DIMSTYLE
  5
A
330
0
100
AcDbSymbolTable
 70
     1
  0
DIMSTYLE
105
48
330
A
100
AcDbSymbolTableRecord
100
AcDbDimStyleTableRecord
  2
NEWX10
 70
     0
  3
 
  4

  5

  6
OPEN30
  7
OPEN30
 40
1.0
 41
2.0
 42
0.0
 43
7.0
 44
1.0
 45
0.0
 46
0.0
 47
0.0
 48
0.0
140
3.5
141
0.0
142
0.0
143
25.4
144
1.0
145
0.0
146
0.7
147
0.7
 71
     0
 72
     0
 73
     0
 74
     0
 75
     0
 76
     0
 77
     1
 78
     8
170
     0
171
     2
172
     1
173
     1
174
     0
175
     0
176
   256
177
   256
178
   201
179
     2
270
     2
271
     2
272
     4
273
     2
274
     2
340
F
275
     0
280
     0
281
     0
282
     0
283
     1
284
     8
285
     0
286
     0
287
     2
288
     0
  0
ENDTAB
  0
TABLE
  2
BLOCK_RECORD
  5
1
330
0
100
AcDbSymbolTable
 70
     8
  0
BLOCK_RECORD
  5
18
102
{ACAD_XDICTIONARY
360
88F
102
}
330
1
100
AcDbSymbolTableRecord
100
AcDbBlockTableRecord
  2
*MODEL_SPACE
  0
BLOCK_RECORD
  5
15
330
1
100
AcDbSymbolTableRecord
100
AcDbBlockTableRecord
  2
*PAPER_SPACE
  0
BLOCK_RECORD
  5
42
330
1
100
AcDbSymbolTableRecord
100
AcDbBlockTableRecord
  2
_OPEN30
  0
BLOCK_RECORD
  5
19D42
330
1
100
AcDbSymbolTableRecord
100
AcDbBlockTableRecord
  2
A3WAKUKAWAJUN2017_HYOUDAI_
  0
BLOCK_RECORD
  5
1B037
330
1
100
AcDbSymbolTableRecord
100
AcDbBlockTableRecord
  2
*X38
  0
BLOCK_RECORD
  5
1B085
330
1
100
AcDbSymbolTableRecord
100
AcDbBlockTableRecord
  2
*X39
  0
BLOCK_RECORD
  5
1B0D7
330
1
100
AcDbSymbolTableRecord
100
AcDbBlockTableRecord
  2
*X40
  0
BLOCK_RECORD
  5
1B128
330
1
100
AcDbSymbolTableRecord
100
AcDbBlockTableRecord
  2
*X41
  0
BLOCK_RECORD
  5
1B165
330
1
100
AcDbSymbolTableRecord
100
AcDbBlockTableRecord
  2
*X42
  0
BLOCK_RECORD
  5
1B1A5
330
1
100
AcDbSymbolTableRecord
100
AcDbBlockTableRecord
  2
*X43
  0
ENDTAB
  0
ENDSEC
  0
SECTION
  2
BLOCKS
  0
BLOCK
  5
19
330
18
100
AcDbEntity
  8
0
100
AcDbBlockBegin
  2
*MODEL_SPACE
 70
     0
 10
0.0
 20
0.0
 30
0.0
  3
*MODEL_SPACE
  1

  0
ENDBLK
  5
1A
330
18
100
AcDbEntity
  8
0
100
AcDbBlockEnd
  0
BLOCK
  5
16
330
15
100
AcDbEntity
 67
     1
  8
0
100
AcDbBlockBegin
  2
*PAPER_SPACE
 70
     0
 10
0.0
 20
0.0
 30
0.0
  3
*PAPER_SPACE
  1

  0
ENDBLK
  5
17
330
15
100
AcDbEntity
 67
     1
  8
0
100
AcDbBlockEnd
  0
BLOCK
  5
43
330
42
100
AcDbEntity
  8
0
100
AcDbBlockBegin
  2
_OPEN30
 70
     0
 10
0.0
 20
0.0
 30
0.0
  3
_OPEN30
  1

  0
LINE
  5
44
330
42
100
AcDbEntity
  8
0
  6
BYBLOCK
 62
     0
100
AcDbLine
 10
-1.0
 20
0.26794919
 30
0.0
 11
0.0
 21
0.0
 31
0.0
  0
LINE
  5
45
330
42
100
AcDbEntity
  8
0
  6
BYBLOCK
 62
     0
100
AcDbLine
 10
0.0
 20
0.0
 30
0.0
 11
-1.0
 21
-0.26794919
 31
0.0
  0
LINE
  5
46
330
42
100
AcDbEntity
  8
0
  6
BYBLOCK
 62
     0
100
AcDbLine
 10
0.0
 20
0.0
 30
0.0
 11
-1.0
 21
0.0
 31
0.0
  0
ENDBLK
  5
47
330
42
100
AcDbEntity
  8
0
100
AcDbBlockEnd
  0
BLOCK
  5
1A550
330
19D42
100
AcDbEntity
  8
0
100
AcDbBlockBegin
  2
A3WAKUKAWAJUN2017_HYOUDAI_
 70
     0
 10
0.0
 20
0.0
 30
0.0
  3
A3WAKUKAWAJUN2017_HYOUDAI_
  1

  0
LINE
  5
19D44
330
19D42
100
AcDbEntity
  8
0
100
AcDbLine
 10
13.26299999998673
 20
-0.0001000000000317
 30
0.0
 11
9.236999999990758
 21
8.999899999990987
 31
0.0
1001
ACAD
1000
ASC_BOUNDS
1002
{
1070
    19
1005
19D85
1002
}
  0
LINE
  5
19D45
330
19D42
100
AcDbEntity
  8
0
100
AcDbLine
 10
5.657999999994331
 20
0.9999999999989768
 30
0.0
 11
9.236999999990758
 21
8.999999999991019
 31
0.0
1001
ACAD
1000
ASC_BOUNDS
1002
{
1070
    19
1005
19D85
1002
}
  0
LINE
  5
19D46
330
19D42
100
AcDbEntity
  8
0
100
AcDbLine
 10
18.59199999998134
 20
-0.2368999999997641
 30
0.0
 11
16.46099999998353
 21
5.432899999994561
 31
0.0
1001
ACAD
1000
ASC_BOUNDS
1002
{
1070
    19
1005
19D86
1002
}
  0
LINE
  5
19D47
330
19D42
100
AcDbEntity
  8
0
100
AcDbLine
 10
18.59199999998134
 20
-0.2368999999997641
 30
0.0
 11
22.38199999997767
 21
8.763099999991255
 31
0.0
1001
ACAD
1000
ASC_BOUNDS
1002
{
1070
    19
1005
19D86
1002
}
  0
LINE
  5
19D48
330
19D42
100
AcDbEntity
  8
0
100
AcDbLine
 10
14.32899999998563
 20
-0.2368999999997641
 30
0.0
 11
16.46099999998353
 21
5.432899999994561
 31
0.0
1001
ACAD
1000
ASC_BOUNDS
1002
{
1070
    19
1005
19D86
1002
}
  0
LINE
  5
19D49
330
19D42
100
AcDbEntity
  8
0
100
AcDbLine
 10
14.32899999998563
 20
-0.2368999999997641
 30
0.0
 11
10.53899999998941
 21
8.763099999991255
 31
0.0
1001
ACAD
1000
ASC_BOUNDS
1002
{
1070
    19
1005
19D86
1002
}
  0
LINE
  5
19D4A
330
19D42
100
AcDbEntity
  8
0
100
AcDbLine
 10
19.53899999998043
 20
-0.0001000000000317
 30
0.0
 11
23.56599999997638
 21
8.999899999990987
 31
0.0
1001
ACAD
1000
ASC_BOUNDS
1002
{
1070
    19
1005
19D87
1002
}
  0
LINE
  5
19D4B
330
19D42
100
AcDbEntity
  8
0
100
AcDbLine
 10
26.97358892824991
 20
1.383099999991202
 30
0.0
 11
23.56599999997638
 21
8.999899999990987
 31
0.0
1001
ACAD
1000
ASC_BOUNDS
1002
{
1070
    19
1005
19D87
1002
}
  0
LINE
  5
19D4C
330
19D42
100
AcDbEntity
  8
0
100
AcDbLine
 10
5.657999999994331
 20
0.9999999999989768
 30
0.0
 11
3.181999999996833
 21
4.668599999995308
 31
0.0
1001
ACAD
1000
ASC_BOUNDS
1002
{
1070
    19
1005
19D85
1002
}
  0
LINE
  5
19D4D
330
19D42
100
AcDbEntity
  8
0
100
AcDbLine
 10
4.617999999995391
 20
-0.0001000000000317
 30
0.0
 11
1.420999999998571
 21
4.736799999995242
 31
0.0
1001
ACAD
1000
ASC_BOUNDS
1002
{
1070
    19
1005
19D85
1002
}
  0
LINE
  5
19D4E
330
19D42
100
AcDbEntity
  8
0
100
AcDbLine
 10
1.420999999998571
 20
8.763099999991255
 30
0.0
 11
1.420999999998571
 21
0.0
 31
0.0
1001
ACAD
1000
ASC_BOUNDS
1002
{
1070
    19
1005
19D8A
1002
}
  0
LINE
  5
19D4F
330
19D42
100
AcDbEntity
  8
0
100
AcDbLine
 10
0.0
 20
8.763099999991255
 30
0.0
 11
0.0
 21
0.0
 31
0.0
1001
ACAD
1000
ASC_BOUNDS
1002
{
1070
    19
1005
19D8A
1002
}
  0
LINE
  5
19D50
330
19D42
100
AcDbEntity
  8
0
100
AcDbLine
 10
6.766999999993232
 20
-0.0001000000000317
 30
0.0
 11
7.826999999992154
 21
2.368399999997621
 31
0.0
1001
ACAD
1000
ASC_BOUNDS
1002
{
1070
    19
1005
19D85
1002
}
  0
LINE
  5
19D51
330
19D42
100
AcDbEntity
  8
0
100
AcDbLine
 10
0.0
 20
0.0
 30
0.0
 11
1.420999999998571
 21
0.0
 31
0.0
1001
ACAD
1000
ASC_BOUNDS
1002
{
1070
    19
1005
19D8A
1002
}
  0
LINE
  5
19D52
330
19D42
100
AcDbEntity
  8
0
100
AcDbLine
 10
4.617999999995391
 20
0.0
 30
0.0
 11
6.766999999993232
 21
0.0
 31
0.0
1001
ACAD
1000
ASC_BOUNDS
1002
{
1070
    19
1005
19D85
1002
}
  0
LINE
  5
19D53
330
19D42
100
AcDbEntity
  8
0
100
AcDbLine
 10
11.70599999998831
 20
-0.0001000000000317
 30
0.0
 11
10.64699999998936
 21
2.368399999997621
 31
0.0
1001
ACAD
1000
ASC_BOUNDS
1002
{
1070
    19
1005
19D85
1002
}
  0
LINE
  5
19D54
330
19D42
100
AcDbEntity
  8
0
100
AcDbLine
 10
7.826999999992154
 20
2.368399999997621
 30
0.0
 11
10.64699999998936
 21
2.368399999997621
 31
0.0
1001
ACAD
1000
ASC_BOUNDS
1002
{
1070
    19
1005
19D85
1002
}
  0
LINE
  5
19D55
330
19D42
100
AcDbEntity
  8
0
100
AcDbLine
 10
11.70599999998831
 20
0.0
 30
0.0
 11
13.26299999998673
 21
0.0
 31
0.0
1001
ACAD
1000
ASC_BOUNDS
1002
{
1070
    19
1005
19D85
1002
}
  0
LINE
  5
19D56
330
19D42
100
AcDbEntity
  8
0
100
AcDbLine
 10
22.15599999997789
 20
2.368399999997621
 30
0.0
 11
24.97599999997499
 21
2.368399999997621
 31
0.0
1001
ACAD
1000
ASC_BOUNDS
1002
{
1070
    19
1005
19D87
1002
}
  0
LINE
  5
19D57
330
19D42
100
AcDbEntity
  8
0
100
AcDbLine
 10
19.53899999998043
 20
0.0
 30
0.0
 11
21.09599999997886
 21
0.0
 31
0.0
1001
ACAD
1000
ASC_BOUNDS
1002
{
1070
    19
1005
19D87
1002
}
  0
LINE
  5
19D58
330
19D42
100
AcDbEntity
  8
0
100
AcDbLine
 10
21.09599999997886
 20
-0.0001000000000317
 30
0.0
 11
22.15599999997789
 21
2.368399999997621
 31
0.0
1001
ACAD
1000
ASC_BOUNDS
1002
{
1070
    19
1005
19D87
1002
}
  0
LINE
  5
19D59
330
19D42
100
AcDbEntity
  8
0
100
AcDbLine
 10
26.02015566812236
 20
0.0330999999912365
 30
0.0
 11
24.97599999997499
 21
2.368399999997621
 31
0.0
1001
ACAD
1000
ASC_BOUNDS
1002
{
1070
    19
1005
19D87
1002
}
  0
LINE
  5
19D5A
330
19D42
100
AcDbEntity
  8
0
100
AcDbLine
 10
14.32399999998563
 20
3.315799999996671
 30
0.0
 11
16.46099999998353
 21
8.999899999990987
 31
0.0
1001
ACAD
1000
ASC_BOUNDS
1002
{
1070
    19
1005
19D86
1002
}
  0
LINE
  5
19D5B
330
19D42
100
AcDbEntity
  8
0
100
AcDbLine
 10
6.432999999993513
 20
8.763099999991255
 30
0.0
 11
3.181999999996833
 21
4.668599999995308
 31
0.0
1001
ACAD
1000
ASC_BOUNDS
1002
{
1070
    19
1005
19D85
1002
}
  0
LINE
  5
19D5C
330
19D42
100
AcDbEntity
  8
0
100
AcDbLine
 10
4.617999999995391
 20
8.763099999991255
 30
0.0
 11
1.420999999998571
 21
4.736799999995242
 31
0.0
1001
ACAD
1000
ASC_BOUNDS
1002
{
1070
    19
1005
19D85
1002
}
  0
LINE
  5
19D5D
330
19D42
100
AcDbEntity
  8
0
100
AcDbLine
 10
0.0
 20
8.763099999991255
 30
0.0
 11
1.420999999998571
 21
8.763099999991255
 31
0.0
1001
ACAD
1000
ASC_BOUNDS
1002
{
1070
    19
1005
19D8A
1002
}
  0
LINE
  5
19D5E
330
19D42
100
AcDbEntity
  8
0
100
AcDbLine
 10
4.617999999995391
 20
8.763099999991255
 30
0.0
 11
6.432999999993513
 21
8.763099999991255
 31
0.0
1001
ACAD
1000
ASC_BOUNDS
1002
{
1070
    19
1005
19D85
1002
}
  0
LINE
  5
19D5F
330
19D42
100
AcDbEntity
  8
0
100
AcDbLine
 10
14.32399999998563
 20
3.315799999996671
 30
0.0
 11
12.02999999998792
 21
8.763099999991255
 31
0.0
1001
ACAD
1000
ASC_BOUNDS
1002
{
1070
    19
1005
19D86
1002
}
  0
LINE
  5
19D60
330
19D42
100
AcDbEntity
  8
0
100
AcDbLine
 10
10.06399999998996
 20
3.670999999996297
 30
0.0
 11
9.236999999990758
 21
5.5200999999945
 31
0.0
1001
ACAD
1000
ASC_BOUNDS
1002
{
1070
    19
1005
19D85
1002
}
  0
LINE
  5
19D61
330
19D42
100
AcDbEntity
  8
0
100
AcDbLine
 10
8.409999999991555
 20
3.670999999996297
 30
0.0
 11
9.236999999990758
 21
5.5200999999945
 31
0.0
1001
ACAD
1000
ASC_BOUNDS
1002
{
1070
    19
1005
19D85
1002
}
  0
LINE
  5
19D62
330
19D42
100
AcDbEntity
  8
0
100
AcDbLine
 10
8.409999999991555
 20
3.670999999996297
 30
0.0
 11
10.06399999998996
 21
3.670999999996297
 31
0.0
1001
ACAD
1000
ASC_BOUNDS
1002
{
1070
    19
1005
19D85
1002
}
  0
LINE
  5
19D63
330
19D42
100
AcDbEntity
  8
0
100
AcDbLine
 10
10.53899999998941
 20
8.763099999991255
 30
0.0
 11
12.02999999998792
 21
8.763099999991255
 31
0.0
1001
ACAD
1000
ASC_BOUNDS
1002
{
1070
    19
1005
19D86
1002
}
  0
LINE
  5
19D64
330
19D42
100
AcDbEntity
  8
0
100
AcDbLine
 10
22.7389999999773
 20
3.670999999996297
 30
0.0
 11
23.56599999997638
 21
5.5200999999945
 31
0.0
1001
ACAD
1000
ASC_BOUNDS
1002
{
1070
    19
1005
19D87
1002
}
  0
LINE
  5
19D65
330
19D42
100
AcDbEntity
  8
0
100
AcDbLine
 10
22.7389999999773
 20
3.670999999996297
 30
0.0
 11
24.39299999997559
 21
3.670999999996297
 31
0.0
1001
ACAD
1000
ASC_BOUNDS
1002
{
1070
    19
1005
19D87
1002
}
  0
LINE
  5
19D66
330
19D42
100
AcDbEntity
  8
0
100
AcDbLine
 10
18.59799999998143
 20
3.315799999996671
 30
0.0
 11
20.89099999997916
 21
8.763099999991255
 31
0.0
1001
ACAD
1000
ASC_BOUNDS
1002
{
1070
    19
1005
19D86
1002
}
  0
LINE
  5
19D67
330
19D42
100
AcDbEntity
  8
0
100
AcDbLine
 10
18.59799999998143
 20
3.315799999996671
 30
0.0
 11
16.46099999998353
 21
8.999899999990987
 31
0.0
1001
ACAD
1000
ASC_BOUNDS
1002
{
1070
    19
1005
19D86
1002
}
  0
LINE
  5
19D68
330
19D42
100
AcDbEntity
  8
0
100
AcDbLine
 10
20.89099999997916
 20
8.763099999991255
 30
0.0
 11
22.38199999997767
 21
8.763099999991255
 31
0.0
1001
ACAD
1000
ASC_BOUNDS
1002
{
1070
    19
1005
19D86
1002
}
  0
LINE
  5
19D69
330
19D42
100
AcDbEntity
  8
0
100
AcDbLine
 10
24.39299999997559
 20
3.670999999996297
 30
0.0
 11
23.56599999997638
 21
5.5200999999945
 31
0.0
1001
ACAD
1000
ASC_BOUNDS
1002
{
1070
    19
1005
19D87
1002
}
  0
LINE
  5
19D6A
330
19D42
100
AcDbEntity
  8
0
100
AcDbLine
 10
44.99999999995498
 20
-0.2368999999997641
 30
0.0
 11
40.02599999995994
 21
5.341799999994635
 31
0.0
1001
ACAD
1000
ASC_BOUNDS
1002
{
1070
    19
1005
19D89
1002
}
  0
LINE
  5
19D6B
330
19D42
100
AcDbEntity
  8
0
100
AcDbLine
 10
40.02599999995994
 20
5.341799999994635
 30
0.0
 11
40.02599999995994
 21
0.0
 31
0.0
1001
ACAD
1000
ASC_BOUNDS
1002
{
1070
    19
1005
19D89
1002
}
  0
LINE
  5
19D6C
330
19D42
100
AcDbEntity
  8
0
100
AcDbLine
 10
38.60499999996136
 20
8.999999999991019
 30
0.0
 11
38.60499999996136
 21
0.0
 31
0.0
1001
ACAD
1000
ASC_BOUNDS
1002
{
1070
    19
1005
19D89
1002
}
  0
LINE
  5
19D6D
330
19D42
100
AcDbEntity
  8
0
100
AcDbLine
 10
44.99999999995498
 20
8.763099999991255
 30
0.0
 11
44.99999999995498
 21
-0.2368999999997641
 31
0.0
1001
ACAD
1000
ASC_BOUNDS
1002
{
1070
    19
1005
19D89
1002
}
  0
LINE
  5
19D6E
330
19D42
100
AcDbEntity
  8
0
100
AcDbLine
 10
38.60499999996136
 20
0.0
 30
0.0
 11
40.02599999995994
 21
0.0
 31
0.0
1001
ACAD
1000
ASC_BOUNDS
1002
{
1070
    19
1005
19D89
1002
}
  0
LINE
  5
19D6F
330
19D42
100
AcDbEntity
  8
0
100
AcDbLine
 10
43.57899999995641
 20
3.421199999996588
 30
0.0
 11
38.60499999996136
 21
8.999899999990987
 31
0.0
1001
ACAD
1000
ASC_BOUNDS
1002
{
1070
    19
1005
19D89
1002
}
  0
LINE
  5
19D70
330
19D42
100
AcDbEntity
  8
0
100
AcDbLine
 10
43.57899999995641
 20
8.763099999991255
 30
0.0
 11
43.57899999995641
 21
3.421199999996588
 31
0.0
1001
ACAD
1000
ASC_BOUNDS
1002
{
1070
    19
1005
19D89
1002
}
  0
LINE
  5
19D71
330
19D42
100
AcDbEntity
  8
0
100
AcDbLine
 10
43.57899999995641
 20
8.763099999991255
 30
0.0
 11
44.99999999995498
 21
8.763099999991255
 31
0.0
1001
ACAD
1000
ASC_BOUNDS
1002
{
1070
    19
1005
19D89
1002
}
  0
LINE
  5
19D72
330
19D42
100
AcDbEntity
  8
0
100
AcDbLine
 10
37.67199999996831
 20
8.763099999991255
 30
0.0
 11
36.23199999996837
 21
8.763099999991255
 31
0.0
  0
LINE
  5
19D73
330
19D42
100
AcDbEntity
  8
0
100
AcDbLine
 10
31.64199999996833
 20
8.763099999991255
 30
0.0
 11
31.64199999996833
 21
2.481619422925121
 31
0.0
  0
LINE
  5
19D74
330
19D42
100
AcDbEntity
  8
0
100
AcDbLine
 10
37.67199999996831
 20
8.763099999991255
 30
0.0
 11
37.67199999996831
 21
2.481619422925121
 31
0.0
  0
LINE
  5
19D75
330
19D42
100
AcDbEntity
  8
0
100
AcDbLine
 10
36.23199999996837
 20
8.763099999991255
 30
0.0
 11
36.23199999996837
 21
2.481619422925064
 31
0.0
  0
LINE
  5
19D76
330
19D42
100
AcDbEntity
  8
0
100
AcDbLine
 10
33.08199999996839
 20
8.763099999991255
 30
0.0
 11
33.08199999996839
 21
2.481619422925121
 31
0.0
  0
ARC
  5
19D77
330
19D42
100
AcDbEntity
  8
0
100
AcDbCircle
 10
34.65699999996832
 20
3.183099999991214
 30
0.0
 40
3.420000000000007
100
AcDbArc
 50
240.0000000000255
 51
299.9999999999766
  0
ARC
  5
19D78
330
19D42
100
AcDbEntity
  8
0
100
AcDbCircle
 10
34.65699999996832
 20
3.183099999991214
 30
0.0
 40
1.97999999999999
100
AcDbArc
 50
240.000000000026
 51
299.9999999999703
  0
LINE
  5
19D79
330
19D42
100
AcDbEntity
  8
0
100
AcDbLine
 10
33.08199999996828
 20
8.763099999991255
 30
0.0
 11
31.64199999996833
 21
8.763099999991255
 31
0.0
  0
ARC
  5
19D7A
330
19D42
100
AcDbEntity
  8
0
100
AcDbCircle
 10
35.06199999996829
 20
2.481619422925064
 30
0.0
 40
1.17
100
AcDbArc
 50
299.9999999999699
 51
0.0
  0
ARC
  5
19D7B
330
19D42
100
AcDbEntity
  8
0
100
AcDbCircle
 10
34.25199999996835
 20
2.481619422925121
 30
0.0
 40
1.17
100
AcDbArc
 50
180.0
 51
240.0000000000238
  0
ARC
  5
19D7C
330
19D42
100
AcDbEntity
  8
0
100
AcDbCircle
 10
35.06199999996841
 20
2.481619422925121
 30
0.0
 40
2.61
100
AcDbArc
 50
299.9999999999756
 51
0.0
  0
ARC
  5
19D7D
330
19D42
100
AcDbEntity
  8
0
100
AcDbCircle
 10
34.25199999996835
 20
2.481619422925121
 30
0.0
 40
2.61
100
AcDbArc
 50
180.0
 51
240.0000000000244
  0
LINE
  5
19D7E
330
19D42
100
AcDbEntity
  8
0
100
AcDbLine
 10
29.30199999996933
 20
8.763099999991255
 30
0.0
 11
30.74199999996927
 21
8.763099999991255
 31
0.0
1001
ACAD
1000
ASC_BOUNDS
1002
{
1070
    19
1005
19D87
1002
}
  0
LINE
  5
19D7F
330
19D42
100
AcDbEntity
  8
0
100
AcDbLine
 10
30.74199999996927
 20
8.763099999991255
 30
0.0
 11
30.74199999996927
 21
2.373099999991211
 31
0.0
1001
ACAD
1000
ASC_BOUNDS
1002
{
1070
    19
1005
19D87
1002
}
  0
LINE
  5
19D80
330
19D42
100
AcDbEntity
  8
0
100
AcDbLine
 10
26.02015566812236
 20
0.0330999999912365
 30
0.0
 11
28.40199999996923
 21
0.0330999999912365
 31
0.0
1001
ACAD
1000
ASC_BOUNDS
1002
{
1070
    19
1005
19D87
1002
}
  0
LINE
  5
19D81
330
19D42
100
AcDbEntity
  8
0
100
AcDbLine
 10
29.30199999996933
 20
8.763099999991255
 30
0.0
 11
29.30199999996933
 21
2.283099999991236
 31
0.0
1001
ACAD
1000
ASC_BOUNDS
1002
{
1070
    19
1005
19D87
1002
}
  0
LINE
  5
19D82
330
19D42
100
AcDbEntity
  8
0
100
AcDbLine
 10
26.97358892824991
 20
1.383099999991202
 30
0.0
 11
28.40199999996923
 21
1.383099999991202
 31
0.0
1001
ACAD
1000
ASC_BOUNDS
1002
{
1070
    19
1005
19D87
1002
}
  0
ARC
  5
19D83
330
19D42
100
AcDbEntity
  8
0
100
AcDbCircle
 10
28.40199999996923
 20
2.283099999991236
 30
0.0
 40
0.9
100
AcDbArc
 50
270.0
 51
0.0
1001
ACAD
1000
ASC_BOUNDS
1002
{
1070
    19
1005
19D87
1002
}
  0
ARC
  5
19D84
330
19D42
100
AcDbEntity
  8
0
100
AcDbCircle
 10
28.40199999996923
 20
2.373099999991211
 30
0.0
 40
2.34
100
AcDbArc
 50
270.0
 51
0.0
1001
ACAD
1000
ASC_BOUNDS
1002
{
1070
    19
1005
19D87
1002
}
  0
INSERT
  5
19D85
330
19D42
100
AcDbEntity
  8
0
100
AcDbBlockReference
  2
*X38
 10
0.0
 20
0.0
 30
0.0
1001
ACAD
1000
HATCH
1002
{
1070
    19
1000
ANSI37
1040
0.15
1040
0.0
1000
ASC_BOUNDS
1070
     2
1070
     2
1070
    12
1005
19D44
1005
19D45
1005
19D4C
1005
19D5B
1005
19D5E
1005
19D5C
1005
19D4D
1005
19D52
1005
19D50
1005
19D54
1005
19D53
1005
19D55
1070
     2
1070
     3
1005
19D60
1005
19D62
1005
19D61
1000
ASC_SEEDPOINT
1011
3.614004224891801
1021
2.996669441146025
1031
0.0
1000
R14_HATCH_DATA
1000
19D85
1011
1.0
1021
0.0
1031
0.0
1011
0.0
1021
1.0
1031
0.0
1011
0.0
1021
0.0
1031
1.0
1040
0.0
1010
0.0
1020
0.0
1030
1.0
1000
ANSI37
1070
     0
1070
     1
1071
        2
1071
        7
1070
     0
1070
     1
1071
       17
1040
13.26299999998673
1040
-0.0001000000000317
1040
9.236999999990758
1040
8.999899999990987
1040
9.236999999990758
1040
8.999999999991019
1040
5.657999999994331
1040
0.9999999999989768
1040
3.181999999996833
1040
4.668599999995308
1040
6.432999999993513
1040
8.763099999991255
1040
4.617999999995391
1040
8.763099999991255
1040
1.420999999998571
1040
4.736799999995242
1040
4.617999999995391
1040
-0.0001000000000317
1040
4.617999999995391
1040
0.0
1040
6.766999999993232
1040
0.0
1040
6.766999999993232
1040
-0.0001000000000317
1040
7.826999999992154
1040
2.368399999997621
1040
10.64699999998936
1040
2.368399999997621
1040
11.70599999998831
1040
-0.0001000000000317
1040
11.70599999998831
1040
0.0
1040
13.26299999998673
1040
0.0
1071
       12
1005
19D44
1005
19D45
1005
19D4C
1005
19D5B
1005
19D5E
1005
19D5C
1005
19D4D
1005
19D52
1005
19D50
1005
19D54
1005
19D53
1005
19D55
1071
       22
1070
     0
1070
     1
1071
        3
1040
9.236999999990758
1040
5.5200999999945
1040
10.06399999998996
1040
3.670999999996297
1040
8.409999999991555
1040
3.670999999996297
1071
        3
1005
19D60
1005
19D62
1005
19D61
1070
     0
1070
     1
1040
0.0
1040
0.15
1070
     0
1070
     2
1040
0.7853981633974483
1040
49.29960901727088
1040
-10.17736998311392
1040
-0.3367596045400932
1040
0.3367596045400932
1070
     0
1040
2.356194490192345
1040
49.29960901727088
1040
-10.17736998311392
1040
-0.3367596045400932
1040
-0.3367596045400932
1070
     0
1040
0.0110235143455945
1071
        2
1040
3.614004224891801
1040
2.996669441146025
1040
0.0
1040
3.614004224891801
1040
2.996669441146025
1040
0.0
1002
}
  0
INSERT
  5
19D86
330
19D42
100
AcDbEntity
  8
0
100
AcDbBlockReference
  2
*X39
 10
0.0
 20
0.0
 30
0.0
1001
ACAD
1000
HATCH
1002
{
1070
    19
1000
ANSI37
1040
0.15
1040
0.0
1000
ASC_BOUNDS
1070
     1
1070
     2
1070
    10
1005
19D46
1005
19D47
1005
19D68
1005
19D66
1005
19D67
1005
19D5A
1005
19D5F
1005
19D63
1005
19D49
1005
19D48
1000
ASC_SEEDPOINT
1011
14.73245321214324
1021
2.798246178283421
1031
0.0
1000
R14_HATCH_DATA
1000
19D86
1011
1.0
1021
0.0
1031
0.0
1011
0.0
1021
1.0
1031
0.0
1011
0.0
1021
0.0
1031
1.0
1040
0.0
1010
0.0
1020
0.0
1030
1.0
1000
ANSI37
1070
     0
1070
     1
1071
        1
1071
        7
1070
     0
1070
     1
1071
       10
1040
16.46099999998353
1040
5.432899999994561
1040
18.59199999998134
1040
-0.2368999999997641
1040
22.38199999997767
1040
8.763099999991255
1040
20.89099999997916
1040
8.763099999991255
1040
18.59799999998143
1040
3.315799999996671
1040
16.46099999998353
1040
8.999899999990987
1040
14.32399999998563
1040
3.315799999996671
1040
12.02999999998792
1040
8.763099999991255
1040
10.53899999998941
1040
8.763099999991255
1040
14.32899999998563
1040
-0.2368999999997641
1071
       10
1005
19D46
1005
19D47
1005
19D68
1005
19D66
1005
19D67
1005
19D5A
1005
19D5F
1005
19D63
1005
19D49
1005
19D48
1070
     0
1070
     1
1040
0.0
1040
0.15
1070
     0
1070
     2
1040
0.7853981633974483
1040
49.29960901727088
1040
-10.17736998311392
1040
-0.3367596045400932
1040
0.3367596045400932
1070
     0
1040
2.356194490192345
1040
49.29960901727088
1040
-10.17736998311392
1040
-0.3367596045400932
1040
-0.3367596045400932
1070
     0
1040
0.0110235143455945
1071
        1
1040
14.73245321214324
1040
2.798246178283421
1040
0.0
1002
}
  0
INSERT
  5
19D87
330
19D42
100
AcDbEntity
  8
0
100
AcDbBlockReference
  2
*X40
 10
0.0
 20
0.0
 30
0.0
1001
ACAD
1000
HATCH
1002
{
1070
    19
1000
ANSI37
1040
0.15
1040
0.0
1000
ASC_BOUNDS
1070
     2
1070
     2
1070
    13
1005
19D4A
1005
19D57
1005
19D58
1005
19D56
1005
19D59
1005
19D80
1005
19D84
1005
19D7F
1005
19D7E
1005
19D81
1005
19D83
1005
19D82
1005
19D4B
1070
     2
1070
     3
1005
19D64
1005
19D69
1005
19D65
1000
ASC_SEEDPOINT
1011
21.97929957367762
1021
3.294304244259308
1031
0.0
1000
R14_HATCH_DATA
1000
19D87
1011
1.0
1021
0.0
1031
0.0
1011
0.0
1021
1.0
1031
0.0
1011
0.0
1021
0.0
1031
1.0
1040
0.0
1010
0.0
1020
0.0
1030
1.0
1000
ANSI37
1070
     0
1070
     1
1071
        2
1071
        7
1070
     1
1070
     1
1071
       15
1040
23.56599999997638
1040
8.999899999990987
1040
0.0
1040
19.53899999998043
1040
-0.0001000000000317
1040
0.0
1040
19.53899999998043
1040
0.0
1040
0.0
1040
21.09599999997886
1040
0.0
1040
0.0
1040
21.09599999997886
1040
-0.0001000000000317
1040
0.0
1040
22.15599999997789
1040
2.368399999997621
1040
0.0
1040
24.97599999997499
1040
2.368399999997621
1040
0.0
1040
26.02015566812236
1040
0.0330999999912365
1040
0.0
1040
28.40199999996923
1040
0.0330999999912365
1040
0.414213562373095
1040
30.74199999996923
1040
2.373099999991211
1040
0.0
1040
30.74199999996927
1040
8.763099999991255
1040
0.0
1040
29.30199999996933
1040
8.763099999991255
1040
0.0
1040
29.30199999996933
1040
2.283099999991236
1040
-0.414213562373095
1040
28.40199999996923
1040
1.383099999991237
1040
0.0
1040
26.97358892824991
1040
1.383099999991202
1040
0.0
1071
       13
1005
19D4A
1005
19D57
1005
19D58
1005
19D56
1005
19D59
1005
19D80
1005
19D84
1005
19D7F
1005
19D7E
1005
19D81
1005
19D83
1005
19D82
1005
19D4B
1071
       22
1070
     0
1070
     1
1071
        3
1040
22.7389999999773
1040
3.670999999996297
1040
23.56599999997638
1040
5.5200999999945
1040
24.39299999997559
1040
3.670999999996297
1071
        3
1005
19D64
1005
19D69
1005
19D65
1070
     0
1070
     1
1040
0.0
1040
0.15
1070
     0
1070
     2
1040
0.7853981633974483
1040
49.29960901727088
1040
-10.17736998311392
1040
-0.3367596045400932
1040
0.3367596045400932
1070
     0
1040
2.356194490192345
1040
49.29960901727088
1040
-10.17736998311392
1040
-0.3367596045400932
1040
-0.3367596045400932
1070
     0
1040
0.0110235143455945
1071
        2
1040
21.97929957367762
1040
3.294304244259308
1040
0.0
1040
21.97929957367762
1040
3.294304244259308
1040
0.0
1002
}
  0
INSERT
  5
19D88
330
19D42
100
AcDbEntity
  8
0
100
AcDbBlockReference
  2
*X41
 10
0.0
 20
0.0
 30
0.0
1001
ACAD
1000
HATCH
1002
{
1070
    19
1000
ANSI37
1040
0.15
1040
0.0
1000
R14_HATCH_DATA
1000
19D88
1011
1.0
1021
0.0
1031
0.0
1011
0.0
1021
1.0
1031
0.0
1011
0.0
1021
0.0
1031
1.0
1040
0.0
1010
0.0
1020
0.0
1030
1.0
1000
ANSI37
1070
     0
1070
     1
1071
        1
1071
        7
1070
     1
1070
     1
1071
       12
1040
31.64199999996833
1040
2.481619422925121
1040
0.2679491924310942
1040
32.94699999997067
1040
0.2212931190493919
1040
0.2679491924301353
1040
36.36699999995983
1040
0.2212931190459813
1040
0.2679491924321411
1040
37.67199999996831
1040
2.481619422928361
1040
0.0
1040
37.67199999996831
1040
8.763099999991255
1040
0.0
1040
36.23199999996837
1040
8.763099999991255
1040
0.0
1040
36.23199999996837
1040
2.481619422925064
1040
-0.2679491924310291
1040
35.64699999996708
1040
1.468369700498386
1040
-0.267949192430519
1040
33.66699999997093
1040
1.468369700497703
1040
-0.267949192431809
1040
33.08199999996839
1040
2.481619422926997
1040
0.0
1040
33.08199999996839
1040
8.763099999991255
1040
0.0
1040
31.64199999996833
1040
8.763099999991255
1040
0.0
1071
        0
1070
     0
1070
     1
1040
0.0
1040
0.15
1070
     0
1070
     2
1040
0.7853981633974483
1040
49.29960901727088
1040
-10.17736998311392
1040
-0.3367596045400932
1040
0.3367596045400932
1070
     0
1040
2.356194490192345
1040
49.29960901727088
1040
-10.17736998311392
1040
-0.3367596045400932
1040
-0.3367596045400932
1070
     0
1040
0.0110235143455945
1071
        1
1040
32.30357378967278
1040
3.988785755459219
1040
0.0
1002
}
  0
INSERT
  5
19D89
330
19D42
100
AcDbEntity
  8
0
100
AcDbBlockReference
  2
*X42
 10
0.0
 20
0.0
 30
0.0
1001
ACAD
1000
HATCH
1002
{
1070
    19
1000
ANSI37
1040
0.15
1040
0.0
1000
ASC_BOUNDS
1070
     1
1070
     2
1070
     8
1005
19D6A
1005
19D6D
1005
19D71
1005
19D70
1005
19D6F
1005
19D6C
1005
19D6E
1005
19D6B
1000
ASC_SEEDPOINT
1011
39.74896370716704
1021
4.484843821435049
1031
0.0
1000
R14_HATCH_DATA
1000
19D89
1011
1.0
1021
0.0
1031
0.0
1011
0.0
1021
1.0
1031
0.0
1011
0.0
1021
0.0
1031
1.0
1040
0.0
1010
0.0
1020
0.0
1030
1.0
1000
ANSI37
1070
     0
1070
     1
1071
        1
1071
        7
1070
     0
1070
     1
1071
        9
1040
40.02599999995994
1040
5.341799999994635
1040
44.99999999995498
1040
-0.2368999999997641
1040
44.99999999995498
1040
8.763099999991255
1040
43.57899999995641
1040
8.763099999991255
1040
43.57899999995641
1040
3.421199999996588
1040
38.60499999996136
1040
8.999899999990987
1040
38.60499999996136
1040
8.999999999991019
1040
38.60499999996136
1040
0.0
1040
40.02599999995994
1040
0.0
1071
        8
1005
19D6A
1005
19D6D
1005
19D71
1005
19D70
1005
19D6F
1005
19D6C
1005
19D6E
1005
19D6B
1070
     0
1070
     1
1040
0.0
1040
0.15
1070
     0
1070
     2
1040
0.7853981633974483
1040
49.29960901727088
1040
-10.17736998311392
1040
-0.3367596045400932
1040
0.3367596045400932
1070
     0
1040
2.356194490192345
1040
49.29960901727088
1040
-10.17736998311392
1040
-0.3367596045400932
1040
-0.3367596045400932
1070
     0
1040
0.0110235143455945
1071
        1
1040
39.74896370716704
1040
4.484843821435049
1040
0.0
1002
}
  0
INSERT
  5
19D8A
330
19D42
100
AcDbEntity
  8
0
100
AcDbBlockReference
  2
*X43
 10
0.0
 20
0.0
 30
0.0
1001
ACAD
1000
HATCH
1002
{
1070
    19
1000
ANSI37
1040
0.15
1040
0.0
1000
ASC_BOUNDS
1070
     1
1070
     2
1070
     4
1005
19D4E
1005
19D5D
1005
19D4F
1005
19D51
1000
ASC_SEEDPOINT
1011
1.079051535452663
1021
4.148538732891836
1031
0.0
1000
R14_HATCH_DATA
1000
19D8A
1011
1.0
1021
0.0
1031
0.0
1011
0.0
1021
1.0
1031
0.0
1011
0.0
1021
0.0
1031
1.0
1040
0.0
1010
0.0
1020
0.0
1030
1.0
1000
ANSI37
1070
     0
1070
     1
1071
        1
1071
        7
1070
     0
1070
     1
1071
        4
1040
1.420999999998571
1040
0.0
1040
1.420999999998571
1040
8.763099999991255
1040
0.0
1040
8.763099999991255
1040
0.0
1040
0.0
1071
        4
1005
19D4E
1005
19D5D
1005
19D4F
1005
19D51
1070
     0
1070
     1
1040
0.0
1040
0.15
1070
     0
1070
     2
1040
0.7853981633974483
1040
49.29960901727088
1040
-10.17736998311392
1040
-0.3367596045400932
1040
0.3367596045400932
1070
     0
1040
2.356194490192345
1040
49.29960901727088
1040
-10.17736998311392
1040
-0.3367596045400932
1040
-0.3367596045400932
1070
     0
1040
0.0053004257112761
1071
        1
1040
1.079051535452663
1040
4.148538732891836
1040
0.0
1002
}
  0
ENDBLK
  5
1A551
330
19D42
100
AcDbEntity
  8
0
100
AcDbBlockEnd
  0
BLOCK
  5
1B1C5
330
1B037
100
AcDbEntity
  8
0
100
AcDbBlockBegin
  2
*X38
 70
     1
 10
0.0
 20
0.0
 30
0.0
  3
*X38
  1

  0
LINE
  5
1B038
330
1B037
100
AcDbEntity
  8
0
  6
CONTINUOUS
100
AcDbLine
 10
3.418023043697893
 20
7.251849696850613
 30
0.0
 11
4.929273346838536
 21
8.763099999991255
 31
0.0
  0
LINE
  5
1B039
330
1B037
100
AcDbEntity
  8
0
  6
CONTINUOUS
100
AcDbLine
 10
1.483656411257782
 20
4.643963855330318
 30
0.0
 11
5.60279255591872
 21
8.763099999991255
 31
0.0
  0
LINE
  5
1B03A
330
1B037
100
AcDbEntity
  8
0
  6
CONTINUOUS
100
AcDbLine
 10
1.755053947328235
 20
4.241842182320584
 30
0.0
 11
6.276311764998907
 21
8.763099999991255
 31
0.0
  0
LINE
  5
1B03B
330
1B037
100
AcDbEntity
  8
0
  6
CONTINUOUS
100
AcDbLine
 10
2.026451483398688
 20
3.839720509310849
 30
0.0
 11
4.441040904851878
 21
6.254309930764039
 31
0.0
  0
LINE
  5
1B03C
330
1B037
100
AcDbEntity
  8
0
  6
CONTINUOUS
100
AcDbLine
 10
2.297849019469139
 20
3.437598836301114
 30
0.0
 11
3.321765168359338
 21
4.461514985191313
 31
0.0
  0
LINE
  5
1B03D
330
1B037
100
AcDbEntity
  8
0
  6
CONTINUOUS
100
AcDbLine
 10
2.569246555539591
 20
3.03547716329138
 30
0.0
 11
3.593163397972743
 21
4.059394005724531
 31
0.0
  0
LINE
  5
1B03E
330
1B037
100
AcDbEntity
  8
0
  6
CONTINUOUS
100
AcDbLine
 10
2.840644091610043
 20
2.633355490281646
 30
0.0
 11
3.864561627586149
 21
3.657273026257751
 31
0.0
  0
LINE
  5
1B03F
330
1B037
100
AcDbEntity
  8
0
  6
CONTINUOUS
100
AcDbLine
 10
3.112041627680496
 20
2.231233817271911
 30
0.0
 11
4.135959857199554
 21
3.25515204679097
 31
0.0
  0
LINE
  5
1B040
330
1B037
100
AcDbEntity
  8
0
  6
CONTINUOUS
100
AcDbLine
 10
3.383439163750948
 20
1.829112144262177
 30
0.0
 11
4.40735808681296
 21
2.853031067324189
 31
0.0
  0
LINE
  5
1B041
330
1B037
100
AcDbEntity
  8
0
  6
CONTINUOUS
100
AcDbLine
 10
3.654836699821399
 20
1.426990471252442
 30
0.0
 11
4.678756316426365
 21
2.450910087857407
 31
0.0
  0
LINE
  5
1B042
330
1B037
100
AcDbEntity
  8
0
  6
CONTINUOUS
100
AcDbLine
 10
3.926234235891853
 20
1.024868798242709
 30
0.0
 11
4.95015454603977
 21
2.048789108390626
 31
0.0
  0
LINE
  5
1B043
330
1B037
100
AcDbEntity
  8
0
  6
CONTINUOUS
100
AcDbLine
 10
4.197631771962304
 20
0.6227471252329737
 30
0.0
 11
5.221552775653176
 21
1.646668128923846
 31
0.0
  0
LINE
  5
1B044
330
1B037
100
AcDbEntity
  8
0
  6
CONTINUOUS
100
AcDbLine
 10
8.715877546767851
 20
7.835069736359266
 30
0.0
 11
9.435953450375058
 21
8.555145639966472
 31
0.0
  0
LINE
  5
1B045
330
1B037
100
AcDbEntity
  8
0
  6
CONTINUOUS
100
AcDbLine
 10
8.170620868422267
 20
6.616293848933497
 30
0.0
 11
9.644120833743461
 21
8.08979381425469
 31
0.0
  0
LINE
  5
1B046
330
1B037
100
AcDbEntity
  8
0
  6
CONTINUOUS
100
AcDbLine
 10
7.625364190076684
 20
5.397517961507727
 30
0.0
 11
9.852288217111864
 21
7.624441988542907
 31
0.0
  0
LINE
  5
1B047
330
1B037
100
AcDbEntity
  8
0
  6
CONTINUOUS
100
AcDbLine
 10
7.080107511731101
 20
4.178742074081957
 30
0.0
 11
10.06045560048027
 21
7.159090162831124
 31
0.0
  0
LINE
  5
1B048
330
1B037
100
AcDbEntity
  8
0
  6
CONTINUOUS
100
AcDbLine
 10
6.534850833385518
 20
2.959966186656187
 30
0.0
 11
10.26862298384867
 21
6.693738337119342
 31
0.0
  0
LINE
  5
1B049
330
1B037
100
AcDbEntity
  8
0
  6
CONTINUOUS
100
AcDbLine
 10
4.469029308032756
 20
0.2206254522232385
 30
0.0
 11
5.492951005266582
 21
1.244547149457064
 31
0.0
  0
LINE
  5
1B04A
330
1B037
100
AcDbEntity
  8
0
  6
CONTINUOUS
100
AcDbLine
 10
5.989594155039935
 20
1.741190299230417
 30
0.0
 11
8.806950407233131
 21
4.558546551423613
 31
0.0
  0
LINE
  5
1B04B
330
1B037
100
AcDbEntity
  8
0
  6
CONTINUOUS
100
AcDbLine
 10
9.401251593263643
 20
5.152847737454126
 30
0.0
 11
10.47679036721708
 21
6.228386511407559
 31
0.0
  0
LINE
  5
1B04C
330
1B037
100
AcDbEntity
  8
0
  6
CONTINUOUS
100
AcDbLine
 10
4.921837203428691
 20
-0.0000858614610131
 30
0.0
 11
8.592923064886001
 21
3.670999999996297
 31
0.0
  0
LINE
  5
1B04D
330
1B037
100
AcDbEntity
  8
0
  6
CONTINUOUS
100
AcDbLine
 10
9.609390446785305
 20
4.6874673818956
 30
0.0
 11
10.68495775058548
 21
5.763034685695775
 31
0.0
  0
LINE
  5
1B04E
330
1B037
100
AcDbEntity
  8
0
  6
CONTINUOUS
100
AcDbLine
 10
5.595387755019432
 20
-0.0000545189504582
 30
0.0
 11
7.716137258923768
 21
2.120694984953879
 31
0.0
  0
LINE
  5
1B04F
330
1B037
100
AcDbEntity
  8
0
  6
CONTINUOUS
100
AcDbLine
 10
6.268938306610172
 20
-0.000023176439905
 30
0.0
 11
7.170485805526503
 21
0.9015243224764267
 31
0.0
  0
LINE
  5
1B050
330
1B037
100
AcDbEntity
  8
0
  6
CONTINUOUS
100
AcDbLine
 10
7.963842273967511
 20
2.368399999997621
 30
0.0
 11
9.266442273966188
 21
3.670999999996297
 31
0.0
  0
LINE
  5
1B051
330
1B037
100
AcDbEntity
  8
0
  6
CONTINUOUS
100
AcDbLine
 10
8.637361483047696
 20
2.368399999997621
 30
0.0
 11
9.939961483046375
 21
3.670999999996297
 31
0.0
  0
LINE
  5
1B052
330
1B037
100
AcDbEntity
  8
0
  6
CONTINUOUS
100
AcDbLine
 10
9.817529300306965
 20
4.222087026337075
 30
0.0
 11
10.89312513395388
 21
5.297682859983993
 31
0.0
  0
LINE
  5
1B053
330
1B037
100
AcDbEntity
  8
0
  6
CONTINUOUS
100
AcDbLine
 10
10.02566815382863
 20
3.756706670778549
 30
0.0
 11
11.10129251732229
 21
4.832331034272211
 31
0.0
  0
LINE
  5
1B054
330
1B037
100
AcDbEntity
  8
0
  6
CONTINUOUS
100
AcDbLine
 10
9.310880692127883
 20
2.368399999997621
 30
0.0
 11
11.30945990069069
 21
4.366979208560428
 31
0.0
  0
LINE
  5
1B055
330
1B037
100
AcDbEntity
  8
0
  6
CONTINUOUS
100
AcDbLine
 10
9.98439990120807
 20
2.36839999999762
 30
0.0
 11
11.5176272840591
 21
3.901627382848645
 31
0.0
  0
LINE
  5
1B056
330
1B037
100
AcDbEntity
  8
0
  6
CONTINUOUS
100
AcDbLine
 10
10.65037369446246
 20
2.36085458417182
 30
0.0
 11
11.7257946674275
 21
3.436275557136862
 31
0.0
  0
LINE
  5
1B057
330
1B037
100
AcDbEntity
  8
0
  6
CONTINUOUS
100
AcDbLine
 10
10.85847197087848
 20
1.895433651507656
 30
0.0
 11
11.9339620507959
 21
2.97092373142508
 31
0.0
  0
LINE
  5
1B058
330
1B037
100
AcDbEntity
  8
0
  6
CONTINUOUS
100
AcDbLine
 10
11.0665702472945
 20
1.430012718843491
 30
0.0
 11
12.14212943416431
 21
2.505571905713296
 31
0.0
  0
LINE
  5
1B059
330
1B037
100
AcDbEntity
  8
0
  6
CONTINUOUS
100
AcDbLine
 10
11.27466852371052
 20
0.9645917861793256
 30
0.0
 11
12.35029681753271
 21
2.040220080001513
 31
0.0
  0
LINE
  5
1B05A
330
1B037
100
AcDbEntity
  8
0
  6
CONTINUOUS
100
AcDbLine
 10
11.48276680012654
 20
0.4991708535151611
 30
0.0
 11
12.55846420090111
 21
1.57486825428973
 31
0.0
  0
LINE
  5
1B05B
330
1B037
100
AcDbEntity
  8
0
  6
CONTINUOUS
100
AcDbLine
 10
11.69086507654257
 20
0.0337499208509957
 30
0.0
 11
12.76663158426952
 21
1.109516428577947
 31
0.0
  0
LINE
  5
1B05C
330
1B037
100
AcDbEntity
  8
0
  6
CONTINUOUS
100
AcDbLine
 10
12.33057447873954
 20
-0.0000598860322123
 30
0.0
 11
12.97479896763792
 21
0.6441646028661663
 31
0.0
  0
LINE
  5
1B05D
330
1B037
100
AcDbEntity
  8
0
  6
CONTINUOUS
100
AcDbLine
 10
13.00413694809395
 20
-0.0000166257579952
 30
0.0
 11
13.18296635100632
 21
0.1788127771543824
 31
0.0
  0
LINE
  5
1B05E
330
1B037
100
AcDbEntity
  8
0
  6
CONTINUOUS
100
AcDbLine
 10
4.772852165289667
 20
-0.000092794222212
 30
0.0
 11
4.296495091028902
 21
0.4762642800385528
 31
0.0
  0
LINE
  5
1B05F
330
1B037
100
AcDbEntity
  8
0
  6
CONTINUOUS
100
AcDbLine
 10
5.446340034776103
 20
-0.0000614546284616
 30
0.0
 11
2.898195908335625
 21
2.548082671812017
 31
0.0
  0
LINE
  5
1B060
330
1B037
100
AcDbEntity
  8
0
  6
CONTINUOUS
100
AcDbLine
 10
6.119827904262539
 20
-0.0000301150347113
 30
0.0
 11
1.499896725642348
 21
4.61990106358548
 31
0.0
  0
LINE
  5
1B061
330
1B037
100
AcDbEntity
  8
0
  6
CONTINUOUS
100
AcDbLine
 10
6.775136745476159
 20
0.0181802528318542
 30
0.0
 11
5.699826040202669
 21
1.093490958105344
 31
0.0
  0
LINE
  5
1B062
330
1B037
100
AcDbEntity
  8
0
  6
CONTINUOUS
100
AcDbLine
 10
6.983376846288489
 20
0.4834593610997118
 30
0.0
 11
5.908008617934405
 21
1.558827589453796
 31
0.0
  0
LINE
  5
1B063
330
1B037
100
AcDbEntity
  8
0
  6
CONTINUOUS
100
AcDbLine
 10
5.377063484962296
 20
1.416253513345719
 30
0.0
 11
1.702276957014131
 21
5.091040041293883
 31
0.0
  0
LINE
  5
1B064
330
1B037
100
AcDbEntity
  8
0
  6
CONTINUOUS
100
AcDbLine
 10
3.978745891735324
 20
3.488090315652877
 30
0.0
 11
2.000373521109399
 21
5.466462686278803
 31
0.0
  0
LINE
  5
1B065
330
1B037
100
AcDbEntity
  8
0
  6
CONTINUOUS
100
AcDbLine
 10
7.191616947100819
 20
0.948738469367568
 30
0.0
 11
6.11619119566614
 21
2.024164220802247
 31
0.0
  0
LINE
  5
1B066
330
1B037
100
AcDbEntity
  8
0
  6
CONTINUOUS
100
AcDbLine
 10
7.399857047913149
 20
1.414017577635424
 30
0.0
 11
6.324373773397875
 21
2.489500852150698
 31
0.0
  0
LINE
  5
1B067
330
1B037
100
AcDbEntity
  8
0
  6
CONTINUOUS
100
AcDbLine
 10
7.608097148725479
 20
1.879296685903281
 30
0.0
 11
6.53255635112961
 21
2.95483748349915
 31
0.0
  0
LINE
  5
1B068
330
1B037
100
AcDbEntity
  8
0
  6
CONTINUOUS
100
AcDbLine
 10
7.816337249537808
 20
2.344575794171138
 30
0.0
 11
6.740738928861345
 21
3.420174114847601
 31
0.0
  0
LINE
  5
1B069
330
1B037
100
AcDbEntity
  8
0
  6
CONTINUOUS
100
AcDbLine
 10
3.310241080789734
 20
4.830114335678653
 30
0.0
 11
2.298470085204666
 21
5.84188533126372
 31
0.0
  0
LINE
  5
1B06A
330
1B037
100
AcDbEntity
  8
0
  6
CONTINUOUS
100
AcDbLine
 10
3.60832983563551
 20
5.205544789913063
 30
0.0
 11
2.596566649299935
 21
6.217307976248638
 31
0.0
  0
LINE
  5
1B06B
330
1B037
100
AcDbEntity
  8
0
  6
CONTINUOUS
100
AcDbLine
 10
3.906418590481286
 20
5.580975244147473
 30
0.0
 11
2.894663213395203
 21
6.592730621233557
 31
0.0
  0
LINE
  5
1B06C
330
1B037
100
AcDbEntity
  8
0
  6
CONTINUOUS
100
AcDbLine
 10
4.204507345327062
 20
5.956405698381884
 30
0.0
 11
3.192759777490472
 21
6.968153266218474
 31
0.0
  0
LINE
  5
1B06D
330
1B037
100
AcDbEntity
  8
0
  6
CONTINUOUS
100
AcDbLine
 10
8.466032252791512
 20
2.368399999997621
 30
0.0
 11
6.948921506593081
 21
3.885510746196053
 31
0.0
  0
LINE
  5
1B06E
330
1B037
100
AcDbEntity
  8
0
  6
CONTINUOUS
100
AcDbLine
 10
9.139551461871699
 20
2.36839999999762
 30
0.0
 11
7.157104084324816
 21
4.350847377544504
 31
0.0
  0
LINE
  5
1B06F
330
1B037
100
AcDbEntity
  8
0
  6
CONTINUOUS
100
AcDbLine
 10
4.502596100172839
 20
6.331836152616295
 30
0.0
 11
3.49085634158574
 21
7.343575911203393
 31
0.0
  0
LINE
  5
1B070
330
1B037
100
AcDbEntity
  8
0
  6
CONTINUOUS
100
AcDbLine
 10
4.800684855018615
 20
6.707266606850705
 30
0.0
 11
3.788952905681008
 21
7.718998556188312
 31
0.0
  0
LINE
  5
1B071
330
1B037
100
AcDbEntity
  8
0
  6
CONTINUOUS
100
AcDbLine
 10
12.18154012887317
 20
-0.0000694579236642
 30
0.0
 11
11.32140332908496
 21
0.8600673418645499
 31
0.0
  0
LINE
  5
1B072
330
1B037
100
AcDbEntity
  8
0
  6
CONTINUOUS
100
AcDbLine
 10
12.85501608323566
 20
-0.0000262032059659
 30
0.0
 11
10.77672456435345
 21
2.078265315676246
 31
0.0
  0
LINE
  5
1B073
330
1B037
100
AcDbEntity
  8
0
  6
CONTINUOUS
100
AcDbLine
 10
9.813070670951886
 20
2.36839999999762
 30
0.0
 11
8.51047067095321
 21
3.670999999996297
 31
0.0
  0
LINE
  5
1B074
330
1B037
100
AcDbEntity
  8
0
  6
CONTINUOUS
100
AcDbLine
 10
10.48658988003207
 20
2.36839999999762
 30
0.0
 11
9.183989880033396
 21
3.670999999996297
 31
0.0
  0
LINE
  5
1B075
330
1B037
100
AcDbEntity
  8
0
  6
CONTINUOUS
100
AcDbLine
 10
8.441048632286794
 20
3.740422038662712
 30
0.0
 11
7.365286662056551
 21
4.816184008892956
 31
0.0
  0
LINE
  5
1B076
330
1B037
100
AcDbEntity
  8
0
  6
CONTINUOUS
100
AcDbLine
 10
8.649187485808454
 20
4.205802394221237
 30
0.0
 11
7.573469239788285
 21
5.281520640241407
 31
0.0
  0
LINE
  5
1B077
330
1B037
100
AcDbEntity
  8
0
  6
CONTINUOUS
100
AcDbLine
 10
5.098773609864391
 20
7.082697061085115
 30
0.0
 11
4.087049469776277
 21
8.09442120117323
 31
0.0
  0
LINE
  5
1B078
330
1B037
100
AcDbEntity
  8
0
  6
CONTINUOUS
100
AcDbLine
 10
5.396862364710167
 20
7.458127515319526
 30
0.0
 11
4.385146033871544
 21
8.469843846158149
 31
0.0
  0
LINE
  5
1B079
330
1B037
100
AcDbEntity
  8
0
  6
CONTINUOUS
100
AcDbLine
 10
13.04801363231285
 20
0.4804954567970334
 30
0.0
 11
9.85750908911358
 21
3.670999999996297
 31
0.0
  0
LINE
  5
1B07A
330
1B037
100
AcDbEntity
  8
0
  6
CONTINUOUS
100
AcDbLine
 10
8.857326339330116
 20
4.671182749779763
 30
0.0
 11
7.781651817520021
 21
5.746857271589858
 31
0.0
  0
LINE
  5
1B07B
330
1B037
100
AcDbEntity
  8
0
  6
CONTINUOUS
100
AcDbLine
 10
5.694951119555943
 20
7.833557969553937
 30
0.0
 11
4.765409089118624
 21
8.763099999991255
 31
0.0
  0
LINE
  5
1B07C
330
1B037
100
AcDbEntity
  8
0
  6
CONTINUOUS
100
AcDbLine
 10
12.50286117236978
 20
1.699167125820288
 30
0.0
 11
9.68611877250287
 21
4.515909525687196
 31
0.0
  0
LINE
  5
1B07D
330
1B037
100
AcDbEntity
  8
0
  6
CONTINUOUS
100
AcDbLine
 10
9.065465192851777
 20
5.136563105338288
 30
0.0
 11
7.989834395251757
 21
6.21219390293831
 31
0.0
  0
LINE
  5
1B07E
330
1B037
100
AcDbEntity
  8
0
  6
CONTINUOUS
100
AcDbLine
 10
5.993039874401719
 20
8.208988423788346
 30
0.0
 11
5.43892829819881
 21
8.763099999991255
 31
0.0
  0
LINE
  5
1B07F
330
1B037
100
AcDbEntity
  8
0
  6
CONTINUOUS
100
AcDbLine
 10
11.95770871242671
 20
2.917838794843543
 30
0.0
 11
8.19801697298349
 21
6.677530534286761
 31
0.0
  0
LINE
  5
1B080
330
1B037
100
AcDbEntity
  8
0
  6
CONTINUOUS
100
AcDbLine
 10
6.291128629247495
 20
8.584418878022756
 30
0.0
 11
6.112447507278997
 21
8.763099999991255
 31
0.0
  0
LINE
  5
1B081
330
1B037
100
AcDbEntity
  8
0
  6
CONTINUOUS
100
AcDbLine
 10
11.41255625248364
 20
4.136510463866797
 30
0.0
 11
8.406199550715227
 21
7.142867165635211
 31
0.0
  0
LINE
  5
1B082
330
1B037
100
AcDbEntity
  8
0
  6
CONTINUOUS
100
AcDbLine
 10
10.86740379254057
 20
5.355182132890051
 30
0.0
 11
8.614382128446962
 21
7.608203796983664
 31
0.0
  0
LINE
  5
1B083
330
1B037
100
AcDbEntity
  8
0
  6
CONTINUOUS
100
AcDbLine
 10
10.3222513325975
 20
6.573853801913305
 30
0.0
 11
8.822564706178696
 21
8.073540428332114
 31
0.0
  0
LINE
  5
1B084
330
1B037
100
AcDbEntity
  8
0
  6
CONTINUOUS
100
AcDbLine
 10
9.777098872654436
 20
7.792525470936562
 30
0.0
 11
9.030747283910433
 21
8.538877059680566
 31
0.0
  0
ENDBLK
  5
1B1C6
330
1B037
100
AcDbEntity
  8
0
100
AcDbBlockEnd
  0
BLOCK
  5
1B1C7
330
1B085
100
AcDbEntity
  8
0
100
AcDbBlockBegin
  2
*X39
 70
     1
 10
0.0
 20
0.0
 30
0.0
  3
*X39
  1

  0
LINE
  5
1B086
330
1B085
100
AcDbEntity
  8
0
  6
CONTINUOUS
100
AcDbLine
 10
10.67292308101235
 20
8.445076852443387
 30
0.0
 11
10.99094622856022
 21
8.763099999991255
 31
0.0
  0
LINE
  5
1B087
330
1B085
100
AcDbEntity
  8
0
  6
CONTINUOUS
100
AcDbLine
 10
10.87250383178748
 20
7.971138394138331
 30
0.0
 11
11.6644654376404
 21
8.763099999991255
 31
0.0
  0
LINE
  5
1B088
330
1B085
100
AcDbEntity
  8
0
  6
CONTINUOUS
100
AcDbLine
 10
11.07208458256261
 20
7.497199935833273
 30
0.0
 11
12.12126590876355
 21
8.546381262034211
 31
0.0
  0
LINE
  5
1B089
330
1B085
100
AcDbEntity
  8
0
  6
CONTINUOUS
100
AcDbLine
 10
11.27166533333774
 20
7.023261477528216
 30
0.0
 11
12.32085164573666
 21
8.072447789927136
 31
0.0
  0
LINE
  5
1B08A
330
1B085
100
AcDbEntity
  8
0
  6
CONTINUOUS
100
AcDbLine
 10
11.47124608411287
 20
6.549323019223158
 30
0.0
 11
12.52043738270977
 21
7.59851431782006
 31
0.0
  0
LINE
  5
1B08B
330
1B085
100
AcDbEntity
  8
0
  6
CONTINUOUS
100
AcDbLine
 10
11.670826834888
 20
6.075384560918101
 30
0.0
 11
12.72002311968288
 21
7.124580845712984
 31
0.0
  0
LINE
  5
1B08C
330
1B085
100
AcDbEntity
  8
0
  6
CONTINUOUS
100
AcDbLine
 10
11.87040758566313
 20
5.601446102613043
 30
0.0
 11
12.91960885665599
 21
6.650647373605907
 31
0.0
  0
LINE
  5
1B08D
330
1B085
100
AcDbEntity
  8
0
  6
CONTINUOUS
100
AcDbLine
 10
12.06998833643825
 20
5.127507644307986
 30
0.0
 11
13.1191945936291
 21
6.176713901498832
 31
0.0
  0
LINE
  5
1B08E
330
1B085
100
AcDbEntity
  8
0
  6
CONTINUOUS
100
AcDbLine
 10
12.26956908721338
 20
4.65356918600293
 30
0.0
 11
13.31878033060221
 21
5.702780429391757
 31
0.0
  0
LINE
  5
1B08F
330
1B085
100
AcDbEntity
  8
0
  6
CONTINUOUS
100
AcDbLine
 10
12.46914983798851
 20
4.179630727697873
 30
0.0
 11
13.51836606757532
 21
5.228846957284683
 31
0.0
  0
LINE
  5
1B090
330
1B085
100
AcDbEntity
  8
0
  6
CONTINUOUS
100
AcDbLine
 10
12.66873058876364
 20
3.705692269392816
 30
0.0
 11
13.71795180454843
 21
4.754913485177607
 31
0.0
  0
LINE
  5
1B091
330
1B085
100
AcDbEntity
  8
0
  6
CONTINUOUS
100
AcDbLine
 10
12.86831133953877
 20
3.231753811087759
 30
0.0
 11
13.91753754152154
 21
4.280980013070531
 31
0.0
  0
LINE
  5
1B092
330
1B085
100
AcDbEntity
  8
0
  6
CONTINUOUS
100
AcDbLine
 10
13.0678920903139
 20
2.757815352782702
 30
0.0
 11
14.11712327849465
 21
3.807046540963456
 31
0.0
  0
LINE
  5
1B093
330
1B085
100
AcDbEntity
  8
0
  6
CONTINUOUS
100
AcDbLine
 10
13.26747284108903
 20
2.283876894477644
 30
0.0
 11
14.31670901546777
 21
3.333113068856379
 31
0.0
  0
LINE
  5
1B094
330
1B085
100
AcDbEntity
  8
0
  6
CONTINUOUS
100
AcDbLine
 10
16.36767838827179
 20
8.751678487061342
 30
0.0
 11
16.50332410898388
 21
8.887324207773432
 31
0.0
  0
LINE
  5
1B095
330
1B085
100
AcDbEntity
  8
0
  6
CONTINUOUS
100
AcDbLine
 10
15.96190732182191
 20
7.67238821153127
 30
0.0
 11
16.68735328004734
 21
8.397834169756699
 31
0.0
  0
LINE
  5
1B096
330
1B085
100
AcDbEntity
  8
0
  6
CONTINUOUS
100
AcDbLine
 10
15.55613625537202
 20
6.593097936001196
 30
0.0
 11
16.87138245111079
 21
7.908344131739965
 31
0.0
  0
LINE
  5
1B097
330
1B085
100
AcDbEntity
  8
0
  6
CONTINUOUS
100
AcDbLine
 10
15.15036518892213
 20
5.513807660471122
 30
0.0
 11
17.05541162217424
 21
7.418854093723231
 31
0.0
  0
LINE
  5
1B098
330
1B085
100
AcDbEntity
  8
0
  6
CONTINUOUS
100
AcDbLine
 10
14.74459412247225
 20
4.434517384941048
 30
0.0
 11
17.2394407932377
 21
6.929364055706499
 31
0.0
  0
LINE
  5
1B099
330
1B085
100
AcDbEntity
  8
0
  6
CONTINUOUS
100
AcDbLine
 10
14.33882305602236
 20
3.355227109410975
 30
0.0
 11
17.42346996430115
 21
6.439874017689766
 31
0.0
  0
LINE
  5
1B09A
330
1B085
100
AcDbEntity
  8
0
  6
CONTINUOUS
100
AcDbLine
 10
13.46705359186416
 20
1.809938436172586
 30
0.0
 11
16.0819338255367
 21
4.424818669845129
 31
0.0
  0
LINE
  5
1B09B
330
1B085
100
AcDbEntity
  8
0
  6
CONTINUOUS
100
AcDbLine
 10
16.63283254238972
 20
4.975717386698149
 30
0.0
 11
17.60749913536461
 21
5.950383979673033
 31
0.0
  0
LINE
  5
1B09C
330
1B085
100
AcDbEntity
  8
0
  6
CONTINUOUS
100
AcDbLine
 10
13.66663434263929
 20
1.335999977867529
 30
0.0
 11
15.67604797733754
 21
3.345413612565779
 31
0.0
  0
LINE
  5
1B09D
330
1B085
100
AcDbEntity
  8
0
  6
CONTINUOUS
100
AcDbLine
 10
13.86621509341442
 20
0.8620615195624723
 30
0.0
 11
15.27016212913838
 21
2.26600855528643
 31
0.0
  0
LINE
  5
1B09E
330
1B085
100
AcDbEntity
  8
0
  6
CONTINUOUS
100
AcDbLine
 10
16.81682257348267
 20
4.486188208710908
 30
0.0
 11
17.79152830642806
 21
5.460893941656299
 31
0.0
  0
LINE
  5
1B09F
330
1B085
100
AcDbEntity
  8
0
  6
CONTINUOUS
100
AcDbLine
 10
17.00081260457561
 20
3.996659030723667
 30
0.0
 11
17.97555747749151
 21
4.971403903639565
 31
0.0
  0
LINE
  5
1B0A0
330
1B085
100
AcDbEntity
  8
0
  6
CONTINUOUS
100
AcDbLine
 10
20.74362343514722
 20
8.412989070375462
 30
0.0
 11
21.09373436476302
 21
8.763099999991256
 31
0.0
  0
LINE
  5
1B0A1
330
1B085
100
AcDbEntity
  8
0
  6
CONTINUOUS
100
AcDbLine
 10
20.25401257174777
 20
7.249858997895826
 30
0.0
 11
21.7672535738432
 21
8.763099999991255
 31
0.0
  0
LINE
  5
1B0A2
330
1B085
100
AcDbEntity
  8
0
  6
CONTINUOUS
100
AcDbLine
 10
14.06579584418955
 20
0.3881230612574149
 30
0.0
 11
14.86427628093921
 21
1.186603498007082
 31
0.0
  0
LINE
  5
1B0A3
330
1B085
100
AcDbEntity
  8
0
  6
CONTINUOUS
100
AcDbLine
 10
14.26537659496467
 20
-0.0858153970476412
 30
0.0
 11
14.45839043274005
 21
0.1071984407277329
 31
0.0
  0
LINE
  5
1B0A4
330
1B085
100
AcDbEntity
  8
0
  6
CONTINUOUS
100
AcDbLine
 10
17.18480263566856
 20
3.507129852736426
 30
0.0
 11
18.15958664855496
 21
4.481913865622833
 31
0.0
  0
LINE
  5
1B0A5
330
1B085
100
AcDbEntity
  8
0
  6
CONTINUOUS
100
AcDbLine
 10
17.3687926667615
 20
3.017600674749186
 30
0.0
 11
18.34361581961842
 21
3.9924238276061
 31
0.0
  0
LINE
  5
1B0A6
330
1B085
100
AcDbEntity
  8
0
  6
CONTINUOUS
100
AcDbLine
 10
19.76440170834832
 20
6.086728925416191
 30
0.0
 11
22.33924590259489
 21
8.661573119662755
 31
0.0
  0
LINE
  5
1B0A7
330
1B085
100
AcDbEntity
  8
0
  6
CONTINUOUS
100
AcDbLine
 10
19.27479084494887
 20
4.923598852936555
 30
0.0
 11
21.84929622842713
 21
7.498104236414807
 31
0.0
  0
LINE
  5
1B0A8
330
1B085
100
AcDbEntity
  8
0
  6
CONTINUOUS
100
AcDbLine
 10
17.55278269785445
 20
2.528071496761945
 30
0.0
 11
18.52764499068187
 21
3.502933789589366
 31
0.0
  0
LINE
  5
1B0A9
330
1B085
100
AcDbEntity
  8
0
  6
CONTINUOUS
100
AcDbLine
 10
18.78517998154942
 20
3.760468780456919
 30
0.0
 11
21.35934655425936
 21
6.33463535316686
 31
0.0
  0
LINE
  5
1B0AA
330
1B085
100
AcDbEntity
  8
0
  6
CONTINUOUS
100
AcDbLine
 10
17.73677272894739
 20
2.038542318774704
 30
0.0
 11
20.8693968800916
 21
5.171166469918914
 31
0.0
  0
LINE
  5
1B0AB
330
1B085
100
AcDbEntity
  8
0
  6
CONTINUOUS
100
AcDbLine
 10
17.92076276004034
 20
1.549013140787464
 30
0.0
 11
20.37944720592384
 21
4.007697586670968
 31
0.0
  0
LINE
  5
1B0AC
330
1B085
100
AcDbEntity
  8
0
  6
CONTINUOUS
100
AcDbLine
 10
18.10475279113329
 20
1.059483962800223
 30
0.0
 11
19.88949753175608
 21
2.84422870342302
 31
0.0
  0
LINE
  5
1B0AD
330
1B085
100
AcDbEntity
  8
0
  6
CONTINUOUS
100
AcDbLine
 10
18.28874282222623
 20
0.5699547848129822
 30
0.0
 11
19.39954785758832
 21
1.680759820175074
 31
0.0
  0
LINE
  5
1B0AE
330
1B085
100
AcDbEntity
  8
0
  6
CONTINUOUS
100
AcDbLine
 10
18.47273285331918
 20
0.0804256068257416
 30
0.0
 11
18.90959818342056
 21
0.517290936927127
 31
0.0
  0
LINE
  5
1B0AF
330
1B085
100
AcDbEntity
  8
0
  6
CONTINUOUS
100
AcDbLine
 10
14.3590401358224
 20
-0.1570118376323384
 30
0.0
 11
14.24903296539946
 21
-0.0470046672093929
 31
0.0
  0
LINE
  5
1B0B0
330
1B085
100
AcDbEntity
  8
0
  6
CONTINUOUS
100
AcDbLine
 10
14.54309291258661
 20
0.332454594683643
 30
0.0
 11
13.75908329123172
 21
1.116464216038529
 31
0.0
  0
LINE
  5
1B0B1
330
1B085
100
AcDbEntity
  8
0
  6
CONTINUOUS
100
AcDbLine
 10
14.72714568935081
 20
0.8219210269996244
 30
0.0
 11
13.26913361706399
 21
2.27993309928645
 31
0.0
  0
LINE
  5
1B0B2
330
1B085
100
AcDbEntity
  8
0
  6
CONTINUOUS
100
AcDbLine
 10
14.91119846611502
 20
1.311387459315606
 30
0.0
 11
12.77918394289625
 21
3.443401982534371
 31
0.0
  0
LINE
  5
1B0B3
330
1B085
100
AcDbEntity
  8
0
  6
CONTINUOUS
100
AcDbLine
 10
15.09525124287922
 20
1.800853891631587
 30
0.0
 11
12.28923426872852
 21
4.606870865782293
 31
0.0
  0
LINE
  5
1B0B4
330
1B085
100
AcDbEntity
  8
0
  6
CONTINUOUS
100
AcDbLine
 10
15.27930401964343
 20
2.290320323947569
 30
0.0
 11
11.79928459456078
 21
5.770339749030213
 31
0.0
  0
LINE
  5
1B0B5
330
1B085
100
AcDbEntity
  8
0
  6
CONTINUOUS
100
AcDbLine
 10
15.46335679640763
 20
2.77978675626355
 30
0.0
 11
14.48885470994921
 21
3.754288842721972
 31
0.0
  0
LINE
  5
1B0B6
330
1B085
100
AcDbEntity
  8
0
  6
CONTINUOUS
100
AcDbLine
 10
13.88507249233704
 20
4.358071060334137
 30
0.0
 11
11.30933492039305
 21
6.933808632278135
 31
0.0
  0
LINE
  5
1B0B7
330
1B085
100
AcDbEntity
  8
0
  6
CONTINUOUS
100
AcDbLine
 10
18.75840522805855
 20
0.1582575336928151
 30
0.0
 11
18.25383727664818
 21
0.6628254851031863
 31
0.0
  0
LINE
  5
1B0B8
330
1B085
100
AcDbEntity
  8
0
  6
CONTINUOUS
100
AcDbLine
 10
15.64740957317184
 20
3.269253188579531
 30
0.0
 11
14.67288388101266
 21
4.243778880738705
 31
0.0
  0
LINE
  5
1B0B9
330
1B085
100
AcDbEntity
  8
0
  6
CONTINUOUS
100
AcDbLine
 10
13.39509276772158
 20
5.521569994029786
 30
0.0
 11
10.81938524622531
 21
8.097277515526056
 31
0.0
  0
LINE
  5
1B0BA
330
1B085
100
AcDbEntity
  8
0
  6
CONTINUOUS
100
AcDbLine
 10
18.95798597883369
 20
0.6321959919978686
 30
0.0
 11
17.84825644852853
 21
1.741925522303024
 31
0.0
  0
LINE
  5
1B0BB
330
1B085
100
AcDbEntity
  8
0
  6
CONTINUOUS
100
AcDbLine
 10
19.15756672960882
 20
1.106134450302922
 30
0.0
 11
17.44267562040888
 21
2.821025559502861
 31
0.0
  0
LINE
  5
1B0BC
330
1B085
100
AcDbEntity
  8
0
  6
CONTINUOUS
100
AcDbLine
 10
15.83146234993604
 20
3.758719620895513
 30
0.0
 11
14.85691305207612
 21
4.733268918755439
 31
0.0
  0
LINE
  5
1B0BD
330
1B085
100
AcDbEntity
  8
0
  6
CONTINUOUS
100
AcDbLine
 10
16.01551512670025
 20
4.248186053211494
 30
0.0
 11
15.04094222313957
 21
5.222758956772172
 31
0.0
  0
LINE
  5
1B0BE
330
1B085
100
AcDbEntity
  8
0
  6
CONTINUOUS
100
AcDbLine
 10
12.90511304310612
 20
6.685068927725435
 30
0.0
 11
10.8270819708403
 21
8.763099999991255
 31
0.0
  0
LINE
  5
1B0BF
330
1B085
100
AcDbEntity
  8
0
  6
CONTINUOUS
100
AcDbLine
 10
12.41513331849066
 20
7.848567861421083
 30
0.0
 11
11.50060117992049
 21
8.763099999991255
 31
0.0
  0
LINE
  5
1B0C0
330
1B085
100
AcDbEntity
  8
0
  6
CONTINUOUS
100
AcDbLine
 10
19.35714748038395
 20
1.580072908607975
 30
0.0
 11
17.03709479228923
 21
3.900125596702697
 31
0.0
  0
LINE
  5
1B0C1
330
1B085
100
AcDbEntity
  8
0
  6
CONTINUOUS
100
AcDbLine
 10
19.55672823115909
 20
2.054011366913028
 30
0.0
 11
16.63151396416958
 21
4.979225633902534
 31
0.0
  0
LINE
  5
1B0C2
330
1B085
100
AcDbEntity
  8
0
  6
CONTINUOUS
100
AcDbLine
 10
16.19956790346445
 20
4.737652485527476
 30
0.0
 11
15.22497139420302
 21
5.712248994788904
 31
0.0
  0
LINE
  5
1B0C3
330
1B085
100
AcDbEntity
  8
0
  6
CONTINUOUS
100
AcDbLine
 10
16.38362068022866
 20
5.227118917843457
 30
0.0
 11
15.40900056526648
 21
6.201739032805637
 31
0.0
  0
LINE
  5
1B0C4
330
1B085
100
AcDbEntity
  8
0
  6
CONTINUOUS
100
AcDbLine
 10
19.75630898193422
 20
2.527949825218081
 30
0.0
 11
18.70774536448286
 21
3.576513442669441
 31
0.0
  0
LINE
  5
1B0C5
330
1B085
100
AcDbEntity
  8
0
  6
CONTINUOUS
100
AcDbLine
 10
19.95588973270936
 20
3.001888283523134
 30
0.0
 11
18.90726987211446
 21
4.050508144118028
 31
0.0
  0
LINE
  5
1B0C6
330
1B085
100
AcDbEntity
  8
0
  6
CONTINUOUS
100
AcDbLine
 10
20.15547048348449
 20
3.475826741828186
 30
0.0
 11
19.10679437974606
 21
4.524502845566614
 31
0.0
  0
LINE
  5
1B0C7
330
1B085
100
AcDbEntity
  8
0
  6
CONTINUOUS
100
AcDbLine
 10
20.35505123425962
 20
3.94976520013324
 30
0.0
 11
19.30631888737766
 21
4.998497547015201
 31
0.0
  0
LINE
  5
1B0C8
330
1B085
100
AcDbEntity
  8
0
  6
CONTINUOUS
100
AcDbLine
 10
20.55463198503475
 20
4.423703658438292
 30
0.0
 11
19.50584339500926
 21
5.472492248463787
 31
0.0
  0
LINE
  5
1B0C9
330
1B085
100
AcDbEntity
  8
0
  6
CONTINUOUS
100
AcDbLine
 10
18.37481191085755
 20
3.909446896294752
 30
0.0
 11
15.59302973632993
 21
6.691229070822371
 31
0.0
  0
LINE
  5
1B0CA
330
1B085
100
AcDbEntity
  8
0
  6
CONTINUOUS
100
AcDbLine
 10
17.96904084440766
 20
4.988737171824825
 30
0.0
 11
15.77705890739338
 21
7.180719108839104
 31
0.0
  0
LINE
  5
1B0CB
330
1B085
100
AcDbEntity
  8
0
  6
CONTINUOUS
100
AcDbLine
 10
17.56326977795777
 20
6.068027447354899
 30
0.0
 11
15.96108807845684
 21
7.670209146855838
 31
0.0
  0
LINE
  5
1B0CC
330
1B085
100
AcDbEntity
  8
0
  6
CONTINUOUS
100
AcDbLine
 10
17.15749871150789
 20
7.147317722884972
 30
0.0
 11
16.14511724952029
 21
8.15969918487257
 31
0.0
  0
LINE
  5
1B0CD
330
1B085
100
AcDbEntity
  8
0
  6
CONTINUOUS
100
AcDbLine
 10
16.751727645058
 20
8.226607998415046
 30
0.0
 11
16.32914642058374
 21
8.649189222889303
 31
0.0
  0
LINE
  5
1B0CE
330
1B085
100
AcDbEntity
  8
0
  6
CONTINUOUS
100
AcDbLine
 10
20.75421273580989
 20
4.897642116743345
 30
0.0
 11
19.70536790264086
 21
5.946486949912374
 31
0.0
  0
LINE
  5
1B0CF
330
1B085
100
AcDbEntity
  8
0
  6
CONTINUOUS
100
AcDbLine
 10
20.95379348658502
 20
5.371580575048398
 30
0.0
 11
19.90489241027246
 21
6.42048165136096
 31
0.0
  0
LINE
  5
1B0D0
330
1B085
100
AcDbEntity
  8
0
  6
CONTINUOUS
100
AcDbLine
 10
21.15337423736015
 20
5.845519033353452
 30
0.0
 11
20.10441691790406
 21
6.894476352809547
 31
0.0
  0
LINE
  5
1B0D1
330
1B085
100
AcDbEntity
  8
0
  6
CONTINUOUS
100
AcDbLine
 10
21.35295498813529
 20
6.319457491658505
 30
0.0
 11
20.30394142553566
 21
7.368471054258134
 31
0.0
  0
LINE
  5
1B0D2
330
1B085
100
AcDbEntity
  8
0
  6
CONTINUOUS
100
AcDbLine
 10
21.55253573891042
 20
6.793395949963558
 30
0.0
 11
20.50346593316726
 21
7.842465755706721
 31
0.0
  0
LINE
  5
1B0D3
330
1B085
100
AcDbEntity
  8
0
  6
CONTINUOUS
100
AcDbLine
 10
21.75211648968556
 20
7.267334408268612
 30
0.0
 11
20.70299044079886
 21
8.316460457155308
 31
0.0
  0
LINE
  5
1B0D4
330
1B085
100
AcDbEntity
  8
0
  6
CONTINUOUS
100
AcDbLine
 10
21.95169724046069
 20
7.741272866573663
 30
0.0
 11
20.9298701070431
 21
8.763099999991256
 31
0.0
  0
LINE
  5
1B0D5
330
1B085
100
AcDbEntity
  8
0
  6
CONTINUOUS
100
AcDbLine
 10
22.15127799123582
 20
8.215211324878716
 30
0.0
 11
21.60338931612328
 21
8.763099999991256
 31
0.0
  0
LINE
  5
1B0D6
330
1B085
100
AcDbEntity
  8
0
  6
CONTINUOUS
100
AcDbLine
 10
22.35085874201096
 20
8.689149783183769
 30
0.0
 11
22.27690852520347
 21
8.763099999991255
 31
0.0
  0
ENDBLK
  5
1B1C8
330
1B085
100
AcDbEntity
  8
0
100
AcDbBlockEnd
  0
BLOCK
  5
1B1C9
330
1B0D7
100
AcDbEntity
  8
0
100
AcDbBlockBegin
  2
*X40
 70
     1
 10
0.0
 20
0.0
 30
0.0
  3
*X40
  1

  0
LINE
  5
1B0D8
330
1B0D7
100
AcDbEntity
  8
0
  6
CONTINUOUS
100
AcDbLine
 10
23.19462913593892
 20
8.169917934846424
 30
0.0
 11
23.70775465517246
 21
8.683043454079957
 31
0.0
  0
LINE
  5
1B0D9
330
1B0D7
100
AcDbEntity
  8
0
  6
CONTINUOUS
100
AcDbLine
 10
22.64923161835078
 20
6.951001208178088
 30
0.0
 11
23.9159364069932
 21
8.217705996820516
 31
0.0
  0
LINE
  5
1B0DA
330
1B0D7
100
AcDbEntity
  8
0
  6
CONTINUOUS
100
AcDbLine
 10
22.10383410076263
 20
5.732084481509751
 30
0.0
 11
24.12411815881395
 21
7.752368539561078
 31
0.0
  0
LINE
  5
1B0DB
330
1B0D7
100
AcDbEntity
  8
0
  6
CONTINUOUS
100
AcDbLine
 10
21.55843658317447
 20
4.513167754841414
 30
0.0
 11
24.3322999106347
 21
7.287031082301639
 31
0.0
  0
LINE
  5
1B0DC
330
1B0D7
100
AcDbEntity
  8
0
  6
CONTINUOUS
100
AcDbLine
 10
21.01303906558632
 20
3.294251028173077
 30
0.0
 11
24.54048166245544
 21
6.821693625042199
 31
0.0
  0
LINE
  5
1B0DD
330
1B0D7
100
AcDbEntity
  8
0
  6
CONTINUOUS
100
AcDbLine
 10
20.46764154799817
 20
2.075334301504738
 30
0.0
 11
23.28571549467848
 21
4.89340824818505
 31
0.0
  0
LINE
  5
1B0DE
330
1B0D7
100
AcDbEntity
  8
0
  6
CONTINUOUS
100
AcDbLine
 10
19.92224403041002
 20
0.8564175748364002
 30
0.0
 11
22.74075865492779
 21
3.674932199354171
 31
0.0
  0
LINE
  5
1B0DF
330
1B0D7
100
AcDbEntity
  8
0
  6
CONTINUOUS
100
AcDbLine
 10
23.67305085490148
 20
5.280743608408048
 30
0.0
 11
24.74866341427619
 21
6.356356167782759
 31
0.0
  0
LINE
  5
1B0E0
330
1B0D7
100
AcDbEntity
  8
0
  6
CONTINUOUS
100
AcDbLine
 10
23.88118970842314
 20
4.815363252849522
 30
0.0
 11
24.95684516609694
 21
5.89101871052332
 31
0.0
  0
LINE
  5
1B0E1
330
1B0D7
100
AcDbEntity
  8
0
  6
CONTINUOUS
100
AcDbLine
 10
19.73925852647308
 20
-0.0000871381807288
 30
0.0
 11
23.4103456646501
 21
3.670999999996297
 31
0.0
  0
LINE
  5
1B0E2
330
1B0D7
100
AcDbEntity
  8
0
  6
CONTINUOUS
100
AcDbLine
 10
24.0893285619448
 20
4.349982897290997
 30
0.0
 11
25.16502691791769
 21
5.42568125326388
 31
0.0
  0
LINE
  5
1B0E3
330
1B0D7
100
AcDbEntity
  8
0
  6
CONTINUOUS
100
AcDbLine
 10
20.41282099582748
 20
-0.0000438779065108
 30
0.0
 11
21.64944178675636
 21
1.236576913022366
 31
0.0
  0
LINE
  5
1B0E4
330
1B0D7
100
AcDbEntity
  8
0
  6
CONTINUOUS
100
AcDbLine
 10
22.78126487373161
 20
2.36839999999762
 30
0.0
 11
24.08386487373029
 21
3.670999999996297
 31
0.0
  0
LINE
  5
1B0E5
330
1B0D7
100
AcDbEntity
  8
0
  6
CONTINUOUS
100
AcDbLine
 10
24.29746741546646
 20
3.884602541732471
 30
0.0
 11
25.37320866973843
 21
4.960343796004441
 31
0.0
  0
LINE
  5
1B0E6
330
1B0D7
100
AcDbEntity
  8
0
  6
CONTINUOUS
100
AcDbLine
 10
21.08638346518189
 20
-0.0000006176322938
 30
0.0
 11
21.10379033335899
 21
0.0174062505448083
 31
0.0
  0
LINE
  5
1B0E7
330
1B0D7
100
AcDbEntity
  8
0
  6
CONTINUOUS
100
AcDbLine
 10
23.4547840828118
 20
2.36839999999762
 30
0.0
 11
25.58139042155918
 21
4.495006338745002
 31
0.0
  0
LINE
  5
1B0E8
330
1B0D7
100
AcDbEntity
  8
0
  6
CONTINUOUS
100
AcDbLine
 10
29.30199999996933
 20
8.215615917155148
 30
0.0
 11
29.84948408280543
 21
8.763099999991255
 31
0.0
  0
LINE
  5
1B0E9
330
1B0D7
100
AcDbEntity
  8
0
  6
CONTINUOUS
100
AcDbLine
 10
24.12830329189199
 20
2.36839999999762
 30
0.0
 11
25.78957217337993
 21
4.029668881485562
 31
0.0
  0
LINE
  5
1B0EA
330
1B0D7
100
AcDbEntity
  8
0
  6
CONTINUOUS
100
AcDbLine
 10
29.30199999996933
 20
7.54209670807496
 30
0.0
 11
30.52300329188562
 21
8.763099999991255
 31
0.0
  0
LINE
  5
1B0EB
330
1B0D7
100
AcDbEntity
  8
0
  6
CONTINUOUS
100
AcDbLine
 10
24.80182250097217
 20
2.36839999999762
 30
0.0
 11
25.99775392520067
 21
3.564331424226122
 31
0.0
  0
LINE
  5
1B0EC
330
1B0D7
100
AcDbEntity
  8
0
  6
CONTINUOUS
100
AcDbLine
 10
29.30199999996933
 20
6.868577498994774
 30
0.0
 11
30.74199999996926
 21
8.308577498994712
 31
0.0
  0
LINE
  5
1B0ED
330
1B0D7
100
AcDbEntity
  8
0
  6
CONTINUOUS
100
AcDbLine
 10
25.13028238392013
 20
2.023340673865392
 30
0.0
 11
26.20593567702142
 21
3.098993966966683
 31
0.0
  0
LINE
  5
1B0EE
330
1B0D7
100
AcDbEntity
  8
0
  6
CONTINUOUS
100
AcDbLine
 10
25.33838066033617
 20
1.557919741201244
 30
0.0
 11
26.41411742884217
 21
2.633656509707244
 31
0.0
  0
LINE
  5
1B0EF
330
1B0D7
100
AcDbEntity
  8
0
  6
CONTINUOUS
100
AcDbLine
 10
25.54647893675221
 20
1.092498808537098
 30
0.0
 11
26.62229918066291
 21
2.168319052447804
 31
0.0
  0
LINE
  5
1B0F0
330
1B0D7
100
AcDbEntity
  8
0
  6
CONTINUOUS
100
AcDbLine
 10
25.75457721316825
 20
0.62707787587295
 30
0.0
 11
26.83048093248366
 21
1.702981595188365
 31
0.0
  0
LINE
  5
1B0F1
330
1B0D7
100
AcDbEntity
  8
0
  6
CONTINUOUS
100
AcDbLine
 10
29.30199999996933
 20
6.195058289914587
 30
0.0
 11
30.74199999996926
 21
7.635058289914522
 31
0.0
  0
LINE
  5
1B0F2
330
1B0D7
100
AcDbEntity
  8
0
  6
CONTINUOUS
100
AcDbLine
 10
29.30199999996933
 20
5.521539080834401
 30
0.0
 11
30.74199999996926
 21
6.961539080834331
 31
0.0
  0
LINE
  5
1B0F3
330
1B0D7
100
AcDbEntity
  8
0
  6
CONTINUOUS
100
AcDbLine
 10
29.30199999996933
 20
4.848019871754214
 30
0.0
 11
30.74199999996925
 21
6.288019871754143
 31
0.0
  0
LINE
  5
1B0F4
330
1B0D7
100
AcDbEntity
  8
0
  6
CONTINUOUS
100
AcDbLine
 10
29.30199999996933
 20
4.174500662674028
 30
0.0
 11
30.74199999996925
 21
5.614500662673953
 31
0.0
  0
LINE
  5
1B0F5
330
1B0D7
100
AcDbEntity
  8
0
  6
CONTINUOUS
100
AcDbLine
 10
25.96267548958429
 20
0.1616569432088024
 30
0.0
 11
27.18411854636669
 21
1.383099999991207
 31
0.0
  0
LINE
  5
1B0F6
330
1B0D7
100
AcDbEntity
  8
0
  6
CONTINUOUS
100
AcDbLine
 10
29.30199999996933
 20
3.500981453593841
 30
0.0
 11
30.74199999996925
 21
4.940981453593762
 31
0.0
  0
LINE
  5
1B0F7
330
1B0D7
100
AcDbEntity
  8
0
  6
CONTINUOUS
100
AcDbLine
 10
26.50763775544691
 20
0.0330999999912356
 30
0.0
 11
27.85763775544689
 21
1.383099999991223
 31
0.0
  0
LINE
  5
1B0F8
330
1B0D7
100
AcDbEntity
  8
0
  6
CONTINUOUS
100
AcDbLine
 10
29.30199999996933
 20
2.827462244513656
 30
0.0
 11
30.74199999996925
 21
4.267462244513574
 31
0.0
  0
LINE
  5
1B0F9
330
1B0D7
100
AcDbEntity
  8
0
  6
CONTINUOUS
100
AcDbLine
 10
27.18115696452709
 20
0.0330999999912356
 30
0.0
 11
28.55073879889363
 21
1.402681834357775
 31
0.0
  0
LINE
  5
1B0FA
330
1B0D7
100
AcDbEntity
  8
0
  6
CONTINUOUS
100
AcDbLine
 10
29.28241816560272
 20
2.134361201066866
 30
0.0
 11
30.74199999996924
 21
3.593943035433383
 31
0.0
  0
LINE
  5
1B0FB
330
1B0D7
100
AcDbEntity
  8
0
  6
CONTINUOUS
100
AcDbLine
 10
27.85467617360728
 20
0.0330999999912356
 30
0.0
 11
30.74199999996924
 21
2.920423826353195
 31
0.0
  0
LINE
  5
1B0FC
330
1B0D7
100
AcDbEntity
  8
0
  6
CONTINUOUS
100
AcDbLine
 10
28.53897559587887
 20
0.0438802131826428
 30
0.0
 11
30.73121978677781
 21
2.236124404081585
 31
0.0
  0
LINE
  5
1B0FD
330
1B0D7
100
AcDbEntity
  8
0
  6
CONTINUOUS
100
AcDbLine
 10
29.45140055588722
 20
0.2827859641107988
 30
0.0
 11
30.49231403584965
 21
1.323699444073236
 31
0.0
  0
LINE
  5
1B0FE
330
1B0D7
100
AcDbEntity
  8
0
  6
CONTINUOUS
100
AcDbLine
 10
19.59027867740337
 20
-0.0000967065718083
 30
0.0
 11
19.55485265190471
 21
0.035329318926844
 31
0.0
  0
LINE
  5
1B0FF
330
1B0D7
100
AcDbEntity
  8
0
  6
CONTINUOUS
100
AcDbLine
 10
20.26375463176586
 20
-0.0000534518541091
 30
0.0
 11
19.76305575737534
 21
0.5006454225364014
 31
0.0
  0
LINE
  5
1B100
330
1B0D7
100
AcDbEntity
  8
0
  6
CONTINUOUS
100
AcDbLine
 10
20.93723058612834
 20
-0.0000101971364099
 30
0.0
 11
19.97125886284597
 21
0.965961526145958
 31
0.0
  0
LINE
  5
1B101
330
1B0D7
100
AcDbEntity
  8
0
  6
CONTINUOUS
100
AcDbLine
 10
21.25514828313686
 20
0.355591314935257
 30
0.0
 11
20.1794619683166
 21
1.431277629755512
 31
0.0
  0
LINE
  5
1B102
330
1B0D7
100
AcDbEntity
  8
0
  6
CONTINUOUS
100
AcDbLine
 10
21.46338838394921
 20
0.8208704232030986
 30
0.0
 11
20.38766507378723
 21
1.896593733365069
 31
0.0
  0
LINE
  5
1B103
330
1B0D7
100
AcDbEntity
  8
0
  6
CONTINUOUS
100
AcDbLine
 10
21.67162848476155
 20
1.28614953147094
 30
0.0
 11
20.59586817925786
 21
2.361909836974626
 31
0.0
  0
LINE
  5
1B104
330
1B0D7
100
AcDbEntity
  8
0
  6
CONTINUOUS
100
AcDbLine
 10
21.8798685855739
 20
1.751428639738782
 30
0.0
 11
20.80407128472849
 21
2.827225940584183
 31
0.0
  0
LINE
  5
1B105
330
1B0D7
100
AcDbEntity
  8
0
  6
CONTINUOUS
100
AcDbLine
 10
22.08810868638624
 20
2.216707748006623
 30
0.0
 11
21.01227439019912
 21
3.292542044193739
 31
0.0
  0
LINE
  5
1B106
330
1B0D7
100
AcDbEntity
  8
0
  6
CONTINUOUS
100
AcDbLine
 10
22.60993564347543
 20
2.36839999999762
 30
0.0
 11
21.22047749566975
 21
3.757858147803296
 31
0.0
  0
LINE
  5
1B107
330
1B0D7
100
AcDbEntity
  8
0
  6
CONTINUOUS
100
AcDbLine
 10
23.28345485255561
 20
2.36839999999762
 30
0.0
 11
21.42868060114038
 21
4.223174251412853
 31
0.0
  0
LINE
  5
1B108
330
1B0D7
100
AcDbEntity
  8
0
  6
CONTINUOUS
100
AcDbLine
 10
26.29227406164219
 20
0.0330999999912356
 30
0.0
 11
25.80009199592872
 21
0.5252820657046957
 31
0.0
  0
LINE
  5
1B109
330
1B0D7
100
AcDbEntity
  8
0
  6
CONTINUOUS
100
AcDbLine
 10
23.9569740616358
 20
2.36839999999762
 30
0.0
 11
21.63688370661101
 21
4.688490355022409
 31
0.0
  0
LINE
  5
1B10A
330
1B0D7
100
AcDbEntity
  8
0
  6
CONTINUOUS
100
AcDbLine
 10
26.96579327072237
 20
0.0330999999912356
 30
0.0
 11
25.2554132311971
 21
1.743480039516508
 31
0.0
  0
LINE
  5
1B10B
330
1B0D7
100
AcDbEntity
  8
0
  6
CONTINUOUS
100
AcDbLine
 10
24.63049327071599
 20
2.36839999999762
 30
0.0
 11
23.32789327071731
 21
3.670999999996297
 31
0.0
  0
LINE
  5
1B10C
330
1B0D7
100
AcDbEntity
  8
0
  6
CONTINUOUS
100
AcDbLine
 10
22.92098674744635
 20
4.077906523267254
 30
0.0
 11
21.84508681208164
 21
5.153806458631966
 31
0.0
  0
LINE
  5
1B10D
330
1B0D7
100
AcDbEntity
  8
0
  6
CONTINUOUS
100
AcDbLine
 10
27.63931247980256
 20
0.0330999999912356
 30
0.0
 11
24.0014124797975
 21
3.670999999996297
 31
0.0
  0
LINE
  5
1B10E
330
1B0D7
100
AcDbEntity
  8
0
  6
CONTINUOUS
100
AcDbLine
 10
23.129125600968
 20
4.5432868788258
 30
0.0
 11
22.05328991755227
 21
5.619122562241522
 31
0.0
  0
LINE
  5
1B10F
330
1B0D7
100
AcDbEntity
  8
0
  6
CONTINUOUS
100
AcDbLine
 10
28.31283168888275
 20
0.0330999999912356
 30
0.0
 11
24.16488385994816
 21
4.181047828925828
 31
0.0
  0
LINE
  5
1B110
330
1B0D7
100
AcDbEntity
  8
0
  6
CONTINUOUS
100
AcDbLine
 10
23.33726445448964
 20
5.008667234384345
 30
0.0
 11
22.2614930230229
 21
6.084438665851079
 31
0.0
  0
LINE
  5
1B111
330
1B0D7
100
AcDbEntity
  8
0
  6
CONTINUOUS
100
AcDbLine
 10
28.92085740005492
 20
0.0985934978992438
 30
0.0
 11
27.63635089796295
 21
1.383099999991217
 31
0.0
  0
LINE
  5
1B112
330
1B0D7
100
AcDbEntity
  8
0
  6
CONTINUOUS
100
AcDbLine
 10
26.43704649509776
 20
2.582404402856405
 30
0.0
 11
23.61992702019732
 21
5.399523877756844
 31
0.0
  0
LINE
  5
1B113
330
1B0D7
100
AcDbEntity
  8
0
  6
CONTINUOUS
100
AcDbLine
 10
23.54540330801128
 20
5.47404758994289
 30
0.0
 11
22.46969612849353
 21
6.549754769460635
 31
0.0
  0
LINE
  5
1B114
330
1B0D7
100
AcDbEntity
  8
0
  6
CONTINUOUS
100
AcDbLine
 10
29.42225615078443
 20
0.2707139562499279
 30
0.0
 11
28.30987010704312
 21
1.383099999991234
 31
0.0
  0
LINE
  5
1B115
330
1B0D7
100
AcDbEntity
  8
0
  6
CONTINUOUS
100
AcDbLine
 10
25.89179548232307
 20
3.801174624711282
 30
0.0
 11
22.67789923396416
 21
7.015070873070191
 31
0.0
  0
LINE
  5
1B116
330
1B0D7
100
AcDbEntity
  8
0
  6
CONTINUOUS
100
AcDbLine
 10
29.83624534690007
 20
0.5302439692144705
 30
0.0
 11
28.85811781497101
 21
1.508371501143527
 31
0.0
  0
LINE
  5
1B117
330
1B0D7
100
AcDbEntity
  8
0
  6
CONTINUOUS
100
AcDbLine
 10
25.34654446954838
 20
5.01994484656616
 30
0.0
 11
22.88610233943479
 21
7.480386976679748
 31
0.0
  0
LINE
  5
1B118
330
1B0D7
100
AcDbEntity
  8
0
  6
CONTINUOUS
100
AcDbLine
 10
30.17865975401872
 20
0.8613487711760022
 30
0.0
 11
29.18888744090175
 21
1.851121084292977
 31
0.0
  0
LINE
  5
1B119
330
1B0D7
100
AcDbEntity
  8
0
  6
CONTINUOUS
100
AcDbLine
 10
24.80129345677369
 20
6.238715068421037
 30
0.0
 11
23.09430544490542
 21
7.945703080289305
 31
0.0
  0
LINE
  5
1B11A
330
1B0D7
100
AcDbEntity
  8
0
  6
CONTINUOUS
100
AcDbLine
 10
30.45496647202376
 20
1.258561262251155
 30
0.0
 11
29.30199999996933
 21
2.411527734305588
 31
0.0
  0
LINE
  5
1B11B
330
1B0D7
100
AcDbEntity
  8
0
  6
CONTINUOUS
100
AcDbLine
 10
24.256042443999
 20
7.457485290275915
 30
0.0
 11
23.30250855037605
 21
8.411019183898862
 31
0.0
  0
LINE
  5
1B11C
330
1B0D7
100
AcDbEntity
  8
0
  6
CONTINUOUS
100
AcDbLine
 10
30.64868582078271
 20
1.738361122572387
 30
0.0
 11
29.30199999996933
 21
3.085046943385775
 31
0.0
  0
LINE
  5
1B11D
330
1B0D7
100
AcDbEntity
  8
0
  6
CONTINUOUS
100
AcDbLine
 10
23.71079143122431
 20
8.676255512130794
 30
0.0
 11
23.51071165584668
 21
8.876335287508416
 31
0.0
  0
LINE
  5
1B11E
330
1B0D7
100
AcDbEntity
  8
0
  6
CONTINUOUS
100
AcDbLine
 10
30.73802122914428
 20
2.322544923291007
 30
0.0
 11
29.30199999996933
 21
3.758566152465961
 31
0.0
  0
LINE
  5
1B11F
330
1B0D7
100
AcDbEntity
  8
0
  6
CONTINUOUS
100
AcDbLine
 10
30.74199999996924
 20
2.992085361546236
 30
0.0
 11
29.30199999996933
 21
4.432085361546148
 31
0.0
  0
LINE
  5
1B120
330
1B0D7
100
AcDbEntity
  8
0
  6
CONTINUOUS
100
AcDbLine
 10
30.74199999996924
 20
3.665604570626419
 30
0.0
 11
29.30199999996933
 21
5.105604570626333
 31
0.0
  0
LINE
  5
1B121
330
1B0D7
100
AcDbEntity
  8
0
  6
CONTINUOUS
100
AcDbLine
 10
30.74199999996925
 20
4.339123779706602
 30
0.0
 11
29.30199999996933
 21
5.77912377970652
 31
0.0
  0
LINE
  5
1B122
330
1B0D7
100
AcDbEntity
  8
0
  6
CONTINUOUS
100
AcDbLine
 10
30.74199999996925
 20
5.012642988786785
 30
0.0
 11
29.30199999996933
 21
6.452642988786707
 31
0.0
  0
LINE
  5
1B123
330
1B0D7
100
AcDbEntity
  8
0
  6
CONTINUOUS
100
AcDbLine
 10
30.74199999996925
 20
5.68616219786697
 30
0.0
 11
29.30199999996933
 21
7.126162197866894
 31
0.0
  0
LINE
  5
1B124
330
1B0D7
100
AcDbEntity
  8
0
  6
CONTINUOUS
100
AcDbLine
 10
30.74199999996925
 20
6.359681406947153
 30
0.0
 11
29.30199999996933
 21
7.799681406947081
 31
0.0
  0
LINE
  5
1B125
330
1B0D7
100
AcDbEntity
  8
0
  6
CONTINUOUS
100
AcDbLine
 10
30.74199999996926
 20
7.033200616027337
 30
0.0
 11
29.30199999996933
 21
8.473200616027269
 31
0.0
  0
LINE
  5
1B126
330
1B0D7
100
AcDbEntity
  8
0
  6
CONTINUOUS
100
AcDbLine
 10
30.74199999996926
 20
7.706719825107518
 30
0.0
 11
29.68561982508552
 21
8.763099999991255
 31
0.0
  0
LINE
  5
1B127
330
1B0D7
100
AcDbEntity
  8
0
  6
CONTINUOUS
100
AcDbLine
 10
30.74199999996926
 20
8.380239034187703
 30
0.0
 11
30.35913903416571
 21
8.763099999991255
 31
0.0
  0
ENDBLK
  5
1B1CA
330
1B0D7
100
AcDbEntity
  8
0
100
AcDbBlockEnd
  0
BLOCK
  5
1B1CB
330
1B128
100
AcDbEntity
  8
0
100
AcDbBlockBegin
  2
*X41
 70
     1
 10
0.0
 20
0.0
 30
0.0
  3
*X41
  1

  0
LINE
  5
1B129
330
1B128
100
AcDbEntity
  8
0
  6
CONTINUOUS
100
AcDbLine
 10
31.64199999996833
 20
8.535058289913598
 30
0.0
 11
31.87004171004599
 21
8.763099999991255
 31
0.0
  0
LINE
  5
1B12A
330
1B128
100
AcDbEntity
  8
0
  6
CONTINUOUS
100
AcDbLine
 10
31.64199999996833
 20
7.861539080833412
 30
0.0
 11
32.54356091912618
 21
8.763099999991255
 31
0.0
  0
LINE
  5
1B12B
330
1B128
100
AcDbEntity
  8
0
  6
CONTINUOUS
100
AcDbLine
 10
31.64199999996833
 20
7.188019871753226
 30
0.0
 11
33.08199999996839
 21
8.628019871753281
 31
0.0
  0
LINE
  5
1B12C
330
1B128
100
AcDbEntity
  8
0
  6
CONTINUOUS
100
AcDbLine
 10
31.64199999996833
 20
6.51450066267304
 30
0.0
 11
33.08199999996839
 21
7.954500662673095
 31
0.0
  0
LINE
  5
1B12D
330
1B128
100
AcDbEntity
  8
0
  6
CONTINUOUS
100
AcDbLine
 10
31.64199999996833
 20
5.840981453592853
 30
0.0
 11
33.08199999996839
 21
7.280981453592908
 31
0.0
  0
LINE
  5
1B12E
330
1B128
100
AcDbEntity
  8
0
  6
CONTINUOUS
100
AcDbLine
 10
31.64199999996833
 20
5.167462244512667
 30
0.0
 11
33.08199999996839
 21
6.607462244512721
 31
0.0
  0
LINE
  5
1B12F
330
1B128
100
AcDbEntity
  8
0
  6
CONTINUOUS
100
AcDbLine
 10
31.64199999996833
 20
4.493943035432481
 30
0.0
 11
33.08199999996839
 21
5.933943035432535
 31
0.0
  0
LINE
  5
1B130
330
1B128
100
AcDbEntity
  8
0
  6
CONTINUOUS
100
AcDbLine
 10
31.64199999996833
 20
3.820423826352293
 30
0.0
 11
33.08199999996839
 21
5.260423826352348
 31
0.0
  0
LINE
  5
1B131
330
1B128
100
AcDbEntity
  8
0
  6
CONTINUOUS
100
AcDbLine
 10
31.64199999996833
 20
3.146904617272106
 30
0.0
 11
33.08199999996839
 21
4.586904617272161
 31
0.0
  0
LINE
  5
1B132
330
1B128
100
AcDbEntity
  8
0
  6
CONTINUOUS
100
AcDbLine
 10
36.23199999996837
 20
8.410423826352325
 30
0.0
 11
36.5846761736073
 21
8.763099999991255
 31
0.0
  0
LINE
  5
1B133
330
1B128
100
AcDbEntity
  8
0
  6
CONTINUOUS
100
AcDbLine
 10
36.23199999996837
 20
7.73690461727214
 30
0.0
 11
37.25819538268748
 21
8.763099999991255
 31
0.0
  0
LINE
  5
1B134
330
1B128
100
AcDbEntity
  8
0
  6
CONTINUOUS
100
AcDbLine
 10
31.64257403601376
 20
2.473959444237348
 30
0.0
 11
33.08199999996839
 21
3.913385408191974
 31
0.0
  0
LINE
  5
1B135
330
1B128
100
AcDbEntity
  8
0
  6
CONTINUOUS
100
AcDbLine
 10
36.23199999996837
 20
7.063385408191953
 30
0.0
 11
37.67199999996831
 21
8.503385408191894
 31
0.0
  0
LINE
  5
1B136
330
1B128
100
AcDbEntity
  8
0
  6
CONTINUOUS
100
AcDbLine
 10
31.72013636841932
 20
1.87800256756272
 30
0.0
 11
33.08199999996839
 21
3.239866199111788
 31
0.0
  0
LINE
  5
1B137
330
1B128
100
AcDbEntity
  8
0
  6
CONTINUOUS
100
AcDbLine
 10
36.23199999996837
 20
6.389866199111767
 30
0.0
 11
37.67199999996831
 21
7.829866199111708
 31
0.0
  0
LINE
  5
1B138
330
1B128
100
AcDbEntity
  8
0
  6
CONTINUOUS
100
AcDbLine
 10
31.89042734314753
 20
1.374774333210744
 30
0.0
 11
33.08199999996839
 21
2.566346990031601
 31
0.0
  0
LINE
  5
1B139
330
1B128
100
AcDbEntity
  8
0
  6
CONTINUOUS
100
AcDbLine
 10
36.23199999996837
 20
5.71634699003158
 30
0.0
 11
37.67199999996831
 21
7.156346990031521
 31
0.0
  0
LINE
  5
1B13A
330
1B128
100
AcDbEntity
  8
0
  6
CONTINUOUS
100
AcDbLine
 10
32.14210568064475
 20
0.952933461627778
 30
0.0
 11
33.18745552475986
 21
1.998283305742888
 31
0.0
  0
LINE
  5
1B13B
330
1B128
100
AcDbEntity
  8
0
  6
CONTINUOUS
100
AcDbLine
 10
36.23199999996837
 20
5.042827780951393
 30
0.0
 11
37.67199999996831
 21
6.482827780951334
 31
0.0
  0
LINE
  5
1B13C
330
1B128
100
AcDbEntity
  8
0
  6
CONTINUOUS
100
AcDbLine
 10
32.45820639400955
 20
0.5955149659123915
 30
0.0
 11
33.47242681921943
 21
1.60973539112227
 31
0.0
  0
LINE
  5
1B13D
330
1B128
100
AcDbEntity
  8
0
  6
CONTINUOUS
100
AcDbLine
 10
36.23199999996837
 20
4.369308571871207
 30
0.0
 11
37.67199999996831
 21
5.809308571871147
 31
0.0
  0
LINE
  5
1B13E
330
1B128
100
AcDbEntity
  8
0
  6
CONTINUOUS
100
AcDbLine
 10
32.83432456621412
 20
0.2981139290367771
 30
0.0
 11
33.89722476612215
 21
1.361014128944803
 31
0.0
  0
LINE
  5
1B13F
330
1B128
100
AcDbEntity
  8
0
  6
CONTINUOUS
100
AcDbLine
 10
36.23199999996837
 20
3.69578936279102
 30
0.0
 11
37.67199999996831
 21
5.135789362790962
 31
0.0
  0
LINE
  5
1B140
330
1B128
100
AcDbEntity
  8
0
  6
CONTINUOUS
100
AcDbLine
 10
33.2711633111245
 20
0.0614334648669672
 30
0.0
 11
34.43247338014423
 21
1.222743533886696
 31
0.0
  0
LINE
  5
1B141
330
1B128
100
AcDbEntity
  8
0
  6
CONTINUOUS
100
AcDbLine
 10
36.23199999996837
 20
3.022270153710834
 30
0.0
 11
37.67199999996831
 21
4.462270153710775
 31
0.0
  0
LINE
  5
1B142
330
1B128
100
AcDbEntity
  8
0
  6
CONTINUOUS
100
AcDbLine
 10
33.76515245874577
 20
-0.1180965965919523
 30
0.0
 11
35.1587445516215
 21
1.27549549628378
 31
0.0
  0
LINE
  5
1B143
330
1B128
100
AcDbEntity
  8
0
  6
CONTINUOUS
100
AcDbLine
 10
36.21639478609585
 20
2.333145730758136
 30
0.0
 11
37.67199999996831
 21
3.788750944630588
 31
0.0
  0
LINE
  5
1B144
330
1B128
100
AcDbEntity
  8
0
  6
CONTINUOUS
100
AcDbLine
 10
34.34060583368432
 20
-0.2161624307335863
 30
0.0
 11
37.67199999996831
 21
3.115231735550401
 31
0.0
  0
LINE
  5
1B145
330
1B128
100
AcDbEntity
  8
0
  6
CONTINUOUS
100
AcDbLine
 10
35.01698193613905
 20
-0.2133055373590427
 30
0.0
 11
37.66876712070525
 21
2.438479647207154
 31
0.0
  0
LINE
  5
1B146
330
1B128
100
AcDbEntity
  8
0
  6
CONTINUOUS
100
AcDbLine
 10
35.90743367693304
 20
0.0036269943547609
 30
0.0
 11
37.51723902192366
 21
1.613432339345381
 31
0.0
  0
LINE
  5
1B147
330
1B128
100
AcDbEntity
  8
0
  6
CONTINUOUS
100
AcDbLine
 10
32.55309425579761
 20
0.5074718966376706
 30
0.0
 11
32.27784730925847
 21
0.7827188431768102
 31
0.0
  0
LINE
  5
1B148
330
1B128
100
AcDbEntity
  8
0
  6
CONTINUOUS
100
AcDbLine
 10
33.87496468909684
 20
-0.1408793275813673
 30
0.0
 11
31.67993083278052
 21
2.054154528734943
 31
0.0
  0
LINE
  5
1B149
330
1B128
100
AcDbEntity
  8
0
  6
CONTINUOUS
100
AcDbLine
 10
34.64362813207632
 20
-0.2360235614806649
 30
0.0
 11
31.64199999996833
 21
2.765604570627322
 31
0.0
  0
LINE
  5
1B14A
330
1B128
100
AcDbEntity
  8
0
  6
CONTINUOUS
100
AcDbLine
 10
35.25801106796118
 20
-0.1768872882853429
 30
0.0
 11
31.64199999996833
 21
3.439123779707508
 31
0.0
  0
LINE
  5
1B14B
330
1B128
100
AcDbEntity
  8
0
  6
CONTINUOUS
100
AcDbLine
 10
35.79065650332146
 20
-0.0360135145654361
 30
0.0
 11
34.54143210838231
 21
1.213210880373721
 31
0.0
  0
LINE
  5
1B14C
330
1B128
100
AcDbEntity
  8
0
  6
CONTINUOUS
100
AcDbLine
 10
33.08199999996839
 20
2.67264298878764
 30
0.0
 11
31.64199999996833
 21
4.112642988787695
 31
0.0
  0
LINE
  5
1B14D
330
1B128
100
AcDbEntity
  8
0
  6
CONTINUOUS
100
AcDbLine
 10
36.25975597779143
 20
0.1684062200447833
 30
0.0
 11
35.15395110240023
 21
1.274211095435983
 31
0.0
  0
LINE
  5
1B14E
330
1B128
100
AcDbEntity
  8
0
  6
CONTINUOUS
100
AcDbLine
 10
33.08199999996839
 20
3.346162197867826
 30
0.0
 11
31.64199999996833
 21
4.786162197867881
 31
0.0
  0
LINE
  5
1B14F
330
1B128
100
AcDbEntity
  8
0
  6
CONTINUOUS
100
AcDbLine
 10
36.67226329638774
 20
0.4294181105286579
 30
0.0
 11
35.63766478748767
 21
1.464016619428737
 31
0.0
  0
LINE
  5
1B150
330
1B128
100
AcDbEntity
  8
0
  6
CONTINUOUS
100
AcDbLine
 10
33.08199999996839
 20
4.019681406948012
 30
0.0
 11
31.64199999996833
 21
5.459681406948068
 31
0.0
  0
LINE
  5
1B151
330
1B128
100
AcDbEntity
  8
0
  6
CONTINUOUS
100
AcDbLine
 10
37.01677749710036
 20
0.7584231188962329
 30
0.0
 11
35.99563422741351
 21
1.779566388583076
 31
0.0
  0
LINE
  5
1B152
330
1B128
100
AcDbEntity
  8
0
  6
CONTINUOUS
100
AcDbLine
 10
33.08199999996839
 20
4.693200616028199
 30
0.0
 11
31.64199999996833
 21
6.133200616028255
 31
0.0
  0
LINE
  5
1B153
330
1B128
100
AcDbEntity
  8
0
  6
CONTINUOUS
100
AcDbLine
 10
37.29859977568887
 20
1.1501200493879
 30
0.0
 11
36.20680593341555
 21
2.241913891661226
 31
0.0
  0
LINE
  5
1B154
330
1B128
100
AcDbEntity
  8
0
  6
CONTINUOUS
100
AcDbLine
 10
33.08199999996839
 20
5.366719825108386
 30
0.0
 11
31.64199999996833
 21
6.80671982510844
 31
0.0
  0
LINE
  5
1B155
330
1B128
100
AcDbEntity
  8
0
  6
CONTINUOUS
100
AcDbLine
 10
37.5148623517228
 20
1.607376682434161
 30
0.0
 11
36.23199999996837
 21
2.890239034188594
 31
0.0
  0
LINE
  5
1B156
330
1B128
100
AcDbEntity
  8
0
  6
CONTINUOUS
100
AcDbLine
 10
33.08199999996839
 20
6.040239034188573
 30
0.0
 11
31.64199999996833
 21
7.480239034188627
 31
0.0
  0
LINE
  5
1B157
330
1B128
100
AcDbEntity
  8
0
  6
CONTINUOUS
100
AcDbLine
 10
37.64705163358367
 20
2.148706609653477
 30
0.0
 11
36.23199999996837
 21
3.56375824326878
 31
0.0
  0
LINE
  5
1B158
330
1B128
100
AcDbEntity
  8
0
  6
CONTINUOUS
100
AcDbLine
 10
33.08199999996839
 20
6.713758243268758
 30
0.0
 11
31.64199999996833
 21
8.153758243268815
 31
0.0
  0
LINE
  5
1B159
330
1B128
100
AcDbEntity
  8
0
  6
CONTINUOUS
100
AcDbLine
 10
37.67199999996831
 20
2.797277452349026
 30
0.0
 11
36.23199999996837
 21
4.237277452348967
 31
0.0
  0
LINE
  5
1B15A
330
1B128
100
AcDbEntity
  8
0
  6
CONTINUOUS
100
AcDbLine
 10
37.67199999996831
 20
3.470796661429213
 30
0.0
 11
36.23199999996837
 21
4.910796661429154
 31
0.0
  0
LINE
  5
1B15B
330
1B128
100
AcDbEntity
  8
0
  6
CONTINUOUS
100
AcDbLine
 10
37.67199999996831
 20
4.144315870509399
 30
0.0
 11
36.23199999996837
 21
5.58431587050934
 31
0.0
  0
LINE
  5
1B15C
330
1B128
100
AcDbEntity
  8
0
  6
CONTINUOUS
100
AcDbLine
 10
33.08199999996839
 20
7.387277452348945
 30
0.0
 11
31.70617745232608
 21
8.763099999991255
 31
0.0
  0
LINE
  5
1B15D
330
1B128
100
AcDbEntity
  8
0
  6
CONTINUOUS
100
AcDbLine
 10
33.08199999996839
 20
8.060796661429132
 30
0.0
 11
32.37969666140626
 21
8.763099999991255
 31
0.0
  0
LINE
  5
1B15E
330
1B128
100
AcDbEntity
  8
0
  6
CONTINUOUS
100
AcDbLine
 10
33.08199999996839
 20
8.734315870509318
 30
0.0
 11
33.05321587048645
 21
8.763099999991255
 31
0.0
  0
LINE
  5
1B15F
330
1B128
100
AcDbEntity
  8
0
  6
CONTINUOUS
100
AcDbLine
 10
37.67199999996831
 20
4.817835079589585
 30
0.0
 11
36.23199999996837
 21
6.257835079589526
 31
0.0
  0
LINE
  5
1B160
330
1B128
100
AcDbEntity
  8
0
  6
CONTINUOUS
100
AcDbLine
 10
37.67199999996831
 20
5.491354288669771
 30
0.0
 11
36.23199999996837
 21
6.931354288669713
 31
0.0
  0
LINE
  5
1B161
330
1B128
100
AcDbEntity
  8
0
  6
CONTINUOUS
100
AcDbLine
 10
37.67199999996831
 20
6.164873497749958
 30
0.0
 11
36.23199999996837
 21
7.6048734977499
 31
0.0
  0
LINE
  5
1B162
330
1B128
100
AcDbEntity
  8
0
  6
CONTINUOUS
100
AcDbLine
 10
37.67199999996831
 20
6.838392706830144
 30
0.0
 11
36.23199999996837
 21
8.278392706830086
 31
0.0
  0
LINE
  5
1B163
330
1B128
100
AcDbEntity
  8
0
  6
CONTINUOUS
100
AcDbLine
 10
37.67199999996831
 20
7.511911915910332
 30
0.0
 11
36.42081191588738
 21
8.763099999991255
 31
0.0
  0
LINE
  5
1B164
330
1B128
100
AcDbEntity
  8
0
  6
CONTINUOUS
100
AcDbLine
 10
37.67199999996831
 20
8.185431124990519
 30
0.0
 11
37.09433112496757
 21
8.763099999991255
 31
0.0
  0
ENDBLK
  5
1B1CC
330
1B128
100
AcDbEntity
  8
0
100
AcDbBlockEnd
  0
BLOCK
  5
1B1CD
330
1B165
100
AcDbEntity
  8
0
100
AcDbBlockBegin
  2
*X42
 70
     1
 10
0.0
 20
0.0
 30
0.0
  3
*X42
  1

  0
LINE
  5
1B166
330
1B165
100
AcDbEntity
  8
0
  6
CONTINUOUS
100
AcDbLine
 10
38.60499999996136
 20
8.762866199104765
 30
0.0
 11
38.71672554182345
 21
8.874591740966855
 31
0.0
  0
LINE
  5
1B167
330
1B165
100
AcDbEntity
  8
0
  6
CONTINUOUS
100
AcDbLine
 10
38.60499999996136
 20
8.089346990024577
 30
0.0
 11
39.03418785440363
 21
8.518534844466847
 31
0.0
  0
LINE
  5
1B168
330
1B165
100
AcDbEntity
  8
0
  6
CONTINUOUS
100
AcDbLine
 10
38.60499999996136
 20
7.41582778094439
 30
0.0
 11
39.35165016698382
 21
8.16247794796684
 31
0.0
  0
LINE
  5
1B169
330
1B165
100
AcDbEntity
  8
0
  6
CONTINUOUS
100
AcDbLine
 10
38.60499999996136
 20
6.742308571864204
 30
0.0
 11
39.66911247956399
 21
7.806421051466834
 31
0.0
  0
LINE
  5
1B16A
330
1B165
100
AcDbEntity
  8
0
  6
CONTINUOUS
100
AcDbLine
 10
38.60499999996136
 20
6.068789362784018
 30
0.0
 11
39.98657479214418
 21
7.450364154966827
 31
0.0
  0
LINE
  5
1B16B
330
1B165
100
AcDbEntity
  8
0
  6
CONTINUOUS
100
AcDbLine
 10
38.60499999996136
 20
5.395270153703832
 30
0.0
 11
40.30403710472435
 21
7.09430725846682
 31
0.0
  0
LINE
  5
1B16C
330
1B165
100
AcDbEntity
  8
0
  6
CONTINUOUS
100
AcDbLine
 10
38.60499999996136
 20
4.721750944623645
 30
0.0
 11
40.62149941730453
 21
6.738250361966813
 31
0.0
  0
LINE
  5
1B16D
330
1B165
100
AcDbEntity
  8
0
  6
CONTINUOUS
100
AcDbLine
 10
38.60499999996136
 20
4.048231735543458
 30
0.0
 11
40.93896172988471
 21
6.382193465466806
 31
0.0
  0
LINE
  5
1B16E
330
1B165
100
AcDbEntity
  8
0
  6
CONTINUOUS
100
AcDbLine
 10
38.60499999996136
 20
3.374712526463272
 30
0.0
 11
40.02599999995994
 21
4.795712526461843
 31
0.0
  0
LINE
  5
1B16F
330
1B165
100
AcDbEntity
  8
0
  6
CONTINUOUS
100
AcDbLine
 10
38.60499999996136
 20
2.701193317383085
 30
0.0
 11
40.02599999995994
 21
4.122193317381657
 31
0.0
  0
LINE
  5
1B170
330
1B165
100
AcDbEntity
  8
0
  6
CONTINUOUS
100
AcDbLine
 10
40.28339754687704
 20
5.053110073378947
 30
0.0
 11
41.25642404246489
 21
6.026136568966799
 31
0.0
  0
LINE
  5
1B171
330
1B165
100
AcDbEntity
  8
0
  6
CONTINUOUS
100
AcDbLine
 10
40.60085985945722
 20
4.697053176878939
 30
0.0
 11
41.57388635504507
 21
5.670079672466793
 31
0.0
  0
LINE
  5
1B172
330
1B165
100
AcDbEntity
  8
0
  6
CONTINUOUS
100
AcDbLine
 10
43.57899999995641
 20
8.348712526458318
 30
0.0
 11
43.99338747348935
 21
8.763099999991255
 31
0.0
  0
LINE
  5
1B173
330
1B165
100
AcDbEntity
  8
0
  6
CONTINUOUS
100
AcDbLine
 10
43.57899999995641
 20
7.675193317378131
 30
0.0
 11
44.66690668256953
 21
8.763099999991255
 31
0.0
  0
LINE
  5
1B174
330
1B165
100
AcDbEntity
  8
0
  6
CONTINUOUS
100
AcDbLine
 10
38.60499999996136
 20
2.027674108302898
 30
0.0
 11
40.02599999995994
 21
3.44867410830147
 31
0.0
  0
LINE
  5
1B175
330
1B165
100
AcDbEntity
  8
0
  6
CONTINUOUS
100
AcDbLine
 10
38.60499999996136
 20
1.354154899222712
 30
0.0
 11
40.02599999995994
 21
2.775154899221284
 31
0.0
  0
LINE
  5
1B176
330
1B165
100
AcDbEntity
  8
0
  6
CONTINUOUS
100
AcDbLine
 10
38.60499999996136
 20
0.6806356901425255
 30
0.0
 11
40.02599999995994
 21
2.101635690141098
 31
0.0
  0
LINE
  5
1B177
330
1B165
100
AcDbEntity
  8
0
  6
CONTINUOUS
100
AcDbLine
 10
38.60499999996136
 20
0.0071164810623383
 30
0.0
 11
40.02599999995994
 21
1.428116481060911
 31
0.0
  0
LINE
  5
1B178
330
1B165
100
AcDbEntity
  8
0
  6
CONTINUOUS
100
AcDbLine
 10
40.9183221720374
 20
4.340996280378933
 30
0.0
 11
41.89134866762525
 21
5.314022775966786
 31
0.0
  0
LINE
  5
1B179
330
1B165
100
AcDbEntity
  8
0
  6
CONTINUOUS
100
AcDbLine
 10
41.23578448461758
 20
3.984939383878926
 30
0.0
 11
42.20881098020543
 21
4.957965879466778
 31
0.0
  0
LINE
  5
1B17A
330
1B165
100
AcDbEntity
  8
0
  6
CONTINUOUS
100
AcDbLine
 10
41.55324679719776
 20
3.628882487378919
 30
0.0
 11
42.52627329278561
 21
4.601908982966772
 31
0.0
  0
LINE
  5
1B17B
330
1B165
100
AcDbEntity
  8
0
  6
CONTINUOUS
100
AcDbLine
 10
41.87070910977793
 20
3.272825590878912
 30
0.0
 11
42.84373560536579
 21
4.245852086466765
 31
0.0
  0
LINE
  5
1B17C
330
1B165
100
AcDbEntity
  8
0
  6
CONTINUOUS
100
AcDbLine
 10
43.57899999995641
 20
7.001674108297943
 30
0.0
 11
44.99999999995498
 21
8.422674108296516
 31
0.0
  0
LINE
  5
1B17D
330
1B165
100
AcDbEntity
  8
0
  6
CONTINUOUS
100
AcDbLine
 10
43.57899999995641
 20
6.328154899217758
 30
0.0
 11
44.99999999995498
 21
7.749154899216329
 31
0.0
  0
LINE
  5
1B17E
330
1B165
100
AcDbEntity
  8
0
  6
CONTINUOUS
100
AcDbLine
 10
43.57899999995641
 20
5.654635690137571
 30
0.0
 11
44.99999999995498
 21
7.075635690136142
 31
0.0
  0
LINE
  5
1B17F
330
1B165
100
AcDbEntity
  8
0
  6
CONTINUOUS
100
AcDbLine
 10
43.57899999995641
 20
4.981116481057384
 30
0.0
 11
44.99999999995498
 21
6.402116481055955
 31
0.0
  0
LINE
  5
1B180
330
1B165
100
AcDbEntity
  8
0
  6
CONTINUOUS
100
AcDbLine
 10
39.27140272797921
 20
-0.0000000000000009
 30
0.0
 11
40.02599999995994
 21
0.7545972719807246
 31
0.0
  0
LINE
  5
1B181
330
1B165
100
AcDbEntity
  8
0
  6
CONTINUOUS
100
AcDbLine
 10
39.9449219370594
 20
-0.0000000000000009
 30
0.0
 11
40.02599999995994
 21
0.0810780629005379
 31
0.0
  0
LINE
  5
1B182
330
1B165
100
AcDbEntity
  8
0
  6
CONTINUOUS
100
AcDbLine
 10
42.18817142235812
 20
2.916768694378905
 30
0.0
 11
43.16119791794597
 21
3.889795189966758
 31
0.0
  0
LINE
  5
1B183
330
1B165
100
AcDbEntity
  8
0
  6
CONTINUOUS
100
AcDbLine
 10
42.50563373493829
 20
2.560711797878898
 30
0.0
 11
43.47866023052615
 21
3.533738293466751
 31
0.0
  0
LINE
  5
1B184
330
1B165
100
AcDbEntity
  8
0
  6
CONTINUOUS
100
AcDbLine
 10
43.57899999995641
 20
4.307597271977198
 30
0.0
 11
44.99999999995498
 21
5.728597271975769
 31
0.0
  0
LINE
  5
1B185
330
1B165
100
AcDbEntity
  8
0
  6
CONTINUOUS
100
AcDbLine
 10
43.57899999995641
 20
3.634078062897011
 30
0.0
 11
44.99999999995498
 21
5.055078062895582
 31
0.0
  0
LINE
  5
1B186
330
1B165
100
AcDbEntity
  8
0
  6
CONTINUOUS
100
AcDbLine
 10
42.82309604751848
 20
2.204654901378891
 30
0.0
 11
44.99999999995498
 21
4.381558853815395
 31
0.0
  0
LINE
  5
1B187
330
1B165
100
AcDbEntity
  8
0
  6
CONTINUOUS
100
AcDbLine
 10
43.14055836009865
 20
1.848598004878885
 30
0.0
 11
44.99999999995498
 21
3.70803964473521
 31
0.0
  0
LINE
  5
1B188
330
1B165
100
AcDbEntity
  8
0
  6
CONTINUOUS
100
AcDbLine
 10
43.45802067267883
 20
1.492541108378878
 30
0.0
 11
44.99999999995498
 21
3.034520435655023
 31
0.0
  0
LINE
  5
1B189
330
1B165
100
AcDbEntity
  8
0
  6
CONTINUOUS
100
AcDbLine
 10
43.77548298525902
 20
1.136484211878871
 30
0.0
 11
44.99999999995498
 21
2.361001226574837
 31
0.0
  0
LINE
  5
1B18A
330
1B165
100
AcDbEntity
  8
0
  6
CONTINUOUS
100
AcDbLine
 10
44.09294529783919
 20
0.7804273153788639
 30
0.0
 11
44.99999999995498
 21
1.687482017494649
 31
0.0
  0
LINE
  5
1B18B
330
1B165
100
AcDbEntity
  8
0
  6
CONTINUOUS
100
AcDbLine
 10
44.41040761041938
 20
0.4243704188788566
 30
0.0
 11
44.99999999995498
 21
1.013962808414463
 31
0.0
  0
LINE
  5
1B18C
330
1B165
100
AcDbEntity
  8
0
  6
CONTINUOUS
100
AcDbLine
 10
44.72786992299955
 20
0.0683135223788494
 30
0.0
 11
44.99999999995498
 21
0.340443599334276
 31
0.0
  0
LINE
  5
1B18D
330
1B165
100
AcDbEntity
  8
0
  6
CONTINUOUS
100
AcDbLine
 10
39.12223903415696
 20
-0.0000000000000009
 30
0.0
 11
38.60499999996136
 21
0.5172390341955961
 31
0.0
  0
LINE
  5
1B18E
330
1B165
100
AcDbEntity
  8
0
  6
CONTINUOUS
100
AcDbLine
 10
39.79575824323715
 20
-0.0000000000000009
 30
0.0
 11
38.60499999996136
 21
1.190758243275783
 31
0.0
  0
LINE
  5
1B18F
330
1B165
100
AcDbEntity
  8
0
  6
CONTINUOUS
100
AcDbLine
 10
40.02599999995994
 20
0.443277452357397
 30
0.0
 11
38.60499999996136
 21
1.864277452355969
 31
0.0
  0
LINE
  5
1B190
330
1B165
100
AcDbEntity
  8
0
  6
CONTINUOUS
100
AcDbLine
 10
40.02599999995994
 20
1.116796661437583
 30
0.0
 11
38.60499999996136
 21
2.537796661436155
 31
0.0
  0
LINE
  5
1B191
330
1B165
100
AcDbEntity
  8
0
  6
CONTINUOUS
100
AcDbLine
 10
40.02599999995994
 20
1.79031587051777
 30
0.0
 11
38.60499999996136
 21
3.211315870516341
 31
0.0
  0
LINE
  5
1B192
330
1B165
100
AcDbEntity
  8
0
  6
CONTINUOUS
100
AcDbLine
 10
40.02599999995994
 20
2.463835079597956
 30
0.0
 11
38.60499999996136
 21
3.884835079596527
 31
0.0
  0
LINE
  5
1B193
330
1B165
100
AcDbEntity
  8
0
  6
CONTINUOUS
100
AcDbLine
 10
40.02599999995994
 20
3.137354288678143
 30
0.0
 11
38.60499999996136
 21
4.558354288676714
 31
0.0
  0
LINE
  5
1B194
330
1B165
100
AcDbEntity
  8
0
  6
CONTINUOUS
100
AcDbLine
 10
40.02599999995994
 20
3.810873497758329
 30
0.0
 11
38.60499999996136
 21
5.2318734977569
 31
0.0
  0
LINE
  5
1B195
330
1B165
100
AcDbEntity
  8
0
  6
CONTINUOUS
100
AcDbLine
 10
40.02599999995994
 20
4.484392706838515
 30
0.0
 11
38.60499999996136
 21
5.905392706837086
 31
0.0
  0
LINE
  5
1B196
330
1B165
100
AcDbEntity
  8
0
  6
CONTINUOUS
100
AcDbLine
 10
44.99999999995498
 20
0.183911915923658
 30
0.0
 11
41.53858364506288
 21
3.64532827081576
 31
0.0
  0
LINE
  5
1B197
330
1B165
100
AcDbEntity
  8
0
  6
CONTINUOUS
100
AcDbLine
 10
40.02599999995994
 20
5.157911915918703
 30
0.0
 11
38.60499999996136
 21
6.578911915917274
 31
0.0
  0
LINE
  5
1B198
330
1B165
100
AcDbEntity
  8
0
  6
CONTINUOUS
100
AcDbLine
 10
44.99999999995498
 20
0.8574311250038447
 30
0.0
 11
38.60499999996136
 21
7.25243112499746
 31
0.0
  0
LINE
  5
1B199
330
1B165
100
AcDbEntity
  8
0
  6
CONTINUOUS
100
AcDbLine
 10
44.99999999995498
 20
1.530950334084031
 30
0.0
 11
38.60499999996136
 21
7.925950334077647
 31
0.0
  0
LINE
  5
1B19A
330
1B165
100
AcDbEntity
  8
0
  6
CONTINUOUS
100
AcDbLine
 10
44.99999999995498
 20
2.204469543164218
 30
0.0
 11
43.57899999995641
 21
3.625469543162789
 31
0.0
  0
LINE
  5
1B19B
330
1B165
100
AcDbEntity
  8
0
  6
CONTINUOUS
100
AcDbLine
 10
41.89876730984767
 20
5.305702233271528
 30
0.0
 11
38.60499999996136
 21
8.599469543157834
 31
0.0
  0
LINE
  5
1B19C
330
1B165
100
AcDbEntity
  8
0
  6
CONTINUOUS
100
AcDbLine
 10
44.99999999995498
 20
2.877988752244405
 30
0.0
 11
43.57899999995641
 21
4.298988752242975
 31
0.0
  0
LINE
  5
1B19D
330
1B165
100
AcDbEntity
  8
0
  6
CONTINUOUS
100
AcDbLine
 10
44.99999999995498
 20
3.551507961324591
 30
0.0
 11
43.57899999995641
 21
4.972507961323163
 31
0.0
  0
LINE
  5
1B19E
330
1B165
100
AcDbEntity
  8
0
  6
CONTINUOUS
100
AcDbLine
 10
44.99999999995498
 20
4.225027170404777
 30
0.0
 11
43.57899999995641
 21
5.646027170403348
 31
0.0
  0
LINE
  5
1B19F
330
1B165
100
AcDbEntity
  8
0
  6
CONTINUOUS
100
AcDbLine
 10
44.99999999995498
 20
4.898546379484964
 30
0.0
 11
43.57899999995641
 21
6.319546379483535
 31
0.0
  0
LINE
  5
1B1A0
330
1B165
100
AcDbEntity
  8
0
  6
CONTINUOUS
100
AcDbLine
 10
44.99999999995498
 20
5.572065588565151
 30
0.0
 11
43.57899999995641
 21
6.993065588563722
 31
0.0
  0
LINE
  5
1B1A1
330
1B165
100
AcDbEntity
  8
0
  6
CONTINUOUS
100
AcDbLine
 10
44.99999999995498
 20
6.245584797645336
 30
0.0
 11
43.57899999995641
 21
7.666584797643908
 31
0.0
  0
LINE
  5
1B1A2
330
1B165
100
AcDbEntity
  8
0
  6
CONTINUOUS
100
AcDbLine
 10
44.99999999995498
 20
6.919104006725522
 30
0.0
 11
43.57899999995641
 21
8.340104006724093
 31
0.0
  0
LINE
  5
1B1A3
330
1B165
100
AcDbEntity
  8
0
  6
CONTINUOUS
100
AcDbLine
 10
44.99999999995498
 20
7.592623215805709
 30
0.0
 11
43.82952321576943
 21
8.763099999991255
 31
0.0
  0
LINE
  5
1B1A4
330
1B165
100
AcDbEntity
  8
0
  6
CONTINUOUS
100
AcDbLine
 10
44.99999999995498
 20
8.266142424885896
 30
0.0
 11
44.50304242484962
 21
8.763099999991255
 31
0.0
  0
ENDBLK
  5
1B1CE
330
1B165
100
AcDbEntity
  8
0
100
AcDbBlockEnd
  0
BLOCK
  5
1B1CF
330
1B1A5
100
AcDbEntity
  8
0
100
AcDbBlockBegin
  2
*X43
 70
     1
 10
0.0
 20
0.0
 30
0.0
  3
*X43
  1

  0
LINE
  5
1B1A6
330
1B1A5
100
AcDbEntity
  8
0
  6
CONTINUOUS
100
AcDbLine
 10
0.0
 20
8.548461116714023
 30
0.0
 11
0.2146388832772324
 21
8.763099999991255
 31
0.0
  0
LINE
  5
1B1A7
330
1B1A5
100
AcDbEntity
  8
0
  6
CONTINUOUS
100
AcDbLine
 10
-0.0000000000000002
 20
7.874941907633837
 30
0.0
 11
0.8881580923574184
 21
8.763099999991255
 31
0.0
  0
LINE
  5
1B1A8
330
1B1A5
100
AcDbEntity
  8
0
  6
CONTINUOUS
100
AcDbLine
 10
0.0
 20
7.20142269855365
 30
0.0
 11
1.420999999998572
 21
8.622422698552223
 31
0.0
  0
LINE
  5
1B1A9
330
1B1A5
100
AcDbEntity
  8
0
  6
CONTINUOUS
100
AcDbLine
 10
-0.0000000000000001
 20
6.527903489473465
 30
0.0
 11
1.420999999998571
 21
7.948903489472036
 31
0.0
  0
LINE
  5
1B1AA
330
1B1A5
100
AcDbEntity
  8
0
  6
CONTINUOUS
100
AcDbLine
 10
-0.0000000000000002
 20
5.854384280393278
 30
0.0
 11
1.420999999998571
 21
7.275384280391849
 31
0.0
  0
LINE
  5
1B1AB
330
1B1A5
100
AcDbEntity
  8
0
  6
CONTINUOUS
100
AcDbLine
 10
-0.0000000000000002
 20
5.180865071313091
 30
0.0
 11
1.420999999998571
 21
6.601865071311663
 31
0.0
  0
LINE
  5
1B1AC
330
1B1A5
100
AcDbEntity
  8
0
  6
CONTINUOUS
100
AcDbLine
 10
0.0
 20
4.507345862232905
 30
0.0
 11
1.420999999998571
 21
5.928345862231477
 31
0.0
  0
LINE
  5
1B1AD
330
1B1A5
100
AcDbEntity
  8
0
  6
CONTINUOUS
100
AcDbLine
 10
-0.0000000000000003
 20
3.833826653152718
 30
0.0
 11
1.420999999998571
 21
5.25482665315129
 31
0.0
  0
LINE
  5
1B1AE
330
1B1A5
100
AcDbEntity
  8
0
  6
CONTINUOUS
100
AcDbLine
 10
-0.0000000000000002
 20
3.160307444072532
 30
0.0
 11
1.420999999998571
 21
4.581307444071103
 31
0.0
  0
LINE
  5
1B1AF
330
1B1A5
100
AcDbEntity
  8
0
  6
CONTINUOUS
100
AcDbLine
 10
-0.0000000000000001
 20
2.486788234992345
 30
0.0
 11
1.420999999998571
 21
3.907788234990917
 31
0.0
  0
LINE
  5
1B1B0
330
1B1A5
100
AcDbEntity
  8
0
  6
CONTINUOUS
100
AcDbLine
 10
-0.0000000000000006
 20
1.813269025912159
 30
0.0
 11
1.420999999998571
 21
3.234269025910731
 31
0.0
  0
LINE
  5
1B1B1
330
1B1A5
100
AcDbEntity
  8
0
  6
CONTINUOUS
100
AcDbLine
 10
0.0
 20
1.139749816831973
 30
0.0
 11
1.420999999998571
 21
2.560749816830544
 31
0.0
  0
LINE
  5
1B1B2
330
1B1A5
100
AcDbEntity
  8
0
  6
CONTINUOUS
100
AcDbLine
 10
0.0000000000000002
 20
0.466230607751787
 30
0.0
 11
1.420999999998571
 21
1.887230607750358
 31
0.0
  0
LINE
  5
1B1B3
330
1B1A5
100
AcDbEntity
  8
0
  6
CONTINUOUS
100
AcDbLine
 10
0.2072886013284003
 20
-0.0000000000000009
 30
0.0
 11
1.420999999998571
 21
1.213711398670171
 31
0.0
  0
LINE
  5
1B1B4
330
1B1A5
100
AcDbEntity
  8
0
  6
CONTINUOUS
100
AcDbLine
 10
0.8808078104085864
 20
-0.0000000000000009
 30
0.0
 11
1.420999999998571
 21
0.5401921895899839
 31
0.0
  0
LINE
  5
1B1B5
330
1B1A5
100
AcDbEntity
  8
0
  6
CONTINUOUS
100
AcDbLine
 10
0.0581249075061505
 20
-0.0000000000000009
 30
0.0
 11
-0.0000000000000002
 21
0.0581249075061496
 31
0.0
  0
LINE
  5
1B1B6
330
1B1A5
100
AcDbEntity
  8
0
  6
CONTINUOUS
100
AcDbLine
 10
0.7316441165863372
 20
-0.0000000000000009
 30
0.0
 11
-0.0000000000000002
 21
0.7316441165863363
 31
0.0
  0
LINE
  5
1B1B7
330
1B1A5
100
AcDbEntity
  8
0
  6
CONTINUOUS
100
AcDbLine
 10
1.405163325666523
 20
-0.0000000000000009
 30
0.0
 11
-0.0000000000000002
 21
1.405163325666523
 31
0.0
  0
LINE
  5
1B1B8
330
1B1A5
100
AcDbEntity
  8
0
  6
CONTINUOUS
100
AcDbLine
 10
1.420999999998572
 20
0.6576825347481381
 30
0.0
 11
-0.0000000000000001
 21
2.07868253474671
 31
0.0
  0
LINE
  5
1B1B9
330
1B1A5
100
AcDbEntity
  8
0
  6
CONTINUOUS
100
AcDbLine
 10
1.420999999998571
 20
1.331201743828324
 30
0.0
 11
-0.0000000000000001
 21
2.752201743826896
 31
0.0
  0
LINE
  5
1B1BA
330
1B1A5
100
AcDbEntity
  8
0
  6
CONTINUOUS
100
AcDbLine
 10
1.420999999998571
 20
2.004720952908511
 30
0.0
 11
-0.0000000000000002
 21
3.425720952907082
 31
0.0
  0
LINE
  5
1B1BB
330
1B1A5
100
AcDbEntity
  8
0
  6
CONTINUOUS
100
AcDbLine
 10
1.420999999998571
 20
2.678240161988697
 30
0.0
 11
-0.0000000000000001
 21
4.099240161987269
 31
0.0
  0
LINE
  5
1B1BC
330
1B1A5
100
AcDbEntity
  8
0
  6
CONTINUOUS
100
AcDbLine
 10
1.420999999998572
 20
3.351759371068884
 30
0.0
 11
0.0
 21
4.772759371067455
 31
0.0
  0
LINE
  5
1B1BD
330
1B1A5
100
AcDbEntity
  8
0
  6
CONTINUOUS
100
AcDbLine
 10
1.420999999998571
 20
4.02527858014907
 30
0.0
 11
-0.0000000000000003
 21
5.446278580147642
 31
0.0
  0
LINE
  5
1B1BE
330
1B1A5
100
AcDbEntity
  8
0
  6
CONTINUOUS
100
AcDbLine
 10
1.420999999998571
 20
4.698797789229257
 30
0.0
 11
0.0
 21
6.119797789227828
 31
0.0
  0
LINE
  5
1B1BF
330
1B1A5
100
AcDbEntity
  8
0
  6
CONTINUOUS
100
AcDbLine
 10
1.420999999998571
 20
5.372316998309444
 30
0.0
 11
-0.0000000000000001
 21
6.793316998308015
 31
0.0
  0
LINE
  5
1B1C0
330
1B1A5
100
AcDbEntity
  8
0
  6
CONTINUOUS
100
AcDbLine
 10
1.420999999998572
 20
6.045836207389629
 30
0.0
 11
-0.0000000000000004
 21
7.466836207388202
 31
0.0
  0
LINE
  5
1B1C1
330
1B1A5
100
AcDbEntity
  8
0
  6
CONTINUOUS
100
AcDbLine
 10
1.420999999998571
 20
6.719355416469816
 30
0.0
 11
0.0
 21
8.140355416468388
 31
0.0
  0
LINE
  5
1B1C2
330
1B1A5
100
AcDbEntity
  8
0
  6
CONTINUOUS
100
AcDbLine
 10
1.420999999998571
 20
7.392874625550003
 30
0.0
 11
0.0507746255573185
 21
8.763099999991255
 31
0.0
  0
LINE
  5
1B1C3
330
1B1A5
100
AcDbEntity
  8
0
  6
CONTINUOUS
100
AcDbLine
 10
1.420999999998571
 20
8.06639383463019
 30
0.0
 11
0.7242938346375052
 21
8.763099999991255
 31
0.0
  0
LINE
  5
1B1C4
330
1B1A5
100
AcDbEntity
  8
0
  6
CONTINUOUS
100
AcDbLine
 10
1.420999999998571
 20
8.739913043710375
 30
0.0
 11
1.397813043717691
 21
8.763099999991255
 31
0.0
  0
ENDBLK
  5
1B1D0
330
1B1A5
100
AcDbEntity
  8
0
100
AcDbBlockEnd
  0
ENDSEC
  0
SECTION
  2
ENTITIES
  0
LINE
  5
1ABCF
330
18
100
AcDbEntity
  8
01
100
AcDbLine
 10
3042.361088559271
 20
-442.7648572134781
 30
0.0000000001127424
 11
3056.361088559271
 21
-442.7648572134781
 31
0.0000000001127424
  0
LINE
  5
1ABD0
330
18
100
AcDbEntity
  8
01
100
AcDbLine
 10
3047.361972741331
 20
-230.7648572145067
 30
0.0000000001127424
 11
3201.116352896363
 21
-230.7648572145067
 31
0.0000000001127424
  0
LINE
  5
1ABD1
330
18
100
AcDbEntity
  8
01
  6
BYBLOCK
100
AcDbLine
 10
3047.361972741331
 20
-230.7648572145067
 30
0.0000000001127424
 11
3047.361972741331
 21
-270.7648572145067
 31
0.0000000001127424
  0
LINE
  5
1ABD5
330
18
100
AcDbEntity
  8
01
100
AcDbLine
 10
3098.361088559269
 20
-235.7648572155354
 30
0.0000000001127424
 11
3098.361088559269
 21
-204.8467770262864
 31
0.0000000001127424
  0
LINE
  5
1ABD6
330
18
100
AcDbEntity
  8
01
100
AcDbLine
 10
3073.361088559271
 20
-230.7648572145058
 30
0.0000000001127424
 11
3123.361088559271
 21
-230.7648572145081
 31
0.0000000001127424
  0
LINE
  5
1ABD7
330
18
100
AcDbEntity
  8
01
100
AcDbLine
 10
3073.861088559267
 20
-222.2648572145058
 30
0.0000000001127424
 11
3122.861088559271
 21
-222.2648572145094
 31
0.0000000001127424
  0
LINE
  5
1ABD8
330
18
100
AcDbEntity
  8
01
100
AcDbLine
 10
3123.361088559271
 20
-230.7648572145081
 30
0.0000000001127424
 11
3123.361088559271
 21
-222.7648572145094
 31
0.0000000001127424
  0
ARC
  5
1ABD9
330
18
100
AcDbEntity
  8
01
100
AcDbCircle
 10
3122.861088559271
 20
-222.7648572145094
 30
0.0000000001127424
 40
0.5
100
AcDbArc
 50
0.0
 51
90.0
  0
LINE
  5
1ABDA
330
18
100
AcDbEntity
  8
01
100
AcDbLine
 10
3073.361088559271
 20
-230.7648572145058
 30
0.0000000001127424
 11
3073.361088559267
 21
-222.7648572145063
 31
0.0000000001127424
  0
ARC
  5
1ABDB
330
18
100
AcDbEntity
  8
01
100
AcDbCircle
 10
3073.861088559267
 20
-222.7648572145058
 30
0.0000000001127424
 40
0.5
100
AcDbArc
 50
90.0
 51
180.0
  0
LINE
  5
1ABDC
330
18
100
AcDbEntity
  8
01
  6
BYBLOCK
100
AcDbLine
 10
3048.861088559271
 20
-434.864857213478
 30
0.0000000001127424
 11
3048.861088559271
 21
-564.664857213478
 31
0.0000000001127424
  0
LINE
  5
1ABDD
330
18
100
AcDbEntity
  8
01
  6
BYBLOCK
100
AcDbLine
 10
3048.861088559271
 20
-563.7648572134781
 30
0.0000000001127424
 11
3051.361088559271
 21
-563.7648572134781
 31
0.0000000001127424
  0
LINE
  5
1ABDE
330
18
100
AcDbEntity
  8
01
  6
BYBLOCK
100
AcDbLine
 10
3051.361088559271
 20
-563.7648572134781
 30
0.0000000001127424
 11
3051.361088559271
 21
-547.2619134883257
 31
0.0000000001127424
  0
LINE
  5
1ABDF
330
18
100
AcDbEntity
  8
01
  6
BYBLOCK
100
AcDbLine
 10
3047.361088559271
 20
-434.864857213478
 30
0.0000000001127424
 11
3047.361088559271
 21
-564.664857213478
 31
0.0000000001127424
  0
LINE
  5
1ABE0
330
18
100
AcDbEntity
  8
01
  6
BYBLOCK
100
AcDbLine
 10
3047.361088559271
 20
-564.664857213478
 30
0.0000000001127424
 11
3048.861088559271
 21
-564.664857213478
 31
0.0000000001127424
  0
LINE
  5
1ABE1
330
18
100
AcDbEntity
  8
01
  6
BYBLOCK
100
AcDbLine
 10
3048.861088559271
 20
-435.7648572134781
 30
0.0000000001127424
 11
3051.361088559271
 21
-435.7648572134781
 31
0.0000000001127424
  0
LINE
  5
1ABE2
330
18
100
AcDbEntity
  8
01
  6
BYBLOCK
100
AcDbLine
 10
3047.361088559271
 20
-434.864857213478
 30
0.0000000001127424
 11
3048.861088559271
 21
-434.864857213478
 31
0.0000000001127424
  0
LINE
  5
1ABE3
330
18
100
AcDbEntity
  8
01
  6
BYBLOCK
100
AcDbLine
 10
3048.861088559271
 20
-459.7648572134781
 30
0.0000000001127424
 11
3050.061088559271
 21
-459.7648572134781
 31
0.0000000001127424
  0
LINE
  5
1ABE4
330
18
100
AcDbEntity
  8
01
  6
BYBLOCK
100
AcDbLine
 10
3050.061088559271
 20
-454.0648572134778
 30
0.0000000001127424
 11
3050.061088559271
 21
-545.4648572134779
 31
0.0000000001127424
  0
LINE
  5
1ABE5
330
18
100
AcDbEntity
  8
01
  6
BYBLOCK
100
AcDbLine
 10
3050.161088559271
 20
-563.7648572134781
 30
0.0000000001127424
 11
3050.161088559271
 21
-547.164857213478
 31
0.0000000001127424
  0
LINE
  5
1ABE6
330
18
100
AcDbEntity
  8
01
  6
BYBLOCK
100
AcDbLine
 10
3050.161088559271
 20
-547.164857213478
 30
0.0000000001127424
 11
3049.212560421846
 21
-546.2163290760541
 31
0.0000000001127424
  0
LINE
  5
1ABE7
330
18
100
AcDbEntity
  8
01
  6
BYBLOCK
100
AcDbLine
 10
3051.009616696694
 20
-546.4133853509018
 30
0.0000000001127424
 11
3050.061088559271
 21
-545.4648572134779
 31
0.0000000001127424
  0
ARC
  5
1ABE8
330
18
100
AcDbEntity
  8
01
  6
BYBLOCK
100
AcDbCircle
 10
3050.161088559271
 20
-547.2619134883257
 30
0.0000000001127424
 40
1.2
100
AcDbArc
 50
0.0
 51
45.00000000005988
  0
ARC
  5
1ABE9
330
18
100
AcDbEntity
  8
01
  6
BYBLOCK
100
AcDbCircle
 10
3050.061088559271
 20
-545.3678009386301
 30
0.0000000001127424
 40
1.2
100
AcDbArc
 50
180.0
 51
225.0000000000599
  0
LINE
  5
1ABEA
330
18
100
AcDbEntity
  8
01
  6
BYBLOCK
100
AcDbLine
 10
3051.361088559271
 20
-435.7648572134781
 30
0.0000000001127424
 11
3051.361088559271
 21
-452.2678009386302
 31
0.0000000001127424
  0
LINE
  5
1ABEB
330
18
100
AcDbEntity
  8
01
  6
BYBLOCK
100
AcDbLine
 10
3050.161088559271
 20
-435.7648572134781
 30
0.0000000001127424
 11
3050.161088559271
 21
-452.364857213478
 31
0.0000000001127424
  0
LINE
  5
1ABEC
330
18
100
AcDbEntity
  8
01
  6
BYBLOCK
100
AcDbLine
 10
3050.161088559271
 20
-452.364857213478
 30
0.0000000001127424
 11
3049.212560421846
 21
-453.3133853509019
 31
0.0000000001127424
  0
LINE
  5
1ABED
330
18
100
AcDbEntity
  8
01
  6
BYBLOCK
100
AcDbLine
 10
3051.009616696694
 20
-453.1163290760542
 30
0.0000000001127424
 11
3050.061088559271
 21
-454.064857213478
 31
0.0000000001127424
  0
ARC
  5
1ABEE
330
18
100
AcDbEntity
  8
01
  6
BYBLOCK
100
AcDbCircle
 10
3050.161088559271
 20
-452.2678009386302
 30
0.0000000001127424
 40
1.2
100
AcDbArc
 50
314.9999999999401
 51
0.0
  0
ARC
  5
1ABEF
330
18
100
AcDbEntity
  8
01
  6
BYBLOCK
100
AcDbCircle
 10
3050.061088559271
 20
-454.1619134883258
 30
0.0000000001127424
 40
1.2
100
AcDbArc
 50
134.9999999999401
 51
180.0
  0
CIRCLE
  5
1ABF0
330
18
100
AcDbEntity
  8
01
  6
BYBLOCK
100
AcDbCircle
 10
3098.361088559271
 20
-470.7648572134781
 30
0.0000000001127424
 40
4.75
  0
LINE
  5
1ABF1
330
18
100
AcDbEntity
  8
01
  6
BYBLOCK
100
AcDbLine
 10
3050.061088559271
 20
-536.7648572134783
 30
0.0000000001127424
 11
3079.151715846971
 21
-536.7648572134781
 31
0.0000000001127424
  0
ARC
  5
1ABF2
330
18
100
AcDbEntity
  8
01
  6
BYBLOCK
100
AcDbCircle
 10
3050.461972741331
 20
-247.2036066715068
 30
0.0000000001127424
 40
1.6
100
AcDbArc
 50
115.944479772022
 51
180.0
  0
ARC
  5
1ABF3
330
18
100
AcDbEntity
  8
01
  6
BYBLOCK
100
AcDbCircle
 10
3050.461972741331
 20
-254.3261077575066
 30
0.0000000001127424
 40
1.6
100
AcDbArc
 50
180.0
 51
244.055520227978
  0
ARC
  5
1ABF4
330
18
100
AcDbEntity
  8
01
  6
BYBLOCK
100
AcDbCircle
 10
3049.76197274133
 20
-255.6036066715067
 30
0.0000000001127424
 40
1.6
100
AcDbArc
 50
0.0
 51
64.05552022797804
  0
ARC
  5
1ABF5
330
18
100
AcDbEntity
  8
01
  6
BYBLOCK
100
AcDbCircle
 10
3049.76197274133
 20
-245.9261077575068
 30
0.0000000001127424
 40
1.6
100
AcDbArc
 50
295.944479772022
 51
0.0
  0
LINE
  5
1ABF6
330
18
100
AcDbEntity
  8
01
  6
BYBLOCK
100
AcDbLine
 10
3051.361972741331
 20
-245.9261077575068
 30
0.0000000001127424
 11
3051.361972741331
 21
-238.5648572145067
 31
0.0000000001127424
  0
LINE
  5
1ABF7
330
18
100
AcDbEntity
  8
01
  6
BYBLOCK
100
AcDbLine
 10
3050.461972741331
 20
-254.1648572145068
 30
0.0000000001127424
 11
3050.461972741331
 21
-247.3648572145066
 31
0.0000000001127424
  0
LINE
  5
1ABF8
330
18
100
AcDbEntity
  8
01
  6
BYBLOCK
100
AcDbLine
 10
3051.361972741331
 20
-262.7648572145067
 30
0.0000000001127424
 11
3051.361972741331
 21
-255.6036066715067
 31
0.0000000001127424
  0
LINE
  5
1ABF9
330
18
100
AcDbEntity
  8
01
  6
BYBLOCK
100
AcDbLine
 10
3049.76197274133
 20
-245.7648572145067
 30
0.0000000001127424
 11
3049.761972741331
 21
-238.5648572145067
 31
0.0000000001127424
  0
LINE
  5
1ABFA
330
18
100
AcDbEntity
  8
01
  6
BYBLOCK
100
AcDbLine
 10
3049.76197274133
 20
-255.7648572145067
 30
0.0000000001127424
 11
3049.76197274133
 21
-262.8648572145066
 31
0.0000000001127424
  0
ARC
  5
1ABFB
330
18
100
AcDbEntity
  8
01
  6
BYBLOCK
100
AcDbCircle
 10
3114.76197274133
 20
-242.8648572145066
 30
0.0000000001127424
 40
1.6
100
AcDbArc
 50
0.0
 51
90.0
  0
LINE
  5
1ABFC
330
18
100
AcDbEntity
  8
01
  6
BYBLOCK
100
AcDbLine
 10
3048.861972741331
 20
-238.3648572145066
 30
0.0000000001127424
 11
3048.861972741331
 21
-263.1648572145066
 31
0.0000000001127424
  0
LINE
  5
1ABFD
330
18
100
AcDbEntity
  8
01
  6
BYBLOCK
100
AcDbLine
 10
3114.76197274133
 20
-241.2648572145067
 30
0.0000000001127424
 11
3051.361972741331
 21
-241.2648572145067
 31
0.0000000001127424
  0
LINE
  5
1ABFE
330
18
100
AcDbEntity
  8
01
  6
BYBLOCK
100
AcDbLine
 10
3114.76197274133
 20
-258.4648572145068
 30
0.0000000001127424
 11
3114.76197274133
 21
-241.2648572145067
 31
0.0000000001127424
  0
LINE
  5
1ABFF
330
18
100
AcDbEntity
  8
01
  6
BYBLOCK
100
AcDbLine
 10
3116.361972741331
 20
-260.0648572145067
 30
0.0000000001127424
 11
3116.361972741331
 21
-242.8648572145066
 31
0.0000000001127424
  0
LINE
  5
1AC00
330
18
100
AcDbEntity
  8
01
  6
BYBLOCK
100
AcDbLine
 10
3048.861972741331
 20
-238.5648572145067
 30
0.0000000001127424
 11
3051.361972741331
 21
-238.5648572145067
 31
0.0000000001127424
  0
LINE
  5
1AC01
330
18
100
AcDbEntity
  8
01
  6
BYBLOCK
100
AcDbLine
 10
3051.361972741331
 20
-262.7648572145067
 30
0.0000000001127424
 11
3049.76197274133
 21
-262.7648572145067
 31
0.0000000001127424
  0
LINE
  5
1AC02
330
18
100
AcDbEntity
  8
01
  6
BYBLOCK
100
AcDbLine
 10
3049.76197274133
 20
-262.8648572145066
 30
0.0000000001127424
 11
3048.861972741331
 21
-262.8648572145066
 31
0.0000000001127424
  0
ARC
  5
1AC03
330
18
100
AcDbEntity
  8
01
  6
BYBLOCK
100
AcDbCircle
 10
3046.06256766873
 20
-256.4648572145061
 30
0.0000000001127424
 40
0.3000000000000051
100
AcDbArc
 50
232.8678058729389
 51
270.0
  0
LINE
  5
1AC04
330
18
100
AcDbEntity
  8
01
  6
BYBLOCK
100
AcDbLine
 10
3046.861972741331
 20
-256.764857214506
 30
0.0000000001127424
 11
3046.06256766873
 21
-256.764857214506
 31
0.0000000001127424
  0
LINE
  5
1AC05
330
18
100
AcDbEntity
  8
01
  6
BYBLOCK
100
AcDbLine
 10
3036.461972741331
 20
-247.0918683483019
 30
0.0000000001127424
 11
3036.461972741331
 21
-247.262490403851
 31
0.0000000001127424
  0
ARC
  5
1AC06
330
18
100
AcDbEntity
  8
01
  6
BYBLOCK
100
AcDbCircle
 10
3036.76197274133
 20
-247.262490403851
 30
0.0000000001127424
 40
0.3
100
AcDbArc
 50
180.0
 51
217.7405295629614
  0
ARC
  5
1AC07
330
18
100
AcDbEntity
  8
01
  6
BYBLOCK
100
AcDbCircle
 10
3076.064273340615
 20
-216.8417874599102
 30
0.0000000001127424
 40
50.00000000000002
100
AcDbArc
 50
217.7405295629717
 51
232.867805873004
  0
LINE
  5
1AC08
330
18
100
AcDbEntity
  8
01
  6
BYBLOCK
100
AcDbLine
 10
3036.26197274133
 20
-245.9648572145065
 30
0.0000000001127424
 11
3036.26197274133
 21
-245.2648572145067
 31
0.0000000001127424
  0
ARC
  5
1AC09
330
18
100
AcDbEntity
  8
01
  6
BYBLOCK
100
AcDbCircle
 10
3036.76197274133
 20
-245.2648572145067
 30
0.0000000001127424
 40
0.5000000000000142
100
AcDbArc
 50
90.0
 51
180.0
  0
LINE
  5
1AC0A
330
18
100
AcDbEntity
  8
01
  6
BYBLOCK
100
AcDbLine
 10
3046.861972741331
 20
-244.7648572145067
 30
0.0000000001127424
 11
3036.76197274133
 21
-244.7648572145067
 31
0.0000000001127424
  0
LINE
  5
1AC0B
330
18
100
AcDbEntity
  8
01
  6
BYBLOCK
100
AcDbLine
 10
3036.26197274133
 20
-246.343536870947
 30
0.0000000001127424
 11
3036.26197274133
 21
-245.9648572145065
 31
0.0000000001127424
  0
SPLINE
  5
1AC0C
330
18
100
AcDbEntity
  8
01
  6
BYBLOCK
100
AcDbSpline
210
0.0
220
0.0
230
1.0
 70
     8
 71
     3
 72
     8
 73
     4
 74
     0
 42
0.0000000001
 43
0.0000000001
 40
0.0
 40
0.0
 40
0.0
 40
0.0
 40
1.0
 40
1.0
 40
1.0
 40
1.0
 10
3036.287705282595
 20
-246.6201873003961
 30
0.0000000001127424
 10
3036.270237396484
 20
-246.5271011045156
 30
0.0000000001127424
 10
3036.26197274133
 20
-246.4338350936241
 30
0.0000000001127424
 10
3036.26197274133
 20
-246.3435368709465
 30
0.0000000001127424
  0
ARC
  5
1AC0D
330
18
100
AcDbEntity
  8
01
  6
BYBLOCK
100
AcDbCircle
 10
3037.76197274133
 20
-246.343536870947
 30
0.0000000001127424
 40
1.499999999999998
100
AcDbArc
 50
190.628112987605
 51
225.0000000000553
  0
LINE
  5
1AC0E
330
18
100
AcDbEntity
  8
01
  6
BYBLOCK
100
AcDbLine
 10
3047.361972741331
 20
-243.9148572145066
 30
0.0000000001127424
 11
3046.861972741331
 21
-243.9148572145066
 31
0.0000000001127424
  0
LINE
  5
1AC0F
330
18
100
AcDbEntity
  8
01
  6
BYBLOCK
100
AcDbLine
 10
3046.861972741331
 20
-257.6148572145066
 30
0.0000000001127424
 11
3047.361972741331
 21
-257.6148572145066
 31
0.0000000001127424
  0
LINE
  5
1AC10
330
18
100
AcDbEntity
  8
01
  6
BYBLOCK
100
AcDbLine
 10
3046.861972741331
 20
-257.6148572145066
 30
0.0000000001127424
 11
3046.861972741331
 21
-243.9148572145066
 31
0.0000000001127424
  0
LINE
  5
1AC11
330
18
100
AcDbEntity
  8
01
  6
BYBLOCK
100
AcDbLine
 10
3047.361972741331
 20
-238.3648572145066
 30
0.0000000001127424
 11
3048.861972741331
 21
-238.3648572145066
 31
0.0000000001127424
  0
LINE
  5
1AC12
330
18
100
AcDbEntity
  8
01
  6
BYBLOCK
100
AcDbLine
 10
3047.361972741331
 20
-263.1648572145066
 30
0.0000000001127424
 11
3048.861972741331
 21
-263.1648572145066
 31
0.0000000001127424
  0
LINE
  5
1AC13
330
18
100
AcDbEntity
  8
01
  6
BYBLOCK
100
AcDbLine
 10
3047.361972741331
 20
-263.1648572145066
 30
0.0000000001127424
 11
3047.361972741331
 21
-238.3648572145066
 31
0.0000000001127424
  0
LINE
  5
1AC14
330
18
100
AcDbEntity
  8
01
  6
BYBLOCK
100
AcDbLine
 10
3116.361972741331
 20
-258.4648572145068
 30
0.0000000001127424
 11
3051.361972741331
 21
-258.4648572145068
 31
0.0000000001127424
  0
LINE
  5
1AC15
330
18
100
AcDbEntity
  8
01
  6
BYBLOCK
100
AcDbLine
 10
3116.361972741331
 20
-260.0648572145067
 30
0.0000000001127424
 11
3065.961972741331
 21
-260.0648572145067
 31
0.0000000001127424
  0
LINE
  5
1AC16
330
18
100
AcDbEntity
  8
01
  6
BYBLOCK
100
AcDbLine
 10
3068.799231041534
 20
-260.0648572145067
 30
0.0000000001127424
 11
3051.361972741331
 21
-260.0648572145067
 31
0.0000000001127424
  0
LINE
  5
1AC17
330
18
100
AcDbEntity
  8
01
  6
BYBLOCK
100
AcDbLine
 10
3045.915526131924
 20
-256.6184106051001
 30
0.0000000001127424
 11
3036.70131256955
 21
-247.404197042727
 31
0.0000000001127424
  0
ARC
  5
1AC18
330
18
100
AcDbEntity
  8
01
  6
BYBLOCK
100
AcDbCircle
 10
3046.269079522517
 20
-256.2648572145067
 30
0.0000000001127424
 40
0.5
100
AcDbArc
 50
224.9999999999908
 51
270.0
  0
LINE
  5
1AC19
330
18
100
AcDbEntity
  8
01
  6
BYBLOCK
100
AcDbLine
 10
3046.861972741331
 20
-256.7648572145067
 30
0.0000000001127424
 11
3046.269079522517
 21
-256.7648572145067
 31
0.0000000001127424
  0
LINE
  5
1AC1B
330
18
100
AcDbEntity
  8
01
  6
BYBLOCK
100
AcDbLine
 10
3094.754843975219
 20
-470.7648572134781
 30
0.0000000001127424
 11
3098.361088559271
 21
-467.1586126294267
 31
0.0000000001127424
  0
LINE
  5
1AC1C
330
18
100
AcDbEntity
  8
01
  6
BYBLOCK
100
AcDbLine
 10
3101.967333143322
 20
-470.7648572134781
 30
0.0000000001127424
 11
3098.361088559271
 21
-467.1586126294267
 31
0.0000000001127424
  0
LINE
  5
1AC1D
330
18
100
AcDbEntity
  8
01
  6
BYBLOCK
100
AcDbLine
 10
3094.754843975219
 20
-470.7648572134781
 30
0.0000000001127424
 11
3098.361088559271
 21
-474.3711017975293
 31
0.0000000001127424
  0
LINE
  5
1AC1E
330
18
100
AcDbEntity
  8
01
  6
BYBLOCK
100
AcDbLine
 10
3101.967333143322
 20
-470.7648572134781
 30
0.0000000001127424
 11
3098.361088559271
 21
-474.3711017975293
 31
0.0000000001127424
  0
LINE
  5
1AC1F
330
18
100
AcDbEntity
  8
01
  6
BYBLOCK
100
AcDbLine
 10
3036.361088559271
 20
-489.733186946462
 30
0.0000000001127424
 11
3036.361088559271
 21
-507.7965274804678
 31
0.0000000001127424
  0
LINE
  5
1AC20
330
18
100
AcDbEntity
  8
01
  6
BYBLOCK
100
AcDbLine
 10
3040.653981778084
 20
-488.7648572134649
 30
0.0000000001127424
 11
3047.361088559271
 21
-488.7648572134649
 31
0.0000000001127424
  0
LINE
  5
1AC21
330
18
100
AcDbEntity
  8
01
  6
BYBLOCK
100
AcDbLine
 10
3040.653981778084
 20
-508.7648572134649
 30
0.0000000001127424
 11
3047.361088559271
 21
-508.7648572134649
 31
0.0000000001127424
  0
LINE
  5
1AC22
330
18
100
AcDbEntity
  8
01
  6
BYBLOCK
100
AcDbLine
 10
3046.153981778085
 20
-493.5148572134649
 30
0.0000000001127424
 11
3046.153981778084
 21
-504.0148572134649
 31
0.0000000001127424
  0
ARC
  5
1AC23
330
18
100
AcDbEntity
  8
01
  6
BYBLOCK
100
AcDbCircle
 10
3040.653981778084
 20
-498.7648572134649
 30
0.0000000001127424
 40
10.00000000000009
100
AcDbArc
 50
53.13010235413383
 51
115.4224671781423
  0
ARC
  5
1AC24
330
18
100
AcDbEntity
  8
01
  6
BYBLOCK
100
AcDbCircle
 10
3040.653981778084
 20
-498.7648572134647
 30
0.0000000001127424
 40
10.00000000000009
100
AcDbArc
 50
244.5775328218577
 51
306.8698976458662
  0
LINE
  5
1AC25
330
18
100
AcDbEntity
  8
01
  6
BYBLOCK
100
AcDbLine
 10
3046.653981778085
 20
-490.7648572134649
 30
0.0000000001127424
 11
3046.653981778085
 21
-506.7648572134649
 31
0.0000000001127424
  0
LINE
  5
1AC26
330
18
100
AcDbEntity
  8
01
  6
BYBLOCK
100
AcDbLine
 10
3036.361088559271
 20
-493.5148572134649
 30
0.0000000001127424
 11
3046.153981778085
 21
-493.5148572134649
 31
0.0000000001127424
  0
LINE
  5
1AC27
330
18
100
AcDbEntity
  8
01
  6
BYBLOCK
100
AcDbLine
 10
3036.361088559271
 20
-504.0148572134649
 30
0.0000000001127424
 11
3046.153981778085
 21
-504.0148572134649
 31
0.0000000001127424
  0
LINE
  5
1AC28
330
18
100
AcDbEntity
  8
01
  6
BYBLOCK
100
AcDbLine
 10
2921.961204899016
 20
-434.8648572134787
 30
0.0000000001127424
 11
2934.761204899015
 21
-434.8648572134787
 31
0.0000000001127424
  0
LINE
  5
1AC29
330
18
100
AcDbEntity
  8
01
  6
BYBLOCK
100
AcDbLine
 10
2921.961204899016
 20
-564.6648572134786
 30
0.0000000001127424
 11
2934.761204899015
 21
-564.6648572134786
 31
0.0000000001127424
  0
LINE
  5
1AC2A
330
18
100
AcDbEntity
  8
01
  6
BYBLOCK
100
AcDbLine
 10
2915.961204899016
 20
-440.8648572134787
 30
0.0000000001127424
 11
2915.961204899016
 21
-558.6648572134786
 31
0.0000000001127424
  0
LINE
  5
1AC2B
330
18
100
AcDbEntity
  8
01
  6
BYBLOCK
100
AcDbLine
 10
2940.761204899015
 20
-440.8648572134787
 30
0.0000000001127424
 11
2940.761204899015
 21
-558.6648572134786
 31
0.0000000001127424
  0
ARC
  5
1AC2C
330
18
100
AcDbEntity
  8
01
  6
BYBLOCK
100
AcDbCircle
 10
2921.961204899016
 20
-558.6648572134786
 30
0.0000000001127424
 40
6.0
100
AcDbArc
 50
180.0
 51
270.0
  0
ARC
  5
1AC2D
330
18
100
AcDbEntity
  8
01
  6
BYBLOCK
100
AcDbCircle
 10
2934.761204899015
 20
-558.6648572134786
 30
0.0000000001127424
 40
6.0
100
AcDbArc
 50
270.0
 51
0.0
  0
ARC
  5
1AC2E
330
18
100
AcDbEntity
  8
01
  6
BYBLOCK
100
AcDbCircle
 10
2921.961204899016
 20
-440.8648572134787
 30
0.0000000001127424
 40
6.0
100
AcDbArc
 50
90.0
 51
180.0
  0
ARC
  5
1AC2F
330
18
100
AcDbEntity
  8
01
  6
BYBLOCK
100
AcDbCircle
 10
2934.761204899015
 20
-440.8648572134787
 30
0.0000000001127424
 40
6.0
100
AcDbArc
 50
0.0
 51
90.0
  0
CIRCLE
  5
1AC30
330
18
100
AcDbEntity
  8
01
  6
BYBLOCK
100
AcDbCircle
 10
2928.361204899015
 20
-556.7648572134785
 30
0.0000000001127424
 40
2.75
  0
CIRCLE
  5
1AC31
330
18
100
AcDbEntity
  8
01
  6
BYBLOCK
100
AcDbCircle
 10
2928.361204899015
 20
-556.7648572134785
 30
0.0000000001127424
 40
4.25
  0
CIRCLE
  5
1AC32
330
18
100
AcDbEntity
  8
01
  6
BYBLOCK
100
AcDbCircle
 10
2928.361204899015
 20
-442.7648572134788
 30
0.0000000001127424
 40
2.75
  0
CIRCLE
  5
1AC33
330
18
100
AcDbEntity
  8
01
  6
BYBLOCK
100
AcDbCircle
 10
2928.361204899015
 20
-442.7648572134788
 30
0.0000000001127424
 40
4.25
  0
LINE
  5
1AC34
330
18
100
AcDbEntity
  8
1CENTER
100
AcDbLine
 10
2934.236230306921
 20
-556.7648572134788
 30
0.0000000001127424
 11
2922.486179491109
 21
-556.7648572134788
 31
0.0000000001127424
  0
LINE
  5
1AC35
330
18
100
AcDbEntity
  8
1CENTER
100
AcDbLine
 10
2928.361204899015
 20
-550.8898318055724
 30
0.0000000001127424
 11
2928.361204899015
 21
-562.6398826213849
 31
0.0000000001127424
  0
LINE
  5
1AC36
330
18
100
AcDbEntity
  8
1CENTER
100
AcDbLine
 10
2934.236230306921
 20
-442.7648572134788
 30
0.0000000001127424
 11
2922.486179491109
 21
-442.7648572134788
 31
0.0000000001127424
  0
LINE
  5
1AC37
330
18
100
AcDbEntity
  8
1CENTER
100
AcDbLine
 10
2928.361204899015
 20
-436.8898318055724
 30
0.0000000001127424
 11
2928.361204899015
 21
-448.6398826213849
 31
0.0000000001127424
  0
ARC
  5
1AC38
330
18
100
AcDbEntity
  8
01
  6
BYBLOCK
100
AcDbCircle
 10
2928.361204899015
 20
-498.7648572134785
 30
0.0000000001127424
 40
10.15
100
AcDbArc
 50
231.9925780701392
 51
308.0074219298607
  0
LINE
  5
1AC39
330
18
100
AcDbEntity
  8
01
  6
BYBLOCK
100
AcDbLine
 10
2922.111204899015
 20
-490.7673576042257
 30
0.0000000001127424
 11
2922.111204899015
 21
-506.7623568227314
 31
0.0000000001127424
  0
LINE
  5
1AC3A
330
18
100
AcDbEntity
  8
01
  6
BYBLOCK
100
AcDbLine
 10
2934.611204899015
 20
-490.7673576042257
 30
0.0000000001127424
 11
2934.611204899015
 21
-506.7623568227314
 31
0.0000000001127424
  0
ARC
  5
1AC3B
330
18
100
AcDbEntity
  8
01
  6
BYBLOCK
100
AcDbCircle
 10
2928.361204899015
 20
-498.7648572134785
 30
0.0000000001127424
 40
10.15
100
AcDbArc
 50
51.99257807013929
 51
128.0074219298607
  0
LINE
  5
1AC3C
330
18
100
AcDbEntity
  8
01
  6
BYBLOCK
100
AcDbLine
 10
2923.861204899015
 20
-493.5148572134785
 30
0.0000000001127424
 11
2923.861204899015
 21
-504.0148572134785
 31
0.0000000001127424
  0
LINE
  5
1AC3D
330
18
100
AcDbEntity
  8
01
  6
BYBLOCK
100
AcDbLine
 10
2933.861204899015
 20
-493.5148572134785
 30
0.0000000001127424
 11
2933.861204899015
 21
-504.0148572134785
 31
0.0000000001127424
  0
LINE
  5
1AC3E
330
18
100
AcDbEntity
  8
01
  6
BYBLOCK
100
AcDbLine
 10
2924.361204899015
 20
-489.4362721117602
 30
0.0000000001127424
 11
2924.361204899015
 21
-493.5148572134788
 31
0.0000000001127424
  0
LINE
  5
1AC3F
330
18
100
AcDbEntity
  8
01
  6
BYBLOCK
100
AcDbLine
 10
2922.861204899015
 20
-493.5148572134788
 30
0.0000000001127424
 11
2922.861204899015
 21
-504.0148572134785
 31
0.0000000001127424
  0
LINE
  5
1AC40
330
18
100
AcDbEntity
  8
01
  6
BYBLOCK
100
AcDbLine
 10
2924.361204899015
 20
-504.0148572134785
 30
0.0000000001127424
 11
2924.361204899015
 21
-508.0934423151969
 31
0.0000000001127424
  0
LINE
  5
1AC41
330
18
100
AcDbEntity
  8
01
  6
BYBLOCK
100
AcDbLine
 10
2922.861204899015
 20
-493.5148572134785
 30
0.0000000001127424
 11
2933.861204899015
 21
-493.5148572134785
 31
0.0000000001127424
  0
LINE
  5
1AC42
330
18
100
AcDbEntity
  8
01
  6
BYBLOCK
100
AcDbLine
 10
2922.861204899015
 20
-504.0148572134785
 30
0.0000000001127424
 11
2933.861204899015
 21
-504.0148572134785
 31
0.0000000001127424
  0
LINE
  5
1AC44
330
18
100
AcDbEntity
  8
01
100
AcDbLine
 10
2908.361321238758
 20
-400.7648572134783
 30
0.0000000001127424
 11
2908.361321238758
 21
-590.7648572134785
 31
0.0000000001127424
  0
LINE
  5
1AC45
330
18
100
AcDbEntity
  8
01
100
AcDbLine
 10
2908.361321238758
 20
-495.7648572134785
 30
0.0000000001127424
 11
2908.361321238758
 21
-545.7648572134785
 31
0.0000000001127424
  0
LINE
  5
1AC46
330
18
100
AcDbEntity
  8
01
100
AcDbLine
 10
2899.861321238758
 20
-544.7648572134785
 30
0.0000000001127424
 11
2899.861321238758
 21
-496.7648572134785
 31
0.0000000001127424
  0
LINE
  5
1AC47
330
18
100
AcDbEntity
  8
01
100
AcDbLine
 10
2908.361321238758
 20
-545.7648572134785
 30
0.0000000001127424
 11
2900.861321238758
 21
-545.7648572134785
 31
0.0000000001127424
  0
ARC
  5
1AC48
330
18
100
AcDbEntity
  8
01
100
AcDbCircle
 10
2900.861321238758
 20
-544.7648572134785
 30
0.0000000001127424
 40
1.0
100
AcDbArc
 50
180.0
 51
270.0
  0
LINE
  5
1AC49
330
18
100
AcDbEntity
  8
01
100
AcDbLine
 10
2908.361321238758
 20
-495.7648572134785
 30
0.0000000001127424
 11
2900.861321238758
 21
-495.7648572134785
 31
0.0000000001127424
  0
ARC
  5
1AC4A
330
18
100
AcDbEntity
  8
01
100
AcDbCircle
 10
2900.861321238758
 20
-496.7648572134785
 30
0.0000000001127424
 40
1.0
100
AcDbArc
 50
90.0
 51
180.0
  0
LINE
  5
1AC4B
330
18
100
AcDbEntity
  8
01
100
AcDbLine
 10
2910.48960662119
 20
-520.7648572134785
 30
0.0000000001127424
 11
2887.861321238758
 21
-520.7648572134785
 31
0.0000000001127424
  0
LINE
  5
1AC4C
330
18
100
AcDbEntity
  8
01
100
AcDbLine
 10
3042.361088559558
 20
-556.7648572131893
 30
0.0000000001127424
 11
3056.361088559558
 21
-556.7648572131893
 31
0.0000000001127424
  0
LINE
  5
1AC4D
330
18
100
AcDbEntity
  8
01
100
AcDbLine
 10
3109.672976826811
 20
-470.7648572134781
 30
0.0000000001127424
 11
3087.049200291728
 21
-470.7648572134781
 31
0.0000000001127424
  0
LINE
  5
1AC4E
330
18
100
AcDbEntity
  8
01
100
AcDbLine
 10
3098.361088559271
 20
-459.4529689459364
 30
0.0000000001127424
 11
3098.361088559271
 21
-482.0767454810198
 31
0.0000000001127424
  0
LINE
  5
1AC4F
330
18
100
AcDbEntity
  8
01
  6
BYBLOCK
100
AcDbLine
 10
2820.361321238762
 20
-489.733186946462
 30
0.0000000001127424
 11
2820.361321238762
 21
-507.7965274804678
 31
0.0000000001127424
  0
LINE
  5
1AC50
330
18
100
AcDbEntity
  8
01
  6
BYBLOCK
100
AcDbLine
 10
2816.068428019948
 20
-488.7648572134649
 30
0.0000000001127424
 11
2809.361321238762
 21
-488.7648572134649
 31
0.0000000001127424
  0
LINE
  5
1AC51
330
18
100
AcDbEntity
  8
01
  6
BYBLOCK
100
AcDbLine
 10
2816.068428019948
 20
-508.7648572134649
 30
0.0000000001127424
 11
2809.361321238762
 21
-508.7648572134649
 31
0.0000000001127424
  0
ARC
  5
1AC52
330
18
100
AcDbEntity
  8
01
  6
BYBLOCK
100
AcDbCircle
 10
2816.068428019948
 20
-498.7648572134649
 30
0.0000000001127424
 40
10.00000000000009
100
AcDbArc
 50
64.57753282185774
 51
90.0
  0
LINE
  5
1AC53
330
18
100
AcDbEntity
  8
01
  6
CONTINUOUS
100
AcDbLine
 10
2819.861321238762
 20
-507.0796514062956
 30
0.0000000001127424
 11
2809.361321238762
 21
-507.0796514062956
 31
0.0000000001127424
  0
ARC
  5
1AC54
330
18
100
AcDbEntity
  8
01
  6
CONTINUOUS
100
AcDbCircle
 10
2819.899901485675
 20
-506.6175121754889
 30
0.0000000001127424
 40
0.4637468103423796
100
AcDbArc
 50
265.2279066161988
 51
354.2577450626203
  0
LINE
  5
1AC55
330
18
100
AcDbEntity
  8
01
  6
CONTINUOUS
100
AcDbLine
 10
2820.361321238762
 20
-491.2815424399168
 30
0.0000000001127424
 11
2820.361321238762
 21
-506.2481719870127
 31
0.0000000001127424
  0
ARC
  5
1AC56
330
18
100
AcDbEntity
  8
01
  6
CONTINUOUS
100
AcDbCircle
 10
2819.899901485675
 20
-490.9122022514405
 30
0.0000000001127424
 40
0.4637468103423387
100
AcDbArc
 50
5.742254937379685
 51
94.77209338380122
  0
ARC
  5
1AC57
330
18
100
AcDbEntity
  8
01
  6
BYBLOCK
100
AcDbCircle
 10
2816.068428019948
 20
-498.7648572134647
 30
0.0000000001127424
 40
10.00000000000009
100
AcDbArc
 50
270.0
 51
295.4224671781423
  0
LINE
  5
1AC58
330
18
100
AcDbEntity
  8
01
  6
CONTINUOUS
100
AcDbLine
 10
2809.361321238762
 20
-490.4500630206337
 30
0.0000000001127424
 11
2819.861321238762
 21
-490.4500630206337
 31
0.0000000001127424
  0
LINE
  5
1AC59
330
18
100
AcDbEntity
  8
01
100
AcDbLine
 10
3116.361088559271
 20
-503.4155056405837
 30
0.0000000001127424
 11
3116.361088559271
 21
-535.7648572134781
 31
0.0000000001127424
  0
ARC
  5
1AC5E
330
18
100
AcDbEntity
  8
01
100
AcDbCircle
 10
3115.361088559271
 20
-535.7648572134781
 30
0.0000000001127424
 40
1.0
100
AcDbArc
 50
270.0
 51
0.0
  0
LINE
  5
1AC63
330
18
100
AcDbEntity
  8
01
100
AcDbLine
 10
3079.151715846972
 20
-536.7648572134781
 30
0.0000000001127424
 11
3115.361088559271
 21
-536.7648572134779
 31
0.0000000001127424
  0
LINE
  5
1AC64
330
18
100
AcDbEntity
  8
01
100
AcDbLine
 10
2788.361321238762
 20
-520.7648572134781
 30
0.0000000001127424
 11
2728.361321238762
 21
-520.7648572134781
 31
0.0000000001127424
  0
LINE
  5
1AC65
330
18
100
AcDbEntity
  8
01
100
AcDbLine
 10
2758.361321238762
 20
-490.7648572134781
 30
0.0000000001127424
 11
2758.361321238762
 21
-550.7648572134781
 31
0.0000000001127424
  0
LINE
  5
1AC66
330
18
100
AcDbEntity
  8
01
  6
BYBLOCK
100
AcDbLine
 10
3116.361088559271
 20
-473.9827382458998
 30
0.0000000001128561
 11
3116.361088559271
 21
-503.4155056405809
 31
0.0000000001127424
  0
LINE
  5
1AC67
330
18
100
AcDbEntity
  8
01
  6
BYBLOCK
100
AcDbLine
 10
3050.061088559271
 20
-462.7648572134781
 30
0.0000000001127424
 11
3078.517985481288
 21
-462.7648572134781
 31
0.0000000001128561
  0
ARC
  5
1AC68
330
18
100
AcDbEntity
  8
01
  6
BYBLOCK
100
AcDbCircle
 10
3115.361088559271
 20
-463.7648572134781
 30
0.0000000001127424
 40
1.0
100
AcDbArc
 50
0.0
 51
90.0
  0
LINE
  5
1AC69
330
18
100
AcDbEntity
  8
01
  6
BYBLOCK
100
AcDbLine
 10
3078.517985481288
 20
-462.7648572134781
 30
0.0000000001128561
 11
3115.361088559271
 21
-462.7648572134781
 31
0.0000000001127424
  0
LINE
  5
1AC6A
330
18
100
AcDbEntity
  8
01
  6
BYBLOCK
100
AcDbLine
 10
3116.361088559271
 20
-463.7648572134781
 30
0.0000000001127424
 11
3116.361088559271
 21
-473.9827382458998
 31
0.0000000001128561
  0
LINE
  5
1AC6B
330
18
100
AcDbEntity
  8
01
100
AcDbLine
 10
2814.361321238762
 20
-442.7648572134781
 30
0.0000000001127424
 11
2800.361321238762
 21
-442.7648572134781
 31
0.0000000001127424
  0
LINE
  5
1AC6C
330
18
100
AcDbEntity
  8
01
  6
BYBLOCK
100
AcDbLine
 10
2807.861321238762
 20
-434.864857213478
 30
0.0000000001127424
 11
2807.861321238762
 21
-564.664857213478
 31
0.0000000001127424
  0
LINE
  5
1AC6D
330
18
100
AcDbEntity
  8
01
  6
BYBLOCK
100
AcDbLine
 10
2807.861321238762
 20
-563.7648572134781
 30
0.0000000001127424
 11
2805.361321238762
 21
-563.7648572134781
 31
0.0000000001127424
  0
LINE
  5
1AC6E
330
18
100
AcDbEntity
  8
01
  6
BYBLOCK
100
AcDbLine
 10
2805.361321238762
 20
-563.7648572134781
 30
0.0000000001127424
 11
2805.361321238762
 21
-547.2619134883257
 31
0.0000000001127424
  0
LINE
  5
1AC6F
330
18
100
AcDbEntity
  8
01
  6
BYBLOCK
100
AcDbLine
 10
2809.361321238762
 20
-434.864857213478
 30
0.0000000001127424
 11
2809.361321238762
 21
-564.664857213478
 31
0.0000000001127424
  0
LINE
  5
1AC70
330
18
100
AcDbEntity
  8
01
  6
BYBLOCK
100
AcDbLine
 10
2809.361321238762
 20
-564.664857213478
 30
0.0000000001127424
 11
2807.861321238762
 21
-564.664857213478
 31
0.0000000001127424
  0
LINE
  5
1AC71
330
18
100
AcDbEntity
  8
01
  6
BYBLOCK
100
AcDbLine
 10
2807.861321238762
 20
-435.7648572134781
 30
0.0000000001127424
 11
2805.361321238762
 21
-435.7648572134781
 31
0.0000000001127424
  0
LINE
  5
1AC72
330
18
100
AcDbEntity
  8
01
  6
BYBLOCK
100
AcDbLine
 10
2809.361321238762
 20
-434.864857213478
 30
0.0000000001127424
 11
2807.861321238762
 21
-434.864857213478
 31
0.0000000001127424
  0
LINE
  5
1AC73
330
18
100
AcDbEntity
  8
01
  6
BYBLOCK
100
AcDbLine
 10
2807.861321238762
 20
-459.7648572134781
 30
0.0000000001127424
 11
2806.661321238762
 21
-459.7648572134781
 31
0.0000000001127424
  0
LINE
  5
1AC74
330
18
100
AcDbEntity
  8
01
  6
BYBLOCK
100
AcDbLine
 10
2806.661321238762
 20
-454.0648572134778
 30
0.0000000001127424
 11
2806.661321238762
 21
-545.4648572134779
 31
0.0000000001127424
  0
LINE
  5
1AC75
330
18
100
AcDbEntity
  8
01
  6
BYBLOCK
100
AcDbLine
 10
2806.561321238762
 20
-563.7648572134781
 30
0.0000000001127424
 11
2806.561321238762
 21
-547.164857213478
 31
0.0000000001127424
  0
LINE
  5
1AC76
330
18
100
AcDbEntity
  8
01
  6
BYBLOCK
100
AcDbLine
 10
2806.561321238762
 20
-547.164857213478
 30
0.0000000001127424
 11
2807.509849376186
 21
-546.2163290760541
 31
0.0000000001127424
  0
LINE
  5
1AC77
330
18
100
AcDbEntity
  8
01
  6
BYBLOCK
100
AcDbLine
 10
2805.712793101338
 20
-546.4133853509018
 30
0.0000000001127424
 11
2806.661321238762
 21
-545.4648572134779
 31
0.0000000001127424
  0
ARC
  5
1AC78
330
18
100
AcDbEntity
  8
01
  6
BYBLOCK
100
AcDbCircle
 10
2806.561321238762
 20
-547.2619134883257
 30
0.0000000001127424
 40
1.2
100
AcDbArc
 50
134.9999999999401
 51
180.0
  0
ARC
  5
1AC79
330
18
100
AcDbEntity
  8
01
  6
BYBLOCK
100
AcDbCircle
 10
2806.661321238762
 20
-545.3678009386301
 30
0.0000000001127424
 40
1.2
100
AcDbArc
 50
314.9999999999401
 51
0.0
  0
LINE
  5
1AC7A
330
18
100
AcDbEntity
  8
01
  6
BYBLOCK
100
AcDbLine
 10
2805.361321238762
 20
-435.7648572134781
 30
0.0000000001127424
 11
2805.361321238762
 21
-452.2678009386302
 31
0.0000000001127424
  0
LINE
  5
1AC7B
330
18
100
AcDbEntity
  8
01
  6
BYBLOCK
100
AcDbLine
 10
2806.561321238762
 20
-435.7648572134781
 30
0.0000000001127424
 11
2806.561321238762
 21
-452.364857213478
 31
0.0000000001127424
  0
LINE
  5
1AC7C
330
18
100
AcDbEntity
  8
01
  6
BYBLOCK
100
AcDbLine
 10
2806.561321238762
 20
-452.364857213478
 30
0.0000000001127424
 11
2807.509849376186
 21
-453.3133853509019
 31
0.0000000001127424
  0
LINE
  5
1AC7D
330
18
100
AcDbEntity
  8
01
  6
BYBLOCK
100
AcDbLine
 10
2805.712793101338
 20
-453.1163290760542
 30
0.0000000001127424
 11
2806.661321238762
 21
-454.064857213478
 31
0.0000000001127424
  0
ARC
  5
1AC7E
330
18
100
AcDbEntity
  8
01
  6
BYBLOCK
100
AcDbCircle
 10
2806.561321238762
 20
-452.2678009386302
 30
0.0000000001127424
 40
1.2
100
AcDbArc
 50
180.0
 51
225.0000000000599
  0
ARC
  5
1AC7F
330
18
100
AcDbEntity
  8
01
  6
BYBLOCK
100
AcDbCircle
 10
2806.661321238762
 20
-454.1619134883258
 30
0.0000000001127424
 40
1.2
100
AcDbArc
 50
0.0
 51
45.00000000005988
  0
CIRCLE
  5
1AC80
330
18
100
AcDbEntity
  8
01
  6
BYBLOCK
100
AcDbCircle
 10
2758.361321238762
 20
-470.7648572134781
 30
0.0000000001127424
 40
4.749999999999998
  0
LINE
  5
1AC81
330
18
100
AcDbEntity
  8
01
  6
BYBLOCK
100
AcDbLine
 10
2806.661321238762
 20
-536.7648572134783
 30
0.0000000001127424
 11
2777.570693951061
 21
-536.7648572134781
 31
0.0000000001127424
  0
LINE
  5
1AC82
330
18
100
AcDbEntity
  8
01
  6
BYBLOCK
100
AcDbLine
 10
2761.967565822813
 20
-470.7648572134781
 30
0.0000000001127424
 11
2758.361321238762
 21
-467.1586126294267
 31
0.0000000001127424
  0
LINE
  5
1AC83
330
18
100
AcDbEntity
  8
01
  6
BYBLOCK
100
AcDbLine
 10
2754.75507665471
 20
-470.7648572134781
 30
0.0000000001127424
 11
2758.361321238762
 21
-467.1586126294267
 31
0.0000000001127424
  0
LINE
  5
1AC84
330
18
100
AcDbEntity
  8
01
  6
BYBLOCK
100
AcDbLine
 10
2761.967565822813
 20
-470.7648572134781
 30
0.0000000001127424
 11
2758.361321238762
 21
-474.3711017975293
 31
0.0000000001127424
  0
LINE
  5
1AC85
330
18
100
AcDbEntity
  8
01
  6
BYBLOCK
100
AcDbLine
 10
2754.75507665471
 20
-470.7648572134781
 30
0.0000000001127424
 11
2758.361321238762
 21
-474.3711017975293
 31
0.0000000001127424
  0
LINE
  5
1AC86
330
18
100
AcDbEntity
  8
01
  6
BYBLOCK
100
AcDbLine
 10
2816.068428019948
 20
-488.7648572134649
 30
0.0000000001127424
 11
2809.361321238762
 21
-488.7648572134649
 31
0.0000000001127424
  0
LINE
  5
1AC87
330
18
100
AcDbEntity
  8
01
  6
BYBLOCK
100
AcDbLine
 10
2816.068428019948
 20
-508.7648572134649
 30
0.0000000001127424
 11
2809.361321238762
 21
-508.7648572134649
 31
0.0000000001127424
  0
LINE
  5
1AC88
330
18
100
AcDbEntity
  8
01
100
AcDbLine
 10
2814.361321238474
 20
-556.7648572131893
 30
0.0000000001127424
 11
2800.361321238474
 21
-556.7648572131893
 31
0.0000000001127424
  0
LINE
  5
1AC89
330
18
100
AcDbEntity
  8
01
  6
BYBLOCK
100
AcDbLine
 10
2740.361321238762
 20
-473.9827382458998
 30
0.0000000001128561
 11
2740.361321238762
 21
-503.4155056405809
 31
0.0000000001127424
  0
LINE
  5
1AC8A
330
18
100
AcDbEntity
  8
01
  6
BYBLOCK
100
AcDbLine
 10
2806.661321238762
 20
-462.7648572134781
 30
0.0000000001127424
 11
2778.204424316745
 21
-462.7648572134781
 31
0.0000000001128561
  0
ARC
  5
1AC8B
330
18
100
AcDbEntity
  8
01
  6
BYBLOCK
100
AcDbCircle
 10
2741.361321238762
 20
-463.7648572134781
 30
0.0000000001127424
 40
0.9999999999999996
100
AcDbArc
 50
90.0
 51
180.0
  0
LINE
  5
1AC8C
330
18
100
AcDbEntity
  8
01
  6
BYBLOCK
100
AcDbLine
 10
2778.204424316745
 20
-462.7648572134781
 30
0.0000000001128561
 11
2741.361321238762
 21
-462.7648572134781
 31
0.0000000001127424
  0
LINE
  5
1AC8D
330
18
100
AcDbEntity
  8
01
  6
BYBLOCK
100
AcDbLine
 10
2740.361321238762
 20
-463.7648572134781
 30
0.0000000001127424
 11
2740.361321238762
 21
-473.9827382458998
 31
0.0000000001128561
  0
TEXT
  5
1AC90
330
18
100
AcDbEntity
  8
1TEXT
100
AcDbText
 10
2740.361220899015
 20
-239.2648572134781
 30
0.0000000001127424
 40
20.0
  1
1-T5C-X-LJ
100
AcDbText
  0
TEXT
  5
1AC91
330
18
100
AcDbEntity
  8
1TEXT
100
AcDbText
 10
2752.561220899016
 20
-277.5148572134781
 30
0.0000000001127424
 40
6.0
  1
表面処理
 72
     1
 11
2766.461220899016
 21
-277.5148572134781
 31
0.0000000001127424
100
AcDbText
  0
TEXT
  5
1AC92
330
18
100
AcDbEntity
  8
1TEXT
100
AcDbText
 10
2752.261220899016
 20
-287.7677902027649
 30
0.0000000001127424
 40
6.0
  1
クローム
 72
     1
 11
2766.461220899016
 21
-287.7677902027649
 31
0.0000000001127424
100
AcDbText
  0
LINE
  5
1AC93
330
18
100
AcDbEntity
  8
1DIM
100
AcDbLine
 10
2740.361220899015
 20
-269.2648572134781
 30
0.0000000001127424
 11
2845.361220899015
 21
-269.2648572134781
 31
0.0000000001127424
  0
LINE
  5
1AC94
330
18
100
AcDbEntity
  8
1DIM
100
AcDbLine
 10
2740.361220899015
 20
-279.7648572134781
 30
0.0000000001127424
 11
2845.361220899015
 21
-279.7648572134781
 31
0.0000000001127424
  0
LINE
  5
1AC95
330
18
100
AcDbEntity
  8
1DIM
100
AcDbLine
 10
2740.361220899015
 20
-290.2648572134781
 30
0.0000000001127424
 11
2845.361220899015
 21
-290.2648572134781
 31
0.0000000001127424
  0
LINE
  5
1AC96
330
18
100
AcDbEntity
  8
1DIM
100
AcDbLine
 10
2740.361220899015
 20
-290.2648572134781
 30
0.0000000001127424
 11
2845.361220899015
 21
-290.2648572134781
 31
0.0000000001127424
  0
LINE
  5
1AC97
330
18
100
AcDbEntity
  8
1DIM
100
AcDbLine
 10
2792.861220899015
 20
-269.2648572134781
 30
0.0000000001127424
 11
2792.861220899015
 21
-290.2648572134781
 31
0.0000000001127424
  0
TEXT
  5
1AC98
330
18
100
AcDbEntity
  8
1TEXT
100
AcDbText
 10
2799.346637565682
 20
-288.3363926889519
 30
0.0000000001127424
 40
6.0
  1
1-T5C-C-LJ
 41
0.6999999999999998
 72
     1
 11
2818.961220899016
 21
-288.3363926889519
 31
0.0000000001127424
100
AcDbText
  0
TEXT
  5
1AC99
330
18
100
AcDbEntity
  8
1TEXT
100
AcDbText
 10
2808.661220899015
 20
-277.5148572134781
 30
0.0000000001127424
 40
6.0
  1
コード
 72
     1
 11
2818.961220899016
 21
-277.5148572134781
 31
0.0000000001127424
100
AcDbText
  0
LINE
  5
1AC9A
330
18
100
AcDbEntity
  8
1DIM
100
AcDbLine
 10
2845.361220899015
 20
-290.2648572134781
 30
0.0000000001127424
 11
2845.361220899015
 21
-269.2648572134781
 31
0.0000000001127424
  0
LINE
  5
1AC9B
330
18
100
AcDbEntity
  8
1DIM
100
AcDbLine
 10
2740.361220899015
 20
-290.2648572134781
 30
0.0000000001127424
 11
2845.361220899015
 21
-290.2648572134781
 31
0.0000000001127424
  0
LINE
  5
1AC9C
330
18
100
AcDbEntity
  8
1DIM
100
AcDbLine
 10
2792.861220899015
 20
-290.2648572134781
 30
0.0000000001127424
 11
2792.861220899015
 21
-300.7648572134781
 31
0.0000000001127424
  0
LINE
  5
1AC9D
330
18
100
AcDbEntity
  8
1DIM
100
AcDbLine
 10
2740.361220899015
 20
-300.7648572134781
 30
0.0000000001127424
 11
2845.361220899015
 21
-300.7648572134781
 31
0.0000000001127424
  0
TEXT
  5
1AC9E
330
18
100
AcDbEntity
  8
1TEXT
100
AcDbText
 10
2741.661220899015
 20
-298.2312276308344
 30
0.0000000001127424
 40
6.0
  1
サテンニッケル
 72
     1
 11
2766.461220899016
 21
-298.2312276308344
 31
0.0000000001127424
100
AcDbText
  0
LINE
  5
1AC9F
330
18
100
AcDbEntity
  8
1DIM
100
AcDbLine
 10
2740.361220899015
 20
-300.7648572134781
 30
0.0000000001127424
 11
2740.361220899015
 21
-290.2648572134781
 31
0.0000000001127424
  0
LINE
  5
1ACA0
330
18
100
AcDbEntity
  8
1DIM
100
AcDbLine
 10
2845.361220899015
 20
-300.7648572134781
 30
0.0000000001127424
 11
2845.361220899015
 21
-290.2648572134781
 31
0.0000000001127424
  0
TEXT
  5
1ACA1
330
18
100
AcDbEntity
  8
1TEXT
100
AcDbText
 10
2799.346637565682
 20
-298.8363926889519
 30
0.0000000001127424
 40
6.0
  1
1-T5C-N-LJ
 41
0.6999999999999998
 72
     1
 11
2818.961220899016
 21
-298.8363926889519
 31
0.0000000001127424
100
AcDbText
  0
LINE
  5
1ACA2
330
18
100
AcDbEntity
  8
1DIM
100
AcDbLine
 10
2740.361220899015
 20
-290.2648572134781
 30
0.0000000001127424
 11
2740.361220899015
 21
-269.2648572134781
 31
0.0000000001127424
  0
LINE
  5
1ACA3
330
18
100
AcDbEntity
  8
1DIM
100
AcDbLine
 10
2792.861220899015
 20
-300.7648572134781
 30
0.0000000001127424
 11
2792.861220899015
 21
-311.2648572134781
 31
0.0000000001127424
  0
LINE
  5
1ACA4
330
18
100
AcDbEntity
  8
1DIM
100
AcDbLine
 10
2740.361220899015
 20
-311.2648572134781
 30
0.0000000001127424
 11
2845.361220899015
 21
-311.2648572134781
 31
0.0000000001127424
  0
TEXT
  5
1ACA5
330
18
100
AcDbEntity
  8
1TEXT
100
AcDbText
 10
2742.261220899016
 20
-308.7312276308344
 30
0.0000000001127424
 40
6.0
  1
パールブラック
 72
     1
 11
2766.461220899016
 21
-308.7312276308344
 31
0.0000000001127424
100
AcDbText
  0
LINE
  5
1ACA6
330
18
100
AcDbEntity
  8
1DIM
100
AcDbLine
 10
2740.361220899015
 20
-311.2648572134781
 30
0.0000000001127424
 11
2740.361220899015
 21
-300.7648572134781
 31
0.0000000001127424
  0
LINE
  5
1ACA7
330
18
100
AcDbEntity
  8
1DIM
100
AcDbLine
 10
2845.361220899015
 20
-311.2648572134781
 30
0.0000000001127424
 11
2845.361220899015
 21
-300.7648572134781
 31
0.0000000001127424
  0
TEXT
  5
1ACA8
330
18
100
AcDbEntity
  8
1TEXT
100
AcDbText
 10
2797.232054232349
 20
-309.3363926889519
 30
0.0000000001127424
 40
6.0
  1
1-T5C-GQ-LJ
 41
0.6999999999999998
 72
     1
 11
2818.961220899016
 21
-309.3363926889519
 31
0.0000000001127424
100
AcDbText
  0
LINE
  5
1ACA9
330
18
100
AcDbEntity
  8
01
100
AcDbLine
 10
3074.361088559271
 20
-279.2648572145067
 30
0.0000000001127424
 11
3122.361088559271
 21
-279.2648572145067
 31
0.0000000001127424
  0
LINE
  5
1ACAA
330
18
100
AcDbEntity
  8
01
100
AcDbLine
 10
3073.361088559271
 20
-270.7648572145067
 30
0.0000000001127424
 11
3073.361088559271
 21
-278.2648572145067
 31
0.0000000001127424
  0
ARC
  5
1ACAB
330
18
100
AcDbEntity
  8
01
100
AcDbCircle
 10
3074.361088559271
 20
-278.2648572145067
 30
0.0000000001127424
 40
1.0
100
AcDbArc
 50
180.0
 51
270.0
  0
LINE
  5
1ACAC
330
18
100
AcDbEntity
  8
01
100
AcDbLine
 10
3123.361088559271
 20
-270.7648572145067
 30
0.0000000001127424
 11
3123.361088559271
 21
-278.2648572145067
 31
0.0000000001127424
  0
ARC
  5
1ACAD
330
18
100
AcDbEntity
  8
01
100
AcDbCircle
 10
3122.361088559271
 20
-278.2648572145067
 30
0.0000000001127424
 40
1.0
100
AcDbArc
 50
270.0
 51
0.0
  0
ARC
  5
1ACAE
330
18
100
AcDbEntity
  8
01
100
AcDbCircle
 10
3098.361088559271
 20
-520.7635389003754
 30
0.0000000001127424
 40
25.0
100
AcDbArc
 50
31.31381306366234
 51
1.043983352679149
  0
LINE
  5
1ACB0
330
18
100
AcDbEntity
  8
01
100
AcDbLine
 10
2948.361088559271
 20
-495.7635389003754
 30
0.0000000001127424
 11
2948.361088559271
 21
-545.7635389003754
 31
0.0000000001127424
  0
LINE
  5
1ACB1
330
18
100
AcDbEntity
  8
01
100
AcDbLine
 10
2956.861088559271
 20
-544.7635389003754
 30
0.0000000001127424
 11
2956.861088559271
 21
-496.7635389003754
 31
0.0000000001127424
  0
LINE
  5
1ACB2
330
18
100
AcDbEntity
  8
01
100
AcDbLine
 10
2948.361088559271
 20
-545.7635389003754
 30
0.0000000001127424
 11
2955.861088559271
 21
-545.7635389003754
 31
0.0000000001127424
  0
ARC
  5
1ACB3
330
18
100
AcDbEntity
  8
01
100
AcDbCircle
 10
2955.861088559271
 20
-544.7635389003754
 30
0.0000000001127424
 40
1.0
100
AcDbArc
 50
270.0
 51
0.0
  0
LINE
  5
1ACB4
330
18
100
AcDbEntity
  8
01
100
AcDbLine
 10
2948.361088559271
 20
-495.7635389003754
 30
0.0000000001127424
 11
2955.861088559271
 21
-495.7635389003754
 31
0.0000000001127424
  0
ARC
  5
1ACB5
330
18
100
AcDbEntity
  8
01
100
AcDbCircle
 10
2955.861088559271
 20
-496.7635389003754
 30
0.0000000001127424
 40
1.0
100
AcDbArc
 50
0.0
 51
90.0
  0
LINE
  5
1ACB6
330
18
100
AcDbEntity
  8
01
100
AcDbLine
 10
2946.23280317684
 20
-520.7635389003754
 30
0.0000000001127424
 11
2968.861088559271
 21
-520.7635389003754
 31
0.0000000001127424
  0
LINE
  5
1ACB7
330
18
100
AcDbEntity
  8
01
100
AcDbLine
 10
3073.361088559271
 20
-270.7648572145067
 30
0.0000000001127424
 11
3123.361088559271
 21
-270.7648572145067
 31
0.0000000001127424
  0
LINE
  5
1ACB8
330
18
100
AcDbEntity
  8
01
  6
BYBLOCK
100
AcDbLine
 10
3047.361856401588
 20
-270.7648572145067
 30
0.0000000001127424
 11
3201.116236556619
 21
-270.7648572145067
 31
0.0000000001127424
  0
LINE
  5
1ACB9
330
18
100
AcDbEntity
  8
01
100
AcDbLine
 10
3098.361088559271
 20
-265.7648572145067
 30
0.0000000001127424
 11
3098.361088559271
 21
-292.2648572145067
 31
0.0000000001127424
  0
LINE
  5
1ACBA
330
18
100
AcDbEntity
  8
01
100
AcDbLine
 10
2948.361088559271
 20
-400.7635389003754
 30
0.0000000001127424
 11
2948.361088559271
 21
-590.7635389003754
 31
0.0000000001127424
  0
LINE
  5
1ACBB
330
18
100
AcDbEntity
  8
1CENTER
100
AcDbLine
 10
2962.861088559271
 20
-535.7635389003754
 30
0.0000000001127424
 11
2962.861088559271
 21
-527.7635389003754
 31
0.0000000001127424
  0
LINE
  5
1ACBC
330
18
100
AcDbEntity
  8
01
100
AcDbLine
 10
3068.361088559271
 20
-520.7635389003754
 30
0.0000000001127424
 11
3128.361088559271
 21
-520.7635389003754
 31
0.0000000001127424
  0
LINE
  5
1ACBD
330
18
100
AcDbEntity
  8
01
100
AcDbLine
 10
3098.361088559271
 20
-490.7635389003754
 30
0.0000000001127424
 11
3098.361088559271
 21
-550.7635389003754
 31
0.0000000001127424
  0
SPLINE
  5
1ACBE
330
18
100
AcDbEntity
  8
01
100
AcDbSpline
210
0.0
220
0.0
230
1.0
 70
     8
 71
     3
 72
    15
 73
    11
 74
     0
 42
0.0000000001
 43
0.0000000001
 40
0.0
 40
0.0
 40
0.0
 40
0.0
 40
0.6222868056437045
 40
1.212800888317622
 40
1.750795334743797
 40
2.231529188748695
 40
2.659610395076924
 40
3.050578671600858
 40
3.420827152730782
 40
3.78139276549608
 40
3.78139276549608
 40
3.78139276549608
 40
3.78139276549608
 10
3007.411067933216
 20
-520.7432939128175
 30
0.0000000001127424
 10
3007.618205147936
 20
-520.7327863230694
 30
0.0000000001127424
 10
3008.021174462647
 20
-520.6945355392763
 30
0.0000000001127424
 10
3008.594415509879
 20
-520.5810676809597
 30
0.0000000001127424
 10
3009.106239087947
 20
-520.4167467907246
 30
0.0000000001127424
 10
3009.541042273115
 20
-520.2047769132232
 30
0.0000000001127424
 10
3009.892287839291
 20
-519.9473209928301
 30
0.0000000001127424
 10
3010.153158021188
 20
-519.6448796013683
 30
0.0000000001127424
 10
3010.317397669144
 20
-519.3049799552455
 30
0.0000000001127424
 10
3010.358433611475
 20
-519.062307543727
 30
0.0000000001127424
 10
3010.360842456802
 20
-518.9421252805114
 30
0.0000000001127424
  0
SPLINE
  5
1ACBF
330
18
100
AcDbEntity
  8
01
100
AcDbSpline
210
0.0
220
0.0
230
1.0
 70
     8
 71
     3
 72
    36
 73
    32
 74
     0
 42
0.0000000001
 43
0.0000000001
 40
0.0
 40
0.0
 40
0.0
 40
0.0
 40
1.696786551134609
 40
3.59200332952228
 40
3.971126540003321
 40
4.350156319954064
 40
4.756453048351094
 40
5.149237166659874
 40
7.784766822002605
 40
11.05797552160658
 40
14.42265091567095
 40
17.22525814888614
 40
20.2669984717915
 40
22.63548260950628
 40
26.36769143403482
 40
27.09545429260004
 40
27.83324081915526
 40
28.09362152828868
 40
28.7417789316786
 40
30.22968462403853
 40
32.43253111327638
 40
32.95103304599775
 40
33.12881930680026
 40
33.73565114203546
 40
34.19888400628621
 40
34.57238214775226
 40
34.86745207933652
 40
35.01447058156765
 40
35.3148322374066
 40
35.9384325571505
 40
36.64240424105439
 40
36.64240424105439
 40
36.64240424105439
 40
36.64240424105439
 10
2965.961087271561
 20
-531.2637492586664
 30
0.0000000001127424
 10
2966.526682787692
 20
-531.2637226344368
 30
0.0000000001127424
 10
2967.724017230265
 20
-531.2636614823987
 30
0.0000000001127424
 10
2969.047726076355
 20
-531.2635505712215
 30
0.0000000001127424
 10
2969.932182632873
 20
-531.2635901201911
 30
0.0000000001127424
 10
2970.320332362131
 20
-531.2640942534081
 30
0.0000000001127424
 10
2970.713040749343
 20
-531.262375748156
 30
0.0000000001127424
 10
2971.857756842193
 20
-531.2426415239806
 30
0.0000000001127424
 10
2973.955627607937
 20
-531.1058285673198
 30
0.0000000001127424
 10
2977.012910165821
 20
-530.625113772323
 30
0.0000000001127424
 10
2980.064056383982
 20
-529.8414551773267
 30
0.0000000001127424
 10
2982.96935820403
 20
-528.8453669286191
 30
0.0000000001127424
 10
2985.499145990548
 20
-527.7960809175893
 30
0.0000000001127424
 10
2988.26427041746
 20
-526.5145652694437
 30
0.0000000001127424
 10
2990.306054895644
 20
-525.5082369248139
 30
0.0000000001127424
 10
2991.868734439712
 20
-524.7600384633079
 30
0.0000000001127424
 10
2992.389651365072
 20
-524.5158206025981
 30
0.0000000001127424
 10
2992.885722244708
 20
-524.281171582269
 30
0.0000000001127424
 10
2993.604523566541
 20
-523.9326182458308
 30
0.0000000001127424
 10
2994.889851649665
 20
-523.2691363110707
 30
0.0000000001127424
 10
2996.115865917539
 20
-522.5865344351223
 30
0.0000000001127424
 10
2996.965892617156
 20
-522.1268573553771
 30
0.0000000001127424
 10
2997.350597712688
 20
-521.9251421678091
 30
0.0000000001127424
 10
2997.725188127052
 20
-521.7440482523334
 30
0.0000000001127424
 10
2998.16387226436
 20
-521.546354753601
 30
0.0000000001127424
 10
2998.512065211789
 20
-521.400942886291
 30
0.0000000001127424
 10
2998.763417857132
 20
-521.2974505383108
 30
0.0000000001127424
 10
2998.993417427971
 20
-521.2060419555137
 30
0.0000000001127424
 10
2999.328302717486
 20
-521.0820999884545
 30
0.0000000001127424
 10
2999.849144252142
 20
-520.9283679106356
 30
0.0000000001127424
 10
3000.28076959072
 20
-520.8301104727516
 30
0.0000000001127424
 10
3000.510932151648
 20
-520.784316421531
 30
0.0000000001127424
  0
SPLINE
  5
1ACC0
330
18
100
AcDbEntity
  8
1DIM
100
AcDbSpline
210
0.0
220
0.0
230
1.0
 70
    24
 71
     2
 72
     6
 73
     3
 74
     0
 42
0.0000000001
 43
0.0000000001
 40
0.0
 40
0.0
 40
0.0
 40
1.346591553408558
 40
1.346591553408558
 40
1.346591553408558
 10
3007.361088559271
 20
-518.1630084722156
 30
0.0000000001127424
 10
3007.361088559271
 20
-517.4897126955111
 30
0.0000000001127424
 10
3007.361088559271
 20
-516.8164169188067
 30
0.0000000001127424
  0
SPLINE
  5
1ACC1
330
18
100
AcDbEntity
  8
01
100
AcDbSpline
210
0.0
220
0.0
230
1.0
 70
    24
 71
     2
 72
     6
 73
     3
 74
     0
 42
0.0000000001
 43
0.0000000001
 40
0.0
 40
0.0
 40
0.0
 40
0.0058229765651419
 40
0.0058229765651419
 40
0.0058229765651419
 10
2970.361088559271
 20
-508.2934422453691
 30
0.0000000001127424
 10
2970.361088559271
 20
-508.2905307570863
 30
0.0000000001127424
 10
2970.361088559271
 20
-508.2876192688036
 30
0.0000000001127424
  0
SPLINE
  5
1ACC2
330
18
100
AcDbEntity
  8
1DIM
100
AcDbSpline
210
0.0
220
0.0
230
1.0
 70
    12
 71
     3
 72
    10
 73
     6
 74
     0
 42
0.0000000001
 43
0.0000000001
 40
0.0
 40
0.0
 40
0.0
 40
0.0
 40
1.571297969298821
 40
1.571297969298821
 40
3.141905326318323
 40
3.141905326318323
 40
3.141905326318323
 40
3.141905326318323
 10
3007.361088559271
 20
-516.8164169188067
 30
0.0000000001127424
 41
1.0
 10
3007.903211317771
 20
-516.8164169188067
 30
0.0000000001127424
 41
1.0
 10
3008.415674912212
 20
-516.7186450959643
 30
0.0000000001127424
 41
1.0
 10
3009.158186713568
 20
-516.3895712763342
 30
0.0000000001127424
 41
1.0
 10
3009.361088559271
 20
-516.1718867301433
 30
0.0000000001127424
 41
1.0
 10
3009.361088559271
 20
-515.9526740472147
 30
0.0000000001127424
 41
1.0
  0
SPLINE
  5
1ACC3
330
18
100
AcDbEntity
  8
1DIM
100
AcDbSpline
210
0.0
220
0.0
230
1.0
 70
    12
 71
     3
 72
    10
 73
     6
 74
     0
 42
0.0000000001
 43
0.0000000001
 40
-3.141481927302786
 40
-3.141481927302786
 40
-3.141481927302786
 40
-3.141481927302786
 40
-1.570537743744568
 40
-1.570537743744568
 40
0.0
 40
0.0
 40
0.0
 40
0.0
 10
3009.361088559271
 20
-503.4798131715552
 30
0.0000000001127424
 41
1.0
 10
3009.361088559271
 20
-503.3557557215454
 30
0.0000000001127424
 41
1.0
 10
3009.148690814711
 20
-503.2352549679408
 30
0.0000000001127424
 41
1.0
 10
3008.397790339533
 20
-503.056707816655
 30
0.0000000001127424
 41
1.0
 10
3007.889597425517
 20
-503.0061439334722
 30
0.0000000001127424
 41
1.0
 10
3007.361088559271
 20
-503.0061439334722
 30
0.0000000001127424
 41
1.0
  0
SPLINE
  5
1ACC4
330
18
100
AcDbEntity
  8
1DIM
100
AcDbSpline
210
0.0
220
0.0
230
1.0
 70
    12
 71
     3
 72
    10
 73
     6
 74
     0
 42
0.0000000001
 43
0.0000000001
 40
-3.141482150580023
 40
-3.141482150580023
 40
-3.141482150580023
 40
-3.141482150580023
 40
-1.570735933109509
 40
-1.570735933109509
 40
0.0
 40
0.0
 40
0.0
 40
0.0
 10
2988.361088559271
 20
-503.0061439334722
 30
0.0000000001127424
 41
1.0
 10
2987.832442485632
 20
-503.0061439334722
 30
0.0000000001127424
 41
1.0
 10
2987.324418446667
 20
-503.0567259378386
 30
0.0000000001127424
 41
1.0
 10
2986.57340439554
 20
-503.2352489856194
 30
0.0000000001127424
 41
1.0
 10
2986.361088559271
 20
-503.3557866688316
 30
0.0000000001127424
 41
1.0
 10
2986.361088559271
 20
-503.4798131715543
 30
0.0000000001127424
 41
1.0
  0
SPLINE
  5
1ACC5
330
18
100
AcDbEntity
  8
1DIM
100
AcDbSpline
210
0.0
220
0.0
230
1.0
 70
    12
 71
     3
 72
    11
 73
     7
 74
     0
 42
0.0000000001
 43
0.0000000001
 40
0.1291781185150633
 40
0.1291781185150633
 40
0.1291781185150633
 40
0.1291781185150633
 40
0.259657469927002
 40
0.519315873322226
 40
0.778975210185676
 40
1.038635480517348
 40
1.038635480517348
 40
1.038635480517348
 40
1.038635480517348
 10
3007.411062774774
 20
-520.7432941519764
 30
0.0000000001127424
 41
1.0
 10
3007.409739861189
 20
-520.7433489889918
 30
0.0000000001127424
 41
1.0
 10
3007.405154586581
 20
-520.7310310401435
 30
0.0000000001127424
 41
1.0
 10
3007.39465927022
 20
-520.6480313906923
 30
0.0000000001127424
 41
1.0
 10
3007.378761482602
 20
-520.4592931969255
 30
0.0000000001127424
 41
1.0
 10
3007.366951727356
 20
-520.2855128897409
 30
0.0000000001127424
 41
1.0
 10
3007.361088559271
 20
-520.1917792245304
 30
0.0000000001127424
 41
1.0
  0
SPLINE
  5
1ACC6
330
18
100
AcDbEntity
  8
01
100
AcDbSpline
210
0.0
220
0.0
230
1.0
 70
     8
 71
     3
 72
    13
 73
     9
 74
     0
 42
0.0000000001
 43
0.0000000001
 40
0.0
 40
0.0
 40
0.0
 40
0.0
 40
6.717803450733459
 40
8.904972642548705
 40
14.84387684483403
 40
18.28435324959698
 40
25.00631938378085
 40
34.62964373206781
 40
34.62964373206781
 40
34.62964373206781
 40
34.62964373206781
 10
2957.361088559271
 20
-520.9293880794348
 30
0.0000000001127424
 10
2959.600355331114
 20
-520.9272281196454
 30
0.0000000001127424
 10
2962.568679962642
 20
-520.9263139401082
 30
0.0000000001127424
 10
2967.51663821383
 20
-520.9263195863996
 30
0.0000000001127424
 10
2971.372154868441
 20
-520.9321300908778
 30
0.0000000001127424
 10
2976.73926779162
 20
-520.9236718709144
 30
0.0000000001127424
 10
2983.334461756692
 20
-520.8931698579163
 30
0.0000000001127424
 10
2988.782761410242
 20
-520.8554788157999
 30
0.0000000001127424
 10
2991.990464699414
 20
-520.8340087070746
 30
0.0000000001127424
  0
SPLINE
  5
1ACC7
330
18
100
AcDbEntity
  8
01
100
AcDbSpline
210
0.0
220
0.0
230
1.0
 70
     8
 71
     3
 72
    21
 73
    17
 74
     0
 42
0.0000000001
 43
0.0000000001
 40
0.0
 40
0.0
 40
0.0
 40
0.0
 40
0.0088674866113487
 40
0.0339590144041557
 40
0.1282324451540133
 40
0.3622737654680834
 40
0.7589889420097802
 40
1.571178268572815
 40
3.139132054637454
 40
4.711870194729335
 40
5.53054919304717
 40
5.962609018958645
 40
6.188600006461851
 40
6.264834142252703
 40
6.290652285555344
 40
6.300146272247191
 40
6.300146272247191
 40
6.300146272247191
 40
6.300146272247191
 10
2959.76108855927
 20
-531.2635401121952
 30
0.0000000001127424
 10
2959.763661478419
 20
-531.2620879183278
 30
0.0000000001127424
 10
2959.77436448307
 20
-531.2583396477521
 30
0.0000000001127424
 10
2959.814974985935
 20
-531.2450340498626
 30
0.0000000001127424
 10
2959.927731708864
 20
-531.2108848689413
 30
0.0000000001127424
 10
2960.160197149304
 20
-531.1447674562432
 30
0.0000000001127424
 10
2960.626364702242
 20
-531.0260356451481
 30
0.0000000001127424
 10
2961.534751040267
 20
-530.8451410949228
 30
0.0000000001127424
 10
2962.851913435798
 20
-530.7357341126999
 30
0.0000000001127424
 10
2964.171920875658
 20
-530.8404378347996
 30
0.0000000001127424
 10
2965.095800521128
 20
-531.022528089492
 30
0.0000000001127424
 10
2965.5728001473
 20
-531.1447511525503
 30
0.0000000001127424
 10
2965.807847989909
 20
-531.2129656198449
 30
0.0000000001127424
 10
2965.912270718055
 20
-531.2454894696357
 30
0.0000000001127424
 10
2965.94741924195
 20
-531.2575694732286
 30
0.0000000001127424
 10
2965.958473144785
 20
-531.2617242236338
 30
0.0000000001127424
 10
2965.961087261629
 20
-531.2635126438017
 30
0.0000000001127424
  0
SPLINE
  5
1ACC8
330
18
100
AcDbEntity
  8
01
100
AcDbSpline
210
0.0
220
0.0
230
1.0
 70
     8
 71
     3
 72
    13
 73
     9
 74
     0
 42
0.0000000001
 43
0.0000000001
 40
0.0
 40
0.0
 40
0.0
 40
0.0
 40
4.060478403625843
 40
7.540840741308843
 40
14.04401323678387
 40
14.93174675994998
 40
15.17147193066558
 40
15.42003176017969
 40
15.42003176017969
 40
15.42003176017969
 40
15.42003176017969
 10
2991.990464699986
 20
-520.8340087128099
 30
0.0000000001127424
 10
2993.343927968054
 20
-520.8250875050089
 30
0.0000000001127424
 10
2995.857490156663
 20
-520.8089397507056
 30
0.0000000001127424
 10
3000.538759543388
 20
-520.7835777403861
 30
0.0000000001127424
 10
3004.162477193216
 20
-520.766817636516
 30
0.0000000001127424
 10
3006.70600703902
 20
-520.7581063756088
 30
0.0000000001127424
 10
3007.164670140575
 20
-520.7552026488147
 30
0.0000000001127424
 10
3007.327308105657
 20
-520.74687529725
 30
0.0000000001127424
 10
3007.410057010776
 20
-520.743345529333
 30
0.0000000001127424
  0
SPLINE
  5
1ACC9
330
18
100
AcDbEntity
  8
01
100
AcDbSpline
210
0.0
220
0.0
230
1.0
 70
     8
 71
     3
 72
    14
 73
    10
 74
     0
 42
0.0000000001
 43
0.0000000001
 40
0.0
 40
0.0
 40
0.0
 40
0.0
 40
0.0091872137044612
 40
0.0383245640747183
 40
0.3078465925485011
 40
0.4854203881234601
 40
0.8516636087305589
 40
1.646107031191731
 40
3.140047443899198
 40
3.140047443899198
 40
3.140047443899198
 40
3.140047443899198
 10
2965.960466893604
 20
-531.263738104637
 30
0.0000000001127424
 10
2965.95741864761
 20
-531.2634504402868
 30
0.0000000001127424
 10
2965.944887914728
 20
-531.2608957728053
 30
0.0000000001127424
 10
2965.845422202173
 20
-531.2356848897762
 30
0.0000000001127424
 10
2965.691916175799
 20
-531.195194792118
 30
0.0000000001127424
 10
2965.428606864491
 20
-531.1306171234974
 30
0.0000000001127424
 10
2964.993412423862
 20
-531.0324301824612
 30
0.0000000001127424
 10
2964.121661494897
 20
-530.8778174928821
 30
0.0000000001127424
 10
2963.359089133917
 20
-530.8219474407815
 30
0.0000000001127424
 10
2962.861088559271
 20
-530.8213655710506
 30
0.0000000001127424
  0
SPLINE
  5
1ACCA
330
18
100
AcDbEntity
  8
01
100
AcDbSpline
210
0.0
220
0.0
230
1.0
 70
     8
 71
     3
 72
    15
 73
    11
 74
     0
 42
0.0000000001
 43
0.0000000001
 40
0.0
 40
0.0
 40
0.0
 40
0.0
 40
0.6595620511759812
 40
1.273080110757987
 40
1.800226095661122
 40
2.239657784054672
 40
2.610061550609274
 40
2.950874859090943
 40
3.282771685370556
 40
3.607654512503486
 40
3.607654512503486
 40
3.607654512503486
 40
3.607654512503486
 10
2988.361088559271
 20
-502.9766345853641
 30
0.0000000001127424
 10
2988.141229960278
 20
-502.9768146114211
 30
0.0000000001127424
 10
2987.716877298895
 20
-502.9915403819059
 30
0.0000000001127424
 10
2987.119881063122
 20
-503.0571706267519
 30
0.0000000001127424
 10
2986.603129363245
 20
-503.1625096820171
 30
0.0000000001127424
 10
2986.180052415887
 20
-503.3067598854213
 30
0.0000000001127424
 10
2985.845178388408
 20
-503.49854266088
 30
0.0000000001127424
 10
2985.593373120428
 20
-503.742891722447
 30
0.0000000001127424
 10
2985.425501629709
 20
-504.0338117759429
 30
0.0000000001127424
 10
2985.374650495966
 20
-504.2492495365832
 30
0.0000000001127424
 10
2985.365231581843
 20
-504.3570918132145
 30
0.0000000001127424
  0
SPLINE
  5
1ACCB
330
18
100
AcDbEntity
  8
1DIM
100
AcDbSpline
210
0.0
220
0.0
230
1.0
 70
     8
 71
     3
 72
    15
 73
    11
 74
     0
 42
0.0000000001
 43
0.0000000001
 40
0.0
 40
0.0
 40
0.0
 40
0.0
 40
0.6071589673912928
 40
1.149083632808507
 40
1.679303763699259
 40
2.14477816447659
 40
2.573522303226269
 40
2.922507230073605
 40
3.230205425110707
 40
3.462370507103425
 40
3.462370507103425
 40
3.462370507103425
 40
3.462370507103425
 10
3007.361088559271
 20
-520.1917792245304
 30
0.0000000001127424
 10
3007.563350496952
 20
-520.1849586741928
 30
0.0000000001127424
 10
3007.945712726212
 20
-520.1575282087006
 30
0.0000000001127424
 10
3008.499677083713
 20
-520.0744667348044
 30
0.0000000001127424
 10
3008.998796004677
 20
-519.955294139274
 30
0.0000000001127424
 10
3009.447914846171
 20
-519.7993605108577
 30
0.0000000001127424
 10
3009.820669929376
 20
-519.6156224194137
 30
0.0000000001127424
 10
3010.115130995434
 20
-519.4028662506889
 30
0.0000000001127424
 10
3010.308005901243
 20
-519.1727704682044
 30
0.0000000001127424
 10
3010.361477540113
 20
-518.9959607167884
 30
0.0000000001127424
 10
3010.361088559271
 20
-518.9182550972955
 30
0.0000000001127424
  0
SPLINE
  5
1ACCC
330
18
100
AcDbEntity
  8
01
100
AcDbSpline
210
0.0
220
0.0
230
1.0
 70
     8
 71
     3
 72
    14
 73
    10
 74
     0
 42
0.0000000001
 43
0.0000000001
 40
0.0
 40
0.0
 40
0.0
 40
0.0
 40
1.282823931628897
 40
2.005515295685142
 40
4.11714625838727
 40
5.436308582568336
 40
7.907563554594302
 40
10.79230428128082
 40
13.6032695608393
 40
13.6032695608393
 40
13.6032695608393
 40
13.6032695608393
 10
2983.953154661576
 20
-507.7876063385638
 30
0.0000000001127424
 10
2983.525845311568
 20
-507.8036839164397
 30
0.0000000001127424
 10
2982.858112204945
 20
-507.8360979995587
 30
0.0000000001127424
 10
2981.487768958715
 20
-507.9108224521879
 30
0.0000000001127424
 10
2980.105545533758
 20
-507.9901826927689
 30
0.0000000001127424
 10
2978.140885532085
 20
-508.0931124752969
 30
0.0000000001127424
 10
2975.917969582428
 20
-508.1915226164119
 30
0.0000000001127424
 10
2973.196645649939
 20
-508.2694008355475
 30
0.0000000001127424
 10
2971.298076766599
 20
-508.2875615064413
 30
0.0000000001127424
 10
2970.361088559271
 20
-508.2876371469256
 30
0.0000000001127424
  0
SPLINE
  5
1ACCD
330
18
100
AcDbEntity
  8
1DIM
100
AcDbSpline
210
0.0
220
0.0
230
1.0
 70
     8
 71
     3
 72
    15
 73
    11
 74
     0
 42
0.0000000001
 43
0.0000000001
 40
0.0
 40
0.0
 40
0.0
 40
0.0
 40
0.2664968585934446
 40
0.5623603712843669
 40
0.9129008297894409
 40
1.334841718023351
 40
1.818044707283044
 40
2.368235774188814
 40
2.903937494029293
 40
3.507882265757476
 40
3.507882265757476
 40
3.507882265757476
 40
3.507882265757476
 10
3010.361088559271
 20
-516.8616836566935
 30
0.0000000001127424
 10
3010.361389353197
 20
-516.9506725088168
 30
0.0000000001127424
 10
3010.312208145755
 20
-517.1364089827512
 30
0.0000000001127424
 10
3010.126102782318
 20
-517.3820070690517
 30
0.0000000001127424
 10
3009.84323991692
 20
-517.6015685729844
 30
0.0000000001127424
 10
3009.47027725191
 20
-517.794374315894
 30
0.0000000001127424
 10
3009.011798198939
 20
-517.9556381855637
 30
0.0000000001127424
 10
3008.501277752905
 20
-518.0726631618463
 30
0.0000000001127424
 10
3007.942289627753
 20
-518.1460522713423
 30
0.0000000001127424
 10
3007.562401503141
 20
-518.1629165257427
 30
0.0000000001127424
 10
3007.361088559271
 20
-518.1630084722156
 30
0.0000000001127424
  0
SPLINE
  5
1ACCE
330
18
100
AcDbEntity
  8
1DIM
100
AcDbSpline
210
0.0
220
0.0
230
1.0
 70
     8
 71
     3
 72
    21
 73
    17
 74
     0
 42
0.0000000001
 43
0.0000000001
 40
0.0
 40
0.0
 40
0.0
 40
0.0
 40
0.2342510522596335
 40
0.4578586860712771
 40
0.8009013008541686
 40
1.269307061957955
 40
2.539024656620398
 40
5.781425383895149
 40
11.25041668385506
 40
16.56317569577142
 40
26.87615458145929
 40
31.71999047187779
 40
35.15753283236111
 40
40.93912908564933
 40
43.28297544863316
 40
50.00079549441727
 40
50.00079549441727
 40
50.00079549441727
 40
50.00079549441727
 10
3007.361088559271
 20
-520.1917792245304
 30
0.0000000001127424
 10
3007.283103740687
 20
-520.1956363068675
 30
0.0000000001127424
 10
3007.13059197103
 20
-520.2018527270338
 30
0.0000000001127424
 10
3006.863638663805
 20
-520.2054748994397
 30
0.0000000001127424
 10
3006.51861536837
 20
-520.2050308743374
 30
0.0000000001127424
 10
3005.824904775923
 20
-520.2091483814838
 30
0.0000000001127424
 10
3004.164736306922
 20
-520.2140148992157
 30
0.0000000001127424
 10
3000.837736331438
 20
-520.2298170644008
 30
0.0000000001127424
 10
2996.163079856641
 20
-520.2535148528414
 30
0.0000000001127424
 10
2989.131649567958
 20
-520.2992958261984
 30
0.0000000001127424
 10
2982.3086639859
 20
-520.3523208149227
 30
0.0000000001127424
 10
2976.110649397935
 20
-520.3891620317718
 30
0.0000000001127424
 10
2971.422996793881
 20
-520.4005376068126
 30
0.0000000001127424
 10
2967.568668882889
 20
-520.3920897563885
 30
0.0000000001127424
 10
2962.620915142861
 20
-520.3913624773359
 30
0.0000000001127424
 10
2959.600359800266
 20
-520.3933630189376
 30
0.0000000001127424
 10
2957.361088559329
 20
-520.3964975387325
 30
0.0000000001127424
  0
SPLINE
  5
1ACCF
330
18
100
AcDbEntity
  8
01
100
AcDbSpline
210
0.0
220
0.0
230
1.0
 70
     8
 71
     3
 72
    15
 73
    11
 74
     0
 42
0.0000000001
 43
0.0000000001
 40
0.0
 40
0.0
 40
0.0
 40
0.0
 40
0.7280659173366757
 40
1.652411027436443
 40
2.524176432268789
 40
3.051262591748868
 40
5.181999290983316
 40
6.503638419914751
 40
9.230642464869826
 40
14.69036315411575
 40
14.69036315411575
 40
14.69036315411575
 40
14.69036315411575
 10
2985.039664129032
 20
-507.7635443720001
 30
0.0000000001127424
 10
2984.796968896125
 20
-507.763755826536
 30
0.0000000001127424
 10
2984.24623712898
 20
-507.7752698396735
 30
0.0000000001127424
 10
2983.405567089417
 20
-507.8106651382741
 30
0.0000000001127424
 10
2982.632201659603
 20
-507.8507138801988
 30
0.0000000001127424
 10
2981.457479081004
 20
-507.9158787576189
 30
0.0000000001127424
 10
2980.1332111591
 20
-507.992666975344
 30
0.0000000001127424
 10
2978.076287014492
 20
-508.1014020639095
 30
0.0000000001127424
 10
2974.909838565123
 20
-508.2411981709129
 30
0.0000000001127424
 10
2972.181011382798
 20
-508.2936664422386
 30
0.0000000001127424
 10
2970.361088559271
 20
-508.2934422453691
 30
0.0000000001127424
  0
SPLINE
  5
1ACD0
330
18
100
AcDbEntity
  8
1DIM
100
AcDbSpline
210
0.0
220
0.0
230
1.0
 70
    12
 71
     3
 72
    11
 73
     7
 74
     0
 42
0.0000000001
 43
0.0000000001
 40
-1.560722450960551
 40
-1.560722450960551
 40
-1.560722450960551
 40
-1.560722450960551
 40
-1.170541855252173
 40
-0.780361248189288
 40
-0.390180629771897
 40
0.0
 40
0.0
 40
0.0
 40
0.0
 10
2985.361088559271
 20
-504.4520732064448
 30
0.0000000001127424
 41
1.0
 10
2985.361088559271
 20
-504.3256208575849
 30
0.0000000001127424
 41
1.0
 10
2985.413127337696
 20
-504.0699479609066
 30
0.0000000001127424
 41
1.0
 10
2985.635675651698
 20
-503.7467832200336
 30
0.0000000001127424
 41
1.0
 10
2985.968060748238
 20
-503.5304083915908
 30
0.0000000001127424
 41
1.0
 10
2986.231028344593
 20
-503.4798131715543
 30
0.0000000001127424
 41
1.0
 10
2986.361088559271
 20
-503.4798131715543
 30
0.0000000001127424
 41
1.0
  0
SPLINE
  5
1ACD1
330
18
100
AcDbEntity
  8
1DIM
100
AcDbSpline
210
0.0
220
0.0
230
1.0
 70
    12
 71
     3
 72
    11
 73
     7
 74
     0
 42
0.0000000001
 43
0.0000000001
 40
-1.55754834089282
 40
-1.55754834089282
 40
-1.55754834089282
 40
-1.55754834089282
 40
-1.168169991065367
 40
-0.77878581764075
 40
-0.389395820618958
 40
0.0
 40
0.0
 40
0.0
 40
0.0
 10
3009.361088559271
 20
-503.4798131715552
 30
0.0000000001127424
 41
1.0
 10
3009.491148773947
 20
-503.4798131715552
 30
0.0000000001127424
 41
1.0
 10
3009.754119619895
 20
-503.5304095481579
 30
0.0000000001127424
 41
1.0
 10
3010.086503475418
 20
-503.7467851729198
 30
0.0000000001127424
 41
1.0
 10
3010.309050970366
 20
-504.0699511202401
 30
0.0000000001127424
 41
1.0
 10
3010.361088559271
 20
-504.3256208575849
 30
0.0000000001127424
 41
1.0
 10
3010.361088559271
 20
-504.4520732064448
 30
0.0000000001127424
 41
1.0
  0
SPLINE
  5
1ACD2
330
18
100
AcDbEntity
  8
1DIM
100
AcDbSpline
210
0.0
220
0.0
230
1.0
 70
    12
 71
     3
 72
    11
 73
     7
 74
     0
 42
0.0000000001
 43
0.0000000001
 40
-1.560722598654269
 40
-1.560722598654269
 40
-1.560722598654269
 40
-1.560722598654269
 40
-1.170542037868789
 40
-0.78036141783125
 40
-0.390180738541654
 40
0.0
 40
0.0
 40
0.0
 40
0.0
 10
3009.361088559271
 20
-515.9526740472147
 30
0.0000000001127424
 41
1.0
 10
3009.491148773947
 20
-515.9526740472147
 30
0.0000000001127424
 41
1.0
 10
3009.754116409545
 20
-515.9999778057272
 30
0.0000000001127424
 41
1.0
 10
3010.086501491099
 20
-516.2022763678278
 30
0.0000000001127424
 41
1.0
 10
3010.30904979521
 20
-516.5044176238707
 30
0.0000000001127424
 41
1.0
 10
3010.361088559271
 20
-516.7434576717415
 30
0.0000000001127424
 41
1.0
 10
3010.361088559271
 20
-516.8616836566935
 30
0.0000000001127424
 41
1.0
  0
SPLINE
  5
1ACD3
330
18
100
AcDbEntity
  8
1DIM
100
AcDbSpline
210
0.0
220
0.0
230
1.0
 70
    24
 71
     2
 72
     6
 73
     3
 74
     0
 42
0.0000000001
 43
0.0000000001
 40
0.0
 40
0.0
 40
0.0
 40
2.028770752315268
 40
2.028770752315268
 40
2.028770752315268
 10
3007.361088559271
 20
-520.1917792245304
 30
0.0000000001127424
 10
3007.361088559271
 20
-519.177393848373
 30
0.0000000001127424
 10
3007.361088559271
 20
-518.1630084722156
 30
0.0000000001127424
  0
SPLINE
  5
1ACD4
330
18
100
AcDbEntity
  8
01
100
AcDbSpline
210
0.0
220
0.0
230
1.0
 70
     8
 71
     3
 72
    16
 73
    12
 74
     0
 42
0.0000000001
 43
0.0000000001
 40
0.0
 40
0.0
 40
0.0
 40
0.0
 40
0.3898283346503426
 40
0.7600233656508065
 40
1.544544436719077
 40
2.328519672526098
 40
2.685462852151824
 40
2.857341260876178
 40
3.103784862347758
 40
3.127564983665102
 40
3.13969444417036
 40
3.13969444417036
 40
3.13969444417036
 40
3.13969444417036
 10
2962.861088559271
 20
-530.8213655710506
 30
0.0000000001127424
 10
2962.731145187931
 20
-530.8212649280094
 30
0.0000000001127424
 10
2962.477802195485
 20
-530.8257857676581
 30
0.0000000001127424
 10
2961.963601753578
 20
-530.8530707559185
 30
0.0000000001127424
 10
2961.320631197782
 20
-530.9221266620543
 30
0.0000000001127424
 10
2960.688701588952
 20
-531.0365348615705
 30
0.0000000001127424
 10
2960.262210118256
 20
-531.1346209507237
 30
0.0000000001127424
 10
2960.011558522614
 20
-531.1975728288999
 30
0.0000000001127424
 10
2959.869220750783
 20
-531.235743017779
 30
0.0000000001127424
 10
2959.778289665348
 20
-531.2600287467922
 30
0.0000000001127424
 10
2959.766613011126
 20
-531.2626895154608
 30
0.0000000001127424
 10
2959.762652454725
 20
-531.2634889346991
 30
0.0000000001127424
  0
SPLINE
  5
1ACD5
330
18
100
AcDbEntity
  8
01
100
AcDbSpline
210
0.0
220
0.0
230
1.0
 70
     8
 71
     3
 72
    15
 73
    11
 74
     0
 42
0.0000000001
 43
0.0000000001
 40
0.0
 40
0.0
 40
0.0
 40
0.0
 40
0.3254685997674608
 40
0.6564015245239315
 40
0.9967805247958071
 40
1.366908275671476
 40
1.806543459746079
 40
2.334345484391743
 40
2.946884271166248
 40
3.601913059116526
 40
3.601913059116526
 40
3.601913059116526
 40
3.601913059116526
 10
3010.356409907394
 20
-504.3513715266627
 30
0.0000000001127424
 10
3010.346411425873
 20
-504.2433912786137
 30
0.0000000001127424
 10
3010.294474019941
 20
-504.028326482131
 30
0.0000000001127424
 10
3010.125268335277
 20
-503.7385235097026
 30
0.0000000001127424
 10
3009.872926975897
 20
-503.4955891766294
 30
0.0000000001127424
 10
3009.537673683581
 20
-503.3048504041572
 30
0.0000000001127424
 10
3009.114190275413
 20
-503.1612526275712
 30
0.0000000001127424
 10
3008.597375616044
 20
-503.0564426706806
 30
0.0000000001127424
 10
3008.001951777454
 20
-502.9914043360232
 30
0.0000000001127424
 10
3007.579435238978
 20
-502.9768063275242
 30
0.0000000001127424
 10
3007.361088559271
 20
-502.9766345840735
 30
0.0000000001127424
  0
SPLINE
  5
1ACD6
330
18
100
AcDbEntity
  8
01
100
AcDbSpline
210
0.0
220
0.0
230
1.0
 70
    12
 71
     2
 72
     6
 73
     3
 74
     0
 42
0.0000000001
 43
0.0000000001
 40
0.0
 40
0.0
 40
0.0
 40
1.570764043156879
 40
1.570764043156879
 40
1.570764043156879
 10
3010.361088558952
 20
-508.7635388208628
 30
0.0000000001127424
 41
1.0
 10
3010.361039554866
 20
-507.7635878260396
 30
0.0000000001127424
 41
0.7071344649779537
 10
3009.361088559271
 20
-507.7635585308444
 30
0.0000000001127424
 41
1.0
  0
LINE
  5
1ACD7
330
18
100
AcDbEntity
  8
01
100
AcDbLine
 10
2970.361088559271
 20
-508.2934422453691
 30
0.0000000001127424
 11
2957.361088559271
 21
-508.2882676451491
 31
0.0000000001127424
  0
LINE
  5
1ACD8
330
18
100
AcDbEntity
  8
1DIM
100
AcDbLine
 10
3007.361088559271
 20
-516.8164169188067
 30
0.0000000001127424
 11
2957.361088559271
 21
-516.8164169188067
 31
0.0000000001127424
  0
LINE
  5
1ACD9
330
18
100
AcDbEntity
  8
1DIM
100
AcDbLine
 10
3007.361088559271
 20
-518.1630084722256
 30
0.0000000001127424
 11
2957.361088559271
 21
-518.1630084722256
 31
0.0000000001127424
  0
LINE
  5
1ACDA
330
18
100
AcDbEntity
  8
1DIM
100
AcDbLine
 10
3009.361088559271
 20
-507.7635585308444
 30
0.0000000001127424
 11
3009.361088559271
 21
-515.9526740472147
 31
0.0000000001127424
  0
LINE
  5
1ACDB
330
18
100
AcDbEntity
  8
01
100
AcDbLine
 10
3010.361088558952
 20
-504.4520482691614
 30
0.0000000001127424
 11
3010.361088558952
 21
-518.9221422302635
 31
0.0000000001127424
  0
LINE
  5
1ACDC
330
18
100
AcDbEntity
  8
1DIM
100
AcDbLine
 10
2988.361088559271
 20
-503.0061439334722
 30
0.0000000001127424
 11
3007.361088559271
 21
-503.0061439334722
 31
0.0000000001127424
  0
LINE
  5
1ACDD
330
18
100
AcDbEntity
  8
01
100
AcDbLine
 10
3007.361088559271
 20
-502.9766345840735
 30
0.0000000001127424
 11
2988.361088559271
 21
-502.9766345853641
 31
0.0000000001127424
  0
LINE
  5
1ACDE
330
18
100
AcDbEntity
  8
01
100
AcDbLine
 10
2957.361088559271
 20
-508.2882676451491
 30
0.0000000001127424
 11
2957.361088559271
 21
-531.2635389101997
 31
0.0000000001127424
  0
LINE
  5
1ACDF
330
18
100
AcDbEntity
  8
01
100
AcDbLine
 10
2957.361088559271
 20
-531.2635389101997
 30
0.0000000001127424
 11
2959.76108855927
 21
-531.2635401121952
 31
0.0000000001127424
  0
LINE
  5
1ACE0
330
18
100
AcDbEntity
  8
01
100
AcDbLine
 10
3009.361088559271
 20
-507.7635585308444
 30
0.0000000001127424
 11
2985.039664129032
 21
-507.7635443720001
 31
0.0000000001127424
  0
LINE
  5
1ACE1
330
18
100
AcDbEntity
  8
01
100
AcDbLine
 10
2985.361088559271
 20
-504.4520732064448
 30
0.0000000001127424
 11
2985.361088559271
 21
-507.7635445591186
 31
0.0000000001127424
  0
LINE
  5
1ACE2
330
18
100
AcDbEntity
  8
1DIM
100
AcDbLine
 10
2986.361088559271
 20
-503.4798131715543
 30
0.0000000001127424
 11
2986.361088559271
 21
-507.7635451412743
 31
0.0000000001127424
  0
SPLINE
  5
1ACE3
330
18
100
AcDbEntity
  8
01
100
AcDbSpline
210
0.0
220
0.0
230
1.0
 70
     8
 71
     3
 72
    20
 73
    16
 74
     0
 42
0.0000000001
 43
0.0000000001
 40
93.49924631334923
 40
93.49924631334923
 40
93.49924631334923
 40
93.49924631334923
 40
93.5004040626248
 40
94.90922125516619
 40
100.252509636164
 40
105.0277894204165
 40
107.3722532703411
 40
109.7653408201528
 40
111.050003967603
 40
112.3729451118797
 40
115.2130757381157
 40
118.2275688514369
 40
119.7351247625095
 40
120.4225456985309
 40
120.577578232493
 40
120.577578232493
 40
120.577578232493
 40
120.577578232493
 10
3130.481035670666
 20
-519.5118375730722
 30
0.0000000001127424
 10
3130.480649979002
 20
-519.5118511605829
 30
0.0000000001127424
 10
3130.010932311339
 20
-519.5284041826794
 30
0.0000000001127424
 10
3127.762627571424
 20
-519.6389313217846
 30
0.0000000001127424
 10
3123.93998951587
 20
-520.093211073448
 30
0.0000000001127424
 10
3119.897762490881
 20
-521.0853490387581
 30
0.0000000001127424
 10
3116.904484359981
 20
-522.1378186439056
 30
0.0000000001127424
 10
3115.055394587248
 20
-522.9210578280222
 30
0.0000000001127424
 10
3113.550000785855
 20
-523.6374133606923
 30
0.0000000001127424
 10
3111.932852854116
 20
-524.463773588845
 30
0.0000000001127424
 10
3109.845468293272
 20
-525.6344474911643
 30
0.0000000001127424
 10
3107.762498202
 20
-526.933154718166
 30
0.0000000001127424
 10
3106.320706813828
 20
-527.9011807696006
 30
0.0000000001127424
 10
3105.679569681869
 20
-528.3513022847014
 30
0.0000000001127424
 10
3105.451750384122
 20
-528.515488960104
 30
0.0000000001127424
 10
3105.409916357502
 20
-528.5458281953629
 30
0.0000000001127424
  0
ARC
  5
1ACE4
330
18
100
AcDbEntity
  8
01
100
AcDbCircle
 10
3160.984456932847
 20
-260.4146827173176
 30
0.0000000001127424
 40
250.0001215880443
100
AcDbArc
 50
262.83772863323
 51
283.9834924839981
  0
ARC
  5
1ACE5
330
18
100
AcDbEntity
  8
01
100
AcDbCircle
 10
3160.984456932847
 20
-260.4146827173176
 30
0.0000000001127424
 40
254.0001215880443
100
AcDbArc
 50
262.8424617473912
 51
283.985297056656
  0
ARC
  5
1ACE6
330
18
100
AcDbEntity
  8
1DIM
100
AcDbCircle
 10
3160.984456932847
 20
-260.4146827173176
 30
0.0000000001127424
 40
253.0001215880443
100
AcDbArc
 50
262.8424617473912
 51
284.211762987943
  0
ARC
  5
1ACE7
330
18
100
AcDbEntity
  8
01
100
AcDbCircle
 10
3222.127728858957
 20
-505.9153177913126
 30
0.0000000001127424
 40
1.0
100
AcDbArc
 50
283.985297056656
 51
14.21176983735346
  0
ARC
  5
1ACE8
330
18
100
AcDbEntity
  8
1DIM
100
AcDbCircle
 10
3160.984456932847
 20
-260.4146827173176
 30
0.0000000001127424
 40
251.0001215880443
100
AcDbArc
 50
262.8424617473912
 51
284.211762987943
  0
ARC
  5
1ACE9
330
18
100
AcDbEntity
  8
01
100
AcDbCircle
 10
3221.636711939611
 20
-503.9765126492825
 30
0.0000000001127424
 40
1.0
100
AcDbArc
 50
14.21176983735346
 51
103.9834924839981
  0
ARC
  5
1ACEA
330
18
100
AcDbEntity
  8
01
100
AcDbCircle
 10
3118.607206384432
 20
-597.7635389001339
 30
0.0000000001127424
 40
89.99999999976632
100
AcDbArc
 50
82.83352141751324
 51
115.9190542778206
  0
ARC
  5
1ACEB
330
18
100
AcDbEntity
  8
01
100
AcDbCircle
 10
3118.607206384432
 20
-597.7635389001339
 30
0.0000000001127424
 40
85.99999999976632
100
AcDbArc
 50
82.83352141751324
 51
115.9042539471254
  0
ARC
  5
1ACEC
330
18
100
AcDbEntity
  8
01
100
AcDbCircle
 10
3080.599640344199
 20
-519.5048338018728
 30
0.0000000001127424
 40
1.0
100
AcDbArc
 50
206.5628406278149
 51
295.9042539471254
  0
ARC
  5
1ACED
330
18
100
AcDbEntity
  8
1DIM
100
AcDbCircle
 10
3118.607206384432
 20
-597.7635389001339
 30
0.0000000001127424
 40
86.99999999976632
100
AcDbArc
 50
82.83352141751324
 51
116.5628406277829
  0
ARC
  5
1ACEE
330
18
100
AcDbEntity
  8
1DIM
100
AcDbCircle
 10
3118.607206384432
 20
-597.7635389001339
 30
0.0000000001127424
 40
88.99999999976632
100
AcDbArc
 50
82.83352141751324
 51
116.5628406277829
  0
ARC
  5
1ACEF
330
18
100
AcDbEntity
  8
01
100
AcDbCircle
 10
3079.705224412019
 20
-517.7158293852676
 30
0.0000000001127424
 40
1.0
100
AcDbArc
 50
115.9190542778206
 51
206.5628406278149
  0
LINE
  5
1ACF0
330
18
100
AcDbEntity
  8
01
100
AcDbLine
 10
3223.151819630407
 20
-505.8857805305065
 30
0.0000000001127424
 11
3222.606106877417
 21
-503.7310061227768
 31
0.0000000001127424
  0
LINE
  5
1ACF1
330
18
100
AcDbEntity
  8
01
100
AcDbLine
 10
3079.927417189954
 20
-520.3964983405317
 30
0.0000000001127424
 11
3078.808267646217
 21
-518.15798334482
 31
0.0000000001127424
  0
ARC
  5
1ACF2
330
18
100
AcDbEntity
  8
01
100
AcDbCircle
 10
3098.361088559271
 20
-520.7635389003754
 30
0.0000000001127424
 40
10.5
100
AcDbArc
 50
215.6628749058636
 51
312.1687878762255
  0
ARC
  5
1ACF3
330
18
100
AcDbEntity
  8
01
100
AcDbCircle
 10
3077.643321204047
 20
-535.6304187281944
 30
0.0000000001127424
 40
15.0
100
AcDbArc
 50
35.66287490586361
 51
78.54146108930075
  0
ARC
  5
1ACF4
330
18
100
AcDbEntity
  8
01
100
AcDbCircle
 10
3080.821861634399
 20
-519.9493192535847
 30
0.0000000001127424
 40
1.0
100
AcDbArc
 50
206.5628406278149
 51
258.5414610893008
  0
ARC
  5
1ACF5
330
18
100
AcDbEntity
  8
01
100
AcDbCircle
 10
3113.108910502289
 20
80.2374114980953
 30
0.0000000001127424
 40
599.9999999999999
100
AcDbArc
 50
271.6861514906322
 51
278.0000000000405
  0
ARC
  5
1ACF6
330
18
100
AcDbEntity
  8
01
100
AcDbCircle
 10
3199.247711248451
 20
-462.8300293473944
 30
0.0000000001127424
 40
50.0
100
AcDbArc
 50
280.7045094749837
 51
297.9081406786298
  0
ARC
  5
1ACF7
330
18
100
AcDbEntity
  8
01
100
AcDbCircle
 10
3222.182424692602
 20
-506.1312870570123
 30
0.0000000001127424
 40
1.0
100
AcDbArc
 50
297.9081406786298
 51
14.21176983735346
  0
ARC
  5
1ACF8
330
18
100
AcDbEntity
  8
01
100
AcDbCircle
 10
3132.382054627374
 20
-574.4789743633964
 30
0.0000000001127424
 40
55.0
100
AcDbArc
 50
91.68615149063223
 51
128.2112739101391
  0
ARC
  5
1ACF9
330
18
100
AcDbEntity
  8
01
100
AcDbCircle
 10
3160.984457232559
 20
-260.4148041490039
 30
0.0000000001127424
 40
256.0
100
AcDbArc
 50
278.0000000000405
 51
280.7045094749837
  0
SPLINE
  5
1ACFF
330
18
100
AcDbEntity
  8
1DIM
100
AcDbSpline
210
0.0
220
0.0
230
1.0
 70
    24
 71
     2
 72
     6
 73
     3
 74
     0
 42
0.0000000001
 43
0.0000000001
 40
0.0
 40
0.0
 40
0.0
 40
1.103622638236942
 40
1.103622638236942
 40
1.103622638236942
 10
3108.855190975139
 20
-292.7648913437861
 30
0.0000000001127424
 10
3109.407002294258
 20
-292.7648913437861
 30
0.0000000001127424
 10
3109.958813613376
 20
-292.7648913437861
 30
0.0000000001127424
  0
SPLINE
  5
1AD00
330
18
100
AcDbEntity
  8
1DIM
100
AcDbSpline
210
0.0
220
0.0
230
1.0
 70
    12
 71
     3
 72
    10
 73
     6
 74
     0
 42
0.0000000001
 43
0.0000000001
 40
0.0
 40
0.0
 40
0.0
 40
0.0
 40
1.571297969298821
 40
1.571297969298821
 40
3.141905326318323
 40
3.141905326318323
 40
3.141905326318323
 40
3.141905326318323
 10
3079.26812349098
 20
-329.7648913437856
 30
0.0000000001127424
 41
1.0
 10
3079.26812349098
 20
-330.3070141022863
 30
0.0000000001127424
 41
1.0
 10
3079.468083305873
 20
-330.8194776967275
 30
0.0000000001127424
 41
1.0
 10
3080.156939387408
 20
-331.5619894980841
 30
0.0000000001127424
 41
1.0
 10
3080.619327472322
 20
-331.7648913437856
 30
0.0000000001127424
 41
1.0
 10
3081.097442429232
 20
-331.7648913437856
 30
0.0000000001127424
 41
1.0
  0
SPLINE
  5
1AD01
330
18
100
AcDbEntity
  8
1DIM
100
AcDbSpline
210
0.0
220
0.0
230
1.0
 70
    24
 71
     2
 72
     6
 73
     3
 74
     0
 42
0.0000000001
 43
0.0000000001
 40
0.0
 40
0.0
 40
0.0
 40
0.2858794624290795
 40
0.2858794624290795
 40
0.2858794624290795
 10
3109.958813613376
 20
-292.7648913437861
 30
0.0000000001127424
 10
3110.10175334459
 20
-292.7648913437861
 30
0.0000000001127424
 10
3110.244693075805
 20
-292.7648913437861
 30
0.0000000001127424
  0
SPLINE
  5
1AD02
330
18
100
AcDbEntity
  8
01
100
AcDbSpline
210
0.0
220
0.0
230
1.0
 70
     8
 71
     3
 72
    11
 73
     7
 74
     0
 42
0.0000000001
 43
0.0000000001
 40
0.0
 40
0.0
 40
0.0
 40
0.0
 40
0.7385340455512193
 40
6.547136061415966
 40
10.41755214511659
 40
19.00283527299033
 40
19.00283527299033
 40
19.00283527299033
 40
19.00283527299033
 10
3223.1823746985
 20
-310.7638776230201
 30
0.0000000001127424
 10
3223.182829100146
 20
-311.0100563928822
 30
0.0000000001127424
 10
3223.176826488025
 20
-313.1924269228875
 30
0.0000000001127424
 10
3223.165902712625
 20
-316.6649271758615
 30
0.0000000001127424
 10
3223.14971641519
 20
-322.7530062077008
 30
0.0000000001127424
 10
3223.140051427376
 20
-326.904894726214
 30
0.0000000001127424
 10
3223.133878302098
 20
-329.7666491250393
 30
0.0000000001127424
  0
SPLINE
  5
1AD03
330
18
100
AcDbEntity
  8
1DIM
100
AcDbSpline
210
0.0
220
0.0
230
1.0
 70
    24
 71
     2
 72
     6
 73
     3
 74
     0
 42
0.0000000001
 43
0.0000000001
 40
0.0
 40
0.0
 40
0.0
 40
1.211037384643674
 40
1.211037384643674
 40
1.211037384643674
 10
3221.395068642368
 20
-310.7648913437861
 30
0.0000000001127424
 10
3222.00058733469
 20
-310.7648913437861
 30
0.0000000001127424
 10
3222.606106027011
 20
-310.7648913437861
 30
0.0000000001127424
  0
SPLINE
  5
1AD04
330
18
100
AcDbEntity
  8
1DIM
100
AcDbSpline
210
0.0
220
0.0
230
1.0
 70
    12
 71
     3
 72
    11
 73
     7
 74
     0
 42
0.0000000001
 43
0.0000000001
 40
-4.057469575800098
 40
-4.057469575800098
 40
-4.057469575800098
 40
-4.057469575800098
 40
-3.042302236916277
 40
-2.027590085264157
 40
-1.013564972970183
 40
0.0
 40
0.0
 40
0.0
 40
0.0
 10
3222.606106027011
 20
-310.7648913437861
 30
0.0000000001127424
 41
1.0
 10
3222.606135482493
 20
-310.3747101063705
 30
0.0000000001127424
 41
1.0
 10
3222.454773611359
 20
-309.586095557313
 30
0.0000000001127424
 41
1.0
 10
3221.80718753425
 20
-308.5889149189297
 30
0.0000000001127424
 41
1.0
 10
3220.839275745964
 20
-307.9210670949647
 30
0.0000000001127424
 41
1.0
 10
3220.072954460806
 20
-307.7648890743567
 30
0.0000000001127424
 41
1.0
 10
3219.694008603724
 20
-307.7648913437861
 30
0.0000000001127424
 41
1.0
  0
SPLINE
  5
1AD05
330
18
100
AcDbEntity
  8
1DIM
100
AcDbSpline
210
0.0
220
0.0
230
1.0
 70
    24
 71
     2
 72
     6
 73
     3
 74
     0
 42
0.0000000001
 43
0.0000000001
 40
0.0
 40
0.0
 40
0.0
 40
18.99999999999989
 40
18.99999999999989
 40
18.99999999999989
 10
3222.606106027011
 20
-329.7648913437856
 30
0.0000000001127424
 10
3222.606106027011
 20
-320.2648913437856
 30
0.0000000001127424
 10
3222.606106027011
 20
-310.7648913437861
 30
0.0000000001127424
  0
SPLINE
  5
1AD06
330
18
100
AcDbEntity
  8
1DIM
100
AcDbSpline
210
0.0
220
0.0
230
1.0
 70
    12
 71
     3
 72
    10
 73
     6
 74
     0
 42
0.0000000001
 43
0.0000000001
 40
-3.141481927302786
 40
-3.141481927302786
 40
-3.141481927302786
 40
-3.141481927302786
 40
-1.570537743744568
 40
-1.570537743744568
 40
0.0
 40
0.0
 40
0.0
 40
0.0
 10
3219.460106007426
 20
-331.7648913437856
 30
0.0000000001127424
 41
1.0
 10
3219.975774078593
 20
-331.7648913437856
 30
0.0000000001127424
 41
1.0
 10
3220.468639043669
 20
-331.5524935992262
 30
0.0000000001127424
 41
1.0
 10
3221.192809922801
 20
-330.8015931240484
 30
0.0000000001127424
 41
1.0
 10
3221.395068642368
 20
-330.2934002100319
 30
0.0000000001127424
 41
1.0
 10
3221.395068642368
 20
-329.7648913437856
 30
0.0000000001127424
 41
1.0
  0
SPLINE
  5
1AD07
330
18
100
AcDbEntity
  8
1DIM
100
AcDbSpline
210
0.0
220
0.0
230
1.0
 70
    12
 71
     3
 72
    10
 73
     6
 74
     0
 42
0.0000000001
 43
0.0000000001
 40
-3.141482150580023
 40
-3.141482150580023
 40
-3.141482150580023
 40
-3.141482150580023
 40
-1.570735933109509
 40
-1.570735933109509
 40
0.0
 40
0.0
 40
0.0
 40
0.0
 10
3221.395068642368
 20
-310.7648913437861
 30
0.0000000001127424
 41
1.0
 10
3221.395068642368
 20
-310.2362452701473
 30
0.0000000001127424
 41
1.0
 10
3221.192736891094
 20
-309.728221231182
 30
0.0000000001127424
 41
1.0
 10
3220.468662841174
 20
-308.9772071800553
 30
0.0000000001127424
 41
1.0
 10
3219.975645440391
 20
-308.7648913437856
 30
0.0000000001127424
 41
1.0
 10
3219.460106007426
 20
-308.7648913437861
 30
0.0000000001127424
 41
1.0
  0
SPLINE
  5
1AD08
330
18
100
AcDbEntity
  8
1DIM
100
AcDbSpline
210
0.0
220
0.0
230
1.0
 70
    12
 71
     3
 72
    11
 73
     7
 74
     0
 42
0.0000000001
 43
0.0000000001
 40
-1.560722450960551
 40
-1.560722450960551
 40
-1.560722450960551
 40
-1.560722450960551
 40
-1.170541855252173
 40
-0.780361248189288
 40
-0.390180629771897
 40
0.0
 40
0.0
 40
0.0
 40
0.0
 10
3219.694008603724
 20
-307.7648913437861
 30
0.0000000001127424
 41
1.0
 10
3219.663587181836
 20
-307.7648913437861
 30
0.0000000001127424
 41
1.0
 10
3219.602078375354
 20
-307.8169301222119
 30
0.0000000001127424
 41
1.0
 10
3219.52433263943
 20
-308.0394784362138
 30
0.0000000001127424
 41
1.0
 10
3219.472278011727
 20
-308.3718635327532
 30
0.0000000001127424
 41
1.0
 10
3219.460106007426
 20
-308.6348311291085
 30
0.0000000001127424
 41
1.0
 10
3219.460106007426
 20
-308.7648913437861
 30
0.0000000001127424
 41
1.0
  0
SPLINE
  5
1AD09
330
18
100
AcDbEntity
  8
1DIM
100
AcDbSpline
210
0.0
220
0.0
230
1.0
 70
    24
 71
     2
 72
     6
 73
     3
 74
     0
 42
0.0000000001
 43
0.0000000001
 40
0.0
 40
0.0
 40
0.0
 40
1.211037384643703
 40
1.211037384643703
 40
1.211037384643703
 10
3221.395068642368
 20
-329.7648913437856
 30
0.0000000001127424
 10
3222.00058733469
 20
-329.7648913437856
 30
0.0000000001127424
 10
3222.606106027011
 20
-329.7648913437856
 30
0.0000000001127424
  0
SPLINE
  5
1AD0A
330
18
100
AcDbEntity
  8
1DIM
100
AcDbSpline
210
0.0
220
0.0
230
1.0
 70
    12
 71
     3
 72
    11
 73
     7
 74
     0
 42
0.0000000001
 43
0.0000000001
 40
-1.55754834089282
 40
-1.55754834089282
 40
-1.55754834089282
 40
-1.55754834089282
 40
-1.168169991065367
 40
-0.77878581764075
 40
-0.389395820618958
 40
0.0
 40
0.0
 40
0.0
 40
0.0
 10
3219.460106007426
 20
-331.7648913437856
 30
0.0000000001127424
 41
1.0
 10
3219.460106007426
 20
-331.8949515584632
 30
0.0000000001127424
 41
1.0
 10
3219.47227828997
 20
-332.1579224044108
 30
0.0000000001127424
 41
1.0
 10
3219.524333109248
 20
-332.4903062599333
 30
0.0000000001127424
 41
1.0
 10
3219.602079135414
 20
-332.7128537548815
 30
0.0000000001127424
 41
1.0
 10
3219.663587181836
 20
-332.7648913437856
 30
0.0000000001127424
 41
1.0
 10
3219.694008603724
 20
-332.7648913437856
 30
0.0000000001127424
 41
1.0
  0
SPLINE
  5
1AD0B
330
18
100
AcDbEntity
  8
1DIM
100
AcDbSpline
210
0.0
220
0.0
230
1.0
 70
    12
 71
     3
 72
    11
 73
     7
 74
     0
 42
0.0000000001
 43
0.0000000001
 40
-4.057468157219094
 40
-4.057468157219094
 40
-4.057468157219094
 40
-4.057468157219094
 40
-3.04389248237214
 40
-2.029880801401322
 40
-1.015156532126332
 40
0.0
 40
0.0
 40
0.0
 40
0.0
 10
3219.694008603724
 20
-332.7648913437856
 30
0.0000000001127424
 41
1.0
 10
3220.072955532922
 20
-332.7648939484402
 30
0.0000000001127424
 41
1.0
 10
3220.839263000743
 20
-332.6087241447617
 30
0.0000000001127424
 41
1.0
 10
3221.807205589777
 20
-331.9408443751813
 30
0.0000000001127424
 41
1.0
 10
3222.454766093709
 20
-330.9436983622068
 30
0.0000000001127424
 41
1.0
 10
3222.606135541733
 20
-330.1550707591318
 30
0.0000000001127424
 41
1.0
 10
3222.606106027011
 20
-329.7648913437856
 30
0.0000000001127424
 41
1.0
  0
SPLINE
  5
1AD0C
330
18
100
AcDbEntity
  8
1DIM
100
AcDbSpline
210
0.0
220
0.0
230
1.0
 70
    12
 71
     3
 72
    11
 73
     7
 74
     0
 42
0.0000000001
 43
0.0000000001
 40
-1.560722598654269
 40
-1.560722598654269
 40
-1.560722598654269
 40
-1.560722598654269
 40
-1.170542037868789
 40
-0.78036141783125
 40
-0.390180738541654
 40
0.0
 40
0.0
 40
0.0
 40
0.0
 10
3081.097442429232
 20
-331.7648913437856
 30
0.0000000001127424
 41
1.0
 10
3081.097442429232
 20
-331.8949515584632
 30
0.0000000001127424
 41
1.0
 10
3081.119130903241
 20
-332.15791919406
 30
0.0000000001127424
 41
1.0
 10
3081.211883514113
 20
-332.4903042756137
 30
0.0000000001127424
 41
1.0
 10
3081.350413368499
 20
-332.7128525797248
 30
0.0000000001127424
 41
1.0
 10
3081.460011718151
 20
-332.7648913437856
 30
0.0000000001127424
 41
1.0
 10
3081.51421758429
 20
-332.7648913437856
 30
0.0000000001127424
 41
1.0
  0
SPLINE
  5
1AD0D
330
18
100
AcDbEntity
  8
1DIM
100
AcDbSpline
210
0.0
220
0.0
230
1.0
 70
    24
 71
     2
 72
     6
 73
     3
 74
     0
 42
0.0000000001
 43
0.0000000001
 40
0.0
 40
0.0
 40
0.0
 40
18.99999999999989
 40
18.99999999999989
 40
18.99999999999989
 10
3221.395068642368
 20
-329.7648913437856
 30
0.0000000001127424
 10
3221.395068642368
 20
-320.2648913437856
 30
0.0000000001127424
 10
3221.395068642368
 20
-310.7648913437861
 30
0.0000000001127424
  0
SPLINE
  5
1AD0E
330
18
100
AcDbEntity
  8
1DIM
100
AcDbSpline
210
0.0
220
0.0
230
1.0
 70
     8
 71
     3
 72
    15
 73
    11
 74
     0
 42
0.0000000001
 43
0.0000000001
 40
0.0
 40
0.0
 40
0.0
 40
0.0
 40
2.953066000902173
 40
5.905028092228975
 40
8.855854734609162
 40
11.80669745460903
 40
14.75901597061893
 40
17.7132232145563
 40
20.66773565283257
 40
23.61943777330261
 40
23.61943777330261
 40
23.61943777330261
 40
23.61943777330261
 10
3109.958813613376
 20
-292.7648913437861
 30
0.0000000001127424
 10
3109.958810196252
 20
-293.7492486983479
 30
0.0000000001127424
 10
3110.151939229453
 20
-295.7175871520517
 30
0.0000000001127424
 10
3111.011165195064
 20
-298.5566503532264
 30
0.0000000001127424
 10
3112.408017784819
 20
-301.1726529028315
 30
0.0000000001127424
 10
3114.29191516352
 20
-303.4633759464405
 30
0.0000000001127424
 10
3116.590807179517
 20
-305.3390531497025
 30
0.0000000001127424
 10
3119.214620612699
 20
-306.7266185878084
 30
0.0000000001127424
 10
3122.058262240134
 20
-307.5753909372006
 30
0.0000000001127424
 10
3124.027105221136
 20
-307.7647871609774
 30
0.0000000001127424
 10
3125.010985662722
 20
-307.7648913437847
 30
0.0000000001127424
  0
SPLINE
  5
1AD0F
330
18
100
AcDbEntity
  8
01
100
AcDbSpline
210
0.0
220
0.0
230
1.0
 70
     8
 71
     3
 72
    12
 73
     8
 74
     0
 42
0.0000000001
 43
0.0000000001
 40
0.0
 40
0.0
 40
0.0
 40
0.0
 40
0.5291873365799077
 40
1.058358312762168
 40
2.09075310595325
 40
3.131233459642417
 40
4.164552594537133
 40
4.164552594537133
 40
4.164552594537133
 40
4.164552594537133
 10
3223.133876682135
 20
-329.7673764113629
 30
0.0000000001127424
 10
3223.133318800302
 20
-329.943710164549
 30
0.0000000001127424
 10
3223.102110505497
 20
-330.2965592065889
 30
0.0000000001127424
 10
3222.92183956991
 20
-330.9722576494541
 30
0.0000000001127424
 10
3222.486760171099
 20
-331.7375515398476
 30
0.0000000001127424
 10
3221.686671172662
 20
-332.4198125708012
 30
0.0000000001127424
 10
3221.027601413032
 20
-332.6625330662923
 30
0.0000000001127424
 10
3220.688218930203
 20
-332.7214300887749
 30
0.0000000001127424
  0
SPLINE
  5
1AD10
330
18
100
AcDbEntity
  8
01
100
AcDbSpline
210
0.0
220
0.0
230
1.0
 70
    12
 71
     2
 72
     6
 73
     3
 74
     0
 42
0.0000000001
 43
0.0000000001
 40
0.0
 40
0.0
 40
0.0
 40
0.369110694773972
 40
0.369110694773972
 40
0.369110694773972
 10
3118.031296914221
 20
-305.9201718502941
 30
0.0000000001127424
 41
1.0
 10
3118.193287915363
 20
-306.0086198350455
 30
0.0000000001127424
 41
0.999923947476595
 10
3118.357411105149
 20
-306.0930455955227
 30
0.0000000001127424
 41
1.0
  0
SPLINE
  5
1AD11
330
18
100
AcDbEntity
  8
1DIM
100
AcDbSpline
210
0.0
220
0.0
230
1.0
 70
    12
 71
     3
 72
    11
 73
     7
 74
     0
 42
0.0000000001
 43
0.0000000001
 40
0.0
 40
0.0
 40
0.0
 40
0.0
 40
0.387300121258695
 40
0.774601371343038
 40
1.161903750253026
 40
1.549207257988663
 40
1.549207257988663
 40
1.549207257988663
 40
1.549207257988663
 10
3125.010985662722
 20
-307.7648913437847
 30
0.0000000001127424
 41
1.0
 10
3125.020343826149
 20
-307.7648913572416
 30
0.0000000001127424
 41
1.0
 10
3125.039265033214
 20
-307.8169303849963
 30
0.0000000001127424
 41
1.0
 10
3125.06318084035
 20
-308.0394788629492
 30
0.0000000001127424
 41
1.0
 10
3125.079193549086
 20
-308.3718641844071
 30
0.0000000001127424
 41
1.0
 10
3125.082937696846
 20
-308.6348311375632
 30
0.0000000001127424
 41
1.0
 10
3125.082937827784
 20
-308.7648913437838
 30
0.0000000001127424
 41
1.0
  0
SPLINE
  5
1AD12
330
18
100
AcDbEntity
  8
01
100
AcDbSpline
210
0.0
220
0.0
230
1.0
 70
    12
 71
     2
 72
     6
 73
     3
 74
     0
 42
0.0000000001
 43
0.0000000001
 40
0.0
 40
0.0
 40
0.0
 40
0.007138031304071
 40
0.007138031304071
 40
0.007138031304071
 10
3110.244693075805
 20
-292.7648913437861
 30
0.0000000001127424
 41
1.0
 10
3110.248620326715
 20
-292.7640065685325
 30
0.0000000001127424
 41
0.8382136699038237
 10
3110.249402781043
 20
-292.760057658279
 30
0.0000000001127424
 41
1.0
  0
SPLINE
  5
1AD13
330
18
100
AcDbEntity
  8
01
100
AcDbSpline
210
0.0
220
0.0
230
1.0
 70
     8
 71
     3
 72
    12
 73
     8
 74
     0
 42
0.0000000001
 43
0.0000000001
 40
0.0
 40
0.0
 40
0.0
 40
0.0
 40
0.5111849013621723
 40
1.026644476853176
 40
2.05934663084465
 40
3.098778676541328
 40
4.156729746798831
 40
4.156729746798831
 40
4.156729746798831
 40
4.156729746798831
 10
3220.755131785926
 20
-307.8084235617257
 30
0.0000000001127424
 10
3220.92293633181
 20
-307.8379169992227
 30
0.0000000001127424
 10
3221.254727831909
 20
-307.9273225454936
 30
0.0000000001127424
 10
3221.878321837316
 20
-308.2201953299782
 30
0.0000000001127424
 10
3222.547003609723
 20
-308.7867868047088
 30
0.0000000001127424
 10
3223.063854762446
 20
-309.7119896460581
 30
0.0000000001127424
 10
3223.181780042661
 20
-310.4109647975201
 30
0.0000000001127424
 10
3223.182374601513
 20
-310.76368346351
 30
0.0000000001127424
  0
SPLINE
  5
1AD14
330
18
100
AcDbEntity
  8
01
100
AcDbSpline
210
0.0
220
0.0
230
1.0
 70
     8
 71
     3
 72
    12
 73
     8
 74
     0
 42
0.0000000001
 43
0.0000000001
 40
0.0
 40
0.0
 40
0.0
 40
0.0
 40
0.5895600775692074
 40
1.175079070458731
 40
2.335862545097187
 40
3.491457925643167
 40
4.630605295309014
 40
4.630605295309014
 40
4.630605295309014
 40
4.630605295309014
 10
3223.151817672897
 20
-310.7648913437861
 30
0.0000000001127424
 10
3223.151860699852
 20
-310.5683776839992
 30
0.0000000001127424
 10
3223.114690131739
 20
-310.1766842739635
 30
0.0000000001127424
 10
3222.900501964416
 20
-309.4248528575536
 30
0.0000000001127424
 10
3222.372328079023
 20
-308.5917703554028
 30
0.0000000001127424
 10
3221.404426352381
 20
-307.9244745430783
 30
0.0000000001127424
 10
3220.641004818051
 20
-307.7649724821094
 30
0.0000000001127424
 10
3220.261047391864
 20
-307.7648913437861
 30
0.0000000001127424
  0
SPLINE
  5
1AD15
330
18
100
AcDbEntity
  8
1DIM
100
AcDbSpline
210
0.0
220
0.0
230
1.0
 70
    24
 71
     2
 72
     6
 73
     3
 74
     0
 42
0.0000000001
 43
0.0000000001
 40
0.0
 40
0.0
 40
0.0
 40
0.5457116458851203
 40
0.5457116458851203
 40
0.5457116458851203
 10
3223.151817672897
 20
-310.7648913437861
 30
0.0000000001127424
 10
3222.878961849954
 20
-310.7648913437861
 30
0.0000000001127424
 10
3222.606106027011
 20
-310.7648913437861
 30
0.0000000001127424
  0
SPLINE
  5
1AD16
330
18
100
AcDbEntity
  8
1DIM
100
AcDbSpline
210
0.0
220
0.0
230
1.0
 70
     8
 71
     3
 72
    11
 73
     7
 74
     0
 42
0.0000000001
 43
0.0000000001
 40
0.0
 40
0.0
 40
0.0
 40
0.0
 40
8.075106083728844
 40
12.35010583741918
 40
18.28753147962187
 40
19.00006367235522
 40
19.00006367235522
 40
19.00006367235522
 40
19.00006367235522
 10
3223.103391541535
 20
-329.7648913437856
 30
0.0000000001127424
 10
3223.109095212897
 20
-327.073195320675
 30
0.0000000001127424
 10
3223.118717215959
 20
-322.9565046314369
 30
0.0000000001127424
 10
3223.13477731496
 20
-316.8606817999657
 30
0.0000000001127424
 10
3223.14613824678
 20
-313.2190469356628
 30
0.0000000001127424
 10
3223.152314248997
 20
-311.0024028616281
 30
0.0000000001127424
 10
3223.151817672897
 20
-310.7648913437861
 30
0.0000000001127424
  0
SPLINE
  5
1AD17
330
18
100
AcDbEntity
  8
01
100
AcDbSpline
210
0.0
220
0.0
230
1.0
 70
     8
 71
     3
 72
    12
 73
     8
 74
     0
 42
0.0000000001
 43
0.0000000001
 40
0.0
 40
0.0
 40
0.0
 40
0.0
 40
0.5716989101038484
 40
1.144778075817585
 40
2.299689645033055
 40
3.46660099805731
 40
4.643455868237673
 40
4.643455868237673
 40
4.643455868237673
 40
4.643455868237673
 10
3220.190499158623
 20
-332.7648913437856
 30
0.0000000001127424
 10
3220.381127754428
 20
-332.7649022136216
 30
0.0000000001127424
 10
3220.762506450582
 20
-332.7257525206132
 30
0.0000000001127424
 10
3221.498310647454
 20
-332.49650284993
 30
0.0000000001127424
 10
3222.307876483124
 20
-331.9367513940724
 30
0.0000000001127424
 10
3222.952287215923
 20
-330.9382508324111
 30
0.0000000001127424
 10
3223.102751322778
 20
-330.1571676097765
 30
0.0000000001127424
 10
3223.103391541535
 20
-329.7648913437856
 30
0.0000000001127424
  0
SPLINE
  5
1AD18
330
18
100
AcDbEntity
  8
1DIM
100
AcDbSpline
210
0.0
220
0.0
230
1.0
 70
    24
 71
     2
 72
     6
 73
     3
 74
     0
 42
0.0000000001
 43
0.0000000001
 40
0.0
 40
0.0
 40
0.0
 40
0.4972855145229857
 40
0.4972855145229857
 40
0.4972855145229857
 10
3223.103391541535
 20
-329.7648913437856
 30
0.0000000001127424
 10
3222.854748784272
 20
-329.7648913437856
 30
0.0000000001127424
 10
3222.606106027011
 20
-329.7648913437856
 30
0.0000000001127424
  0
SPLINE
  5
1AD19
330
18
100
AcDbEntity
  8
1DIM
100
AcDbSpline
210
0.0
220
0.0
230
1.0
 70
     8
 71
     3
 72
    16
 73
    12
 74
     0
 42
0.0000000001
 43
0.0000000001
 40
0.0
 40
0.0
 40
0.0
 40
0.0
 40
3.287623113604261
 40
4.857458139255537
 40
6.432713596495687
 40
9.595367263512944
 40
12.76217646332091
 40
15.93904179503834
 40
19.11922828401815
 40
22.30180676820332
 40
25.3285604334678
 40
25.3285604334678
 40
25.3285604334678
 40
25.3285604334678
 10
3125.082937827784
 20
-308.7648913437838
 30
0.0000000001127424
 10
3123.987082815282
 20
-308.7648225103521
 30
0.0000000001127424
 10
3122.367879493907
 20
-308.6050808309947
 30
0.0000000001127424
 10
3120.285059419111
 20
-308.0853949585849
 30
0.0000000001127424
 10
3118.301262657548
 20
-307.3812904842921
 30
0.0000000001127424
 10
3115.96002760606
 20
-306.1454955916574
 30
0.0000000001127424
 10
3113.488606545
 20
-304.137383546225
 30
0.0000000001127424
 10
3111.457608384761
 20
-301.6770015626271
 30
0.0000000001127424
 10
3109.952888069676
 20
-298.8574955174681
 30
0.0000000001127424
 10
3109.052435242956
 20
-295.8436557960686
 30
0.0000000001127424
 10
3108.85518008218
 20
-293.7737781695682
 30
0.0000000001127424
 10
3108.855190975139
 20
-292.7648913437861
 30
0.0000000001127424
  0
SPLINE
  5
1AD1A
330
18
100
AcDbEntity
  8
1DIM
100
AcDbSpline
210
0.0
220
0.0
230
1.0
 70
    12
 71
     2
 72
     6
 73
     3
 74
     0
 42
0.0000000001
 43
0.0000000001
 40
0.0
 40
0.0
 40
0.0
 40
0.0297549472924744
 40
0.0297549472924744
 40
0.0297549472924744
 10
3223.151817672897
 20
-310.7648913437861
 30
0.0000000001127424
 41
1.0
 10
3223.166698581071
 20
-310.7647938118898
 30
0.0000000001127424
 41
0.9996216322145491
 10
3223.181551608242
 20
-310.7638781021087
 30
0.0000000001127424
 41
1.0
  0
SPLINE
  5
1AD1B
330
18
100
AcDbEntity
  8
1DIM
100
AcDbSpline
210
0.0
220
0.0
230
1.0
 70
    12
 71
     3
 72
     8
 73
     4
 74
     0
 42
0.0000000001
 43
0.0000000001
 40
1.17004300987466
 40
1.17004300987466
 40
1.17004300987466
 40
1.17004300987466
 40
1.440051484797951
 40
1.440051484797951
 40
1.440051484797951
 40
1.440051484797951
 10
3223.133004597471
 20
-329.7673741137628
 30
0.0000000001127424
 41
1.0
 10
3223.137045812332
 20
-329.7665674475838
 30
0.0000000001127424
 41
1.0
 10
3223.127034644829
 20
-329.765726055969
 30
0.0000000001127424
 41
1.0
 10
3223.103391541535
 20
-329.7648913437856
 30
0.0000000001127424
 41
1.0
  0
LINE
  5
1AD1C
330
18
100
AcDbEntity
  8
01
100
AcDbLine
 10
3078.705216999405
 20
-329.7648601780534
 30
0.0000000001127424
 11
3078.705736427954
 21
-279.7648913437856
 31
0.0000000001127424
  0
ARC
  5
1AD1D
330
18
100
AcDbEntity
  8
01
100
AcDbCircle
 10
3081.705216999243
 20
-329.7648913437856
 30
0.0000000001127424
 40
3.0
100
AcDbArc
 50
179.9994047783675
 51
270.0
  0
LINE
  5
1AD1E
330
18
100
AcDbEntity
  8
1DIM
100
AcDbLine
 10
3079.26812349098
 20
-329.7648913437856
 30
0.0000000001127424
 11
3079.26812349098
 21
-279.7648913437856
 31
0.0000000001127424
  0
LINE
  5
1AD1F
330
18
100
AcDbEntity
  8
01
100
AcDbLine
 10
3125.249423672291
 20
-307.7648913437847
 30
0.0000000001127424
 11
3220.261047391864
 21
-307.7648913437861
 31
0.0000000001127424
  0
LINE
  5
1AD20
330
18
100
AcDbEntity
  8
1DIM
100
AcDbLine
 10
3125.082937827784
 20
-308.7648913437847
 30
0.0000000001127424
 11
3219.460106007426
 21
-308.7648913437861
 31
0.0000000001127424
  0
LINE
  5
1AD21
330
18
100
AcDbEntity
  8
01
100
AcDbLine
 10
3081.705216999243
 20
-332.7648913437856
 30
0.0000000001127424
 11
3220.190499158623
 21
-332.7648913437856
 31
0.0000000001127424
  0
LINE
  5
1AD22
330
18
100
AcDbEntity
  8
1DIM
100
AcDbLine
 10
3081.097442429229
 20
-331.7648913437856
 30
0.0000000001127424
 11
3219.460106007426
 21
-331.7648913437856
 31
0.0000000001127424
  0
LINE
  5
1AD23
330
18
100
AcDbEntity
  8
01
100
AcDbLine
 10
3110.249284995142
 20
-279.7648365720088
 30
0.0000000001127424
 11
3110.249423673145
 21
-292.7650513542198
 31
0.0000000001127424
  0
ARC
  5
1AD24
330
18
100
AcDbEntity
  8
01
100
AcDbCircle
 10
3125.249423672291
 20
-292.7648913437847
 30
0.0000000001127424
 40
15.0
100
AcDbArc
 50
180.0006111948443
 51
270.0
  0
LINE
  5
1AD25
330
18
100
AcDbEntity
  8
1DIM
100
AcDbLine
 10
3109.95881361337
 20
-292.7648913437861
 30
0.0000000001127424
 11
3109.95881361337
 21
-279.7648913437856
 31
0.0000000001127424
  0
LINE
  5
1AD26
330
18
100
AcDbEntity
  8
1DIM
100
AcDbLine
 10
3108.855190975139
 20
-292.7648913437861
 30
0.0000000001127424
 11
3108.855190975132
 21
-279.7648913437856
 31
0.0000000001127424
  0
LINE
  5
1AD27
330
18
100
AcDbEntity
  8
01
100
AcDbLine
 10
3110.249284995142
 20
-279.7648365720088
 30
0.0000000001127424
 11
3078.705736427954
 21
-279.7648913437856
 31
0.0000000001127424
  0
SPLINE
  5
1AD29
330
18
100
AcDbEntity
  8
1DIM
100
AcDbSpline
210
0.0
220
0.0
230
1.0
 70
    24
 71
     2
 72
     6
 73
     3
 74
     0
 42
0.0000000001
 43
0.0000000001
 40
0.0
 40
0.0
 40
0.0
 40
1.103622638236942
 40
1.103622638236942
 40
1.103622638236942
 10
3108.855190975139
 20
-208.7648230852274
 30
0.0000000001127424
 10
3109.407002294258
 20
-208.7648230852274
 30
0.0000000001127424
 10
3109.958813613376
 20
-208.7648230852274
 30
0.0000000001127424
  0
SPLINE
  5
1AD2A
330
18
100
AcDbEntity
  8
1DIM
100
AcDbSpline
210
0.0
220
0.0
230
1.0
 70
    12
 71
     3
 72
    10
 73
     6
 74
     0
 42
0.0000000001
 43
0.0000000001
 40
0.0
 40
0.0
 40
0.0
 40
0.0
 40
1.571297969298821
 40
1.571297969298821
 40
3.141905326318323
 40
3.141905326318323
 40
3.141905326318323
 40
3.141905326318323
 10
3079.26812349098
 20
-171.7648230852278
 30
0.0000000001127424
 41
1.0
 10
3079.26812349098
 20
-171.2227003267271
 30
0.0000000001127424
 41
1.0
 10
3079.468083305873
 20
-170.7102367322859
 30
0.0000000001127424
 41
1.0
 10
3080.156939387408
 20
-169.9677249309293
 30
0.0000000001127424
 41
1.0
 10
3080.619327472322
 20
-169.7648230852278
 30
0.0000000001127424
 41
1.0
 10
3081.097442429232
 20
-169.7648230852278
 30
0.0000000001127424
 41
1.0
  0
SPLINE
  5
1AD2B
330
18
100
AcDbEntity
  8
1DIM
100
AcDbSpline
210
0.0
220
0.0
230
1.0
 70
    24
 71
     2
 72
     6
 73
     3
 74
     0
 42
0.0000000001
 43
0.0000000001
 40
0.0
 40
0.0
 40
0.0
 40
0.2858794624290795
 40
0.2858794624290795
 40
0.2858794624290795
 10
3109.958813613376
 20
-208.7648230852274
 30
0.0000000001127424
 10
3110.10175334459
 20
-208.7648230852274
 30
0.0000000001127424
 10
3110.244693075805
 20
-208.7648230852274
 30
0.0000000001127424
  0
SPLINE
  5
1AD2C
330
18
100
AcDbEntity
  8
01
100
AcDbSpline
210
0.0
220
0.0
230
1.0
 70
     8
 71
     3
 72
    11
 73
     7
 74
     0
 42
0.0000000001
 43
0.0000000001
 40
0.0
 40
0.0
 40
0.0
 40
0.0
 40
0.7385340455512193
 40
6.547136061415966
 40
10.41755214511659
 40
19.00283527299033
 40
19.00283527299033
 40
19.00283527299033
 40
19.00283527299033
 10
3223.1823746985
 20
-190.7658368059933
 30
0.0000000001127424
 10
3223.182829100146
 20
-190.5196580361312
 30
0.0000000001127424
 10
3223.176826488025
 20
-188.3372875061259
 30
0.0000000001127424
 10
3223.165902712625
 20
-184.8647872531519
 30
0.0000000001127424
 10
3223.14971641519
 20
-178.7767082213127
 30
0.0000000001127424
 10
3223.140051427376
 20
-174.6248197027994
 30
0.0000000001127424
 10
3223.133878302098
 20
-171.7630653039741
 30
0.0000000001127424
  0
SPLINE
  5
1AD2D
330
18
100
AcDbEntity
  8
1DIM
100
AcDbSpline
210
0.0
220
0.0
230
1.0
 70
    24
 71
     2
 72
     6
 73
     3
 74
     0
 42
0.0000000001
 43
0.0000000001
 40
0.0
 40
0.0
 40
0.0
 40
1.211037384643674
 40
1.211037384643674
 40
1.211037384643674
 10
3221.395068642368
 20
-190.7648230852274
 30
0.0000000001127424
 10
3222.00058733469
 20
-190.7648230852274
 30
0.0000000001127424
 10
3222.606106027011
 20
-190.7648230852274
 30
0.0000000001127424
  0
SPLINE
  5
1AD2E
330
18
100
AcDbEntity
  8
1DIM
100
AcDbSpline
210
0.0
220
0.0
230
1.0
 70
    12
 71
     3
 72
    11
 73
     7
 74
     0
 42
0.0000000001
 43
0.0000000001
 40
-4.057469575800098
 40
-4.057469575800098
 40
-4.057469575800098
 40
-4.057469575800098
 40
-3.042302236916277
 40
-2.027590085264157
 40
-1.013564972970183
 40
0.0
 40
0.0
 40
0.0
 40
0.0
 10
3222.606106027011
 20
-190.7648230852274
 30
0.0000000001127424
 41
1.0
 10
3222.606135482493
 20
-191.155004322643
 30
0.0000000001127424
 41
1.0
 10
3222.454773611359
 20
-191.9436188717004
 30
0.0000000001127424
 41
1.0
 10
3221.80718753425
 20
-192.9407995100837
 30
0.0000000001127424
 41
1.0
 10
3220.839275745964
 20
-193.6086473340488
 30
0.0000000001127424
 41
1.0
 10
3220.072954460806
 20
-193.7648253546568
 30
0.0000000001127424
 41
1.0
 10
3219.694008603724
 20
-193.7648230852274
 30
0.0000000001127424
 41
1.0
  0
SPLINE
  5
1AD2F
330
18
100
AcDbEntity
  8
1DIM
100
AcDbSpline
210
0.0
220
0.0
230
1.0
 70
    24
 71
     2
 72
     6
 73
     3
 74
     0
 42
0.0000000001
 43
0.0000000001
 40
0.0
 40
0.0
 40
0.0
 40
18.99999999999989
 40
18.99999999999989
 40
18.99999999999989
 10
3222.606106027011
 20
-171.7648230852278
 30
0.0000000001127424
 10
3222.606106027011
 20
-181.2648230852278
 30
0.0000000001127424
 10
3222.606106027011
 20
-190.7648230852274
 30
0.0000000001127424
  0
SPLINE
  5
1AD30
330
18
100
AcDbEntity
  8
1DIM
100
AcDbSpline
210
0.0
220
0.0
230
1.0
 70
    12
 71
     3
 72
    10
 73
     6
 74
     0
 42
0.0000000001
 43
0.0000000001
 40
-3.141481927302786
 40
-3.141481927302786
 40
-3.141481927302786
 40
-3.141481927302786
 40
-1.570537743744568
 40
-1.570537743744568
 40
0.0
 40
0.0
 40
0.0
 40
0.0
 10
3219.460106007426
 20
-169.7648230852278
 30
0.0000000001127424
 41
1.0
 10
3219.975774078593
 20
-169.7648230852278
 30
0.0000000001127424
 41
1.0
 10
3220.468639043669
 20
-169.9772208297873
 30
0.0000000001127424
 41
1.0
 10
3221.192809922801
 20
-170.728121304965
 30
0.0000000001127424
 41
1.0
 10
3221.395068642368
 20
-171.2363142189815
 30
0.0000000001127424
 41
1.0
 10
3221.395068642368
 20
-171.7648230852278
 30
0.0000000001127424
 41
1.0
  0
SPLINE
  5
1AD31
330
18
100
AcDbEntity
  8
1DIM
100
AcDbSpline
210
0.0
220
0.0
230
1.0
 70
    12
 71
     3
 72
    10
 73
     6
 74
     0
 42
0.0000000001
 43
0.0000000001
 40
-3.141482150580023
 40
-3.141482150580023
 40
-3.141482150580023
 40
-3.141482150580023
 40
-1.570735933109509
 40
-1.570735933109509
 40
0.0
 40
0.0
 40
0.0
 40
0.0
 10
3221.395068642368
 20
-190.7648230852274
 30
0.0000000001127424
 41
1.0
 10
3221.395068642368
 20
-191.2934691588662
 30
0.0000000001127424
 41
1.0
 10
3221.192736891094
 20
-191.8014931978314
 30
0.0000000001127424
 41
1.0
 10
3220.468662841174
 20
-192.5525072489581
 30
0.0000000001127424
 41
1.0
 10
3219.975645440391
 20
-192.7648230852278
 30
0.0000000001127424
 41
1.0
 10
3219.460106007426
 20
-192.7648230852274
 30
0.0000000001127424
 41
1.0
  0
SPLINE
  5
1AD32
330
18
100
AcDbEntity
  8
1DIM
100
AcDbSpline
210
0.0
220
0.0
230
1.0
 70
    12
 71
     3
 72
    11
 73
     7
 74
     0
 42
0.0000000001
 43
0.0000000001
 40
-1.560722450960551
 40
-1.560722450960551
 40
-1.560722450960551
 40
-1.560722450960551
 40
-1.170541855252173
 40
-0.780361248189288
 40
-0.390180629771897
 40
0.0
 40
0.0
 40
0.0
 40
0.0
 10
3219.694008603724
 20
-193.7648230852274
 30
0.0000000001127424
 41
1.0
 10
3219.663587181836
 20
-193.7648230852274
 30
0.0000000001127424
 41
1.0
 10
3219.602078375354
 20
-193.7127843068015
 30
0.0000000001127424
 41
1.0
 10
3219.52433263943
 20
-193.4902359927996
 30
0.0000000001127424
 41
1.0
 10
3219.472278011727
 20
-193.1578508962602
 30
0.0000000001127424
 41
1.0
 10
3219.460106007426
 20
-192.8948832999049
 30
0.0000000001127424
 41
1.0
 10
3219.460106007426
 20
-192.7648230852274
 30
0.0000000001127424
 41
1.0
  0
SPLINE
  5
1AD33
330
18
100
AcDbEntity
  8
1DIM
100
AcDbSpline
210
0.0
220
0.0
230
1.0
 70
    24
 71
     2
 72
     6
 73
     3
 74
     0
 42
0.0000000001
 43
0.0000000001
 40
0.0
 40
0.0
 40
0.0
 40
1.211037384643703
 40
1.211037384643703
 40
1.211037384643703
 10
3221.395068642368
 20
-171.7648230852278
 30
0.0000000001127424
 10
3222.00058733469
 20
-171.7648230852278
 30
0.0000000001127424
 10
3222.606106027011
 20
-171.7648230852278
 30
0.0000000001127424
  0
SPLINE
  5
1AD34
330
18
100
AcDbEntity
  8
1DIM
100
AcDbSpline
210
0.0
220
0.0
230
1.0
 70
    12
 71
     3
 72
    11
 73
     7
 74
     0
 42
0.0000000001
 43
0.0000000001
 40
-1.55754834089282
 40
-1.55754834089282
 40
-1.55754834089282
 40
-1.55754834089282
 40
-1.168169991065367
 40
-0.77878581764075
 40
-0.389395820618958
 40
0.0
 40
0.0
 40
0.0
 40
0.0
 10
3219.460106007426
 20
-169.7648230852278
 30
0.0000000001127424
 41
1.0
 10
3219.460106007426
 20
-169.6347628705503
 30
0.0000000001127424
 41
1.0
 10
3219.47227828997
 20
-169.3717920246027
 30
0.0000000001127424
 41
1.0
 10
3219.524333109248
 20
-169.0394081690802
 30
0.0000000001127424
 41
1.0
 10
3219.602079135414
 20
-168.8168606741319
 30
0.0000000001127424
 41
1.0
 10
3219.663587181836
 20
-168.7648230852278
 30
0.0000000001127424
 41
1.0
 10
3219.694008603724
 20
-168.7648230852278
 30
0.0000000001127424
 41
1.0
  0
SPLINE
  5
1AD35
330
18
100
AcDbEntity
  8
1DIM
100
AcDbSpline
210
0.0
220
0.0
230
1.0
 70
    12
 71
     3
 72
    11
 73
     7
 74
     0
 42
0.0000000001
 43
0.0000000001
 40
-4.057468157219094
 40
-4.057468157219094
 40
-4.057468157219094
 40
-4.057468157219094
 40
-3.04389248237214
 40
-2.029880801401322
 40
-1.015156532126332
 40
0.0
 40
0.0
 40
0.0
 40
0.0
 10
3219.694008603724
 20
-168.7648230852278
 30
0.0000000001127424
 41
1.0
 10
3220.072955532922
 20
-168.7648204805732
 30
0.0000000001127424
 41
1.0
 10
3220.839263000743
 20
-168.9209902842517
 30
0.0000000001127424
 41
1.0
 10
3221.807205589777
 20
-169.5888700538321
 30
0.0000000001127424
 41
1.0
 10
3222.454766093709
 20
-170.5860160668067
 30
0.0000000001127424
 41
1.0
 10
3222.606135541733
 20
-171.3746436698816
 30
0.0000000001127424
 41
1.0
 10
3222.606106027011
 20
-171.7648230852278
 30
0.0000000001127424
 41
1.0
  0
SPLINE
  5
1AD36
330
18
100
AcDbEntity
  8
1DIM
100
AcDbSpline
210
0.0
220
0.0
230
1.0
 70
    12
 71
     3
 72
    11
 73
     7
 74
     0
 42
0.0000000001
 43
0.0000000001
 40
-1.560722598654269
 40
-1.560722598654269
 40
-1.560722598654269
 40
-1.560722598654269
 40
-1.170542037868789
 40
-0.78036141783125
 40
-0.390180738541654
 40
0.0
 40
0.0
 40
0.0
 40
0.0
 10
3081.097442429232
 20
-169.7648230852278
 30
0.0000000001127424
 41
1.0
 10
3081.097442429232
 20
-169.6347628705503
 30
0.0000000001127424
 41
1.0
 10
3081.119130903241
 20
-169.3717952349534
 30
0.0000000001127424
 41
1.0
 10
3081.211883514113
 20
-169.0394101533998
 30
0.0000000001127424
 41
1.0
 10
3081.350413368499
 20
-168.8168618492887
 30
0.0000000001127424
 41
1.0
 10
3081.460011718151
 20
-168.7648230852278
 30
0.0000000001127424
 41
1.0
 10
3081.51421758429
 20
-168.7648230852278
 30
0.0000000001127424
 41
1.0
  0
SPLINE
  5
1AD37
330
18
100
AcDbEntity
  8
1DIM
100
AcDbSpline
210
0.0
220
0.0
230
1.0
 70
    24
 71
     2
 72
     6
 73
     3
 74
     0
 42
0.0000000001
 43
0.0000000001
 40
0.0
 40
0.0
 40
0.0
 40
18.99999999999989
 40
18.99999999999989
 40
18.99999999999989
 10
3221.395068642368
 20
-171.7648230852278
 30
0.0000000001127424
 10
3221.395068642368
 20
-181.2648230852278
 30
0.0000000001127424
 10
3221.395068642368
 20
-190.7648230852274
 30
0.0000000001127424
  0
SPLINE
  5
1AD38
330
18
100
AcDbEntity
  8
1DIM
100
AcDbSpline
210
0.0
220
0.0
230
1.0
 70
     8
 71
     3
 72
    15
 73
    11
 74
     0
 42
0.0000000001
 43
0.0000000001
 40
0.0
 40
0.0
 40
0.0
 40
0.0
 40
2.953066000902173
 40
5.905028092228975
 40
8.855854734609162
 40
11.80669745460903
 40
14.75901597061893
 40
17.7132232145563
 40
20.66773565283257
 40
23.61943777330261
 40
23.61943777330261
 40
23.61943777330261
 40
23.61943777330261
 10
3109.958813613376
 20
-208.7648230852274
 30
0.0000000001127424
 10
3109.958810196252
 20
-207.7804657306656
 30
0.0000000001127424
 10
3110.151939229453
 20
-205.8121272769617
 30
0.0000000001127424
 10
3111.011165195064
 20
-202.9730640757871
 30
0.0000000001127424
 10
3112.408017784819
 20
-200.357061526182
 30
0.0000000001127424
 10
3114.29191516352
 20
-198.066338482573
 30
0.0000000001127424
 10
3116.590807179517
 20
-196.1906612793109
 30
0.0000000001127424
 10
3119.214620612699
 20
-194.803095841205
 30
0.0000000001127424
 10
3122.058262240134
 20
-193.9543234918128
 30
0.0000000001127424
 10
3124.027105221136
 20
-193.764927268036
 30
0.0000000001127424
 10
3125.010985662722
 20
-193.7648230852287
 30
0.0000000001127424
  0
SPLINE
  5
1AD39
330
18
100
AcDbEntity
  8
01
100
AcDbSpline
210
0.0
220
0.0
230
1.0
 70
     8
 71
     3
 72
    12
 73
     8
 74
     0
 42
0.0000000001
 43
0.0000000001
 40
0.0
 40
0.0
 40
0.0
 40
0.0
 40
0.5291873365799077
 40
1.058358312762168
 40
2.09075310595325
 40
3.131233459642417
 40
4.164552594537133
 40
4.164552594537133
 40
4.164552594537133
 40
4.164552594537133
 10
3223.133876682135
 20
-171.7623380176506
 30
0.0000000001127424
 10
3223.133318800302
 20
-171.5860042644645
 30
0.0000000001127424
 10
3223.102110505497
 20
-171.2331552224246
 30
0.0000000001127424
 10
3222.92183956991
 20
-170.5574567795593
 30
0.0000000001127424
 10
3222.486760171099
 20
-169.7921628891659
 30
0.0000000001127424
 10
3221.686671172662
 20
-169.1099018582122
 30
0.0000000001127424
 10
3221.027601413032
 20
-168.8671813627211
 30
0.0000000001127424
 10
3220.688218930203
 20
-168.8082843402385
 30
0.0000000001127424
  0
SPLINE
  5
1AD3A
330
18
100
AcDbEntity
  8
01
100
AcDbSpline
210
0.0
220
0.0
230
1.0
 70
    12
 71
     2
 72
     6
 73
     3
 74
     0
 42
0.0000000001
 43
0.0000000001
 40
0.0
 40
0.0
 40
0.0
 40
0.369110694773972
 40
0.369110694773972
 40
0.369110694773972
 10
3118.031296914221
 20
-195.6095425787194
 30
0.0000000001127424
 41
1.0
 10
3118.193287915363
 20
-195.521094593968
 30
0.0000000001127424
 41
0.999923947476595
 10
3118.357411105149
 20
-195.4366688334908
 30
0.0000000001127424
 41
1.0
  0
SPLINE
  5
1AD3B
330
18
100
AcDbEntity
  8
1DIM
100
AcDbSpline
210
0.0
220
0.0
230
1.0
 70
    12
 71
     3
 72
    11
 73
     7
 74
     0
 42
0.0000000001
 43
0.0000000001
 40
0.0
 40
0.0
 40
0.0
 40
0.0
 40
0.387300121258695
 40
0.774601371343038
 40
1.161903750253026
 40
1.549207257988663
 40
1.549207257988663
 40
1.549207257988663
 40
1.549207257988663
 10
3125.010985662722
 20
-193.7648230852287
 30
0.0000000001127424
 41
1.0
 10
3125.020343826149
 20
-193.7648230717718
 30
0.0000000001127424
 41
1.0
 10
3125.039265033214
 20
-193.7127840440171
 30
0.0000000001127424
 41
1.0
 10
3125.06318084035
 20
-193.4902355660643
 30
0.0000000001127424
 41
1.0
 10
3125.079193549086
 20
-193.1578502446064
 30
0.0000000001127424
 41
1.0
 10
3125.082937696846
 20
-192.8948832914502
 30
0.0000000001127424
 41
1.0
 10
3125.082937827784
 20
-192.7648230852296
 30
0.0000000001127424
 41
1.0
  0
SPLINE
  5
1AD3C
330
18
100
AcDbEntity
  8
01
100
AcDbSpline
210
0.0
220
0.0
230
1.0
 70
    12
 71
     2
 72
     6
 73
     3
 74
     0
 42
0.0000000001
 43
0.0000000001
 40
0.0
 40
0.0
 40
0.0
 40
0.007138031304071
 40
0.007138031304071
 40
0.007138031304071
 10
3110.244693075805
 20
-208.7648230852274
 30
0.0000000001127424
 41
1.0
 10
3110.248620326715
 20
-208.7657078604809
 30
0.0000000001127424
 41
0.8382136699038237
 10
3110.249402781043
 20
-208.7696567707344
 30
0.0000000001127424
 41
1.0
  0
SPLINE
  5
1AD3D
330
18
100
AcDbEntity
  8
01
100
AcDbSpline
210
0.0
220
0.0
230
1.0
 70
     8
 71
     3
 72
    12
 73
     8
 74
     0
 42
0.0000000001
 43
0.0000000001
 40
0.0
 40
0.0
 40
0.0
 40
0.0
 40
0.5111849013621723
 40
1.026644476853176
 40
2.05934663084465
 40
3.098778676541328
 40
4.156729746798831
 40
4.156729746798831
 40
4.156729746798831
 40
4.156729746798831
 10
3220.755131785926
 20
-193.7212908672877
 30
0.0000000001127424
 10
3220.92293633181
 20
-193.6917974297908
 30
0.0000000001127424
 10
3221.254727831909
 20
-193.6023918835199
 30
0.0000000001127424
 10
3221.878321837316
 20
-193.3095190990352
 30
0.0000000001127424
 10
3222.547003609723
 20
-192.7429276243047
 30
0.0000000001127424
 10
3223.063854762446
 20
-191.8177247829553
 30
0.0000000001127424
 10
3223.181780042661
 20
-191.1187496314933
 30
0.0000000001127424
 10
3223.182374601513
 20
-190.7660309655034
 30
0.0000000001127424
  0
SPLINE
  5
1AD3E
330
18
100
AcDbEntity
  8
01
100
AcDbSpline
210
0.0
220
0.0
230
1.0
 70
     8
 71
     3
 72
    12
 73
     8
 74
     0
 42
0.0000000001
 43
0.0000000001
 40
0.0
 40
0.0
 40
0.0
 40
0.0
 40
0.5895600775692074
 40
1.175079070458731
 40
2.335862545097187
 40
3.491457925643167
 40
4.630605295309014
 40
4.630605295309014
 40
4.630605295309014
 40
4.630605295309014
 10
3223.151817672897
 20
-190.7648230852274
 30
0.0000000001127424
 10
3223.151860699852
 20
-190.9613367450143
 30
0.0000000001127424
 10
3223.114690131739
 20
-191.35303015505
 30
0.0000000001127424
 10
3222.900501964416
 20
-192.1048615714599
 30
0.0000000001127424
 10
3222.372328079023
 20
-192.9379440736107
 30
0.0000000001127424
 10
3221.404426352381
 20
-193.6052398859351
 30
0.0000000001127424
 10
3220.641004818051
 20
-193.764741946904
 30
0.0000000001127424
 10
3220.261047391864
 20
-193.7648230852274
 30
0.0000000001127424
  0
SPLINE
  5
1AD3F
330
18
100
AcDbEntity
  8
1DIM
100
AcDbSpline
210
0.0
220
0.0
230
1.0
 70
    24
 71
     2
 72
     6
 73
     3
 74
     0
 42
0.0000000001
 43
0.0000000001
 40
0.0
 40
0.0
 40
0.0
 40
0.5457116458851203
 40
0.5457116458851203
 40
0.5457116458851203
 10
3223.151817672897
 20
-190.7648230852274
 30
0.0000000001127424
 10
3222.878961849954
 20
-190.7648230852274
 30
0.0000000001127424
 10
3222.606106027011
 20
-190.7648230852274
 30
0.0000000001127424
  0
SPLINE
  5
1AD40
330
18
100
AcDbEntity
  8
1DIM
100
AcDbSpline
210
0.0
220
0.0
230
1.0
 70
     8
 71
     3
 72
    11
 73
     7
 74
     0
 42
0.0000000001
 43
0.0000000001
 40
0.0
 40
0.0
 40
0.0
 40
0.0
 40
8.075106083728844
 40
12.35010583741918
 40
18.28753147962187
 40
19.00006367235522
 40
19.00006367235522
 40
19.00006367235522
 40
19.00006367235522
 10
3223.103391541535
 20
-171.7648230852278
 30
0.0000000001127424
 10
3223.109095212897
 20
-174.4565191083384
 30
0.0000000001127424
 10
3223.118717215959
 20
-178.5732097975765
 30
0.0000000001127424
 10
3223.13477731496
 20
-184.6690326290477
 30
0.0000000001127424
 10
3223.14613824678
 20
-188.3106674933506
 30
0.0000000001127424
 10
3223.152314248997
 20
-190.5273115673854
 30
0.0000000001127424
 10
3223.151817672897
 20
-190.7648230852274
 30
0.0000000001127424
  0
SPLINE
  5
1AD41
330
18
100
AcDbEntity
  8
01
100
AcDbSpline
210
0.0
220
0.0
230
1.0
 70
     8
 71
     3
 72
    12
 73
     8
 74
     0
 42
0.0000000001
 43
0.0000000001
 40
0.0
 40
0.0
 40
0.0
 40
0.0
 40
0.5716989101038484
 40
1.144778075817585
 40
2.299689645033055
 40
3.46660099805731
 40
4.643455868237673
 40
4.643455868237673
 40
4.643455868237673
 40
4.643455868237673
 10
3220.190499158623
 20
-168.7648230852278
 30
0.0000000001127424
 10
3220.381127754428
 20
-168.7648122153919
 30
0.0000000001127424
 10
3220.762506450582
 20
-168.8039619084002
 30
0.0000000001127424
 10
3221.498310647454
 20
-169.0332115790834
 30
0.0000000001127424
 10
3222.307876483124
 20
-169.592963034941
 30
0.0000000001127424
 10
3222.952287215923
 20
-170.5914635966024
 30
0.0000000001127424
 10
3223.102751322778
 20
-171.372546819237
 30
0.0000000001127424
 10
3223.103391541535
 20
-171.7648230852278
 30
0.0000000001127424
  0
SPLINE
  5
1AD42
330
18
100
AcDbEntity
  8
1DIM
100
AcDbSpline
210
0.0
220
0.0
230
1.0
 70
    24
 71
     2
 72
     6
 73
     3
 74
     0
 42
0.0000000001
 43
0.0000000001
 40
0.0
 40
0.0
 40
0.0
 40
0.4972855145229857
 40
0.4972855145229857
 40
0.4972855145229857
 10
3223.103391541535
 20
-171.7648230852278
 30
0.0000000001127424
 10
3222.854748784272
 20
-171.7648230852278
 30
0.0000000001127424
 10
3222.606106027011
 20
-171.7648230852278
 30
0.0000000001127424
  0
SPLINE
  5
1AD43
330
18
100
AcDbEntity
  8
1DIM
100
AcDbSpline
210
0.0
220
0.0
230
1.0
 70
     8
 71
     3
 72
    16
 73
    12
 74
     0
 42
0.0000000001
 43
0.0000000001
 40
0.0
 40
0.0
 40
0.0
 40
0.0
 40
3.287623113604261
 40
4.857458139255537
 40
6.432713596495687
 40
9.595367263512944
 40
12.76217646332091
 40
15.93904179503834
 40
19.11922828401815
 40
22.30180676820332
 40
25.3285604334678
 40
25.3285604334678
 40
25.3285604334678
 40
25.3285604334678
 10
3125.082937827784
 20
-192.7648230852296
 30
0.0000000001127424
 10
3123.987082815282
 20
-192.7648919186613
 30
0.0000000001127424
 10
3122.367879493907
 20
-192.9246335980188
 30
0.0000000001127424
 10
3120.285059419111
 20
-193.4443194704286
 30
0.0000000001127424
 10
3118.301262657548
 20
-194.1484239447213
 30
0.0000000001127424
 10
3115.96002760606
 20
-195.384218837356
 30
0.0000000001127424
 10
3113.488606545
 20
-197.3923308827884
 30
0.0000000001127424
 10
3111.457608384761
 20
-199.8527128663864
 30
0.0000000001127424
 10
3109.952888069676
 20
-202.6722189115453
 30
0.0000000001127424
 10
3109.052435242956
 20
-205.6860586329449
 30
0.0000000001127424
 10
3108.85518008218
 20
-207.7559362594452
 30
0.0000000001127424
 10
3108.855190975139
 20
-208.7648230852274
 30
0.0000000001127424
  0
SPLINE
  5
1AD44
330
18
100
AcDbEntity
  8
1DIM
100
AcDbSpline
210
0.0
220
0.0
230
1.0
 70
    12
 71
     2
 72
     6
 73
     3
 74
     0
 42
0.0000000001
 43
0.0000000001
 40
0.0
 40
0.0
 40
0.0
 40
0.0297549472924744
 40
0.0297549472924744
 40
0.0297549472924744
 10
3223.151817672897
 20
-190.7648230852274
 30
0.0000000001127424
 41
1.0
 10
3223.166698581071
 20
-190.7649206171236
 30
0.0000000001127424
 41
0.9996216322145491
 10
3223.181551608242
 20
-190.7658363269047
 30
0.0000000001127424
 41
1.0
  0
SPLINE
  5
1AD45
330
18
100
AcDbEntity
  8
1DIM
100
AcDbSpline
210
0.0
220
0.0
230
1.0
 70
    12
 71
     3
 72
     8
 73
     4
 74
     0
 42
0.0000000001
 43
0.0000000001
 40
1.17004300987466
 40
1.17004300987466
 40
1.17004300987466
 40
1.17004300987466
 40
1.440051484797951
 40
1.440051484797951
 40
1.440051484797951
 40
1.440051484797951
 10
3223.133004597471
 20
-171.7623403152506
 30
0.0000000001127424
 41
1.0
 10
3223.137045812332
 20
-171.7631469814296
 30
0.0000000001127424
 41
1.0
 10
3223.127034644829
 20
-171.7639883730444
 30
0.0000000001127424
 41
1.0
 10
3223.103391541535
 20
-171.7648230852278
 30
0.0000000001127424
 41
1.0
  0
LINE
  5
1AD46
330
18
100
AcDbEntity
  8
01
100
AcDbLine
 10
3078.705216999405
 20
-171.7648542509601
 30
0.0000000001127424
 11
3078.705736427954
 21
-221.7648230852278
 31
0.0000000001127424
  0
ARC
  5
1AD47
330
18
100
AcDbEntity
  8
01
100
AcDbCircle
 10
3081.705216999243
 20
-171.7648230852278
 30
0.0000000001127424
 40
3.0
100
AcDbArc
 50
90.0
 51
180.0005952216325
  0
LINE
  5
1AD48
330
18
100
AcDbEntity
  8
1DIM
100
AcDbLine
 10
3079.26812349098
 20
-171.7648230852278
 30
0.0000000001127424
 11
3079.26812349098
 21
-221.7648230852278
 31
0.0000000001127424
  0
LINE
  5
1AD49
330
18
100
AcDbEntity
  8
01
100
AcDbLine
 10
3125.249423672291
 20
-193.7648230852287
 30
0.0000000001127424
 11
3220.261047391864
 21
-193.7648230852274
 31
0.0000000001127424
  0
LINE
  5
1AD4A
330
18
100
AcDbEntity
  8
1DIM
100
AcDbLine
 10
3125.082937827784
 20
-192.7648230852287
 30
0.0000000001127424
 11
3219.460106007426
 21
-192.7648230852274
 31
0.0000000001127424
  0
LINE
  5
1AD4B
330
18
100
AcDbEntity
  8
01
100
AcDbLine
 10
3081.705216999243
 20
-168.7648230852278
 30
0.0000000001127424
 11
3220.190499158623
 21
-168.7648230852278
 31
0.0000000001127424
  0
LINE
  5
1AD4C
330
18
100
AcDbEntity
  8
1DIM
100
AcDbLine
 10
3081.097442429229
 20
-169.7648230852278
 30
0.0000000001127424
 11
3219.460106007426
 21
-169.7648230852278
 31
0.0000000001127424
  0
LINE
  5
1AD4D
330
18
100
AcDbEntity
  8
01
100
AcDbLine
 10
3110.249284995142
 20
-221.7648778570046
 30
0.0000000001127424
 11
3110.249423673145
 21
-208.7646630747936
 31
0.0000000001127424
  0
ARC
  5
1AD4E
330
18
100
AcDbEntity
  8
01
100
AcDbCircle
 10
3125.249423672291
 20
-208.7648230852287
 30
0.0000000001127424
 40
15.0
100
AcDbArc
 50
90.0
 51
179.9993888051558
  0
LINE
  5
1AD4F
330
18
100
AcDbEntity
  8
1DIM
100
AcDbLine
 10
3109.95881361337
 20
-208.7648230852274
 30
0.0000000001127424
 11
3109.95881361337
 21
-221.7648230852278
 31
0.0000000001127424
  0
LINE
  5
1AD50
330
18
100
AcDbEntity
  8
1DIM
100
AcDbLine
 10
3108.855190975139
 20
-208.7648230852274
 30
0.0000000001127424
 11
3108.855190975132
 21
-221.7648230852278
 31
0.0000000001127424
  0
LINE
  5
1AD51
330
18
100
AcDbEntity
  8
01
100
AcDbLine
 10
3110.249284995142
 20
-221.7648778570046
 30
0.0000000001127424
 11
3078.705736427954
 21
-221.7648230852278
 31
0.0000000001127424
  0
ARC
  5
1AD52
330
18
100
AcDbEntity
  8
01
100
AcDbCircle
 10
2758.36132123876
 20
-520.7635389003754
 30
0.0000000001127424
 40
25.0
100
AcDbArc
 50
178.9560166473209
 51
148.6861869363679
  0
LINE
  5
1AD53
330
18
100
AcDbEntity
  8
1CENTER
100
AcDbLine
 10
2893.86132123876
 20
-535.7635389003754
 30
0.0000000001127424
 11
2893.86132123876
 21
-527.7635389003754
 31
0.0000000001127424
  0
SPLINE
  5
1AD54
330
18
100
AcDbEntity
  8
01
100
AcDbSpline
210
0.0
220
0.0
230
1.0
 70
     8
 71
     3
 72
    15
 73
    11
 74
     0
 42
0.0000000001
 43
0.0000000001
 40
0.0
 40
0.0
 40
0.0
 40
0.0
 40
0.6222868056437045
 40
1.212800888317622
 40
1.750795334743797
 40
2.231529188748695
 40
2.659610395076924
 40
3.050578671600858
 40
3.420827152730782
 40
3.78139276549608
 40
3.78139276549608
 40
3.78139276549608
 40
3.78139276549608
 10
2849.311341864814
 20
-520.7432939128175
 30
0.0000000001127424
 10
2849.104204650094
 20
-520.7327863230694
 30
0.0000000001127424
 10
2848.701235335384
 20
-520.6945355392763
 30
0.0000000001127424
 10
2848.127994288152
 20
-520.5810676809597
 30
0.0000000001127424
 10
2847.616170710084
 20
-520.4167467907246
 30
0.0000000001127424
 10
2847.181367524916
 20
-520.2047769132232
 30
0.0000000001127424
 10
2846.830121958739
 20
-519.9473209928301
 30
0.0000000001127424
 10
2846.569251776843
 20
-519.6448796013683
 30
0.0000000001127424
 10
2846.405012128886
 20
-519.3049799552455
 30
0.0000000001127424
 10
2846.363976186556
 20
-519.062307543727
 30
0.0000000001127424
 10
2846.361567341229
 20
-518.9421252805114
 30
0.0000000001127424
  0
SPLINE
  5
1AD55
330
18
100
AcDbEntity
  8
01
100
AcDbSpline
210
0.0
220
0.0
230
1.0
 70
     8
 71
     3
 72
    36
 73
    32
 74
     0
 42
0.0000000001
 43
0.0000000001
 40
0.0
 40
0.0
 40
0.0
 40
0.0
 40
1.696786551134609
 40
3.59200332952228
 40
3.971126540003321
 40
4.350156319954064
 40
4.756453048351094
 40
5.149237166659874
 40
7.784766822002605
 40
11.05797552160658
 40
14.42265091567095
 40
17.22525814888614
 40
20.2669984717915
 40
22.63548260950628
 40
26.36769143403482
 40
27.09545429260004
 40
27.83324081915526
 40
28.09362152828868
 40
28.7417789316786
 40
30.22968462403853
 40
32.43253111327638
 40
32.95103304599775
 40
33.12881930680026
 40
33.73565114203546
 40
34.19888400628621
 40
34.57238214775226
 40
34.86745207933652
 40
35.01447058156765
 40
35.3148322374066
 40
35.9384325571505
 40
36.64240424105439
 40
36.64240424105439
 40
36.64240424105439
 40
36.64240424105439
 10
2890.761322526469
 20
-531.2637492586664
 30
0.0000000001127424
 10
2890.195727010338
 20
-531.2637226344368
 30
0.0000000001127424
 10
2888.998392567765
 20
-531.2636614823987
 30
0.0000000001127424
 10
2887.674683721676
 20
-531.2635505712215
 30
0.0000000001127424
 10
2886.790227165157
 20
-531.2635901201911
 30
0.0000000001127424
 10
2886.4020774359
 20
-531.2640942534081
 30
0.0000000001127424
 10
2886.009369048687
 20
-531.262375748156
 30
0.0000000001127424
 10
2884.864652955837
 20
-531.2426415239806
 30
0.0000000001127424
 10
2882.766782190093
 20
-531.1058285673198
 30
0.0000000001127424
 10
2879.709499632209
 20
-530.625113772323
 30
0.0000000001127424
 10
2876.658353414048
 20
-529.8414551773267
 30
0.0000000001127424
 10
2873.753051594001
 20
-528.8453669286191
 30
0.0000000001127424
 10
2871.223263807483
 20
-527.7960809175893
 30
0.0000000001127424
 10
2868.458139380571
 20
-526.5145652694437
 30
0.0000000001127424
 10
2866.416354902387
 20
-525.5082369248139
 30
0.0000000001127424
 10
2864.853675358318
 20
-524.7600384633079
 30
0.0000000001127424
 10
2864.332758432959
 20
-524.5158206025981
 30
0.0000000001127424
 10
2863.836687553323
 20
-524.281171582269
 30
0.0000000001127424
 10
2863.11788623149
 20
-523.9326182458308
 30
0.0000000001127424
 10
2861.832558148366
 20
-523.2691363110707
 30
0.0000000001127424
 10
2860.606543880492
 20
-522.5865344351223
 30
0.0000000001127424
 10
2859.756517180875
 20
-522.1268573553771
 30
0.0000000001127424
 10
2859.371812085343
 20
-521.9251421678091
 30
0.0000000001127424
 10
2858.997221670978
 20
-521.7440482523334
 30
0.0000000001127424
 10
2858.55853753367
 20
-521.546354753601
 30
0.0000000001127424
 10
2858.210344586241
 20
-521.400942886291
 30
0.0000000001127424
 10
2857.958991940898
 20
-521.2974505383108
 30
0.0000000001127424
 10
2857.72899237006
 20
-521.2060419555137
 30
0.0000000001127424
 10
2857.394107080545
 20
-521.0820999884545
 30
0.0000000001127424
 10
2856.873265545889
 20
-520.9283679106356
 30
0.0000000001127424
 10
2856.44164020731
 20
-520.8301104727516
 30
0.0000000001127424
 10
2856.211477646382
 20
-520.784316421531
 30
0.0000000001127424
  0
SPLINE
  5
1AD56
330
18
100
AcDbEntity
  8
1DIM
100
AcDbSpline
210
0.0
220
0.0
230
1.0
 70
    24
 71
     2
 72
     6
 73
     3
 74
     0
 42
0.0000000001
 43
0.0000000001
 40
0.0
 40
0.0
 40
0.0
 40
1.346591553408558
 40
1.346591553408558
 40
1.346591553408558
 10
2849.36132123876
 20
-518.1630084722156
 30
0.0000000001127424
 10
2849.36132123876
 20
-517.4897126955111
 30
0.0000000001127424
 10
2849.36132123876
 20
-516.8164169188067
 30
0.0000000001127424
  0
SPLINE
  5
1AD57
330
18
100
AcDbEntity
  8
01
100
AcDbSpline
210
0.0
220
0.0
230
1.0
 70
    24
 71
     2
 72
     6
 73
     3
 74
     0
 42
0.0000000001
 43
0.0000000001
 40
0.0
 40
0.0
 40
0.0
 40
0.0058229765651419
 40
0.0058229765651419
 40
0.0058229765651419
 10
2886.36132123876
 20
-508.2934422453691
 30
0.0000000001127424
 10
2886.36132123876
 20
-508.2905307570863
 30
0.0000000001127424
 10
2886.36132123876
 20
-508.2876192688036
 30
0.0000000001127424
  0
SPLINE
  5
1AD58
330
18
100
AcDbEntity
  8
1DIM
100
AcDbSpline
210
0.0
220
0.0
230
1.0
 70
    12
 71
     3
 72
    10
 73
     6
 74
     0
 42
0.0000000001
 43
0.0000000001
 40
0.0
 40
0.0
 40
0.0
 40
0.0
 40
1.571297969298821
 40
1.571297969298821
 40
3.141905326318323
 40
3.141905326318323
 40
3.141905326318323
 40
3.141905326318323
 10
2849.36132123876
 20
-516.8164169188067
 30
0.0000000001127424
 41
1.0
 10
2848.81919848026
 20
-516.8164169188067
 30
0.0000000001127424
 41
1.0
 10
2848.306734885819
 20
-516.7186450959643
 30
0.0000000001127424
 41
1.0
 10
2847.564223084462
 20
-516.3895712763342
 30
0.0000000001127424
 41
1.0
 10
2847.36132123876
 20
-516.1718867301433
 30
0.0000000001127424
 41
1.0
 10
2847.36132123876
 20
-515.9526740472147
 30
0.0000000001127424
 41
1.0
  0
SPLINE
  5
1AD59
330
18
100
AcDbEntity
  8
1DIM
100
AcDbSpline
210
0.0
220
0.0
230
1.0
 70
    12
 71
     3
 72
    10
 73
     6
 74
     0
 42
0.0000000001
 43
0.0000000001
 40
-3.141481927302786
 40
-3.141481927302786
 40
-3.141481927302786
 40
-3.141481927302786
 40
-1.570537743744568
 40
-1.570537743744568
 40
0.0
 40
0.0
 40
0.0
 40
0.0
 10
2847.36132123876
 20
-503.4798131715552
 30
0.0000000001127424
 41
1.0
 10
2847.36132123876
 20
-503.3557557215454
 30
0.0000000001127424
 41
1.0
 10
2847.57371898332
 20
-503.2352549679408
 30
0.0000000001127424
 41
1.0
 10
2848.324619458498
 20
-503.056707816655
 30
0.0000000001127424
 41
1.0
 10
2848.832812372514
 20
-503.0061439334722
 30
0.0000000001127424
 41
1.0
 10
2849.36132123876
 20
-503.0061439334722
 30
0.0000000001127424
 41
1.0
  0
SPLINE
  5
1AD5A
330
18
100
AcDbEntity
  8
1DIM
100
AcDbSpline
210
0.0
220
0.0
230
1.0
 70
    12
 71
     3
 72
    10
 73
     6
 74
     0
 42
0.0000000001
 43
0.0000000001
 40
-3.141482150580023
 40
-3.141482150580023
 40
-3.141482150580023
 40
-3.141482150580023
 40
-1.570735933109509
 40
-1.570735933109509
 40
0.0
 40
0.0
 40
0.0
 40
0.0
 10
2868.36132123876
 20
-503.0061439334722
 30
0.0000000001127424
 41
1.0
 10
2868.889967312399
 20
-503.0061439334722
 30
0.0000000001127424
 41
1.0
 10
2869.397991351364
 20
-503.0567259378386
 30
0.0000000001127424
 41
1.0
 10
2870.149005402491
 20
-503.2352489856194
 30
0.0000000001127424
 41
1.0
 10
2870.36132123876
 20
-503.3557866688316
 30
0.0000000001127424
 41
1.0
 10
2870.36132123876
 20
-503.4798131715543
 30
0.0000000001127424
 41
1.0
  0
SPLINE
  5
1AD5B
330
18
100
AcDbEntity
  8
1DIM
100
AcDbSpline
210
0.0
220
0.0
230
1.0
 70
    12
 71
     3
 72
    11
 73
     7
 74
     0
 42
0.0000000001
 43
0.0000000001
 40
0.1291781185150633
 40
0.1291781185150633
 40
0.1291781185150633
 40
0.1291781185150633
 40
0.259657469927002
 40
0.519315873322226
 40
0.778975210185676
 40
1.038635480517348
 40
1.038635480517348
 40
1.038635480517348
 40
1.038635480517348
 10
2849.311347023257
 20
-520.7432941519764
 30
0.0000000001127424
 41
1.0
 10
2849.312669936841
 20
-520.7433489889918
 30
0.0000000001127424
 41
1.0
 10
2849.317255211449
 20
-520.7310310401435
 30
0.0000000001127424
 41
1.0
 10
2849.32775052781
 20
-520.6480313906923
 30
0.0000000001127424
 41
1.0
 10
2849.343648315428
 20
-520.4592931969255
 30
0.0000000001127424
 41
1.0
 10
2849.355458070675
 20
-520.2855128897409
 30
0.0000000001127424
 41
1.0
 10
2849.36132123876
 20
-520.1917792245304
 30
0.0000000001127424
 41
1.0
  0
SPLINE
  5
1AD5C
330
18
100
AcDbEntity
  8
01
100
AcDbSpline
210
0.0
220
0.0
230
1.0
 70
     8
 71
     3
 72
    13
 73
     9
 74
     0
 42
0.0000000001
 43
0.0000000001
 40
0.0
 40
0.0
 40
0.0
 40
0.0
 40
6.717803450733459
 40
8.904972642548705
 40
14.84387684483403
 40
18.28435324959698
 40
25.00631938378085
 40
34.62964373206781
 40
34.62964373206781
 40
34.62964373206781
 40
34.62964373206781
 10
2899.36132123876
 20
-520.9293880794348
 30
0.0000000001127424
 10
2897.122054466917
 20
-520.9272281196454
 30
0.0000000001127424
 10
2894.153729835389
 20
-520.9263139401082
 30
0.0000000001127424
 10
2889.205771584201
 20
-520.9263195863996
 30
0.0000000001127424
 10
2885.35025492959
 20
-520.9321300908778
 30
0.0000000001127424
 10
2879.983142006411
 20
-520.9236718709144
 30
0.0000000001127424
 10
2873.387948041339
 20
-520.8931698579163
 30
0.0000000001127424
 10
2867.939648387789
 20
-520.8554788157999
 30
0.0000000001127424
 10
2864.731945098617
 20
-520.8340087070746
 30
0.0000000001127424
  0
SPLINE
  5
1AD5D
330
18
100
AcDbEntity
  8
01
100
AcDbSpline
210
0.0
220
0.0
230
1.0
 70
     8
 71
     3
 72
    21
 73
    17
 74
     0
 42
0.0000000001
 43
0.0000000001
 40
0.0
 40
0.0
 40
0.0
 40
0.0
 40
0.0088674866113487
 40
0.0339590144041557
 40
0.1282324451540133
 40
0.3622737654680834
 40
0.7589889420097802
 40
1.571178268572815
 40
3.139132054637454
 40
4.711870194729335
 40
5.53054919304717
 40
5.962609018958645
 40
6.188600006461851
 40
6.264834142252703
 40
6.290652285555344
 40
6.300146272247191
 40
6.300146272247191
 40
6.300146272247191
 40
6.300146272247191
 10
2896.96132123876
 20
-531.2635401121952
 30
0.0000000001127424
 10
2896.958748319612
 20
-531.2620879183278
 30
0.0000000001127424
 10
2896.948045314961
 20
-531.2583396477521
 30
0.0000000001127424
 10
2896.907434812096
 20
-531.2450340498626
 30
0.0000000001127424
 10
2896.794678089166
 20
-531.2108848689413
 30
0.0000000001127424
 10
2896.562212648727
 20
-531.1447674562432
 30
0.0000000001127424
 10
2896.096045095789
 20
-531.0260356451481
 30
0.0000000001127424
 10
2895.187658757764
 20
-530.8451410949228
 30
0.0000000001127424
 10
2893.870496362232
 20
-530.7357341126999
 30
0.0000000001127424
 10
2892.550488922373
 20
-530.8404378347996
 30
0.0000000001127424
 10
2891.626609276903
 20
-531.022528089492
 30
0.0000000001127424
 10
2891.149609650731
 20
-531.1447511525503
 30
0.0000000001127424
 10
2890.914561808122
 20
-531.2129656198449
 30
0.0000000001127424
 10
2890.810139079976
 20
-531.2454894696357
 30
0.0000000001127424
 10
2890.77499055608
 20
-531.2575694732286
 30
0.0000000001127424
 10
2890.763936653246
 20
-531.2617242236338
 30
0.0000000001127424
 10
2890.761322536402
 20
-531.2635126438017
 30
0.0000000001127424
  0
SPLINE
  5
1AD5E
330
18
100
AcDbEntity
  8
01
100
AcDbSpline
210
0.0
220
0.0
230
1.0
 70
     8
 71
     3
 72
    13
 73
     9
 74
     0
 42
0.0000000001
 43
0.0000000001
 40
0.0
 40
0.0
 40
0.0
 40
0.0
 40
4.060478403625843
 40
7.540840741308843
 40
14.04401323678387
 40
14.93174675994998
 40
15.17147193066558
 40
15.42003176017969
 40
15.42003176017969
 40
15.42003176017969
 40
15.42003176017969
 10
2864.731945098045
 20
-520.8340087128099
 30
0.0000000001127424
 10
2863.378481829976
 20
-520.8250875050089
 30
0.0000000001127424
 10
2860.864919641368
 20
-520.8089397507056
 30
0.0000000001127424
 10
2856.183650254643
 20
-520.7835777403861
 30
0.0000000001127424
 10
2852.559932604815
 20
-520.766817636516
 30
0.0000000001127424
 10
2850.016402759011
 20
-520.7581063756088
 30
0.0000000001127424
 10
2849.557739657455
 20
-520.7552026488147
 30
0.0000000001127424
 10
2849.395101692374
 20
-520.74687529725
 30
0.0000000001127424
 10
2849.312352787255
 20
-520.743345529333
 30
0.0000000001127424
  0
SPLINE
  5
1AD5F
330
18
100
AcDbEntity
  8
01
100
AcDbSpline
210
0.0
220
0.0
230
1.0
 70
     8
 71
     3
 72
    14
 73
    10
 74
     0
 42
0.0000000001
 43
0.0000000001
 40
0.0
 40
0.0
 40
0.0
 40
0.0
 40
0.0091872137044612
 40
0.0383245640747183
 40
0.3078465925485011
 40
0.4854203881234601
 40
0.8516636087305589
 40
1.646107031191731
 40
3.140047443899198
 40
3.140047443899198
 40
3.140047443899198
 40
3.140047443899198
 10
2890.761942904426
 20
-531.263738104637
 30
0.0000000001127424
 10
2890.76499115042
 20
-531.2634504402868
 30
0.0000000001127424
 10
2890.777521883303
 20
-531.2608957728053
 30
0.0000000001127424
 10
2890.876987595858
 20
-531.2356848897762
 30
0.0000000001127424
 10
2891.030493622232
 20
-531.195194792118
 30
0.0000000001127424
 10
2891.29380293354
 20
-531.1306171234974
 30
0.0000000001127424
 10
2891.728997374169
 20
-531.0324301824612
 30
0.0000000001127424
 10
2892.600748303134
 20
-530.8778174928821
 30
0.0000000001127424
 10
2893.363320664113
 20
-530.8219474407815
 30
0.0000000001127424
 10
2893.86132123876
 20
-530.8213655710506
 30
0.0000000001127424
  0
SPLINE
  5
1AD60
330
18
100
AcDbEntity
  8
01
100
AcDbSpline
210
0.0
220
0.0
230
1.0
 70
     8
 71
     3
 72
    15
 73
    11
 74
     0
 42
0.0000000001
 43
0.0000000001
 40
0.0
 40
0.0
 40
0.0
 40
0.0
 40
0.6595620511759812
 40
1.273080110757987
 40
1.800226095661122
 40
2.239657784054672
 40
2.610061550609274
 40
2.950874859090943
 40
3.282771685370556
 40
3.607654512503486
 40
3.607654512503486
 40
3.607654512503486
 40
3.607654512503486
 10
2868.36132123876
 20
-502.9766345853641
 30
0.0000000001127424
 10
2868.581179837753
 20
-502.9768146114211
 30
0.0000000001127424
 10
2869.005532499135
 20
-502.9915403819059
 30
0.0000000001127424
 10
2869.602528734908
 20
-503.0571706267519
 30
0.0000000001127424
 10
2870.119280434786
 20
-503.1625096820171
 30
0.0000000001127424
 10
2870.542357382144
 20
-503.3067598854213
 30
0.0000000001127424
 10
2870.877231409622
 20
-503.49854266088
 30
0.0000000001127424
 10
2871.129036677603
 20
-503.742891722447
 30
0.0000000001127424
 10
2871.296908168321
 20
-504.0338117759429
 30
0.0000000001127424
 10
2871.347759302064
 20
-504.2492495365832
 30
0.0000000001127424
 10
2871.357178216188
 20
-504.3570918132145
 30
0.0000000001127424
  0
SPLINE
  5
1AD61
330
18
100
AcDbEntity
  8
1DIM
100
AcDbSpline
210
0.0
220
0.0
230
1.0
 70
     8
 71
     3
 72
    15
 73
    11
 74
     0
 42
0.0000000001
 43
0.0000000001
 40
0.0
 40
0.0
 40
0.0
 40
0.0
 40
0.6071589673912928
 40
1.149083632808507
 40
1.679303763699259
 40
2.14477816447659
 40
2.573522303226269
 40
2.922507230073605
 40
3.230205425110707
 40
3.462370507103425
 40
3.462370507103425
 40
3.462370507103425
 40
3.462370507103425
 10
2849.36132123876
 20
-520.1917792245304
 30
0.0000000001127424
 10
2849.159059301079
 20
-520.1849586741928
 30
0.0000000001127424
 10
2848.776697071818
 20
-520.1575282087006
 30
0.0000000001127424
 10
2848.222732714317
 20
-520.0744667348044
 30
0.0000000001127424
 10
2847.723613793353
 20
-519.955294139274
 30
0.0000000001127424
 10
2847.27449495186
 20
-519.7993605108577
 30
0.0000000001127424
 10
2846.901739868655
 20
-519.6156224194137
 30
0.0000000001127424
 10
2846.607278802597
 20
-519.4028662506889
 30
0.0000000001127424
 10
2846.414403896788
 20
-519.1727704682044
 30
0.0000000001127424
 10
2846.360932257918
 20
-518.9959607167884
 30
0.0000000001127424
 10
2846.36132123876
 20
-518.9182550972955
 30
0.0000000001127424
  0
SPLINE
  5
1AD62
330
18
100
AcDbEntity
  8
01
100
AcDbSpline
210
0.0
220
0.0
230
1.0
 70
     8
 71
     3
 72
    14
 73
    10
 74
     0
 42
0.0000000001
 43
0.0000000001
 40
0.0
 40
0.0
 40
0.0
 40
0.0
 40
1.282823931628897
 40
2.005515295685142
 40
4.11714625838727
 40
5.436308582568336
 40
7.907563554594302
 40
10.79230428128082
 40
13.6032695608393
 40
13.6032695608393
 40
13.6032695608393
 40
13.6032695608393
 10
2872.769255136454
 20
-507.7876063385638
 30
0.0000000001127424
 10
2873.196564486463
 20
-507.8036839164397
 30
0.0000000001127424
 10
2873.864297593085
 20
-507.8360979995587
 30
0.0000000001127424
 10
2875.234640839316
 20
-507.9108224521879
 30
0.0000000001127424
 10
2876.616864264272
 20
-507.9901826927689
 30
0.0000000001127424
 10
2878.581524265946
 20
-508.0931124752969
 30
0.0000000001127424
 10
2880.804440215603
 20
-508.1915226164119
 30
0.0000000001127424
 10
2883.525764148091
 20
-508.2694008355475
 30
0.0000000001127424
 10
2885.424333031432
 20
-508.2875615064413
 30
0.0000000001127424
 10
2886.36132123876
 20
-508.2876371469256
 30
0.0000000001127424
  0
SPLINE
  5
1AD63
330
18
100
AcDbEntity
  8
1DIM
100
AcDbSpline
210
0.0
220
0.0
230
1.0
 70
     8
 71
     3
 72
    15
 73
    11
 74
     0
 42
0.0000000001
 43
0.0000000001
 40
0.0
 40
0.0
 40
0.0
 40
0.0
 40
0.2664968585934446
 40
0.5623603712843669
 40
0.9129008297894409
 40
1.334841718023351
 40
1.818044707283044
 40
2.368235774188814
 40
2.903937494029293
 40
3.507882265757476
 40
3.507882265757476
 40
3.507882265757476
 40
3.507882265757476
 10
2846.36132123876
 20
-516.8616836566935
 30
0.0000000001127424
 10
2846.361020444834
 20
-516.9506725088168
 30
0.0000000001127424
 10
2846.410201652276
 20
-517.1364089827512
 30
0.0000000001127424
 10
2846.596307015712
 20
-517.3820070690517
 30
0.0000000001127424
 10
2846.879169881111
 20
-517.6015685729844
 30
0.0000000001127424
 10
2847.25213254612
 20
-517.794374315894
 30
0.0000000001127424
 10
2847.710611599092
 20
-517.9556381855637
 30
0.0000000001127424
 10
2848.221132045125
 20
-518.0726631618463
 30
0.0000000001127424
 10
2848.780120170278
 20
-518.1460522713423
 30
0.0000000001127424
 10
2849.16000829489
 20
-518.1629165257427
 30
0.0000000001127424
 10
2849.36132123876
 20
-518.1630084722156
 30
0.0000000001127424
  0
SPLINE
  5
1AD64
330
18
100
AcDbEntity
  8
1DIM
100
AcDbSpline
210
0.0
220
0.0
230
1.0
 70
     8
 71
     3
 72
    21
 73
    17
 74
     0
 42
0.0000000001
 43
0.0000000001
 40
0.0
 40
0.0
 40
0.0
 40
0.0
 40
0.2342510522596335
 40
0.4578586860712771
 40
0.8009013008541686
 40
1.269307061957955
 40
2.539024656620398
 40
5.781425383895149
 40
11.25041668385506
 40
16.56317569577142
 40
26.87615458145929
 40
31.71999047187779
 40
35.15753283236111
 40
40.93912908564933
 40
43.28297544863316
 40
50.00079549441727
 40
50.00079549441727
 40
50.00079549441727
 40
50.00079549441727
 10
2849.36132123876
 20
-520.1917792245304
 30
0.0000000001127424
 10
2849.439306057344
 20
-520.1956363068675
 30
0.0000000001127424
 10
2849.591817827
 20
-520.2018527270338
 30
0.0000000001127424
 10
2849.858771134225
 20
-520.2054748994397
 30
0.0000000001127424
 10
2850.203794429661
 20
-520.2050308743374
 30
0.0000000001127424
 10
2850.897505022108
 20
-520.2091483814838
 30
0.0000000001127424
 10
2852.557673491108
 20
-520.2140148992157
 30
0.0000000001127424
 10
2855.884673466592
 20
-520.2298170644008
 30
0.0000000001127424
 10
2860.559329941389
 20
-520.2535148528414
 30
0.0000000001127424
 10
2867.590760230072
 20
-520.2992958261984
 30
0.0000000001127424
 10
2874.41374581213
 20
-520.3523208149227
 30
0.0000000001127424
 10
2880.611760400096
 20
-520.3891620317718
 30
0.0000000001127424
 10
2885.29941300415
 20
-520.4005376068126
 30
0.0000000001127424
 10
2889.153740915141
 20
-520.3920897563885
 30
0.0000000001127424
 10
2894.10149465517
 20
-520.3913624773359
 30
0.0000000001127424
 10
2897.122049997764
 20
-520.3933630189376
 30
0.0000000001127424
 10
2899.361321238702
 20
-520.3964975387325
 30
0.0000000001127424
  0
SPLINE
  5
1AD65
330
18
100
AcDbEntity
  8
01
100
AcDbSpline
210
0.0
220
0.0
230
1.0
 70
     8
 71
     3
 72
    15
 73
    11
 74
     0
 42
0.0000000001
 43
0.0000000001
 40
0.0
 40
0.0
 40
0.0
 40
0.0
 40
0.7280659173366757
 40
1.652411027436443
 40
2.524176432268789
 40
3.051262591748868
 40
5.181999290983316
 40
6.503638419914751
 40
9.230642464869826
 40
14.69036315411575
 40
14.69036315411575
 40
14.69036315411575
 40
14.69036315411575
 10
2871.682745668999
 20
-507.7635443720001
 30
0.0000000001127424
 10
2871.925440901906
 20
-507.763755826536
 30
0.0000000001127424
 10
2872.47617266905
 20
-507.7752698396735
 30
0.0000000001127424
 10
2873.316842708614
 20
-507.8106651382741
 30
0.0000000001127424
 10
2874.090208138427
 20
-507.8507138801988
 30
0.0000000001127424
 10
2875.264930717027
 20
-507.9158787576189
 30
0.0000000001127424
 10
2876.589198638931
 20
-507.992666975344
 30
0.0000000001127424
 10
2878.646122783539
 20
-508.1014020639095
 30
0.0000000001127424
 10
2881.812571232907
 20
-508.2411981709129
 30
0.0000000001127424
 10
2884.541398415233
 20
-508.2936664422386
 30
0.0000000001127424
 10
2886.36132123876
 20
-508.2934422453691
 30
0.0000000001127424
  0
SPLINE
  5
1AD66
330
18
100
AcDbEntity
  8
1DIM
100
AcDbSpline
210
0.0
220
0.0
230
1.0
 70
    12
 71
     3
 72
    11
 73
     7
 74
     0
 42
0.0000000001
 43
0.0000000001
 40
-1.560722450960551
 40
-1.560722450960551
 40
-1.560722450960551
 40
-1.560722450960551
 40
-1.170541855252173
 40
-0.780361248189288
 40
-0.390180629771897
 40
0.0
 40
0.0
 40
0.0
 40
0.0
 10
2871.36132123876
 20
-504.4520732064448
 30
0.0000000001127424
 41
1.0
 10
2871.36132123876
 20
-504.3256208575849
 30
0.0000000001127424
 41
1.0
 10
2871.309282460335
 20
-504.0699479609066
 30
0.0000000001127424
 41
1.0
 10
2871.086734146333
 20
-503.7467832200336
 30
0.0000000001127424
 41
1.0
 10
2870.754349049793
 20
-503.5304083915908
 30
0.0000000001127424
 41
1.0
 10
2870.491381453437
 20
-503.4798131715543
 30
0.0000000001127424
 41
1.0
 10
2870.36132123876
 20
-503.4798131715543
 30
0.0000000001127424
 41
1.0
  0
SPLINE
  5
1AD67
330
18
100
AcDbEntity
  8
1DIM
100
AcDbSpline
210
0.0
220
0.0
230
1.0
 70
    12
 71
     3
 72
    11
 73
     7
 74
     0
 42
0.0000000001
 43
0.0000000001
 40
-1.55754834089282
 40
-1.55754834089282
 40
-1.55754834089282
 40
-1.55754834089282
 40
-1.168169991065367
 40
-0.77878581764075
 40
-0.389395820618958
 40
0.0
 40
0.0
 40
0.0
 40
0.0
 10
2847.36132123876
 20
-503.4798131715552
 30
0.0000000001127424
 41
1.0
 10
2847.231261024083
 20
-503.4798131715552
 30
0.0000000001127424
 41
1.0
 10
2846.968290178135
 20
-503.5304095481579
 30
0.0000000001127424
 41
1.0
 10
2846.635906322613
 20
-503.7467851729198
 30
0.0000000001127424
 41
1.0
 10
2846.413358827665
 20
-504.0699511202401
 30
0.0000000001127424
 41
1.0
 10
2846.36132123876
 20
-504.3256208575849
 30
0.0000000001127424
 41
1.0
 10
2846.36132123876
 20
-504.4520732064448
 30
0.0000000001127424
 41
1.0
  0
SPLINE
  5
1AD68
330
18
100
AcDbEntity
  8
1DIM
100
AcDbSpline
210
0.0
220
0.0
230
1.0
 70
    12
 71
     3
 72
    11
 73
     7
 74
     0
 42
0.0000000001
 43
0.0000000001
 40
-1.560722598654269
 40
-1.560722598654269
 40
-1.560722598654269
 40
-1.560722598654269
 40
-1.170542037868789
 40
-0.78036141783125
 40
-0.390180738541654
 40
0.0
 40
0.0
 40
0.0
 40
0.0
 10
2847.36132123876
 20
-515.9526740472147
 30
0.0000000001127424
 41
1.0
 10
2847.231261024083
 20
-515.9526740472147
 30
0.0000000001127424
 41
1.0
 10
2846.968293388486
 20
-515.9999778057272
 30
0.0000000001127424
 41
1.0
 10
2846.635908306932
 20
-516.2022763678278
 30
0.0000000001127424
 41
1.0
 10
2846.413360002821
 20
-516.5044176238707
 30
0.0000000001127424
 41
1.0
 10
2846.36132123876
 20
-516.7434576717415
 30
0.0000000001127424
 41
1.0
 10
2846.36132123876
 20
-516.8616836566935
 30
0.0000000001127424
 41
1.0
  0
SPLINE
  5
1AD69
330
18
100
AcDbEntity
  8
1DIM
100
AcDbSpline
210
0.0
220
0.0
230
1.0
 70
    24
 71
     2
 72
     6
 73
     3
 74
     0
 42
0.0000000001
 43
0.0000000001
 40
0.0
 40
0.0
 40
0.0
 40
2.028770752315268
 40
2.028770752315268
 40
2.028770752315268
 10
2849.36132123876
 20
-520.1917792245304
 30
0.0000000001127424
 10
2849.36132123876
 20
-519.177393848373
 30
0.0000000001127424
 10
2849.36132123876
 20
-518.1630084722156
 30
0.0000000001127424
  0
SPLINE
  5
1AD6A
330
18
100
AcDbEntity
  8
01
100
AcDbSpline
210
0.0
220
0.0
230
1.0
 70
     8
 71
     3
 72
    16
 73
    12
 74
     0
 42
0.0000000001
 43
0.0000000001
 40
0.0
 40
0.0
 40
0.0
 40
0.0
 40
0.3898283346503426
 40
0.7600233656508065
 40
1.544544436719077
 40
2.328519672526098
 40
2.685462852151824
 40
2.857341260876178
 40
3.103784862347758
 40
3.127564983665102
 40
3.13969444417036
 40
3.13969444417036
 40
3.13969444417036
 40
3.13969444417036
 10
2893.86132123876
 20
-530.8213655710506
 30
0.0000000001127424
 10
2893.991264610099
 20
-530.8212649280094
 30
0.0000000001127424
 10
2894.244607602545
 20
-530.8257857676581
 30
0.0000000001127424
 10
2894.758808044453
 20
-530.8530707559185
 30
0.0000000001127424
 10
2895.401778600249
 20
-530.9221266620543
 30
0.0000000001127424
 10
2896.033708209078
 20
-531.0365348615705
 30
0.0000000001127424
 10
2896.460199679775
 20
-531.1346209507237
 30
0.0000000001127424
 10
2896.710851275417
 20
-531.1975728288999
 30
0.0000000001127424
 10
2896.853189047248
 20
-531.235743017779
 30
0.0000000001127424
 10
2896.944120132683
 20
-531.2600287467922
 30
0.0000000001127424
 10
2896.955796786905
 20
-531.2626895154608
 30
0.0000000001127424
 10
2896.959757343306
 20
-531.2634889346991
 30
0.0000000001127424
  0
SPLINE
  5
1AD6B
330
18
100
AcDbEntity
  8
01
100
AcDbSpline
210
0.0
220
0.0
230
1.0
 70
     8
 71
     3
 72
    15
 73
    11
 74
     0
 42
0.0000000001
 43
0.0000000001
 40
0.0
 40
0.0
 40
0.0
 40
0.0
 40
0.3254685997674608
 40
0.6564015245239315
 40
0.9967805247958071
 40
1.366908275671476
 40
1.806543459746079
 40
2.334345484391743
 40
2.946884271166248
 40
3.601913059116526
 40
3.601913059116526
 40
3.601913059116526
 40
3.601913059116526
 10
2846.365999890637
 20
-504.3513715266627
 30
0.0000000001127424
 10
2846.375998372157
 20
-504.2433912786137
 30
0.0000000001127424
 10
2846.42793577809
 20
-504.028326482131
 30
0.0000000001127424
 10
2846.597141462754
 20
-503.7385235097026
 30
0.0000000001127424
 10
2846.849482822134
 20
-503.4955891766294
 30
0.0000000001127424
 10
2847.18473611445
 20
-503.3048504041572
 30
0.0000000001127424
 10
2847.608219522617
 20
-503.1612526275712
 30
0.0000000001127424
 10
2848.125034181987
 20
-503.0564426706806
 30
0.0000000001127424
 10
2848.720458020577
 20
-502.9914043360232
 30
0.0000000001127424
 10
2849.142974559053
 20
-502.9768063275242
 30
0.0000000001127424
 10
2849.36132123876
 20
-502.9766345840735
 30
0.0000000001127424
  0
SPLINE
  5
1AD6C
330
18
100
AcDbEntity
  8
01
100
AcDbSpline
210
0.0
220
0.0
230
1.0
 70
    12
 71
     2
 72
     6
 73
     3
 74
     0
 42
0.0000000001
 43
0.0000000001
 40
0.0
 40
0.0
 40
0.0
 40
1.570764043156879
 40
1.570764043156879
 40
1.570764043156879
 10
2846.361321239078
 20
-508.7635388208628
 30
0.0000000001127424
 41
1.0
 10
2846.361370243165
 20
-507.7635878260396
 30
0.0000000001127424
 41
0.7071344649779537
 10
2847.36132123876
 20
-507.7635585308444
 30
0.0000000001127424
 41
1.0
  0
LINE
  5
1AD6D
330
18
100
AcDbEntity
  8
01
100
AcDbLine
 10
2886.36132123876
 20
-508.2934422453691
 30
0.0000000001127424
 11
2899.36132123876
 21
-508.2882676451491
 31
0.0000000001127424
  0
LINE
  5
1AD6E
330
18
100
AcDbEntity
  8
1DIM
100
AcDbLine
 10
2849.36132123876
 20
-516.8164169188067
 30
0.0000000001127424
 11
2899.36132123876
 21
-516.8164169188067
 31
0.0000000001127424
  0
LINE
  5
1AD6F
330
18
100
AcDbEntity
  8
1DIM
100
AcDbLine
 10
2849.36132123876
 20
-518.1630084722256
 30
0.0000000001127424
 11
2899.36132123876
 21
-518.1630084722256
 31
0.0000000001127424
  0
LINE
  5
1AD70
330
18
100
AcDbEntity
  8
1DIM
100
AcDbLine
 10
2847.36132123876
 20
-507.7635585308444
 30
0.0000000001127424
 11
2847.36132123876
 21
-515.9526740472147
 31
0.0000000001127424
  0
LINE
  5
1AD71
330
18
100
AcDbEntity
  8
01
100
AcDbLine
 10
2846.361321239078
 20
-504.4520482691614
 30
0.0000000001127424
 11
2846.361321239078
 21
-518.9221422302635
 31
0.0000000001127424
  0
LINE
  5
1AD72
330
18
100
AcDbEntity
  8
1DIM
100
AcDbLine
 10
2868.36132123876
 20
-503.0061439334722
 30
0.0000000001127424
 11
2849.36132123876
 21
-503.0061439334722
 31
0.0000000001127424
  0
LINE
  5
1AD73
330
18
100
AcDbEntity
  8
01
100
AcDbLine
 10
2849.36132123876
 20
-502.9766345840735
 30
0.0000000001127424
 11
2868.36132123876
 21
-502.9766345853641
 31
0.0000000001127424
  0
LINE
  5
1AD74
330
18
100
AcDbEntity
  8
01
100
AcDbLine
 10
2899.36132123876
 20
-508.2882676451491
 30
0.0000000001127424
 11
2899.36132123876
 21
-531.2635389101997
 31
0.0000000001127424
  0
LINE
  5
1AD75
330
18
100
AcDbEntity
  8
01
100
AcDbLine
 10
2899.36132123876
 20
-531.2635389101997
 30
0.0000000001127424
 11
2896.96132123876
 21
-531.2635401121952
 31
0.0000000001127424
  0
LINE
  5
1AD76
330
18
100
AcDbEntity
  8
01
100
AcDbLine
 10
2847.36132123876
 20
-507.7635585308444
 30
0.0000000001127424
 11
2871.682745668999
 21
-507.7635443720001
 31
0.0000000001127424
  0
LINE
  5
1AD77
330
18
100
AcDbEntity
  8
01
100
AcDbLine
 10
2871.36132123876
 20
-504.4520732064448
 30
0.0000000001127424
 11
2871.36132123876
 21
-507.7635445591186
 31
0.0000000001127424
  0
LINE
  5
1AD78
330
18
100
AcDbEntity
  8
1DIM
100
AcDbLine
 10
2870.36132123876
 20
-503.4798131715543
 30
0.0000000001127424
 11
2870.36132123876
 21
-507.7635451412743
 31
0.0000000001127424
  0
SPLINE
  5
1AD79
330
18
100
AcDbEntity
  8
01
100
AcDbSpline
210
0.0
220
0.0
230
1.0
 70
     8
 71
     3
 72
    20
 73
    16
 74
     0
 42
0.0000000001
 43
0.0000000001
 40
93.49924631334923
 40
93.49924631334923
 40
93.49924631334923
 40
93.49924631334923
 40
93.5004040626248
 40
94.90922125516619
 40
100.252509636164
 40
105.0277894204165
 40
107.3722532703411
 40
109.7653408201528
 40
111.050003967603
 40
112.3729451118797
 40
115.2130757381157
 40
118.2275688514369
 40
119.7351247625095
 40
120.4225456985309
 40
120.577578232493
 40
120.577578232493
 40
120.577578232493
 40
120.577578232493
 10
2726.241374127365
 20
-519.5118375730722
 30
0.0000000001127424
 10
2726.241759819029
 20
-519.5118511605829
 30
0.0000000001127424
 10
2726.711477486691
 20
-519.5284041826794
 30
0.0000000001127424
 10
2728.959782226607
 20
-519.6389313217846
 30
0.0000000001127424
 10
2732.78242028216
 20
-520.093211073448
 30
0.0000000001127424
 10
2736.824647307149
 20
-521.0853490387581
 30
0.0000000001127424
 10
2739.817925438049
 20
-522.1378186439056
 30
0.0000000001127424
 10
2741.667015210783
 20
-522.9210578280222
 30
0.0000000001127424
 10
2743.172409012176
 20
-523.6374133606923
 30
0.0000000001127424
 10
2744.789556943914
 20
-524.463773588845
 30
0.0000000001127424
 10
2746.876941504758
 20
-525.6344474911643
 30
0.0000000001127424
 10
2748.959911596031
 20
-526.933154718166
 30
0.0000000001127424
 10
2750.401702984203
 20
-527.9011807696006
 30
0.0000000001127424
 10
2751.042840116162
 20
-528.3513022847014
 30
0.0000000001127424
 10
2751.270659413909
 20
-528.515488960104
 30
0.0000000001127424
 10
2751.312493440529
 20
-528.5458281953629
 30
0.0000000001127424
  0
ARC
  5
1AD7A
330
18
100
AcDbEntity
  8
01
100
AcDbCircle
 10
2695.737952865184
 20
-260.4146827173176
 30
0.0000000001127424
 40
250.0001215880443
100
AcDbArc
 50
256.0165075160019
 51
277.16227136677
  0
ARC
  5
1AD7B
330
18
100
AcDbEntity
  8
01
100
AcDbCircle
 10
2695.737952865184
 20
-260.4146827173176
 30
0.0000000001127424
 40
254.0001215880443
100
AcDbArc
 50
256.014702943344
 51
277.1575382526088
  0
ARC
  5
1AD7C
330
18
100
AcDbEntity
  8
1DIM
100
AcDbCircle
 10
2695.737952865184
 20
-260.4146827173176
 30
0.0000000001127424
 40
253.0001215880443
100
AcDbArc
 50
255.788237012057
 51
277.1575382526088
  0
ARC
  5
1AD7D
330
18
100
AcDbEntity
  8
01
100
AcDbCircle
 10
2634.594680939073
 20
-505.9153177913126
 30
0.0000000001127424
 40
1.0
100
AcDbArc
 50
165.7882301626339
 51
256.014702943344
  0
ARC
  5
1AD7E
330
18
100
AcDbEntity
  8
1DIM
100
AcDbCircle
 10
2695.737952865184
 20
-260.4146827173176
 30
0.0000000001127424
 40
251.0001215880443
100
AcDbArc
 50
255.788237012057
 51
277.1575382526088
  0
ARC
  5
1AD7F
330
18
100
AcDbEntity
  8
01
100
AcDbCircle
 10
2635.08569785842
 20
-503.9765126492825
 30
0.0000000001127424
 40
1.0
100
AcDbArc
 50
76.0165075160019
 51
165.7882301626339
  0
ARC
  5
1AD80
330
18
100
AcDbEntity
  8
01
100
AcDbCircle
 10
2738.115203413598
 20
-597.7635389001339
 30
0.0000000001127424
 40
89.99999999976632
100
AcDbArc
 50
64.08094572217942
 51
97.16647858248676
  0
ARC
  5
1AD81
330
18
100
AcDbEntity
  8
01
100
AcDbCircle
 10
2738.115203413598
 20
-597.7635389001339
 30
0.0000000001127424
 40
85.99999999976632
100
AcDbArc
 50
64.09574605287462
 51
97.16647858248676
  0
ARC
  5
1AD82
330
18
100
AcDbEntity
  8
01
100
AcDbCircle
 10
2776.122769453832
 20
-519.5048338018728
 30
0.0000000001127424
 40
1.0
100
AcDbArc
 50
244.0957460528746
 51
333.4371593721851
  0
ARC
  5
1AD83
330
18
100
AcDbEntity
  8
1DIM
100
AcDbCircle
 10
2738.115203413598
 20
-597.7635389001339
 30
0.0000000001127424
 40
86.99999999976632
100
AcDbArc
 50
63.43715937221712
 51
97.16647858248676
  0
ARC
  5
1AD84
330
18
100
AcDbEntity
  8
1DIM
100
AcDbCircle
 10
2738.115203413598
 20
-597.7635389001339
 30
0.0000000001127424
 40
88.99999999976632
100
AcDbArc
 50
63.43715937221712
 51
97.16647858248676
  0
ARC
  5
1AD85
330
18
100
AcDbEntity
  8
01
100
AcDbCircle
 10
2777.017185386012
 20
-517.7158293852676
 30
0.0000000001127424
 40
1.0
100
AcDbArc
 50
333.4371593721851
 51
64.08094572217942
  0
LINE
  5
1AD86
330
18
100
AcDbEntity
  8
01
100
AcDbLine
 10
2633.570590167624
 20
-505.8857805305065
 30
0.0000000001127424
 11
2634.116302920614
 21
-503.7310061227768
 31
0.0000000001127424
  0
LINE
  5
1AD87
330
18
100
AcDbEntity
  8
01
100
AcDbLine
 10
2776.794992608076
 20
-520.3964983405317
 30
0.0000000001127424
 11
2777.914142151813
 21
-518.15798334482
 31
0.0000000001127424
  0
ARC
  5
1AD88
330
18
100
AcDbEntity
  8
01
100
AcDbCircle
 10
2758.36132123876
 20
-520.7635389003754
 30
0.0000000001127424
 40
10.5
100
AcDbArc
 50
227.8312121237702
 51
324.3371250941569
  0
ARC
  5
1AD89
330
18
100
AcDbEntity
  8
01
100
AcDbCircle
 10
2779.079088593984
 20
-535.6304187281944
 30
0.0000000001127424
 40
15.0
100
AcDbArc
 50
101.4585389106992
 51
144.3371250941569
  0
ARC
  5
1AD8A
330
18
100
AcDbEntity
  8
01
100
AcDbCircle
 10
2775.900548163631
 20
-519.9493192535847
 30
0.0000000001127424
 40
1.0
100
AcDbArc
 50
281.4585389106992
 51
333.4371593721851
  0
ARC
  5
1AD8B
330
18
100
AcDbEntity
  8
01
100
AcDbCircle
 10
2743.613499295741
 20
80.2374114980953
 30
0.0000000001127424
 40
599.9999999999999
100
AcDbArc
 50
261.9999999999595
 51
268.3138485093678
  0
ARC
  5
1AD8C
330
18
100
AcDbEntity
  8
01
100
AcDbCircle
 10
2657.474698549579
 20
-462.8300293473944
 30
0.0000000001127424
 40
50.0
100
AcDbArc
 50
242.0918593213702
 51
259.2954905250163
  0
ARC
  5
1AD8D
330
18
100
AcDbEntity
  8
01
100
AcDbCircle
 10
2634.539985105429
 20
-506.1312870570123
 30
0.0000000001127424
 40
1.0
100
AcDbArc
 50
165.7882301626339
 51
242.0918593213702
  0
ARC
  5
1AD8E
330
18
100
AcDbEntity
  8
01
100
AcDbCircle
 10
2724.340355170657
 20
-574.4789743633964
 30
0.0000000001127424
 40
55.0
100
AcDbArc
 50
51.78872608986091
 51
88.31384850936777
  0
ARC
  5
1AD8F
330
18
100
AcDbEntity
  8
01
100
AcDbCircle
 10
2695.737952565471
 20
-260.4148041490039
 30
0.0000000001127424
 40
256.0
100
AcDbArc
 50
259.2954905250163
 51
261.9999999999595
  0
TEXT
  5
1AF82
330
18
100
AcDbEntity
  8
01
  6
CONTINUOUS
100
AcDbText
 10
3009.364249652289
 20
-308.1815238811733
 30
0.0000000001127424
 40
4.55
  1
材質：亜鉛ダイキャスト
100
AcDbText
  0
TEXT
  5
1AF83
330
18
100
AcDbEntity
  8
01
  6
CONTINUOUS
100
AcDbText
 10
3019.677582985622
 20
-315.7648572145067
 30
0.0000000001127424
 40
4.55
  1
仕上げ：各種メッキ
100
AcDbText
  0
LINE
  5
1AF84
330
18
100
AcDbEntity
  8
01
100
AcDbLine
 10
3036.361088559271
 20
-492.7648579116094
 30
0.0000000002254849
 11
3036.361088559271
 21
-390.0433651287901
 31
0.0000000002254849
1001
ACAD
1000
DSTYLE
1002
{
1070
    40
1040
1.3
1070
    45
1040
0.5
1002
}
  0
LINE
  5
1AF85
330
18
100
AcDbEntity
  8
01
100
AcDbLine
 10
3047.361088559271
 20
-434.8935398623205
 30
0.0000000002254849
 11
3047.361088559271
 21
-390.0433651287901
 31
0.0000000002254849
1001
ACAD
1000
DSTYLE
1002
{
1070
    40
1040
1.3
1070
    45
1040
0.5
1002
}
  0
LINE
  5
1AF86
330
18
100
AcDbEntity
  8
01
100
AcDbLine
 10
3038.961088559271
 20
-391.3433651287901
 30
0.0000000002254849
 11
3044.761088559271
 21
-391.3433651287901
 31
0.0000000002254849
1001
ACAD
1000
DSTYLE
1002
{
1070
    40
1040
1.3
1070
    45
1040
0.5
1002
}
  0
LINE
  5
1AF8A
330
18
100
AcDbEntity
  8
01
100
AcDbLine
 10
3116.361088559271
 20
-462.7648572134781
 30
0.0000000002254849
 11
3144.661088559271
 21
-462.7648572134781
 31
0.0000000002254849
1001
ACAD
1000
DSTYLE
1002
{
1070
    40
1040
1.3
1070
    45
1040
0.5
1002
}
  0
LINE
  5
1AF8B
330
18
100
AcDbEntity
  8
01
100
AcDbLine
 10
3116.361088559271
 20
-536.7648572134785
 30
0.0000000002254849
 11
3144.661088559271
 21
-536.7648572134785
 31
0.0000000002254849
1001
ACAD
1000
DSTYLE
1002
{
1070
    40
1040
1.3
1070
    45
1040
0.5
1002
}
  0
LINE
  5
1AF8C
330
18
100
AcDbEntity
  8
01
100
AcDbLine
 10
3143.361088559271
 20
-465.3648572134781
 30
0.0000000002254849
 11
3143.361088559271
 21
-534.1648572134785
 31
0.0000000002254849
1001
ACAD
1000
DSTYLE
1002
{
1070
    40
1040
1.3
1070
    45
1040
0.5
1002
}
  0
LINE
  5
1AF90
330
18
100
AcDbEntity
  8
01
100
AcDbLine
 10
3116.361088559271
 20
-462.7648572134781
 30
0.0000000002254849
 11
3116.361088559271
 21
-379.9634976607419
 31
0.0000000002254849
1001
ACAD
1000
DSTYLE
1002
{
1070
    40
1040
1.3
1070
    45
1040
0.5
1002
}
  0
LINE
  5
1AF91
330
18
100
AcDbEntity
  8
01
100
AcDbLine
 10
3047.361088559271
 20
-434.8935398623205
 30
0.0000000002254849
 11
3047.361088559271
 21
-379.9634976607419
 31
0.0000000002254849
1001
ACAD
1000
DSTYLE
1002
{
1070
    40
1040
1.3
1070
    45
1040
0.5
1002
}
  0
LINE
  5
1AF92
330
18
100
AcDbEntity
  8
01
100
AcDbLine
 10
3113.761088559271
 20
-381.2634976607419
 30
0.0000000002254849
 11
3049.961088559271
 21
-381.2634976607419
 31
0.0000000002254849
1001
ACAD
1000
DSTYLE
1002
{
1070
    40
1040
1.3
1070
    45
1040
0.5
1002
}
  0
LINE
  5
1AF96
330
18
100
AcDbEntity
  8
01
100
AcDbLine
 10
3047.361088559271
 20
-434.8935398623205
 30
0.0000000002254849
 11
3047.361088559271
 21
-390.0433651287901
 31
0.0000000002254849
1001
ACAD
1000
DSTYLE
1002
{
1070
    40
1040
1.3
1070
    45
1040
0.5
1002
}
  0
LINE
  5
1AF97
330
18
100
AcDbEntity
  8
01
100
AcDbLine
 10
3098.361088559271
 20
-470.7648572134781
 30
0.0000000002254849
 11
3098.361088559271
 21
-390.0433651287901
 31
0.0000000002254849
1001
ACAD
1000
DSTYLE
1002
{
1070
    40
1040
1.3
1070
    45
1040
0.5
1002
}
  0
LINE
  5
1AF98
330
18
100
AcDbEntity
  8
01
100
AcDbLine
 10
3049.961088559271
 20
-391.3433651287901
 30
0.0000000002254849
 11
3095.761088559271
 21
-391.3433651287901
 31
0.0000000002254849
1001
ACAD
1000
DSTYLE
1002
{
1070
    40
1040
1.3
1070
    45
1040
0.5
1002
}
  0
LINE
  5
1AF9C
330
18
100
AcDbEntity
  8
01
100
AcDbLine
 10
2915.861204899015
 20
-440.7648572134785
 30
0.0000000002254849
 11
2915.861204899015
 21
-390.0433651287903
 31
0.0000000002254849
1001
ACAD
1000
DSTYLE
1002
{
1070
    40
1040
1.3
1070
    45
1040
0.5
1002
}
  0
LINE
  5
1AF9D
330
18
100
AcDbEntity
  8
01
100
AcDbLine
 10
2940.861204899015
 20
-440.7648572134785
 30
0.0000000002254849
 11
2940.861204899015
 21
-390.0433651287903
 31
0.0000000002254849
1001
ACAD
1000
DSTYLE
1002
{
1070
    40
1040
1.3
1070
    45
1040
0.5
1002
}
  0
LINE
  5
1AF9E
330
18
100
AcDbEntity
  8
01
100
AcDbLine
 10
2918.461204899015
 20
-391.3433651287903
 30
0.0000000002254849
 11
2938.261204899015
 21
-391.3433651287903
 31
0.0000000002254849
1001
ACAD
1000
DSTYLE
1002
{
1070
    40
1040
1.3
1070
    45
1040
0.5
1002
}
  0
LINE
  5
1AFA2
330
18
100
AcDbEntity
  8
01
100
AcDbLine
 10
2934.163144502251
 20
-442.7644120690622
 30
0.0000000003382273
 11
3014.449275670459
 21
-442.7644120690623
 31
0.0000000003382273
1001
ACAD
1000
DSTYLE
1002
{
1070
    40
1040
1.3
1070
    45
1040
0.5
1002
}
  0
LINE
  5
1AFA3
330
18
100
AcDbEntity
  8
01
100
AcDbLine
 10
2934.163144502251
 20
-556.7644120690622
 30
0.0000000003382273
 11
3014.449275670459
 21
-556.7644120690622
 31
0.0000000003382273
1001
ACAD
1000
DSTYLE
1002
{
1070
    40
1040
1.3
1070
    45
1040
0.5
1002
}
  0
LINE
  5
1AFA4
330
18
100
AcDbEntity
  8
01
100
AcDbLine
 10
3013.149275670459
 20
-445.3644120690623
 30
0.0000000003382273
 11
3013.149275670459
 21
-554.1644120690622
 31
0.0000000003382273
1001
ACAD
1000
DSTYLE
1002
{
1070
    40
1040
1.3
1070
    45
1040
0.5
1002
}
  0
LINE
  5
1AFA8
330
18
100
AcDbEntity
  8
01
100
AcDbLine
 10
2934.761204899015
 20
-434.8648572134787
 30
0.0000000003382273
 11
3023.813609836684
 21
-434.8648572134787
 31
0.0000000003382273
1001
ACAD
1000
DSTYLE
1002
{
1070
    40
1040
1.3
1070
    45
1040
0.5
1002
}
  0
LINE
  5
1AFA9
330
18
100
AcDbEntity
  8
01
100
AcDbLine
 10
2934.688119094345
 20
-564.6644120690621
 30
0.0000000003382273
 11
3023.813609836684
 21
-564.6644120690621
 31
0.0000000003382273
1001
ACAD
1000
DSTYLE
1002
{
1070
    40
1040
1.3
1070
    45
1040
0.5
1002
}
  0
LINE
  5
1AFAA
330
18
100
AcDbEntity
  8
01
100
AcDbLine
 10
3022.513609836684
 20
-437.4648572134788
 30
0.0000000003382273
 11
3022.513609836684
 21
-562.0644120690621
 31
0.0000000003382273
1001
ACAD
1000
DSTYLE
1002
{
1070
    40
1040
1.3
1070
    45
1040
0.5
1002
}
  0
LINE
  5
1AFAE
330
18
100
AcDbEntity
  8
01
100
AcDbLine
 10
3098.361088559271
 20
-495.7635389003754
 30
0.0000000002254849
 11
3062.061088559271
 21
-495.7635389003754
 31
0.0000000002254849
1001
ACAD
1000
DSTYLE
1002
{
1070
     3
1000
φ<>
1070
    40
1040
1.3
1070
    45
1040
0.5
1002
}
  0
LINE
  5
1AFAF
330
18
100
AcDbEntity
  8
01
100
AcDbLine
 10
3098.361088559271
 20
-545.7635389003744
 30
0.0000000002254849
 11
3062.061088559271
 21
-545.7635389003744
 31
0.0000000002254849
1001
ACAD
1000
DSTYLE
1002
{
1070
     3
1000
φ<>
1070
    40
1040
1.3
1070
    45
1040
0.5
1002
}
  0
LINE
  5
1AFB0
330
18
100
AcDbEntity
  8
01
100
AcDbLine
 10
3063.361088559271
 20
-498.3635389003754
 30
0.0000000002254849
 11
3063.361088559271
 21
-543.1635389003744
 31
0.0000000002254849
1001
ACAD
1000
DSTYLE
1002
{
1070
     3
1000
φ<>
1070
    40
1040
1.3
1070
    45
1040
0.5
1002
}
  0
LINE
  5
1AFB4
330
18
100
AcDbEntity
  8
01
  6
BYBLOCK
100
AcDbLine
 10
3038.961088559271
 20
-392.0400330227901
 30
0.0000000002254849
 11
3036.361088559271
 21
-391.3433651287901
 31
0.0000000002254849
  0
LINE
  5
1AFB5
330
18
100
AcDbEntity
  8
01
  6
BYBLOCK
100
AcDbLine
 10
3036.361088559271
 20
-391.3433651287901
 30
0.0000000002254849
 11
3038.961088559271
 21
-390.6466972347901
 31
0.0000000002254849
  0
LINE
  5
1AFB6
330
18
100
AcDbEntity
  8
01
  6
BYBLOCK
100
AcDbLine
 10
3036.361088559271
 20
-391.3433651287901
 30
0.0000000002254849
 11
3038.961088559271
 21
-391.3433651287901
 31
0.0000000002254849
  0
LINE
  5
1AFB7
330
18
100
AcDbEntity
  8
01
  6
BYBLOCK
100
AcDbLine
 10
3044.761088559271
 20
-390.6466972347901
 30
0.0000000002254849
 11
3047.361088559271
 21
-391.3433651287901
 31
0.0000000002254849
  0
LINE
  5
1AFB8
330
18
100
AcDbEntity
  8
01
  6
BYBLOCK
100
AcDbLine
 10
3047.361088559271
 20
-391.3433651287901
 30
0.0000000002254849
 11
3044.761088559271
 21
-392.0400330227901
 31
0.0000000002254849
  0
LINE
  5
1AFB9
330
18
100
AcDbEntity
  8
01
  6
BYBLOCK
100
AcDbLine
 10
3047.361088559271
 20
-391.3433651287901
 30
0.0000000002254849
 11
3044.761088559271
 21
-391.3433651287901
 31
0.0000000002254849
  0
TEXT
  5
1AFBA
330
18
100
AcDbEntity
  8
01
  6
CONTINUOUS
100
AcDbText
 10
3039.586088559271
 20
-390.4333651287901
 30
0.0000000002254849
 40
4.55
  1
11
100
AcDbText
1001
ACAD
1000
DSTYLE
1002
{
1070
    40
1040
1.3
1070
    45
1040
0.5
1002
}
  0
LINE
  5
1AFBB
330
18
100
AcDbEntity
  8
01
  6
BYBLOCK
100
AcDbLine
 10
3142.664420665271
 20
-465.3648572134781
 30
0.0000000002254849
 11
3143.361088559271
 21
-462.7648572134781
 31
0.0000000002254849
  0
LINE
  5
1AFBC
330
18
100
AcDbEntity
  8
01
  6
BYBLOCK
100
AcDbLine
 10
3143.361088559271
 20
-462.7648572134781
 30
0.0000000002254849
 11
3144.05775645327
 21
-465.3648572134781
 31
0.0000000002254849
  0
LINE
  5
1AFBD
330
18
100
AcDbEntity
  8
01
  6
BYBLOCK
100
AcDbLine
 10
3143.361088559271
 20
-462.7648572134781
 30
0.0000000002254849
 11
3143.361088559271
 21
-465.3648572134781
 31
0.0000000002254849
  0
LINE
  5
1AFBE
330
18
100
AcDbEntity
  8
01
  6
BYBLOCK
100
AcDbLine
 10
3144.05775645327
 20
-534.1648572134785
 30
0.0000000002254849
 11
3143.361088559271
 21
-536.7648572134785
 31
0.0000000002254849
  0
LINE
  5
1AFBF
330
18
100
AcDbEntity
  8
01
  6
BYBLOCK
100
AcDbLine
 10
3143.361088559271
 20
-536.7648572134785
 30
0.0000000002254849
 11
3142.664420665271
 21
-534.1648572134785
 31
0.0000000002254849
  0
LINE
  5
1AFC0
330
18
100
AcDbEntity
  8
01
  6
BYBLOCK
100
AcDbLine
 10
3143.361088559271
 20
-536.7648572134785
 30
0.0000000002254849
 11
3143.361088559271
 21
-534.1648572134785
 31
0.0000000002254849
  0
TEXT
  5
1AFC1
330
18
100
AcDbEntity
  8
01
  6
CONTINUOUS
100
AcDbText
 10
3142.451088559271
 20
-481.7935131274594
 30
0.0000000002254849
 40
4.55
  1
74
 50
90.0
100
AcDbText
1001
ACAD
1000
DSTYLE
1002
{
1070
    40
1040
1.3
1070
    45
1040
0.5
1002
}
  0
LINE
  5
1AFC2
330
18
100
AcDbEntity
  8
01
  6
BYBLOCK
100
AcDbLine
 10
3113.761088559271
 20
-380.5668297667419
 30
0.0000000002254849
 11
3116.361088559271
 21
-381.2634976607419
 31
0.0000000002254849
  0
LINE
  5
1AFC3
330
18
100
AcDbEntity
  8
01
  6
BYBLOCK
100
AcDbLine
 10
3116.361088559271
 20
-381.2634976607419
 30
0.0000000002254849
 11
3113.761088559271
 21
-381.9601655547419
 31
0.0000000002254849
  0
LINE
  5
1AFC4
330
18
100
AcDbEntity
  8
01
  6
BYBLOCK
100
AcDbLine
 10
3116.361088559271
 20
-381.2634976607419
 30
0.0000000002254849
 11
3113.761088559271
 21
-381.2634976607419
 31
0.0000000002254849
  0
LINE
  5
1AFC5
330
18
100
AcDbEntity
  8
01
  6
BYBLOCK
100
AcDbLine
 10
3049.961088559271
 20
-381.9601655547419
 30
0.0000000002254849
 11
3047.361088559271
 21
-381.2634976607419
 31
0.0000000002254849
  0
LINE
  5
1AFC6
330
18
100
AcDbEntity
  8
01
  6
BYBLOCK
100
AcDbLine
 10
3047.361088559271
 20
-381.2634976607419
 30
0.0000000002254849
 11
3049.961088559271
 21
-380.5668297667419
 31
0.0000000002254849
  0
LINE
  5
1AFC7
330
18
100
AcDbEntity
  8
01
  6
BYBLOCK
100
AcDbLine
 10
3047.361088559271
 20
-381.2634976607419
 30
0.0000000002254849
 11
3049.961088559271
 21
-381.2634976607419
 31
0.0000000002254849
  0
TEXT
  5
1AFC8
330
18
100
AcDbEntity
  8
01
  6
CONTINUOUS
100
AcDbText
 10
3078.052570040752
 20
-380.3534976607419
 30
0.0000000002254849
 40
4.55
  1
69
100
AcDbText
1001
ACAD
1000
DSTYLE
1002
{
1070
    40
1040
1.3
1070
    45
1040
0.5
1002
}
  0
LINE
  5
1AFC9
330
18
100
AcDbEntity
  8
01
  6
BYBLOCK
100
AcDbLine
 10
3049.961088559271
 20
-392.0400330227901
 30
0.0000000002254849
 11
3047.361088559271
 21
-391.3433651287901
 31
0.0000000002254849
  0
LINE
  5
1AFCA
330
18
100
AcDbEntity
  8
01
  6
BYBLOCK
100
AcDbLine
 10
3047.361088559271
 20
-391.3433651287901
 30
0.0000000002254849
 11
3049.961088559271
 21
-390.6466972347901
 31
0.0000000002254849
  0
LINE
  5
1AFCB
330
18
100
AcDbEntity
  8
01
  6
BYBLOCK
100
AcDbLine
 10
3047.361088559271
 20
-391.3433651287901
 30
0.0000000002254849
 11
3049.961088559271
 21
-391.3433651287901
 31
0.0000000002254849
  0
LINE
  5
1AFCC
330
18
100
AcDbEntity
  8
01
  6
BYBLOCK
100
AcDbLine
 10
3095.761088559271
 20
-390.6466972347901
 30
0.0000000002254849
 11
3098.361088559271
 21
-391.3433651287901
 31
0.0000000002254849
  0
LINE
  5
1AFCD
330
18
100
AcDbEntity
  8
01
  6
BYBLOCK
100
AcDbLine
 10
3098.361088559271
 20
-391.3433651287901
 30
0.0000000002254849
 11
3095.761088559271
 21
-392.0400330227901
 31
0.0000000002254849
  0
LINE
  5
1AFCE
330
18
100
AcDbEntity
  8
01
  6
BYBLOCK
100
AcDbLine
 10
3098.361088559271
 20
-391.3433651287901
 30
0.0000000002254849
 11
3095.761088559271
 21
-391.3433651287901
 31
0.0000000002254849
  0
TEXT
  5
1AFCF
330
18
100
AcDbEntity
  8
01
  6
CONTINUOUS
100
AcDbText
 10
3069.811956614826
 20
-390.4333651287901
 30
0.0000000002254849
 40
4.55
  1
51
100
AcDbText
1001
ACAD
1000
DSTYLE
1002
{
1070
    40
1040
1.3
1070
    45
1040
0.5
1002
}
  0
LINE
  5
1AFD0
330
18
100
AcDbEntity
  8
01
  6
BYBLOCK
100
AcDbLine
 10
2918.461204899015
 20
-392.0400330227903
 30
0.0000000002254849
 11
2915.861204899015
 21
-391.3433651287903
 31
0.0000000002254849
  0
LINE
  5
1AFD1
330
18
100
AcDbEntity
  8
01
  6
BYBLOCK
100
AcDbLine
 10
2915.861204899015
 20
-391.3433651287903
 30
0.0000000002254849
 11
2918.461204899015
 21
-390.6466972347903
 31
0.0000000002254849
  0
LINE
  5
1AFD2
330
18
100
AcDbEntity
  8
01
  6
BYBLOCK
100
AcDbLine
 10
2915.861204899015
 20
-391.3433651287903
 30
0.0000000002254849
 11
2918.461204899015
 21
-391.3433651287903
 31
0.0000000002254849
  0
LINE
  5
1AFD3
330
18
100
AcDbEntity
  8
01
  6
BYBLOCK
100
AcDbLine
 10
2938.261204899015
 20
-390.6466972347903
 30
0.0000000002254849
 11
2940.861204899015
 21
-391.3433651287903
 31
0.0000000002254849
  0
LINE
  5
1AFD4
330
18
100
AcDbEntity
  8
01
  6
BYBLOCK
100
AcDbLine
 10
2940.861204899015
 20
-391.3433651287903
 30
0.0000000002254849
 11
2938.261204899015
 21
-392.0400330227903
 31
0.0000000002254849
  0
LINE
  5
1AFD5
330
18
100
AcDbEntity
  8
01
  6
BYBLOCK
100
AcDbLine
 10
2940.861204899015
 20
-391.3433651287903
 30
0.0000000002254849
 11
2938.261204899015
 21
-391.3433651287903
 31
0.0000000002254849
  0
TEXT
  5
1AFD6
330
18
100
AcDbEntity
  8
01
  6
CONTINUOUS
100
AcDbText
 10
2924.569538232349
 20
-390.4333651287903
 30
0.0000000002254849
 40
4.55
  1
25
100
AcDbText
1001
ACAD
1000
DSTYLE
1002
{
1070
    40
1040
1.3
1070
    45
1040
0.5
1002
}
  0
LINE
  5
1AFD7
330
18
100
AcDbEntity
  8
01
  6
BYBLOCK
100
AcDbLine
 10
3012.452607776459
 20
-445.3644120690623
 30
0.0000000003382273
 11
3013.149275670459
 21
-442.7644120690623
 31
0.0000000003382273
  0
LINE
  5
1AFD8
330
18
100
AcDbEntity
  8
01
  6
BYBLOCK
100
AcDbLine
 10
3013.149275670459
 20
-442.7644120690623
 30
0.0000000003382273
 11
3013.845943564459
 21
-445.3644120690623
 31
0.0000000003382273
  0
LINE
  5
1AFD9
330
18
100
AcDbEntity
  8
01
  6
BYBLOCK
100
AcDbLine
 10
3013.149275670459
 20
-442.7644120690623
 30
0.0000000003382273
 11
3013.149275670459
 21
-445.3644120690623
 31
0.0000000003382273
  0
LINE
  5
1AFDA
330
18
100
AcDbEntity
  8
01
  6
BYBLOCK
100
AcDbLine
 10
3013.845943564459
 20
-554.1644120690622
 30
0.0000000003382273
 11
3013.149275670459
 21
-556.7644120690622
 31
0.0000000003382273
  0
LINE
  5
1AFDB
330
18
100
AcDbEntity
  8
01
  6
BYBLOCK
100
AcDbLine
 10
3013.149275670459
 20
-556.7644120690622
 30
0.0000000003382273
 11
3012.452607776459
 21
-554.1644120690622
 31
0.0000000003382273
  0
LINE
  5
1AFDC
330
18
100
AcDbEntity
  8
01
  6
BYBLOCK
100
AcDbLine
 10
3013.149275670459
 20
-556.7644120690622
 30
0.0000000003382273
 11
3013.149275670459
 21
-554.1644120690622
 31
0.0000000003382273
  0
TEXT
  5
1AFDD
330
18
100
AcDbEntity
  8
01
  6
CONTINUOUS
100
AcDbText
 10
3012.239275670459
 20
-475.1813897211409
 30
0.0000000003382273
 40
4.55
  1
114
 50
90.0
100
AcDbText
1001
ACAD
1000
DSTYLE
1002
{
1070
    40
1040
1.3
1070
    45
1040
0.5
1002
}
  0
LINE
  5
1AFDE
330
18
100
AcDbEntity
  8
01
  6
BYBLOCK
100
AcDbLine
 10
3021.816941942684
 20
-437.4648572134788
 30
0.0000000003382273
 11
3022.513609836684
 21
-434.8648572134787
 31
0.0000000003382273
  0
LINE
  5
1AFDF
330
18
100
AcDbEntity
  8
01
  6
BYBLOCK
100
AcDbLine
 10
3022.513609836684
 20
-434.8648572134787
 30
0.0000000003382273
 11
3023.210277730684
 21
-437.4648572134788
 31
0.0000000003382273
  0
LINE
  5
1AFE0
330
18
100
AcDbEntity
  8
01
  6
BYBLOCK
100
AcDbLine
 10
3022.513609836684
 20
-434.8648572134787
 30
0.0000000003382273
 11
3022.513609836684
 21
-437.4648572134788
 31
0.0000000003382273
  0
LINE
  5
1AFE1
330
18
100
AcDbEntity
  8
01
  6
BYBLOCK
100
AcDbLine
 10
3023.210277730684
 20
-562.0644120690621
 30
0.0000000003382273
 11
3022.513609836684
 21
-564.6644120690621
 31
0.0000000003382273
  0
LINE
  5
1AFE2
330
18
100
AcDbEntity
  8
01
  6
BYBLOCK
100
AcDbLine
 10
3022.513609836684
 20
-564.6644120690621
 30
0.0000000003382273
 11
3021.816941942684
 21
-562.0644120690621
 31
0.0000000003382273
  0
LINE
  5
1AFE3
330
18
100
AcDbEntity
  8
01
  6
BYBLOCK
100
AcDbLine
 10
3022.513609836684
 20
-564.6644120690621
 30
0.0000000003382273
 11
3022.513609836684
 21
-562.0644120690621
 31
0.0000000003382273
  0
TEXT
  5
1AFE4
330
18
100
AcDbEntity
  8
01
  6
CONTINUOUS
100
AcDbText
 10
3021.603609836684
 20
-475.9659537239481
 30
0.0000000003382273
 40
4.55
  1
130
 50
90.0
100
AcDbText
1001
ACAD
1000
DSTYLE
1002
{
1070
    40
1040
1.3
1070
    45
1040
0.5
1002
}
  0
LINE
  5
1AFE5
330
18
100
AcDbEntity
  8
01
  6
BYBLOCK
100
AcDbLine
 10
3062.664420665271
 20
-498.3635389003754
 30
0.0000000002254849
 11
3063.361088559271
 21
-495.7635389003754
 31
0.0000000002254849
  0
LINE
  5
1AFE6
330
18
100
AcDbEntity
  8
01
  6
BYBLOCK
100
AcDbLine
 10
3063.361088559271
 20
-495.7635389003754
 30
0.0000000002254849
 11
3064.05775645327
 21
-498.3635389003754
 31
0.0000000002254849
  0
LINE
  5
1AFE7
330
18
100
AcDbEntity
  8
01
  6
BYBLOCK
100
AcDbLine
 10
3063.361088559271
 20
-495.7635389003754
 30
0.0000000002254849
 11
3063.361088559271
 21
-498.3635389003754
 31
0.0000000002254849
  0
LINE
  5
1AFE8
330
18
100
AcDbEntity
  8
01
  6
BYBLOCK
100
AcDbLine
 10
3064.05775645327
 20
-543.1635389003744
 30
0.0000000002254849
 11
3063.361088559271
 21
-545.7635389003744
 31
0.0000000002254849
  0
LINE
  5
1AFE9
330
18
100
AcDbEntity
  8
01
  6
BYBLOCK
100
AcDbLine
 10
3063.361088559271
 20
-545.7635389003744
 30
0.0000000002254849
 11
3062.664420665271
 21
-543.1635389003744
 31
0.0000000002254849
  0
LINE
  5
1AFEA
330
18
100
AcDbEntity
  8
01
  6
BYBLOCK
100
AcDbLine
 10
3063.361088559271
 20
-545.7635389003744
 30
0.0000000002254849
 11
3063.361088559271
 21
-543.1635389003744
 31
0.0000000002254849
  0
TEXT
  5
1AFEB
330
18
100
AcDbEntity
  8
01
  6
CONTINUOUS
100
AcDbText
 10
3062.45108855927
 20
-528.9630418069742
 30
0.0000000002254849
 40
4.55
  1
φ50
 50
90.0
100
AcDbText
1001
ACAD
1000
DSTYLE
1002
{
1070
     3
1000
φ<>
1070
    40
1040
1.3
1070
    45
1040
0.5
1002
}
  0
SOLID
  5
1AFEC
330
18
100
AcDbEntity
  8
1DIM
100
AcDbTrace
 10
3095.730937914017
 20
-296.8156142684219
 30
0.0000000001127424
 11
3098.101689799331
 21
-295.6635234403816
 31
0.0000000001127424
 12
3096.232737743939
 22
-297.5222315918732
 32
0.0000000001127424
 13
3096.232737743939
 23
-297.5222315918732
 33
0.0000000001127424
1001
ACAD
1000
DSTYLE
1002
{
1070
    40
1040
1.3
1070
    45
1040
0.5
1002
}
  0
LINE
  5
1AFED
330
18
100
AcDbEntity
  8
1DIM
100
AcDbLine
 10
3095.981837828977
 20
-297.1689229301475
 30
0.0000000001127424
 11
3068.514249652289
 21
-316.6748572145067
 31
0.0000000001127424
1001
ACAD
1000
DSTYLE
1002
{
1070
    40
1040
1.3
1070
    45
1040
0.5
1002
}
  0
LINE
  5
1AFEE
330
18
100
AcDbEntity
  8
1DIM
100
AcDbLine
 10
3114.76197274133
 20
-241.2648572145067
 30
0.0000000002254849
 11
3135.322363501044
 21
-241.2648572145067
 31
0.0000000002254849
1001
ACAD
1000
DSTYLE
1002
{
1070
    45
1040
0.5
1070
    40
1040
1.3
1002
}
  0
LINE
  5
1AFEF
330
18
100
AcDbEntity
  8
1DIM
100
AcDbLine
 10
3116.361972741331
 20
-260.0648572145067
 30
0.0000000002254849
 11
3135.322363501044
 21
-260.0648572145067
 31
0.0000000002254849
1001
ACAD
1000
DSTYLE
1002
{
1070
    45
1040
0.5
1070
    40
1040
1.3
1002
}
  0
LINE
  5
1AFF0
330
18
100
AcDbEntity
  8
1DIM
100
AcDbLine
 10
3134.022363501043
 20
-243.8648572145067
 30
0.0000000002254849
 11
3134.022363501043
 21
-257.4648572145067
 31
0.0000000002254849
1001
ACAD
1000
DSTYLE
1002
{
1070
    45
1040
0.5
1070
    40
1040
1.3
1002
}
  0
LINE
  5
1AFF4
330
18
100
AcDbEntity
  8
1DIM
100
AcDbLine
 10
3201.116236556618
 20
-270.7648572145067
 30
0.0000000002254849
 11
3246.967049708149
 21
-270.7648572145067
 31
0.0000000002254849
1001
ACAD
1000
DSTYLE
1002
{
1070
    40
1040
1.3
1070
   271
1070
     0
1002
}
  0
LINE
  5
1AFF5
330
18
100
AcDbEntity
  8
1DIM
100
AcDbLine
 10
3219.694025126441
 20
-307.7648913437861
 30
0.0000000002254849
 11
3246.967049708149
 21
-307.7648913437861
 31
0.0000000002254849
1001
ACAD
1000
DSTYLE
1002
{
1070
    40
1040
1.3
1070
   271
1070
     0
1002
}
  0
LINE
  5
1AFF6
330
18
100
AcDbEntity
  8
1DIM
100
AcDbLine
 10
3245.667049708149
 20
-273.3648572145067
 30
0.0000000002254849
 11
3245.667049708149
 21
-305.1648913437861
 31
0.0000000002254849
1001
ACAD
1000
DSTYLE
1002
{
1070
    40
1040
1.3
1070
   271
1070
     0
1002
}
  0
LINE
  5
1AFFA
330
18
100
AcDbEntity
  8
1DIM
100
AcDbLine
 10
3201.116236556618
 20
-270.7648572145067
 30
0.0000000002254849
 11
3259.028379851496
 21
-270.7648572145067
 31
0.0000000002254849
1001
ACAD
1000
DSTYLE
1002
{
1070
    40
1040
1.3
1070
   271
1070
     0
1002
}
  0
LINE
  5
1AFFB
330
18
100
AcDbEntity
  8
1DIM
100
AcDbLine
 10
3219.694027567811
 20
-332.7648913437856
 30
0.0000000002254849
 11
3259.028379851496
 21
-332.7648913437856
 31
0.0000000002254849
1001
ACAD
1000
DSTYLE
1002
{
1070
    40
1040
1.3
1070
   271
1070
     0
1002
}
  0
LINE
  5
1AFFC
330
18
100
AcDbEntity
  8
1DIM
100
AcDbLine
 10
3257.728379851495
 20
-273.3648572145067
 30
0.0000000002254849
 11
3257.728379851495
 21
-330.1648913437856
 31
0.0000000002254849
1001
ACAD
1000
DSTYLE
1002
{
1070
    40
1040
1.3
1070
   271
1070
     0
1002
}
  0
LINE
  5
1B000
330
18
100
AcDbEntity
  8
1DIM
100
AcDbLine
 10
3098.361088559271
 20
-292.0148572145072
 30
0.0000000002254849
 11
3098.361088559271
 21
-352.1628945334986
 31
0.0000000002254849
1001
ACAD
1000
DSTYLE
1002
{
1070
    40
1040
1.3
1070
   271
1070
     0
1002
}
  0
LINE
  5
1B001
330
18
100
AcDbEntity
  8
1DIM
100
AcDbLine
 10
3223.156392873295
 20
-320.2652581563184
 30
0.0000000002254849
 11
3223.156392873295
 21
-352.1628945334986
 31
0.0000000002254849
1001
ACAD
1000
DSTYLE
1002
{
1070
    40
1040
1.3
1070
   271
1070
     0
1002
}
  0
LINE
  5
1B002
330
18
100
AcDbEntity
  8
1DIM
100
AcDbLine
 10
3100.961088559271
 20
-350.8628945334985
 30
0.0000000002254849
 11
3220.556392873295
 21
-350.8628945334985
 31
0.0000000002254849
1001
ACAD
1000
DSTYLE
1002
{
1070
    40
1040
1.3
1070
   271
1070
     0
1002
}
  0
LINE
  5
1B006
330
18
100
AcDbEntity
  8
1DIM
100
AcDbLine
 10
3078.705216999405
 20
-329.7648601780534
 30
0.0000000002254849
 11
3078.705216999405
 21
-362.1628945334986
 31
0.0000000002254849
1001
ACAD
1000
DSTYLE
1002
{
1070
    40
1040
1.3
1070
   271
1070
     0
1002
}
  0
LINE
  5
1B007
330
18
100
AcDbEntity
  8
1DIM
100
AcDbLine
 10
3223.156392873295
 20
-320.2652581563184
 30
0.0000000002254849
 11
3223.156392873295
 21
-362.1628945334986
 31
0.0000000002254849
1001
ACAD
1000
DSTYLE
1002
{
1070
    40
1040
1.3
1070
   271
1070
     0
1002
}
  0
LINE
  5
1B008
330
18
100
AcDbEntity
  8
1DIM
100
AcDbLine
 10
3081.305216999405
 20
-360.8628945334985
 30
0.0000000002254849
 11
3220.556392873295
 21
-360.8628945334985
 31
0.0000000002254849
1001
ACAD
1000
DSTYLE
1002
{
1070
    40
1040
1.3
1070
   271
1070
     0
1002
}
  0
SPLINE
  5
1B00C
330
18
100
AcDbEntity
  8
1DIM
100
AcDbSpline
210
0.0
220
0.0
230
1.0
 70
    28
 71
     2
 72
     6
 73
     3
 74
     0
 42
0.000000001
 43
0.0000000001
 40
0.0
 40
0.0
 40
0.0
 40
0.0529583462214523
 40
0.0529583462214523
 40
0.0529583462214523
 10
3078.705386734513
 20
-329.7648914445144
 30
0.0000000001127424
 41
1.0
 10
3078.731865907624
 20
-329.7648914445144
 30
0.0000000001127424
 41
1.0
 10
3078.758345080734
 20
-329.7648914445149
 30
0.0000000001127424
 41
1.0
  0
SPLINE
  5
1B00D
330
18
100
AcDbEntity
  8
1DIM
100
AcDbSpline
210
0.0
220
0.0
230
1.0
 70
    12
 71
     2
 72
     6
 73
     3
 74
     0
 42
0.000000001
 43
0.0000000001
 40
0.0529583462214523
 40
0.0529583462214523
 40
0.0529583462214523
 40
0.5627367564666421
 40
0.5627367564666421
 40
0.5627367564666421
 10
3078.758345080734
 20
-329.7648914445149
 30
0.0000000001127424
 41
1.0
 10
3079.013234285857
 20
-329.7649086106517
 30
0.0000000001127424
 41
1.0
 10
3079.26812349098
 20
-329.7649086106517
 30
0.0000000001127424
 41
1.0
  0
SPLINE
  5
1B00E
330
18
100
AcDbEntity
  8
1DIM
100
AcDbSpline
210
0.0
220
0.0
230
1.0
 70
    28
 71
     2
 72
     6
 73
     3
 74
     0
 42
0.000000001
 43
0.0000000001
 40
0.0
 40
0.0
 40
0.0
 40
0.0529583462214523
 40
0.0529583462214523
 40
0.0529583462214523
 10
3078.705386734513
 20
-171.764822984499
 30
0.0000000001127424
 41
1.0
 10
3078.731865907624
 20
-171.764822984499
 30
0.0000000001127424
 41
1.0
 10
3078.758345080734
 20
-171.7648229844986
 30
0.0000000001127424
 41
1.0
  0
SPLINE
  5
1B00F
330
18
100
AcDbEntity
  8
1DIM
100
AcDbSpline
210
0.0
220
0.0
230
1.0
 70
    12
 71
     2
 72
     6
 73
     3
 74
     0
 42
0.000000001
 43
0.0000000001
 40
0.0529583462214523
 40
0.0529583462214523
 40
0.0529583462214523
 40
0.5627367564666421
 40
0.5627367564666421
 40
0.5627367564666421
 10
3078.758345080734
 20
-171.7648229844986
 30
0.0000000001127424
 41
1.0
 10
3079.013234285857
 20
-171.7648058183618
 30
0.0000000001127424
 41
1.0
 10
3079.26812349098
 20
-171.7648058183618
 30
0.0000000001127424
 41
1.0
  0
LINE
  5
1B010
330
18
100
AcDbEntity
  8
0
  6
BYBLOCK
100
AcDbLine
 10
3133.325695607044
 20
-243.8648572145067
 30
0.0000000002254849
 11
3134.022363501043
 21
-241.2648572145067
 31
0.0000000002254849
  0
LINE
  5
1B011
330
18
100
AcDbEntity
  8
0
  6
BYBLOCK
100
AcDbLine
 10
3134.022363501043
 20
-241.2648572145067
 30
0.0000000002254849
 11
3134.719031395043
 21
-243.8648572145067
 31
0.0000000002254849
  0
LINE
  5
1B012
330
18
100
AcDbEntity
  8
0
  6
BYBLOCK
100
AcDbLine
 10
3134.022363501043
 20
-241.2648572145067
 30
0.0000000002254849
 11
3134.022363501043
 21
-243.8648572145067
 31
0.0000000002254849
  0
LINE
  5
1B013
330
18
100
AcDbEntity
  8
0
  6
BYBLOCK
100
AcDbLine
 10
3134.719031395043
 20
-257.4648572145067
 30
0.0000000002254849
 11
3134.022363501043
 21
-260.0648572145067
 31
0.0000000002254849
  0
LINE
  5
1B014
330
18
100
AcDbEntity
  8
0
  6
BYBLOCK
100
AcDbLine
 10
3134.022363501043
 20
-260.0648572145067
 30
0.0000000002254849
 11
3133.325695607044
 21
-257.4648572145067
 31
0.0000000002254849
  0
LINE
  5
1B015
330
18
100
AcDbEntity
  8
0
  6
BYBLOCK
100
AcDbLine
 10
3134.022363501043
 20
-260.0648572145067
 30
0.0000000002254849
 11
3134.022363501043
 21
-257.4648572145067
 31
0.0000000002254849
  0
TEXT
  5
1B016
330
18
100
AcDbEntity
  8
1DIM
  6
CONTINUOUS
100
AcDbText
 10
3133.112363501044
 20
-253.699243788581
 30
0.0000000002254849
 40
4.55
  1
19
 50
90.0
100
AcDbText
1001
ACAD
1000
DSTYLE
1002
{
1070
    45
1040
0.5
1070
    40
1040
1.3
1002
}
  0
LINE
  5
1B017
330
18
100
AcDbEntity
  8
0
  6
BYBLOCK
100
AcDbLine
 10
3244.970381814149
 20
-273.3648572145067
 30
0.0000000002254849
 11
3245.667049708149
 21
-270.7648572145067
 31
0.0000000002254849
  0
LINE
  5
1B018
330
18
100
AcDbEntity
  8
0
  6
BYBLOCK
100
AcDbLine
 10
3245.667049708149
 20
-270.7648572145067
 30
0.0000000002254849
 11
3246.363717602148
 21
-273.3648572145067
 31
0.0000000002254849
  0
LINE
  5
1B019
330
18
100
AcDbEntity
  8
0
  6
BYBLOCK
100
AcDbLine
 10
3245.667049708149
 20
-270.7648572145067
 30
0.0000000002254849
 11
3245.667049708149
 21
-273.3648572145067
 31
0.0000000002254849
  0
LINE
  5
1B01A
330
18
100
AcDbEntity
  8
0
  6
BYBLOCK
100
AcDbLine
 10
3246.363717602148
 20
-305.1648913437861
 30
0.0000000002254849
 11
3245.667049708149
 21
-307.7648913437861
 31
0.0000000002254849
  0
LINE
  5
1B01B
330
18
100
AcDbEntity
  8
0
  6
BYBLOCK
100
AcDbLine
 10
3245.667049708149
 20
-307.7648913437861
 30
0.0000000002254849
 11
3244.970381814149
 21
-305.1648913437861
 31
0.0000000002254849
  0
LINE
  5
1B01C
330
18
100
AcDbEntity
  8
0
  6
BYBLOCK
100
AcDbLine
 10
3245.667049708149
 20
-307.7648913437861
 30
0.0000000002254849
 11
3245.667049708149
 21
-305.1648913437861
 31
0.0000000002254849
  0
TEXT
  5
1B01D
330
18
100
AcDbEntity
  8
1DIM
  6
CONTINUOUS
100
AcDbText
 10
3244.757049708149
 20
-293.0565409458122
 30
0.0000000002254849
 40
4.55
  1
37
 50
90.0
100
AcDbText
1001
ACAD
1000
DSTYLE
1002
{
1070
    40
1040
1.3
1070
   271
1070
     0
1002
}
  0
LINE
  5
1B01E
330
18
100
AcDbEntity
  8
0
  6
BYBLOCK
100
AcDbLine
 10
3257.031711957496
 20
-273.3648572145067
 30
0.0000000002254849
 11
3257.728379851495
 21
-270.7648572145067
 31
0.0000000002254849
  0
LINE
  5
1B01F
330
18
100
AcDbEntity
  8
0
  6
BYBLOCK
100
AcDbLine
 10
3257.728379851495
 20
-270.7648572145067
 30
0.0000000002254849
 11
3258.425047745495
 21
-273.3648572145067
 31
0.0000000002254849
  0
LINE
  5
1B020
330
18
100
AcDbEntity
  8
0
  6
BYBLOCK
100
AcDbLine
 10
3257.728379851495
 20
-270.7648572145067
 30
0.0000000002254849
 11
3257.728379851495
 21
-273.3648572145067
 31
0.0000000002254849
  0
LINE
  5
1B021
330
18
100
AcDbEntity
  8
0
  6
BYBLOCK
100
AcDbLine
 10
3258.425047745495
 20
-330.1648913437856
 30
0.0000000002254849
 11
3257.728379851495
 21
-332.7648913437856
 31
0.0000000002254849
  0
LINE
  5
1B022
330
18
100
AcDbEntity
  8
0
  6
BYBLOCK
100
AcDbLine
 10
3257.728379851495
 20
-332.7648913437856
 30
0.0000000002254849
 11
3257.031711957496
 21
-330.1648913437856
 31
0.0000000002254849
  0
LINE
  5
1B023
330
18
100
AcDbEntity
  8
0
  6
BYBLOCK
100
AcDbLine
 10
3257.728379851495
 20
-332.7648913437856
 30
0.0000000002254849
 11
3257.728379851495
 21
-330.1648913437856
 31
0.0000000002254849
  0
TEXT
  5
1B024
330
18
100
AcDbEntity
  8
1DIM
  6
CONTINUOUS
100
AcDbText
 10
3256.818379851496
 20
-305.5723395569235
 30
0.0000000002254849
 40
4.55
  1
62
 50
90.0
100
AcDbText
1001
ACAD
1000
DSTYLE
1002
{
1070
    40
1040
1.3
1070
   271
1070
     0
1002
}
  0
LINE
  5
1B025
330
18
100
AcDbEntity
  8
0
  6
BYBLOCK
100
AcDbLine
 10
3100.961088559271
 20
-351.5595624274985
 30
0.0000000002254849
 11
3098.361088559271
 21
-350.8628945334985
 31
0.0000000002254849
  0
LINE
  5
1B026
330
18
100
AcDbEntity
  8
0
  6
BYBLOCK
100
AcDbLine
 10
3098.361088559271
 20
-350.8628945334985
 30
0.0000000002254849
 11
3100.961088559271
 21
-350.1662266394986
 31
0.0000000002254849
  0
LINE
  5
1B027
330
18
100
AcDbEntity
  8
0
  6
BYBLOCK
100
AcDbLine
 10
3098.361088559271
 20
-350.8628945334985
 30
0.0000000002254849
 11
3100.961088559271
 21
-350.8628945334985
 31
0.0000000002254849
  0
LINE
  5
1B028
330
18
100
AcDbEntity
  8
0
  6
BYBLOCK
100
AcDbLine
 10
3220.556392873295
 20
-350.1662266394986
 30
0.0000000002254849
 11
3223.156392873295
 21
-350.8628945334985
 31
0.0000000002254849
  0
LINE
  5
1B029
330
18
100
AcDbEntity
  8
0
  6
BYBLOCK
100
AcDbLine
 10
3223.156392873295
 20
-350.8628945334985
 30
0.0000000002254849
 11
3220.556392873295
 21
-351.5595624274985
 31
0.0000000002254849
  0
LINE
  5
1B02A
330
18
100
AcDbEntity
  8
0
  6
BYBLOCK
100
AcDbLine
 10
3223.156392873295
 20
-350.8628945334985
 30
0.0000000002254849
 11
3220.556392873295
 21
-350.8628945334985
 31
0.0000000002254849
  0
TEXT
  5
1B02B
330
18
100
AcDbEntity
  8
1DIM
  6
CONTINUOUS
100
AcDbText
 10
3156.072307340813
 20
-349.9528945334986
 30
0.0000000002254849
 40
4.55
  1
125
100
AcDbText
1001
ACAD
1000
DSTYLE
1002
{
1070
    40
1040
1.3
1070
   271
1070
     0
1002
}
  0
LINE
  5
1B02C
330
18
100
AcDbEntity
  8
0
  6
BYBLOCK
100
AcDbLine
 10
3081.305216999405
 20
-361.5595624274985
 30
0.0000000002254849
 11
3078.705216999405
 21
-360.8628945334985
 31
0.0000000002254849
  0
LINE
  5
1B02D
330
18
100
AcDbEntity
  8
0
  6
BYBLOCK
100
AcDbLine
 10
3078.705216999405
 20
-360.8628945334985
 30
0.0000000002254849
 11
3081.305216999405
 21
-360.1662266394986
 31
0.0000000002254849
  0
LINE
  5
1B02E
330
18
100
AcDbEntity
  8
0
  6
BYBLOCK
100
AcDbLine
 10
3078.705216999405
 20
-360.8628945334985
 30
0.0000000002254849
 11
3081.305216999405
 21
-360.8628945334985
 31
0.0000000002254849
  0
LINE
  5
1B02F
330
18
100
AcDbEntity
  8
0
  6
BYBLOCK
100
AcDbLine
 10
3220.556392873295
 20
-360.1662266394986
 30
0.0000000002254849
 11
3223.156392873295
 21
-360.8628945334985
 31
0.0000000002254849
  0
LINE
  5
1B030
330
18
100
AcDbEntity
  8
0
  6
BYBLOCK
100
AcDbLine
 10
3223.156392873295
 20
-360.8628945334985
 30
0.0000000002254849
 11
3220.556392873295
 21
-361.5595624274985
 31
0.0000000002254849
  0
LINE
  5
1B031
330
18
100
AcDbEntity
  8
0
  6
BYBLOCK
100
AcDbLine
 10
3223.156392873295
 20
-360.8628945334985
 30
0.0000000002254849
 11
3220.556392873295
 21
-360.8628945334985
 31
0.0000000002254849
  0
TEXT
  5
1B032
330
18
100
AcDbEntity
  8
1DIM
  6
CONTINUOUS
100
AcDbText
 10
3149.072305456072
 20
-359.9528945334986
 30
0.0000000002254849
 40
4.55
  1
144
100
AcDbText
1001
ACAD
1000
DSTYLE
1002
{
1070
    40
1040
1.3
1070
   271
1070
     0
1002
}
  0
VIEWPORT
  5
57
330
15
100
AcDbEntity
 67
     1
  8
0
100
AcDbViewport
 68
     1
 10
0.0
 20
0.0
 30
0.0
 40
663.4332925336597
 41
297.0
 68
     1
 69
     1
1001
ACAD
1000
MVIEW
1002
{
1070
    16
1010
0.0
1020
0.0
1030
0.0
1010
0.0
1020
0.0
1030
1.0
1040
0.0
1040
297.0
1040
-4.171999999925333
1040
12.83903210976956
1040
50.0
1040
0.0
1040
0.0
1070
    16
1070
   100
1070
     0
1070
     1
1070
     0
1070
     0
1070
     0
1070
     0
1040
0.0
1040
0.0
1040
0.0
1040
10.0
1040
10.0
1040
10.0
1040
10.0
1070
     0
1002
{
1002
}
1002
}
  0
ENDSEC
  0
SECTION
  2
OBJECTS
  0
DICTIONARY
  5
C
330
0
100
AcDbDictionary
  3
ACAD_COLOR
350
18D
  3
ACAD_GROUP
350
D
  3
ACAD_LAYOUT
350
18E
  3
ACAD_MATERIAL
350
18C
  3
ACAD_MLEADERSTYLE
350
D9E7
  3
ACAD_MLINESTYLE
350
1B
  3
ACAD_PLOTSETTINGS
350
18F
  3
ACAD_SCALELIST
350
D9C5
  3
ACAD_VISUALSTYLE
350
D9B4
  3
ACDBHEADERROUNDTRIPXREC
350
1B033
  3
ACDBVARIABLEDICTIONARY
350
37
  3
AEC_PROPERTY_SET_DEFS
350
1ABC8
  3
CONTENTDICTIONARY
350
D8
  3
DRAWINGVARIABLESDICT
350
20
  3
DWGPROPS
350
1B036
1001
ACAD
1000
TREAT_AS_HARD
1070
     0
  0
DICTIONARY
  5
E6A6
330
2
100
AcDbDictionary
  3
ACAD_LAYERSTATES
360
E6A7
1001
ACAD
1000
TREAT_AS_HARD
1070
     1
  0
DICTIONARY
  5
DA05
330
E
100
AcDbDictionary
  3
ADSK_XREC_LAYER_RECONCILED
360
DA06
1001
ACAD
1000
TREAT_AS_HARD
1070
     1
  0
DICTIONARY
  5
DA07
330
29
100
AcDbDictionary
  3
ADSK_XREC_LAYER_RECONCILED
360
DA08
1001
ACAD
1000
TREAT_AS_HARD
1070
     1
  0
DICTIONARY
  5
DA09
330
31
100
AcDbDictionary
  3
ADSK_XREC_LAYER_RECONCILED
360
DA0A
1001
ACAD
1000
TREAT_AS_HARD
1070
     1
  0
DICTIONARY
  5
DA0F
330
243
100
AcDbDictionary
  3
ADSK_XREC_LAYER_RECONCILED
360
DA10
1001
ACAD
1000
TREAT_AS_HARD
1070
     1
  0
DICTIONARY
  5
DA15
330
24E
100
AcDbDictionary
  3
ADSK_XREC_LAYER_RECONCILED
360
DA16
1001
ACAD
1000
TREAT_AS_HARD
1070
     1
  0
DICTIONARY
  5
88F
330
18
100
AcDbDictionary
  3
ACAD_SORTENTS
360
890
1001
ACAD
1000
TREAT_AS_HARD
1070
     1
  0
DICTIONARY
  5
18D
102
{ACAD_REACTORS
330
C
102
}
330
C
100
AcDbDictionary
1001
ACAD
1000
TREAT_AS_HARD
1070
     0
  0
DICTIONARY
  5
D
102
{ACAD_REACTORS
330
C
102
}
330
C
100
AcDbDictionary
1001
ACAD
1000
TREAT_AS_HARD
1070
     0
  0
DICTIONARY
  5
18E
102
{ACAD_REACTORS
330
C
102
}
330
C
100
AcDbDictionary
1001
ACAD
1000
TREAT_AS_HARD
1070
     0
  0
DICTIONARY
  5
18C
102
{ACAD_REACTORS
330
C
102
}
330
C
100
AcDbDictionary
  3
BYBLOCK
350
D9A4
  3
BYLAYER
350
D99C
  3
GLOBAL
350
D9AC
1001
ACAD
1000
TREAT_AS_HARD
1070
     0
  0
DICTIONARY
  5
D9E7
102
{ACAD_REACTORS
330
C
102
}
330
C
100
AcDbDictionary
  3
STANDARD
350
D9E8
1001
ACAD
1000
TREAT_AS_HARD
1070
     0
  0
DICTIONARY
  5
1B
102
{ACAD_REACTORS
330
C
102
}
330
C
100
AcDbDictionary
  3
STANDARD
350
1C
1001
ACAD
1000
TREAT_AS_HARD
1070
     0
  0
DICTIONARY
  5
18F
102
{ACAD_REACTORS
330
C
102
}
330
C
100
AcDbDictionary
1001
ACAD
1000
TREAT_AS_HARD
1070
     0
  0
DICTIONARY
  5
D9C5
102
{ACAD_REACTORS
330
C
102
}
330
C
100
AcDbDictionary
  3
A0
350
D9C6
  3
A1
350
D9C7
  3
A2
350
D9C8
  3
A3
350
D9C9
  3
A4
350
D9CA
  3
A5
350
D9CB
  3
A6
350
D9CC
  3
A7
350
D9CD
  3
A8
350
D9CE
  3
A9
350
D9CF
  3
B0
350
D9D0
  3
B1
350
D9D1
  3
B2
350
D9D2
  3
B3
350
D9D3
  3
B4
350
D9D4
  3
B5
350
D9D5
  3
B6
350
D9D6
  3
B7
350
D9D7
  3
B8
350
D9D8
  3
B9
350
D9D9
  3
C0
350
D9DA
  3
C1
350
D9DB
  3
C2
350
D9DC
  3
C3
350
D9DD
  3
C4
350
D9DE
  3
C5
350
D9DF
  3
C6
350
D9E0
  3
C7
350
D9E1
  3
C8
350
D9E2
  3
C9
350
D9E3
  3
D0
350
D9E4
  3
D1
350
D9E5
  3
D2
350
D9E6
1001
ACAD
1000
TREAT_AS_HARD
1070
     0
  0
DICTIONARY
  5
D9B4
102
{ACAD_REACTORS
330
C
102
}
330
C
100
AcDbDictionary
  3
2DWIREFRAME
350
D9BA
  3
3D_HIDDEN
350
D9BC
  3
3DWIREFRAME
350
D9BB
  3
BASIC
350
D9B9
  3
BRIGHTEN
350
D9C0
  3
COLORCHANGE
350
D9C4
  3
CONCEPTUAL
350
D9BD
  3
DIM
350
D9BF
  3
EDGECOLOROFF
350
19C2F
  3
FACEPATTERN
350
D9C3
  3
FLAT
350
D9B5
  3
FLATWITHEDGES
350
D9B6
  3
GOURAUD
350
D9B7
  3
GOURAUDWITHEDGES
350
D9B8
  3
HIDDEN
350
19C7E
  3
JITTEROFF
350
19C2D
  3
LINEPATTERN
350
D9C2
  3
MODELING
350
19C84
  3
OVERHANGOFF
350
19C2E
  3
REALISTIC
350
D9BE
  3
SHADED
350
19C83
  3
SHADED_WITH_EDGES
350
19C82
  3
SHADES_OF_GRAY
350
19C7F
  3
SKETCHY
350
19C80
  3
THICKEN
350
D9C1
  3
WIREFRAME
350
19C7D
  3
X-RAY
350
19C81
1001
ACAD
1000
TREAT_AS_HARD
1070
     0
  0
DICTIONARY
  5
1B033
102
{ACAD_REACTORS
330
C
102
}
330
C
100
AcDbDictionary
  3
COLORDICT
350
1B034
  3
MATERIALDICT
350
1B035
1001
ACAD
1000
TREAT_AS_HARD
1070
     0
  0
DICTIONARY
  5
37
102
{ACAD_REACTORS
330
C
102
}
330
C
100
AcDbDictionary
  3
CANNOSCALE
350
1AF09
  3
CMLEADERSTYLE
350
DA6A
  3
CTABLESTYLE
350
29E
  3
DIMADEC
350
38
  3
DIMASSOC
350
1CE
  3
HIDETEXT
350
704E
  3
INDEXCTL
350
DA6D
  3
INTERSECTIONCOLOR
350
7052
  3
INTERSECTIONDISPLAY
350
7051
  3
MSLTSCALE
350
1A6DD
  3
OBSCOLOR
350
704F
  3
OBSLTYPE
350
7050
  3
PROJECTNAME
350
1CF
  3
SORTENTS
350
DA6C
  3
XCLIPFRAME
350
1AEDF
1001
ACAD
1000
TREAT_AS_HARD
1070
     0
  0
DICTIONARY
  5
1ABC8
102
{ACAD_REACTORS
330
C
102
}
330
C
100
AcDbDictionary
1001
ACAD
1000
TREAT_AS_HARD
1070
     0
  0
DICTIONARY
  5
D8
102
{ACAD_REACTORS
330
C
102
}
330
C
100
AcDbDictionary
1001
ACAD
1000
TREAT_AS_HARD
1070
     0
  0
DICTIONARY
  5
20
102
{ACAD_REACTORS
330
C
102
}
330
C
100
AcDbDictionary
1001
DRAWINGVARIABLESXDATA
1000
POLARANG
1000
0.261799387799149410000000
1000
POLARMODE
1000
1
1000
POLARSTYLE
1000
1
1001
ACAD
1000
TREAT_AS_HARD
1070
     0
  0
XRECORD
  5
1B036
102
{ACAD_REACTORS
330
C
102
}
330
C
100
AcDbXrecord
  1
DWGPROPS COOKIE
  2

  3

  4

  6

  7

  8
3684
  9

300
=
301
=
302
=
303
=
304
=
305
=
306
=
307
=
308
=
309
=
 40
0.0
 41
2451318.246352917
 42
2458152.216536076
  1

 90
        0
  0
DICTIONARY
  5
E6A7
102
{ACAD_REACTORS
330
E6A6
102
}
330
E6A6
100
AcDbDictionary
1001
ACAD
1000
TREAT_AS_HARD
1070
     0
  0
ACAD_PROXY_OBJECT
  5
DA06
102
{ACAD_REACTORS
330
DA05
102
}
330
DA05
100
AcDbZombieObject
 90
      499
 91
      516
 93
       34
310
40C8804040
  0
ACAD_PROXY_OBJECT
  5
DA08
102
{ACAD_REACTORS
330
DA07
102
}
330
DA07
100
AcDbZombieObject
 90
      499
 91
      516
 93
       34
310
40C8804040
  0
ACAD_PROXY_OBJECT
  5
DA0A
102
{ACAD_REACTORS
330
DA09
102
}
330
DA09
100
AcDbZombieObject
 90
      499
 91
      516
 93
       34
310
40C8804040
  0
ACAD_PROXY_OBJECT
  5
DA10
102
{ACAD_REACTORS
330
DA0F
102
}
330
DA0F
100
AcDbZombieObject
 90
      499
 91
      516
 93
       34
310
40C8804040
  0
ACAD_PROXY_OBJECT
  5
DA16
102
{ACAD_REACTORS
330
DA15
102
}
330
DA15
100
AcDbZombieObject
 90
      499
 91
      516
 93
       34
310
40C8804040
  0
SORTENTSTABLE
  5
890
102
{ACAD_REACTORS
330
88F
102
}
330
88F
100
AcDbSortentsTable
330
18
331
0
  5
5BFF
331
0
  5
1ABD0
331
1ABCF
  5
1ABE9
331
1ABD0
  5
1ABEA
331
1ABD1
  5
1ABEB
331
1ABD5
  5
1AC0D
331
1ABD6
  5
1AC0E
331
1ABD7
  5
1AC0F
331
1ABD8
  5
1AC10
331
1ABD9
  5
1AC11
331
1ABDA
  5
1AC12
331
1ABDB
  5
1AC13
331
1ABDC
  5
1AC14
331
1ABDD
  5
1AC15
331
1ABDE
  5
1AC16
331
1ABDF
  5
1AC17
331
1ABE0
  5
1AC18
331
1ABE1
  5
1AC19
331
1ABE2
  5
1AC1A
331
1ABE3
  5
1AC1B
331
1ABE4
  5
1AC1C
331
1ABE5
  5
1AC1D
331
1ABE6
  5
1AC1E
331
1ABE7
  5
1AC1F
331
1ABE8
  5
1AC20
331
1ABE9
  5
1AC21
331
1ABEA
  5
1AC22
331
1ABEB
  5
1AC23
331
1ABEC
  5
1AC24
331
1ABED
  5
1AC25
331
1ABEE
  5
1AC26
331
1ABEF
  5
1AC27
331
1ABF0
  5
1AC28
331
1ABF1
  5
1AC29
331
1ABF2
  5
1AC2A
331
1ABF3
  5
1AC2B
331
1ABF4
  5
1AC2C
331
1ABF5
  5
1AC2D
331
1ABF6
  5
1AC2E
331
1ABF7
  5
1AC2F
331
1ABF8
  5
1AC30
331
1ABF9
  5
1AC31
331
1ABFA
  5
1AC32
331
1ABFB
  5
1AC33
331
1ABFC
  5
1AC34
331
1ABFD
  5
1AC35
331
1ABFE
  5
1AC36
331
1ABFF
  5
1AC37
331
1AC00
  5
1AC38
331
1AC01
  5
1AC39
331
1AC02
  5
1AC3A
331
1AC03
  5
1AC3B
331
1AC04
  5
1AC3C
331
1AC05
  5
1AC3D
331
1AC06
  5
1AC3E
331
1AC07
  5
1AC3F
331
1AC08
  5
1AC40
331
1AC09
  5
1AC41
331
1AC0A
  5
1AC42
331
1AC0B
  5
1AC44
331
1AC0C
  5
1AC45
331
1AC0D
  5
1AC46
331
1AC0E
  5
1AC47
331
1AC0F
  5
1AC48
331
1AC10
  5
1AC49
331
1AC11
  5
1AC4A
331
1AC12
  5
1AC4B
331
1AC13
  5
1AC4C
331
1AC14
  5
1AC4D
331
1AC15
  5
1AC4E
331
1AC16
  5
1AC4F
331
1AC17
  5
1AC50
331
1AC18
  5
1AC52
331
1AC19
  5
1AC53
331
0
  5
1AC51
331
1AC1B
  5
1AC6C
331
1AC1C
  5
1AC6D
331
1AC1D
  5
1AC6E
331
1AC1E
  5
1AC6F
331
1AC1F
  5
1AC70
331
1AC20
  5
1AC71
331
1AC21
  5
1AC72
331
1AC22
  5
1AC73
331
1AC23
  5
1AC74
331
1AC24
  5
1AC75
331
1AC25
  5
1AC76
331
1AC26
  5
1AC77
331
1AC27
  5
1AC78
331
1AC28
  5
1AC79
331
1AC29
  5
1AC7A
331
1AC2A
  5
1AC7B
331
1AC2B
  5
1AC7C
331
1AC2C
  5
1AC7D
331
1AC2D
  5
1AC7E
331
1AC2E
  5
1AC7F
331
1AC2F
  5
1AC80
331
1AC30
  5
1AC81
331
1AC31
  5
1AC82
331
1AC32
  5
1AC83
331
1AC33
  5
1AC84
331
1AC34
  5
1AC85
331
1AC35
  5
1AC86
331
1AC36
  5
1AC87
331
1AC37
  5
1AC88
331
1AC38
  5
1AC89
331
1AC39
  5
1AC8A
331
1AC3A
  5
1AC8B
331
1AC3B
  5
1AC8C
331
1AC3C
  5
1AC8D
331
1AC3D
  5
1AC90
331
1AC3E
  5
1AC91
331
1AC3F
  5
1AC92
331
1AC40
  5
1AC93
331
1AC41
  5
1AC94
331
1AC42
  5
1AC95
331
1AC44
  5
1ACA0
331
1AC45
  5
1ACA1
331
1AC46
  5
1ACA2
331
1AC47
  5
1ACA3
331
1AC48
  5
1ACA4
331
1AC49
  5
1ACA5
331
1AC4A
  5
1ACA6
331
1AC4B
  5
1ACA7
331
1AC4C
  5
1ACA8
331
1AC4D
  5
1ACA9
331
1AC4E
  5
1ACAA
331
1AC4F
  5
1ACAB
331
1AC50
  5
1ACAC
331
1AC51
  5
1ACAD
331
1AC52
  5
1ACAE
331
1AC53
  5
1ACB0
331
1AC54
  5
1ACB1
331
1AC55
  5
1ACB2
331
1AC56
  5
1ACB3
331
1AC57
  5
1ACB7
331
1AC58
  5
1ACB8
331
1AC59
  5
1ACB9
331
1AC5E
  5
1ACBD
331
1AC63
  5
1ACBE
331
1AC64
  5
1ACBF
331
1AC65
  5
1ACC0
331
1AC66
  5
1ACC1
331
1AC67
  5
1ACC2
331
1AC68
  5
1ACC3
331
1AC69
  5
1ACC4
331
1AC6A
  5
1ACC5
331
1AC6B
  5
1ACC6
331
1AC6C
  5
1ACC7
331
1AC6D
  5
1ACC8
331
1AC6E
  5
1ACC9
331
1AC6F
  5
1ACCA
331
1AC70
  5
1ACCB
331
1AC71
  5
1ACCC
331
1AC72
  5
1ACCD
331
1AC73
  5
1ACCE
331
1AC74
  5
1ACCF
331
1AC75
  5
1ACD0
331
1AC76
  5
1ACD1
331
1AC77
  5
1ACD2
331
1AC78
  5
1ACD3
331
1AC79
  5
1ACD4
331
1AC7A
  5
1ACD5
331
1AC7B
  5
1ACD6
331
1AC7C
  5
1ACD7
331
1AC7D
  5
1ACD8
331
1AC7E
  5
1ACD9
331
1AC7F
  5
1ACDA
331
1AC80
  5
1ACDB
331
1AC81
  5
1ACDC
331
1AC82
  5
1ACDD
331
1AC83
  5
1ACDE
331
1AC84
  5
1ACE2
331
1AC85
  5
1ACE3
331
1AC86
  5
1ACE4
331
1AC87
  5
1ACE5
331
1AC88
  5
1ACE6
331
1AC89
  5
1ACE7
331
1AC8A
  5
1ACE8
331
1AC8B
  5
1ACE9
331
1AC8C
  5
1ACEA
331
1AC8D
  5
1ACEB
331
1AC90
  5
1AD00
331
1AC91
  5
1AD01
331
1AC92
  5
1AD02
331
1AC93
  5
1AD03
331
1AC94
  5
1AD04
331
1AC95
  5
1AD05
331
1AC96
  5
1AD06
331
1AC97
  5
1AD07
331
1AC98
  5
1AD08
331
1AC99
  5
1AD09
331
1AC9A
  5
1AD0A
331
1AC9B
  5
1AD0B
331
1AC9C
  5
1AD0C
331
1AC9D
  5
1AD0D
331
1AC9E
  5
1AD0E
331
1AC9F
  5
1AD0F
331
1ACA0
  5
1AD10
331
1ACA1
  5
1AD11
331
1ACA2
  5
1AD12
331
1ACA3
  5
1AD13
331
1ACA4
  5
1AD14
331
1ACA5
  5
1AD15
331
1ACA6
  5
1AD16
331
1ACA7
  5
1AD17
331
1ACA8
  5
1AD18
331
1ACA9
  5
1AD19
331
1ACAA
  5
1AD1A
331
1ACAB
  5
1AD1B
331
1ACAC
  5
1AD1C
331
1ACAD
  5
1AD1D
331
1ACAE
  5
1AD1E
331
1ACB0
  5
1AD29
331
1ACB1
  5
1AD2A
331
1ACB2
  5
1AD2B
331
1ACB3
  5
1AD2C
331
1ACB4
  5
1AD2D
331
1ACB5
  5
1AD2E
331
1ACB6
  5
1AD2F
331
1ACB7
  5
1AD30
331
1ACB8
  5
1AD31
331
1ACB9
  5
1AD32
331
1ACBA
  5
1AD33
331
1ACBB
  5
1AD34
331
1ACBC
  5
1AD35
331
1ACBD
  5
1AD36
331
1ACBE
  5
1AD37
331
1ACBF
  5
1AD38
331
1ACC0
  5
1AD39
331
1ACC1
  5
1AD3A
331
1ACC2
  5
1AD3B
331
1ACC3
  5
1AD3C
331
1ACC4
  5
1AD3D
331
1ACC5
  5
1AD3E
331
1ACC6
  5
1AD3F
331
1ACC7
  5
1AD40
331
1ACC8
  5
1AD41
331
1ACC9
  5
1AD42
331
1ACCA
  5
1AD43
331
1ACCB
  5
1AD44
331
1ACCC
  5
1AD45
331
1ACCD
  5
1AD46
331
1ACCE
  5
1AD47
331
1ACCF
  5
1AD48
331
1ACD0
  5
1AD49
331
1ACD1
  5
1AD4A
331
1ACD2
  5
1AD4B
331
1ACD3
  5
1AD4C
331
1ACD4
  5
1AD4D
331
1ACD5
  5
1AD4E
331
1ACD6
  5
1AD4F
331
1ACD7
  5
1AD50
331
1ACD8
  5
1AD51
331
1ACD9
  5
1AD52
331
1ACDA
  5
1AD53
331
1ACDB
  5
1AD54
331
1ACDC
  5
1AD55
331
1ACDD
  5
1AD56
331
1ACDE
  5
1AD57
331
1ACDF
  5
1AD58
331
1ACE0
  5
1AD59
331
1ACE1
  5
1AD5A
331
1ACE2
  5
1AD5B
331
1ACE3
  5
1AD5C
331
1ACE4
  5
1AD5D
331
1ACE5
  5
1AD5E
331
1ACE6
  5
1AD5F
331
1ACE7
  5
1AD60
331
1ACE8
  5
1AD61
331
1ACE9
  5
1AD62
331
1ACEA
  5
1AD63
331
1ACEB
  5
1AD69
331
1ACEC
  5
1AD6A
331
1ACED
  5
1AD6B
331
1ACEE
  5
1AD6C
331
1ACEF
  5
1AD6D
331
1ACF0
  5
1AD6E
331
1ACF1
  5
1AD6F
331
1ACF2
  5
1AD70
331
1ACF3
  5
1AD71
331
1ACF4
  5
1AD72
331
1ACF5
  5
1AD73
331
1ACF6
  5
1AD77
331
1ACF7
  5
1AD78
331
1ACF8
  5
1AD79
331
1ACF9
  5
1AD7D
331
0
  5
1AD64
331
0
  5
1AD65
331
0
  5
1AD66
331
0
  5
1AD67
331
0
  5
1AD68
331
1ACFF
  5
1AFA1
331
1AD00
  5
1AFA2
331
1AD01
  5
1AFA3
331
1AD02
  5
1AFA4
331
1AD03
  5
1AFA5
331
1AD04
  5
1AFA6
331
1AD05
  5
1AFA7
331
1AD06
  5
1AFA8
331
1AD07
  5
1AFA9
331
1AD08
  5
1AFAA
331
1AD09
  5
1AFAB
331
1AD0A
  5
1AFAC
331
1AD0B
  5
1AFAD
331
1AD0C
  5
1AFAE
331
1AD0D
  5
1AFAF
331
1AD0E
  5
1AFB0
331
1AD0F
  5
1AFB1
331
1AD10
  5
1AFB2
331
1AD11
  5
1AFB3
331
1AD12
  5
1AFB4
331
1AD13
  5
1AFB5
331
1AD14
  5
1AFB6
331
1AD15
  5
1AFB7
331
1AD16
  5
1AFB8
331
1AD17
  5
1AFB9
331
1AD18
  5
1AFBA
331
1AD19
  5
1AFBB
331
1AD1A
  5
1AFBC
331
1AD1B
  5
1AFBD
331
1AD1C
  5
1AFBE
331
1AD1D
  5
1AFBF
331
1AD1E
  5
1AFC0
331
1AD1F
  5
1AFC1
331
1AD20
  5
1AFC2
331
1AD21
  5
1AFC3
331
1AD22
  5
1AFC4
331
1AD23
  5
1AFC5
331
1AD24
  5
1AFC6
331
1AD25
  5
1AFC7
331
1AD26
  5
1AFC8
331
1AD27
  5
1AFC9
331
0
  5
1AF84
331
1AD29
  5
1AFCC
331
1AD2A
  5
1AFCD
331
1AD2B
  5
1AFCE
331
1AD2C
  5
1AFCF
331
1AD2D
  5
1AFD0
331
1AD2E
  5
1AFD1
331
1AD2F
  5
1AFD2
331
1AD30
  5
1AFD3
331
1AD31
  5
1AFD4
331
1AD32
  5
1AFD5
331
1AD33
  5
1AFD6
331
1AD34
  5
1AFD7
331
1AD35
  5
1AFD8
331
1AD36
  5
1AFD9
331
1AD37
  5
1AFDA
331
1AD38
  5
1AFDB
331
1AD39
  5
1AFDC
331
1AD3A
  5
1AFDD
331
1AD3B
  5
1AFDE
331
1AD3C
  5
1AFDF
331
1AD3D
  5
1AFE0
331
1AD3E
  5
1AFE1
331
1AD3F
  5
1AFE2
331
1AD40
  5
1AFE3
331
1AD41
  5
1AFE4
331
1AD42
  5
1AFE5
331
1AD43
  5
1AFE6
331
1AD44
  5
1AFE7
331
1AD45
  5
1AFE8
331
1AD46
  5
1AFE9
331
1AD47
  5
1AFEA
331
1AD48
  5
1AFEB
331
1AD49
  5
1AFEC
331
1AD4A
  5
1AFED
331
1AD4B
  5
1AFEE
331
1AD4C
  5
1AFEF
331
1AD4D
  5
1AFF0
331
1AD4E
  5
1AFF1
331
1AD4F
  5
1AFF2
331
1AD50
  5
1AFF3
331
1AD51
  5
1AFF4
331
1AD52
  5
1AFF5
331
1AD53
  5
1AFF6
331
1AD54
  5
1AFF7
331
1AD55
  5
1AFF8
331
1AD56
  5
1AFF9
331
1AD57
  5
1AFFA
331
1AD58
  5
1AFFB
331
1AD59
  5
1AFFC
331
1AD5A
  5
1AFFD
331
1AD5B
  5
1AFFE
331
1AD5C
  5
1AFFF
331
1AD5D
  5
1B000
331
1AD5E
  5
1B001
331
1AD5F
  5
1B002
331
1AD60
  5
1B003
331
1AD61
  5
1B004
331
1AD62
  5
1B005
331
1AD63
  5
1B006
331
1AD64
  5
1B007
331
1AD65
  5
1B008
331
1AD66
  5
1B009
331
1AD67
  5
1B00A
331
1AD68
  5
1B00B
331
1AD69
  5
1B00C
331
1AD6A
  5
1B00D
331
1AD6B
  5
1B00E
331
1AD6C
  5
1B00F
331
1AD6D
  5
1B010
331
1AD6E
  5
1B011
331
1AD6F
  5
1B012
331
1AD70
  5
1B013
331
1AD71
  5
1B014
331
1AD72
  5
1B015
331
1AD73
  5
1B016
331
1AD74
  5
1B017
331
1AD75
  5
1B018
331
1AD76
  5
1B019
331
1AD77
  5
1B01A
331
1AD78
  5
1B01B
331
1AD79
  5
1B01C
331
1AD7A
  5
1B01D
331
1AD7B
  5
1B01E
331
1AD7C
  5
1B01F
331
1AD7D
  5
1B020
331
1AD7E
  5
1B021
331
1AD7F
  5
1B022
331
1AD80
  5
1B023
331
1AD81
  5
1B024
331
1AD82
  5
1B025
331
1AD83
  5
1B026
331
1AD84
  5
1B027
331
1AD85
  5
1B028
331
1AD86
  5
1B029
331
1AD87
  5
1B02A
331
1AD88
  5
1B02B
331
1AD89
  5
1B02C
331
1AD8A
  5
1B02D
331
1AD8B
  5
1B02E
331
1AD8C
  5
1B02F
331
1AD8D
  5
1B030
331
1AD8E
  5
1B031
331
1AD8F
  5
1B032
331
1AF82
  5
1ABCD
331
1AF83
  5
1ABCF
331
1AF84
  5
1ABD6
331
1AF85
  5
1ABDA
331
1AF86
  5
1ABDB
331
0
  5
1ABD7
331
0
  5
1ABD8
331
0
  5
1ABD9
331
1AF8A
  5
1ABEF
331
1AF8B
  5
1ABF0
331
1AF8C
  5
1ABF1
331
0
  5
1ABE0
331
0
  5
1ABE1
331
0
  5
1ABE2
331
1AF90
  5
1ABF9
331
1AF91
  5
1ABFA
331
1AF92
  5
1ABFB
331
0
  5
1ABE6
331
0
  5
1ABE7
331
0
  5
1ABE8
331
1AF96
  5
1AC03
331
1AF97
  5
1AC04
331
1AF98
  5
1AC05
331
0
  5
1ABEC
331
0
  5
1ABED
331
0
  5
1ABEE
331
1AF9C
  5
1AC96
331
1AF9D
  5
1AC97
331
1AF9E
  5
1AC98
331
0
  5
1AC69
331
0
  5
1AC6A
331
0
  5
1AC6B
331
1AFA2
  5
1ACEC
331
1AFA3
  5
1ACED
331
1AFA4
  5
1ACEE
331
0
  5
1ACB4
331
0
  5
1ACB5
331
0
  5
1ACB6
331
1AFA8
  5
1ACF6
331
1AFA9
  5
1ACF7
331
1AFAA
  5
1ACF8
331
0
  5
1ACBA
331
0
  5
1ACBB
331
0
  5
1ACBC
331
1AFAE
  5
1AD1F
331
1AFAF
  5
1AD20
331
1AFB0
  5
1AD21
331
0
  5
1ACDF
331
0
  5
1ACE0
331
0
  5
1ACE1
331
1AFB4
  5
1ABDC
331
1AFB5
  5
1ABDD
331
1AFB6
  5
1ABDE
331
1AFB7
  5
1ABDF
331
1AFB8
  5
1ABE3
331
1AFB9
  5
1ABE4
331
1AFBA
  5
1ABE5
331
1AFBB
  5
1ABF2
331
1AFBC
  5
1ABF3
331
1AFBD
  5
1ABF4
331
1AFBE
  5
1ABF5
331
1AFBF
  5
1ABF6
331
1AFC0
  5
1ABF7
331
1AFC1
  5
1ABF8
331
1AFC2
  5
1ABFC
331
1AFC3
  5
1ABFD
331
1AFC4
  5
1ABFE
331
1AFC5
  5
1ABFF
331
1AFC6
  5
1AC00
331
1AFC7
  5
1AC01
331
1AFC8
  5
1AC02
331
1AFC9
  5
1AC06
331
1AFCA
  5
1AC07
331
1AFCB
  5
1AC08
331
1AFCC
  5
1AC09
331
1AFCD
  5
1AC0A
331
1AFCE
  5
1AC0B
331
1AFCF
  5
1AC0C
331
1AFD0
  5
1AC99
331
1AFD1
  5
1AC9A
331
1AFD2
  5
1AC9B
331
1AFD3
  5
1AC9C
331
1AFD4
  5
1AC9D
331
1AFD5
  5
1AC9E
331
1AFD6
  5
1AC9F
331
1AFD7
  5
1ACEF
331
1AFD8
  5
1ACF0
331
1AFD9
  5
1ACF1
331
1AFDA
  5
1ACF2
331
1AFDB
  5
1ACF3
331
1AFDC
  5
1ACF4
331
1AFDD
  5
1ACF5
331
1AFDE
  5
1ACF9
331
1AFDF
  5
1ACFA
331
1AFE0
  5
1ACFB
331
1AFE1
  5
1ACFC
331
1AFE2
  5
1ACFD
331
1AFE3
  5
1ACFE
331
1AFE4
  5
1ACFF
331
1AFE5
  5
1AD22
331
1AFE6
  5
1AD23
331
1AFE7
  5
1AD24
331
1AFE8
  5
1AD25
331
1AFE9
  5
1AD26
331
1AFEA
  5
1AD27
331
1AFEB
  5
1AD28
331
1AFEC
  5
1ABD1
331
1AFED
  5
1ABD5
331
1AFEE
  5
1AC54
331
1AFEF
  5
1AC55
331
1AFF0
  5
1AC56
331
0
  5
1AC57
331
0
  5
1AC58
331
0
  5
1AC59
331
1AFF4
  5
1AD7E
331
1AFF5
  5
1AD7F
331
1AFF6
  5
1AD83
331
0
  5
1AD74
331
0
  5
1AD75
331
0
  5
1AD76
331
1AFFA
  5
1AD8E
331
1AFFB
  5
1AD8F
331
1AFFC
  5
1AF82
331
0
  5
1AD7A
331
0
  5
1AD7B
331
0
  5
1AD7C
331
1B000
  5
1AF8B
331
1B001
  5
1AF8C
331
1B002
  5
1AF8D
331
0
  5
1AD80
331
0
  5
1AD81
331
0
  5
1AD82
331
1B006
  5
1AF95
331
1B007
  5
1AF96
331
1B008
  5
1AF97
331
0
  5
1AD86
331
0
  5
1AD87
331
0
  5
1AD88
331
1B00C
  5
1AF9F
331
1B00D
  5
1AFA0
331
1B00E
  5
1AFCA
331
1B00F
  5
1AFCB
331
1B010
  5
1AC5E
331
1B011
  5
1AC63
331
1B012
  5
1AC64
331
1B013
  5
1AC65
331
1B014
  5
1AC66
331
1B015
  5
1AC67
331
1B016
  5
1AC68
331
1B017
  5
1AD84
331
1B018
  5
1AD85
331
1B019
  5
1AD89
331
1B01A
  5
1AD8A
331
1B01B
  5
1AD8B
331
1B01C
  5
1AD8C
331
1B01D
  5
1AD8D
331
1B01E
  5
1AF83
331
1B01F
  5
1AF85
331
1B020
  5
1AF86
331
1B021
  5
1AF87
331
1B022
  5
1AF88
331
1B023
  5
1AF89
331
1B024
  5
1AF8A
331
1B025
  5
1AF8E
331
1B026
  5
1AF8F
331
1B027
  5
1AF90
331
1B028
  5
1AF91
331
1B029
  5
1AF92
331
1B02A
  5
1AF93
331
1B02B
  5
1AF94
331
1B02C
  5
1AF98
331
1B02D
  5
1AF99
331
1B02E
  5
1AF9A
331
1B02F
  5
1AF9B
331
1B030
  5
1AF9C
331
1B031
  5
1AF9D
331
1B032
  5
1AF9E
  0
MATERIAL
  5
D9A4
102
{ACAD_REACTORS
330
18C
102
}
102
{ACAD_XDICTIONARY
360
1B1D1
102
}
330
18C
100
AcDbMaterial
  1
BYBLOCK
 72
     0
 73
     2
 43
0.0208333333333333
 43
0.0
 43
0.0
 43
0.0
 43
0.0
 43
0.0208333333333333
 43
0.0
 43
0.0
 43
0.0
 43
0.0
 43
1.0
 43
0.0
 43
0.0
 43
0.0
 43
0.0
 43
1.0
 77
     0
 78
     2
 47
0.0208333333333333
 47
0.0
 47
0.0
 47
0.0
 47
0.0
 47
0.0208333333333333
 47
0.0
 47
0.0
 47
0.0
 47
0.0
 47
1.0
 47
0.0
 47
0.0
 47
0.0
 47
0.0
 47
1.0
171
     0
172
     2
 49
0.0208333333333333
 49
0.0
 49
0.0
 49
0.0
 49
0.0
 49
0.0208333333333333
 49
0.0
 49
0.0
 49
0.0
 49
0.0
 49
1.0
 49
0.0
 49
0.0
 49
0.0
 49
0.0
 49
1.0
175
     0
176
     2
142
0.0208333333333333
142
0.0
142
0.0
142
0.0
142
0.0
142
0.0208333333333333
142
0.0
142
0.0
142
0.0
142
0.0
142
1.0
142
0.0
142
0.0
142
0.0
142
0.0
142
1.0
179
     0
270
     2
144
0.0208333333333333
144
0.0
144
0.0
144
0.0
144
0.0
144
0.0208333333333333
144
0.0
144
0.0
144
0.0
144
0.0
144
1.0
144
0.0
144
0.0
144
0.0
144
0.0
144
1.0
274
     2
147
0.0208333333333333
147
0.0
147
0.0
147
0.0
147
0.0
147
0.0208333333333333
147
0.0
147
0.0
147
0.0
147
0.0
147
1.0
147
0.0
147
0.0
147
0.0
147
0.0
147
1.0
  0
MATERIAL
  5
D99C
102
{ACAD_REACTORS
330
18C
102
}
102
{ACAD_XDICTIONARY
360
1B1D3
102
}
330
18C
100
AcDbMaterial
  1
BYLAYER
 72
     0
 73
     2
 43
0.0208333333333333
 43
0.0
 43
0.0
 43
0.0
 43
0.0
 43
0.0208333333333333
 43
0.0
 43
0.0
 43
0.0
 43
0.0
 43
1.0
 43
0.0
 43
0.0
 43
0.0
 43
0.0
 43
1.0
 77
     0
 78
     2
 47
0.0208333333333333
 47
0.0
 47
0.0
 47
0.0
 47
0.0
 47
0.0208333333333333
 47
0.0
 47
0.0
 47
0.0
 47
0.0
 47
1.0
 47
0.0
 47
0.0
 47
0.0
 47
0.0
 47
1.0
171
     0
172
     2
 49
0.0208333333333333
 49
0.0
 49
0.0
 49
0.0
 49
0.0
 49
0.0208333333333333
 49
0.0
 49
0.0
 49
0.0
 49
0.0
 49
1.0
 49
0.0
 49
0.0
 49
0.0
 49
0.0
 49
1.0
175
     0
176
     2
142
0.0208333333333333
142
0.0
142
0.0
142
0.0
142
0.0
142
0.0208333333333333
142
0.0
142
0.0
142
0.0
142
0.0
142
1.0
142
0.0
142
0.0
142
0.0
142
0.0
142
1.0
179
     0
270
     2
144
0.0208333333333333
144
0.0
144
0.0
144
0.0
144
0.0
144
0.0208333333333333
144
0.0
144
0.0
144
0.0
144
0.0
144
1.0
144
0.0
144
0.0
144
0.0
144
0.0
144
1.0
274
     2
147
0.0208333333333333
147
0.0
147
0.0
147
0.0
147
0.0
147
0.0208333333333333
147
0.0
147
0.0
147
0.0
147
0.0
147
1.0
147
0.0
147
0.0
147
0.0
147
0.0
147
1.0
  0
MATERIAL
  5
D9AC
102
{ACAD_REACTORS
330
18C
102
}
102
{ACAD_XDICTIONARY
360
1B1D5
102
}
330
18C
100
AcDbMaterial
  1
GLOBAL
 72
     0
 73
     2
 43
0.0208333333333333
 43
0.0
 43
0.0
 43
0.0
 43
0.0
 43
0.0208333333333333
 43
0.0
 43
0.0
 43
0.0
 43
0.0
 43
1.0
 43
0.0
 43
0.0
 43
0.0
 43
0.0
 43
1.0
 77
     0
 78
     2
 47
0.0208333333333333
 47
0.0
 47
0.0
 47
0.0
 47
0.0
 47
0.0208333333333333
 47
0.0
 47
0.0
 47
0.0
 47
0.0
 47
1.0
 47
0.0
 47
0.0
 47
0.0
 47
0.0
 47
1.0
171
     0
172
     2
 49
0.0208333333333333
 49
0.0
 49
0.0
 49
0.0
 49
0.0
 49
0.0208333333333333
 49
0.0
 49
0.0
 49
0.0
 49
0.0
 49
1.0
 49
0.0
 49
0.0
 49
0.0
 49
0.0
 49
1.0
175
     0
176
     2
142
0.0208333333333333
142
0.0
142
0.0
142
0.0
142
0.0
142
0.0208333333333333
142
0.0
142
0.0
142
0.0
142
0.0
142
1.0
142
0.0
142
0.0
142
0.0
142
0.0
142
1.0
179
     0
270
     2
144
0.0208333333333333
144
0.0
144
0.0
144
0.0
144
0.0
144
0.0208333333333333
144
0.0
144
0.0
144
0.0
144
0.0
144
1.0
144
0.0
144
0.0
144
0.0
144
0.0
144
1.0
274
     2
147
0.0208333333333333
147
0.0
147
0.0
147
0.0
147
0.0
147
0.0208333333333333
147
0.0
147
0.0
147
0.0
147
0.0
147
1.0
147
0.0
147
0.0
147
0.0
147
0.0
147
1.0
  0
ACAD_PROXY_OBJECT
  5
D9E8
102
{ACAD_REACTORS
330
D9E7
102
}
330
D9E7
100
AcDbZombieObject
 90
      499
 91
      511
 93
      610
310
40901902A4063FBFFFFFE000000000000002040AD7A3703D0AD73F4214DD185B99185C990000000000000104090141901A00000000000004100000000000000041025764000000000000300FC0
340
12
340
0
340
F
340
0
 94
        0
1001
ACAD_MLEADERVER
1070
     2
  0
MLINESTYLE
  5
1C
102
{ACAD_REACTORS
330
1B
102
}
330
1B
100
AcDbMlineStyle
  2
STANDARD
 70
     0
  3

 62
   256
 51
90.0
 52
90.0
 71
     2
 49
0.5
 62
   256
  6
BYLAYER
 49
-0.5
 62
   256
  6
BYLAYER
  0
ACAD_PROXY_OBJECT
  5
D9C6
102
{ACAD_REACTORS
330
D9C5
102
}
330
D9C5
100
AcDbZombieObject
 90
      499
 91
      510
 93
       41
310
903313A31580
  0
ACAD_PROXY_OBJECT
  5
D9C7
102
{ACAD_REACTORS
330
D9C5
102
}
330
D9C5
100
AcDbZombieObject
 90
      499
 91
      510
 93
      105
310
903313A324000000000000004000
  0
ACAD_PROXY_OBJECT
  5
D9C8
102
{ACAD_REACTORS
330
D9C5
102
}
330
D9C5
100
AcDbZombieObject
 90
      499
 91
      510
 93
      105
310
903313A344000000000000104000
  0
ACAD_PROXY_OBJECT
  5
D9C9
102
{ACAD_REACTORS
330
D9C5
102
}
330
D9C5
100
AcDbZombieObject
 90
      499
 91
      510
 93
      105
310
903313A354000000000000144000
  0
ACAD_PROXY_OBJECT
  5
D9CA
102
{ACAD_REACTORS
330
D9C5
102
}
330
D9C5
100
AcDbZombieObject
 90
      499
 91
      510
 93
      105
310
903313A384000000000000204000
  0
ACAD_PROXY_OBJECT
  5
D9CB
102
{ACAD_REACTORS
330
D9C5
102
}
330
D9C5
100
AcDbZombieObject
 90
      499
 91
      510
 93
      113
310
904313A31304000000000000244000
  0
ACAD_PROXY_OBJECT
  5
D9CC
102
{ACAD_REACTORS
330
D9C5
102
}
330
D9C5
100
AcDbZombieObject
 90
      499
 91
      510
 93
      113
310
904313A31364000000000000304000
  0
ACAD_PROXY_OBJECT
  5
D9CD
102
{ACAD_REACTORS
330
D9C5
102
}
330
D9C5
100
AcDbZombieObject
 90
      499
 91
      510
 93
      113
310
904313A32304000000000000344000
  0
ACAD_PROXY_OBJECT
  5
D9CE
102
{ACAD_REACTORS
330
D9C5
102
}
330
D9C5
100
AcDbZombieObject
 90
      499
 91
      510
 93
      113
310
904313A333040000000000003E4000
  0
ACAD_PROXY_OBJECT
  5
D9CF
102
{ACAD_REACTORS
330
D9C5
102
}
330
D9C5
100
AcDbZombieObject
 90
      499
 91
      510
 93
      113
310
904313A34304000000000000444000
  0
ACAD_PROXY_OBJECT
  5
D9D0
102
{ACAD_REACTORS
330
D9C5
102
}
330
D9C5
100
AcDbZombieObject
 90
      499
 91
      510
 93
      113
310
904313A35304000000000000494000
  0
ACAD_PROXY_OBJECT
  5
D9D1
102
{ACAD_REACTORS
330
D9C5
102
}
330
D9C5
100
AcDbZombieObject
 90
      499
 91
      510
 93
      121
310
905313A3130304000000000000594000
  0
ACAD_PROXY_OBJECT
  5
D9D2
102
{ACAD_REACTORS
330
D9C5
102
}
330
D9C5
100
AcDbZombieObject
 90
      499
 91
      510
 93
      105
310
903323A310000000000000010100
  0
ACAD_PROXY_OBJECT
  5
D9D3
102
{ACAD_REACTORS
330
D9C5
102
}
330
D9C5
100
AcDbZombieObject
 90
      499
 91
      510
 93
      105
310
903343A310000000000000410100
  0
ACAD_PROXY_OBJECT
  5
D9D4
102
{ACAD_REACTORS
330
D9C5
102
}
330
D9C5
100
AcDbZombieObject
 90
      499
 91
      510
 93
      105
310
903383A310000000000000810100
  0
ACAD_PROXY_OBJECT
  5
D9D5
102
{ACAD_REACTORS
330
D9C5
102
}
330
D9C5
100
AcDbZombieObject
 90
      499
 91
      510
 93
      113
310
90431303A310000000000000910100
  0
ACAD_PROXY_OBJECT
  5
D9D6
102
{ACAD_REACTORS
330
D9C5
102
}
330
D9C5
100
AcDbZombieObject
 90
      499
 91
      510
 93
      121
310
9053130303A310000000000001650100
  0
ACAD_PROXY_OBJECT
  5
D9D7
102
{ACAD_REACTORS
330
D9C5
102
}
330
D9C5
100
AcDbZombieObject
 90
      499
 91
      510
 93
      257
310
90E312F31323822203D2031272D3022000000000000200FC000000000000284000
  0
ACAD_PROXY_OBJECT
  5
D9D8
102
{ACAD_REACTORS
330
D9C5
102
}
330
D9C5
100
AcDbZombieObject
 90
      499
 91
      510
 93
      249
310
90D312F363422203D2031272D3022000000000000240FC000000000000284000
  0
ACAD_PROXY_OBJECT
  5
D9D9
102
{ACAD_REACTORS
330
D9C5
102
}
330
D9C5
100
AcDbZombieObject
 90
      499
 91
      510
 93
      249
310
90D312F333222203D2031272D3022000000000000280FC000000000000284000
  0
ACAD_PROXY_OBJECT
  5
D9DA
102
{ACAD_REACTORS
330
D9C5
102
}
330
D9C5
100
AcDbZombieObject
 90
      499
 91
      510
 93
      249
310
90D312F313622203D2031272D30220000000000002C0FC000000000000284000
  0
ACAD_PROXY_OBJECT
  5
D9DB
102
{ACAD_REACTORS
330
D9C5
102
}
330
D9C5
100
AcDbZombieObject
 90
      499
 91
      510
 93
      249
310
90D332F333222203D2031272D30220000000000002E0FC000000000000284000
  0
ACAD_PROXY_OBJECT
  5
D9DC
102
{ACAD_REACTORS
330
D9C5
102
}
330
D9C5
100
AcDbZombieObject
 90
      499
 91
      510
 93
      241
310
90C312F3822203D2031272D3022000000000000300FC000000000000284000
  0
ACAD_PROXY_OBJECT
  5
D9DD
102
{ACAD_REACTORS
330
D9C5
102
}
330
D9C5
100
AcDbZombieObject
 90
      499
 91
      510
 93
      249
310
90D332F313622203D2031272D3022000000000000320FC000000000000284000
  0
ACAD_PROXY_OBJECT
  5
D9DE
102
{ACAD_REACTORS
330
D9C5
102
}
330
D9C5
100
AcDbZombieObject
 90
      499
 91
      510
 93
      241
310
90C312F3422203D2031272D3022000000000000340FC000000000000284000
  0
ACAD_PROXY_OBJECT
  5
D9DF
102
{ACAD_REACTORS
330
D9C5
102
}
330
D9C5
100
AcDbZombieObject
 90
      499
 91
      510
 93
      241
310
90C332F3822203D2031272D3022000000000000360FC000000000000284000
  0
ACAD_PROXY_OBJECT
  5
D9E0
102
{ACAD_REACTORS
330
D9C5
102
}
330
D9C5
100
AcDbZombieObject
 90
      499
 91
      510
 93
      241
310
90C312F3222203D2031272D3022000000000000380FC000000000000284000
  0
ACAD_PROXY_OBJECT
  5
D9E1
102
{ACAD_REACTORS
330
D9C5
102
}
330
D9C5
100
AcDbZombieObject
 90
      499
 91
      510
 93
      241
310
90C332F3422203D2031272D30220000000000003A0FC000000000000284000
  0
ACAD_PROXY_OBJECT
  5
D9E2
102
{ACAD_REACTORS
330
D9C5
102
}
330
D9C5
100
AcDbZombieObject
 90
      499
 91
      510
 93
      161
310
90A3122203D2031272D30224000000000000284000
  0
ACAD_PROXY_OBJECT
  5
D9E3
102
{ACAD_REACTORS
330
D9C5
102
}
330
D9C5
100
AcDbZombieObject
 90
      499
 91
      510
 93
      257
310
90E312D312F3222203D2031272D30220000000000003E0FC000000000000284000
  0
ACAD_PROXY_OBJECT
  5
D9E4
102
{ACAD_REACTORS
330
D9C5
102
}
330
D9C5
100
AcDbZombieObject
 90
      499
 91
      510
 93
      225
310
90A3322203D2031272D302200000000000002100000000000000284000
  0
ACAD_PROXY_OBJECT
  5
D9E5
102
{ACAD_REACTORS
330
D9C5
102
}
330
D9C5
100
AcDbZombieObject
 90
      499
 91
      510
 93
      225
310
90A3622203D2031272D302200000000000006100000000000000284000
  0
ACAD_PROXY_OBJECT
  5
D9E6
102
{ACAD_REACTORS
330
D9C5
102
}
330
D9C5
100
AcDbZombieObject
 90
      499
 91
      510
 93
      249
310
90D31272D3022203D2031272D30220000000000000A100000000000000284000
  0
ACAD_PROXY_OBJECT
  5
D9BA
102
{ACAD_REACTORS
330
D9B4
102
}
330
D9B4
100
AcDbZombieObject
 90
      499
 91
      509
 93
      436
310
42CC9915DA5C99599C985B595049028333333333333E3BF0000000000000FB0107901411070040501600405405064090741402480A0340
1001
ACAD
1000
AcDbSavedByObjectVersion
1070
     0
  0
ACAD_PROXY_OBJECT
  5
D9BC
102
{ACAD_REACTORS
330
D9B4
102
}
330
D9B4
100
AcDbZombieObject
 90
      499
 91
      509
 93
      500
310
424CD108121A5919195B90640502408333333333333E3BF0000000000000FB01079024090700405020000000000001110200405405064090740C02480A0340
1001
ACAD
1000
AcDbSavedByObjectVersion
1070
     0
  0
ACAD_PROXY_OBJECT
  5
D9BB
102
{ACAD_REACTORS
330
D9B4
102
}
330
D9B4
100
AcDbZombieObject
 90
      499
 91
      509
 93
      436
310
42CCD915DA5C99599C985B595059028333333333333E3BF0000000000000FB0107901411070040501600405405064090741402480A0340
1001
ACAD
1000
AcDbSavedByObjectVersion
1070
     0
  0
ACAD_PROXY_OBJECT
  5
D9B9
102
{ACAD_REACTORS
330
D9B4
102
}
330
D9B4
100
AcDbZombieObject
 90
      499
 91
      509
 93
      388
310
4150985CDA58D07406404333333333333E3BF0000000000000FB0107A41107004050150841D405064090741402480A0350
1001
ACAD
1000
AcDbSavedByObjectVersion
1070
     0
  0
ACAD_PROXY_OBJECT
  5
D9C0
102
{ACAD_REACTORS
330
D9B4
102
}
330
D9B4
100
AcDbZombieObject
 90
      499
 91
      509
 93
      428
310
42109C9A59DA1D195B90C409028333333333333E3BF0000000000000FB010790141107004050150841D405064090741402480A029950
1001
ACAD
1000
AcDbSavedByObjectVersion
1070
     0
  0
ACAD_PROXY_OBJECT
  5
D9C4
102
{ACAD_REACTORS
330
D9B4
102
}
330
D9B4
100
AcDbZombieObject
 90
      499
 91
      509
 93
      452
310
42D0DBDB1BDC90DA185B99D95104090240C333333333333E3BF0000000000000FB0108901411070040501508421405064090741402480A0350
1001
ACAD
1000
AcDbSavedByObjectVersion
1070
     0
  0
ACAD_PROXY_OBJECT
  5
D9BD
102
{ACAD_REACTORS
330
D9B4
102
}
330
D9B4
100
AcDbZombieObject
 90
      499
 91
      509
 93
      500
310
4290DBDB98D95C1D1D585B10940D028333333333333E3BF0000000000000FB0107902409070040501000000000000111010841D405064090740C02480A0340
1001
ACAD
1000
AcDbSavedByObjectVersion
1070
     0
  0
ACAD_PROXY_OBJECT
  5
D9BF
102
{ACAD_REACTORS
330
D9B4
102
}
330
D9B4
100
AcDbZombieObject
 90
      499
 91
      509
 93
      412
310
40D11A5B50B409028333333333333E3BF0000000000000FB010790141107004050150841D405064090741402480A02677FFFFFD0
1001
ACAD
1000
AcDbSavedByObjectVersion
1070
     0
  0
ACAD_PROXY_OBJECT
  5
19C2F
102
{ACAD_REACTORS
330
D9B4
102
}
330
D9B4
100
AcDbZombieObject
 90
      499
 91
      509
 93
      452
310
43115919D950DBDB1BDC93D999916409028333333333333E3BF0000000000000FB010790141107004050150841D405064090741402480A0350
1001
ACAD
1000
AcDbSavedByObjectVersion
1070
     0
  0
ACAD_PROXY_OBJECT
  5
D9C3
102
{ACAD_REACTORS
330
D9B4
102
}
330
D9B4
100
AcDbZombieObject
 90
      499
 91
      509
 93
      444
310
42D19858D95C185D1D195C9B90F409028333333333333E3BF0000000000000FB010790141107004050150841D405064090741402480A0350
1001
ACAD
1000
AcDbSavedByObjectVersion
1070
     0
  0
ACAD_PROXY_OBJECT
  5
D9B5
102
{ACAD_REACTORS
330
D9B4
102
}
330
D9B4
100
AcDbZombieObject
 90
      499
 91
      509
 93
      388
310
41119B185D240901404333333333333E3BF0000000000000F9010740A41107004050150841D405064090741402480A1B50
1001
ACAD
1000
AcDbSavedByObjectVersion
1070
     0
  0
ACAD_PROXY_OBJECT
  5
D9B6
102
{ACAD_REACTORS
330
D9B4
102
}
330
D9B4
100
AcDbZombieObject
 90
      499
 91
      509
 93
      476
310
43519B185D15DA5D1A115919D95CD0140901404333333333333E3BF0000000000000F9010740901411070040501600405405064090741402480A1B50
1001
ACAD
1000
AcDbSavedByObjectVersion
1070
     0
  0
ACAD_PROXY_OBJECT
  5
D9B7
102
{ACAD_REACTORS
330
D9B4
102
}
330
D9B4
100
AcDbZombieObject
 90
      499
 91
      509
 93
      412
310
41D1DBDD5C985D5910240902404333333333333E3BF0000000000000F9010740A411070040501641D405064090741402480A1B50
1001
ACAD
1000
AcDbSavedByObjectVersion
1070
     0
  0
ACAD_PROXY_OBJECT
  5
D9B8
102
{ACAD_REACTORS
330
D9B4
102
}
330
D9B4
100
AcDbZombieObject
 90
      499
 91
      509
 93
      500
310
4411DBDD5C985D5915DA5D1A115919D95CD0340902404333333333333E3BF0000000000000F9010740901411070040501600405405064090741402480A1B50
1001
ACAD
1000
AcDbSavedByObjectVersion
1070
     0
  0
ACAD_PROXY_OBJECT
  5
19C7E
102
{ACAD_REACTORS
330
D9B4
102
}
330
D9B4
100
AcDbZombieObject
 90
      499
 91
      509
 93
      476
310
41921A5919195B90640502408333333333333E3BF0000000000000FB01079024090700405020000000000001110200405405064090740C02480A0340
1001
ACAD
1000
AcDbSavedByObjectVersion
1070
     0
  0
ACAD_PROXY_OBJECT
  5
19C2D
102
{ACAD_REACTORS
330
D9B4
102
}
330
D9B4
100
AcDbZombieObject
 90
      499
 91
      509
 93
      428
310
42529A5D1D195C93D999914409028333333333333E3BF0000000000000FB010790141107004050150A41D405064090741402480A0350
1001
ACAD
1000
AcDbSavedByObjectVersion
1070
     0
  0
ACAD_PROXY_OBJECT
  5
D9C2
102
{ACAD_REACTORS
330
D9B4
102
}
330
D9B4
100
AcDbZombieObject
 90
      499
 91
      509
 93
      444
310
42D31A5B995C185D1D195C9B90E409028333333333333E3BF0000000000000FB010790141107004050750841D405064090741402483A0350
1001
ACAD
1000
AcDbSavedByObjectVersion
1070
     0
  0
ACAD_PROXY_OBJECT
  5
19C84
102
{ACAD_REACTORS
330
D9B4
102
}
330
D9B4
100
AcDbZombieObject
 90
      499
 91
      509
 93
      484
310
42135BD9195B1A5B99D0A409028333333333333E3BF0000000000000F901074090290700405010000000000201990108421405064090741402480A1B40
1001
ACAD
1000
AcDbSavedByObjectVersion
1070
     0
  0
ACAD_PROXY_OBJECT
  5
19C2E
102
{ACAD_REACTORS
330
D9B4
102
}
330
D9B4
100
AcDbZombieObject
 90
      499
 91
      509
 93
      444
310
42D3DD995C9A185B99D3D999915409028333333333333E3BF0000000000000FB010790141107004050150941D405064090741402480A0350
1001
ACAD
1000
AcDbSavedByObjectVersion
1070
     0
  0
ACAD_PROXY_OBJECT
  5
D9BE
102
{ACAD_REACTORS
330
D9B4
102
}
330
D9B4
100
AcDbZombieObject
 90
      499
 91
      509
 93
      420
310
425499585B1A5CDD1A58D08409028333333333333E3BF0000000000000FB01079019070040501508421405064090741402480A1B40
1001
ACAD
1000
AcDbSavedByObjectVersion
1070
     0
  0
ACAD_PROXY_OBJECT
  5
19C83
102
{ACAD_REACTORS
330
D9B4
102
}
330
D9B4
100
AcDbZombieObject
 90
      499
 91
      509
 93
      420
310
4194DA1859195911B40902404333333333333E3BF0000000000000F9010740A41107004050150800405405064090840C02480A0B40
1001
ACAD
1000
AcDbSavedByObjectVersion
1070
     0
  0
ACAD_PROXY_OBJECT
  5
19C82
102
{ACAD_REACTORS
330
D9B4
102
}
330
D9B4
100
AcDbZombieObject
 90
      499
 91
      509
 93
      516
310
4454DA18591959081DDA5D1A08195919D95CD1A40902404333333333333E3BF0000000000000F901074090142907004050250800405405064090740C02480A0B40
1001
ACAD
1000
AcDbSavedByObjectVersion
1070
     0
  0
ACAD_PROXY_OBJECT
  5
19C7F
102
{ACAD_REACTORS
330
D9B4
102
}
330
D9B4
100
AcDbZombieObject
 90
      499
 91
      509
 93
      532
310
4394DA1859195CC81BD98811DC985E5174090240C333333333333E3BF0000000000000FB01079024090741D01000000000000111010841D405064090740C02480A0340
1001
ACAD
1000
AcDbSavedByObjectVersion
1070
     0
  0
ACAD_PROXY_OBJECT
  5
19C80
102
{ACAD_REACTORS
330
D9B4
102
}
330
D9B4
100
AcDbZombieObject
 90
      499
 91
      509
 93
      476
310
41D4DAD95D18DA1E51840502408333333333333E3BF0000000000000FB01079024090741D01000000000000111010B41D405064090741802480A0340
1001
ACAD
1000
AcDbSavedByObjectVersion
1070
     0
  0
ACAD_PROXY_OBJECT
  5
D9C1
102
{ACAD_REACTORS
330
D9B4
102
}
330
D9B4
100
AcDbZombieObject
 90
      499
 91
      509
 93
      412
310
41D51A1A58DAD95B90D409028333333333333E3BF0000000000000FB010790141107004050150C41D405064090741402480A0350
1001
ACAD
1000
AcDbSavedByObjectVersion
1070
     0
  0
ACAD_PROXY_OBJECT
  5
19C7D
102
{ACAD_REACTORS
330
D9B4
102
}
330
D9B4
100
AcDbZombieObject
 90
      499
 91
      509
 93
      420
310
4255DA5C99599C985B595059028333333333333E3BF0000000000000FB0107901411070040501600405405064090740C02480A0340
1001
ACAD
1000
AcDbSavedByObjectVersion
1070
     0
  0
ACAD_PROXY_OBJECT
  5
19C81
102
{ACAD_REACTORS
330
D9B4
102
}
330
D9B4
100
AcDbZombieObject
 90
      499
 91
      509
 93
      404
310
41560B54985E51940902404000000000000E03F0000000000000FB010740501907004050150841D405064090740C02480A1B40
1001
ACAD
1000
AcDbSavedByObjectVersion
1070
     0
  0
XRECORD
  5
1B034
102
{ACAD_REACTORS
330
1B033
102
}
330
1B033
100
AcDbXrecord
340
18D
  0
XRECORD
  5
1B035
102
{ACAD_REACTORS
330
1B033
102
}
330
1B033
100
AcDbXrecord
340
18C
  0
DICTIONARYVAR
  5
1AF09
102
{ACAD_REACTORS
330
37
102
}
330
37
100
DictionaryVariables
280
     0
  1
1:1
  0
DICTIONARYVAR
  5
DA6A
102
{ACAD_REACTORS
330
37
102
}
330
37
100
DictionaryVariables
280
     0
  1
Standard
  0
DICTIONARYVAR
  5
29E
102
{ACAD_REACTORS
330
37
102
}
330
37
100
DictionaryVariables
280
     0
  1
Standard
  0
DICTIONARYVAR
  5
38
102
{ACAD_REACTORS
330
37
102
}
330
37
100
DictionaryVariables
280
     0
  1
-1
  0
DICTIONARYVAR
  5
1CE
102
{ACAD_REACTORS
330
37
102
}
330
37
100
DictionaryVariables
280
     0
  1
2
  0
DICTIONARYVAR
  5
704E
102
{ACAD_REACTORS
330
37
102
}
330
37
100
DictionaryVariables
280
     0
  1
1
  0
DICTIONARYVAR
  5
DA6D
102
{ACAD_REACTORS
330
37
102
}
330
37
100
DictionaryVariables
280
     0
  1
0
  0
DICTIONARYVAR
  5
7052
102
{ACAD_REACTORS
330
37
102
}
330
37
100
DictionaryVariables
280
     0
  1
8
  0
DICTIONARYVAR
  5
7051
102
{ACAD_REACTORS
330
37
102
}
330
37
100
DictionaryVariables
280
     0
  1
1
  0
DICTIONARYVAR
  5
1A6DD
102
{ACAD_REACTORS
330
37
102
}
330
37
100
DictionaryVariables
280
     0
  1
0
  0
DICTIONARYVAR
  5
704F
102
{ACAD_REACTORS
330
37
102
}
330
37
100
DictionaryVariables
280
     0
  1
8
  0
DICTIONARYVAR
  5
7050
102
{ACAD_REACTORS
330
37
102
}
330
37
100
DictionaryVariables
280
     0
  1
2
  0
DICTIONARYVAR
  5
1CF
102
{ACAD_REACTORS
330
37
102
}
330
37
100
DictionaryVariables
280
     0
  1

  0
DICTIONARYVAR
  5
DA6C
102
{ACAD_REACTORS
330
37
102
}
330
37
100
DictionaryVariables
280
     0
  1
127
  0
DICTIONARYVAR
  5
1AEDF
102
{ACAD_REACTORS
330
37
102
}
330
37
100
DictionaryVariables
280
     0
  1
2
  0
DICTIONARY
  5
1B1D1
330
D9A4
100
AcDbDictionary
  3
ACAD_XREC_ROUNDTRIP
360
1B1D2
1001
ACAD
1000
TREAT_AS_HARD
1070
     1
  0
DICTIONARY
  5
1B1D3
330
D99C
100
AcDbDictionary
  3
ACAD_XREC_ROUNDTRIP
360
1B1D4
1001
ACAD
1000
TREAT_AS_HARD
1070
     1
  0
DICTIONARY
  5
1B1D5
330
D9AC
100
AcDbDictionary
  3
ACAD_XREC_ROUNDTRIP
360
1B1D6
1001
ACAD
1000
TREAT_AS_HARD
1070
     1
  0
XRECORD
  5
1B1D2
102
{ACAD_REACTORS
330
1B1D1
102
}
330
1B1D1
100
AcDbXrecord
102
MATERIAL
148
0.0
149
0.0
149
0.0
 93
        0
 94
      127
282
     0
 72
     0
 77
     0
171
     0
175
     0
179
     0
273
     0
  0
XRECORD
  5
1B1D4
102
{ACAD_REACTORS
330
1B1D3
102
}
330
1B1D3
100
AcDbXrecord
102
MATERIAL
148
0.0
149
0.0
149
0.0
 93
        0
 94
      127
282
     0
 72
     0
 77
     0
171
     0
175
     0
179
     0
273
     0
  0
XRECORD
  5
1B1D6
102
{ACAD_REACTORS
330
1B1D5
102
}
330
1B1D5
100
AcDbXrecord
102
MATERIAL
148
0.0
149
0.0
149
0.0
 93
        0
 94
      127
282
     0
 72
     0
 77
     0
171
     0
175
     0
179
     0
273
     0
  0
ENDSEC
  0
EOF
