  0
SECTION
  2
HEADER
  9
$ACADVER
  1
AC1012
  9
$DWGCODEPAGE
  3
ansi_932
  9
$INSBASE
 10
0.0
 20
0.0
 30
0.0
  9
$EXTMIN
 10
4596.502241869339
 20
1010.436497043247
 30
0.0
  9
$EXTMAX
 10
5226.801985989699
 20
1435.436496480178
 30
0.0000000001127424
  9
$LIMMIN
 10
0.0
 20
0.0
  9
$LIMMAX
 10
420.0
 20
297.0
  9
$ORTHOMODE
 70
     0
  9
$REGENMODE
 70
     1
  9
$FILLMODE
 70
     1
  9
$QTEXTMODE
 70
     0
  9
$MIRRTEXT
 70
     0
  9
$DRAGMODE
 70
     2
  9
$LTSCALE
 40
0.5
  9
$OSMODE
 70
 14463
  9
$ATTMODE
 70
     1
  9
$TEXTSIZE
 40
4.0
  9
$TRACEWID
 40
1.0
  9
$TEXTSTYLE
  7
STANDARD
  9
$CLAYER
  8
1TEXT
  9
$CELTYPE
  6
BYLAYER
  9
$CECOLOR
 62
   256
  9
$CELTSCALE
 40
1.0
  9
$DELOBJ
 70
     1
  9
$DISPSILH
 70
     0
  9
$DIMSCALE
 40
1.0
  9
$DIMASZ
 40
2.0
  9
$DIMEXO
 40
0.0
  9
$DIMDLI
 40
7.0
  9
$DIMRND
 40
0.0
  9
$DIMDLE
 40
0.0
  9
$DIMEXE
 40
1.0
  9
$DIMTP
 40
0.0
  9
$DIMTM
 40
0.0
  9
$DIMTXT
 40
3.5
  9
$DIMCEN
 40
0.0
  9
$DIMTSZ
 40
0.0
  9
$DIMTOL
 70
     0
  9
$DIMLIM
 70
     0
  9
$DIMTIH
 70
     0
  9
$DIMTOH
 70
     0
  9
$DIMSE1
 70
     0
  9
$DIMSE2
 70
     0
  9
$DIMTAD
 70
     1
  9
$DIMZIN
 70
     8
  9
$DIMBLK
  1

  9
$DIMASO
 70
     1
  9
$DIMSHO
 70
     1
  9
$DIMPOST
  1
 
  9
$DIMAPOST
  1

  9
$DIMALT
 70
     0
  9
$DIMALTD
 70
     2
  9
$DIMALTF
 40
25.4
  9
$DIMLFAC
 40
1.0
  9
$DIMTOFL
 70
     1
  9
$DIMTVP
 40
0.0
  9
$DIMTIX
 70
     0
  9
$DIMSOXD
 70
     0
  9
$DIMSAH
 70
     1
  9
$DIMBLK1
  1
OPEN30
  9
$DIMBLK2
  1
OPEN30
  9
$DIMSTYLE
  2
NEWX10
  9
$DIMCLRD
 70
   256
  9
$DIMCLRE
 70
   256
  9
$DIMCLRT
 70
   201
  9
$DIMTFAC
 40
0.7
  9
$DIMGAP
 40
0.7
  9
$DIMJUST
 70
     0
  9
$DIMSD1
 70
     0
  9
$DIMSD2
 70
     0
  9
$DIMTOLJ
 70
     1
  9
$DIMTZIN
 70
     8
  9
$DIMALTZ
 70
     0
  9
$DIMALTTZ
 70
     0
  9
$DIMFIT
 70
     2
  9
$DIMUPT
 70
     0
  9
$DIMUNIT
 70
     2
  9
$DIMDEC
 70
     2
  9
$DIMTDEC
 70
     4
  9
$DIMALTU
 70
     2
  9
$DIMALTTD
 70
     2
  9
$DIMTXSTY
  7
STANDARD
  9
$DIMAUNIT
 70
     0
  9
$LUNITS
 70
     2
  9
$LUPREC
 70
     4
  9
$SKETCHINC
 40
1.0
  9
$FILLETRAD
 40
0.0
  9
$AUNITS
 70
     0
  9
$AUPREC
 70
     2
  9
$MENU
  1
acad
  9
$ELEVATION
 40
0.0
  9
$PELEVATION
 40
0.0
  9
$THICKNESS
 40
0.0
  9
$LIMCHECK
 70
     0
  9
$CHAMFERA
 40
10.0
  9
$CHAMFERB
 40
10.0
  9
$CHAMFERC
 40
20.0
  9
$CHAMFERD
 40
0.0
  9
$SKPOLY
 70
     0
  9
$TDCREATE
 40
2451318.621352917
  9
$TDUPDATE
 40
2458157.537622141
  9
$TDINDWG
 40
1.4829605903
  9
$TDUSRTIMER
 40
1.4829605903
  9
$USRTIMER
 70
     1
  9
$ANGBASE
 50
0.0
  9
$ANGDIR
 70
     0
  9
$PDMODE
 70
     0
  9
$PDSIZE
 40
0.0
  9
$PLINEWID
 40
0.0
  9
$COORDS
 70
     2
  9
$SPLFRAME
 70
     0
  9
$SPLINETYPE
 70
     6
  9
$SPLINESEGS
 70
     8
  9
$ATTDIA
 70
     0
  9
$ATTREQ
 70
     1
  9
$HANDLING
 70
     1
  9
$HANDSEED
  5
1047A
  9
$SURFTAB1
 70
     6
  9
$SURFTAB2
 70
     6
  9
$SURFTYPE
 70
     6
  9
$SURFU
 70
     6
  9
$SURFV
 70
     6
  9
$UCSNAME
  2

  9
$UCSORG
 10
0.0
 20
0.0
 30
0.0
  9
$UCSXDIR
 10
1.0
 20
0.0
 30
0.0
  9
$UCSYDIR
 10
0.0
 20
1.0
 30
0.0
  9
$PUCSNAME
  2

  9
$PUCSORG
 10
0.0
 20
0.0
 30
0.0
  9
$PUCSXDIR
 10
1.0
 20
0.0
 30
0.0
  9
$PUCSYDIR
 10
0.0
 20
1.0
 30
0.0
  9
$USERI1
 70
     0
  9
$USERI2
 70
     0
  9
$USERI3
 70
     0
  9
$USERI4
 70
     0
  9
$USERI5
 70
     0
  9
$USERR1
 40
0.0
  9
$USERR2
 40
0.0
  9
$USERR3
 40
0.0
  9
$USERR4
 40
0.0
  9
$USERR5
 40
0.0
  9
$WORLDVIEW
 70
     1
  9
$SHADEDGE
 70
     3
  9
$SHADEDIF
 70
    70
  9
$TILEMODE
 70
     1
  9
$MAXACTVP
 70
    48
  9
$PINSBASE
 10
0.0
 20
0.0
 30
0.0
  9
$PLIMCHECK
 70
     0
  9
$PEXTMIN
 10
1.000000000000000E+20
 20
1.000000000000000E+20
 30
1.000000000000000E+20
  9
$PEXTMAX
 10
-1.000000000000000E+20
 20
-1.000000000000000E+20
 30
-1.000000000000000E+20
  9
$PLIMMIN
 10
0.0
 20
0.0
  9
$PLIMMAX
 10
420.0
 20
297.0
  9
$UNITMODE
 70
     0
  9
$VISRETAIN
 70
     1
  9
$PLINEGEN
 70
     0
  9
$PSLTSCALE
 70
     1
  9
$TREEDEPTH
 70
  3020
  9
$PICKSTYLE
 70
     1
  9
$CMLSTYLE
  2
STANDARD
  9
$CMLJUST
 70
     0
  9
$CMLSCALE
 40
20.0
  9
$SAVEIMAGES
 70
     1
  0
ENDSEC
  0
SECTION
  2
CLASSES
  0
CLASS
  1
DICTIONARYVAR
  2
AcDbDictionaryVar
  3
ObjectDBX Classes
 90
        0
280
     0
281
     0
  0
CLASS
  1
IDBUFFER
  2
AcDbIdBuffer
  3
ObjectDBX Classes
 90
    32768
280
     0
281
     0
  0
CLASS
  1
LWPOLYLINE
  2
AcDbPolyline
  3
ObjectDBX Classes
 90
    32768
280
     0
281
     1
  0
CLASS
  1
ACDBDICTIONARYWDFLT
  2
AcDbDictionaryWithDefault
  3
ObjectDBX Classes
 90
    32768
280
     0
281
     0
  0
CLASS
  1
ACDBPLACEHOLDER
  2
AcDbPlaceHolder
  3
ObjectDBX Classes
 90
        0
280
     0
281
     0
  0
CLASS
  1
LAYOUT
  2
AcDbLayout
  3
ObjectDBX Classes
 90
        0
280
     0
281
     0
  0
CLASS
  1
TABLESTYLE
  2
AcDbTableStyle
  3
ObjectDBX Classes
 90
     4095
280
     0
281
     0
  0
CLASS
  1
SORTENTSTABLE
  2
AcDbSortentsTable
  3
ObjectDBX Classes
 90
    32768
280
     0
281
     0
  0
CLASS
  1
MATERIAL
  2
AcDbMaterial
  3
ObjectDBX Classes
 90
     1153
280
     0
281
     0
  0
CLASS
  1
VISUALSTYLE
  2
AcDbVisualStyle
  3
ObjectDBX Classes
 90
     4095
280
     0
281
     0
  0
CLASS
  1
SCALE
  2
AcDbScale
  3
ObjectDBX Classes
 90
     1153
280
     0
281
     0
  0
CLASS
  1
MLEADERSTYLE
  2
AcDbMLeaderStyle
  3
ACDB_MLEADERSTYLE_CLASS
 90
     4095
280
     0
281
     0
  0
CLASS
  1
CELLSTYLEMAP
  2
AcDbCellStyleMap
  3
ObjectDBX Classes
 90
     1152
280
     0
281
     0
  0
CLASS
  1
SUN
  2
AcDbSun
  3
SCENEOE
 90
     1153
280
     0
281
     0
  0
CLASS
  1
XRECORD
  2
AcDbXrecord
  3
ObjectDBX Classes
 90
    32768
280
     0
281
     0
  0
CLASS
  1
HATCH
  2
AcDbHatch
  3
ObjectDBX Classes
 90
    32768
280
     0
281
     1
  0
ENDSEC
  0
SECTION
  2
TABLES
  0
TABLE
  2
VPORT
  5
8
330
0
100
AcDbSymbolTable
 70
     1
  0
VPORT
  5
952D
330
8
100
AcDbSymbolTableRecord
100
AcDbViewportTableRecord
  2
*ACTIVE
 70
     0
 10
0.0
 20
0.0
 11
1.0
 21
1.0
 12
4911.652113929518
 22
1222.936496761712
 13
0.0
 23
0.0
 14
10.0
 24
10.0
 15
10.0
 25
10.0
 16
0.0
 26
0.0
 36
1.0
 17
0.0
 27
0.0
 37
0.0
 40
456.3157888691263
 41
1.871481028151775
 42
50.0
 43
0.0
 44
0.0
 50
0.0
 51
0.0
 71
    16
 72
   100
 73
     1
 74
     1
 75
     0
 76
     0
 77
     0
 78
     0
1001
ACAD_NAV_VCDISPLAY
1070
     3
  0
ENDTAB
  0
TABLE
  2
LTYPE
  5
5
330
0
100
AcDbSymbolTable
 70
     3
  0
LTYPE
  5
12
330
5
100
AcDbSymbolTableRecord
100
AcDbLinetypeTableRecord
  2
BYBLOCK
 70
     0
  3

 72
    65
 73
     0
 40
0.0
  0
LTYPE
  5
13
330
5
100
AcDbSymbolTableRecord
100
AcDbLinetypeTableRecord
  2
BYLAYER
 70
     0
  3

 72
    65
 73
     0
 40
0.0
  0
LTYPE
  5
14
330
5
100
AcDbSymbolTableRecord
100
AcDbLinetypeTableRecord
  2
CONTINUOUS
 70
     0
  3
Solid line
 72
    65
 73
     0
 40
0.0
  0
LTYPE
  5
2C03
330
5
100
AcDbSymbolTableRecord
100
AcDbLinetypeTableRecord
  2
HIDDEN
 70
     0
  3
Hidden __ __ __ __ __ __ __ __ __ __ __ __ __ _
 72
    65
 73
     2
 40
9.524999999999999
 49
6.35
 74
     0
 49
-3.175
 74
     0
  0
LTYPE
  5
9837
330
5
100
AcDbSymbolTableRecord
100
AcDbLinetypeTableRecord
  2
CENTER2
 70
     0
  3
Center (.5x) ___ _ ___ _ ___ _ ___ _ ___ _ ___
 72
    65
 73
     4
 40
28.575
 49
19.05
 74
     0
 49
-3.175
 74
     0
 49
3.175
 74
     0
 49
-3.175
 74
     0
  0
ENDTAB
  0
TABLE
  2
LAYER
  5
2
102
{ACAD_XDICTIONARY
360
96D9
102
}
330
0
100
AcDbSymbolTable
 70
     6
  0
LAYER
  5
E
102
{ACAD_XDICTIONARY
360
9593
102
}
330
2
100
AcDbSymbolTableRecord
100
AcDbLayerTableRecord
  2
0
 70
     0
 62
     7
  6
CONTINUOUS
  0
LAYER
  5
29
102
{ACAD_XDICTIONARY
360
9595
102
}
330
2
100
AcDbSymbolTableRecord
100
AcDbLayerTableRecord
  2
1CENTER
 70
     0
 62
     7
  6
CENTER2
  0
LAYER
  5
31
102
{ACAD_XDICTIONARY
360
9597
102
}
330
2
100
AcDbSymbolTableRecord
100
AcDbLayerTableRecord
  2
1TEXT
 70
     0
 62
     7
  6
CONTINUOUS
  0
LAYER
  5
243
102
{ACAD_XDICTIONARY
360
959D
102
}
330
2
100
AcDbSymbolTableRecord
100
AcDbLayerTableRecord
  2
01
 70
     0
 62
     1
  6
CONTINUOUS
  0
LAYER
  5
24E
102
{ACAD_XDICTIONARY
360
95A3
102
}
330
2
100
AcDbSymbolTableRecord
100
AcDbLayerTableRecord
  2
1DIM
 70
     0
 62
     7
  6
CONTINUOUS
  0
LAYER
  5
2C05
102
{ACAD_XDICTIONARY
360
95AF
102
}
330
2
100
AcDbSymbolTableRecord
100
AcDbLayerTableRecord
  2
1HIDDEN
 70
     0
 62
     7
  6
HIDDEN
  0
ENDTAB
  0
TABLE
  2
STYLE
  5
3
330
0
100
AcDbSymbolTable
 70
     1
  0
STYLE
  5
F
330
3
100
AcDbSymbolTableRecord
100
AcDbTextStyleTableRecord
  2
STANDARD
 70
     0
 40
0.0
 41
1.0
 50
0.0
 71
     0
 42
4.0
  3
txt.shx
  4
extfont.shx
  0
ENDTAB
  0
TABLE
  2
VIEW
  5
6
330
0
100
AcDbSymbolTable
 70
     0
  0
ENDTAB
  0
TABLE
  2
UCS
  5
7
330
0
100
AcDbSymbolTable
 70
     0
  0
ENDTAB
  0
TABLE
  2
APPID
  5
9
330
0
100
AcDbSymbolTable
 70
    14
  0
APPID
  5
10
330
9
100
AcDbSymbolTableRecord
100
AcDbRegAppTableRecord
  2
ACAD
 70
     0
  0
APPID
  5
21
330
9
100
AcDbSymbolTableRecord
100
AcDbRegAppTableRecord
  2
DRAWINGVARIABLESXDATA
 70
     0
  0
APPID
  5
64
330
9
100
AcDbSymbolTableRecord
100
AcDbRegAppTableRecord
  2
CONTENTTABDATA
 70
     0
  0
APPID
  5
65
330
9
100
AcDbSymbolTableRecord
100
AcDbRegAppTableRecord
  2
CONTENTCURRENTTAB
 70
     0
  0
APPID
  5
66
330
9
100
AcDbSymbolTableRecord
100
AcDbRegAppTableRecord
  2
CONTENTBLOCKDESCRIPTION
 70
     0
  0
APPID
  5
67
330
9
100
AcDbSymbolTableRecord
100
AcDbRegAppTableRecord
  2
CONTENTBLOCKICON
 70
     0
  0
APPID
  5
68
330
9
100
AcDbSymbolTableRecord
100
AcDbRegAppTableRecord
  2
CONTENTLONGBLOCKNAME
 70
     0
  0
APPID
  5
2AE
330
9
100
AcDbSymbolTableRecord
100
AcDbRegAppTableRecord
  2
ACAD_PSEXT
 70
     0
  0
APPID
  5
9585
330
9
100
AcDbSymbolTableRecord
100
AcDbRegAppTableRecord
  2
ACAD_MLEADERVER
 70
     0
  0
APPID
  5
A2E3
330
9
100
AcDbSymbolTableRecord
100
AcDbRegAppTableRecord
  2
ACADANNOTATIVE
 70
     0
  0
APPID
  5
A2E4
330
9
100
AcDbSymbolTableRecord
100
AcDbRegAppTableRecord
  2
ACDBBLOCKREPETAG
 70
     0
  0
APPID
  5
AEB1
330
9
100
AcDbSymbolTableRecord
100
AcDbRegAppTableRecord
  2
ACAD_NAV_VCDISPLAY
 70
     0
  0
APPID
  5
B6A4
330
9
100
AcDbSymbolTableRecord
100
AcDbRegAppTableRecord
  2
ACAECLAYERSTANDARD
 70
     0
  0
APPID
  5
E1EF
330
9
100
AcDbSymbolTableRecord
100
AcDbRegAppTableRecord
  2
ACAD_EXEMPT_FROM_CAD_STAND
 70
     0
  0
ENDTAB
  0
TABLE
  2
DIMSTYLE
  5
A
330
0
100
AcDbSymbolTable
 70
     1
  0
DIMSTYLE
105
48
330
A
100
AcDbSymbolTableRecord
100
AcDbDimStyleTableRecord
  2
NEWX10
 70
     0
  3
 
  4

  5

  6
OPEN30
  7
OPEN30
 40
1.0
 41
2.0
 42
0.0
 43
7.0
 44
1.0
 45
0.0
 46
0.0
 47
0.0
 48
0.0
140
3.5
141
0.0
142
0.0
143
25.4
144
1.0
145
0.0
146
0.7
147
0.7
 71
     0
 72
     0
 73
     0
 74
     0
 75
     0
 76
     0
 77
     1
 78
     8
170
     0
171
     2
172
     1
173
     1
174
     0
175
     0
176
   256
177
   256
178
   201
179
     2
270
     2
271
     2
272
     4
273
     2
274
     2
340
F
275
     0
280
     0
281
     0
282
     0
283
     1
284
     8
285
     0
286
     0
287
     2
288
     0
  0
ENDTAB
  0
TABLE
  2
BLOCK_RECORD
  5
1
330
0
100
AcDbSymbolTable
 70
     8
  0
BLOCK_RECORD
  5
18
102
{ACAD_XDICTIONARY
360
88F
102
}
330
1
100
AcDbSymbolTableRecord
100
AcDbBlockTableRecord
  2
*MODEL_SPACE
  0
BLOCK_RECORD
  5
15
330
1
100
AcDbSymbolTableRecord
100
AcDbBlockTableRecord
  2
*PAPER_SPACE
  0
BLOCK_RECORD
  5
42
330
1
100
AcDbSymbolTableRecord
100
AcDbBlockTableRecord
  2
_OPEN30
  0
BLOCK_RECORD
  5
A333
330
1
100
AcDbSymbolTableRecord
100
AcDbBlockTableRecord
  2
A3WAKUKAWAJUN2017_HYOUDAI_
  0
BLOCK_RECORD
  5
102DA
330
1
100
AcDbSymbolTableRecord
100
AcDbBlockTableRecord
  2
*X124
  0
BLOCK_RECORD
  5
10328
330
1
100
AcDbSymbolTableRecord
100
AcDbBlockTableRecord
  2
*X125
  0
BLOCK_RECORD
  5
1037A
330
1
100
AcDbSymbolTableRecord
100
AcDbBlockTableRecord
  2
*X126
  0
BLOCK_RECORD
  5
103CB
330
1
100
AcDbSymbolTableRecord
100
AcDbBlockTableRecord
  2
*X127
  0
BLOCK_RECORD
  5
10408
330
1
100
AcDbSymbolTableRecord
100
AcDbBlockTableRecord
  2
*X128
  0
BLOCK_RECORD
  5
10448
330
1
100
AcDbSymbolTableRecord
100
AcDbBlockTableRecord
  2
*X129
  0
ENDTAB
  0
ENDSEC
  0
SECTION
  2
BLOCKS
  0
BLOCK
  5
19
330
18
100
AcDbEntity
  8
0
100
AcDbBlockBegin
  2
*MODEL_SPACE
 70
     0
 10
0.0
 20
0.0
 30
0.0
  3
*MODEL_SPACE
  1

  0
ENDBLK
  5
1A
330
18
100
AcDbEntity
  8
0
100
AcDbBlockEnd
  0
BLOCK
  5
16
330
15
100
AcDbEntity
 67
     1
  8
0
100
AcDbBlockBegin
  2
*PAPER_SPACE
 70
     0
 10
0.0
 20
0.0
 30
0.0
  3
*PAPER_SPACE
  1

  0
ENDBLK
  5
17
330
15
100
AcDbEntity
 67
     1
  8
0
100
AcDbBlockEnd
  0
BLOCK
  5
43
330
42
100
AcDbEntity
  8
0
100
AcDbBlockBegin
  2
_OPEN30
 70
     0
 10
0.0
 20
0.0
 30
0.0
  3
_OPEN30
  1

  0
LINE
  5
44
330
42
100
AcDbEntity
  8
0
  6
BYBLOCK
 62
     0
100
AcDbLine
 10
-1.0
 20
0.26794919
 30
0.0
 11
0.0
 21
0.0
 31
0.0
  0
LINE
  5
45
330
42
100
AcDbEntity
  8
0
  6
BYBLOCK
 62
     0
100
AcDbLine
 10
0.0
 20
0.0
 30
0.0
 11
-1.0
 21
-0.26794919
 31
0.0
  0
LINE
  5
46
330
42
100
AcDbEntity
  8
0
  6
BYBLOCK
 62
     0
100
AcDbLine
 10
0.0
 20
0.0
 30
0.0
 11
-1.0
 21
0.0
 31
0.0
  0
ENDBLK
  5
47
330
42
100
AcDbEntity
  8
0
100
AcDbBlockEnd
  0
BLOCK
  5
AA56
330
A333
100
AcDbEntity
  8
0
100
AcDbBlockBegin
  2
A3WAKUKAWAJUN2017_HYOUDAI_
 70
     0
 10
0.0
 20
0.0
 30
0.0
  3
A3WAKUKAWAJUN2017_HYOUDAI_
  1

  0
LINE
  5
A335
330
A333
100
AcDbEntity
  8
0
100
AcDbLine
 10
13.26299999998673
 20
-0.0001000000000317
 30
0.0
 11
9.236999999990758
 21
8.999899999990987
 31
0.0
1001
ACAD
1000
ASC_BOUNDS
1002
{
1070
    19
1005
A376
1002
}
  0
LINE
  5
A336
330
A333
100
AcDbEntity
  8
0
100
AcDbLine
 10
5.657999999994331
 20
0.9999999999989768
 30
0.0
 11
9.236999999990758
 21
8.999999999991019
 31
0.0
1001
ACAD
1000
ASC_BOUNDS
1002
{
1070
    19
1005
A376
1002
}
  0
LINE
  5
A337
330
A333
100
AcDbEntity
  8
0
100
AcDbLine
 10
18.59199999998134
 20
-0.2368999999997641
 30
0.0
 11
16.46099999998353
 21
5.432899999994561
 31
0.0
1001
ACAD
1000
ASC_BOUNDS
1002
{
1070
    19
1005
A377
1002
}
  0
LINE
  5
A338
330
A333
100
AcDbEntity
  8
0
100
AcDbLine
 10
18.59199999998134
 20
-0.2368999999997641
 30
0.0
 11
22.38199999997767
 21
8.763099999991255
 31
0.0
1001
ACAD
1000
ASC_BOUNDS
1002
{
1070
    19
1005
A377
1002
}
  0
LINE
  5
A339
330
A333
100
AcDbEntity
  8
0
100
AcDbLine
 10
14.32899999998563
 20
-0.2368999999997641
 30
0.0
 11
16.46099999998353
 21
5.432899999994561
 31
0.0
1001
ACAD
1000
ASC_BOUNDS
1002
{
1070
    19
1005
A377
1002
}
  0
LINE
  5
A33A
330
A333
100
AcDbEntity
  8
0
100
AcDbLine
 10
14.32899999998563
 20
-0.2368999999997641
 30
0.0
 11
10.53899999998941
 21
8.763099999991255
 31
0.0
1001
ACAD
1000
ASC_BOUNDS
1002
{
1070
    19
1005
A377
1002
}
  0
LINE
  5
A33B
330
A333
100
AcDbEntity
  8
0
100
AcDbLine
 10
19.53899999998043
 20
-0.0001000000000317
 30
0.0
 11
23.56599999997638
 21
8.999899999990987
 31
0.0
1001
ACAD
1000
ASC_BOUNDS
1002
{
1070
    19
1005
A378
1002
}
  0
LINE
  5
A33C
330
A333
100
AcDbEntity
  8
0
100
AcDbLine
 10
26.97358892824991
 20
1.383099999991202
 30
0.0
 11
23.56599999997638
 21
8.999899999990987
 31
0.0
1001
ACAD
1000
ASC_BOUNDS
1002
{
1070
    19
1005
A378
1002
}
  0
LINE
  5
A33D
330
A333
100
AcDbEntity
  8
0
100
AcDbLine
 10
5.657999999994331
 20
0.9999999999989768
 30
0.0
 11
3.181999999996833
 21
4.668599999995308
 31
0.0
1001
ACAD
1000
ASC_BOUNDS
1002
{
1070
    19
1005
A376
1002
}
  0
LINE
  5
A33E
330
A333
100
AcDbEntity
  8
0
100
AcDbLine
 10
4.617999999995391
 20
-0.0001000000000317
 30
0.0
 11
1.420999999998571
 21
4.736799999995242
 31
0.0
1001
ACAD
1000
ASC_BOUNDS
1002
{
1070
    19
1005
A376
1002
}
  0
LINE
  5
A33F
330
A333
100
AcDbEntity
  8
0
100
AcDbLine
 10
1.420999999998571
 20
8.763099999991255
 30
0.0
 11
1.420999999998571
 21
0.0
 31
0.0
1001
ACAD
1000
ASC_BOUNDS
1002
{
1070
    19
1005
A37B
1002
}
  0
LINE
  5
A340
330
A333
100
AcDbEntity
  8
0
100
AcDbLine
 10
0.0
 20
8.763099999991255
 30
0.0
 11
0.0
 21
0.0
 31
0.0
1001
ACAD
1000
ASC_BOUNDS
1002
{
1070
    19
1005
A37B
1002
}
  0
LINE
  5
A341
330
A333
100
AcDbEntity
  8
0
100
AcDbLine
 10
6.766999999993232
 20
-0.0001000000000317
 30
0.0
 11
7.826999999992154
 21
2.368399999997621
 31
0.0
1001
ACAD
1000
ASC_BOUNDS
1002
{
1070
    19
1005
A376
1002
}
  0
LINE
  5
A342
330
A333
100
AcDbEntity
  8
0
100
AcDbLine
 10
0.0
 20
0.0
 30
0.0
 11
1.420999999998571
 21
0.0
 31
0.0
1001
ACAD
1000
ASC_BOUNDS
1002
{
1070
    19
1005
A37B
1002
}
  0
LINE
  5
A343
330
A333
100
AcDbEntity
  8
0
100
AcDbLine
 10
4.617999999995391
 20
0.0
 30
0.0
 11
6.766999999993232
 21
0.0
 31
0.0
1001
ACAD
1000
ASC_BOUNDS
1002
{
1070
    19
1005
A376
1002
}
  0
LINE
  5
A344
330
A333
100
AcDbEntity
  8
0
100
AcDbLine
 10
11.70599999998831
 20
-0.0001000000000317
 30
0.0
 11
10.64699999998936
 21
2.368399999997621
 31
0.0
1001
ACAD
1000
ASC_BOUNDS
1002
{
1070
    19
1005
A376
1002
}
  0
LINE
  5
A345
330
A333
100
AcDbEntity
  8
0
100
AcDbLine
 10
7.826999999992154
 20
2.368399999997621
 30
0.0
 11
10.64699999998936
 21
2.368399999997621
 31
0.0
1001
ACAD
1000
ASC_BOUNDS
1002
{
1070
    19
1005
A376
1002
}
  0
LINE
  5
A346
330
A333
100
AcDbEntity
  8
0
100
AcDbLine
 10
11.70599999998831
 20
0.0
 30
0.0
 11
13.26299999998673
 21
0.0
 31
0.0
1001
ACAD
1000
ASC_BOUNDS
1002
{
1070
    19
1005
A376
1002
}
  0
LINE
  5
A347
330
A333
100
AcDbEntity
  8
0
100
AcDbLine
 10
22.15599999997789
 20
2.368399999997621
 30
0.0
 11
24.97599999997499
 21
2.368399999997621
 31
0.0
1001
ACAD
1000
ASC_BOUNDS
1002
{
1070
    19
1005
A378
1002
}
  0
LINE
  5
A348
330
A333
100
AcDbEntity
  8
0
100
AcDbLine
 10
19.53899999998043
 20
0.0
 30
0.0
 11
21.09599999997886
 21
0.0
 31
0.0
1001
ACAD
1000
ASC_BOUNDS
1002
{
1070
    19
1005
A378
1002
}
  0
LINE
  5
A349
330
A333
100
AcDbEntity
  8
0
100
AcDbLine
 10
21.09599999997886
 20
-0.0001000000000317
 30
0.0
 11
22.15599999997789
 21
2.368399999997621
 31
0.0
1001
ACAD
1000
ASC_BOUNDS
1002
{
1070
    19
1005
A378
1002
}
  0
LINE
  5
A34A
330
A333
100
AcDbEntity
  8
0
100
AcDbLine
 10
26.02015566812236
 20
0.0330999999912365
 30
0.0
 11
24.97599999997499
 21
2.368399999997621
 31
0.0
1001
ACAD
1000
ASC_BOUNDS
1002
{
1070
    19
1005
A378
1002
}
  0
LINE
  5
A34B
330
A333
100
AcDbEntity
  8
0
100
AcDbLine
 10
14.32399999998563
 20
3.315799999996671
 30
0.0
 11
16.46099999998353
 21
8.999899999990987
 31
0.0
1001
ACAD
1000
ASC_BOUNDS
1002
{
1070
    19
1005
A377
1002
}
  0
LINE
  5
A34C
330
A333
100
AcDbEntity
  8
0
100
AcDbLine
 10
6.432999999993513
 20
8.763099999991255
 30
0.0
 11
3.181999999996833
 21
4.668599999995308
 31
0.0
1001
ACAD
1000
ASC_BOUNDS
1002
{
1070
    19
1005
A376
1002
}
  0
LINE
  5
A34D
330
A333
100
AcDbEntity
  8
0
100
AcDbLine
 10
4.617999999995391
 20
8.763099999991255
 30
0.0
 11
1.420999999998571
 21
4.736799999995242
 31
0.0
1001
ACAD
1000
ASC_BOUNDS
1002
{
1070
    19
1005
A376
1002
}
  0
LINE
  5
A34E
330
A333
100
AcDbEntity
  8
0
100
AcDbLine
 10
0.0
 20
8.763099999991255
 30
0.0
 11
1.420999999998571
 21
8.763099999991255
 31
0.0
1001
ACAD
1000
ASC_BOUNDS
1002
{
1070
    19
1005
A37B
1002
}
  0
LINE
  5
A34F
330
A333
100
AcDbEntity
  8
0
100
AcDbLine
 10
4.617999999995391
 20
8.763099999991255
 30
0.0
 11
6.432999999993513
 21
8.763099999991255
 31
0.0
1001
ACAD
1000
ASC_BOUNDS
1002
{
1070
    19
1005
A376
1002
}
  0
LINE
  5
A350
330
A333
100
AcDbEntity
  8
0
100
AcDbLine
 10
14.32399999998563
 20
3.315799999996671
 30
0.0
 11
12.02999999998792
 21
8.763099999991255
 31
0.0
1001
ACAD
1000
ASC_BOUNDS
1002
{
1070
    19
1005
A377
1002
}
  0
LINE
  5
A351
330
A333
100
AcDbEntity
  8
0
100
AcDbLine
 10
10.06399999998996
 20
3.670999999996297
 30
0.0
 11
9.236999999990758
 21
5.5200999999945
 31
0.0
1001
ACAD
1000
ASC_BOUNDS
1002
{
1070
    19
1005
A376
1002
}
  0
LINE
  5
A352
330
A333
100
AcDbEntity
  8
0
100
AcDbLine
 10
8.409999999991555
 20
3.670999999996297
 30
0.0
 11
9.236999999990758
 21
5.5200999999945
 31
0.0
1001
ACAD
1000
ASC_BOUNDS
1002
{
1070
    19
1005
A376
1002
}
  0
LINE
  5
A353
330
A333
100
AcDbEntity
  8
0
100
AcDbLine
 10
8.409999999991555
 20
3.670999999996297
 30
0.0
 11
10.06399999998996
 21
3.670999999996297
 31
0.0
1001
ACAD
1000
ASC_BOUNDS
1002
{
1070
    19
1005
A376
1002
}
  0
LINE
  5
A354
330
A333
100
AcDbEntity
  8
0
100
AcDbLine
 10
10.53899999998941
 20
8.763099999991255
 30
0.0
 11
12.02999999998792
 21
8.763099999991255
 31
0.0
1001
ACAD
1000
ASC_BOUNDS
1002
{
1070
    19
1005
A377
1002
}
  0
LINE
  5
A355
330
A333
100
AcDbEntity
  8
0
100
AcDbLine
 10
22.7389999999773
 20
3.670999999996297
 30
0.0
 11
23.56599999997638
 21
5.5200999999945
 31
0.0
1001
ACAD
1000
ASC_BOUNDS
1002
{
1070
    19
1005
A378
1002
}
  0
LINE
  5
A356
330
A333
100
AcDbEntity
  8
0
100
AcDbLine
 10
22.7389999999773
 20
3.670999999996297
 30
0.0
 11
24.39299999997559
 21
3.670999999996297
 31
0.0
1001
ACAD
1000
ASC_BOUNDS
1002
{
1070
    19
1005
A378
1002
}
  0
LINE
  5
A357
330
A333
100
AcDbEntity
  8
0
100
AcDbLine
 10
18.59799999998143
 20
3.315799999996671
 30
0.0
 11
20.89099999997916
 21
8.763099999991255
 31
0.0
1001
ACAD
1000
ASC_BOUNDS
1002
{
1070
    19
1005
A377
1002
}
  0
LINE
  5
A358
330
A333
100
AcDbEntity
  8
0
100
AcDbLine
 10
18.59799999998143
 20
3.315799999996671
 30
0.0
 11
16.46099999998353
 21
8.999899999990987
 31
0.0
1001
ACAD
1000
ASC_BOUNDS
1002
{
1070
    19
1005
A377
1002
}
  0
LINE
  5
A359
330
A333
100
AcDbEntity
  8
0
100
AcDbLine
 10
20.89099999997916
 20
8.763099999991255
 30
0.0
 11
22.38199999997767
 21
8.763099999991255
 31
0.0
1001
ACAD
1000
ASC_BOUNDS
1002
{
1070
    19
1005
A377
1002
}
  0
LINE
  5
A35A
330
A333
100
AcDbEntity
  8
0
100
AcDbLine
 10
24.39299999997559
 20
3.670999999996297
 30
0.0
 11
23.56599999997638
 21
5.5200999999945
 31
0.0
1001
ACAD
1000
ASC_BOUNDS
1002
{
1070
    19
1005
A378
1002
}
  0
LINE
  5
A35B
330
A333
100
AcDbEntity
  8
0
100
AcDbLine
 10
44.99999999995498
 20
-0.2368999999997641
 30
0.0
 11
40.02599999995994
 21
5.341799999994635
 31
0.0
1001
ACAD
1000
ASC_BOUNDS
1002
{
1070
    19
1005
A37A
1002
}
  0
LINE
  5
A35C
330
A333
100
AcDbEntity
  8
0
100
AcDbLine
 10
40.02599999995994
 20
5.341799999994635
 30
0.0
 11
40.02599999995994
 21
0.0
 31
0.0
1001
ACAD
1000
ASC_BOUNDS
1002
{
1070
    19
1005
A37A
1002
}
  0
LINE
  5
A35D
330
A333
100
AcDbEntity
  8
0
100
AcDbLine
 10
38.60499999996136
 20
8.999999999991019
 30
0.0
 11
38.60499999996136
 21
0.0
 31
0.0
1001
ACAD
1000
ASC_BOUNDS
1002
{
1070
    19
1005
A37A
1002
}
  0
LINE
  5
A35E
330
A333
100
AcDbEntity
  8
0
100
AcDbLine
 10
44.99999999995498
 20
8.763099999991255
 30
0.0
 11
44.99999999995498
 21
-0.2368999999997641
 31
0.0
1001
ACAD
1000
ASC_BOUNDS
1002
{
1070
    19
1005
A37A
1002
}
  0
LINE
  5
A35F
330
A333
100
AcDbEntity
  8
0
100
AcDbLine
 10
38.60499999996136
 20
0.0
 30
0.0
 11
40.02599999995994
 21
0.0
 31
0.0
1001
ACAD
1000
ASC_BOUNDS
1002
{
1070
    19
1005
A37A
1002
}
  0
LINE
  5
A360
330
A333
100
AcDbEntity
  8
0
100
AcDbLine
 10
43.57899999995641
 20
3.421199999996588
 30
0.0
 11
38.60499999996136
 21
8.999899999990987
 31
0.0
1001
ACAD
1000
ASC_BOUNDS
1002
{
1070
    19
1005
A37A
1002
}
  0
LINE
  5
A361
330
A333
100
AcDbEntity
  8
0
100
AcDbLine
 10
43.57899999995641
 20
8.763099999991255
 30
0.0
 11
43.57899999995641
 21
3.421199999996588
 31
0.0
1001
ACAD
1000
ASC_BOUNDS
1002
{
1070
    19
1005
A37A
1002
}
  0
LINE
  5
A362
330
A333
100
AcDbEntity
  8
0
100
AcDbLine
 10
43.57899999995641
 20
8.763099999991255
 30
0.0
 11
44.99999999995498
 21
8.763099999991255
 31
0.0
1001
ACAD
1000
ASC_BOUNDS
1002
{
1070
    19
1005
A37A
1002
}
  0
LINE
  5
A363
330
A333
100
AcDbEntity
  8
0
100
AcDbLine
 10
37.67199999996831
 20
8.763099999991255
 30
0.0
 11
36.23199999996837
 21
8.763099999991255
 31
0.0
  0
LINE
  5
A364
330
A333
100
AcDbEntity
  8
0
100
AcDbLine
 10
31.64199999996833
 20
8.763099999991255
 30
0.0
 11
31.64199999996833
 21
2.481619422925121
 31
0.0
  0
LINE
  5
A365
330
A333
100
AcDbEntity
  8
0
100
AcDbLine
 10
37.67199999996831
 20
8.763099999991255
 30
0.0
 11
37.67199999996831
 21
2.481619422925121
 31
0.0
  0
LINE
  5
A366
330
A333
100
AcDbEntity
  8
0
100
AcDbLine
 10
36.23199999996837
 20
8.763099999991255
 30
0.0
 11
36.23199999996837
 21
2.481619422925064
 31
0.0
  0
LINE
  5
A367
330
A333
100
AcDbEntity
  8
0
100
AcDbLine
 10
33.08199999996839
 20
8.763099999991255
 30
0.0
 11
33.08199999996839
 21
2.481619422925121
 31
0.0
  0
ARC
  5
A368
330
A333
100
AcDbEntity
  8
0
100
AcDbCircle
 10
34.65699999996832
 20
3.183099999991214
 30
0.0
 40
3.420000000000007
100
AcDbArc
 50
240.0000000000255
 51
299.9999999999766
  0
ARC
  5
A369
330
A333
100
AcDbEntity
  8
0
100
AcDbCircle
 10
34.65699999996832
 20
3.183099999991214
 30
0.0
 40
1.97999999999999
100
AcDbArc
 50
240.000000000026
 51
299.9999999999703
  0
LINE
  5
A36A
330
A333
100
AcDbEntity
  8
0
100
AcDbLine
 10
33.08199999996828
 20
8.763099999991255
 30
0.0
 11
31.64199999996833
 21
8.763099999991255
 31
0.0
  0
ARC
  5
A36B
330
A333
100
AcDbEntity
  8
0
100
AcDbCircle
 10
35.06199999996829
 20
2.481619422925064
 30
0.0
 40
1.17
100
AcDbArc
 50
299.9999999999699
 51
0.0
  0
ARC
  5
A36C
330
A333
100
AcDbEntity
  8
0
100
AcDbCircle
 10
34.25199999996835
 20
2.481619422925121
 30
0.0
 40
1.17
100
AcDbArc
 50
180.0
 51
240.0000000000238
  0
ARC
  5
A36D
330
A333
100
AcDbEntity
  8
0
100
AcDbCircle
 10
35.06199999996841
 20
2.481619422925121
 30
0.0
 40
2.61
100
AcDbArc
 50
299.9999999999756
 51
0.0
  0
ARC
  5
A36E
330
A333
100
AcDbEntity
  8
0
100
AcDbCircle
 10
34.25199999996835
 20
2.481619422925121
 30
0.0
 40
2.61
100
AcDbArc
 50
180.0
 51
240.0000000000244
  0
LINE
  5
A36F
330
A333
100
AcDbEntity
  8
0
100
AcDbLine
 10
29.30199999996933
 20
8.763099999991255
 30
0.0
 11
30.74199999996927
 21
8.763099999991255
 31
0.0
1001
ACAD
1000
ASC_BOUNDS
1002
{
1070
    19
1005
A378
1002
}
  0
LINE
  5
A370
330
A333
100
AcDbEntity
  8
0
100
AcDbLine
 10
30.74199999996927
 20
8.763099999991255
 30
0.0
 11
30.74199999996927
 21
2.373099999991211
 31
0.0
1001
ACAD
1000
ASC_BOUNDS
1002
{
1070
    19
1005
A378
1002
}
  0
LINE
  5
A371
330
A333
100
AcDbEntity
  8
0
100
AcDbLine
 10
26.02015566812236
 20
0.0330999999912365
 30
0.0
 11
28.40199999996923
 21
0.0330999999912365
 31
0.0
1001
ACAD
1000
ASC_BOUNDS
1002
{
1070
    19
1005
A378
1002
}
  0
LINE
  5
A372
330
A333
100
AcDbEntity
  8
0
100
AcDbLine
 10
29.30199999996933
 20
8.763099999991255
 30
0.0
 11
29.30199999996933
 21
2.283099999991236
 31
0.0
1001
ACAD
1000
ASC_BOUNDS
1002
{
1070
    19
1005
A378
1002
}
  0
LINE
  5
A373
330
A333
100
AcDbEntity
  8
0
100
AcDbLine
 10
26.97358892824991
 20
1.383099999991202
 30
0.0
 11
28.40199999996923
 21
1.383099999991202
 31
0.0
1001
ACAD
1000
ASC_BOUNDS
1002
{
1070
    19
1005
A378
1002
}
  0
ARC
  5
A374
330
A333
100
AcDbEntity
  8
0
100
AcDbCircle
 10
28.40199999996923
 20
2.283099999991236
 30
0.0
 40
0.9
100
AcDbArc
 50
270.0
 51
0.0
1001
ACAD
1000
ASC_BOUNDS
1002
{
1070
    19
1005
A378
1002
}
  0
ARC
  5
A375
330
A333
100
AcDbEntity
  8
0
100
AcDbCircle
 10
28.40199999996923
 20
2.373099999991211
 30
0.0
 40
2.34
100
AcDbArc
 50
270.0
 51
0.0
1001
ACAD
1000
ASC_BOUNDS
1002
{
1070
    19
1005
A378
1002
}
  0
INSERT
  5
A376
330
A333
100
AcDbEntity
  8
0
100
AcDbBlockReference
  2
*X124
 10
0.0
 20
0.0
 30
0.0
1001
ACAD
1000
HATCH
1002
{
1070
    19
1000
ANSI37
1040
0.15
1040
0.0
1000
ASC_BOUNDS
1070
     2
1070
     2
1070
    12
1005
A335
1005
A336
1005
A33D
1005
A34C
1005
A34F
1005
A34D
1005
A33E
1005
A343
1005
A341
1005
A345
1005
A344
1005
A346
1070
     2
1070
     3
1005
A351
1005
A353
1005
A352
1000
ASC_SEEDPOINT
1011
3.614004224891801
1021
2.996669441146025
1031
0.0
1000
R14_HATCH_DATA
1000
A376
1011
1.0
1021
0.0
1031
0.0
1011
0.0
1021
1.0
1031
0.0
1011
0.0
1021
0.0
1031
1.0
1040
0.0
1010
0.0
1020
0.0
1030
1.0
1000
ANSI37
1070
     0
1070
     1
1071
        2
1071
        7
1070
     0
1070
     1
1071
       17
1040
13.26299999998673
1040
-0.0001000000000317
1040
9.236999999990758
1040
8.999899999990987
1040
9.236999999990758
1040
8.999999999991019
1040
5.657999999994331
1040
0.9999999999989768
1040
3.181999999996833
1040
4.668599999995308
1040
6.432999999993513
1040
8.763099999991255
1040
4.617999999995391
1040
8.763099999991255
1040
1.420999999998571
1040
4.736799999995242
1040
4.617999999995391
1040
-0.0001000000000317
1040
4.617999999995391
1040
0.0
1040
6.766999999993232
1040
0.0
1040
6.766999999993232
1040
-0.0001000000000317
1040
7.826999999992154
1040
2.368399999997621
1040
10.64699999998936
1040
2.368399999997621
1040
11.70599999998831
1040
-0.0001000000000317
1040
11.70599999998831
1040
0.0
1040
13.26299999998673
1040
0.0
1071
       12
1005
A335
1005
A336
1005
A33D
1005
A34C
1005
A34F
1005
A34D
1005
A33E
1005
A343
1005
A341
1005
A345
1005
A344
1005
A346
1071
       22
1070
     0
1070
     1
1071
        3
1040
9.236999999990758
1040
5.5200999999945
1040
10.06399999998996
1040
3.670999999996297
1040
8.409999999991555
1040
3.670999999996297
1071
        3
1005
A351
1005
A353
1005
A352
1070
     0
1070
     1
1040
0.0
1040
0.15
1070
     0
1070
     2
1040
0.7853981633974483
1040
49.29960901727088
1040
-10.17736998311392
1040
-0.3367596045400932
1040
0.3367596045400932
1070
     0
1040
2.356194490192345
1040
49.29960901727088
1040
-10.17736998311392
1040
-0.3367596045400932
1040
-0.3367596045400932
1070
     0
1040
0.0110235143455945
1071
        2
1040
3.614004224891801
1040
2.996669441146025
1040
0.0
1040
3.614004224891801
1040
2.996669441146025
1040
0.0
1002
}
  0
INSERT
  5
A377
330
A333
100
AcDbEntity
  8
0
100
AcDbBlockReference
  2
*X125
 10
0.0
 20
0.0
 30
0.0
1001
ACAD
1000
HATCH
1002
{
1070
    19
1000
ANSI37
1040
0.15
1040
0.0
1000
ASC_BOUNDS
1070
     1
1070
     2
1070
    10
1005
A337
1005
A338
1005
A359
1005
A357
1005
A358
1005
A34B
1005
A350
1005
A354
1005
A33A
1005
A339
1000
ASC_SEEDPOINT
1011
14.73245321214324
1021
2.798246178283421
1031
0.0
1000
R14_HATCH_DATA
1000
A377
1011
1.0
1021
0.0
1031
0.0
1011
0.0
1021
1.0
1031
0.0
1011
0.0
1021
0.0
1031
1.0
1040
0.0
1010
0.0
1020
0.0
1030
1.0
1000
ANSI37
1070
     0
1070
     1
1071
        1
1071
        7
1070
     0
1070
     1
1071
       10
1040
16.46099999998353
1040
5.432899999994561
1040
18.59199999998134
1040
-0.2368999999997641
1040
22.38199999997767
1040
8.763099999991255
1040
20.89099999997916
1040
8.763099999991255
1040
18.59799999998143
1040
3.315799999996671
1040
16.46099999998353
1040
8.999899999990987
1040
14.32399999998563
1040
3.315799999996671
1040
12.02999999998792
1040
8.763099999991255
1040
10.53899999998941
1040
8.763099999991255
1040
14.32899999998563
1040
-0.2368999999997641
1071
       10
1005
A337
1005
A338
1005
A359
1005
A357
1005
A358
1005
A34B
1005
A350
1005
A354
1005
A33A
1005
A339
1070
     0
1070
     1
1040
0.0
1040
0.15
1070
     0
1070
     2
1040
0.7853981633974483
1040
49.29960901727088
1040
-10.17736998311392
1040
-0.3367596045400932
1040
0.3367596045400932
1070
     0
1040
2.356194490192345
1040
49.29960901727088
1040
-10.17736998311392
1040
-0.3367596045400932
1040
-0.3367596045400932
1070
     0
1040
0.0110235143455945
1071
        1
1040
14.73245321214324
1040
2.798246178283421
1040
0.0
1002
}
  0
INSERT
  5
A378
330
A333
100
AcDbEntity
  8
0
100
AcDbBlockReference
  2
*X126
 10
0.0
 20
0.0
 30
0.0
1001
ACAD
1000
HATCH
1002
{
1070
    19
1000
ANSI37
1040
0.15
1040
0.0
1000
ASC_BOUNDS
1070
     2
1070
     2
1070
    13
1005
A33B
1005
A348
1005
A349
1005
A347
1005
A34A
1005
A371
1005
A375
1005
A370
1005
A36F
1005
A372
1005
A374
1005
A373
1005
A33C
1070
     2
1070
     3
1005
A355
1005
A35A
1005
A356
1000
ASC_SEEDPOINT
1011
21.97929957367762
1021
3.294304244259308
1031
0.0
1000
R14_HATCH_DATA
1000
A378
1011
1.0
1021
0.0
1031
0.0
1011
0.0
1021
1.0
1031
0.0
1011
0.0
1021
0.0
1031
1.0
1040
0.0
1010
0.0
1020
0.0
1030
1.0
1000
ANSI37
1070
     0
1070
     1
1071
        2
1071
        7
1070
     1
1070
     1
1071
       15
1040
23.56599999997638
1040
8.999899999990987
1040
0.0
1040
19.53899999998043
1040
-0.0001000000000317
1040
0.0
1040
19.53899999998043
1040
0.0
1040
0.0
1040
21.09599999997886
1040
0.0
1040
0.0
1040
21.09599999997886
1040
-0.0001000000000317
1040
0.0
1040
22.15599999997789
1040
2.368399999997621
1040
0.0
1040
24.97599999997499
1040
2.368399999997621
1040
0.0
1040
26.02015566812236
1040
0.0330999999912365
1040
0.0
1040
28.40199999996923
1040
0.0330999999912365
1040
0.414213562373095
1040
30.74199999996923
1040
2.373099999991211
1040
0.0
1040
30.74199999996927
1040
8.763099999991255
1040
0.0
1040
29.30199999996933
1040
8.763099999991255
1040
0.0
1040
29.30199999996933
1040
2.283099999991236
1040
-0.414213562373095
1040
28.40199999996923
1040
1.383099999991237
1040
0.0
1040
26.97358892824991
1040
1.383099999991202
1040
0.0
1071
       13
1005
A33B
1005
A348
1005
A349
1005
A347
1005
A34A
1005
A371
1005
A375
1005
A370
1005
A36F
1005
A372
1005
A374
1005
A373
1005
A33C
1071
       22
1070
     0
1070
     1
1071
        3
1040
22.7389999999773
1040
3.670999999996297
1040
23.56599999997638
1040
5.5200999999945
1040
24.39299999997559
1040
3.670999999996297
1071
        3
1005
A355
1005
A35A
1005
A356
1070
     0
1070
     1
1040
0.0
1040
0.15
1070
     0
1070
     2
1040
0.7853981633974483
1040
49.29960901727088
1040
-10.17736998311392
1040
-0.3367596045400932
1040
0.3367596045400932
1070
     0
1040
2.356194490192345
1040
49.29960901727088
1040
-10.17736998311392
1040
-0.3367596045400932
1040
-0.3367596045400932
1070
     0
1040
0.0110235143455945
1071
        2
1040
21.97929957367762
1040
3.294304244259308
1040
0.0
1040
21.97929957367762
1040
3.294304244259308
1040
0.0
1002
}
  0
INSERT
  5
A379
330
A333
100
AcDbEntity
  8
0
100
AcDbBlockReference
  2
*X127
 10
0.0
 20
0.0
 30
0.0
1001
ACAD
1000
HATCH
1002
{
1070
    19
1000
ANSI37
1040
0.15
1040
0.0
1000
R14_HATCH_DATA
1000
A379
1011
1.0
1021
0.0
1031
0.0
1011
0.0
1021
1.0
1031
0.0
1011
0.0
1021
0.0
1031
1.0
1040
0.0
1010
0.0
1020
0.0
1030
1.0
1000
ANSI37
1070
     0
1070
     1
1071
        1
1071
        7
1070
     1
1070
     1
1071
       12
1040
31.64199999996833
1040
2.481619422925121
1040
0.2679491924310942
1040
32.94699999997067
1040
0.2212931190493919
1040
0.2679491924301353
1040
36.36699999995983
1040
0.2212931190459813
1040
0.2679491924321411
1040
37.67199999996831
1040
2.481619422928361
1040
0.0
1040
37.67199999996831
1040
8.763099999991255
1040
0.0
1040
36.23199999996837
1040
8.763099999991255
1040
0.0
1040
36.23199999996837
1040
2.481619422925064
1040
-0.2679491924310291
1040
35.64699999996708
1040
1.468369700498386
1040
-0.267949192430519
1040
33.66699999997093
1040
1.468369700497703
1040
-0.267949192431809
1040
33.08199999996839
1040
2.481619422926997
1040
0.0
1040
33.08199999996839
1040
8.763099999991255
1040
0.0
1040
31.64199999996833
1040
8.763099999991255
1040
0.0
1071
        0
1070
     0
1070
     1
1040
0.0
1040
0.15
1070
     0
1070
     2
1040
0.7853981633974483
1040
49.29960901727088
1040
-10.17736998311392
1040
-0.3367596045400932
1040
0.3367596045400932
1070
     0
1040
2.356194490192345
1040
49.29960901727088
1040
-10.17736998311392
1040
-0.3367596045400932
1040
-0.3367596045400932
1070
     0
1040
0.0110235143455945
1071
        1
1040
32.30357378967278
1040
3.988785755459219
1040
0.0
1002
}
  0
INSERT
  5
A37A
330
A333
100
AcDbEntity
  8
0
100
AcDbBlockReference
  2
*X128
 10
0.0
 20
0.0
 30
0.0
1001
ACAD
1000
HATCH
1002
{
1070
    19
1000
ANSI37
1040
0.15
1040
0.0
1000
ASC_BOUNDS
1070
     1
1070
     2
1070
     8
1005
A35B
1005
A35E
1005
A362
1005
A361
1005
A360
1005
A35D
1005
A35F
1005
A35C
1000
ASC_SEEDPOINT
1011
39.74896370716704
1021
4.484843821435049
1031
0.0
1000
R14_HATCH_DATA
1000
A37A
1011
1.0
1021
0.0
1031
0.0
1011
0.0
1021
1.0
1031
0.0
1011
0.0
1021
0.0
1031
1.0
1040
0.0
1010
0.0
1020
0.0
1030
1.0
1000
ANSI37
1070
     0
1070
     1
1071
        1
1071
        7
1070
     0
1070
     1
1071
        9
1040
40.02599999995994
1040
5.341799999994635
1040
44.99999999995498
1040
-0.2368999999997641
1040
44.99999999995498
1040
8.763099999991255
1040
43.57899999995641
1040
8.763099999991255
1040
43.57899999995641
1040
3.421199999996588
1040
38.60499999996136
1040
8.999899999990987
1040
38.60499999996136
1040
8.999999999991019
1040
38.60499999996136
1040
0.0
1040
40.02599999995994
1040
0.0
1071
        8
1005
A35B
1005
A35E
1005
A362
1005
A361
1005
A360
1005
A35D
1005
A35F
1005
A35C
1070
     0
1070
     1
1040
0.0
1040
0.15
1070
     0
1070
     2
1040
0.7853981633974483
1040
49.29960901727088
1040
-10.17736998311392
1040
-0.3367596045400932
1040
0.3367596045400932
1070
     0
1040
2.356194490192345
1040
49.29960901727088
1040
-10.17736998311392
1040
-0.3367596045400932
1040
-0.3367596045400932
1070
     0
1040
0.0110235143455945
1071
        1
1040
39.74896370716704
1040
4.484843821435049
1040
0.0
1002
}
  0
INSERT
  5
A37B
330
A333
100
AcDbEntity
  8
0
100
AcDbBlockReference
  2
*X129
 10
0.0
 20
0.0
 30
0.0
1001
ACAD
1000
HATCH
1002
{
1070
    19
1000
ANSI37
1040
0.15
1040
0.0
1000
ASC_BOUNDS
1070
     1
1070
     2
1070
     4
1005
A33F
1005
A34E
1005
A340
1005
A342
1000
ASC_SEEDPOINT
1011
1.079051535452663
1021
4.148538732891836
1031
0.0
1000
R14_HATCH_DATA
1000
A37B
1011
1.0
1021
0.0
1031
0.0
1011
0.0
1021
1.0
1031
0.0
1011
0.0
1021
0.0
1031
1.0
1040
0.0
1010
0.0
1020
0.0
1030
1.0
1000
ANSI37
1070
     0
1070
     1
1071
        1
1071
        7
1070
     0
1070
     1
1071
        4
1040
1.420999999998571
1040
0.0
1040
1.420999999998571
1040
8.763099999991255
1040
0.0
1040
8.763099999991255
1040
0.0
1040
0.0
1071
        4
1005
A33F
1005
A34E
1005
A340
1005
A342
1070
     0
1070
     1
1040
0.0
1040
0.15
1070
     0
1070
     2
1040
0.7853981633974483
1040
49.29960901727088
1040
-10.17736998311392
1040
-0.3367596045400932
1040
0.3367596045400932
1070
     0
1040
2.356194490192345
1040
49.29960901727088
1040
-10.17736998311392
1040
-0.3367596045400932
1040
-0.3367596045400932
1070
     0
1040
0.0053004257112761
1071
        1
1040
1.079051535452663
1040
4.148538732891836
1040
0.0
1002
}
  0
ENDBLK
  5
AA57
330
A333
100
AcDbEntity
  8
0
100
AcDbBlockEnd
  0
BLOCK
  5
10468
330
102DA
100
AcDbEntity
  8
0
100
AcDbBlockBegin
  2
*X124
 70
     1
 10
0.0
 20
0.0
 30
0.0
  3
*X124
  1

  0
LINE
  5
102DB
330
102DA
100
AcDbEntity
  8
0
  6
CONTINUOUS
100
AcDbLine
 10
3.418023043697893
 20
7.251849696850613
 30
0.0
 11
4.929273346838536
 21
8.763099999991255
 31
0.0
  0
LINE
  5
102DC
330
102DA
100
AcDbEntity
  8
0
  6
CONTINUOUS
100
AcDbLine
 10
1.483656411257782
 20
4.643963855330318
 30
0.0
 11
5.60279255591872
 21
8.763099999991255
 31
0.0
  0
LINE
  5
102DD
330
102DA
100
AcDbEntity
  8
0
  6
CONTINUOUS
100
AcDbLine
 10
1.755053947328235
 20
4.241842182320584
 30
0.0
 11
6.276311764998907
 21
8.763099999991255
 31
0.0
  0
LINE
  5
102DE
330
102DA
100
AcDbEntity
  8
0
  6
CONTINUOUS
100
AcDbLine
 10
2.026451483398688
 20
3.839720509310849
 30
0.0
 11
4.441040904851878
 21
6.254309930764039
 31
0.0
  0
LINE
  5
102DF
330
102DA
100
AcDbEntity
  8
0
  6
CONTINUOUS
100
AcDbLine
 10
2.297849019469139
 20
3.437598836301114
 30
0.0
 11
3.321765168359338
 21
4.461514985191313
 31
0.0
  0
LINE
  5
102E0
330
102DA
100
AcDbEntity
  8
0
  6
CONTINUOUS
100
AcDbLine
 10
2.569246555539591
 20
3.03547716329138
 30
0.0
 11
3.593163397972743
 21
4.059394005724531
 31
0.0
  0
LINE
  5
102E1
330
102DA
100
AcDbEntity
  8
0
  6
CONTINUOUS
100
AcDbLine
 10
2.840644091610043
 20
2.633355490281646
 30
0.0
 11
3.864561627586149
 21
3.657273026257751
 31
0.0
  0
LINE
  5
102E2
330
102DA
100
AcDbEntity
  8
0
  6
CONTINUOUS
100
AcDbLine
 10
3.112041627680496
 20
2.231233817271911
 30
0.0
 11
4.135959857199554
 21
3.25515204679097
 31
0.0
  0
LINE
  5
102E3
330
102DA
100
AcDbEntity
  8
0
  6
CONTINUOUS
100
AcDbLine
 10
3.383439163750948
 20
1.829112144262177
 30
0.0
 11
4.40735808681296
 21
2.853031067324189
 31
0.0
  0
LINE
  5
102E4
330
102DA
100
AcDbEntity
  8
0
  6
CONTINUOUS
100
AcDbLine
 10
3.654836699821399
 20
1.426990471252442
 30
0.0
 11
4.678756316426365
 21
2.450910087857407
 31
0.0
  0
LINE
  5
102E5
330
102DA
100
AcDbEntity
  8
0
  6
CONTINUOUS
100
AcDbLine
 10
3.926234235891853
 20
1.024868798242709
 30
0.0
 11
4.95015454603977
 21
2.048789108390626
 31
0.0
  0
LINE
  5
102E6
330
102DA
100
AcDbEntity
  8
0
  6
CONTINUOUS
100
AcDbLine
 10
4.197631771962304
 20
0.6227471252329737
 30
0.0
 11
5.221552775653176
 21
1.646668128923846
 31
0.0
  0
LINE
  5
102E7
330
102DA
100
AcDbEntity
  8
0
  6
CONTINUOUS
100
AcDbLine
 10
8.715877546767851
 20
7.835069736359266
 30
0.0
 11
9.435953450375058
 21
8.555145639966472
 31
0.0
  0
LINE
  5
102E8
330
102DA
100
AcDbEntity
  8
0
  6
CONTINUOUS
100
AcDbLine
 10
8.170620868422267
 20
6.616293848933497
 30
0.0
 11
9.644120833743461
 21
8.08979381425469
 31
0.0
  0
LINE
  5
102E9
330
102DA
100
AcDbEntity
  8
0
  6
CONTINUOUS
100
AcDbLine
 10
7.625364190076684
 20
5.397517961507727
 30
0.0
 11
9.852288217111864
 21
7.624441988542907
 31
0.0
  0
LINE
  5
102EA
330
102DA
100
AcDbEntity
  8
0
  6
CONTINUOUS
100
AcDbLine
 10
7.080107511731101
 20
4.178742074081957
 30
0.0
 11
10.06045560048027
 21
7.159090162831124
 31
0.0
  0
LINE
  5
102EB
330
102DA
100
AcDbEntity
  8
0
  6
CONTINUOUS
100
AcDbLine
 10
6.534850833385518
 20
2.959966186656187
 30
0.0
 11
10.26862298384867
 21
6.693738337119342
 31
0.0
  0
LINE
  5
102EC
330
102DA
100
AcDbEntity
  8
0
  6
CONTINUOUS
100
AcDbLine
 10
4.469029308032756
 20
0.2206254522232385
 30
0.0
 11
5.492951005266582
 21
1.244547149457064
 31
0.0
  0
LINE
  5
102ED
330
102DA
100
AcDbEntity
  8
0
  6
CONTINUOUS
100
AcDbLine
 10
5.989594155039935
 20
1.741190299230417
 30
0.0
 11
8.806950407233131
 21
4.558546551423613
 31
0.0
  0
LINE
  5
102EE
330
102DA
100
AcDbEntity
  8
0
  6
CONTINUOUS
100
AcDbLine
 10
9.401251593263643
 20
5.152847737454126
 30
0.0
 11
10.47679036721708
 21
6.228386511407559
 31
0.0
  0
LINE
  5
102EF
330
102DA
100
AcDbEntity
  8
0
  6
CONTINUOUS
100
AcDbLine
 10
4.921837203428691
 20
-0.0000858614610131
 30
0.0
 11
8.592923064886001
 21
3.670999999996297
 31
0.0
  0
LINE
  5
102F0
330
102DA
100
AcDbEntity
  8
0
  6
CONTINUOUS
100
AcDbLine
 10
9.609390446785305
 20
4.6874673818956
 30
0.0
 11
10.68495775058548
 21
5.763034685695775
 31
0.0
  0
LINE
  5
102F1
330
102DA
100
AcDbEntity
  8
0
  6
CONTINUOUS
100
AcDbLine
 10
5.595387755019432
 20
-0.0000545189504582
 30
0.0
 11
7.716137258923768
 21
2.120694984953879
 31
0.0
  0
LINE
  5
102F2
330
102DA
100
AcDbEntity
  8
0
  6
CONTINUOUS
100
AcDbLine
 10
6.268938306610172
 20
-0.000023176439905
 30
0.0
 11
7.170485805526503
 21
0.9015243224764267
 31
0.0
  0
LINE
  5
102F3
330
102DA
100
AcDbEntity
  8
0
  6
CONTINUOUS
100
AcDbLine
 10
7.963842273967511
 20
2.368399999997621
 30
0.0
 11
9.266442273966188
 21
3.670999999996297
 31
0.0
  0
LINE
  5
102F4
330
102DA
100
AcDbEntity
  8
0
  6
CONTINUOUS
100
AcDbLine
 10
8.637361483047696
 20
2.368399999997621
 30
0.0
 11
9.939961483046375
 21
3.670999999996297
 31
0.0
  0
LINE
  5
102F5
330
102DA
100
AcDbEntity
  8
0
  6
CONTINUOUS
100
AcDbLine
 10
9.817529300306965
 20
4.222087026337075
 30
0.0
 11
10.89312513395388
 21
5.297682859983993
 31
0.0
  0
LINE
  5
102F6
330
102DA
100
AcDbEntity
  8
0
  6
CONTINUOUS
100
AcDbLine
 10
10.02566815382863
 20
3.756706670778549
 30
0.0
 11
11.10129251732229
 21
4.832331034272211
 31
0.0
  0
LINE
  5
102F7
330
102DA
100
AcDbEntity
  8
0
  6
CONTINUOUS
100
AcDbLine
 10
9.310880692127883
 20
2.368399999997621
 30
0.0
 11
11.30945990069069
 21
4.366979208560428
 31
0.0
  0
LINE
  5
102F8
330
102DA
100
AcDbEntity
  8
0
  6
CONTINUOUS
100
AcDbLine
 10
9.98439990120807
 20
2.36839999999762
 30
0.0
 11
11.5176272840591
 21
3.901627382848645
 31
0.0
  0
LINE
  5
102F9
330
102DA
100
AcDbEntity
  8
0
  6
CONTINUOUS
100
AcDbLine
 10
10.65037369446246
 20
2.36085458417182
 30
0.0
 11
11.7257946674275
 21
3.436275557136862
 31
0.0
  0
LINE
  5
102FA
330
102DA
100
AcDbEntity
  8
0
  6
CONTINUOUS
100
AcDbLine
 10
10.85847197087848
 20
1.895433651507656
 30
0.0
 11
11.9339620507959
 21
2.97092373142508
 31
0.0
  0
LINE
  5
102FB
330
102DA
100
AcDbEntity
  8
0
  6
CONTINUOUS
100
AcDbLine
 10
11.0665702472945
 20
1.430012718843491
 30
0.0
 11
12.14212943416431
 21
2.505571905713296
 31
0.0
  0
LINE
  5
102FC
330
102DA
100
AcDbEntity
  8
0
  6
CONTINUOUS
100
AcDbLine
 10
11.27466852371052
 20
0.9645917861793256
 30
0.0
 11
12.35029681753271
 21
2.040220080001513
 31
0.0
  0
LINE
  5
102FD
330
102DA
100
AcDbEntity
  8
0
  6
CONTINUOUS
100
AcDbLine
 10
11.48276680012654
 20
0.4991708535151611
 30
0.0
 11
12.55846420090111
 21
1.57486825428973
 31
0.0
  0
LINE
  5
102FE
330
102DA
100
AcDbEntity
  8
0
  6
CONTINUOUS
100
AcDbLine
 10
11.69086507654257
 20
0.0337499208509957
 30
0.0
 11
12.76663158426952
 21
1.109516428577947
 31
0.0
  0
LINE
  5
102FF
330
102DA
100
AcDbEntity
  8
0
  6
CONTINUOUS
100
AcDbLine
 10
12.33057447873954
 20
-0.0000598860322123
 30
0.0
 11
12.97479896763792
 21
0.6441646028661663
 31
0.0
  0
LINE
  5
10300
330
102DA
100
AcDbEntity
  8
0
  6
CONTINUOUS
100
AcDbLine
 10
13.00413694809395
 20
-0.0000166257579952
 30
0.0
 11
13.18296635100632
 21
0.1788127771543824
 31
0.0
  0
LINE
  5
10301
330
102DA
100
AcDbEntity
  8
0
  6
CONTINUOUS
100
AcDbLine
 10
4.772852165289667
 20
-0.000092794222212
 30
0.0
 11
4.296495091028902
 21
0.4762642800385528
 31
0.0
  0
LINE
  5
10302
330
102DA
100
AcDbEntity
  8
0
  6
CONTINUOUS
100
AcDbLine
 10
5.446340034776103
 20
-0.0000614546284616
 30
0.0
 11
2.898195908335625
 21
2.548082671812017
 31
0.0
  0
LINE
  5
10303
330
102DA
100
AcDbEntity
  8
0
  6
CONTINUOUS
100
AcDbLine
 10
6.119827904262539
 20
-0.0000301150347113
 30
0.0
 11
1.499896725642348
 21
4.61990106358548
 31
0.0
  0
LINE
  5
10304
330
102DA
100
AcDbEntity
  8
0
  6
CONTINUOUS
100
AcDbLine
 10
6.775136745476159
 20
0.0181802528318542
 30
0.0
 11
5.699826040202669
 21
1.093490958105344
 31
0.0
  0
LINE
  5
10305
330
102DA
100
AcDbEntity
  8
0
  6
CONTINUOUS
100
AcDbLine
 10
6.983376846288489
 20
0.4834593610997118
 30
0.0
 11
5.908008617934405
 21
1.558827589453796
 31
0.0
  0
LINE
  5
10306
330
102DA
100
AcDbEntity
  8
0
  6
CONTINUOUS
100
AcDbLine
 10
5.377063484962296
 20
1.416253513345719
 30
0.0
 11
1.702276957014131
 21
5.091040041293883
 31
0.0
  0
LINE
  5
10307
330
102DA
100
AcDbEntity
  8
0
  6
CONTINUOUS
100
AcDbLine
 10
3.978745891735324
 20
3.488090315652877
 30
0.0
 11
2.000373521109399
 21
5.466462686278803
 31
0.0
  0
LINE
  5
10308
330
102DA
100
AcDbEntity
  8
0
  6
CONTINUOUS
100
AcDbLine
 10
7.191616947100819
 20
0.948738469367568
 30
0.0
 11
6.11619119566614
 21
2.024164220802247
 31
0.0
  0
LINE
  5
10309
330
102DA
100
AcDbEntity
  8
0
  6
CONTINUOUS
100
AcDbLine
 10
7.399857047913149
 20
1.414017577635424
 30
0.0
 11
6.324373773397875
 21
2.489500852150698
 31
0.0
  0
LINE
  5
1030A
330
102DA
100
AcDbEntity
  8
0
  6
CONTINUOUS
100
AcDbLine
 10
7.608097148725479
 20
1.879296685903281
 30
0.0
 11
6.53255635112961
 21
2.95483748349915
 31
0.0
  0
LINE
  5
1030B
330
102DA
100
AcDbEntity
  8
0
  6
CONTINUOUS
100
AcDbLine
 10
7.816337249537808
 20
2.344575794171138
 30
0.0
 11
6.740738928861345
 21
3.420174114847601
 31
0.0
  0
LINE
  5
1030C
330
102DA
100
AcDbEntity
  8
0
  6
CONTINUOUS
100
AcDbLine
 10
3.310241080789734
 20
4.830114335678653
 30
0.0
 11
2.298470085204666
 21
5.84188533126372
 31
0.0
  0
LINE
  5
1030D
330
102DA
100
AcDbEntity
  8
0
  6
CONTINUOUS
100
AcDbLine
 10
3.60832983563551
 20
5.205544789913063
 30
0.0
 11
2.596566649299935
 21
6.217307976248638
 31
0.0
  0
LINE
  5
1030E
330
102DA
100
AcDbEntity
  8
0
  6
CONTINUOUS
100
AcDbLine
 10
3.906418590481286
 20
5.580975244147473
 30
0.0
 11
2.894663213395203
 21
6.592730621233557
 31
0.0
  0
LINE
  5
1030F
330
102DA
100
AcDbEntity
  8
0
  6
CONTINUOUS
100
AcDbLine
 10
4.204507345327062
 20
5.956405698381884
 30
0.0
 11
3.192759777490472
 21
6.968153266218474
 31
0.0
  0
LINE
  5
10310
330
102DA
100
AcDbEntity
  8
0
  6
CONTINUOUS
100
AcDbLine
 10
8.466032252791512
 20
2.368399999997621
 30
0.0
 11
6.948921506593081
 21
3.885510746196053
 31
0.0
  0
LINE
  5
10311
330
102DA
100
AcDbEntity
  8
0
  6
CONTINUOUS
100
AcDbLine
 10
9.139551461871699
 20
2.36839999999762
 30
0.0
 11
7.157104084324816
 21
4.350847377544504
 31
0.0
  0
LINE
  5
10312
330
102DA
100
AcDbEntity
  8
0
  6
CONTINUOUS
100
AcDbLine
 10
4.502596100172839
 20
6.331836152616295
 30
0.0
 11
3.49085634158574
 21
7.343575911203393
 31
0.0
  0
LINE
  5
10313
330
102DA
100
AcDbEntity
  8
0
  6
CONTINUOUS
100
AcDbLine
 10
4.800684855018615
 20
6.707266606850705
 30
0.0
 11
3.788952905681008
 21
7.718998556188312
 31
0.0
  0
LINE
  5
10314
330
102DA
100
AcDbEntity
  8
0
  6
CONTINUOUS
100
AcDbLine
 10
12.18154012887317
 20
-0.0000694579236642
 30
0.0
 11
11.32140332908496
 21
0.8600673418645499
 31
0.0
  0
LINE
  5
10315
330
102DA
100
AcDbEntity
  8
0
  6
CONTINUOUS
100
AcDbLine
 10
12.85501608323566
 20
-0.0000262032059659
 30
0.0
 11
10.77672456435345
 21
2.078265315676246
 31
0.0
  0
LINE
  5
10316
330
102DA
100
AcDbEntity
  8
0
  6
CONTINUOUS
100
AcDbLine
 10
9.813070670951886
 20
2.36839999999762
 30
0.0
 11
8.51047067095321
 21
3.670999999996297
 31
0.0
  0
LINE
  5
10317
330
102DA
100
AcDbEntity
  8
0
  6
CONTINUOUS
100
AcDbLine
 10
10.48658988003207
 20
2.36839999999762
 30
0.0
 11
9.183989880033396
 21
3.670999999996297
 31
0.0
  0
LINE
  5
10318
330
102DA
100
AcDbEntity
  8
0
  6
CONTINUOUS
100
AcDbLine
 10
8.441048632286794
 20
3.740422038662712
 30
0.0
 11
7.365286662056551
 21
4.816184008892956
 31
0.0
  0
LINE
  5
10319
330
102DA
100
AcDbEntity
  8
0
  6
CONTINUOUS
100
AcDbLine
 10
8.649187485808454
 20
4.205802394221237
 30
0.0
 11
7.573469239788285
 21
5.281520640241407
 31
0.0
  0
LINE
  5
1031A
330
102DA
100
AcDbEntity
  8
0
  6
CONTINUOUS
100
AcDbLine
 10
5.098773609864391
 20
7.082697061085115
 30
0.0
 11
4.087049469776277
 21
8.09442120117323
 31
0.0
  0
LINE
  5
1031B
330
102DA
100
AcDbEntity
  8
0
  6
CONTINUOUS
100
AcDbLine
 10
5.396862364710167
 20
7.458127515319526
 30
0.0
 11
4.385146033871544
 21
8.469843846158149
 31
0.0
  0
LINE
  5
1031C
330
102DA
100
AcDbEntity
  8
0
  6
CONTINUOUS
100
AcDbLine
 10
13.04801363231285
 20
0.4804954567970334
 30
0.0
 11
9.85750908911358
 21
3.670999999996297
 31
0.0
  0
LINE
  5
1031D
330
102DA
100
AcDbEntity
  8
0
  6
CONTINUOUS
100
AcDbLine
 10
8.857326339330116
 20
4.671182749779763
 30
0.0
 11
7.781651817520021
 21
5.746857271589858
 31
0.0
  0
LINE
  5
1031E
330
102DA
100
AcDbEntity
  8
0
  6
CONTINUOUS
100
AcDbLine
 10
5.694951119555943
 20
7.833557969553937
 30
0.0
 11
4.765409089118624
 21
8.763099999991255
 31
0.0
  0
LINE
  5
1031F
330
102DA
100
AcDbEntity
  8
0
  6
CONTINUOUS
100
AcDbLine
 10
12.50286117236978
 20
1.699167125820288
 30
0.0
 11
9.68611877250287
 21
4.515909525687196
 31
0.0
  0
LINE
  5
10320
330
102DA
100
AcDbEntity
  8
0
  6
CONTINUOUS
100
AcDbLine
 10
9.065465192851777
 20
5.136563105338288
 30
0.0
 11
7.989834395251757
 21
6.21219390293831
 31
0.0
  0
LINE
  5
10321
330
102DA
100
AcDbEntity
  8
0
  6
CONTINUOUS
100
AcDbLine
 10
5.993039874401719
 20
8.208988423788346
 30
0.0
 11
5.43892829819881
 21
8.763099999991255
 31
0.0
  0
LINE
  5
10322
330
102DA
100
AcDbEntity
  8
0
  6
CONTINUOUS
100
AcDbLine
 10
11.95770871242671
 20
2.917838794843543
 30
0.0
 11
8.19801697298349
 21
6.677530534286761
 31
0.0
  0
LINE
  5
10323
330
102DA
100
AcDbEntity
  8
0
  6
CONTINUOUS
100
AcDbLine
 10
6.291128629247495
 20
8.584418878022756
 30
0.0
 11
6.112447507278997
 21
8.763099999991255
 31
0.0
  0
LINE
  5
10324
330
102DA
100
AcDbEntity
  8
0
  6
CONTINUOUS
100
AcDbLine
 10
11.41255625248364
 20
4.136510463866797
 30
0.0
 11
8.406199550715227
 21
7.142867165635211
 31
0.0
  0
LINE
  5
10325
330
102DA
100
AcDbEntity
  8
0
  6
CONTINUOUS
100
AcDbLine
 10
10.86740379254057
 20
5.355182132890051
 30
0.0
 11
8.614382128446962
 21
7.608203796983664
 31
0.0
  0
LINE
  5
10326
330
102DA
100
AcDbEntity
  8
0
  6
CONTINUOUS
100
AcDbLine
 10
10.3222513325975
 20
6.573853801913305
 30
0.0
 11
8.822564706178696
 21
8.073540428332114
 31
0.0
  0
LINE
  5
10327
330
102DA
100
AcDbEntity
  8
0
  6
CONTINUOUS
100
AcDbLine
 10
9.777098872654436
 20
7.792525470936562
 30
0.0
 11
9.030747283910433
 21
8.538877059680566
 31
0.0
  0
ENDBLK
  5
10469
330
102DA
100
AcDbEntity
  8
0
100
AcDbBlockEnd
  0
BLOCK
  5
1046A
330
10328
100
AcDbEntity
  8
0
100
AcDbBlockBegin
  2
*X125
 70
     1
 10
0.0
 20
0.0
 30
0.0
  3
*X125
  1

  0
LINE
  5
10329
330
10328
100
AcDbEntity
  8
0
  6
CONTINUOUS
100
AcDbLine
 10
10.67292308101235
 20
8.445076852443387
 30
0.0
 11
10.99094622856022
 21
8.763099999991255
 31
0.0
  0
LINE
  5
1032A
330
10328
100
AcDbEntity
  8
0
  6
CONTINUOUS
100
AcDbLine
 10
10.87250383178748
 20
7.971138394138331
 30
0.0
 11
11.6644654376404
 21
8.763099999991255
 31
0.0
  0
LINE
  5
1032B
330
10328
100
AcDbEntity
  8
0
  6
CONTINUOUS
100
AcDbLine
 10
11.07208458256261
 20
7.497199935833273
 30
0.0
 11
12.12126590876355
 21
8.546381262034211
 31
0.0
  0
LINE
  5
1032C
330
10328
100
AcDbEntity
  8
0
  6
CONTINUOUS
100
AcDbLine
 10
11.27166533333774
 20
7.023261477528216
 30
0.0
 11
12.32085164573666
 21
8.072447789927136
 31
0.0
  0
LINE
  5
1032D
330
10328
100
AcDbEntity
  8
0
  6
CONTINUOUS
100
AcDbLine
 10
11.47124608411287
 20
6.549323019223158
 30
0.0
 11
12.52043738270977
 21
7.59851431782006
 31
0.0
  0
LINE
  5
1032E
330
10328
100
AcDbEntity
  8
0
  6
CONTINUOUS
100
AcDbLine
 10
11.670826834888
 20
6.075384560918101
 30
0.0
 11
12.72002311968288
 21
7.124580845712984
 31
0.0
  0
LINE
  5
1032F
330
10328
100
AcDbEntity
  8
0
  6
CONTINUOUS
100
AcDbLine
 10
11.87040758566313
 20
5.601446102613043
 30
0.0
 11
12.91960885665599
 21
6.650647373605907
 31
0.0
  0
LINE
  5
10330
330
10328
100
AcDbEntity
  8
0
  6
CONTINUOUS
100
AcDbLine
 10
12.06998833643825
 20
5.127507644307986
 30
0.0
 11
13.1191945936291
 21
6.176713901498832
 31
0.0
  0
LINE
  5
10331
330
10328
100
AcDbEntity
  8
0
  6
CONTINUOUS
100
AcDbLine
 10
12.26956908721338
 20
4.65356918600293
 30
0.0
 11
13.31878033060221
 21
5.702780429391757
 31
0.0
  0
LINE
  5
10332
330
10328
100
AcDbEntity
  8
0
  6
CONTINUOUS
100
AcDbLine
 10
12.46914983798851
 20
4.179630727697873
 30
0.0
 11
13.51836606757532
 21
5.228846957284683
 31
0.0
  0
LINE
  5
10333
330
10328
100
AcDbEntity
  8
0
  6
CONTINUOUS
100
AcDbLine
 10
12.66873058876364
 20
3.705692269392816
 30
0.0
 11
13.71795180454843
 21
4.754913485177607
 31
0.0
  0
LINE
  5
10334
330
10328
100
AcDbEntity
  8
0
  6
CONTINUOUS
100
AcDbLine
 10
12.86831133953877
 20
3.231753811087759
 30
0.0
 11
13.91753754152154
 21
4.280980013070531
 31
0.0
  0
LINE
  5
10335
330
10328
100
AcDbEntity
  8
0
  6
CONTINUOUS
100
AcDbLine
 10
13.0678920903139
 20
2.757815352782702
 30
0.0
 11
14.11712327849465
 21
3.807046540963456
 31
0.0
  0
LINE
  5
10336
330
10328
100
AcDbEntity
  8
0
  6
CONTINUOUS
100
AcDbLine
 10
13.26747284108903
 20
2.283876894477644
 30
0.0
 11
14.31670901546777
 21
3.333113068856379
 31
0.0
  0
LINE
  5
10337
330
10328
100
AcDbEntity
  8
0
  6
CONTINUOUS
100
AcDbLine
 10
16.36767838827179
 20
8.751678487061342
 30
0.0
 11
16.50332410898388
 21
8.887324207773432
 31
0.0
  0
LINE
  5
10338
330
10328
100
AcDbEntity
  8
0
  6
CONTINUOUS
100
AcDbLine
 10
15.96190732182191
 20
7.67238821153127
 30
0.0
 11
16.68735328004734
 21
8.397834169756699
 31
0.0
  0
LINE
  5
10339
330
10328
100
AcDbEntity
  8
0
  6
CONTINUOUS
100
AcDbLine
 10
15.55613625537202
 20
6.593097936001196
 30
0.0
 11
16.87138245111079
 21
7.908344131739965
 31
0.0
  0
LINE
  5
1033A
330
10328
100
AcDbEntity
  8
0
  6
CONTINUOUS
100
AcDbLine
 10
15.15036518892213
 20
5.513807660471122
 30
0.0
 11
17.05541162217424
 21
7.418854093723231
 31
0.0
  0
LINE
  5
1033B
330
10328
100
AcDbEntity
  8
0
  6
CONTINUOUS
100
AcDbLine
 10
14.74459412247225
 20
4.434517384941048
 30
0.0
 11
17.2394407932377
 21
6.929364055706499
 31
0.0
  0
LINE
  5
1033C
330
10328
100
AcDbEntity
  8
0
  6
CONTINUOUS
100
AcDbLine
 10
14.33882305602236
 20
3.355227109410975
 30
0.0
 11
17.42346996430115
 21
6.439874017689766
 31
0.0
  0
LINE
  5
1033D
330
10328
100
AcDbEntity
  8
0
  6
CONTINUOUS
100
AcDbLine
 10
13.46705359186416
 20
1.809938436172586
 30
0.0
 11
16.0819338255367
 21
4.424818669845129
 31
0.0
  0
LINE
  5
1033E
330
10328
100
AcDbEntity
  8
0
  6
CONTINUOUS
100
AcDbLine
 10
16.63283254238972
 20
4.975717386698149
 30
0.0
 11
17.60749913536461
 21
5.950383979673033
 31
0.0
  0
LINE
  5
1033F
330
10328
100
AcDbEntity
  8
0
  6
CONTINUOUS
100
AcDbLine
 10
13.66663434263929
 20
1.335999977867529
 30
0.0
 11
15.67604797733754
 21
3.345413612565779
 31
0.0
  0
LINE
  5
10340
330
10328
100
AcDbEntity
  8
0
  6
CONTINUOUS
100
AcDbLine
 10
13.86621509341442
 20
0.8620615195624723
 30
0.0
 11
15.27016212913838
 21
2.26600855528643
 31
0.0
  0
LINE
  5
10341
330
10328
100
AcDbEntity
  8
0
  6
CONTINUOUS
100
AcDbLine
 10
16.81682257348267
 20
4.486188208710908
 30
0.0
 11
17.79152830642806
 21
5.460893941656299
 31
0.0
  0
LINE
  5
10342
330
10328
100
AcDbEntity
  8
0
  6
CONTINUOUS
100
AcDbLine
 10
17.00081260457561
 20
3.996659030723667
 30
0.0
 11
17.97555747749151
 21
4.971403903639565
 31
0.0
  0
LINE
  5
10343
330
10328
100
AcDbEntity
  8
0
  6
CONTINUOUS
100
AcDbLine
 10
20.74362343514722
 20
8.412989070375462
 30
0.0
 11
21.09373436476302
 21
8.763099999991256
 31
0.0
  0
LINE
  5
10344
330
10328
100
AcDbEntity
  8
0
  6
CONTINUOUS
100
AcDbLine
 10
20.25401257174777
 20
7.249858997895826
 30
0.0
 11
21.7672535738432
 21
8.763099999991255
 31
0.0
  0
LINE
  5
10345
330
10328
100
AcDbEntity
  8
0
  6
CONTINUOUS
100
AcDbLine
 10
14.06579584418955
 20
0.3881230612574149
 30
0.0
 11
14.86427628093921
 21
1.186603498007082
 31
0.0
  0
LINE
  5
10346
330
10328
100
AcDbEntity
  8
0
  6
CONTINUOUS
100
AcDbLine
 10
14.26537659496467
 20
-0.0858153970476412
 30
0.0
 11
14.45839043274005
 21
0.1071984407277329
 31
0.0
  0
LINE
  5
10347
330
10328
100
AcDbEntity
  8
0
  6
CONTINUOUS
100
AcDbLine
 10
17.18480263566856
 20
3.507129852736426
 30
0.0
 11
18.15958664855496
 21
4.481913865622833
 31
0.0
  0
LINE
  5
10348
330
10328
100
AcDbEntity
  8
0
  6
CONTINUOUS
100
AcDbLine
 10
17.3687926667615
 20
3.017600674749186
 30
0.0
 11
18.34361581961842
 21
3.9924238276061
 31
0.0
  0
LINE
  5
10349
330
10328
100
AcDbEntity
  8
0
  6
CONTINUOUS
100
AcDbLine
 10
19.76440170834832
 20
6.086728925416191
 30
0.0
 11
22.33924590259489
 21
8.661573119662755
 31
0.0
  0
LINE
  5
1034A
330
10328
100
AcDbEntity
  8
0
  6
CONTINUOUS
100
AcDbLine
 10
19.27479084494887
 20
4.923598852936555
 30
0.0
 11
21.84929622842713
 21
7.498104236414807
 31
0.0
  0
LINE
  5
1034B
330
10328
100
AcDbEntity
  8
0
  6
CONTINUOUS
100
AcDbLine
 10
17.55278269785445
 20
2.528071496761945
 30
0.0
 11
18.52764499068187
 21
3.502933789589366
 31
0.0
  0
LINE
  5
1034C
330
10328
100
AcDbEntity
  8
0
  6
CONTINUOUS
100
AcDbLine
 10
18.78517998154942
 20
3.760468780456919
 30
0.0
 11
21.35934655425936
 21
6.33463535316686
 31
0.0
  0
LINE
  5
1034D
330
10328
100
AcDbEntity
  8
0
  6
CONTINUOUS
100
AcDbLine
 10
17.73677272894739
 20
2.038542318774704
 30
0.0
 11
20.8693968800916
 21
5.171166469918914
 31
0.0
  0
LINE
  5
1034E
330
10328
100
AcDbEntity
  8
0
  6
CONTINUOUS
100
AcDbLine
 10
17.92076276004034
 20
1.549013140787464
 30
0.0
 11
20.37944720592384
 21
4.007697586670968
 31
0.0
  0
LINE
  5
1034F
330
10328
100
AcDbEntity
  8
0
  6
CONTINUOUS
100
AcDbLine
 10
18.10475279113329
 20
1.059483962800223
 30
0.0
 11
19.88949753175608
 21
2.84422870342302
 31
0.0
  0
LINE
  5
10350
330
10328
100
AcDbEntity
  8
0
  6
CONTINUOUS
100
AcDbLine
 10
18.28874282222623
 20
0.5699547848129822
 30
0.0
 11
19.39954785758832
 21
1.680759820175074
 31
0.0
  0
LINE
  5
10351
330
10328
100
AcDbEntity
  8
0
  6
CONTINUOUS
100
AcDbLine
 10
18.47273285331918
 20
0.0804256068257416
 30
0.0
 11
18.90959818342056
 21
0.517290936927127
 31
0.0
  0
LINE
  5
10352
330
10328
100
AcDbEntity
  8
0
  6
CONTINUOUS
100
AcDbLine
 10
14.3590401358224
 20
-0.1570118376323384
 30
0.0
 11
14.24903296539946
 21
-0.0470046672093929
 31
0.0
  0
LINE
  5
10353
330
10328
100
AcDbEntity
  8
0
  6
CONTINUOUS
100
AcDbLine
 10
14.54309291258661
 20
0.332454594683643
 30
0.0
 11
13.75908329123172
 21
1.116464216038529
 31
0.0
  0
LINE
  5
10354
330
10328
100
AcDbEntity
  8
0
  6
CONTINUOUS
100
AcDbLine
 10
14.72714568935081
 20
0.8219210269996244
 30
0.0
 11
13.26913361706399
 21
2.27993309928645
 31
0.0
  0
LINE
  5
10355
330
10328
100
AcDbEntity
  8
0
  6
CONTINUOUS
100
AcDbLine
 10
14.91119846611502
 20
1.311387459315606
 30
0.0
 11
12.77918394289625
 21
3.443401982534371
 31
0.0
  0
LINE
  5
10356
330
10328
100
AcDbEntity
  8
0
  6
CONTINUOUS
100
AcDbLine
 10
15.09525124287922
 20
1.800853891631587
 30
0.0
 11
12.28923426872852
 21
4.606870865782293
 31
0.0
  0
LINE
  5
10357
330
10328
100
AcDbEntity
  8
0
  6
CONTINUOUS
100
AcDbLine
 10
15.27930401964343
 20
2.290320323947569
 30
0.0
 11
11.79928459456078
 21
5.770339749030213
 31
0.0
  0
LINE
  5
10358
330
10328
100
AcDbEntity
  8
0
  6
CONTINUOUS
100
AcDbLine
 10
15.46335679640763
 20
2.77978675626355
 30
0.0
 11
14.48885470994921
 21
3.754288842721972
 31
0.0
  0
LINE
  5
10359
330
10328
100
AcDbEntity
  8
0
  6
CONTINUOUS
100
AcDbLine
 10
13.88507249233704
 20
4.358071060334137
 30
0.0
 11
11.30933492039305
 21
6.933808632278135
 31
0.0
  0
LINE
  5
1035A
330
10328
100
AcDbEntity
  8
0
  6
CONTINUOUS
100
AcDbLine
 10
18.75840522805855
 20
0.1582575336928151
 30
0.0
 11
18.25383727664818
 21
0.6628254851031863
 31
0.0
  0
LINE
  5
1035B
330
10328
100
AcDbEntity
  8
0
  6
CONTINUOUS
100
AcDbLine
 10
15.64740957317184
 20
3.269253188579531
 30
0.0
 11
14.67288388101266
 21
4.243778880738705
 31
0.0
  0
LINE
  5
1035C
330
10328
100
AcDbEntity
  8
0
  6
CONTINUOUS
100
AcDbLine
 10
13.39509276772158
 20
5.521569994029786
 30
0.0
 11
10.81938524622531
 21
8.097277515526056
 31
0.0
  0
LINE
  5
1035D
330
10328
100
AcDbEntity
  8
0
  6
CONTINUOUS
100
AcDbLine
 10
18.95798597883369
 20
0.6321959919978686
 30
0.0
 11
17.84825644852853
 21
1.741925522303024
 31
0.0
  0
LINE
  5
1035E
330
10328
100
AcDbEntity
  8
0
  6
CONTINUOUS
100
AcDbLine
 10
19.15756672960882
 20
1.106134450302922
 30
0.0
 11
17.44267562040888
 21
2.821025559502861
 31
0.0
  0
LINE
  5
1035F
330
10328
100
AcDbEntity
  8
0
  6
CONTINUOUS
100
AcDbLine
 10
15.83146234993604
 20
3.758719620895513
 30
0.0
 11
14.85691305207612
 21
4.733268918755439
 31
0.0
  0
LINE
  5
10360
330
10328
100
AcDbEntity
  8
0
  6
CONTINUOUS
100
AcDbLine
 10
16.01551512670025
 20
4.248186053211494
 30
0.0
 11
15.04094222313957
 21
5.222758956772172
 31
0.0
  0
LINE
  5
10361
330
10328
100
AcDbEntity
  8
0
  6
CONTINUOUS
100
AcDbLine
 10
12.90511304310612
 20
6.685068927725435
 30
0.0
 11
10.8270819708403
 21
8.763099999991255
 31
0.0
  0
LINE
  5
10362
330
10328
100
AcDbEntity
  8
0
  6
CONTINUOUS
100
AcDbLine
 10
12.41513331849066
 20
7.848567861421083
 30
0.0
 11
11.50060117992049
 21
8.763099999991255
 31
0.0
  0
LINE
  5
10363
330
10328
100
AcDbEntity
  8
0
  6
CONTINUOUS
100
AcDbLine
 10
19.35714748038395
 20
1.580072908607975
 30
0.0
 11
17.03709479228923
 21
3.900125596702697
 31
0.0
  0
LINE
  5
10364
330
10328
100
AcDbEntity
  8
0
  6
CONTINUOUS
100
AcDbLine
 10
19.55672823115909
 20
2.054011366913028
 30
0.0
 11
16.63151396416958
 21
4.979225633902534
 31
0.0
  0
LINE
  5
10365
330
10328
100
AcDbEntity
  8
0
  6
CONTINUOUS
100
AcDbLine
 10
16.19956790346445
 20
4.737652485527476
 30
0.0
 11
15.22497139420302
 21
5.712248994788904
 31
0.0
  0
LINE
  5
10366
330
10328
100
AcDbEntity
  8
0
  6
CONTINUOUS
100
AcDbLine
 10
16.38362068022866
 20
5.227118917843457
 30
0.0
 11
15.40900056526648
 21
6.201739032805637
 31
0.0
  0
LINE
  5
10367
330
10328
100
AcDbEntity
  8
0
  6
CONTINUOUS
100
AcDbLine
 10
19.75630898193422
 20
2.527949825218081
 30
0.0
 11
18.70774536448286
 21
3.576513442669441
 31
0.0
  0
LINE
  5
10368
330
10328
100
AcDbEntity
  8
0
  6
CONTINUOUS
100
AcDbLine
 10
19.95588973270936
 20
3.001888283523134
 30
0.0
 11
18.90726987211446
 21
4.050508144118028
 31
0.0
  0
LINE
  5
10369
330
10328
100
AcDbEntity
  8
0
  6
CONTINUOUS
100
AcDbLine
 10
20.15547048348449
 20
3.475826741828186
 30
0.0
 11
19.10679437974606
 21
4.524502845566614
 31
0.0
  0
LINE
  5
1036A
330
10328
100
AcDbEntity
  8
0
  6
CONTINUOUS
100
AcDbLine
 10
20.35505123425962
 20
3.94976520013324
 30
0.0
 11
19.30631888737766
 21
4.998497547015201
 31
0.0
  0
LINE
  5
1036B
330
10328
100
AcDbEntity
  8
0
  6
CONTINUOUS
100
AcDbLine
 10
20.55463198503475
 20
4.423703658438292
 30
0.0
 11
19.50584339500926
 21
5.472492248463787
 31
0.0
  0
LINE
  5
1036C
330
10328
100
AcDbEntity
  8
0
  6
CONTINUOUS
100
AcDbLine
 10
18.37481191085755
 20
3.909446896294752
 30
0.0
 11
15.59302973632993
 21
6.691229070822371
 31
0.0
  0
LINE
  5
1036D
330
10328
100
AcDbEntity
  8
0
  6
CONTINUOUS
100
AcDbLine
 10
17.96904084440766
 20
4.988737171824825
 30
0.0
 11
15.77705890739338
 21
7.180719108839104
 31
0.0
  0
LINE
  5
1036E
330
10328
100
AcDbEntity
  8
0
  6
CONTINUOUS
100
AcDbLine
 10
17.56326977795777
 20
6.068027447354899
 30
0.0
 11
15.96108807845684
 21
7.670209146855838
 31
0.0
  0
LINE
  5
1036F
330
10328
100
AcDbEntity
  8
0
  6
CONTINUOUS
100
AcDbLine
 10
17.15749871150789
 20
7.147317722884972
 30
0.0
 11
16.14511724952029
 21
8.15969918487257
 31
0.0
  0
LINE
  5
10370
330
10328
100
AcDbEntity
  8
0
  6
CONTINUOUS
100
AcDbLine
 10
16.751727645058
 20
8.226607998415046
 30
0.0
 11
16.32914642058374
 21
8.649189222889303
 31
0.0
  0
LINE
  5
10371
330
10328
100
AcDbEntity
  8
0
  6
CONTINUOUS
100
AcDbLine
 10
20.75421273580989
 20
4.897642116743345
 30
0.0
 11
19.70536790264086
 21
5.946486949912374
 31
0.0
  0
LINE
  5
10372
330
10328
100
AcDbEntity
  8
0
  6
CONTINUOUS
100
AcDbLine
 10
20.95379348658502
 20
5.371580575048398
 30
0.0
 11
19.90489241027246
 21
6.42048165136096
 31
0.0
  0
LINE
  5
10373
330
10328
100
AcDbEntity
  8
0
  6
CONTINUOUS
100
AcDbLine
 10
21.15337423736015
 20
5.845519033353452
 30
0.0
 11
20.10441691790406
 21
6.894476352809547
 31
0.0
  0
LINE
  5
10374
330
10328
100
AcDbEntity
  8
0
  6
CONTINUOUS
100
AcDbLine
 10
21.35295498813529
 20
6.319457491658505
 30
0.0
 11
20.30394142553566
 21
7.368471054258134
 31
0.0
  0
LINE
  5
10375
330
10328
100
AcDbEntity
  8
0
  6
CONTINUOUS
100
AcDbLine
 10
21.55253573891042
 20
6.793395949963558
 30
0.0
 11
20.50346593316726
 21
7.842465755706721
 31
0.0
  0
LINE
  5
10376
330
10328
100
AcDbEntity
  8
0
  6
CONTINUOUS
100
AcDbLine
 10
21.75211648968556
 20
7.267334408268612
 30
0.0
 11
20.70299044079886
 21
8.316460457155308
 31
0.0
  0
LINE
  5
10377
330
10328
100
AcDbEntity
  8
0
  6
CONTINUOUS
100
AcDbLine
 10
21.95169724046069
 20
7.741272866573663
 30
0.0
 11
20.9298701070431
 21
8.763099999991256
 31
0.0
  0
LINE
  5
10378
330
10328
100
AcDbEntity
  8
0
  6
CONTINUOUS
100
AcDbLine
 10
22.15127799123582
 20
8.215211324878716
 30
0.0
 11
21.60338931612328
 21
8.763099999991256
 31
0.0
  0
LINE
  5
10379
330
10328
100
AcDbEntity
  8
0
  6
CONTINUOUS
100
AcDbLine
 10
22.35085874201096
 20
8.689149783183769
 30
0.0
 11
22.27690852520347
 21
8.763099999991255
 31
0.0
  0
ENDBLK
  5
1046B
330
10328
100
AcDbEntity
  8
0
100
AcDbBlockEnd
  0
BLOCK
  5
1046C
330
1037A
100
AcDbEntity
  8
0
100
AcDbBlockBegin
  2
*X126
 70
     1
 10
0.0
 20
0.0
 30
0.0
  3
*X126
  1

  0
LINE
  5
1037B
330
1037A
100
AcDbEntity
  8
0
  6
CONTINUOUS
100
AcDbLine
 10
23.19462913593892
 20
8.169917934846424
 30
0.0
 11
23.70775465517246
 21
8.683043454079957
 31
0.0
  0
LINE
  5
1037C
330
1037A
100
AcDbEntity
  8
0
  6
CONTINUOUS
100
AcDbLine
 10
22.64923161835078
 20
6.951001208178088
 30
0.0
 11
23.9159364069932
 21
8.217705996820516
 31
0.0
  0
LINE
  5
1037D
330
1037A
100
AcDbEntity
  8
0
  6
CONTINUOUS
100
AcDbLine
 10
22.10383410076263
 20
5.732084481509751
 30
0.0
 11
24.12411815881395
 21
7.752368539561078
 31
0.0
  0
LINE
  5
1037E
330
1037A
100
AcDbEntity
  8
0
  6
CONTINUOUS
100
AcDbLine
 10
21.55843658317447
 20
4.513167754841414
 30
0.0
 11
24.3322999106347
 21
7.287031082301639
 31
0.0
  0
LINE
  5
1037F
330
1037A
100
AcDbEntity
  8
0
  6
CONTINUOUS
100
AcDbLine
 10
21.01303906558632
 20
3.294251028173077
 30
0.0
 11
24.54048166245544
 21
6.821693625042199
 31
0.0
  0
LINE
  5
10380
330
1037A
100
AcDbEntity
  8
0
  6
CONTINUOUS
100
AcDbLine
 10
20.46764154799817
 20
2.075334301504738
 30
0.0
 11
23.28571549467848
 21
4.89340824818505
 31
0.0
  0
LINE
  5
10381
330
1037A
100
AcDbEntity
  8
0
  6
CONTINUOUS
100
AcDbLine
 10
19.92224403041002
 20
0.8564175748364002
 30
0.0
 11
22.74075865492779
 21
3.674932199354171
 31
0.0
  0
LINE
  5
10382
330
1037A
100
AcDbEntity
  8
0
  6
CONTINUOUS
100
AcDbLine
 10
23.67305085490148
 20
5.280743608408048
 30
0.0
 11
24.74866341427619
 21
6.356356167782759
 31
0.0
  0
LINE
  5
10383
330
1037A
100
AcDbEntity
  8
0
  6
CONTINUOUS
100
AcDbLine
 10
23.88118970842314
 20
4.815363252849522
 30
0.0
 11
24.95684516609694
 21
5.89101871052332
 31
0.0
  0
LINE
  5
10384
330
1037A
100
AcDbEntity
  8
0
  6
CONTINUOUS
100
AcDbLine
 10
19.73925852647308
 20
-0.0000871381807288
 30
0.0
 11
23.4103456646501
 21
3.670999999996297
 31
0.0
  0
LINE
  5
10385
330
1037A
100
AcDbEntity
  8
0
  6
CONTINUOUS
100
AcDbLine
 10
24.0893285619448
 20
4.349982897290997
 30
0.0
 11
25.16502691791769
 21
5.42568125326388
 31
0.0
  0
LINE
  5
10386
330
1037A
100
AcDbEntity
  8
0
  6
CONTINUOUS
100
AcDbLine
 10
20.41282099582748
 20
-0.0000438779065108
 30
0.0
 11
21.64944178675636
 21
1.236576913022366
 31
0.0
  0
LINE
  5
10387
330
1037A
100
AcDbEntity
  8
0
  6
CONTINUOUS
100
AcDbLine
 10
22.78126487373161
 20
2.36839999999762
 30
0.0
 11
24.08386487373029
 21
3.670999999996297
 31
0.0
  0
LINE
  5
10388
330
1037A
100
AcDbEntity
  8
0
  6
CONTINUOUS
100
AcDbLine
 10
24.29746741546646
 20
3.884602541732471
 30
0.0
 11
25.37320866973843
 21
4.960343796004441
 31
0.0
  0
LINE
  5
10389
330
1037A
100
AcDbEntity
  8
0
  6
CONTINUOUS
100
AcDbLine
 10
21.08638346518189
 20
-0.0000006176322938
 30
0.0
 11
21.10379033335899
 21
0.0174062505448083
 31
0.0
  0
LINE
  5
1038A
330
1037A
100
AcDbEntity
  8
0
  6
CONTINUOUS
100
AcDbLine
 10
23.4547840828118
 20
2.36839999999762
 30
0.0
 11
25.58139042155918
 21
4.495006338745002
 31
0.0
  0
LINE
  5
1038B
330
1037A
100
AcDbEntity
  8
0
  6
CONTINUOUS
100
AcDbLine
 10
29.30199999996933
 20
8.215615917155148
 30
0.0
 11
29.84948408280543
 21
8.763099999991255
 31
0.0
  0
LINE
  5
1038C
330
1037A
100
AcDbEntity
  8
0
  6
CONTINUOUS
100
AcDbLine
 10
24.12830329189199
 20
2.36839999999762
 30
0.0
 11
25.78957217337993
 21
4.029668881485562
 31
0.0
  0
LINE
  5
1038D
330
1037A
100
AcDbEntity
  8
0
  6
CONTINUOUS
100
AcDbLine
 10
29.30199999996933
 20
7.54209670807496
 30
0.0
 11
30.52300329188562
 21
8.763099999991255
 31
0.0
  0
LINE
  5
1038E
330
1037A
100
AcDbEntity
  8
0
  6
CONTINUOUS
100
AcDbLine
 10
24.80182250097217
 20
2.36839999999762
 30
0.0
 11
25.99775392520067
 21
3.564331424226122
 31
0.0
  0
LINE
  5
1038F
330
1037A
100
AcDbEntity
  8
0
  6
CONTINUOUS
100
AcDbLine
 10
29.30199999996933
 20
6.868577498994774
 30
0.0
 11
30.74199999996926
 21
8.308577498994712
 31
0.0
  0
LINE
  5
10390
330
1037A
100
AcDbEntity
  8
0
  6
CONTINUOUS
100
AcDbLine
 10
25.13028238392013
 20
2.023340673865392
 30
0.0
 11
26.20593567702142
 21
3.098993966966683
 31
0.0
  0
LINE
  5
10391
330
1037A
100
AcDbEntity
  8
0
  6
CONTINUOUS
100
AcDbLine
 10
25.33838066033617
 20
1.557919741201244
 30
0.0
 11
26.41411742884217
 21
2.633656509707244
 31
0.0
  0
LINE
  5
10392
330
1037A
100
AcDbEntity
  8
0
  6
CONTINUOUS
100
AcDbLine
 10
25.54647893675221
 20
1.092498808537098
 30
0.0
 11
26.62229918066291
 21
2.168319052447804
 31
0.0
  0
LINE
  5
10393
330
1037A
100
AcDbEntity
  8
0
  6
CONTINUOUS
100
AcDbLine
 10
25.75457721316825
 20
0.62707787587295
 30
0.0
 11
26.83048093248366
 21
1.702981595188365
 31
0.0
  0
LINE
  5
10394
330
1037A
100
AcDbEntity
  8
0
  6
CONTINUOUS
100
AcDbLine
 10
29.30199999996933
 20
6.195058289914587
 30
0.0
 11
30.74199999996926
 21
7.635058289914522
 31
0.0
  0
LINE
  5
10395
330
1037A
100
AcDbEntity
  8
0
  6
CONTINUOUS
100
AcDbLine
 10
29.30199999996933
 20
5.521539080834401
 30
0.0
 11
30.74199999996926
 21
6.961539080834331
 31
0.0
  0
LINE
  5
10396
330
1037A
100
AcDbEntity
  8
0
  6
CONTINUOUS
100
AcDbLine
 10
29.30199999996933
 20
4.848019871754214
 30
0.0
 11
30.74199999996925
 21
6.288019871754143
 31
0.0
  0
LINE
  5
10397
330
1037A
100
AcDbEntity
  8
0
  6
CONTINUOUS
100
AcDbLine
 10
29.30199999996933
 20
4.174500662674028
 30
0.0
 11
30.74199999996925
 21
5.614500662673953
 31
0.0
  0
LINE
  5
10398
330
1037A
100
AcDbEntity
  8
0
  6
CONTINUOUS
100
AcDbLine
 10
25.96267548958429
 20
0.1616569432088024
 30
0.0
 11
27.18411854636669
 21
1.383099999991207
 31
0.0
  0
LINE
  5
10399
330
1037A
100
AcDbEntity
  8
0
  6
CONTINUOUS
100
AcDbLine
 10
29.30199999996933
 20
3.500981453593841
 30
0.0
 11
30.74199999996925
 21
4.940981453593762
 31
0.0
  0
LINE
  5
1039A
330
1037A
100
AcDbEntity
  8
0
  6
CONTINUOUS
100
AcDbLine
 10
26.50763775544691
 20
0.0330999999912356
 30
0.0
 11
27.85763775544689
 21
1.383099999991223
 31
0.0
  0
LINE
  5
1039B
330
1037A
100
AcDbEntity
  8
0
  6
CONTINUOUS
100
AcDbLine
 10
29.30199999996933
 20
2.827462244513656
 30
0.0
 11
30.74199999996925
 21
4.267462244513574
 31
0.0
  0
LINE
  5
1039C
330
1037A
100
AcDbEntity
  8
0
  6
CONTINUOUS
100
AcDbLine
 10
27.18115696452709
 20
0.0330999999912356
 30
0.0
 11
28.55073879889363
 21
1.402681834357775
 31
0.0
  0
LINE
  5
1039D
330
1037A
100
AcDbEntity
  8
0
  6
CONTINUOUS
100
AcDbLine
 10
29.28241816560272
 20
2.134361201066866
 30
0.0
 11
30.74199999996924
 21
3.593943035433383
 31
0.0
  0
LINE
  5
1039E
330
1037A
100
AcDbEntity
  8
0
  6
CONTINUOUS
100
AcDbLine
 10
27.85467617360728
 20
0.0330999999912356
 30
0.0
 11
30.74199999996924
 21
2.920423826353195
 31
0.0
  0
LINE
  5
1039F
330
1037A
100
AcDbEntity
  8
0
  6
CONTINUOUS
100
AcDbLine
 10
28.53897559587887
 20
0.0438802131826428
 30
0.0
 11
30.73121978677781
 21
2.236124404081585
 31
0.0
  0
LINE
  5
103A0
330
1037A
100
AcDbEntity
  8
0
  6
CONTINUOUS
100
AcDbLine
 10
29.45140055588722
 20
0.2827859641107988
 30
0.0
 11
30.49231403584965
 21
1.323699444073236
 31
0.0
  0
LINE
  5
103A1
330
1037A
100
AcDbEntity
  8
0
  6
CONTINUOUS
100
AcDbLine
 10
19.59027867740337
 20
-0.0000967065718083
 30
0.0
 11
19.55485265190471
 21
0.035329318926844
 31
0.0
  0
LINE
  5
103A2
330
1037A
100
AcDbEntity
  8
0
  6
CONTINUOUS
100
AcDbLine
 10
20.26375463176586
 20
-0.0000534518541091
 30
0.0
 11
19.76305575737534
 21
0.5006454225364014
 31
0.0
  0
LINE
  5
103A3
330
1037A
100
AcDbEntity
  8
0
  6
CONTINUOUS
100
AcDbLine
 10
20.93723058612834
 20
-0.0000101971364099
 30
0.0
 11
19.97125886284597
 21
0.965961526145958
 31
0.0
  0
LINE
  5
103A4
330
1037A
100
AcDbEntity
  8
0
  6
CONTINUOUS
100
AcDbLine
 10
21.25514828313686
 20
0.355591314935257
 30
0.0
 11
20.1794619683166
 21
1.431277629755512
 31
0.0
  0
LINE
  5
103A5
330
1037A
100
AcDbEntity
  8
0
  6
CONTINUOUS
100
AcDbLine
 10
21.46338838394921
 20
0.8208704232030986
 30
0.0
 11
20.38766507378723
 21
1.896593733365069
 31
0.0
  0
LINE
  5
103A6
330
1037A
100
AcDbEntity
  8
0
  6
CONTINUOUS
100
AcDbLine
 10
21.67162848476155
 20
1.28614953147094
 30
0.0
 11
20.59586817925786
 21
2.361909836974626
 31
0.0
  0
LINE
  5
103A7
330
1037A
100
AcDbEntity
  8
0
  6
CONTINUOUS
100
AcDbLine
 10
21.8798685855739
 20
1.751428639738782
 30
0.0
 11
20.80407128472849
 21
2.827225940584183
 31
0.0
  0
LINE
  5
103A8
330
1037A
100
AcDbEntity
  8
0
  6
CONTINUOUS
100
AcDbLine
 10
22.08810868638624
 20
2.216707748006623
 30
0.0
 11
21.01227439019912
 21
3.292542044193739
 31
0.0
  0
LINE
  5
103A9
330
1037A
100
AcDbEntity
  8
0
  6
CONTINUOUS
100
AcDbLine
 10
22.60993564347543
 20
2.36839999999762
 30
0.0
 11
21.22047749566975
 21
3.757858147803296
 31
0.0
  0
LINE
  5
103AA
330
1037A
100
AcDbEntity
  8
0
  6
CONTINUOUS
100
AcDbLine
 10
23.28345485255561
 20
2.36839999999762
 30
0.0
 11
21.42868060114038
 21
4.223174251412853
 31
0.0
  0
LINE
  5
103AB
330
1037A
100
AcDbEntity
  8
0
  6
CONTINUOUS
100
AcDbLine
 10
26.29227406164219
 20
0.0330999999912356
 30
0.0
 11
25.80009199592872
 21
0.5252820657046957
 31
0.0
  0
LINE
  5
103AC
330
1037A
100
AcDbEntity
  8
0
  6
CONTINUOUS
100
AcDbLine
 10
23.9569740616358
 20
2.36839999999762
 30
0.0
 11
21.63688370661101
 21
4.688490355022409
 31
0.0
  0
LINE
  5
103AD
330
1037A
100
AcDbEntity
  8
0
  6
CONTINUOUS
100
AcDbLine
 10
26.96579327072237
 20
0.0330999999912356
 30
0.0
 11
25.2554132311971
 21
1.743480039516508
 31
0.0
  0
LINE
  5
103AE
330
1037A
100
AcDbEntity
  8
0
  6
CONTINUOUS
100
AcDbLine
 10
24.63049327071599
 20
2.36839999999762
 30
0.0
 11
23.32789327071731
 21
3.670999999996297
 31
0.0
  0
LINE
  5
103AF
330
1037A
100
AcDbEntity
  8
0
  6
CONTINUOUS
100
AcDbLine
 10
22.92098674744635
 20
4.077906523267254
 30
0.0
 11
21.84508681208164
 21
5.153806458631966
 31
0.0
  0
LINE
  5
103B0
330
1037A
100
AcDbEntity
  8
0
  6
CONTINUOUS
100
AcDbLine
 10
27.63931247980256
 20
0.0330999999912356
 30
0.0
 11
24.0014124797975
 21
3.670999999996297
 31
0.0
  0
LINE
  5
103B1
330
1037A
100
AcDbEntity
  8
0
  6
CONTINUOUS
100
AcDbLine
 10
23.129125600968
 20
4.5432868788258
 30
0.0
 11
22.05328991755227
 21
5.619122562241522
 31
0.0
  0
LINE
  5
103B2
330
1037A
100
AcDbEntity
  8
0
  6
CONTINUOUS
100
AcDbLine
 10
28.31283168888275
 20
0.0330999999912356
 30
0.0
 11
24.16488385994816
 21
4.181047828925828
 31
0.0
  0
LINE
  5
103B3
330
1037A
100
AcDbEntity
  8
0
  6
CONTINUOUS
100
AcDbLine
 10
23.33726445448964
 20
5.008667234384345
 30
0.0
 11
22.2614930230229
 21
6.084438665851079
 31
0.0
  0
LINE
  5
103B4
330
1037A
100
AcDbEntity
  8
0
  6
CONTINUOUS
100
AcDbLine
 10
28.92085740005492
 20
0.0985934978992438
 30
0.0
 11
27.63635089796295
 21
1.383099999991217
 31
0.0
  0
LINE
  5
103B5
330
1037A
100
AcDbEntity
  8
0
  6
CONTINUOUS
100
AcDbLine
 10
26.43704649509776
 20
2.582404402856405
 30
0.0
 11
23.61992702019732
 21
5.399523877756844
 31
0.0
  0
LINE
  5
103B6
330
1037A
100
AcDbEntity
  8
0
  6
CONTINUOUS
100
AcDbLine
 10
23.54540330801128
 20
5.47404758994289
 30
0.0
 11
22.46969612849353
 21
6.549754769460635
 31
0.0
  0
LINE
  5
103B7
330
1037A
100
AcDbEntity
  8
0
  6
CONTINUOUS
100
AcDbLine
 10
29.42225615078443
 20
0.2707139562499279
 30
0.0
 11
28.30987010704312
 21
1.383099999991234
 31
0.0
  0
LINE
  5
103B8
330
1037A
100
AcDbEntity
  8
0
  6
CONTINUOUS
100
AcDbLine
 10
25.89179548232307
 20
3.801174624711282
 30
0.0
 11
22.67789923396416
 21
7.015070873070191
 31
0.0
  0
LINE
  5
103B9
330
1037A
100
AcDbEntity
  8
0
  6
CONTINUOUS
100
AcDbLine
 10
29.83624534690007
 20
0.5302439692144705
 30
0.0
 11
28.85811781497101
 21
1.508371501143527
 31
0.0
  0
LINE
  5
103BA
330
1037A
100
AcDbEntity
  8
0
  6
CONTINUOUS
100
AcDbLine
 10
25.34654446954838
 20
5.01994484656616
 30
0.0
 11
22.88610233943479
 21
7.480386976679748
 31
0.0
  0
LINE
  5
103BB
330
1037A
100
AcDbEntity
  8
0
  6
CONTINUOUS
100
AcDbLine
 10
30.17865975401872
 20
0.8613487711760022
 30
0.0
 11
29.18888744090175
 21
1.851121084292977
 31
0.0
  0
LINE
  5
103BC
330
1037A
100
AcDbEntity
  8
0
  6
CONTINUOUS
100
AcDbLine
 10
24.80129345677369
 20
6.238715068421037
 30
0.0
 11
23.09430544490542
 21
7.945703080289305
 31
0.0
  0
LINE
  5
103BD
330
1037A
100
AcDbEntity
  8
0
  6
CONTINUOUS
100
AcDbLine
 10
30.45496647202376
 20
1.258561262251155
 30
0.0
 11
29.30199999996933
 21
2.411527734305588
 31
0.0
  0
LINE
  5
103BE
330
1037A
100
AcDbEntity
  8
0
  6
CONTINUOUS
100
AcDbLine
 10
24.256042443999
 20
7.457485290275915
 30
0.0
 11
23.30250855037605
 21
8.411019183898862
 31
0.0
  0
LINE
  5
103BF
330
1037A
100
AcDbEntity
  8
0
  6
CONTINUOUS
100
AcDbLine
 10
30.64868582078271
 20
1.738361122572387
 30
0.0
 11
29.30199999996933
 21
3.085046943385775
 31
0.0
  0
LINE
  5
103C0
330
1037A
100
AcDbEntity
  8
0
  6
CONTINUOUS
100
AcDbLine
 10
23.71079143122431
 20
8.676255512130794
 30
0.0
 11
23.51071165584668
 21
8.876335287508416
 31
0.0
  0
LINE
  5
103C1
330
1037A
100
AcDbEntity
  8
0
  6
CONTINUOUS
100
AcDbLine
 10
30.73802122914428
 20
2.322544923291007
 30
0.0
 11
29.30199999996933
 21
3.758566152465961
 31
0.0
  0
LINE
  5
103C2
330
1037A
100
AcDbEntity
  8
0
  6
CONTINUOUS
100
AcDbLine
 10
30.74199999996924
 20
2.992085361546236
 30
0.0
 11
29.30199999996933
 21
4.432085361546148
 31
0.0
  0
LINE
  5
103C3
330
1037A
100
AcDbEntity
  8
0
  6
CONTINUOUS
100
AcDbLine
 10
30.74199999996924
 20
3.665604570626419
 30
0.0
 11
29.30199999996933
 21
5.105604570626333
 31
0.0
  0
LINE
  5
103C4
330
1037A
100
AcDbEntity
  8
0
  6
CONTINUOUS
100
AcDbLine
 10
30.74199999996925
 20
4.339123779706602
 30
0.0
 11
29.30199999996933
 21
5.77912377970652
 31
0.0
  0
LINE
  5
103C5
330
1037A
100
AcDbEntity
  8
0
  6
CONTINUOUS
100
AcDbLine
 10
30.74199999996925
 20
5.012642988786785
 30
0.0
 11
29.30199999996933
 21
6.452642988786707
 31
0.0
  0
LINE
  5
103C6
330
1037A
100
AcDbEntity
  8
0
  6
CONTINUOUS
100
AcDbLine
 10
30.74199999996925
 20
5.68616219786697
 30
0.0
 11
29.30199999996933
 21
7.126162197866894
 31
0.0
  0
LINE
  5
103C7
330
1037A
100
AcDbEntity
  8
0
  6
CONTINUOUS
100
AcDbLine
 10
30.74199999996925
 20
6.359681406947153
 30
0.0
 11
29.30199999996933
 21
7.799681406947081
 31
0.0
  0
LINE
  5
103C8
330
1037A
100
AcDbEntity
  8
0
  6
CONTINUOUS
100
AcDbLine
 10
30.74199999996926
 20
7.033200616027337
 30
0.0
 11
29.30199999996933
 21
8.473200616027269
 31
0.0
  0
LINE
  5
103C9
330
1037A
100
AcDbEntity
  8
0
  6
CONTINUOUS
100
AcDbLine
 10
30.74199999996926
 20
7.706719825107518
 30
0.0
 11
29.68561982508552
 21
8.763099999991255
 31
0.0
  0
LINE
  5
103CA
330
1037A
100
AcDbEntity
  8
0
  6
CONTINUOUS
100
AcDbLine
 10
30.74199999996926
 20
8.380239034187703
 30
0.0
 11
30.35913903416571
 21
8.763099999991255
 31
0.0
  0
ENDBLK
  5
1046D
330
1037A
100
AcDbEntity
  8
0
100
AcDbBlockEnd
  0
BLOCK
  5
1046E
330
103CB
100
AcDbEntity
  8
0
100
AcDbBlockBegin
  2
*X127
 70
     1
 10
0.0
 20
0.0
 30
0.0
  3
*X127
  1

  0
LINE
  5
103CC
330
103CB
100
AcDbEntity
  8
0
  6
CONTINUOUS
100
AcDbLine
 10
31.64199999996833
 20
8.535058289913598
 30
0.0
 11
31.87004171004599
 21
8.763099999991255
 31
0.0
  0
LINE
  5
103CD
330
103CB
100
AcDbEntity
  8
0
  6
CONTINUOUS
100
AcDbLine
 10
31.64199999996833
 20
7.861539080833412
 30
0.0
 11
32.54356091912618
 21
8.763099999991255
 31
0.0
  0
LINE
  5
103CE
330
103CB
100
AcDbEntity
  8
0
  6
CONTINUOUS
100
AcDbLine
 10
31.64199999996833
 20
7.188019871753226
 30
0.0
 11
33.08199999996839
 21
8.628019871753281
 31
0.0
  0
LINE
  5
103CF
330
103CB
100
AcDbEntity
  8
0
  6
CONTINUOUS
100
AcDbLine
 10
31.64199999996833
 20
6.51450066267304
 30
0.0
 11
33.08199999996839
 21
7.954500662673095
 31
0.0
  0
LINE
  5
103D0
330
103CB
100
AcDbEntity
  8
0
  6
CONTINUOUS
100
AcDbLine
 10
31.64199999996833
 20
5.840981453592853
 30
0.0
 11
33.08199999996839
 21
7.280981453592908
 31
0.0
  0
LINE
  5
103D1
330
103CB
100
AcDbEntity
  8
0
  6
CONTINUOUS
100
AcDbLine
 10
31.64199999996833
 20
5.167462244512667
 30
0.0
 11
33.08199999996839
 21
6.607462244512721
 31
0.0
  0
LINE
  5
103D2
330
103CB
100
AcDbEntity
  8
0
  6
CONTINUOUS
100
AcDbLine
 10
31.64199999996833
 20
4.493943035432481
 30
0.0
 11
33.08199999996839
 21
5.933943035432535
 31
0.0
  0
LINE
  5
103D3
330
103CB
100
AcDbEntity
  8
0
  6
CONTINUOUS
100
AcDbLine
 10
31.64199999996833
 20
3.820423826352293
 30
0.0
 11
33.08199999996839
 21
5.260423826352348
 31
0.0
  0
LINE
  5
103D4
330
103CB
100
AcDbEntity
  8
0
  6
CONTINUOUS
100
AcDbLine
 10
31.64199999996833
 20
3.146904617272106
 30
0.0
 11
33.08199999996839
 21
4.586904617272161
 31
0.0
  0
LINE
  5
103D5
330
103CB
100
AcDbEntity
  8
0
  6
CONTINUOUS
100
AcDbLine
 10
36.23199999996837
 20
8.410423826352325
 30
0.0
 11
36.5846761736073
 21
8.763099999991255
 31
0.0
  0
LINE
  5
103D6
330
103CB
100
AcDbEntity
  8
0
  6
CONTINUOUS
100
AcDbLine
 10
36.23199999996837
 20
7.73690461727214
 30
0.0
 11
37.25819538268748
 21
8.763099999991255
 31
0.0
  0
LINE
  5
103D7
330
103CB
100
AcDbEntity
  8
0
  6
CONTINUOUS
100
AcDbLine
 10
31.64257403601376
 20
2.473959444237348
 30
0.0
 11
33.08199999996839
 21
3.913385408191974
 31
0.0
  0
LINE
  5
103D8
330
103CB
100
AcDbEntity
  8
0
  6
CONTINUOUS
100
AcDbLine
 10
36.23199999996837
 20
7.063385408191953
 30
0.0
 11
37.67199999996831
 21
8.503385408191894
 31
0.0
  0
LINE
  5
103D9
330
103CB
100
AcDbEntity
  8
0
  6
CONTINUOUS
100
AcDbLine
 10
31.72013636841932
 20
1.87800256756272
 30
0.0
 11
33.08199999996839
 21
3.239866199111788
 31
0.0
  0
LINE
  5
103DA
330
103CB
100
AcDbEntity
  8
0
  6
CONTINUOUS
100
AcDbLine
 10
36.23199999996837
 20
6.389866199111767
 30
0.0
 11
37.67199999996831
 21
7.829866199111708
 31
0.0
  0
LINE
  5
103DB
330
103CB
100
AcDbEntity
  8
0
  6
CONTINUOUS
100
AcDbLine
 10
31.89042734314753
 20
1.374774333210744
 30
0.0
 11
33.08199999996839
 21
2.566346990031601
 31
0.0
  0
LINE
  5
103DC
330
103CB
100
AcDbEntity
  8
0
  6
CONTINUOUS
100
AcDbLine
 10
36.23199999996837
 20
5.71634699003158
 30
0.0
 11
37.67199999996831
 21
7.156346990031521
 31
0.0
  0
LINE
  5
103DD
330
103CB
100
AcDbEntity
  8
0
  6
CONTINUOUS
100
AcDbLine
 10
32.14210568064475
 20
0.952933461627778
 30
0.0
 11
33.18745552475986
 21
1.998283305742888
 31
0.0
  0
LINE
  5
103DE
330
103CB
100
AcDbEntity
  8
0
  6
CONTINUOUS
100
AcDbLine
 10
36.23199999996837
 20
5.042827780951393
 30
0.0
 11
37.67199999996831
 21
6.482827780951334
 31
0.0
  0
LINE
  5
103DF
330
103CB
100
AcDbEntity
  8
0
  6
CONTINUOUS
100
AcDbLine
 10
32.45820639400955
 20
0.5955149659123915
 30
0.0
 11
33.47242681921943
 21
1.60973539112227
 31
0.0
  0
LINE
  5
103E0
330
103CB
100
AcDbEntity
  8
0
  6
CONTINUOUS
100
AcDbLine
 10
36.23199999996837
 20
4.369308571871207
 30
0.0
 11
37.67199999996831
 21
5.809308571871147
 31
0.0
  0
LINE
  5
103E1
330
103CB
100
AcDbEntity
  8
0
  6
CONTINUOUS
100
AcDbLine
 10
32.83432456621412
 20
0.2981139290367771
 30
0.0
 11
33.89722476612215
 21
1.361014128944803
 31
0.0
  0
LINE
  5
103E2
330
103CB
100
AcDbEntity
  8
0
  6
CONTINUOUS
100
AcDbLine
 10
36.23199999996837
 20
3.69578936279102
 30
0.0
 11
37.67199999996831
 21
5.135789362790962
 31
0.0
  0
LINE
  5
103E3
330
103CB
100
AcDbEntity
  8
0
  6
CONTINUOUS
100
AcDbLine
 10
33.2711633111245
 20
0.0614334648669672
 30
0.0
 11
34.43247338014423
 21
1.222743533886696
 31
0.0
  0
LINE
  5
103E4
330
103CB
100
AcDbEntity
  8
0
  6
CONTINUOUS
100
AcDbLine
 10
36.23199999996837
 20
3.022270153710834
 30
0.0
 11
37.67199999996831
 21
4.462270153710775
 31
0.0
  0
LINE
  5
103E5
330
103CB
100
AcDbEntity
  8
0
  6
CONTINUOUS
100
AcDbLine
 10
33.76515245874577
 20
-0.1180965965919523
 30
0.0
 11
35.1587445516215
 21
1.27549549628378
 31
0.0
  0
LINE
  5
103E6
330
103CB
100
AcDbEntity
  8
0
  6
CONTINUOUS
100
AcDbLine
 10
36.21639478609585
 20
2.333145730758136
 30
0.0
 11
37.67199999996831
 21
3.788750944630588
 31
0.0
  0
LINE
  5
103E7
330
103CB
100
AcDbEntity
  8
0
  6
CONTINUOUS
100
AcDbLine
 10
34.34060583368432
 20
-0.2161624307335863
 30
0.0
 11
37.67199999996831
 21
3.115231735550401
 31
0.0
  0
LINE
  5
103E8
330
103CB
100
AcDbEntity
  8
0
  6
CONTINUOUS
100
AcDbLine
 10
35.01698193613905
 20
-0.2133055373590427
 30
0.0
 11
37.66876712070525
 21
2.438479647207154
 31
0.0
  0
LINE
  5
103E9
330
103CB
100
AcDbEntity
  8
0
  6
CONTINUOUS
100
AcDbLine
 10
35.90743367693304
 20
0.0036269943547609
 30
0.0
 11
37.51723902192366
 21
1.613432339345381
 31
0.0
  0
LINE
  5
103EA
330
103CB
100
AcDbEntity
  8
0
  6
CONTINUOUS
100
AcDbLine
 10
32.55309425579761
 20
0.5074718966376706
 30
0.0
 11
32.27784730925847
 21
0.7827188431768102
 31
0.0
  0
LINE
  5
103EB
330
103CB
100
AcDbEntity
  8
0
  6
CONTINUOUS
100
AcDbLine
 10
33.87496468909684
 20
-0.1408793275813673
 30
0.0
 11
31.67993083278052
 21
2.054154528734943
 31
0.0
  0
LINE
  5
103EC
330
103CB
100
AcDbEntity
  8
0
  6
CONTINUOUS
100
AcDbLine
 10
34.64362813207632
 20
-0.2360235614806649
 30
0.0
 11
31.64199999996833
 21
2.765604570627322
 31
0.0
  0
LINE
  5
103ED
330
103CB
100
AcDbEntity
  8
0
  6
CONTINUOUS
100
AcDbLine
 10
35.25801106796118
 20
-0.1768872882853429
 30
0.0
 11
31.64199999996833
 21
3.439123779707508
 31
0.0
  0
LINE
  5
103EE
330
103CB
100
AcDbEntity
  8
0
  6
CONTINUOUS
100
AcDbLine
 10
35.79065650332146
 20
-0.0360135145654361
 30
0.0
 11
34.54143210838231
 21
1.213210880373721
 31
0.0
  0
LINE
  5
103EF
330
103CB
100
AcDbEntity
  8
0
  6
CONTINUOUS
100
AcDbLine
 10
33.08199999996839
 20
2.67264298878764
 30
0.0
 11
31.64199999996833
 21
4.112642988787695
 31
0.0
  0
LINE
  5
103F0
330
103CB
100
AcDbEntity
  8
0
  6
CONTINUOUS
100
AcDbLine
 10
36.25975597779143
 20
0.1684062200447833
 30
0.0
 11
35.15395110240023
 21
1.274211095435983
 31
0.0
  0
LINE
  5
103F1
330
103CB
100
AcDbEntity
  8
0
  6
CONTINUOUS
100
AcDbLine
 10
33.08199999996839
 20
3.346162197867826
 30
0.0
 11
31.64199999996833
 21
4.786162197867881
 31
0.0
  0
LINE
  5
103F2
330
103CB
100
AcDbEntity
  8
0
  6
CONTINUOUS
100
AcDbLine
 10
36.67226329638774
 20
0.4294181105286579
 30
0.0
 11
35.63766478748767
 21
1.464016619428737
 31
0.0
  0
LINE
  5
103F3
330
103CB
100
AcDbEntity
  8
0
  6
CONTINUOUS
100
AcDbLine
 10
33.08199999996839
 20
4.019681406948012
 30
0.0
 11
31.64199999996833
 21
5.459681406948068
 31
0.0
  0
LINE
  5
103F4
330
103CB
100
AcDbEntity
  8
0
  6
CONTINUOUS
100
AcDbLine
 10
37.01677749710036
 20
0.7584231188962329
 30
0.0
 11
35.99563422741351
 21
1.779566388583076
 31
0.0
  0
LINE
  5
103F5
330
103CB
100
AcDbEntity
  8
0
  6
CONTINUOUS
100
AcDbLine
 10
33.08199999996839
 20
4.693200616028199
 30
0.0
 11
31.64199999996833
 21
6.133200616028255
 31
0.0
  0
LINE
  5
103F6
330
103CB
100
AcDbEntity
  8
0
  6
CONTINUOUS
100
AcDbLine
 10
37.29859977568887
 20
1.1501200493879
 30
0.0
 11
36.20680593341555
 21
2.241913891661226
 31
0.0
  0
LINE
  5
103F7
330
103CB
100
AcDbEntity
  8
0
  6
CONTINUOUS
100
AcDbLine
 10
33.08199999996839
 20
5.366719825108386
 30
0.0
 11
31.64199999996833
 21
6.80671982510844
 31
0.0
  0
LINE
  5
103F8
330
103CB
100
AcDbEntity
  8
0
  6
CONTINUOUS
100
AcDbLine
 10
37.5148623517228
 20
1.607376682434161
 30
0.0
 11
36.23199999996837
 21
2.890239034188594
 31
0.0
  0
LINE
  5
103F9
330
103CB
100
AcDbEntity
  8
0
  6
CONTINUOUS
100
AcDbLine
 10
33.08199999996839
 20
6.040239034188573
 30
0.0
 11
31.64199999996833
 21
7.480239034188627
 31
0.0
  0
LINE
  5
103FA
330
103CB
100
AcDbEntity
  8
0
  6
CONTINUOUS
100
AcDbLine
 10
37.64705163358367
 20
2.148706609653477
 30
0.0
 11
36.23199999996837
 21
3.56375824326878
 31
0.0
  0
LINE
  5
103FB
330
103CB
100
AcDbEntity
  8
0
  6
CONTINUOUS
100
AcDbLine
 10
33.08199999996839
 20
6.713758243268758
 30
0.0
 11
31.64199999996833
 21
8.153758243268815
 31
0.0
  0
LINE
  5
103FC
330
103CB
100
AcDbEntity
  8
0
  6
CONTINUOUS
100
AcDbLine
 10
37.67199999996831
 20
2.797277452349026
 30
0.0
 11
36.23199999996837
 21
4.237277452348967
 31
0.0
  0
LINE
  5
103FD
330
103CB
100
AcDbEntity
  8
0
  6
CONTINUOUS
100
AcDbLine
 10
37.67199999996831
 20
3.470796661429213
 30
0.0
 11
36.23199999996837
 21
4.910796661429154
 31
0.0
  0
LINE
  5
103FE
330
103CB
100
AcDbEntity
  8
0
  6
CONTINUOUS
100
AcDbLine
 10
37.67199999996831
 20
4.144315870509399
 30
0.0
 11
36.23199999996837
 21
5.58431587050934
 31
0.0
  0
LINE
  5
103FF
330
103CB
100
AcDbEntity
  8
0
  6
CONTINUOUS
100
AcDbLine
 10
33.08199999996839
 20
7.387277452348945
 30
0.0
 11
31.70617745232608
 21
8.763099999991255
 31
0.0
  0
LINE
  5
10400
330
103CB
100
AcDbEntity
  8
0
  6
CONTINUOUS
100
AcDbLine
 10
33.08199999996839
 20
8.060796661429132
 30
0.0
 11
32.37969666140626
 21
8.763099999991255
 31
0.0
  0
LINE
  5
10401
330
103CB
100
AcDbEntity
  8
0
  6
CONTINUOUS
100
AcDbLine
 10
33.08199999996839
 20
8.734315870509318
 30
0.0
 11
33.05321587048645
 21
8.763099999991255
 31
0.0
  0
LINE
  5
10402
330
103CB
100
AcDbEntity
  8
0
  6
CONTINUOUS
100
AcDbLine
 10
37.67199999996831
 20
4.817835079589585
 30
0.0
 11
36.23199999996837
 21
6.257835079589526
 31
0.0
  0
LINE
  5
10403
330
103CB
100
AcDbEntity
  8
0
  6
CONTINUOUS
100
AcDbLine
 10
37.67199999996831
 20
5.491354288669771
 30
0.0
 11
36.23199999996837
 21
6.931354288669713
 31
0.0
  0
LINE
  5
10404
330
103CB
100
AcDbEntity
  8
0
  6
CONTINUOUS
100
AcDbLine
 10
37.67199999996831
 20
6.164873497749958
 30
0.0
 11
36.23199999996837
 21
7.6048734977499
 31
0.0
  0
LINE
  5
10405
330
103CB
100
AcDbEntity
  8
0
  6
CONTINUOUS
100
AcDbLine
 10
37.67199999996831
 20
6.838392706830144
 30
0.0
 11
36.23199999996837
 21
8.278392706830086
 31
0.0
  0
LINE
  5
10406
330
103CB
100
AcDbEntity
  8
0
  6
CONTINUOUS
100
AcDbLine
 10
37.67199999996831
 20
7.511911915910332
 30
0.0
 11
36.42081191588738
 21
8.763099999991255
 31
0.0
  0
LINE
  5
10407
330
103CB
100
AcDbEntity
  8
0
  6
CONTINUOUS
100
AcDbLine
 10
37.67199999996831
 20
8.185431124990519
 30
0.0
 11
37.09433112496757
 21
8.763099999991255
 31
0.0
  0
ENDBLK
  5
1046F
330
103CB
100
AcDbEntity
  8
0
100
AcDbBlockEnd
  0
BLOCK
  5
10470
330
10408
100
AcDbEntity
  8
0
100
AcDbBlockBegin
  2
*X128
 70
     1
 10
0.0
 20
0.0
 30
0.0
  3
*X128
  1

  0
LINE
  5
10409
330
10408
100
AcDbEntity
  8
0
  6
CONTINUOUS
100
AcDbLine
 10
38.60499999996136
 20
8.762866199104765
 30
0.0
 11
38.71672554182345
 21
8.874591740966855
 31
0.0
  0
LINE
  5
1040A
330
10408
100
AcDbEntity
  8
0
  6
CONTINUOUS
100
AcDbLine
 10
38.60499999996136
 20
8.089346990024577
 30
0.0
 11
39.03418785440363
 21
8.518534844466847
 31
0.0
  0
LINE
  5
1040B
330
10408
100
AcDbEntity
  8
0
  6
CONTINUOUS
100
AcDbLine
 10
38.60499999996136
 20
7.41582778094439
 30
0.0
 11
39.35165016698382
 21
8.16247794796684
 31
0.0
  0
LINE
  5
1040C
330
10408
100
AcDbEntity
  8
0
  6
CONTINUOUS
100
AcDbLine
 10
38.60499999996136
 20
6.742308571864204
 30
0.0
 11
39.66911247956399
 21
7.806421051466834
 31
0.0
  0
LINE
  5
1040D
330
10408
100
AcDbEntity
  8
0
  6
CONTINUOUS
100
AcDbLine
 10
38.60499999996136
 20
6.068789362784018
 30
0.0
 11
39.98657479214418
 21
7.450364154966827
 31
0.0
  0
LINE
  5
1040E
330
10408
100
AcDbEntity
  8
0
  6
CONTINUOUS
100
AcDbLine
 10
38.60499999996136
 20
5.395270153703832
 30
0.0
 11
40.30403710472435
 21
7.09430725846682
 31
0.0
  0
LINE
  5
1040F
330
10408
100
AcDbEntity
  8
0
  6
CONTINUOUS
100
AcDbLine
 10
38.60499999996136
 20
4.721750944623645
 30
0.0
 11
40.62149941730453
 21
6.738250361966813
 31
0.0
  0
LINE
  5
10410
330
10408
100
AcDbEntity
  8
0
  6
CONTINUOUS
100
AcDbLine
 10
38.60499999996136
 20
4.048231735543458
 30
0.0
 11
40.93896172988471
 21
6.382193465466806
 31
0.0
  0
LINE
  5
10411
330
10408
100
AcDbEntity
  8
0
  6
CONTINUOUS
100
AcDbLine
 10
38.60499999996136
 20
3.374712526463272
 30
0.0
 11
40.02599999995994
 21
4.795712526461843
 31
0.0
  0
LINE
  5
10412
330
10408
100
AcDbEntity
  8
0
  6
CONTINUOUS
100
AcDbLine
 10
38.60499999996136
 20
2.701193317383085
 30
0.0
 11
40.02599999995994
 21
4.122193317381657
 31
0.0
  0
LINE
  5
10413
330
10408
100
AcDbEntity
  8
0
  6
CONTINUOUS
100
AcDbLine
 10
40.28339754687704
 20
5.053110073378947
 30
0.0
 11
41.25642404246489
 21
6.026136568966799
 31
0.0
  0
LINE
  5
10414
330
10408
100
AcDbEntity
  8
0
  6
CONTINUOUS
100
AcDbLine
 10
40.60085985945722
 20
4.697053176878939
 30
0.0
 11
41.57388635504507
 21
5.670079672466793
 31
0.0
  0
LINE
  5
10415
330
10408
100
AcDbEntity
  8
0
  6
CONTINUOUS
100
AcDbLine
 10
43.57899999995641
 20
8.348712526458318
 30
0.0
 11
43.99338747348935
 21
8.763099999991255
 31
0.0
  0
LINE
  5
10416
330
10408
100
AcDbEntity
  8
0
  6
CONTINUOUS
100
AcDbLine
 10
43.57899999995641
 20
7.675193317378131
 30
0.0
 11
44.66690668256953
 21
8.763099999991255
 31
0.0
  0
LINE
  5
10417
330
10408
100
AcDbEntity
  8
0
  6
CONTINUOUS
100
AcDbLine
 10
38.60499999996136
 20
2.027674108302898
 30
0.0
 11
40.02599999995994
 21
3.44867410830147
 31
0.0
  0
LINE
  5
10418
330
10408
100
AcDbEntity
  8
0
  6
CONTINUOUS
100
AcDbLine
 10
38.60499999996136
 20
1.354154899222712
 30
0.0
 11
40.02599999995994
 21
2.775154899221284
 31
0.0
  0
LINE
  5
10419
330
10408
100
AcDbEntity
  8
0
  6
CONTINUOUS
100
AcDbLine
 10
38.60499999996136
 20
0.6806356901425255
 30
0.0
 11
40.02599999995994
 21
2.101635690141098
 31
0.0
  0
LINE
  5
1041A
330
10408
100
AcDbEntity
  8
0
  6
CONTINUOUS
100
AcDbLine
 10
38.60499999996136
 20
0.0071164810623383
 30
0.0
 11
40.02599999995994
 21
1.428116481060911
 31
0.0
  0
LINE
  5
1041B
330
10408
100
AcDbEntity
  8
0
  6
CONTINUOUS
100
AcDbLine
 10
40.9183221720374
 20
4.340996280378933
 30
0.0
 11
41.89134866762525
 21
5.314022775966786
 31
0.0
  0
LINE
  5
1041C
330
10408
100
AcDbEntity
  8
0
  6
CONTINUOUS
100
AcDbLine
 10
41.23578448461758
 20
3.984939383878926
 30
0.0
 11
42.20881098020543
 21
4.957965879466778
 31
0.0
  0
LINE
  5
1041D
330
10408
100
AcDbEntity
  8
0
  6
CONTINUOUS
100
AcDbLine
 10
41.55324679719776
 20
3.628882487378919
 30
0.0
 11
42.52627329278561
 21
4.601908982966772
 31
0.0
  0
LINE
  5
1041E
330
10408
100
AcDbEntity
  8
0
  6
CONTINUOUS
100
AcDbLine
 10
41.87070910977793
 20
3.272825590878912
 30
0.0
 11
42.84373560536579
 21
4.245852086466765
 31
0.0
  0
LINE
  5
1041F
330
10408
100
AcDbEntity
  8
0
  6
CONTINUOUS
100
AcDbLine
 10
43.57899999995641
 20
7.001674108297943
 30
0.0
 11
44.99999999995498
 21
8.422674108296516
 31
0.0
  0
LINE
  5
10420
330
10408
100
AcDbEntity
  8
0
  6
CONTINUOUS
100
AcDbLine
 10
43.57899999995641
 20
6.328154899217758
 30
0.0
 11
44.99999999995498
 21
7.749154899216329
 31
0.0
  0
LINE
  5
10421
330
10408
100
AcDbEntity
  8
0
  6
CONTINUOUS
100
AcDbLine
 10
43.57899999995641
 20
5.654635690137571
 30
0.0
 11
44.99999999995498
 21
7.075635690136142
 31
0.0
  0
LINE
  5
10422
330
10408
100
AcDbEntity
  8
0
  6
CONTINUOUS
100
AcDbLine
 10
43.57899999995641
 20
4.981116481057384
 30
0.0
 11
44.99999999995498
 21
6.402116481055955
 31
0.0
  0
LINE
  5
10423
330
10408
100
AcDbEntity
  8
0
  6
CONTINUOUS
100
AcDbLine
 10
39.27140272797921
 20
-0.0000000000000009
 30
0.0
 11
40.02599999995994
 21
0.7545972719807246
 31
0.0
  0
LINE
  5
10424
330
10408
100
AcDbEntity
  8
0
  6
CONTINUOUS
100
AcDbLine
 10
39.9449219370594
 20
-0.0000000000000009
 30
0.0
 11
40.02599999995994
 21
0.0810780629005379
 31
0.0
  0
LINE
  5
10425
330
10408
100
AcDbEntity
  8
0
  6
CONTINUOUS
100
AcDbLine
 10
42.18817142235812
 20
2.916768694378905
 30
0.0
 11
43.16119791794597
 21
3.889795189966758
 31
0.0
  0
LINE
  5
10426
330
10408
100
AcDbEntity
  8
0
  6
CONTINUOUS
100
AcDbLine
 10
42.50563373493829
 20
2.560711797878898
 30
0.0
 11
43.47866023052615
 21
3.533738293466751
 31
0.0
  0
LINE
  5
10427
330
10408
100
AcDbEntity
  8
0
  6
CONTINUOUS
100
AcDbLine
 10
43.57899999995641
 20
4.307597271977198
 30
0.0
 11
44.99999999995498
 21
5.728597271975769
 31
0.0
  0
LINE
  5
10428
330
10408
100
AcDbEntity
  8
0
  6
CONTINUOUS
100
AcDbLine
 10
43.57899999995641
 20
3.634078062897011
 30
0.0
 11
44.99999999995498
 21
5.055078062895582
 31
0.0
  0
LINE
  5
10429
330
10408
100
AcDbEntity
  8
0
  6
CONTINUOUS
100
AcDbLine
 10
42.82309604751848
 20
2.204654901378891
 30
0.0
 11
44.99999999995498
 21
4.381558853815395
 31
0.0
  0
LINE
  5
1042A
330
10408
100
AcDbEntity
  8
0
  6
CONTINUOUS
100
AcDbLine
 10
43.14055836009865
 20
1.848598004878885
 30
0.0
 11
44.99999999995498
 21
3.70803964473521
 31
0.0
  0
LINE
  5
1042B
330
10408
100
AcDbEntity
  8
0
  6
CONTINUOUS
100
AcDbLine
 10
43.45802067267883
 20
1.492541108378878
 30
0.0
 11
44.99999999995498
 21
3.034520435655023
 31
0.0
  0
LINE
  5
1042C
330
10408
100
AcDbEntity
  8
0
  6
CONTINUOUS
100
AcDbLine
 10
43.77548298525902
 20
1.136484211878871
 30
0.0
 11
44.99999999995498
 21
2.361001226574837
 31
0.0
  0
LINE
  5
1042D
330
10408
100
AcDbEntity
  8
0
  6
CONTINUOUS
100
AcDbLine
 10
44.09294529783919
 20
0.7804273153788639
 30
0.0
 11
44.99999999995498
 21
1.687482017494649
 31
0.0
  0
LINE
  5
1042E
330
10408
100
AcDbEntity
  8
0
  6
CONTINUOUS
100
AcDbLine
 10
44.41040761041938
 20
0.4243704188788566
 30
0.0
 11
44.99999999995498
 21
1.013962808414463
 31
0.0
  0
LINE
  5
1042F
330
10408
100
AcDbEntity
  8
0
  6
CONTINUOUS
100
AcDbLine
 10
44.72786992299955
 20
0.0683135223788494
 30
0.0
 11
44.99999999995498
 21
0.340443599334276
 31
0.0
  0
LINE
  5
10430
330
10408
100
AcDbEntity
  8
0
  6
CONTINUOUS
100
AcDbLine
 10
39.12223903415696
 20
-0.0000000000000009
 30
0.0
 11
38.60499999996136
 21
0.5172390341955961
 31
0.0
  0
LINE
  5
10431
330
10408
100
AcDbEntity
  8
0
  6
CONTINUOUS
100
AcDbLine
 10
39.79575824323715
 20
-0.0000000000000009
 30
0.0
 11
38.60499999996136
 21
1.190758243275783
 31
0.0
  0
LINE
  5
10432
330
10408
100
AcDbEntity
  8
0
  6
CONTINUOUS
100
AcDbLine
 10
40.02599999995994
 20
0.443277452357397
 30
0.0
 11
38.60499999996136
 21
1.864277452355969
 31
0.0
  0
LINE
  5
10433
330
10408
100
AcDbEntity
  8
0
  6
CONTINUOUS
100
AcDbLine
 10
40.02599999995994
 20
1.116796661437583
 30
0.0
 11
38.60499999996136
 21
2.537796661436155
 31
0.0
  0
LINE
  5
10434
330
10408
100
AcDbEntity
  8
0
  6
CONTINUOUS
100
AcDbLine
 10
40.02599999995994
 20
1.79031587051777
 30
0.0
 11
38.60499999996136
 21
3.211315870516341
 31
0.0
  0
LINE
  5
10435
330
10408
100
AcDbEntity
  8
0
  6
CONTINUOUS
100
AcDbLine
 10
40.02599999995994
 20
2.463835079597956
 30
0.0
 11
38.60499999996136
 21
3.884835079596527
 31
0.0
  0
LINE
  5
10436
330
10408
100
AcDbEntity
  8
0
  6
CONTINUOUS
100
AcDbLine
 10
40.02599999995994
 20
3.137354288678143
 30
0.0
 11
38.60499999996136
 21
4.558354288676714
 31
0.0
  0
LINE
  5
10437
330
10408
100
AcDbEntity
  8
0
  6
CONTINUOUS
100
AcDbLine
 10
40.02599999995994
 20
3.810873497758329
 30
0.0
 11
38.60499999996136
 21
5.2318734977569
 31
0.0
  0
LINE
  5
10438
330
10408
100
AcDbEntity
  8
0
  6
CONTINUOUS
100
AcDbLine
 10
40.02599999995994
 20
4.484392706838515
 30
0.0
 11
38.60499999996136
 21
5.905392706837086
 31
0.0
  0
LINE
  5
10439
330
10408
100
AcDbEntity
  8
0
  6
CONTINUOUS
100
AcDbLine
 10
44.99999999995498
 20
0.183911915923658
 30
0.0
 11
41.53858364506288
 21
3.64532827081576
 31
0.0
  0
LINE
  5
1043A
330
10408
100
AcDbEntity
  8
0
  6
CONTINUOUS
100
AcDbLine
 10
40.02599999995994
 20
5.157911915918703
 30
0.0
 11
38.60499999996136
 21
6.578911915917274
 31
0.0
  0
LINE
  5
1043B
330
10408
100
AcDbEntity
  8
0
  6
CONTINUOUS
100
AcDbLine
 10
44.99999999995498
 20
0.8574311250038447
 30
0.0
 11
38.60499999996136
 21
7.25243112499746
 31
0.0
  0
LINE
  5
1043C
330
10408
100
AcDbEntity
  8
0
  6
CONTINUOUS
100
AcDbLine
 10
44.99999999995498
 20
1.530950334084031
 30
0.0
 11
38.60499999996136
 21
7.925950334077647
 31
0.0
  0
LINE
  5
1043D
330
10408
100
AcDbEntity
  8
0
  6
CONTINUOUS
100
AcDbLine
 10
44.99999999995498
 20
2.204469543164218
 30
0.0
 11
43.57899999995641
 21
3.625469543162789
 31
0.0
  0
LINE
  5
1043E
330
10408
100
AcDbEntity
  8
0
  6
CONTINUOUS
100
AcDbLine
 10
41.89876730984767
 20
5.305702233271528
 30
0.0
 11
38.60499999996136
 21
8.599469543157834
 31
0.0
  0
LINE
  5
1043F
330
10408
100
AcDbEntity
  8
0
  6
CONTINUOUS
100
AcDbLine
 10
44.99999999995498
 20
2.877988752244405
 30
0.0
 11
43.57899999995641
 21
4.298988752242975
 31
0.0
  0
LINE
  5
10440
330
10408
100
AcDbEntity
  8
0
  6
CONTINUOUS
100
AcDbLine
 10
44.99999999995498
 20
3.551507961324591
 30
0.0
 11
43.57899999995641
 21
4.972507961323163
 31
0.0
  0
LINE
  5
10441
330
10408
100
AcDbEntity
  8
0
  6
CONTINUOUS
100
AcDbLine
 10
44.99999999995498
 20
4.225027170404777
 30
0.0
 11
43.57899999995641
 21
5.646027170403348
 31
0.0
  0
LINE
  5
10442
330
10408
100
AcDbEntity
  8
0
  6
CONTINUOUS
100
AcDbLine
 10
44.99999999995498
 20
4.898546379484964
 30
0.0
 11
43.57899999995641
 21
6.319546379483535
 31
0.0
  0
LINE
  5
10443
330
10408
100
AcDbEntity
  8
0
  6
CONTINUOUS
100
AcDbLine
 10
44.99999999995498
 20
5.572065588565151
 30
0.0
 11
43.57899999995641
 21
6.993065588563722
 31
0.0
  0
LINE
  5
10444
330
10408
100
AcDbEntity
  8
0
  6
CONTINUOUS
100
AcDbLine
 10
44.99999999995498
 20
6.245584797645336
 30
0.0
 11
43.57899999995641
 21
7.666584797643908
 31
0.0
  0
LINE
  5
10445
330
10408
100
AcDbEntity
  8
0
  6
CONTINUOUS
100
AcDbLine
 10
44.99999999995498
 20
6.919104006725522
 30
0.0
 11
43.57899999995641
 21
8.340104006724093
 31
0.0
  0
LINE
  5
10446
330
10408
100
AcDbEntity
  8
0
  6
CONTINUOUS
100
AcDbLine
 10
44.99999999995498
 20
7.592623215805709
 30
0.0
 11
43.82952321576943
 21
8.763099999991255
 31
0.0
  0
LINE
  5
10447
330
10408
100
AcDbEntity
  8
0
  6
CONTINUOUS
100
AcDbLine
 10
44.99999999995498
 20
8.266142424885896
 30
0.0
 11
44.50304242484962
 21
8.763099999991255
 31
0.0
  0
ENDBLK
  5
10471
330
10408
100
AcDbEntity
  8
0
100
AcDbBlockEnd
  0
BLOCK
  5
10472
330
10448
100
AcDbEntity
  8
0
100
AcDbBlockBegin
  2
*X129
 70
     1
 10
0.0
 20
0.0
 30
0.0
  3
*X129
  1

  0
LINE
  5
10449
330
10448
100
AcDbEntity
  8
0
  6
CONTINUOUS
100
AcDbLine
 10
0.0
 20
8.548461116714023
 30
0.0
 11
0.2146388832772324
 21
8.763099999991255
 31
0.0
  0
LINE
  5
1044A
330
10448
100
AcDbEntity
  8
0
  6
CONTINUOUS
100
AcDbLine
 10
-0.0000000000000002
 20
7.874941907633837
 30
0.0
 11
0.8881580923574184
 21
8.763099999991255
 31
0.0
  0
LINE
  5
1044B
330
10448
100
AcDbEntity
  8
0
  6
CONTINUOUS
100
AcDbLine
 10
0.0
 20
7.20142269855365
 30
0.0
 11
1.420999999998572
 21
8.622422698552223
 31
0.0
  0
LINE
  5
1044C
330
10448
100
AcDbEntity
  8
0
  6
CONTINUOUS
100
AcDbLine
 10
-0.0000000000000001
 20
6.527903489473465
 30
0.0
 11
1.420999999998571
 21
7.948903489472036
 31
0.0
  0
LINE
  5
1044D
330
10448
100
AcDbEntity
  8
0
  6
CONTINUOUS
100
AcDbLine
 10
-0.0000000000000002
 20
5.854384280393278
 30
0.0
 11
1.420999999998571
 21
7.275384280391849
 31
0.0
  0
LINE
  5
1044E
330
10448
100
AcDbEntity
  8
0
  6
CONTINUOUS
100
AcDbLine
 10
-0.0000000000000002
 20
5.180865071313091
 30
0.0
 11
1.420999999998571
 21
6.601865071311663
 31
0.0
  0
LINE
  5
1044F
330
10448
100
AcDbEntity
  8
0
  6
CONTINUOUS
100
AcDbLine
 10
0.0
 20
4.507345862232905
 30
0.0
 11
1.420999999998571
 21
5.928345862231477
 31
0.0
  0
LINE
  5
10450
330
10448
100
AcDbEntity
  8
0
  6
CONTINUOUS
100
AcDbLine
 10
-0.0000000000000003
 20
3.833826653152718
 30
0.0
 11
1.420999999998571
 21
5.25482665315129
 31
0.0
  0
LINE
  5
10451
330
10448
100
AcDbEntity
  8
0
  6
CONTINUOUS
100
AcDbLine
 10
-0.0000000000000002
 20
3.160307444072532
 30
0.0
 11
1.420999999998571
 21
4.581307444071103
 31
0.0
  0
LINE
  5
10452
330
10448
100
AcDbEntity
  8
0
  6
CONTINUOUS
100
AcDbLine
 10
-0.0000000000000001
 20
2.486788234992345
 30
0.0
 11
1.420999999998571
 21
3.907788234990917
 31
0.0
  0
LINE
  5
10453
330
10448
100
AcDbEntity
  8
0
  6
CONTINUOUS
100
AcDbLine
 10
-0.0000000000000006
 20
1.813269025912159
 30
0.0
 11
1.420999999998571
 21
3.234269025910731
 31
0.0
  0
LINE
  5
10454
330
10448
100
AcDbEntity
  8
0
  6
CONTINUOUS
100
AcDbLine
 10
0.0
 20
1.139749816831973
 30
0.0
 11
1.420999999998571
 21
2.560749816830544
 31
0.0
  0
LINE
  5
10455
330
10448
100
AcDbEntity
  8
0
  6
CONTINUOUS
100
AcDbLine
 10
0.0000000000000002
 20
0.466230607751787
 30
0.0
 11
1.420999999998571
 21
1.887230607750358
 31
0.0
  0
LINE
  5
10456
330
10448
100
AcDbEntity
  8
0
  6
CONTINUOUS
100
AcDbLine
 10
0.2072886013284003
 20
-0.0000000000000009
 30
0.0
 11
1.420999999998571
 21
1.213711398670171
 31
0.0
  0
LINE
  5
10457
330
10448
100
AcDbEntity
  8
0
  6
CONTINUOUS
100
AcDbLine
 10
0.8808078104085864
 20
-0.0000000000000009
 30
0.0
 11
1.420999999998571
 21
0.5401921895899839
 31
0.0
  0
LINE
  5
10458
330
10448
100
AcDbEntity
  8
0
  6
CONTINUOUS
100
AcDbLine
 10
0.0581249075061505
 20
-0.0000000000000009
 30
0.0
 11
-0.0000000000000002
 21
0.0581249075061496
 31
0.0
  0
LINE
  5
10459
330
10448
100
AcDbEntity
  8
0
  6
CONTINUOUS
100
AcDbLine
 10
0.7316441165863372
 20
-0.0000000000000009
 30
0.0
 11
-0.0000000000000002
 21
0.7316441165863363
 31
0.0
  0
LINE
  5
1045A
330
10448
100
AcDbEntity
  8
0
  6
CONTINUOUS
100
AcDbLine
 10
1.405163325666523
 20
-0.0000000000000009
 30
0.0
 11
-0.0000000000000002
 21
1.405163325666523
 31
0.0
  0
LINE
  5
1045B
330
10448
100
AcDbEntity
  8
0
  6
CONTINUOUS
100
AcDbLine
 10
1.420999999998572
 20
0.6576825347481381
 30
0.0
 11
-0.0000000000000001
 21
2.07868253474671
 31
0.0
  0
LINE
  5
1045C
330
10448
100
AcDbEntity
  8
0
  6
CONTINUOUS
100
AcDbLine
 10
1.420999999998571
 20
1.331201743828324
 30
0.0
 11
-0.0000000000000001
 21
2.752201743826896
 31
0.0
  0
LINE
  5
1045D
330
10448
100
AcDbEntity
  8
0
  6
CONTINUOUS
100
AcDbLine
 10
1.420999999998571
 20
2.004720952908511
 30
0.0
 11
-0.0000000000000002
 21
3.425720952907082
 31
0.0
  0
LINE
  5
1045E
330
10448
100
AcDbEntity
  8
0
  6
CONTINUOUS
100
AcDbLine
 10
1.420999999998571
 20
2.678240161988697
 30
0.0
 11
-0.0000000000000001
 21
4.099240161987269
 31
0.0
  0
LINE
  5
1045F
330
10448
100
AcDbEntity
  8
0
  6
CONTINUOUS
100
AcDbLine
 10
1.420999999998572
 20
3.351759371068884
 30
0.0
 11
0.0
 21
4.772759371067455
 31
0.0
  0
LINE
  5
10460
330
10448
100
AcDbEntity
  8
0
  6
CONTINUOUS
100
AcDbLine
 10
1.420999999998571
 20
4.02527858014907
 30
0.0
 11
-0.0000000000000003
 21
5.446278580147642
 31
0.0
  0
LINE
  5
10461
330
10448
100
AcDbEntity
  8
0
  6
CONTINUOUS
100
AcDbLine
 10
1.420999999998571
 20
4.698797789229257
 30
0.0
 11
0.0
 21
6.119797789227828
 31
0.0
  0
LINE
  5
10462
330
10448
100
AcDbEntity
  8
0
  6
CONTINUOUS
100
AcDbLine
 10
1.420999999998571
 20
5.372316998309444
 30
0.0
 11
-0.0000000000000001
 21
6.793316998308015
 31
0.0
  0
LINE
  5
10463
330
10448
100
AcDbEntity
  8
0
  6
CONTINUOUS
100
AcDbLine
 10
1.420999999998572
 20
6.045836207389629
 30
0.0
 11
-0.0000000000000004
 21
7.466836207388202
 31
0.0
  0
LINE
  5
10464
330
10448
100
AcDbEntity
  8
0
  6
CONTINUOUS
100
AcDbLine
 10
1.420999999998571
 20
6.719355416469816
 30
0.0
 11
0.0
 21
8.140355416468388
 31
0.0
  0
LINE
  5
10465
330
10448
100
AcDbEntity
  8
0
  6
CONTINUOUS
100
AcDbLine
 10
1.420999999998571
 20
7.392874625550003
 30
0.0
 11
0.0507746255573185
 21
8.763099999991255
 31
0.0
  0
LINE
  5
10466
330
10448
100
AcDbEntity
  8
0
  6
CONTINUOUS
100
AcDbLine
 10
1.420999999998571
 20
8.06639383463019
 30
0.0
 11
0.7242938346375052
 21
8.763099999991255
 31
0.0
  0
LINE
  5
10467
330
10448
100
AcDbEntity
  8
0
  6
CONTINUOUS
100
AcDbLine
 10
1.420999999998571
 20
8.739913043710375
 30
0.0
 11
1.397813043717691
 21
8.763099999991255
 31
0.0
  0
ENDBLK
  5
10473
330
10448
100
AcDbEntity
  8
0
100
AcDbBlockEnd
  0
ENDSEC
  0
SECTION
  2
ENTITIES
  0
LINE
  5
F02F
330
18
100
AcDbEntity
  8
01
100
AcDbLine
 10
5004.501985989698
 20
1158.436497043247
 30
0.0000000000563712
 11
5018.501985989698
 21
1158.436497043247
 31
0.0000000000563712
  0
LINE
  5
F030
330
18
100
AcDbEntity
  8
01
100
AcDbLine
 10
5009.502870171758
 20
1370.436497042218
 30
0.0000000000563712
 11
5163.257250326791
 21
1370.436497042218
 31
0.0000000000563712
  0
LINE
  5
F031
330
18
100
AcDbEntity
  8
01
  6
BYBLOCK
100
AcDbLine
 10
5009.502870171758
 20
1370.436497042218
 30
0.0000000000563712
 11
5009.502870171758
 21
1330.436497042218
 31
0.0000000000563712
  0
LINE
  5
F035
330
18
100
AcDbEntity
  8
01
100
AcDbLine
 10
5060.502102329443
 20
1365.43649704119
 30
0.0000000000563712
 11
5060.502102329443
 21
1396.354577230439
 31
0.0000000000563712
  0
LINE
  5
F036
330
18
100
AcDbEntity
  8
01
  6
BYBLOCK
100
AcDbLine
 10
5011.001985989698
 20
1166.336497043247
 30
0.0000000000563712
 11
5011.001985989698
 21
1036.536497043247
 31
0.0000000000563712
  0
LINE
  5
F037
330
18
100
AcDbEntity
  8
01
  6
BYBLOCK
100
AcDbLine
 10
5011.001985989698
 20
1037.436497043247
 30
0.0000000000563712
 11
5013.501985989698
 21
1037.436497043247
 31
0.0000000000563712
  0
LINE
  5
F038
330
18
100
AcDbEntity
  8
01
  6
BYBLOCK
100
AcDbLine
 10
5013.501985989698
 20
1037.436497043247
 30
0.0000000000563712
 11
5013.501985989698
 21
1053.939440768399
 31
0.0000000000563712
  0
LINE
  5
F039
330
18
100
AcDbEntity
  8
01
  6
BYBLOCK
100
AcDbLine
 10
5009.501985989698
 20
1166.336497043247
 30
0.0000000000563712
 11
5009.501985989698
 21
1036.536497043247
 31
0.0000000000563712
  0
LINE
  5
F03A
330
18
100
AcDbEntity
  8
01
  6
BYBLOCK
100
AcDbLine
 10
5009.501985989698
 20
1036.536497043247
 30
0.0000000000563712
 11
5011.001985989698
 21
1036.536497043247
 31
0.0000000000563712
  0
LINE
  5
F03B
330
18
100
AcDbEntity
  8
01
  6
BYBLOCK
100
AcDbLine
 10
5011.001985989698
 20
1165.436497043247
 30
0.0000000000563712
 11
5013.501985989698
 21
1165.436497043247
 31
0.0000000000563712
  0
LINE
  5
F03C
330
18
100
AcDbEntity
  8
01
  6
BYBLOCK
100
AcDbLine
 10
5009.501985989698
 20
1166.336497043247
 30
0.0000000000563712
 11
5011.001985989698
 21
1166.336497043247
 31
0.0000000000563712
  0
LINE
  5
F03D
330
18
100
AcDbEntity
  8
01
  6
BYBLOCK
100
AcDbLine
 10
5011.001985989698
 20
1141.436497043247
 30
0.0000000000563712
 11
5012.201985989697
 21
1141.436497043247
 31
0.0000000000563712
  0
ARC
  5
F03E
330
18
100
AcDbEntity
  8
01
  6
BYBLOCK
100
AcDbCircle
 10
5077.501985989698
 20
1137.436497043247
 30
0.0000000000563712
 40
1.0
100
AcDbArc
 50
0.0
 51
90.0
  0
LINE
  5
F03F
330
18
100
AcDbEntity
  8
01
  6
BYBLOCK
100
AcDbLine
 10
5012.201985989697
 20
1147.136497043247
 30
0.0000000000563712
 11
5012.201985989697
 21
1055.736497043247
 31
0.0000000000563712
  0
LINE
  5
F040
330
18
100
AcDbEntity
  8
01
  6
BYBLOCK
100
AcDbLine
 10
5012.301985989698
 20
1037.436497043247
 30
0.0000000000563712
 11
5012.301985989698
 21
1054.036497043247
 31
0.0000000000563712
  0
LINE
  5
F041
330
18
100
AcDbEntity
  8
01
  6
BYBLOCK
100
AcDbLine
 10
5012.301985989698
 20
1054.036497043247
 30
0.0000000000563712
 11
5011.353457852274
 21
1054.985025180671
 31
0.0000000000563712
  0
LINE
  5
F042
330
18
100
AcDbEntity
  8
01
  6
BYBLOCK
100
AcDbLine
 10
5013.150514127121
 20
1054.787968905823
 30
0.0000000000563712
 11
5012.201985989697
 21
1055.736497043247
 31
0.0000000000563712
  0
ARC
  5
F043
330
18
100
AcDbEntity
  8
01
  6
BYBLOCK
100
AcDbCircle
 10
5012.301985989698
 20
1053.939440768399
 30
0.0000000000563712
 40
1.2
100
AcDbArc
 50
0.0
 51
45.00000000004606
  0
ARC
  5
F044
330
18
100
AcDbEntity
  8
01
  6
BYBLOCK
100
AcDbCircle
 10
5012.201985989697
 20
1055.833553318095
 30
0.0000000000563712
 40
1.2
100
AcDbArc
 50
180.0
 51
225.000000000046
  0
LINE
  5
F045
330
18
100
AcDbEntity
  8
01
  6
BYBLOCK
100
AcDbLine
 10
5013.501985989698
 20
1165.436497043247
 30
0.0000000000563712
 11
5013.501985989698
 21
1148.933553318095
 31
0.0000000000563712
  0
LINE
  5
F046
330
18
100
AcDbEntity
  8
01
  6
BYBLOCK
100
AcDbLine
 10
5012.301985989698
 20
1165.436497043247
 30
0.0000000000563712
 11
5012.301985989698
 21
1148.836497043247
 31
0.0000000000563712
  0
LINE
  5
F047
330
18
100
AcDbEntity
  8
01
  6
BYBLOCK
100
AcDbLine
 10
5012.301985989698
 20
1148.836497043247
 30
0.0000000000563712
 11
5011.353457852274
 21
1147.887968905823
 31
0.0000000000563712
  0
LINE
  5
F048
330
18
100
AcDbEntity
  8
01
  6
BYBLOCK
100
AcDbLine
 10
5013.150514127121
 20
1148.085025180671
 30
0.0000000000563712
 11
5012.201985989697
 21
1147.136497043247
 31
0.0000000000563712
  0
ARC
  5
F049
330
18
100
AcDbEntity
  8
01
  6
BYBLOCK
100
AcDbCircle
 10
5012.301985989698
 20
1148.933553318095
 30
0.0000000000563712
 40
1.2
100
AcDbArc
 50
314.999999999954
 51
0.0
  0
ARC
  5
F04A
330
18
100
AcDbEntity
  8
01
  6
BYBLOCK
100
AcDbCircle
 10
5012.201985989697
 20
1147.039440768399
 30
0.0000000000563712
 40
1.2
100
AcDbArc
 50
134.9999999999539
 51
180.0
  0
CIRCLE
  5
F04B
330
18
100
AcDbEntity
  8
01
  6
BYBLOCK
100
AcDbCircle
 10
5060.501985989698
 20
1130.436497043247
 30
0.0000000000563712
 40
4.75
  0
LINE
  5
F04C
330
18
100
AcDbEntity
  8
01
  6
BYBLOCK
100
AcDbLine
 10
5012.201985989697
 20
1064.436497043247
 30
0.0000000000563712
 11
5034.001985989702
 21
1064.436497043247
 31
0.0000000000563712
  0
ARC
  5
F04D
330
18
100
AcDbEntity
  8
01
  6
BYBLOCK
100
AcDbCircle
 10
5012.602870171759
 20
1353.997747585218
 30
0.0000000000563712
 40
1.6
100
AcDbArc
 50
115.9444797720163
 51
180.0
  0
ARC
  5
F04E
330
18
100
AcDbEntity
  8
01
  6
BYBLOCK
100
AcDbCircle
 10
5012.602870171759
 20
1346.875246499219
 30
0.0000000000563712
 40
1.6
100
AcDbArc
 50
180.0
 51
244.0555202279837
  0
ARC
  5
F04F
330
18
100
AcDbEntity
  8
01
  6
BYBLOCK
100
AcDbCircle
 10
5011.902870171758
 20
1345.597747585218
 30
0.0000000000563712
 40
1.6
100
AcDbArc
 50
0.0
 51
64.05552022798372
  0
ARC
  5
F050
330
18
100
AcDbEntity
  8
01
  6
BYBLOCK
100
AcDbCircle
 10
5011.902870171758
 20
1355.275246499218
 30
0.0000000000563712
 40
1.6
100
AcDbArc
 50
295.9444797720163
 51
0.0
  0
LINE
  5
F051
330
18
100
AcDbEntity
  8
01
  6
BYBLOCK
100
AcDbLine
 10
5013.502870171758
 20
1355.275246499218
 30
0.0000000000563712
 11
5013.502870171758
 21
1362.636497042218
 31
0.0000000000563712
  0
LINE
  5
F052
330
18
100
AcDbEntity
  8
01
  6
BYBLOCK
100
AcDbLine
 10
5012.602870171759
 20
1347.036497042218
 30
0.0000000000563712
 11
5012.602870171759
 21
1353.836497042219
 31
0.0000000000563712
  0
LINE
  5
F053
330
18
100
AcDbEntity
  8
01
  6
BYBLOCK
100
AcDbLine
 10
5013.502870171758
 20
1338.436497042218
 30
0.0000000000563712
 11
5013.502870171758
 21
1345.597747585218
 31
0.0000000000563712
  0
LINE
  5
F054
330
18
100
AcDbEntity
  8
01
  6
BYBLOCK
100
AcDbLine
 10
5011.902870171758
 20
1355.436497042218
 30
0.0000000000563712
 11
5011.902870171758
 21
1362.636497042218
 31
0.0000000000563712
  0
LINE
  5
F055
330
18
100
AcDbEntity
  8
01
  6
BYBLOCK
100
AcDbLine
 10
5011.902870171758
 20
1345.436497042218
 30
0.0000000000563712
 11
5011.902870171758
 21
1338.336497042219
 31
0.0000000000563712
  0
ARC
  5
F056
330
18
100
AcDbEntity
  8
01
  6
BYBLOCK
100
AcDbCircle
 10
5076.902870171758
 20
1358.336497042219
 30
0.0000000000563712
 40
1.6
100
AcDbArc
 50
0.0
 51
90.0
  0
LINE
  5
F057
330
18
100
AcDbEntity
  8
01
  6
BYBLOCK
100
AcDbLine
 10
5011.002870171758
 20
1362.836497042219
 30
0.0000000000563712
 11
5011.002870171758
 21
1338.036497042219
 31
0.0000000000563712
  0
LINE
  5
F058
330
18
100
AcDbEntity
  8
01
  6
BYBLOCK
100
AcDbLine
 10
5076.902870171758
 20
1359.936497042218
 30
0.0000000000563712
 11
5013.502870171758
 21
1359.936497042218
 31
0.0000000000563712
  0
LINE
  5
F059
330
18
100
AcDbEntity
  8
01
  6
BYBLOCK
100
AcDbLine
 10
5076.902870171758
 20
1342.736497042218
 30
0.0000000000563712
 11
5076.902870171758
 21
1359.936497042218
 31
0.0000000000563712
  0
LINE
  5
F05A
330
18
100
AcDbEntity
  8
01
  6
BYBLOCK
100
AcDbLine
 10
5078.502870171758
 20
1341.136497042218
 30
0.0000000000563712
 11
5078.502870171758
 21
1358.336497042219
 31
0.0000000000563712
  0
LINE
  5
F05B
330
18
100
AcDbEntity
  8
01
  6
BYBLOCK
100
AcDbLine
 10
5011.002870171758
 20
1362.636497042218
 30
0.0000000000563712
 11
5013.502870171758
 21
1362.636497042218
 31
0.0000000000563712
  0
LINE
  5
F05C
330
18
100
AcDbEntity
  8
01
  6
BYBLOCK
100
AcDbLine
 10
5013.502870171758
 20
1338.436497042218
 30
0.0000000000563712
 11
5011.902870171758
 21
1338.436497042218
 31
0.0000000000563712
  0
LINE
  5
F05D
330
18
100
AcDbEntity
  8
01
  6
BYBLOCK
100
AcDbLine
 10
5011.902870171758
 20
1338.336497042219
 30
0.0000000000563712
 11
5011.002870171758
 21
1338.336497042219
 31
0.0000000000563712
  0
ARC
  5
F05E
330
18
100
AcDbEntity
  8
01
  6
BYBLOCK
100
AcDbCircle
 10
5008.203465099157
 20
1344.736497042219
 30
0.0000000000563712
 40
0.3000000000000051
100
AcDbArc
 50
232.8678058729389
 51
270.0
  0
LINE
  5
F05F
330
18
100
AcDbEntity
  8
01
  6
BYBLOCK
100
AcDbLine
 10
5009.002870171758
 20
1344.436497042219
 30
0.0000000000563712
 11
5008.203465099157
 21
1344.436497042219
 31
0.0000000000563712
  0
LINE
  5
F060
330
18
100
AcDbEntity
  8
01
  6
BYBLOCK
100
AcDbLine
 10
4998.602870171759
 20
1354.109485908423
 30
0.0000000000563712
 11
4998.602870171759
 21
1353.938863852874
 31
0.0000000000563712
  0
ARC
  5
F061
330
18
100
AcDbEntity
  8
01
  6
BYBLOCK
100
AcDbCircle
 10
4998.902870171758
 20
1353.938863852874
 30
0.0000000000563712
 40
0.3
100
AcDbArc
 50
180.0
 51
217.7405295629614
  0
ARC
  5
F062
330
18
100
AcDbEntity
  8
01
  6
BYBLOCK
100
AcDbCircle
 10
5038.205170771042
 20
1384.359566796815
 30
0.0000000000563712
 40
50.00000000000002
100
AcDbArc
 50
217.7405295629768
 51
232.8678058729922
  0
LINE
  5
F063
330
18
100
AcDbEntity
  8
01
  6
BYBLOCK
100
AcDbLine
 10
4998.402870171758
 20
1355.236497042219
 30
0.0000000000563712
 11
4998.402870171758
 21
1355.936497042218
 31
0.0000000000563712
  0
ARC
  5
F064
330
18
100
AcDbEntity
  8
01
  6
BYBLOCK
100
AcDbCircle
 10
4998.902870171758
 20
1355.936497042218
 30
0.0000000000563712
 40
0.5000000000000142
100
AcDbArc
 50
90.0
 51
180.0
  0
LINE
  5
F065
330
18
100
AcDbEntity
  8
01
  6
BYBLOCK
100
AcDbLine
 10
5009.002870171758
 20
1356.436497042218
 30
0.0000000000563712
 11
4998.902870171758
 21
1356.436497042218
 31
0.0000000000563712
  0
LINE
  5
F066
330
18
100
AcDbEntity
  8
01
  6
BYBLOCK
100
AcDbLine
 10
4998.402870171758
 20
1354.857817385778
 30
0.0000000000563712
 11
4998.402870171758
 21
1355.236497042219
 31
0.0000000000563712
  0
SPLINE
  5
F067
330
18
100
AcDbEntity
  8
01
  6
BYBLOCK
100
AcDbSpline
210
0.0
220
0.0
230
1.0
 70
     8
 71
     3
 72
     8
 73
     4
 74
     0
 42
0.0000000001
 43
0.0000000001
 40
0.0
 40
0.0
 40
0.0
 40
0.0
 40
1.0
 40
1.0
 40
1.0
 40
1.0
 10
4998.428602713022
 20
1354.581166956329
 30
0.0000000000563712
 10
4998.411134826911
 20
1354.67425315221
 30
0.0000000000563712
 10
4998.402870171758
 20
1354.767519163101
 30
0.0000000000563712
 10
4998.402870171758
 20
1354.857817385779
 30
0.0000000000563712
  0
ARC
  5
F068
330
18
100
AcDbEntity
  8
01
  6
BYBLOCK
100
AcDbCircle
 10
4999.902870171758
 20
1354.857817385778
 30
0.0000000000563712
 40
1.499999999999998
100
AcDbArc
 50
190.628112987605
 51
225.000000000046
  0
LINE
  5
F069
330
18
100
AcDbEntity
  8
01
  6
BYBLOCK
100
AcDbLine
 10
5009.502870171758
 20
1357.286497042219
 30
0.0000000000563712
 11
5009.002870171758
 21
1357.286497042219
 31
0.0000000000563712
  0
LINE
  5
F06A
330
18
100
AcDbEntity
  8
01
  6
BYBLOCK
100
AcDbLine
 10
5009.002870171758
 20
1343.586497042219
 30
0.0000000000563712
 11
5009.502870171758
 21
1343.586497042219
 31
0.0000000000563712
  0
LINE
  5
F06B
330
18
100
AcDbEntity
  8
01
  6
BYBLOCK
100
AcDbLine
 10
5009.002870171758
 20
1343.586497042219
 30
0.0000000000563712
 11
5009.002870171758
 21
1357.286497042219
 31
0.0000000000563712
  0
LINE
  5
F06C
330
18
100
AcDbEntity
  8
01
  6
BYBLOCK
100
AcDbLine
 10
5009.502870171758
 20
1362.836497042219
 30
0.0000000000563712
 11
5011.002870171758
 21
1362.836497042219
 31
0.0000000000563712
  0
LINE
  5
F06D
330
18
100
AcDbEntity
  8
01
  6
BYBLOCK
100
AcDbLine
 10
5009.502870171758
 20
1338.036497042219
 30
0.0000000000563712
 11
5011.002870171758
 21
1338.036497042219
 31
0.0000000000563712
  0
LINE
  5
F06E
330
18
100
AcDbEntity
  8
01
  6
BYBLOCK
100
AcDbLine
 10
5009.502870171758
 20
1338.036497042219
 30
0.0000000000563712
 11
5009.502870171758
 21
1362.836497042219
 31
0.0000000000563712
  0
LINE
  5
F06F
330
18
100
AcDbEntity
  8
01
  6
BYBLOCK
100
AcDbLine
 10
5078.502870171758
 20
1342.736497042218
 30
0.0000000000563712
 11
5013.502870171758
 21
1342.736497042218
 31
0.0000000000563712
  0
LINE
  5
F070
330
18
100
AcDbEntity
  8
01
  6
BYBLOCK
100
AcDbLine
 10
5078.502870171758
 20
1341.136497042218
 30
0.0000000000563712
 11
5028.102870171759
 21
1341.136497042218
 31
0.0000000000563712
  0
LINE
  5
F071
330
18
100
AcDbEntity
  8
01
  6
BYBLOCK
100
AcDbLine
 10
5030.940128471961
 20
1341.136497042218
 30
0.0000000000563712
 11
5013.502870171758
 21
1341.136497042218
 31
0.0000000000563712
  0
LINE
  5
F072
330
18
100
AcDbEntity
  8
01
  6
BYBLOCK
100
AcDbLine
 10
5008.056423562351
 20
1344.582943651625
 30
0.0000000000563712
 11
4998.842209999977
 21
1353.797157213998
 31
0.0000000000563712
  0
ARC
  5
F073
330
18
100
AcDbEntity
  8
01
  6
BYBLOCK
100
AcDbCircle
 10
5008.409976952944
 20
1344.936497042218
 30
0.0000000000563712
 40
0.5
100
AcDbArc
 50
224.9999999999908
 51
270.0
  0
LINE
  5
F074
330
18
100
AcDbEntity
  8
01
  6
BYBLOCK
100
AcDbLine
 10
5009.002870171758
 20
1344.436497042218
 30
0.0000000000563712
 11
5008.409976952944
 21
1344.436497042218
 31
0.0000000000563712
  0
LINE
  5
F076
330
18
100
AcDbEntity
  8
01
  6
BYBLOCK
100
AcDbLine
 10
5056.895741405646
 20
1130.436497043247
 30
0.0000000000563712
 11
5060.501985989698
 21
1134.042741627298
 31
0.0000000000563712
  0
LINE
  5
F077
330
18
100
AcDbEntity
  8
01
  6
BYBLOCK
100
AcDbLine
 10
5064.108230573749
 20
1130.436497043247
 30
0.0000000000563712
 11
5060.501985989698
 21
1134.042741627298
 31
0.0000000000563712
  0
LINE
  5
F078
330
18
100
AcDbEntity
  8
01
  6
BYBLOCK
100
AcDbLine
 10
5056.895741405646
 20
1130.436497043247
 30
0.0000000000563712
 11
5060.501985989698
 21
1126.830252459196
 31
0.0000000000563712
  0
LINE
  5
F079
330
18
100
AcDbEntity
  8
01
  6
BYBLOCK
100
AcDbLine
 10
5064.108230573749
 20
1130.436497043247
 30
0.0000000000563712
 11
5060.501985989698
 21
1126.830252459196
 31
0.0000000000563712
  0
LINE
  5
F07A
330
18
100
AcDbEntity
  8
01
  6
BYBLOCK
100
AcDbLine
 10
4998.501985989698
 20
1111.468167310263
 30
0.0000000000563712
 11
4998.501985989698
 21
1093.404826776257
 31
0.0000000000563712
  0
LINE
  5
F07B
330
18
100
AcDbEntity
  8
01
  6
BYBLOCK
100
AcDbLine
 10
5002.794879208512
 20
1112.43649704326
 30
0.0000000000563712
 11
5009.501985989698
 21
1112.43649704326
 31
0.0000000000563712
  0
LINE
  5
F07C
330
18
100
AcDbEntity
  8
01
  6
BYBLOCK
100
AcDbLine
 10
5002.794879208512
 20
1092.43649704326
 30
0.0000000000563712
 11
5009.501985989698
 21
1092.43649704326
 31
0.0000000000563712
  0
LINE
  5
F07D
330
18
100
AcDbEntity
  8
01
  6
BYBLOCK
100
AcDbLine
 10
5008.294879208512
 20
1107.68649704326
 30
0.0000000000563712
 11
5008.294879208512
 21
1097.18649704326
 31
0.0000000000563712
  0
ARC
  5
F07E
330
18
100
AcDbEntity
  8
01
  6
BYBLOCK
100
AcDbCircle
 10
5002.794879208512
 20
1102.43649704326
 30
0.0000000000563712
 40
10.00000000000009
100
AcDbArc
 50
53.13010235414165
 51
115.4224671781367
  0
ARC
  5
F07F
330
18
100
AcDbEntity
  8
01
  6
BYBLOCK
100
AcDbCircle
 10
5002.794879208512
 20
1102.43649704326
 30
0.0000000000563712
 40
10.00000000000009
100
AcDbArc
 50
244.5775328218633
 51
306.8698976458584
  0
LINE
  5
F080
330
18
100
AcDbEntity
  8
01
  6
BYBLOCK
100
AcDbLine
 10
5008.794879208512
 20
1110.43649704326
 30
0.0000000000563712
 11
5008.794879208512
 21
1094.43649704326
 31
0.0000000000563712
  0
LINE
  5
F081
330
18
100
AcDbEntity
  8
01
  6
BYBLOCK
100
AcDbLine
 10
4998.501985989698
 20
1107.68649704326
 30
0.0000000000563712
 11
5008.294879208512
 21
1107.68649704326
 31
0.0000000000563712
  0
LINE
  5
F082
330
18
100
AcDbEntity
  8
01
  6
BYBLOCK
100
AcDbLine
 10
4998.501985989698
 20
1097.18649704326
 30
0.0000000000563712
 11
5008.294879208512
 21
1097.18649704326
 31
0.0000000000563712
  0
LINE
  5
F083
330
18
100
AcDbEntity
  8
01
  6
BYBLOCK
100
AcDbLine
 10
4884.102102329443
 20
1166.336497043246
 30
0.0000000000563712
 11
4896.902102329443
 21
1166.336497043246
 31
0.0000000000563712
  0
LINE
  5
F084
330
18
100
AcDbEntity
  8
01
  6
BYBLOCK
100
AcDbLine
 10
4884.102102329443
 20
1036.536497043247
 30
0.0000000000563712
 11
4896.902102329443
 21
1036.536497043247
 31
0.0000000000563712
  0
LINE
  5
F085
330
18
100
AcDbEntity
  8
01
  6
BYBLOCK
100
AcDbLine
 10
4878.102102329443
 20
1160.336497043246
 30
0.0000000000563712
 11
4878.102102329443
 21
1042.536497043247
 31
0.0000000000563712
  0
LINE
  5
F086
330
18
100
AcDbEntity
  8
01
  6
BYBLOCK
100
AcDbLine
 10
4902.902102329443
 20
1160.336497043246
 30
0.0000000000563712
 11
4902.902102329443
 21
1042.536497043247
 31
0.0000000000563712
  0
ARC
  5
F087
330
18
100
AcDbEntity
  8
01
  6
BYBLOCK
100
AcDbCircle
 10
4884.102102329443
 20
1042.536497043247
 30
0.0000000000563712
 40
6.0
100
AcDbArc
 50
180.0
 51
270.0
  0
ARC
  5
F088
330
18
100
AcDbEntity
  8
01
  6
BYBLOCK
100
AcDbCircle
 10
4896.902102329443
 20
1042.536497043247
 30
0.0000000000563712
 40
6.0
100
AcDbArc
 50
270.0
 51
0.0
  0
ARC
  5
F089
330
18
100
AcDbEntity
  8
01
  6
BYBLOCK
100
AcDbCircle
 10
4884.102102329443
 20
1160.336497043246
 30
0.0000000000563712
 40
6.0
100
AcDbArc
 50
90.0
 51
180.0
  0
ARC
  5
F08A
330
18
100
AcDbEntity
  8
01
  6
BYBLOCK
100
AcDbCircle
 10
4896.902102329443
 20
1160.336497043246
 30
0.0000000000563712
 40
6.0
100
AcDbArc
 50
0.0
 51
90.0
  0
CIRCLE
  5
F08B
330
18
100
AcDbEntity
  8
01
  6
BYBLOCK
100
AcDbCircle
 10
4890.502102329443
 20
1044.436497043247
 30
0.0000000000563712
 40
2.75
  0
CIRCLE
  5
F08C
330
18
100
AcDbEntity
  8
01
  6
BYBLOCK
100
AcDbCircle
 10
4890.502102329443
 20
1044.436497043247
 30
0.0000000000563712
 40
4.25
  0
CIRCLE
  5
F08D
330
18
100
AcDbEntity
  8
01
  6
BYBLOCK
100
AcDbCircle
 10
4890.502102329443
 20
1158.436497043246
 30
0.0000000000563712
 40
2.75
  0
CIRCLE
  5
F08E
330
18
100
AcDbEntity
  8
01
  6
BYBLOCK
100
AcDbCircle
 10
4890.502102329443
 20
1158.436497043246
 30
0.0000000000563712
 40
4.25
  0
LINE
  5
F08F
330
18
100
AcDbEntity
  8
1CENTER
100
AcDbLine
 10
4896.377127737349
 20
1044.436497043246
 30
0.0000000000563712
 11
4884.627076921537
 21
1044.436497043246
 31
0.0000000000563712
  0
LINE
  5
F090
330
18
100
AcDbEntity
  8
1CENTER
100
AcDbLine
 10
4890.502102329443
 20
1050.311522451153
 30
0.0000000000563712
 11
4890.502102329443
 21
1038.56147163534
 31
0.0000000000563712
  0
LINE
  5
F091
330
18
100
AcDbEntity
  8
1CENTER
100
AcDbLine
 10
4896.377127737349
 20
1158.436497043246
 30
0.0000000000563712
 11
4884.627076921537
 21
1158.436497043246
 31
0.0000000000563712
  0
LINE
  5
F092
330
18
100
AcDbEntity
  8
1CENTER
100
AcDbLine
 10
4890.502102329443
 20
1164.311522451153
 30
0.0000000000563712
 11
4890.502102329443
 21
1152.56147163534
 31
0.0000000000563712
  0
ARC
  5
F093
330
18
100
AcDbEntity
  8
01
  6
BYBLOCK
100
AcDbCircle
 10
4890.502102329443
 20
1102.436497043247
 30
0.0000000000563712
 40
10.15
100
AcDbArc
 50
231.9925780701392
 51
308.0074219298607
  0
LINE
  5
F094
330
18
100
AcDbEntity
  8
01
  6
BYBLOCK
100
AcDbLine
 10
4884.252102329443
 20
1110.433996652499
 30
0.0000000000563712
 11
4884.252102329443
 21
1094.438997433994
 31
0.0000000000563712
  0
LINE
  5
F095
330
18
100
AcDbEntity
  8
01
  6
BYBLOCK
100
AcDbLine
 10
4896.752102329443
 20
1110.433996652499
 30
0.0000000000563712
 11
4896.752102329443
 21
1094.438997433994
 31
0.0000000000563712
  0
ARC
  5
F096
330
18
100
AcDbEntity
  8
01
  6
BYBLOCK
100
AcDbCircle
 10
4890.502102329443
 20
1102.436497043247
 30
0.0000000000563712
 40
10.15
100
AcDbArc
 50
51.99257807013929
 51
128.0074219298607
  0
LINE
  5
F097
330
18
100
AcDbEntity
  8
01
  6
BYBLOCK
100
AcDbLine
 10
4886.002102329443
 20
1107.686497043247
 30
0.0000000000563712
 11
4886.002102329443
 21
1097.186497043247
 31
0.0000000000563712
  0
LINE
  5
F098
330
18
100
AcDbEntity
  8
01
  6
BYBLOCK
100
AcDbLine
 10
4896.002102329443
 20
1107.686497043247
 30
0.0000000000563712
 11
4896.002102329443
 21
1097.186497043247
 31
0.0000000000563712
  0
LINE
  5
F099
330
18
100
AcDbEntity
  8
01
  6
BYBLOCK
100
AcDbLine
 10
4886.502102329443
 20
1111.765082144965
 30
0.0000000000563712
 11
4886.502102329443
 21
1107.686497043246
 31
0.0000000000563712
  0
LINE
  5
F09A
330
18
100
AcDbEntity
  8
01
  6
BYBLOCK
100
AcDbLine
 10
4885.002102329443
 20
1107.686497043246
 30
0.0000000000563712
 11
4885.002102329443
 21
1097.186497043247
 31
0.0000000000563712
  0
LINE
  5
F09B
330
18
100
AcDbEntity
  8
01
  6
BYBLOCK
100
AcDbLine
 10
4886.502102329443
 20
1097.186497043247
 30
0.0000000000563712
 11
4886.502102329443
 21
1093.107911941528
 31
0.0000000000563712
  0
LINE
  5
F09C
330
18
100
AcDbEntity
  8
01
  6
BYBLOCK
100
AcDbLine
 10
4885.002102329443
 20
1107.686497043247
 30
0.0000000000563712
 11
4896.002102329443
 21
1107.686497043247
 31
0.0000000000563712
  0
LINE
  5
F09D
330
18
100
AcDbEntity
  8
01
  6
BYBLOCK
100
AcDbLine
 10
4885.002102329443
 20
1097.186497043247
 30
0.0000000000563712
 11
4896.002102329443
 21
1097.186497043247
 31
0.0000000000563712
  0
LINE
  5
F0A1
330
18
100
AcDbEntity
  8
01
100
AcDbLine
 10
4870.502218669186
 20
1200.436497043247
 30
0.0000000000563712
 11
4870.502218669186
 21
1010.436497043247
 31
0.0000000000563712
  0
LINE
  5
F0A2
330
18
100
AcDbEntity
  8
01
100
AcDbLine
 10
4870.502218669186
 20
1105.436497043247
 30
0.0000000000563712
 11
4870.502218669186
 21
1055.436497043247
 31
0.0000000000563712
  0
LINE
  5
F0A3
330
18
100
AcDbEntity
  8
01
100
AcDbLine
 10
4862.002218669186
 20
1056.436497043247
 30
0.0000000000563712
 11
4862.002218669186
 21
1104.436497043247
 31
0.0000000000563712
  0
LINE
  5
F0A4
330
18
100
AcDbEntity
  8
01
100
AcDbLine
 10
4870.502218669186
 20
1055.436497043247
 30
0.0000000000563712
 11
4863.002218669186
 21
1055.436497043247
 31
0.0000000000563712
  0
ARC
  5
F0A5
330
18
100
AcDbEntity
  8
01
100
AcDbCircle
 10
4863.002218669186
 20
1056.436497043247
 30
0.0000000000563712
 40
1.0
100
AcDbArc
 50
180.0
 51
270.0
  0
LINE
  5
F0A6
330
18
100
AcDbEntity
  8
01
100
AcDbLine
 10
4870.502218669186
 20
1105.436497043247
 30
0.0000000000563712
 11
4863.002218669186
 21
1105.436497043247
 31
0.0000000000563712
  0
ARC
  5
F0A7
330
18
100
AcDbEntity
  8
01
100
AcDbCircle
 10
4863.002218669186
 20
1104.436497043247
 30
0.0000000000563712
 40
1.0
100
AcDbArc
 50
90.0
 51
180.0
  0
LINE
  5
F0A8
330
18
100
AcDbEntity
  8
01
100
AcDbLine
 10
4872.630504051618
 20
1080.436497043247
 30
0.0000000000563712
 11
4850.002218669186
 21
1080.436497043247
 31
0.0000000000563712
  0
LINE
  5
F0A9
330
18
100
AcDbEntity
  8
01
100
AcDbLine
 10
5004.501985989986
 20
1044.436497043536
 30
0.0000000000563712
 11
5018.501985989986
 21
1044.436497043536
 31
0.0000000000563712
  0
LINE
  5
F0AA
330
18
100
AcDbEntity
  8
01
100
AcDbLine
 10
5071.813874257239
 20
1130.436497043247
 30
0.0000000000563712
 11
5049.190097722156
 21
1130.436497043247
 31
0.0000000000563712
  0
LINE
  5
F0AB
330
18
100
AcDbEntity
  8
01
100
AcDbLine
 10
5060.501985989698
 20
1141.748385310789
 30
0.0000000000563712
 11
5060.501985989698
 21
1119.124608775705
 31
0.0000000000563712
  0
LINE
  5
F0AC
330
18
100
AcDbEntity
  8
01
  6
BYBLOCK
100
AcDbLine
 10
4782.502218669188
 20
1111.468167310263
 30
0.0000000000563712
 11
4782.502218669188
 21
1093.404826776257
 31
0.0000000000563712
  0
LINE
  5
F0AD
330
18
100
AcDbEntity
  8
01
  6
BYBLOCK
100
AcDbLine
 10
4778.209325450374
 20
1112.43649704326
 30
0.0000000000563712
 11
4771.502218669188
 21
1112.43649704326
 31
0.0000000000563712
  0
LINE
  5
F0AE
330
18
100
AcDbEntity
  8
01
  6
BYBLOCK
100
AcDbLine
 10
4778.209325450374
 20
1092.43649704326
 30
0.0000000000563712
 11
4771.502218669188
 21
1092.43649704326
 31
0.0000000000563712
  0
ARC
  5
F0AF
330
18
100
AcDbEntity
  8
01
  6
BYBLOCK
100
AcDbCircle
 10
4778.209325450374
 20
1102.43649704326
 30
0.0000000000563712
 40
10.00000000000009
100
AcDbArc
 50
64.57753282186333
 51
90.0
  0
LINE
  5
F0B0
330
18
100
AcDbEntity
  8
01
  6
CONTINUOUS
100
AcDbLine
 10
4782.002218669188
 20
1094.12170285043
 30
0.0000000000563712
 11
4771.502218669188
 21
1094.12170285043
 31
0.0000000000563712
  0
ARC
  5
F0B1
330
18
100
AcDbEntity
  8
01
  6
CONTINUOUS
100
AcDbCircle
 10
4782.040798916101
 20
1094.583842081236
 30
0.0000000000563712
 40
0.4637468103423796
100
AcDbArc
 50
265.2279066161988
 51
354.2577450626242
  0
LINE
  5
F0B2
330
18
100
AcDbEntity
  8
01
  6
CONTINUOUS
100
AcDbLine
 10
4782.502218669188
 20
1109.919811816808
 30
0.0000000000563712
 11
4782.502218669188
 21
1094.953182269712
 31
0.0000000000563712
  0
ARC
  5
F0B3
330
18
100
AcDbEntity
  8
01
  6
CONTINUOUS
100
AcDbCircle
 10
4782.040798916101
 20
1110.289152005285
 30
0.0000000000563712
 40
0.4637468103423387
100
AcDbArc
 50
5.742254937375811
 51
94.77209338380122
  0
ARC
  5
F0B4
330
18
100
AcDbEntity
  8
01
  6
BYBLOCK
100
AcDbCircle
 10
4778.209325450374
 20
1102.43649704326
 30
0.0000000000563712
 40
10.00000000000009
100
AcDbArc
 50
270.0
 51
295.4224671781366
  0
LINE
  5
F0B5
330
18
100
AcDbEntity
  8
01
  6
CONTINUOUS
100
AcDbLine
 10
4771.502218669188
 20
1110.751291236091
 30
0.0000000000563712
 11
4782.002218669188
 21
1110.751291236091
 31
0.0000000000563712
  0
LINE
  5
F0B6
330
18
100
AcDbEntity
  8
1HIDDEN
100
AcDbLine
 10
5078.501985989698
 20
1106.936497043245
 30
0.0000000000563712
 11
5078.501985989698
 21
1065.436497043247
 31
0.0000000000563712
  0
ARC
  5
F0B7
330
18
100
AcDbEntity
  8
1HIDDEN
100
AcDbCircle
 10
5077.501985989698
 20
1065.436497043247
 30
0.0000000000563712
 40
1.0
100
AcDbArc
 50
270.0
 51
0.0
  0
LINE
  5
F0B8
330
18
100
AcDbEntity
  8
1HIDDEN
100
AcDbLine
 10
5034.001985989702
 20
1064.436497043247
 30
0.0000000000563712
 11
5077.501985989698
 21
1064.436497043247
 31
0.0000000000563712
  0
LINE
  5
F0B9
330
18
100
AcDbEntity
  8
01
100
AcDbLine
 10
4750.502218669188
 20
1080.436497043247
 30
0.0000000000563712
 11
4690.502218669188
 21
1080.436497043247
 31
0.0000000000563712
  0
LINE
  5
F0BA
330
18
100
AcDbEntity
  8
01
100
AcDbLine
 10
4720.502218669188
 20
1110.436497043247
 30
0.0000000000563712
 11
4720.502218669188
 21
1050.436497043247
 31
0.0000000000563712
  0
LINE
  5
F17B
330
18
100
AcDbEntity
  8
01
100
AcDbLine
 10
5034.002102329445
 20
1370.436497042218
 30
0.0000000000563712
 11
5087.002102329441
 21
1370.436497042218
 31
0.0000000000563712
  0
LINE
  5
F17C
330
18
100
AcDbEntity
  8
01
100
AcDbLine
 10
5034.502102329445
 20
1378.936497042218
 30
0.0000000000563712
 11
5086.502102329441
 21
1378.936497042218
 31
0.0000000000563712
  0
LINE
  5
F17D
330
18
100
AcDbEntity
  8
01
100
AcDbLine
 10
5087.002102329441
 20
1370.436497042218
 30
0.0000000000563712
 11
5087.002102329441
 21
1378.436497042218
 31
0.0000000000563712
  0
LINE
  5
F17E
330
18
100
AcDbEntity
  8
01
100
AcDbLine
 10
5034.002102329445
 20
1370.436497042218
 30
0.0000000000563712
 11
5034.002102329445
 21
1378.436497042218
 31
0.0000000000563712
  0
ARC
  5
F17F
330
18
100
AcDbEntity
  8
01
100
AcDbCircle
 10
5034.502102329445
 20
1378.436497042218
 30
0.0000000000563712
 40
0.5
100
AcDbArc
 50
90.0
 51
180.0
  0
ARC
  5
F180
330
18
100
AcDbEntity
  8
01
100
AcDbCircle
 10
5086.502102329441
 20
1378.436497042218
 30
0.0000000000563712
 40
0.5
100
AcDbArc
 50
0.0
 51
90.0
  0
LINE
  5
F182
330
18
100
AcDbEntity
  8
01
  6
BYBLOCK
100
AcDbLine
 10
5078.501985989698
 20
1137.436497043247
 30
0.0000000000563712
 11
5078.501985989698
 21
1115.936497247374
 31
0.0000000000563712
  0
LINE
  5
F183
330
18
100
AcDbEntity
  8
01
  6
BYBLOCK
100
AcDbLine
 10
5012.201985989697
 20
1138.436497043247
 30
0.0000000000563712
 11
5040.5019859897
 21
1138.436497043247
 31
0.0000000000563712
  0
LINE
  5
F184
330
18
100
AcDbEntity
  8
01
  6
BYBLOCK
100
AcDbLine
 10
5040.5019859897
 20
1138.436497043247
 30
0.0000000000563712
 11
5077.501985989698
 21
1138.436497043247
 31
0.0000000000563712
  0
LINE
  5
F185
330
18
100
AcDbEntity
  8
01
  6
BYBLOCK
100
AcDbLine
 10
5078.5019859897
 20
1115.936497247374
 30
0.0000000000563712
 11
5078.5019859897
 21
1106.936497043245
 31
0.0000000000563712
  0
LINE
  5
F186
330
18
100
AcDbEntity
  8
01
100
AcDbLine
 10
4776.502218669188
 20
1158.436497043247
 30
0.0000000000563712
 11
4762.502218669188
 21
1158.436497043247
 31
0.0000000000563712
  0
LINE
  5
F187
330
18
100
AcDbEntity
  8
01
  6
BYBLOCK
100
AcDbLine
 10
4770.002218669188
 20
1166.336497043247
 30
0.0000000000563712
 11
4770.002218669188
 21
1036.536497043247
 31
0.0000000000563712
  0
LINE
  5
F188
330
18
100
AcDbEntity
  8
01
  6
BYBLOCK
100
AcDbLine
 10
4770.002218669188
 20
1037.436497043247
 30
0.0000000000563712
 11
4767.502218669188
 21
1037.436497043247
 31
0.0000000000563712
  0
LINE
  5
F189
330
18
100
AcDbEntity
  8
01
  6
BYBLOCK
100
AcDbLine
 10
4767.502218669188
 20
1037.436497043247
 30
0.0000000000563712
 11
4767.502218669188
 21
1053.939440768399
 31
0.0000000000563712
  0
LINE
  5
F18A
330
18
100
AcDbEntity
  8
01
  6
BYBLOCK
100
AcDbLine
 10
4771.502218669188
 20
1166.336497043247
 30
0.0000000000563712
 11
4771.502218669188
 21
1036.536497043247
 31
0.0000000000563712
  0
LINE
  5
F18B
330
18
100
AcDbEntity
  8
01
  6
BYBLOCK
100
AcDbLine
 10
4771.502218669188
 20
1036.536497043247
 30
0.0000000000563712
 11
4770.002218669188
 21
1036.536497043247
 31
0.0000000000563712
  0
LINE
  5
F18C
330
18
100
AcDbEntity
  8
01
  6
BYBLOCK
100
AcDbLine
 10
4770.002218669188
 20
1165.436497043247
 30
0.0000000000563712
 11
4767.502218669188
 21
1165.436497043247
 31
0.0000000000563712
  0
LINE
  5
F18D
330
18
100
AcDbEntity
  8
01
  6
BYBLOCK
100
AcDbLine
 10
4771.502218669188
 20
1166.336497043247
 30
0.0000000000563712
 11
4770.002218669188
 21
1166.336497043247
 31
0.0000000000563712
  0
LINE
  5
F18E
330
18
100
AcDbEntity
  8
01
  6
BYBLOCK
100
AcDbLine
 10
4770.002218669188
 20
1141.436497043247
 30
0.0000000000563712
 11
4768.802218669187
 21
1141.436497043247
 31
0.0000000000563712
  0
ARC
  5
F18F
330
18
100
AcDbEntity
  8
01
  6
BYBLOCK
100
AcDbCircle
 10
4703.502218669188
 20
1137.436497043247
 30
0.0000000000563712
 40
1.0
100
AcDbArc
 50
90.0
 51
180.0
  0
LINE
  5
F190
330
18
100
AcDbEntity
  8
01
  6
BYBLOCK
100
AcDbLine
 10
4768.802218669187
 20
1147.136497043247
 30
0.0000000000563712
 11
4768.802218669187
 21
1055.736497043247
 31
0.0000000000563712
  0
LINE
  5
F191
330
18
100
AcDbEntity
  8
01
  6
BYBLOCK
100
AcDbLine
 10
4768.702218669187
 20
1037.436497043247
 30
0.0000000000563712
 11
4768.702218669187
 21
1054.036497043247
 31
0.0000000000563712
  0
LINE
  5
F192
330
18
100
AcDbEntity
  8
01
  6
BYBLOCK
100
AcDbLine
 10
4768.702218669187
 20
1054.036497043247
 30
0.0000000000563712
 11
4769.650746806612
 21
1054.985025180671
 31
0.0000000000563712
  0
LINE
  5
F193
330
18
100
AcDbEntity
  8
01
  6
BYBLOCK
100
AcDbLine
 10
4767.853690531763
 20
1054.787968905823
 30
0.0000000000563712
 11
4768.802218669187
 21
1055.736497043247
 31
0.0000000000563712
  0
ARC
  5
F194
330
18
100
AcDbEntity
  8
01
  6
BYBLOCK
100
AcDbCircle
 10
4768.702218669187
 20
1053.939440768399
 30
0.0000000000563712
 40
1.2
100
AcDbArc
 50
134.9999999999539
 51
180.0
  0
ARC
  5
F195
330
18
100
AcDbEntity
  8
01
  6
BYBLOCK
100
AcDbCircle
 10
4768.802218669187
 20
1055.833553318095
 30
0.0000000000563712
 40
1.2
100
AcDbArc
 50
314.999999999954
 51
0.0
  0
LINE
  5
F196
330
18
100
AcDbEntity
  8
01
  6
BYBLOCK
100
AcDbLine
 10
4767.502218669188
 20
1165.436497043247
 30
0.0000000000563712
 11
4767.502218669188
 21
1148.933553318095
 31
0.0000000000563712
  0
LINE
  5
F197
330
18
100
AcDbEntity
  8
01
  6
BYBLOCK
100
AcDbLine
 10
4768.702218669187
 20
1165.436497043247
 30
0.0000000000563712
 11
4768.702218669187
 21
1148.836497043247
 31
0.0000000000563712
  0
LINE
  5
F198
330
18
100
AcDbEntity
  8
01
  6
BYBLOCK
100
AcDbLine
 10
4768.702218669187
 20
1148.836497043247
 30
0.0000000000563712
 11
4769.650746806612
 21
1147.887968905823
 31
0.0000000000563712
  0
LINE
  5
F199
330
18
100
AcDbEntity
  8
01
  6
BYBLOCK
100
AcDbLine
 10
4767.853690531763
 20
1148.085025180671
 30
0.0000000000563712
 11
4768.802218669187
 21
1147.136497043247
 31
0.0000000000563712
  0
ARC
  5
F19A
330
18
100
AcDbEntity
  8
01
  6
BYBLOCK
100
AcDbCircle
 10
4768.702218669187
 20
1148.933553318095
 30
0.0000000000563712
 40
1.2
100
AcDbArc
 50
180.0
 51
225.000000000046
  0
ARC
  5
F19B
330
18
100
AcDbEntity
  8
01
  6
BYBLOCK
100
AcDbCircle
 10
4768.802218669187
 20
1147.039440768399
 30
0.0000000000563712
 40
1.2
100
AcDbArc
 50
0.0
 51
45.00000000004606
  0
CIRCLE
  5
F19C
330
18
100
AcDbEntity
  8
01
  6
BYBLOCK
100
AcDbCircle
 10
4720.502218669188
 20
1130.436497043247
 30
0.0000000000563712
 40
4.75
  0
LINE
  5
F19D
330
18
100
AcDbEntity
  8
01
  6
BYBLOCK
100
AcDbLine
 10
4768.802218669187
 20
1064.436497043247
 30
0.0000000000563712
 11
4747.002218669184
 21
1064.436497043247
 31
0.0000000000563712
  0
LINE
  5
F19E
330
18
100
AcDbEntity
  8
01
  6
BYBLOCK
100
AcDbLine
 10
4724.108463253238
 20
1130.436497043247
 30
0.0000000000563712
 11
4720.502218669188
 21
1134.042741627298
 31
0.0000000000563712
  0
LINE
  5
F19F
330
18
100
AcDbEntity
  8
01
  6
BYBLOCK
100
AcDbLine
 10
4716.895974085135
 20
1130.436497043247
 30
0.0000000000563712
 11
4720.502218669188
 21
1134.042741627298
 31
0.0000000000563712
  0
LINE
  5
F1A0
330
18
100
AcDbEntity
  8
01
  6
BYBLOCK
100
AcDbLine
 10
4724.108463253238
 20
1130.436497043247
 30
0.0000000000563712
 11
4720.502218669188
 21
1126.830252459196
 31
0.0000000000563712
  0
LINE
  5
F1A1
330
18
100
AcDbEntity
  8
01
  6
BYBLOCK
100
AcDbLine
 10
4716.895974085135
 20
1130.436497043247
 30
0.0000000000563712
 11
4720.502218669188
 21
1126.830252459196
 31
0.0000000000563712
  0
LINE
  5
F1A2
330
18
100
AcDbEntity
  8
01
  6
BYBLOCK
100
AcDbLine
 10
4782.502218669188
 20
1111.468167310263
 30
0.0000000000563712
 11
4782.502218669188
 21
1093.404826776257
 31
0.0000000000563712
  0
LINE
  5
F1A3
330
18
100
AcDbEntity
  8
01
  6
BYBLOCK
100
AcDbLine
 10
4778.209325450374
 20
1112.43649704326
 30
0.0000000000563712
 11
4771.502218669188
 21
1112.43649704326
 31
0.0000000000563712
  0
LINE
  5
F1A4
330
18
100
AcDbEntity
  8
01
  6
BYBLOCK
100
AcDbLine
 10
4778.209325450374
 20
1092.43649704326
 30
0.0000000000563712
 11
4771.502218669188
 21
1092.43649704326
 31
0.0000000000563712
  0
LINE
  5
F1A5
330
18
100
AcDbEntity
  8
01
100
AcDbLine
 10
4776.5022186689
 20
1044.436497043536
 30
0.0000000000563712
 11
4762.5022186689
 21
1044.436497043536
 31
0.0000000000563712
  0
LINE
  5
F1A6
330
18
100
AcDbEntity
  8
01
100
AcDbLine
 10
4750.502218669188
 20
1080.436497043247
 30
0.0000000000563712
 11
4690.502218669188
 21
1080.436497043247
 31
0.0000000000563712
  0
LINE
  5
F1A7
330
18
100
AcDbEntity
  8
01
100
AcDbLine
 10
4720.502218669188
 20
1110.436497043247
 30
0.0000000000563712
 11
4720.502218669188
 21
1050.436497043247
 31
0.0000000000563712
  0
LINE
  5
F1A8
330
18
100
AcDbEntity
  8
01
  6
BYBLOCK
100
AcDbLine
 10
4702.502218669188
 20
1137.436497043247
 30
0.0000000000563712
 11
4702.502218669188
 21
1115.936497247374
 31
0.0000000000563712
  0
LINE
  5
F1A9
330
18
100
AcDbEntity
  8
01
  6
BYBLOCK
100
AcDbLine
 10
4768.802218669187
 20
1138.436497043247
 30
0.0000000000563712
 11
4740.502218669186
 21
1138.436497043247
 31
0.0000000000563712
  0
LINE
  5
F1AA
330
18
100
AcDbEntity
  8
01
  6
BYBLOCK
100
AcDbLine
 10
4740.502218669186
 20
1138.436497043247
 30
0.0000000000563712
 11
4703.502218669188
 21
1138.436497043247
 31
0.0000000000563712
  0
LINE
  5
F1AB
330
18
100
AcDbEntity
  8
01
  6
BYBLOCK
100
AcDbLine
 10
4702.502218669184
 20
1115.936497247374
 30
0.0000000000563712
 11
4702.502218669184
 21
1106.936497043245
 31
0.0000000000563712
  0
TEXT
  5
F1AC
330
18
100
AcDbEntity
  8
1TEXT
100
AcDbText
 10
4702.502118329443
 20
1361.936497043247
 30
0.0
 40
20.0
  1
1-T9T-X-LJ-2
100
AcDbText
  0
TEXT
  5
F1AD
330
18
100
AcDbEntity
  8
1TEXT
100
AcDbText
 10
4714.702118329444
 20
1323.686497043247
 30
0.0
 40
6.0
  1
表面処理
 72
     1
 11
4728.602118329443
 21
1323.686497043247
 31
0.0
100
AcDbText
  0
TEXT
  5
F1AE
330
18
100
AcDbEntity
  8
1TEXT
100
AcDbText
 10
4714.402118329444
 20
1313.43356405396
 30
0.0
 40
6.0
  1
クローム
 72
     1
 11
4728.602118329443
 21
1313.43356405396
 31
0.0
100
AcDbText
  0
LINE
  5
F1AF
330
18
100
AcDbEntity
  8
1DIM
100
AcDbLine
 10
4702.502118329443
 20
1331.936497043247
 30
0.0000000000563712
 11
4807.502118329443
 21
1331.936497043247
 31
0.0000000000563712
  0
LINE
  5
F1B0
330
18
100
AcDbEntity
  8
1DIM
100
AcDbLine
 10
4702.502118329443
 20
1321.436497043247
 30
0.0000000000563712
 11
4807.502118329443
 21
1321.436497043247
 31
0.0000000000563712
  0
LINE
  5
F1B1
330
18
100
AcDbEntity
  8
1DIM
100
AcDbLine
 10
4702.502118329443
 20
1310.936497043247
 30
0.0000000000563712
 11
4807.502118329443
 21
1310.936497043247
 31
0.0000000000563712
  0
LINE
  5
F1B2
330
18
100
AcDbEntity
  8
1DIM
100
AcDbLine
 10
4702.502118329443
 20
1310.936497043247
 30
0.0000000000563712
 11
4807.502118329443
 21
1310.936497043247
 31
0.0000000000563712
  0
LINE
  5
F1B3
330
18
100
AcDbEntity
  8
1DIM
100
AcDbLine
 10
4755.002118329443
 20
1331.936497043247
 30
0.0000000000563712
 11
4755.002118329443
 21
1310.936497043247
 31
0.0000000000563712
  0
TEXT
  5
F1B4
330
18
100
AcDbEntity
  8
1TEXT
100
AcDbText
 10
4757.301146107221
 20
1312.864961567773
 30
0.0
 40
6.0
  1
1-T9T-C-LJ-2
 41
0.6999999999999998
 72
     1
 11
4781.102118329443
 21
1312.864961567773
 31
0.0
100
AcDbText
  0
TEXT
  5
F1B5
330
18
100
AcDbEntity
  8
1TEXT
100
AcDbText
 10
4770.802118329443
 20
1323.686497043247
 30
0.0
 40
6.0
  1
コード
 72
     1
 11
4781.102118329443
 21
1323.686497043247
 31
0.0
100
AcDbText
  0
LINE
  5
F1B6
330
18
100
AcDbEntity
  8
1DIM
100
AcDbLine
 10
4807.502118329443
 20
1310.936497043247
 30
0.0000000000563712
 11
4807.502118329443
 21
1331.936497043247
 31
0.0000000000563712
  0
LINE
  5
F1B7
330
18
100
AcDbEntity
  8
1DIM
100
AcDbLine
 10
4702.502118329443
 20
1310.936497043247
 30
0.0000000000563712
 11
4807.502118329443
 21
1310.936497043247
 31
0.0000000000563712
  0
LINE
  5
F1B8
330
18
100
AcDbEntity
  8
1DIM
100
AcDbLine
 10
4755.002118329443
 20
1310.936497043247
 30
0.0000000000563712
 11
4755.002118329443
 21
1300.436497043247
 31
0.0000000000563712
  0
LINE
  5
F1B9
330
18
100
AcDbEntity
  8
1DIM
100
AcDbLine
 10
4702.502118329443
 20
1300.436497043247
 30
0.0000000000563712
 11
4807.502118329443
 21
1300.436497043247
 31
0.0000000000563712
  0
TEXT
  5
F1BA
330
18
100
AcDbEntity
  8
1TEXT
100
AcDbText
 10
4703.802118329443
 20
1302.970126625891
 30
0.0
 40
6.0
  1
サテンニッケル
 72
     1
 11
4728.602118329443
 21
1302.970126625891
 31
0.0
100
AcDbText
  0
LINE
  5
F1BB
330
18
100
AcDbEntity
  8
1DIM
100
AcDbLine
 10
4702.502118329443
 20
1300.436497043247
 30
0.0000000000563712
 11
4702.502118329443
 21
1310.936497043247
 31
0.0000000000563712
  0
LINE
  5
F1BC
330
18
100
AcDbEntity
  8
1DIM
100
AcDbLine
 10
4807.502118329443
 20
1300.436497043247
 30
0.0000000000563712
 11
4807.502118329443
 21
1310.936497043247
 31
0.0000000000563712
  0
TEXT
  5
F1BD
330
18
100
AcDbEntity
  8
1TEXT
100
AcDbText
 10
4757.301146107221
 20
1302.364961567773
 30
0.0
 40
6.0
  1
1-T9T-N-LJ-2
 41
0.6999999999999998
 72
     1
 11
4781.102118329443
 21
1302.364961567773
 31
0.0
100
AcDbText
  0
LINE
  5
F1BE
330
18
100
AcDbEntity
  8
1DIM
100
AcDbLine
 10
4702.502118329443
 20
1310.936497043247
 30
0.0000000000563712
 11
4702.502118329443
 21
1331.936497043247
 31
0.0000000000563712
  0
LINE
  5
F1BF
330
18
100
AcDbEntity
  8
1DIM
100
AcDbLine
 10
4755.002118329443
 20
1300.436497043247
 30
0.0000000000563712
 11
4755.002118329443
 21
1289.936497043247
 31
0.0000000000563712
  0
LINE
  5
F1C0
330
18
100
AcDbEntity
  8
1DIM
100
AcDbLine
 10
4702.502118329443
 20
1289.936497043247
 30
0.0000000000563712
 11
4807.502118329443
 21
1289.936497043247
 31
0.0000000000563712
  0
TEXT
  5
F1C1
330
18
100
AcDbEntity
  8
1TEXT
100
AcDbText
 10
4704.402118329444
 20
1292.470126625891
 30
0.0
 40
6.0
  1
パールブラック
 72
     1
 11
4728.602118329443
 21
1292.470126625891
 31
0.0
100
AcDbText
  0
LINE
  5
F1C2
330
18
100
AcDbEntity
  8
1DIM
100
AcDbLine
 10
4702.502118329443
 20
1289.936497043247
 30
0.0000000000563712
 11
4702.502118329443
 21
1300.436497043247
 31
0.0000000000563712
  0
LINE
  5
F1C3
330
18
100
AcDbEntity
  8
1DIM
100
AcDbLine
 10
4807.502118329443
 20
1289.936497043247
 30
0.0000000000563712
 11
4807.502118329443
 21
1300.436497043247
 31
0.0000000000563712
  0
TEXT
  5
F1C4
330
18
100
AcDbEntity
  8
1TEXT
100
AcDbText
 10
4757.037673884999
 20
1291.864961567773
 30
0.0
 40
6.0
  1
1-T9T-GQ-LJ-2
 41
0.65
 72
     1
 11
4781.102118329443
 21
1291.864961567773
 31
0.0
100
AcDbText
  0
LINE
  5
F29B
330
18
100
AcDbEntity
  8
01
100
AcDbLine
 10
4908.373700607268
 20
1080.43781535635
 30
0.0000000000563712
 11
4931.001985989698
 21
1080.43781535635
 31
0.0000000000563712
  0
LINE
  5
F29C
330
18
100
AcDbEntity
  8
01
  6
BYBLOCK
100
AcDbLine
 10
5009.502753832016
 20
1330.436497043248
 30
0.0000000001127424
 11
5163.257133987046
 21
1330.436497043248
 31
0.0000000001127424
  0
LINE
  5
F29D
330
18
100
AcDbEntity
  8
01
100
AcDbLine
 10
5060.501985989698
 20
1335.436497043248
 30
0.0000000001127424
 11
5060.501985989698
 21
1308.936497043248
 31
0.0000000001127424
  0
LINE
  5
F2A0
330
18
100
AcDbEntity
  8
01
100
AcDbLine
 10
4910.501985989698
 20
1200.43781535635
 30
0.0000000000563712
 11
4910.501985989698
 21
1010.43781535635
 31
0.0000000000563712
  0
LINE
  5
F2A1
330
18
100
AcDbEntity
  8
1CENTER
100
AcDbLine
 10
4925.001985989698
 20
1065.43781535635
 30
0.0000000000563712
 11
4925.001985989698
 21
1073.43781535635
 31
0.0000000000563712
  0
LINE
  5
F2A2
330
18
100
AcDbEntity
  8
01
100
AcDbLine
 10
5030.501985989698
 20
1080.43781535635
 30
0.0000000000563712
 11
5090.501985989698
 21
1080.43781535635
 31
0.0000000000563712
  0
LINE
  5
F2A3
330
18
100
AcDbEntity
  8
01
100
AcDbLine
 10
5060.501985989698
 20
1110.43781535635
 30
0.0000000000563712
 11
5060.501985989698
 21
1050.43781535635
 31
0.0000000000563712
  0
LINE
  5
F2A5
330
18
100
AcDbEntity
  8
01
100
AcDbLine
 10
5086.501985989698
 20
1106.937815356348
 30
0.0000000000563712
 11
5034.501985989702
 21
1106.937815356348
 31
0.0000000000563712
  0
LINE
  5
F2A6
330
18
100
AcDbEntity
  8
01
100
AcDbLine
 10
5034.501985989702
 20
1053.937815356348
 30
0.0000000000563712
 11
5086.501985989698
 21
1053.937815356348
 31
0.0000000000563712
  0
LINE
  5
F2A7
330
18
100
AcDbEntity
  8
01
100
AcDbLine
 10
5034.001985989702
 20
1106.437815356348
 30
0.0000000000563712
 11
5034.001985989702
 21
1054.437815356348
 31
0.0000000000563712
  0
ARC
  5
F2A8
330
18
100
AcDbEntity
  8
01
100
AcDbCircle
 10
5034.501985989702
 20
1054.437815356348
 30
0.0000000000563712
 40
0.5
100
AcDbArc
 50
180.0
 51
270.0
  0
ARC
  5
F2A9
330
18
100
AcDbEntity
  8
01
100
AcDbCircle
 10
5034.501985989702
 20
1106.437815356348
 30
0.0000000000563712
 40
0.5
100
AcDbArc
 50
90.0
 51
180.0
  0
LINE
  5
F2AA
330
18
100
AcDbEntity
  8
01
100
AcDbLine
 10
5087.001985989698
 20
1106.437815356348
 30
0.0000000000563712
 11
5087.001985989698
 21
1085.997478442019
 31
0.0000000000563712
  0
LINE
  5
F2AB
330
18
100
AcDbEntity
  8
01
100
AcDbLine
 10
5087.001985989698
 20
1074.878155031743
 30
0.0000000000563712
 11
5087.001985989698
 21
1054.437815356348
 31
0.0000000000563712
  0
ARC
  5
F2AC
330
18
100
AcDbEntity
  8
01
100
AcDbCircle
 10
5086.501985989698
 20
1054.437815356348
 30
0.0000000000563712
 40
0.5
100
AcDbArc
 50
270.0
 51
0.0
  0
ARC
  5
F2AD
330
18
100
AcDbEntity
  8
01
100
AcDbCircle
 10
5086.501985989698
 20
1106.437815356348
 30
0.0000000000563712
 40
0.5
100
AcDbArc
 50
0.0
 51
90.0
  0
LINE
  5
F2AE
330
18
100
AcDbEntity
  8
01
100
AcDbLine
 10
5034.001985989702
 20
1330.436497043248
 30
0.0000000001127424
 11
5087.001985989698
 21
1330.436497043248
 31
0.0000000001127424
  0
LINE
  5
F2AF
330
18
100
AcDbEntity
  8
01
100
AcDbLine
 10
5034.501985989702
 20
1321.936497043248
 30
0.0000000001127424
 11
5086.501985989698
 21
1321.936497043248
 31
0.0000000001127424
  0
LINE
  5
F2B0
330
18
100
AcDbEntity
  8
01
100
AcDbLine
 10
5087.001985989698
 20
1330.436497043248
 30
0.0000000001127424
 11
5087.001985989698
 21
1322.436497043248
 31
0.0000000001127424
  0
LINE
  5
F2B1
330
18
100
AcDbEntity
  8
01
100
AcDbLine
 10
5034.001985989702
 20
1330.436497043248
 30
0.0000000001127424
 11
5034.001985989702
 21
1322.436497043248
 31
0.0000000001127424
  0
ARC
  5
F2B2
330
18
100
AcDbEntity
  8
01
100
AcDbCircle
 10
5034.501985989702
 20
1322.436497043248
 30
0.0000000001127424
 40
0.5
100
AcDbArc
 50
180.0
 51
270.0
  0
ARC
  5
F2B3
330
18
100
AcDbEntity
  8
01
100
AcDbCircle
 10
5086.501985989698
 20
1322.436497043248
 30
0.0000000001127424
 40
0.5
100
AcDbArc
 50
270.0
 51
0.0
  0
LINE
  5
F2B4
330
18
100
AcDbEntity
  8
01
100
AcDbLine
 10
4910.501985989698
 20
1053.937815356351
 30
0.0000000000563712
 11
4910.501985989698
 21
1106.937815356348
 31
0.0000000000563712
  0
LINE
  5
F2B5
330
18
100
AcDbEntity
  8
01
100
AcDbLine
 10
4919.001985989698
 20
1054.437815356351
 30
0.0000000000563712
 11
4919.001985989698
 21
1106.437815356348
 31
0.0000000000563712
  0
LINE
  5
F2B6
330
18
100
AcDbEntity
  8
01
100
AcDbLine
 10
4910.501985989698
 20
1106.937815356348
 30
0.0000000000563712
 11
4918.501985989698
 21
1106.937815356348
 31
0.0000000000563712
  0
LINE
  5
F2B7
330
18
100
AcDbEntity
  8
01
100
AcDbLine
 10
4910.501985989698
 20
1053.937815356351
 30
0.0000000000563712
 11
4918.501985989698
 21
1053.937815356351
 31
0.0000000000563712
  0
ARC
  5
F2B8
330
18
100
AcDbEntity
  8
01
100
AcDbCircle
 10
4918.501985989698
 20
1054.437815356351
 30
0.0000000000563712
 40
0.5
100
AcDbArc
 50
270.0
 51
0.0
  0
ARC
  5
F2B9
330
18
100
AcDbEntity
  8
01
100
AcDbCircle
 10
4918.501985989698
 20
1106.437815356348
 30
0.0000000000563712
 40
0.5
100
AcDbArc
 50
0.0
 51
90.0
  0
LINE
  5
F2BB
330
18
100
AcDbEntity
  8
01
100
AcDbLine
 10
5071.618463270539
 20
1067.712194463933
 30
0.0000000000563712
 11
5049.757457369817
 21
1074.992014448899
 31
0.0000000000563712
  0
LINE
  5
F2BD
330
18
100
AcDbEntity
  8
01
100
AcDbLine
 10
5049.757457369817
 20
1074.992014448899
 30
0.0000000000563712
 11
5049.731087349197
 21
1075.000570736666
 31
0.0000000000563712
  0
LINE
  5
F2BF
330
18
100
AcDbEntity
  8
01
100
AcDbLine
 10
5071.618463270537
 20
1093.163436248768
 30
0.0000000000563712
 11
5049.757457370237
 21
1085.883616263941
 31
0.0000000000563712
  0
LINE
  5
F2C1
330
18
100
AcDbEntity
  8
01
100
AcDbLine
 10
5049.731087349193
 20
1085.875059976038
 30
0.0000000000563712
 11
5049.757457370239
 21
1085.883616263941
 31
0.0000000000563712
  0
LINE
  5
F2C3
330
18
100
AcDbEntity
  8
01
100
AcDbLine
 10
5072.501961194161
 20
1092.097477638673
 30
0.0000000000563712
 11
5072.501961194161
 21
1085.862744307296
 31
0.0000000000563712
  0
LINE
  5
F2C4
330
18
100
AcDbEntity
  8
01
100
AcDbLine
 10
5071.831247738262
 20
1093.086470794552
 30
0.0000000000563712
 11
5071.618463270537
 21
1093.163436248768
 31
0.0000000000563712
  0
LINE
  5
F2C6
330
18
100
AcDbEntity
  8
01
100
AcDbLine
 10
5072.501961194161
 20
1068.778153074151
 30
0.0000000000563712
 11
5072.501961194161
 21
1075.012886405405
 31
0.0000000000563712
  0
LINE
  5
F2C7
330
18
100
AcDbEntity
  8
01
100
AcDbLine
 10
5071.618463270537
 20
1067.712194463933
 30
0.0000000000563712
 11
5071.831247738301
 21
1067.789159918161
 31
0.0000000000563712
  0
LINE
  5
F2C9
330
18
100
AcDbEntity
  8
01
100
AcDbLine
 10
5046.501961194163
 20
1088.57706067289
 30
0.0000000000563712
 11
5046.501961194161
 21
1084.559457905289
 31
0.0000000000563712
  0
ARC
  5
F2CC
330
18
100
AcDbEntity
  8
01
100
AcDbCircle
 10
5049.739512970571
 20
1101.863139658901
 30
0.0000000000563712
 40
17.51475030036835
100
AcDbArc
 50
266.7127687053118
 51
269.222876073268
  0
LINE
  5
F2CD
330
18
100
AcDbEntity
  8
01
100
AcDbLine
 10
5049.501961194161
 20
1084.350000384693
 30
0.0000000000563712
 11
5181.501961194161
 21
1081.618676548585
 31
0.0000000000563712
  0
LINE
  5
F2CF
330
18
100
AcDbEntity
  8
01
100
AcDbLine
 10
5184.501961194161
 20
1082.077976507884
 30
0.0000000000563712
 11
5184.501961194161
 21
1085.889887070449
 31
0.0000000000563712
  0
LINE
  5
F2D0
330
18
100
AcDbEntity
  8
01
100
AcDbLine
 10
5184.501961194161
 20
1074.985743642252
 30
0.0000000000563712
 11
5184.501961194161
 21
1078.797654204816
 31
0.0000000000563712
  0
LINE
  5
F2D2
330
18
100
AcDbEntity
  8
01
100
AcDbLine
 10
5181.501961194161
 20
1079.256954164116
 30
0.0000000000563712
 11
5049.501961194161
 21
1076.525630328007
 31
0.0000000000563712
  0
ARC
  5
F2D3
330
18
100
AcDbEntity
  8
01
100
AcDbCircle
 10
5049.739512970571
 20
1059.012491053798
 30
0.0000000000563712
 40
17.51475030036995
100
AcDbArc
 50
90.77712392673199
 51
93.28723129468821
  0
LINE
  5
F2D6
330
18
100
AcDbEntity
  8
01
100
AcDbLine
 10
5046.501961194161
 20
1076.316172807411
 30
0.0000000000563712
 11
5046.501961194163
 21
1072.29857003981
 31
0.0000000000563712
  0
LINE
  5
F2D7
330
18
100
AcDbEntity
  8
01
100
AcDbLine
 10
5071.057871281715
 20
1093.21564767751
 30
0.0000000000563712
 11
5047.350328997352
 21
1089.568333479916
 31
0.0000000000563712
  0
LINE
  5
F2D8
330
18
100
AcDbEntity
  8
01
100
AcDbLine
 10
5184.501961194161
 20
1078.797654204816
 30
0.0000000000563712
 11
5184.501961194161
 21
1082.077976507884
 31
0.0000000000563712
  0
LINE
  5
F2D9
330
18
100
AcDbEntity
  8
01
100
AcDbLine
 10
5046.501961194161
 20
1084.559457905289
 30
0.0000000000563712
 11
5046.501961194161
 21
1076.316172807411
 31
0.0000000000563712
  0
LINE
  5
F2DA
330
18
100
AcDbEntity
  8
01
100
AcDbLine
 10
5047.350328997352
 20
1071.307297232785
 30
0.0000000000563712
 11
5071.057871281717
 21
1067.659983035191
 31
0.0000000000563712
  0
ELLIPSE
  5
F2DB
330
18
100
AcDbEntity
  8
01
100
AcDbEllipse
 10
5047.501961194163
 20
1088.57706067289
 30
0.0000000000563712
 11
-2.178789743915240E-13
 21
-1.002868994438701
 31
0.0
210
0.0
220
0.0
230
-1.0
 40
0.9971392131428821
 41
1.57079632679468
 42
2.989373298454157
  0
ELLIPSE
  5
F2DC
330
18
100
AcDbEntity
  8
01
100
AcDbEllipse
 10
5047.501961194163
 20
1072.29857003981
 30
0.0000000000563712
 11
1.871159528430565E-13
 21
-1.002868994438701
 31
0.0
210
0.0
220
0.0
230
1.0
 40
0.9971392131428819
 41
4.712388980384502
 42
6.130965952044095
  0
ARC
  5
F2DE
330
18
100
AcDbEntity
  8
01
100
AcDbCircle
 10
5183.500041309666
 20
1074.983955654351
 30
0.0000000000563712
 40
1.001921479881762
100
AcDbArc
 50
269.7023169156238
 51
0.1022477477154856
  0
ARC
  5
F2DF
330
18
100
AcDbEntity
  8
01
100
AcDbCircle
 10
5183.500041309664
 20
1085.891675058348
 30
0.0000000000563712
 40
1.00192147988356
100
AcDbArc
 50
359.8977522523887
 51
90.297683084272
  0
LINE
  5
F2E0
330
18
100
AcDbEntity
  8
01
100
AcDbLine
 10
5050.179819546822
 20
1085.655514407254
 30
0.0000000000563712
 11
5183.494892513183
 21
1086.893599089678
 31
0.0000000000563712
  0
LINE
  5
F2E1
330
18
100
AcDbEntity
  8
01
100
AcDbLine
 10
5183.494892733277
 20
1073.982031620975
 30
0.0000000000563712
 11
5050.179819546822
 21
1075.220120120144
 31
0.0000000000563712
  0
LINE
  5
F2E4
330
18
100
AcDbEntity
  8
01
100
AcDbLine
 10
4919.501987835268
 20
1088.577100616246
 30
0.0000000000563712
 11
4972.501988186497
 21
1084.559502482051
 31
0.0000000000563712
  0
ARC
  5
F2E5
330
18
100
AcDbEntity
  8
01
100
AcDbCircle
 10
4973.965980797529
 20
1113.503278567288
 30
0.0000000000563712
 40
28.98077722279882
100
AcDbArc
 50
267.1044146413482
 51
268.1014322526931
  0
ARC
  5
F2EA
330
18
100
AcDbEntity
  8
01
100
AcDbCircle
 10
4973.965985330854
 20
1047.372466251933
 30
0.0000000000563712
 40
28.98075249426445
100
AcDbArc
 50
91.8985769171193
 51
92.89559537889767
  0
LINE
  5
F2EB
330
18
100
AcDbEntity
  8
01
100
AcDbLine
 10
4972.501988907148
 20
1076.316217384175
 30
0.0000000000563712
 11
4919.501989258379
 21
1072.298609983166
 31
0.0000000000563712
  0
LINE
  5
F2EC
330
18
100
AcDbEntity
  8
01
100
AcDbLine
 10
4919.501988507192
 20
1093.236374253304
 30
0.0000000000563712
 11
4919.501983472219
 21
1067.639333156068
 31
0.0000000000563712
  0
LINE
  5
F2ED
330
18
100
AcDbEntity
  8
01
100
AcDbLine
 10
4975.501988335943
 20
1084.35004509259
 30
0.0000000000563712
 11
4975.501989019971
 21
1076.525675035904
 31
0.0000000000563712
  0
ARC
  5
F2EF
330
18
100
AcDbEntity
  8
01
100
AcDbCircle
 10
4973.769097616902
 20
1078.524131209188
 30
0.0000000000563712
 40
3.132483113655846
100
AcDbArc
 50
282.8930415923645
 51
288.2052046970687
  0
ARC
  5
F2F2
330
18
100
AcDbEntity
  8
01
100
AcDbCircle
 10
4973.76798117814
 20
1082.347567774196
 30
0.0000000000563712
 40
3.136651429276243
100
AcDbArc
 50
71.7985010782964
 51
77.10341996754961
  0
LINE
  5
F2F3
330
18
100
AcDbEntity
  8
01
100
AcDbLine
 10
4974.464478480819
 20
1085.405819208822
 30
0.0000000000563712
 11
4973.497353780729
 21
1085.627919254944
 31
0.0000000000563712
  0
LINE
  5
F2F4
330
18
100
AcDbEntity
  8
01
100
AcDbLine
 10
4974.464479141782
 20
1075.469900776983
 30
0.0000000000563712
 11
4973.497429403865
 21
1075.247817683371
 31
0.0000000000563712
  0
LINE
  5
F2F5
330
18
100
AcDbEntity
  8
01
100
AcDbLine
 10
4971.116993330928
 20
1085.96400004409
 30
0.0000000000563712
 11
4971.055133688844
 21
1085.972661117145
 31
0.0000000000563712
  0
LINE
  5
F2F7
330
18
100
AcDbEntity
  8
01
100
AcDbLine
 10
4919.501988507192
 20
1093.236374253304
 30
0.0000000000563712
 11
4971.055137509818
 21
1085.9726605787
 31
0.0000000000563712
  0
LINE
  5
F2F8
330
18
100
AcDbEntity
  8
01
100
AcDbLine
 10
4971.055138215792
 20
1074.903058739108
 30
0.0000000000563712
 11
4971.116959081512
 21
1074.911714382627
 31
0.0000000000563712
  0
LINE
  5
F2F9
330
18
100
AcDbEntity
  8
01
100
AcDbLine
 10
4973.497430003743
 20
1075.247817821132
 30
0.0000000000563712
 11
4973.466063136131
 21
1075.240733892959
 31
0.0000000000563712
  0
LINE
  5
F2FB
330
18
100
AcDbEntity
  8
01
100
AcDbLine
 10
4919.501983472219
 20
1067.639333156068
 30
0.0000000000563712
 11
4971.05513918211
 21
1074.903058875419
 31
0.0000000000563712
  0
LINE
  5
F2FE
330
18
100
AcDbEntity
  8
01
100
AcDbLine
 10
5071.057896077247
 20
1321.436497216729
 30
0.0000000001127424
 11
5049.278004410819
 21
1269.960784404059
 31
0.0000000001127424
  0
LINE
  5
F300
330
18
100
AcDbEntity
  8
01
100
AcDbLine
 10
5049.251861543584
 20
1269.898980381555
 30
0.0000000001127424
 11
5049.278004410817
 21
1269.960784404057
 31
0.0000000001127424
  0
LINE
  5
F301
330
18
100
AcDbEntity
  8
01
100
AcDbLine
 10
5050.319292743057
 20
1267.468966477898
 30
0.0000000001127424
 11
5050.206288048283
 21
1267.455542709229
 31
0.0000000001127424
  0
LINE
  5
F302
330
18
100
AcDbEntity
  8
01
100
AcDbLine
 10
5072.501985989691
 20
1321.436497232979
 30
0.0000000001127424
 11
5072.501985989693
 21
1294.34800904861
 31
0.0000000001127424
  0
ARC
  5
F303
330
18
100
AcDbEntity
  8
01
100
AcDbCircle
 10
5076.745090206643
 20
1293.605682388706
 30
0.0000000001127424
 40
4.207157798564817
100
AcDbArc
 50
192.0191655653279
 51
254.0475091110449
  0
LINE
  5
F304
330
18
100
AcDbEntity
  8
01
100
AcDbLine
 10
5072.501985989691
 20
1321.436497232979
 30
0.0000000001127424
 11
5046.501985989693
 21
1321.436496821894
 31
0.0000000001127424
  0
LINE
  5
F305
330
18
100
AcDbEntity
  8
01
100
AcDbLine
 10
5046.501985989693
 20
1321.436496821894
 30
0.0000000001127424
 11
5046.501985989693
 21
1268.436497595104
 31
0.0000000001127424
  0
ARC
  5
F306
330
18
100
AcDbEntity
  8
01
100
AcDbCircle
 10
5049.503760717247
 20
1268.436647695964
 30
0.0000000001127424
 40
3.001774731307769
100
AcDbArc
 50
180.002865020378
 51
189.6658580349499
  0
ARC
  5
F307
330
18
100
AcDbEntity
  8
01
100
AcDbCircle
 10
5049.501993983342
 20
1268.436504911454
 30
0.0000000001127424
 40
3.000009108742662
100
AcDbArc
 50
189.6688351265561
 51
255.1913208272764
  0
ARC
  5
F308
330
18
100
AcDbEntity
  8
01
100
AcDbCircle
 10
5049.502524921254
 20
1268.440644754527
 30
0.0000000001127424
 40
3.004147198609147
100
AcDbArc
 50
255.2017115487269
 51
269.9897213744634
  0
LINE
  5
F309
330
18
100
AcDbEntity
  8
01
100
AcDbLine
 10
5049.501985989693
 20
1265.436497604259
 30
0.0000000001127424
 11
5181.501985989693
 21
1265.436497723649
 31
0.0000000001127424
  0
ARC
  5
F30A
330
18
100
AcDbEntity
  8
01
100
AcDbCircle
 10
5181.501937468833
 20
1268.436546244509
 30
0.0000000001127424
 40
3.00004852125248
100
AcDbArc
 50
270.0009266651966
 51
359.999072951168
  0
LINE
  5
F30B
330
18
100
AcDbEntity
  8
01
100
AcDbLine
 10
5184.501985989693
 20
1268.436497703573
 30
0.0000000001127424
 11
5184.501985989693
 21
1286.454195573862
 31
0.0000000001127424
  0
LINE
  5
F30C
330
18
100
AcDbEntity
  8
01
100
AcDbLine
 10
5050.319292743057
 20
1267.468966477898
 30
0.0000000001127424
 11
5184.501985989691
 21
1283.537871867432
 31
0.0000000001127424
  0
LINE
  5
F30D
330
18
100
AcDbEntity
  8
01
100
AcDbLine
 10
5077.412714507607
 20
1289.34880612557
 30
0.0000000001127424
 11
5183.519840286108
 21
1287.454035982914
 31
0.0000000001127424
  0
ARC
  5
F30E
330
18
100
AcDbEntity
  8
01
100
AcDbCircle
 10
5183.501985989693
 20
1286.454195383569
 30
0.0000000001127424
 40
0.9999999999999953
100
AcDbArc
 50
6.844383495296855
 51
88.97696981139067
  0
ARC
  5
F30F
330
18
100
AcDbEntity
  8
01
100
AcDbCircle
 10
5183.501988411021
 20
1286.454195573862
 30
0.0000000001127424
 40
0.9999975786725184
100
AcDbArc
 50
359.9999925205698
 51
6.844389190702141
  0
LINE
  5
F310
330
18
100
AcDbEntity
  8
01
100
AcDbLine
 10
5077.412714499327
 20
1289.348806125719
 30
0.0000000001127424
 11
5077.414707316811
 21
1289.34877053969
 31
0.0000000001127424
  0
LINE
  5
F311
330
18
100
AcDbEntity
  8
01
100
AcDbLine
 10
5183.519840286108
 20
1287.454035982914
 30
0.0000000001127424
 11
5183.517840293856
 21
1287.454071697061
 31
0.0000000001127424
  0
LINE
  5
F314
330
18
100
AcDbEntity
  8
01
100
AcDbLine
 10
5071.057896077247
 20
1379.436496867708
 30
0.0000000001127424
 11
5049.278004410819
 21
1430.912209680378
 31
0.0000000001127424
  0
LINE
  5
F316
330
18
100
AcDbEntity
  8
01
100
AcDbLine
 10
5049.251861543584
 20
1430.974013702882
 30
0.0000000001127424
 11
5049.278004410817
 21
1430.912209680379
 31
0.0000000001127424
  0
LINE
  5
F317
330
18
100
AcDbEntity
  8
01
100
AcDbLine
 10
5050.319292743057
 20
1433.404027606538
 30
0.0000000001127424
 11
5050.206288048283
 21
1433.417451375208
 31
0.0000000001127424
  0
LINE
  5
F318
330
18
100
AcDbEntity
  8
01
100
AcDbLine
 10
5072.501985989691
 20
1379.436496851457
 30
0.0000000001127424
 11
5072.501985989693
 21
1406.524985035827
 31
0.0000000001127424
  0
ARC
  5
F319
330
18
100
AcDbEntity
  8
01
100
AcDbCircle
 10
5076.745090206643
 20
1407.267311695731
 30
0.0000000001127424
 40
4.207157798564817
100
AcDbArc
 50
105.9524908889552
 51
167.9808344346721
  0
LINE
  5
F31A
330
18
100
AcDbEntity
  8
01
100
AcDbLine
 10
5072.501985989691
 20
1379.436496851457
 30
0.0000000001127424
 11
5046.501985989693
 21
1379.436497262543
 31
0.0000000001127424
  0
LINE
  5
F31B
330
18
100
AcDbEntity
  8
01
100
AcDbLine
 10
5046.501985989693
 20
1379.436497262543
 30
0.0000000001127424
 11
5046.501985989693
 21
1432.436496489333
 31
0.0000000001127424
  0
ARC
  5
F31C
330
18
100
AcDbEntity
  8
01
100
AcDbCircle
 10
5049.503760717247
 20
1432.436346388473
 30
0.0000000001127424
 40
3.001774731307769
100
AcDbArc
 50
170.3341419650501
 51
179.997134979622
  0
ARC
  5
F31D
330
18
100
AcDbEntity
  8
01
100
AcDbCircle
 10
5049.501993983342
 20
1432.436489172982
 30
0.0000000001127424
 40
3.000009108742662
100
AcDbArc
 50
104.8086791727236
 51
170.3311648734439
  0
ARC
  5
F31E
330
18
100
AcDbEntity
  8
01
100
AcDbCircle
 10
5049.502524921254
 20
1432.43234932991
 30
0.0000000001127424
 40
3.004147198609147
100
AcDbArc
 50
90.01027862553657
 51
104.7982884512731
  0
LINE
  5
F31F
330
18
100
AcDbEntity
  8
01
100
AcDbLine
 10
5049.501985989693
 20
1435.436496480178
 30
0.0000000001127424
 11
5181.501985989693
 21
1435.436496360788
 31
0.0000000001127424
  0
ARC
  5
F320
330
18
100
AcDbEntity
  8
01
100
AcDbCircle
 10
5181.501937468833
 20
1432.436447839928
 30
0.0000000001127424
 40
3.00004852125248
100
AcDbArc
 50
0.0009270488320139
 51
89.99907333480334
  0
LINE
  5
F321
330
18
100
AcDbEntity
  8
01
100
AcDbLine
 10
5184.501985989693
 20
1432.436496380864
 30
0.0000000001127424
 11
5184.501985989693
 21
1414.418798510575
 31
0.0000000001127424
  0
LINE
  5
F322
330
18
100
AcDbEntity
  8
01
100
AcDbLine
 10
5050.319292743057
 20
1433.404027606538
 30
0.0000000001127424
 11
5184.501985989691
 21
1417.335122217005
 31
0.0000000001127424
  0
LINE
  5
F323
330
18
100
AcDbEntity
  8
01
100
AcDbLine
 10
5077.412714507607
 20
1411.524187958867
 30
0.0000000001127424
 11
5183.519840286108
 21
1413.418958101523
 31
0.0000000001127424
  0
ARC
  5
F324
330
18
100
AcDbEntity
  8
01
100
AcDbCircle
 10
5183.501985989693
 20
1414.418798700868
 30
0.0000000001127424
 40
0.9999999999999953
100
AcDbArc
 50
271.0230301886094
 51
353.1556165047031
  0
ARC
  5
F325
330
18
100
AcDbEntity
  8
01
100
AcDbCircle
 10
5183.501988411021
 20
1414.418798510575
 30
0.0000000001127424
 40
0.9999975786725184
100
AcDbArc
 50
353.1556108092979
 51
0.0000074794302503
  0
LINE
  5
F326
330
18
100
AcDbEntity
  8
01
100
AcDbLine
 10
5077.412714499327
 20
1411.524187958718
 30
0.0000000001127424
 11
5077.414707316811
 21
1411.524223544747
 31
0.0000000001127424
  0
LINE
  5
F327
330
18
100
AcDbEntity
  8
01
100
AcDbLine
 10
5183.519840286108
 20
1413.418958101523
 30
0.0000000001127424
 11
5183.517840293856
 21
1413.418922387375
 31
0.0000000001127424
  0
LINE
  5
F32A
330
18
100
AcDbEntity
  8
1CENTER
100
AcDbLine
 10
4856.002218669188
 20
1065.43781535635
 30
0.0000000000563712
 11
4856.002218669188
 21
1073.43781535635
 31
0.0000000000563712
  0
LINE
  5
F32B
330
18
100
AcDbEntity
  8
01
100
AcDbLine
 10
4861.502216823617
 20
1088.577100616246
 30
0.0000000000563712
 11
4808.502216472388
 21
1084.559502482051
 31
0.0000000000563712
  0
ARC
  5
F32C
330
18
100
AcDbEntity
  8
01
100
AcDbCircle
 10
4807.038223861356
 20
1113.503278567288
 30
0.0000000000563712
 40
28.98077722279882
100
AcDbArc
 50
271.8985677473069
 51
272.8955853586518
  0
ARC
  5
F331
330
18
100
AcDbEntity
  8
01
100
AcDbCircle
 10
4807.038219328031
 20
1047.372466251933
 30
0.0000000000563712
 40
28.98075249426445
100
AcDbArc
 50
87.10440462110235
 51
88.1014230828807
  0
LINE
  5
F332
330
18
100
AcDbEntity
  8
01
100
AcDbLine
 10
4808.502215751737
 20
1076.316217384175
 30
0.0000000000563712
 11
4861.502215400506
 21
1072.298609983166
 31
0.0000000000563712
  0
LINE
  5
F333
330
18
100
AcDbEntity
  8
01
100
AcDbLine
 10
4861.502216151693
 20
1093.236374253304
 30
0.0000000000563712
 11
4861.502221186666
 21
1067.639333156068
 31
0.0000000000563712
  0
LINE
  5
F334
330
18
100
AcDbEntity
  8
01
100
AcDbLine
 10
4805.502216322942
 20
1084.35004509259
 30
0.0000000000563712
 11
4805.502215638914
 21
1076.525675035904
 31
0.0000000000563712
  0
ARC
  5
F336
330
18
100
AcDbEntity
  8
01
100
AcDbCircle
 10
4807.235107041983
 20
1078.524131209188
 30
0.0000000000563712
 40
3.132483113655846
100
AcDbArc
 50
251.7947953029313
 51
257.1069584076355
  0
ARC
  5
F339
330
18
100
AcDbEntity
  8
01
100
AcDbCircle
 10
4807.236223480745
 20
1082.347567774196
 30
0.0000000000563712
 40
3.136651429276243
100
AcDbArc
 50
102.8965800324504
 51
108.2014989217036
  0
LINE
  5
F33A
330
18
100
AcDbEntity
  8
01
100
AcDbLine
 10
4806.539726178066
 20
1085.405819208822
 30
0.0000000000563712
 11
4807.506850878156
 21
1085.627919254944
 31
0.0000000000563712
  0
LINE
  5
F33B
330
18
100
AcDbEntity
  8
01
100
AcDbLine
 10
4806.539725517103
 20
1075.469900776983
 30
0.0000000000563712
 11
4807.50677525502
 21
1075.247817683371
 31
0.0000000000563712
  0
LINE
  5
F33C
330
18
100
AcDbEntity
  8
01
100
AcDbLine
 10
4809.887211327957
 20
1085.96400004409
 30
0.0000000000563712
 11
4809.949070970041
 21
1085.972661117145
 31
0.0000000000563712
  0
LINE
  5
F33E
330
18
100
AcDbEntity
  8
01
100
AcDbLine
 10
4861.502216151693
 20
1093.236374253304
 30
0.0000000000563712
 11
4809.949067149067
 21
1085.9726605787
 31
0.0000000000563712
  0
LINE
  5
F33F
330
18
100
AcDbEntity
  8
01
100
AcDbLine
 10
4809.949066443093
 20
1074.903058739108
 30
0.0000000000563712
 11
4809.887245577374
 21
1074.911714382627
 31
0.0000000000563712
  0
LINE
  5
F340
330
18
100
AcDbEntity
  8
01
100
AcDbLine
 10
4807.506774655142
 20
1075.247817821132
 30
0.0000000000563712
 11
4807.538141522754
 21
1075.240733892959
 31
0.0000000000563712
  0
LINE
  5
F342
330
18
100
AcDbEntity
  8
01
100
AcDbLine
 10
4861.502221186666
 20
1067.639333156068
 30
0.0000000000563712
 11
4809.949065476775
 21
1074.903058875419
 31
0.0000000000563712
  0
LINE
  5
F343
330
18
100
AcDbEntity
  8
01
100
AcDbLine
 10
4750.502218669188
 20
1080.43781535635
 30
0.0000000000563712
 11
4690.502218669188
 21
1080.43781535635
 31
0.0000000000563712
  0
LINE
  5
F344
330
18
100
AcDbEntity
  8
01
100
AcDbLine
 10
4720.502218669188
 20
1110.43781535635
 30
0.0000000000563712
 11
4720.502218669188
 21
1050.43781535635
 31
0.0000000000563712
  0
LINE
  5
F345
330
18
100
AcDbEntity
  8
01
100
AcDbLine
 10
4694.502218669188
 20
1106.937815356348
 30
0.0000000000563712
 11
4746.502218669184
 21
1106.937815356348
 31
0.0000000000563712
  0
LINE
  5
F346
330
18
100
AcDbEntity
  8
01
100
AcDbLine
 10
4746.502218669184
 20
1053.937815356348
 30
0.0000000000563712
 11
4694.502218669188
 21
1053.937815356348
 31
0.0000000000563712
  0
LINE
  5
F347
330
18
100
AcDbEntity
  8
01
100
AcDbLine
 10
4747.002218669184
 20
1106.437815356348
 30
0.0000000000563712
 11
4747.002218669184
 21
1054.437815356348
 31
0.0000000000563712
  0
ARC
  5
F348
330
18
100
AcDbEntity
  8
01
100
AcDbCircle
 10
4746.502218669184
 20
1054.437815356348
 30
0.0000000000563712
 40
0.5
100
AcDbArc
 50
270.0
 51
0.0
  0
ARC
  5
F349
330
18
100
AcDbEntity
  8
01
100
AcDbCircle
 10
4746.502218669184
 20
1106.437815356348
 30
0.0000000000563712
 40
0.5
100
AcDbArc
 50
0.0
 51
90.0
  0
LINE
  5
F34A
330
18
100
AcDbEntity
  8
01
100
AcDbLine
 10
4694.002218669188
 20
1106.437815356348
 30
0.0000000000563712
 11
4694.002218669188
 21
1085.997478442019
 31
0.0000000000563712
  0
LINE
  5
F34B
330
18
100
AcDbEntity
  8
01
100
AcDbLine
 10
4694.002218669187
 20
1074.878155031743
 30
0.0000000000563712
 11
4694.002218669188
 21
1054.437815356348
 31
0.0000000000563712
  0
ARC
  5
F34C
330
18
100
AcDbEntity
  8
01
100
AcDbCircle
 10
4694.502218669188
 20
1054.437815356348
 30
0.0000000000563712
 40
0.5
100
AcDbArc
 50
180.0
 51
270.0
  0
ARC
  5
F34D
330
18
100
AcDbEntity
  8
01
100
AcDbCircle
 10
4694.502218669188
 20
1106.437815356348
 30
0.0000000000563712
 40
0.5
100
AcDbArc
 50
90.0
 51
180.0
  0
LINE
  5
F34E
330
18
100
AcDbEntity
  8
01
100
AcDbLine
 10
4709.385741388347
 20
1067.712194463933
 30
0.0000000000563712
 11
4731.246747289068
 21
1074.992014448899
 31
0.0000000000563712
  0
LINE
  5
F350
330
18
100
AcDbEntity
  8
01
100
AcDbLine
 10
4731.246747289068
 20
1074.992014448899
 30
0.0000000000563712
 11
4731.273117309689
 21
1075.000570736666
 31
0.0000000000563712
  0
LINE
  5
F352
330
18
100
AcDbEntity
  8
01
100
AcDbLine
 10
4709.385741388347
 20
1093.163436248768
 30
0.0000000000563712
 11
4731.246747288647
 21
1085.883616263941
 31
0.0000000000563712
  0
LINE
  5
F354
330
18
100
AcDbEntity
  8
01
100
AcDbLine
 10
4731.273117309691
 20
1085.875059976038
 30
0.0000000000563712
 11
4731.246747288647
 21
1085.883616263941
 31
0.0000000000563712
  0
LINE
  5
F356
330
18
100
AcDbEntity
  8
01
100
AcDbLine
 10
4708.502243464725
 20
1092.097477638673
 30
0.0000000000563712
 11
4708.502243464724
 21
1085.862744307296
 31
0.0000000000563712
  0
LINE
  5
F357
330
18
100
AcDbEntity
  8
01
100
AcDbLine
 10
4709.172956920622
 20
1093.086470794552
 30
0.0000000000563712
 11
4709.385741388347
 21
1093.163436248768
 31
0.0000000000563712
  0
LINE
  5
F359
330
18
100
AcDbEntity
  8
01
100
AcDbLine
 10
4708.502243464725
 20
1068.778153074151
 30
0.0000000000563712
 11
4708.502243464724
 21
1075.012886405405
 31
0.0000000000563712
  0
LINE
  5
F35A
330
18
100
AcDbEntity
  8
01
100
AcDbLine
 10
4709.385741388347
 20
1067.712194463933
 30
0.0000000000563712
 11
4709.172956920585
 21
1067.789159918161
 31
0.0000000000563712
  0
LINE
  5
F35C
330
18
100
AcDbEntity
  8
01
100
AcDbLine
 10
4734.502243464724
 20
1088.57706067289
 30
0.0000000000563712
 11
4734.502243464724
 21
1084.559457905289
 31
0.0000000000563712
  0
ARC
  5
F35F
330
18
100
AcDbEntity
  8
01
100
AcDbCircle
 10
4731.264691688313
 20
1101.863139658901
 30
0.0000000000563712
 40
17.51475030036835
100
AcDbArc
 50
270.777123926732
 51
273.2872312946882
  0
LINE
  5
F360
330
18
100
AcDbEntity
  8
01
100
AcDbLine
 10
4731.502243464724
 20
1084.350000384693
 30
0.0000000000563712
 11
4599.502243464724
 21
1081.618676548585
 31
0.0000000000563712
  0
LINE
  5
F362
330
18
100
AcDbEntity
  8
01
100
AcDbLine
 10
4596.502243464724
 20
1082.077976507884
 30
0.0000000000563712
 11
4596.502243464724
 21
1085.889887070449
 31
0.0000000000563712
  0
LINE
  5
F363
330
18
100
AcDbEntity
  8
01
100
AcDbLine
 10
4596.502243464724
 20
1074.985743642252
 30
0.0000000000563712
 11
4596.502243464724
 21
1078.797654204816
 31
0.0000000000563712
  0
LINE
  5
F365
330
18
100
AcDbEntity
  8
01
100
AcDbLine
 10
4599.502243464724
 20
1079.256954164116
 30
0.0000000000563712
 11
4731.502243464724
 21
1076.525630328007
 31
0.0000000000563712
  0
ARC
  5
F366
330
18
100
AcDbEntity
  8
01
100
AcDbCircle
 10
4731.264691688313
 20
1059.012491053798
 30
0.0000000000563712
 40
17.51475030036995
100
AcDbArc
 50
86.7127687053118
 51
89.22287607326803
  0
LINE
  5
F369
330
18
100
AcDbEntity
  8
01
100
AcDbLine
 10
4734.502243464724
 20
1076.316172807411
 30
0.0000000000563712
 11
4734.502243464724
 21
1072.29857003981
 31
0.0000000000563712
  0
LINE
  5
F36A
330
18
100
AcDbEntity
  8
01
100
AcDbLine
 10
4709.946333377169
 20
1093.21564767751
 30
0.0000000000563712
 11
4733.653875661534
 21
1089.568333479916
 31
0.0000000000563712
  0
LINE
  5
F36B
330
18
100
AcDbEntity
  8
01
100
AcDbLine
 10
4596.502243464724
 20
1078.797654204816
 30
0.0000000000563712
 11
4596.502243464724
 21
1082.077976507884
 31
0.0000000000563712
  0
LINE
  5
F36C
330
18
100
AcDbEntity
  8
01
100
AcDbLine
 10
4734.502243464724
 20
1084.559457905289
 30
0.0000000000563712
 11
4734.502243464724
 21
1076.316172807411
 31
0.0000000000563712
  0
LINE
  5
F36D
330
18
100
AcDbEntity
  8
01
100
AcDbLine
 10
4733.653875661534
 20
1071.307297232785
 30
0.0000000000563712
 11
4709.946333377169
 21
1067.659983035191
 31
0.0000000000563712
  0
ELLIPSE
  5
F36E
330
18
100
AcDbEntity
  8
01
100
AcDbEllipse
 10
4733.502243464724
 20
1088.57706067289
 30
0.0000000000563712
 11
2.178789743915240E-13
 21
-1.002868994438701
 31
0.0
210
0.0
220
0.0
230
1.0
 40
0.9971392131428821
 41
1.57079632679468
 42
2.989373298454157
  0
ELLIPSE
  5
F36F
330
18
100
AcDbEntity
  8
01
100
AcDbEllipse
 10
4733.502243464724
 20
1072.29857003981
 30
0.0000000000563712
 11
-1.871159528430565E-13
 21
-1.002868994438701
 31
0.0
210
0.0
220
0.0
230
-1.0
 40
0.9971392131428819
 41
4.712388980384502
 42
6.130965952044095
  0
ARC
  5
F371
330
18
100
AcDbEntity
  8
01
100
AcDbCircle
 10
4597.50416334922
 20
1074.983955654351
 30
0.0000000000563712
 40
1.001921479881762
100
AcDbArc
 50
179.8977522522845
 51
270.2976830843762
  0
ARC
  5
F372
330
18
100
AcDbEntity
  8
01
100
AcDbCircle
 10
4597.504163349222
 20
1085.891675058348
 30
0.0000000000563712
 40
1.00192147988356
100
AcDbArc
 50
89.702316915728
 51
180.1022477476112
  0
LINE
  5
F373
330
18
100
AcDbEntity
  8
01
100
AcDbLine
 10
4730.824385112062
 20
1085.655514407254
 30
0.0000000000563712
 11
4597.509312145701
 21
1086.893599089678
 31
0.0000000000563712
  0
LINE
  5
F374
330
18
100
AcDbEntity
  8
01
100
AcDbLine
 10
4597.509311925607
 20
1073.982031620975
 30
0.0000000000563712
 11
4730.824385112062
 21
1075.220120120144
 31
0.0000000000563712
  0
TEXT
  5
10076
330
18
100
AcDbEntity
  8
01
  6
CONTINUOUS
100
AcDbText
 10
4971.505147082717
 20
1293.019830375552
 30
0.0000000000563712
 40
4.55
  1
材質：亜鉛ダイキャスト
100
AcDbText
  0
TEXT
  5
10077
330
18
100
AcDbEntity
  8
01
  6
CONTINUOUS
100
AcDbText
 10
4981.81848041605
 20
1285.436497042219
 30
0.0000000000563712
 40
4.55
  1
仕上げ：各種メッキ
100
AcDbText
  0
LINE
  5
10078
330
18
100
AcDbEntity
  8
01
100
AcDbLine
 10
4998.501985989698
 20
1108.436496345116
 30
0.0
 11
4998.501985989698
 21
1211.157989127935
 31
0.0
1001
ACAD
1000
DSTYLE
1002
{
1070
    40
1040
1.3
1070
    45
1040
0.5
1002
}
  0
LINE
  5
10079
330
18
100
AcDbEntity
  8
01
100
AcDbLine
 10
5009.501985989698
 20
1166.307814394405
 30
0.0
 11
5009.501985989698
 21
1211.157989127935
 31
0.0
1001
ACAD
1000
DSTYLE
1002
{
1070
    40
1040
1.3
1070
    45
1040
0.5
1002
}
  0
LINE
  5
1007A
330
18
100
AcDbEntity
  8
01
100
AcDbLine
 10
5001.101985989699
 20
1209.857989127935
 30
0.0
 11
5006.901985989698
 21
1209.857989127935
 31
0.0
1001
ACAD
1000
DSTYLE
1002
{
1070
    40
1040
1.3
1070
    45
1040
0.5
1002
}
  0
LINE
  5
1007E
330
18
100
AcDbEntity
  8
01
100
AcDbLine
 10
5078.501985989698
 20
1138.429124535639
 30
0.0
 11
5106.801985989699
 21
1138.429124535639
 31
0.0
1001
ACAD
1000
DSTYLE
1002
{
1070
    40
1040
1.3
1070
    45
1040
0.5
1002
}
  0
LINE
  5
1007F
330
18
100
AcDbEntity
  8
01
100
AcDbLine
 10
5078.501985989698
 20
1064.436497043247
 30
0.0
 11
5106.801985989699
 21
1064.436497043247
 31
0.0
1001
ACAD
1000
DSTYLE
1002
{
1070
    40
1040
1.3
1070
    45
1040
0.5
1002
}
  0
LINE
  5
10080
330
18
100
AcDbEntity
  8
01
100
AcDbLine
 10
5105.501985989698
 20
1135.829124535639
 30
0.0
 11
5105.501985989698
 21
1067.036497043247
 31
0.0
1001
ACAD
1000
DSTYLE
1002
{
1070
    40
1040
1.3
1070
    45
1040
0.5
1002
}
  0
LINE
  5
10084
330
18
100
AcDbEntity
  8
01
100
AcDbLine
 10
5078.501985989698
 20
1138.429124535639
 30
0.0
 11
5078.501985989698
 21
1221.237856595983
 31
0.0
1001
ACAD
1000
DSTYLE
1002
{
1070
    40
1040
1.3
1070
    45
1040
0.5
1002
}
  0
LINE
  5
10085
330
18
100
AcDbEntity
  8
01
100
AcDbLine
 10
5009.501985989698
 20
1166.307814394405
 30
0.0
 11
5009.501985989698
 21
1221.237856595983
 31
0.0
1001
ACAD
1000
DSTYLE
1002
{
1070
    40
1040
1.3
1070
    45
1040
0.5
1002
}
  0
LINE
  5
10086
330
18
100
AcDbEntity
  8
01
100
AcDbLine
 10
5075.901985989698
 20
1219.937856595983
 30
0.0
 11
5012.101985989699
 21
1219.937856595983
 31
0.0
1001
ACAD
1000
DSTYLE
1002
{
1070
    40
1040
1.3
1070
    45
1040
0.5
1002
}
  0
LINE
  5
1008A
330
18
100
AcDbEntity
  8
01
100
AcDbLine
 10
5009.501985989698
 20
1166.307814394405
 30
0.0
 11
5009.501985989698
 21
1211.157989127935
 31
0.0
1001
ACAD
1000
DSTYLE
1002
{
1070
    40
1040
1.3
1070
    45
1040
0.5
1002
}
  0
LINE
  5
1008B
330
18
100
AcDbEntity
  8
01
100
AcDbLine
 10
5060.501985989698
 20
1130.436497043247
 30
0.0
 11
5060.501985989698
 21
1211.157989127935
 31
0.0
1001
ACAD
1000
DSTYLE
1002
{
1070
    40
1040
1.3
1070
    45
1040
0.5
1002
}
  0
LINE
  5
1008C
330
18
100
AcDbEntity
  8
01
100
AcDbLine
 10
5012.101985989699
 20
1209.857989127935
 30
0.0
 11
5057.901985989698
 21
1209.857989127935
 31
0.0
1001
ACAD
1000
DSTYLE
1002
{
1070
    40
1040
1.3
1070
    45
1040
0.5
1002
}
  0
LINE
  5
10090
330
18
100
AcDbEntity
  8
01
100
AcDbLine
 10
4896.377127737349
 20
1158.436497043246
 30
0.0
 11
4976.663258905556
 21
1158.436497043246
 31
0.0
1001
ACAD
1000
DSTYLE
1002
{
1070
    40
1040
1.3
1070
    45
1040
0.5
1002
}
  0
LINE
  5
10091
330
18
100
AcDbEntity
  8
01
100
AcDbLine
 10
4896.377127737349
 20
1044.436497043246
 30
0.0
 11
4976.663258905556
 21
1044.436497043246
 31
0.0
1001
ACAD
1000
DSTYLE
1002
{
1070
    40
1040
1.3
1070
    45
1040
0.5
1002
}
  0
LINE
  5
10092
330
18
100
AcDbEntity
  8
01
100
AcDbLine
 10
4975.363258905556
 20
1155.836497043246
 30
0.0
 11
4975.363258905556
 21
1047.036497043246
 31
0.0
1001
ACAD
1000
DSTYLE
1002
{
1070
    40
1040
1.3
1070
    45
1040
0.5
1002
}
  0
LINE
  5
10096
330
18
100
AcDbEntity
  8
01
100
AcDbLine
 10
4896.975188134113
 20
1166.33605189883
 30
0.0
 11
4986.027593071781
 21
1166.33605189883
 31
0.0
1001
ACAD
1000
DSTYLE
1002
{
1070
    40
1040
1.3
1070
    45
1040
0.5
1002
}
  0
LINE
  5
10097
330
18
100
AcDbEntity
  8
01
100
AcDbLine
 10
4896.902102329443
 20
1036.536497043247
 30
0.0
 11
4986.027593071781
 21
1036.536497043247
 31
0.0
1001
ACAD
1000
DSTYLE
1002
{
1070
    40
1040
1.3
1070
    45
1040
0.5
1002
}
  0
LINE
  5
10098
330
18
100
AcDbEntity
  8
01
100
AcDbLine
 10
4984.727593071781
 20
1163.73605189883
 30
0.0
 11
4984.727593071781
 21
1039.136497043246
 31
0.0
1001
ACAD
1000
DSTYLE
1002
{
1070
    40
1040
1.3
1070
    45
1040
0.5
1002
}
  0
LINE
  5
1009C
330
18
100
AcDbEntity
  8
01
100
AcDbLine
 10
4878.002102329443
 20
1160.436497043247
 30
0.0
 11
4878.002102329443
 21
1211.157989127935
 31
0.0
1001
ACAD
1000
DSTYLE
1002
{
1070
    40
1040
1.3
1070
    45
1040
0.5
1002
}
  0
LINE
  5
1009D
330
18
100
AcDbEntity
  8
01
100
AcDbLine
 10
4903.002102329443
 20
1160.436497043247
 30
0.0
 11
4903.002102329443
 21
1211.157989127935
 31
0.0
1001
ACAD
1000
DSTYLE
1002
{
1070
    40
1040
1.3
1070
    45
1040
0.5
1002
}
  0
LINE
  5
1009E
330
18
100
AcDbEntity
  8
01
100
AcDbLine
 10
4880.602102329443
 20
1209.857989127935
 30
0.0
 11
4900.402102329443
 21
1209.857989127935
 31
0.0
1001
ACAD
1000
DSTYLE
1002
{
1070
    40
1040
1.3
1070
    45
1040
0.5
1002
}
  0
LINE
  5
100A2
330
18
100
AcDbEntity
  8
01
100
AcDbLine
 10
5034.501985989702
 20
1106.937815356348
 30
0.0
 11
5024.201985989698
 21
1106.937815356348
 31
0.0
1001
ACAD
1000
DSTYLE
1002
{
1070
     3
1000
□<>
1070
    40
1040
1.3
1070
    45
1040
0.5
1002
}
  0
LINE
  5
100A3
330
18
100
AcDbEntity
  8
01
100
AcDbLine
 10
5034.501985989702
 20
1053.937815356348
 30
0.0
 11
5024.201985989698
 21
1053.937815356348
 31
0.0
1001
ACAD
1000
DSTYLE
1002
{
1070
     3
1000
□<>
1070
    40
1040
1.3
1070
    45
1040
0.5
1002
}
  0
LINE
  5
100A4
330
18
100
AcDbEntity
  8
01
100
AcDbLine
 10
5025.501985989698
 20
1104.337815356349
 30
0.0
 11
5025.501985989698
 21
1056.537815356348
 31
0.0
1001
ACAD
1000
DSTYLE
1002
{
1070
     3
1000
□<>
1070
    40
1040
1.3
1070
    45
1040
0.5
1002
}
  0
LINE
  5
100A8
330
18
100
AcDbEntity
  8
01
100
AcDbLine
 10
5049.217661343697
 20
1075.210323977566
 30
0.0
 11
5049.091608487252
 21
1075.192791628933
 31
0.0
  0
LINE
  5
100A9
330
18
100
AcDbEntity
  8
01
100
AcDbLine
 10
5049.091608487252
 20
1075.192791628933
 30
0.0
 11
5049.073923550728
 21
1075.172634768582
 31
0.0
  0
LINE
  5
100AA
330
18
100
AcDbEntity
  8
01
100
AcDbLine
 10
5049.073923550728
 20
1075.172634768582
 30
0.0
 11
5049.121225796822
 21
1075.15232532034
 31
0.0
  0
LINE
  5
100AB
330
18
100
AcDbEntity
  8
01
100
AcDbLine
 10
5049.121225796822
 20
1075.15232532034
 30
0.0
 11
5049.199366055611
 21
1075.131664919949
 31
0.0
  0
LINE
  5
100AC
330
18
100
AcDbEntity
  8
01
100
AcDbLine
 10
5049.199366055611
 20
1075.131664919949
 30
0.0
 11
5049.293360196236
 21
1075.110088992215
 31
0.0
  0
LINE
  5
100AD
330
18
100
AcDbEntity
  8
01
100
AcDbLine
 10
5049.293360196236
 20
1075.110088992215
 30
0.0
 11
5049.395914517525
 21
1075.087231326199
 31
0.0
  0
LINE
  5
100AE
330
18
100
AcDbEntity
  8
01
100
AcDbLine
 10
5049.395914517525
 20
1075.087231326199
 30
0.0
 11
5049.50277181733
 21
1075.062542605496
 31
0.0
  0
LINE
  5
100AF
330
18
100
AcDbEntity
  8
01
100
AcDbLine
 10
5049.50277181733
 20
1075.062542605496
 30
0.0
 11
5049.610804043892
 21
1075.035366702175
 31
0.0
  0
LINE
  5
100B0
330
18
100
AcDbEntity
  8
01
100
AcDbLine
 10
5049.610804043892
 20
1075.035366702175
 30
0.0
 11
5049.731089078072
 21
1075.000576663113
 31
0.0
  0
LINE
  5
100B1
330
18
100
AcDbEntity
  8
01
100
AcDbLine
 10
5071.057871304634
 20
1067.659985232449
 30
0.0
 11
5071.283091031197
 21
1067.639507937527
 31
0.0
  0
LINE
  5
100B2
330
18
100
AcDbEntity
  8
01
100
AcDbLine
 10
5071.283091031197
 20
1067.639507937527
 30
0.0
 11
5071.618463956002
 21
1067.712200808621
 31
0.0
  0
LINE
  5
100B3
330
18
100
AcDbEntity
  8
01
100
AcDbLine
 10
5049.217005215767
 20
1085.66534106741
 30
0.0
 11
5049.09147115815
 21
1085.682873416043
 31
0.0
  0
LINE
  5
100B4
330
18
100
AcDbEntity
  8
01
100
AcDbLine
 10
5049.09147115815
 20
1085.682873416043
 30
0.0
 11
5049.073954068306
 21
1085.702999758816
 31
0.0
  0
LINE
  5
100B5
330
18
100
AcDbEntity
  8
01
100
AcDbLine
 10
5049.073954068306
 20
1085.702999758816
 30
0.0
 11
5049.121149502877
 21
1085.723293948269
 31
0.0
  0
LINE
  5
100B6
330
18
100
AcDbEntity
  8
01
100
AcDbLine
 10
5049.121149502877
 20
1085.723293948269
 30
0.0
 11
5049.199259244087
 21
1085.743939089871
 31
0.0
  0
LINE
  5
100B7
330
18
100
AcDbEntity
  8
01
100
AcDbLine
 10
5049.199259244087
 20
1085.743939089871
 30
0.0
 11
5049.293070279244
 21
1085.765499758816
 31
0.0
  0
LINE
  5
100B8
330
18
100
AcDbEntity
  8
01
100
AcDbLine
 10
5049.293070279244
 20
1085.765499758816
 30
0.0
 11
5049.395685635689
 21
1085.788357424832
 31
0.0
  0
LINE
  5
100B9
330
18
100
AcDbEntity
  8
01
100
AcDbLine
 10
5049.395685635689
 20
1085.788357424832
 30
0.0
 11
5049.502497159127
 21
1085.813015627957
 31
0.0
  0
LINE
  5
100BA
330
18
100
AcDbEntity
  8
01
100
AcDbLine
 10
5049.502497159127
 20
1085.813015627957
 30
0.0
 11
5049.610392056587
 21
1085.84014575491
 31
0.0
  0
LINE
  5
100BB
330
18
100
AcDbEntity
  8
01
100
AcDbLine
 10
5049.610392056587
 20
1085.84014575491
 30
0.0
 11
5049.731089078072
 21
1085.875057864285
 31
0.0
  0
LINE
  5
100BC
330
18
100
AcDbEntity
  8
01
100
AcDbLine
 10
5071.057871304634
 20
1093.215649294949
 30
0.0
 11
5071.283091031197
 21
1093.236126589871
 31
0.0
  0
LINE
  5
100BD
330
18
100
AcDbEntity
  8
01
100
AcDbLine
 10
5071.283091031197
 20
1093.236126589871
 30
0.0
 11
5071.618463956002
 21
1093.163433718777
 31
0.0
  0
LINE
  5
100BE
330
18
100
AcDbEntity
  8
01
100
AcDbLine
 10
5072.501963101509
 20
1092.097485232449
 30
0.0
 11
5072.479441128853
 21
1092.41175525198
 31
0.0
  0
LINE
  5
100BF
330
18
100
AcDbEntity
  8
01
100
AcDbLine
 10
5072.479441128853
 20
1092.41175525198
 30
0.0
 11
5072.365122281197
 21
1092.704144167996
 31
0.0
  0
LINE
  5
100C0
330
18
100
AcDbEntity
  8
01
100
AcDbLine
 10
5072.365122281197
 20
1092.704144167996
 30
0.0
 11
5072.150080166939
 21
1092.932507205105
 31
0.0
  0
LINE
  5
100C1
330
18
100
AcDbEntity
  8
01
100
AcDbLine
 10
5072.150080166939
 20
1092.932507205105
 30
0.0
 11
5071.831247769478
 21
1093.086468386746
 31
0.0
  0
LINE
  5
100C2
330
18
100
AcDbEntity
  8
01
100
AcDbLine
 10
5071.831247769478
 20
1067.789166140652
 30
0.0
 11
5072.117289029244
 21
1067.920773196316
 31
0.0
  0
LINE
  5
100C3
330
18
100
AcDbEntity
  8
01
100
AcDbLine
 10
5072.117289029244
 20
1067.920773196316
 30
0.0
 11
5072.343210660103
 21
1068.138409304715
 31
0.0
  0
LINE
  5
100C4
330
18
100
AcDbEntity
  8
01
100
AcDbLine
 10
5072.343210660103
 20
1068.138409304715
 30
0.0
 11
5072.470819913033
 21
1068.424999880886
 31
0.0
  0
LINE
  5
100C5
330
18
100
AcDbEntity
  8
01
100
AcDbLine
 10
5072.470819913033
 20
1068.424999880886
 30
0.0
 11
5072.501963101509
 21
1068.778149294949
 31
0.0
  0
LINE
  5
100C6
330
18
100
AcDbEntity
  8
01
100
AcDbLine
 10
5046.501963101509
 20
1084.559460330105
 30
0.0
 11
5046.544580899361
 21
1084.538372683621
 31
0.0
  0
LINE
  5
100C7
330
18
100
AcDbEntity
  8
01
100
AcDbLine
 10
5046.544580899361
 20
1084.538372683621
 30
0.0
 11
5046.735727749947
 21
1084.522198367215
 31
0.0
  0
LINE
  5
100C8
330
18
100
AcDbEntity
  8
01
100
AcDbLine
 10
5046.735727749947
 20
1084.522198367215
 30
0.0
 11
5047.070551358345
 21
1084.505581545925
 31
0.0
  0
LINE
  5
100C9
330
18
100
AcDbEntity
  8
01
100
AcDbLine
 10
5047.070551358345
 20
1084.505581545925
 30
0.0
 11
5047.530847989205
 21
1084.473263430691
 31
0.0
  0
LINE
  5
100CA
330
18
100
AcDbEntity
  8
01
100
AcDbLine
 10
5047.530847989205
 20
1084.473263430691
 30
0.0
 11
5048.091516934517
 21
1084.424954104519
 31
0.0
  0
LINE
  5
100CB
330
18
100
AcDbEntity
  8
01
100
AcDbLine
 10
5048.091516934517
 20
1084.424954104519
 30
0.0
 11
5048.73519369233
 21
1084.377209353543
 31
0.0
  0
LINE
  5
100CC
330
18
100
AcDbEntity
  8
01
100
AcDbLine
 10
5181.50194784272
 20
1081.618679690457
 30
0.0
 11
5182.166285000923
 21
1081.621945071316
 31
0.0
  0
LINE
  5
100CD
330
18
100
AcDbEntity
  8
01
100
AcDbLine
 10
5182.166285000923
 20
1081.621945071316
 30
0.0
 11
5182.797602139595
 21
1081.649899172879
 31
0.0
  0
LINE
  5
100CE
330
18
100
AcDbEntity
  8
01
100
AcDbLine
 10
5182.797602139595
 20
1081.649899172879
 30
0.0
 11
5183.364618741158
 21
1081.701183962918
 31
0.0
  0
LINE
  5
100CF
330
18
100
AcDbEntity
  8
01
100
AcDbLine
 10
5183.364618741158
 20
1081.701183962918
 30
0.0
 11
5183.839136563423
 21
1081.773220706082
 31
0.0
  0
LINE
  5
100D0
330
18
100
AcDbEntity
  8
01
100
AcDbLine
 10
5183.839136563423
 20
1081.773220706082
 30
0.0
 11
5184.19759603608
 21
1081.86243884573
 31
0.0
  0
LINE
  5
100D1
330
18
100
AcDbEntity
  8
01
100
AcDbLine
 10
5184.19759603608
 20
1081.86243884573
 30
0.0
 11
5184.422235928658
 21
1081.964413333035
 31
0.0
  0
LINE
  5
100D2
330
18
100
AcDbEntity
  8
01
100
AcDbLine
 10
5184.422235928658
 20
1081.964413333035
 30
0.0
 11
5184.50194784272
 21
1082.077969241238
 31
0.0
  0
LINE
  5
100D3
330
18
100
AcDbEntity
  8
01
100
AcDbLine
 10
5181.50194784272
 20
1079.256954836941
 30
0.0
 11
5182.166285000923
 21
1079.253689456082
 31
0.0
  0
LINE
  5
100D4
330
18
100
AcDbEntity
  8
01
100
AcDbLine
 10
5182.166285000923
 20
1079.253689456082
 30
0.0
 11
5182.797602139595
 21
1079.22572009573
 31
0.0
  0
LINE
  5
100D5
330
18
100
AcDbEntity
  8
01
100
AcDbLine
 10
5182.797602139595
 20
1079.22572009573
 30
0.0
 11
5183.364618741158
 21
1079.17445056448
 31
0.0
  0
LINE
  5
100D6
330
18
100
AcDbEntity
  8
01
100
AcDbLine
 10
5183.364618741158
 20
1079.17445056448
 30
0.0
 11
5183.839136563423
 21
1079.102413821316
 31
0.0
  0
LINE
  5
100D7
330
18
100
AcDbEntity
  8
01
100
AcDbLine
 10
5183.839136563423
 20
1079.102413821316
 30
0.0
 11
5184.19759603608
 21
1079.013195681668
 31
0.0
  0
LINE
  5
100D8
330
18
100
AcDbEntity
  8
01
100
AcDbLine
 10
5184.19759603608
 20
1079.013195681668
 30
0.0
 11
5184.422235928658
 21
1078.911221194363
 31
0.0
  0
LINE
  5
100D9
330
18
100
AcDbEntity
  8
01
100
AcDbLine
 10
5184.422235928658
 20
1078.911221194363
 30
0.0
 11
5184.50194784272
 21
1078.797650027371
 31
0.0
  0
LINE
  5
100DA
330
18
100
AcDbEntity
  8
01
100
AcDbLine
 10
5046.544580899361
 20
1076.337261843777
 30
0.0
 11
5046.735727749947
 21
1076.353436160183
 31
0.0
  0
LINE
  5
100DB
330
18
100
AcDbEntity
  8
01
100
AcDbLine
 10
5046.735727749947
 20
1076.353436160183
 30
0.0
 11
5047.070551358345
 21
1076.370052981472
 31
0.0
  0
LINE
  5
100DC
330
18
100
AcDbEntity
  8
01
100
AcDbLine
 10
5047.070551358345
 20
1076.370052981472
 30
0.0
 11
5047.530847989205
 21
1076.402355837918
 31
0.0
  0
LINE
  5
100DD
330
18
100
AcDbEntity
  8
01
100
AcDbLine
 10
5047.530847989205
 20
1076.402355837918
 30
0.0
 11
5048.091516934517
 21
1076.450680422879
 31
0.0
  0
LINE
  5
100DE
330
18
100
AcDbEntity
  8
01
100
AcDbLine
 10
5048.091516934517
 20
1076.450680422879
 30
0.0
 11
5048.73519369233
 21
1076.498425173855
 31
0.0
  0
LINE
  5
100DF
330
18
100
AcDbEntity
  8
01
100
AcDbLine
 10
5046.501963101509
 20
1076.316174197293
 30
0.0
 11
5046.544580899361
 21
1076.337261843777
 31
0.0
  0
LINE
  5
100E0
330
18
100
AcDbEntity
  8
01
100
AcDbLine
 10
5060.456476651314
 20
1069.451855349636
 30
0.0
 11
5059.750391446236
 21
1069.566128420925
 31
0.0
  0
LINE
  5
100E1
330
18
100
AcDbEntity
  8
01
100
AcDbLine
 10
5059.750391446236
 20
1069.566128420925
 30
0.0
 11
5059.075022183541
 21
1069.686611819363
 31
0.0
  0
LINE
  5
100E2
330
18
100
AcDbEntity
  8
01
100
AcDbLine
 10
5059.075022183541
 20
1069.686611819363
 30
0.0
 11
5058.460215054634
 21
1069.808102297879
 31
0.0
  0
LINE
  5
100E3
330
18
100
AcDbEntity
  8
01
100
AcDbLine
 10
5058.460215054634
 20
1069.808102297879
 30
0.0
 11
5057.931986294869
 21
1069.925335574246
 31
0.0
  0
LINE
  5
100E4
330
18
100
AcDbEntity
  8
01
100
AcDbLine
 10
5057.931986294869
 20
1069.925335574246
 30
0.0
 11
5057.514276944283
 21
1070.033108401394
 31
0.0
  0
LINE
  5
100E5
330
18
100
AcDbEntity
  8
01
100
AcDbLine
 10
5057.514276944283
 20
1070.033108401394
 30
0.0
 11
5057.224512539986
 21
1070.126827883816
 31
0.0
  0
LINE
  5
100E6
330
18
100
AcDbEntity
  8
01
100
AcDbLine
 10
5057.224512539986
 20
1070.126827883816
 30
0.0
 11
5057.075922452095
 21
1070.202297854519
 31
0.0
  0
LINE
  5
100E7
330
18
100
AcDbEntity
  8
01
100
AcDbLine
 10
5057.075922452095
 20
1070.202297854519
 30
0.0
 11
5057.074671231392
 21
1070.2563139678
 31
0.0
  0
LINE
  5
100E8
330
18
100
AcDbEntity
  8
01
100
AcDbLine
 10
5057.074671231392
 20
1070.2563139678
 30
0.0
 11
5057.220758877877
 21
1070.286495852566
 31
0.0
  0
LINE
  5
100E9
330
18
100
AcDbEntity
  8
01
100
AcDbLine
 10
5057.220758877877
 20
1070.286495852566
 30
0.0
 11
5057.508234463814
 21
1070.29148547659
 31
0.0
  0
LINE
  5
100EA
330
18
100
AcDbEntity
  8
01
100
AcDbLine
 10
5057.508234463814
 20
1070.29148547659
 30
0.0
 11
5057.923868619087
 21
1070.271176028347
 31
0.0
  0
LINE
  5
100EB
330
18
100
AcDbEntity
  8
01
100
AcDbLine
 10
5057.923868619087
 20
1070.271176028347
 30
0.0
 11
5058.450388394478
 21
1070.226269412136
 31
0.0
  0
LINE
  5
100EC
330
18
100
AcDbEntity
  8
01
100
AcDbLine
 10
5058.450388394478
 20
1070.226269412136
 30
0.0
 11
5059.06395956147
 21
1070.158947634793
 31
0.0
  0
LINE
  5
100ED
330
18
100
AcDbEntity
  8
01
100
AcDbLine
 10
5059.06395956147
 20
1070.158947634793
 30
0.0
 11
5059.738581143502
 21
1070.071926760769
 31
0.0
  0
LINE
  5
100EE
330
18
100
AcDbEntity
  8
01
100
AcDbLine
 10
5059.738581143502
 20
1070.071926760769
 30
0.0
 11
5060.44433065522
 21
1069.969189334011
 31
0.0
  0
LINE
  5
100EF
330
18
100
AcDbEntity
  8
01
100
AcDbLine
 10
5060.44433065522
 20
1069.969189334011
 30
0.0
 11
5061.150614224556
 21
1069.855068850613
 31
0.0
  0
LINE
  5
100F0
330
18
100
AcDbEntity
  8
01
100
AcDbLine
 10
5061.150614224556
 20
1069.855068850613
 30
0.0
 11
5061.826807461861
 21
1069.734631228543
 31
0.0
  0
LINE
  5
100F1
330
18
100
AcDbEntity
  8
01
100
AcDbLine
 10
5061.826807461861
 20
1069.734631228543
 30
0.0
 11
5062.442911587837
 21
1069.613125491238
 31
0.0
  0
LINE
  5
100F2
330
18
100
AcDbEntity
  8
01
100
AcDbLine
 10
5062.442911587837
 20
1069.613125491238
 30
0.0
 11
5062.9728188144
 21
1069.495770144558
 31
0.0
  0
LINE
  5
100F3
330
18
100
AcDbEntity
  8
01
100
AcDbLine
 10
5062.9728188144
 20
1069.495770144558
 30
0.0
 11
5063.392557583931
 21
1069.387798953152
 31
0.0
  0
LINE
  5
100F4
330
18
100
AcDbEntity
  8
01
100
AcDbLine
 10
5063.392557583931
 20
1069.387798953152
 30
0.0
 11
5063.684626065377
 21
1069.293804812527
 31
0.0
  0
LINE
  5
100F5
330
18
100
AcDbEntity
  8
01
100
AcDbLine
 10
5063.684626065377
 20
1069.293804812527
 30
0.0
 11
5063.835718594673
 21
1069.217983889675
 31
0.0
  0
LINE
  5
100F6
330
18
100
AcDbEntity
  8
01
100
AcDbLine
 10
5063.835718594673
 20
1069.217983889675
 30
0.0
 11
5063.839487515572
 21
1069.163586306668
 31
0.0
  0
LINE
  5
100F7
330
18
100
AcDbEntity
  8
01
100
AcDbLine
 10
5063.839487515572
 20
1069.163586306668
 30
0.0
 11
5063.695902310494
 21
1069.132977175808
 31
0.0
  0
LINE
  5
100F8
330
18
100
AcDbEntity
  8
01
100
AcDbLine
 10
5063.695902310494
 20
1069.132977175808
 30
0.0
 11
5063.410730801705
 21
1069.127560305691
 31
0.0
  0
LINE
  5
100F9
330
18
100
AcDbEntity
  8
01
100
AcDbLine
 10
5063.410730801705
 20
1069.127560305691
 30
0.0
 11
5062.997156582955
 21
1069.14744250784
 31
0.0
  0
LINE
  5
100FA
330
18
100
AcDbEntity
  8
01
100
AcDbLine
 10
5062.997156582955
 20
1069.14744250784
 30
0.0
 11
5062.47233053315
 21
1069.191937136746
 31
0.0
  0
LINE
  5
100FB
330
18
100
AcDbEntity
  8
01
100
AcDbLine
 10
5062.47233053315
 20
1069.191937136746
 30
0.0
 11
5061.860056363228
 21
1069.258907961941
 31
0.0
  0
LINE
  5
100FC
330
18
100
AcDbEntity
  8
01
100
AcDbLine
 10
5061.860056363228
 20
1069.258907961941
 30
0.0
 11
5061.186274014595
 21
1069.345608401394
 31
0.0
  0
LINE
  5
100FD
330
18
100
AcDbEntity
  8
01
100
AcDbLine
 10
5061.186274014595
 20
1069.345608401394
 30
0.0
 11
5060.456476651314
 21
1069.451855349636
 31
0.0
  0
LINE
  5
100FE
330
18
100
AcDbEntity
  8
01
100
AcDbLine
 10
5050.179819546822
 20
1085.655514407254
 30
0.0
 11
5050.06835409272
 21
1085.654568362332
 31
0.0
  0
LINE
  5
100FF
330
18
100
AcDbEntity
  8
01
100
AcDbLine
 10
5050.06835409272
 20
1085.654568362332
 30
0.0
 11
5049.956613980416
 21
1085.6537749053
 31
0.0
  0
LINE
  5
10100
330
18
100
AcDbEntity
  8
01
100
AcDbLine
 10
5049.956613980416
 20
1085.6537749053
 30
0.0
 11
5049.844736539009
 21
1085.653256106472
 31
0.0
  0
LINE
  5
10101
330
18
100
AcDbEntity
  8
01
100
AcDbLine
 10
5049.844736539009
 20
1085.653256106472
 30
0.0
 11
5049.732660733345
 21
1085.65313403616
 31
0.0
  0
LINE
  5
10102
330
18
100
AcDbEntity
  8
01
100
AcDbLine
 10
5049.732660733345
 20
1085.65313403616
 30
0.0
 11
5049.620386563423
 21
1085.653561282254
 31
0.0
  0
LINE
  5
10103
330
18
100
AcDbEntity
  8
01
100
AcDbLine
 10
5049.620386563423
 20
1085.653561282254
 30
0.0
 11
5049.50814291108
 21
1085.654781985379
 31
0.0
  0
LINE
  5
10104
330
18
100
AcDbEntity
  8
01
100
AcDbLine
 10
5049.50814291108
 20
1085.654781985379
 30
0.0
 11
5049.396936856392
 21
1085.657147097683
 31
0.0
  0
LINE
  5
10105
330
18
100
AcDbEntity
  8
01
100
AcDbLine
 10
5049.396936856392
 20
1085.657147097683
 30
0.0
 11
5049.289637051705
 21
1085.66109912405
 31
0.0
  0
LINE
  5
10106
330
18
100
AcDbEntity
  8
01
100
AcDbLine
 10
5049.289637051705
 20
1085.66109912405
 30
0.0
 11
5049.212534390572
 21
1085.665737795925
 31
0.0
  0
LINE
  5
10107
330
18
100
AcDbEntity
  8
01
100
AcDbLine
 10
5050.179819546822
 20
1075.220120120144
 30
0.0
 11
5050.079233609322
 21
1075.220974612332
 31
0.0
  0
LINE
  5
10108
330
18
100
AcDbEntity
  8
01
100
AcDbLine
 10
5050.079233609322
 20
1075.220974612332
 30
0.0
 11
5049.978586636666
 21
1075.221722292996
 31
0.0
  0
LINE
  5
10109
330
18
100
AcDbEntity
  8
01
100
AcDbLine
 10
5049.978586636666
 20
1075.221722292996
 30
0.0
 11
5049.877817593697
 21
1075.222271609402
 31
0.0
  0
LINE
  5
1010A
330
18
100
AcDbEntity
  8
01
100
AcDbLine
 10
5049.877817593697
 20
1075.222271609402
 30
0.0
 11
5049.776865445259
 21
1075.222515750027
 31
0.0
  0
LINE
  5
1010B
330
18
100
AcDbEntity
  8
01
100
AcDbLine
 10
5049.776865445259
 20
1075.222515750027
 30
0.0
 11
5049.675699673775
 21
1075.222363162136
 31
0.0
  0
LINE
  5
1010C
330
18
100
AcDbEntity
  8
01
100
AcDbLine
 10
5049.675699673775
 20
1075.222363162136
 30
0.0
 11
5049.574472867134
 21
1075.221676516629
 31
0.0
  0
LINE
  5
1010D
330
18
100
AcDbEntity
  8
01
100
AcDbLine
 10
5049.574472867134
 20
1075.221676516629
 30
0.0
 11
5049.473459683541
 21
1075.220242190457
 31
0.0
  0
LINE
  5
1010E
330
18
100
AcDbEntity
  8
01
100
AcDbLine
 10
5049.473459683541
 20
1075.220242190457
 30
0.0
 11
5049.37369772065
 21
1075.217800784207
 31
0.0
  0
LINE
  5
1010F
330
18
100
AcDbEntity
  8
01
100
AcDbLine
 10
5049.37369772065
 20
1075.217800784207
 30
0.0
 11
5049.278086148384
 21
1075.213970828152
 31
0.0
  0
LINE
  5
10110
330
18
100
AcDbEntity
  8
01
100
AcDbLine
 10
5049.278086148384
 20
1075.213970828152
 30
0.0
 11
5049.212610684517
 21
1075.209911990261
 31
0.0
  0
LINE
  5
10111
330
18
100
AcDbEntity
  8
01
100
AcDbLine
 10
4973.005840095673
 20
1084.538410465297
 30
0.0
 11
4973.659877571259
 21
1084.522304217395
 31
0.0
  0
LINE
  5
10112
330
18
100
AcDbEntity
  8
01
100
AcDbLine
 10
4973.659877571259
 20
1084.522304217395
 30
0.0
 11
4974.254314216767
 21
1084.505820076045
 31
0.0
  0
LINE
  5
10113
330
18
100
AcDbEntity
  8
01
100
AcDbLine
 10
4974.254314216767
 20
1084.505820076045
 30
0.0
 11
4974.757510933076
 21
1084.473879139003
 31
0.0
  0
LINE
  5
10114
330
18
100
AcDbEntity
  8
01
100
AcDbLine
 10
4974.757510933076
 20
1084.473879139003
 30
0.0
 11
4975.143962654267
 21
1084.425919096049
 31
0.0
  0
LINE
  5
10115
330
18
100
AcDbEntity
  8
01
100
AcDbLine
 10
4975.143962654267
 20
1084.425919096049
 30
0.0
 11
4975.402347358857
 21
1084.377252499637
 31
0.0
  0
LINE
  5
10116
330
18
100
AcDbEntity
  8
01
100
AcDbLine
 10
4975.402347358857
 20
1084.377252499637
 30
0.0
 11
4975.423770698701
 21
1084.372487823543
 31
0.0
  0
LINE
  5
10117
330
18
100
AcDbEntity
  8
01
100
AcDbLine
 10
4975.423770698701
 20
1084.372487823543
 30
0.0
 11
4975.501987251435
 21
1084.350045125064
 31
0.0
  0
LINE
  5
10118
330
18
100
AcDbEntity
  8
01
100
AcDbLine
 10
4975.402347358857
 20
1076.498467843112
 30
0.0
 11
4975.423770698701
 21
1076.503232399997
 31
0.0
  0
LINE
  5
10119
330
18
100
AcDbEntity
  8
01
100
AcDbLine
 10
4975.423770698701
 20
1076.503232399997
 30
0.0
 11
4975.501987251435
 21
1076.525675217685
 31
0.0
  0
LINE
  5
1011A
330
18
100
AcDbEntity
  8
01
100
AcDbLine
 10
4973.005840095673
 20
1076.337309281405
 30
0.0
 11
4973.659877571259
 21
1076.353415886935
 31
0.0
  0
LINE
  5
1011B
330
18
100
AcDbEntity
  8
01
100
AcDbLine
 10
4973.659877571259
 20
1076.353415886935
 30
0.0
 11
4974.254314216767
 21
1076.369900147494
 31
0.0
  0
LINE
  5
1011C
330
18
100
AcDbEntity
  8
01
100
AcDbLine
 10
4974.254314216767
 20
1076.369900147494
 30
0.0
 11
4974.75751856247
 21
1076.401841084536
 31
0.0
  0
LINE
  5
1011D
330
18
100
AcDbEntity
  8
01
100
AcDbLine
 10
4974.75751856247
 20
1076.401841084536
 30
0.0
 11
4975.143970283661
 21
1076.449800889071
 31
0.0
  0
LINE
  5
1011E
330
18
100
AcDbEntity
  8
01
100
AcDbLine
 10
4975.143970283661
 20
1076.449800889071
 30
0.0
 11
4975.402347358857
 21
1076.498467843112
 31
0.0
  0
LINE
  5
1011F
330
18
100
AcDbEntity
  8
01
100
AcDbLine
 10
4921.624404701386
 20
1069.451894681033
 30
0.0
 11
4921.698934349213
 21
1069.5661982699
 31
0.0
  0
LINE
  5
10120
330
18
100
AcDbEntity
  8
01
100
AcDbLine
 10
4921.698934349213
 20
1069.5661982699
 30
0.0
 11
4921.917867454682
 21
1069.68671981531
 31
0.0
  0
LINE
  5
10121
330
18
100
AcDbEntity
  8
01
100
AcDbLine
 10
4921.917867454682
 20
1069.68671981531
 30
0.0
 11
4922.272899421845
 21
1069.808236996707
 31
0.0
  0
LINE
  5
10122
330
18
100
AcDbEntity
  8
01
100
AcDbLine
 10
4922.272899421845
 20
1069.808236996707
 30
0.0
 11
4922.74757173935
 21
1069.925491253909
 31
0.0
  0
LINE
  5
10123
330
18
100
AcDbEntity
  8
01
100
AcDbLine
 10
4922.74757173935
 20
1069.925491253909
 30
0.0
 11
4923.321786674653
 21
1070.033275525149
 31
0.0
  0
LINE
  5
10124
330
18
100
AcDbEntity
  8
01
100
AcDbLine
 10
4923.321786674653
 20
1070.033275525149
 30
0.0
 11
4923.970248970185
 21
1070.126994053897
 31
0.0
  0
LINE
  5
10125
330
18
100
AcDbEntity
  8
01
100
AcDbLine
 10
4923.970248970185
 20
1070.126994053897
 30
0.0
 11
4924.664594444428
 21
1070.20245734888
 31
0.0
  0
LINE
  5
10126
330
18
100
AcDbEntity
  8
01
100
AcDbLine
 10
4924.664594444428
 20
1070.20245734888
 30
0.0
 11
4925.374814781342
 21
1070.256445805606
 31
0.0
  0
LINE
  5
10127
330
18
100
AcDbEntity
  8
01
100
AcDbLine
 10
4925.374814781342
 20
1070.256445805606
 30
0.0
 11
4926.069574150239
 21
1070.28658096033
 31
0.0
  0
LINE
  5
10128
330
18
100
AcDbEntity
  8
01
100
AcDbLine
 10
4926.069574150239
 20
1070.28658096033
 30
0.0
 11
4926.718831810151
 21
1070.291510502871
 31
0.0
  0
LINE
  5
10129
330
18
100
AcDbEntity
  8
01
100
AcDbLine
 10
4926.718831810151
 20
1070.291510502871
 30
0.0
 11
4927.294214042817
 21
1070.271118084964
 31
0.0
  0
LINE
  5
1012A
330
18
100
AcDbEntity
  8
01
100
AcDbLine
 10
4927.294214042817
 20
1070.271118084964
 30
0.0
 11
4927.770343574677
 21
1070.226142804202
 31
0.0
  0
LINE
  5
1012B
330
18
100
AcDbEntity
  8
01
100
AcDbLine
 10
4927.770343574677
 20
1070.226142804202
 30
0.0
 11
4928.127090248261
 21
1070.158730427798
 31
0.0
  0
LINE
  5
1012C
330
18
100
AcDbEntity
  8
01
100
AcDbLine
 10
4928.127090248261
 20
1070.158730427798
 30
0.0
 11
4928.347896370087
 21
1070.071628491458
 31
0.0
  0
LINE
  5
1012D
330
18
100
AcDbEntity
  8
01
100
AcDbLine
 10
4928.347896370087
 20
1070.071628491458
 30
0.0
 11
4928.424392494355
 21
1069.968812863406
 31
0.0
  0
LINE
  5
1012E
330
18
100
AcDbEntity
  8
01
100
AcDbLine
 10
4928.424392494355
 20
1069.968812863406
 30
0.0
 11
4928.351825508271
 21
1069.854636113223
 31
0.0
  0
LINE
  5
1012F
330
18
100
AcDbEntity
  8
01
100
AcDbLine
 10
4928.351825508271
 20
1069.854636113223
 30
0.0
 11
4928.13476541916
 21
1069.734154622134
 31
0.0
  0
LINE
  5
10130
330
18
100
AcDbEntity
  8
01
100
AcDbLine
 10
4928.13476541916
 20
1069.734154622134
 30
0.0
 11
4927.781451973115
 21
1069.61261359888
 31
0.0
  0
LINE
  5
10131
330
18
100
AcDbEntity
  8
01
100
AcDbLine
 10
4927.781451973115
 20
1069.61261359888
 30
0.0
 11
4927.308238777314
 21
1069.495269696292
 31
0.0
  0
LINE
  5
10132
330
18
100
AcDbEntity
  8
01
100
AcDbLine
 10
4927.308238777314
 20
1069.495269696292
 30
0.0
 11
4926.73519686142
 21
1069.387329022464
 31
0.0
  0
LINE
  5
10133
330
18
100
AcDbEntity
  8
01
100
AcDbLine
 10
4926.73519686142
 20
1069.387329022464
 30
0.0
 11
4926.087535652314
 21
1069.293395916995
 31
0.0
  0
LINE
  5
10134
330
18
100
AcDbEntity
  8
01
100
AcDbLine
 10
4926.087535652314
 20
1069.293395916995
 30
0.0
 11
4925.39360979477
 21
1069.217664639529
 31
0.0
  0
LINE
  5
10135
330
18
100
AcDbEntity
  8
01
100
AcDbLine
 10
4925.39360979477
 20
1069.217664639529
 30
0.0
 11
4924.683395179902
 21
1069.163375775393
 31
0.0
  0
LINE
  5
10136
330
18
100
AcDbEntity
  8
01
100
AcDbLine
 10
4924.683395179902
 20
1069.163375775393
 30
0.0
 11
4923.988225731049
 21
1069.132909695682
 31
0.0
  0
LINE
  5
10137
330
18
100
AcDbEntity
  8
01
100
AcDbLine
 10
4923.988225731049
 20
1069.132909695682
 30
0.0
 11
4923.338178428803
 21
1069.127643506106
 31
0.0
  0
LINE
  5
10138
330
18
100
AcDbEntity
  8
01
100
AcDbLine
 10
4923.338178428803
 20
1069.127643506106
 30
0.0
 11
4922.761632713471
 21
1069.147701184329
 31
0.0
  0
LINE
  5
10139
330
18
100
AcDbEntity
  8
01
100
AcDbLine
 10
4922.761632713471
 20
1069.147701184329
 30
0.0
 11
4922.284047874604
 21
1069.192365567264
 31
0.0
  0
LINE
  5
1013A
330
18
100
AcDbEntity
  8
01
100
AcDbLine
 10
4922.284047874604
 20
1069.192365567264
 30
0.0
 11
4921.925588401948
 21
1069.259491841372
 31
0.0
  0
LINE
  5
1013B
330
18
100
AcDbEntity
  8
01
100
AcDbLine
 10
4921.925588401948
 20
1069.259491841372
 30
0.0
 11
4921.70291498581
 21
1069.346348683413
 31
0.0
  0
LINE
  5
1013C
330
18
100
AcDbEntity
  8
01
100
AcDbLine
 10
4921.70291498581
 20
1069.346348683413
 30
0.0
 11
4921.624404701386
 21
1069.451894681033
 31
0.0
  0
LINE
  5
1013D
330
18
100
AcDbEntity
  8
01
100
AcDbLine
 10
4975.501987251435
 20
1076.525675217685
 30
0.0
 11
4975.470096382294
 21
1076.275329510745
 31
0.0
  0
LINE
  5
1013E
330
18
100
AcDbEntity
  8
01
100
AcDbLine
 10
4975.470096382294
 20
1076.275329510745
 30
0.0
 11
4975.37665918747
 21
1076.040685574588
 31
0.0
  0
LINE
  5
1013F
330
18
100
AcDbEntity
  8
01
100
AcDbLine
 10
4975.37665918747
 20
1076.040685574588
 30
0.0
 11
4975.228153022919
 21
1075.837649743136
 31
0.0
  0
LINE
  5
10140
330
18
100
AcDbEntity
  8
01
100
AcDbLine
 10
4975.228153022919
 20
1075.837649743136
 30
0.0
 11
4975.03819635788
 21
1075.680528561648
 31
0.0
  0
LINE
  5
10141
330
18
100
AcDbEntity
  8
01
100
AcDbLine
 10
4975.03819635788
 20
1075.680528561648
 30
0.0
 11
4974.863811287079
 21
1075.590548913058
 31
0.0
  0
LINE
  5
10142
330
18
100
AcDbEntity
  8
01
100
AcDbLine
 10
4974.863811287079
 20
1075.590548913058
 30
0.0
 11
4974.747745308076
 21
1075.548446576175
 31
0.0
  0
LINE
  5
10143
330
18
100
AcDbEntity
  8
01
100
AcDbLine
 10
4974.747745308076
 20
1085.327273289737
 30
0.0
 11
4974.850185188447
 21
1085.290691296634
 31
0.0
  0
LINE
  5
10144
330
18
100
AcDbEntity
  8
01
100
AcDbLine
 10
4974.850185188447
 20
1085.290691296634
 30
0.0
 11
4975.017291816865
 21
1085.208242098865
 31
0.0
  0
LINE
  5
10145
330
18
100
AcDbEntity
  8
01
100
AcDbLine
 10
4975.017291816865
 20
1085.208242098865
 30
0.0
 11
4975.210315498505
 21
1085.056496064242
 31
0.0
  0
LINE
  5
10146
330
18
100
AcDbEntity
  8
01
100
AcDbLine
 10
4975.210315498505
 20
1085.056496064242
 30
0.0
 11
4975.364253791962
 21
1084.856778900203
 31
0.0
  0
LINE
  5
10147
330
18
100
AcDbEntity
  8
01
100
AcDbLine
 10
4975.364253791962
 20
1084.856778900203
 30
0.0
 11
4975.463748726044
 21
1084.623845974978
 31
0.0
  0
LINE
  5
10148
330
18
100
AcDbEntity
  8
01
100
AcDbLine
 10
4975.463748726044
 20
1084.623845974978
 30
0.0
 11
4975.501987251435
 21
1084.350045125064
 31
0.0
  0
LINE
  5
10149
330
18
100
AcDbEntity
  8
01
100
AcDbLine
 10
4971.117000373994
 20
1085.963999192294
 30
0.0
 11
4971.267490181122
 21
1085.94281927782
 31
0.0
  0
LINE
  5
1014A
330
18
100
AcDbEntity
  8
01
100
AcDbLine
 10
4971.267490181122
 20
1085.94281927782
 30
0.0
 11
4971.418445381318
 21
1085.921544949588
 31
0.0
  0
LINE
  5
1014B
330
18
100
AcDbEntity
  8
01
100
AcDbLine
 10
4971.418445381318
 20
1085.921544949588
 30
0.0
 11
4971.569385322724
 21
1085.900290410098
 31
0.0
  0
LINE
  5
1014C
330
18
100
AcDbEntity
  8
01
100
AcDbLine
 10
4971.569385322724
 20
1085.900290410098
 30
0.0
 11
4971.721225532685
 21
1085.878958622989
 31
0.0
  0
LINE
  5
1014D
330
18
100
AcDbEntity
  8
01
100
AcDbLine
 10
4971.721225532685
 20
1085.878958622989
 30
0.0
 11
4971.873752388154
 21
1085.857597748813
 31
0.0
  0
LINE
  5
1014E
330
18
100
AcDbEntity
  8
01
100
AcDbLine
 10
4971.873752388154
 20
1085.857597748813
 30
0.0
 11
4972.027461799775
 21
1085.836153189715
 31
0.0
  0
LINE
  5
1014F
330
18
100
AcDbEntity
  8
01
100
AcDbLine
 10
4972.027461799775
 20
1085.836153189715
 30
0.0
 11
4972.182552131806
 21
1085.814613263186
 31
0.0
  0
LINE
  5
10150
330
18
100
AcDbEntity
  8
01
100
AcDbLine
 10
4972.182552131806
 20
1085.814613263186
 30
0.0
 11
4972.339336189423
 21
1085.792957942065
 31
0.0
  0
LINE
  5
10151
330
18
100
AcDbEntity
  8
01
100
AcDbLine
 10
4972.339336189423
 20
1085.792957942065
 30
0.0
 11
4972.498126777802
 21
1085.771158854541
 31
0.0
  0
LINE
  5
10152
330
18
100
AcDbEntity
  8
01
100
AcDbLine
 10
4972.498126777802
 20
1085.771158854541
 30
0.0
 11
4972.659099373017
 21
1085.749206702289
 31
0.0
  0
LINE
  5
10153
330
18
100
AcDbEntity
  8
01
100
AcDbLine
 10
4972.659099373017
 20
1085.749206702289
 30
0.0
 11
4972.821895393525
 21
1085.727155129489
 31
0.0
  0
LINE
  5
10154
330
18
100
AcDbEntity
  8
01
100
AcDbLine
 10
4972.821895393525
 20
1085.727155129489
 30
0.0
 11
4972.983936103974
 21
1085.705334345874
 31
0.0
  0
LINE
  5
10155
330
18
100
AcDbEntity
  8
01
100
AcDbLine
 10
4972.983936103974
 20
1085.705334345874
 30
0.0
 11
4973.13650873581
 21
1085.684834639605
 31
0.0
  0
LINE
  5
10156
330
18
100
AcDbEntity
  8
01
100
AcDbLine
 10
4973.13650873581
 20
1085.684834639605
 30
0.0
 11
4973.259929451142
 21
1085.668110529956
 31
0.0
  0
LINE
  5
10157
330
18
100
AcDbEntity
  8
01
100
AcDbLine
 10
4973.259929451142
 20
1085.668110529956
 30
0.0
 11
4973.343173774872
 21
1085.656454007205
 31
0.0
  0
LINE
  5
10158
330
18
100
AcDbEntity
  8
01
100
AcDbLine
 10
4973.343173774872
 20
1085.656454007205
 30
0.0
 11
4973.399173530732
 21
1085.647876898822
 31
0.0
  0
LINE
  5
10159
330
18
100
AcDbEntity
  8
01
100
AcDbLine
 10
4973.399173530732
 20
1085.647876898822
 30
0.0
 11
4973.497356208954
 21
1085.627919117984
 31
0.0
  0
LINE
  5
1015A
330
18
100
AcDbEntity
  8
01
100
AcDbLine
 10
4971.117000373994
 20
1074.91172019678
 30
0.0
 11
4971.394580635224
 21
1074.950800816592
 31
0.0
  0
LINE
  5
1015B
330
18
100
AcDbEntity
  8
01
100
AcDbLine
 10
4971.394580635224
 20
1074.950800816592
 30
0.0
 11
4971.673175605927
 21
1074.990004460391
 31
0.0
  0
LINE
  5
1015C
330
18
100
AcDbEntity
  8
01
100
AcDbLine
 10
4971.673175605927
 20
1074.990004460391
 30
0.0
 11
4971.954433235322
 21
1075.029388825473
 31
0.0
  0
LINE
  5
1015D
330
18
100
AcDbEntity
  8
01
100
AcDbLine
 10
4971.954433235322
 20
1075.029388825473
 30
0.0
 11
4972.24002436081
 21
1075.069058816012
 31
0.0
  0
LINE
  5
1015E
330
18
100
AcDbEntity
  8
01
100
AcDbLine
 10
4972.24002436081
 20
1075.069058816012
 30
0.0
 11
4972.531749519501
 21
1075.109157483157
 31
0.0
  0
LINE
  5
1015F
330
18
100
AcDbEntity
  8
01
100
AcDbLine
 10
4972.531749519501
 20
1075.109157483157
 30
0.0
 11
4972.830333503876
 21
1075.149704854068
 31
0.0
  0
LINE
  5
10160
330
18
100
AcDbEntity
  8
01
100
AcDbLine
 10
4972.830333503876
 20
1075.149704854068
 30
0.0
 11
4973.121158394013
 21
1075.188817898807
 31
0.0
  0
LINE
  5
10161
330
18
100
AcDbEntity
  8
01
100
AcDbLine
 10
4973.121158394013
 20
1075.188817898807
 30
0.0
 11
4973.324909004365
 21
1075.216648976382
 31
0.0
  0
LINE
  5
10162
330
18
100
AcDbEntity
  8
01
100
AcDbLine
 10
4973.324909004365
 20
1075.216648976382
 30
0.0
 11
4973.440181526337
 21
1075.235307137546
 31
0.0
  0
LINE
  5
10163
330
18
100
AcDbEntity
  8
01
100
AcDbLine
 10
5050.206287823799
 20
1267.455540744015
 30
0.0000000001127424
 11
5049.937992535713
 21
1267.430180636593
 31
0.0000000001127424
  0
LINE
  5
10164
330
18
100
AcDbEntity
  8
01
100
AcDbLine
 10
5049.937992535713
 20
1267.430180636593
 30
0.0000000001127424
 11
5049.662952862862
 21
1267.425480929562
 31
0.0000000001127424
  0
LINE
  5
10165
330
18
100
AcDbEntity
  8
01
100
AcDbLine
 10
5049.662952862862
 20
1267.425480929562
 30
0.0000000001127424
 11
5049.381443463448
 21
1267.458989230343
 31
0.0000000001127424
  0
LINE
  5
10166
330
18
100
AcDbEntity
  8
01
100
AcDbLine
 10
5049.381443463448
 20
1267.458989230343
 30
0.0000000001127424
 11
5049.10487791169
 21
1267.566563693234
 31
0.0000000001127424
  0
LINE
  5
10167
330
18
100
AcDbEntity
  8
01
100
AcDbLine
 10
5049.10487791169
 20
1267.566563693234
 30
0.0000000001127424
 11
5048.890659772042
 21
1267.78586300964
 31
0.0000000001127424
  0
LINE
  5
10168
330
18
100
AcDbEntity
  8
01
100
AcDbLine
 10
5048.890659772042
 20
1267.78586300964
 30
0.0000000001127424
 11
5048.79660459626
 21
1268.068272677609
 31
0.0000000001127424
  0
LINE
  5
10169
330
18
100
AcDbEntity
  8
01
100
AcDbLine
 10
5048.79660459626
 20
1268.068272677609
 30
0.0000000001127424
 11
5048.787205182198
 21
1268.352513400265
 31
0.0000000001127424
  0
LINE
  5
1016A
330
18
100
AcDbEntity
  8
01
100
AcDbLine
 10
5048.787205182198
 20
1268.352513400265
 30
0.0000000001127424
 11
5048.822941266182
 21
1268.626957980343
 31
0.0000000001127424
  0
LINE
  5
1016B
330
18
100
AcDbEntity
  8
01
100
AcDbLine
 10
5048.822941266182
 20
1268.626957980343
 30
0.0000000001127424
 11
5048.88466306794
 21
1268.892216769406
 31
0.0000000001127424
  0
LINE
  5
1016C
330
18
100
AcDbEntity
  8
01
100
AcDbLine
 10
5048.88466306794
 20
1268.892216769406
 30
0.0000000001127424
 11
5048.96295591462
 21
1269.150303927609
 31
0.0000000001127424
  0
LINE
  5
1016D
330
18
100
AcDbEntity
  8
01
100
AcDbLine
 10
5048.96295591462
 20
1269.150303927609
 30
0.0000000001127424
 11
5049.052097760323
 21
1269.402836886593
 31
0.0000000001127424
  0
LINE
  5
1016E
330
18
100
AcDbEntity
  8
01
100
AcDbLine
 10
5049.052097760323
 20
1269.402836886593
 30
0.0000000001127424
 11
5049.14899107087
 21
1269.651066867062
 31
0.0000000001127424
  0
LINE
  5
1016F
330
18
100
AcDbEntity
  8
01
100
AcDbLine
 10
5049.14899107087
 20
1269.651066867062
 30
0.0000000001127424
 11
5049.251865826729
 21
1269.89899167175
 31
0.0000000001127424
  0
LINE
  5
10170
330
18
100
AcDbEntity
  8
01
100
AcDbLine
 10
5077.412708722237
 20
1289.348820773312
 30
0.0000000001127424
 11
5077.154499493721
 21
1289.35406979675
 31
0.0000000001127424
  0
LINE
  5
10171
330
18
100
AcDbEntity
  8
01
100
AcDbLine
 10
5077.154499493721
 20
1289.35406979675
 30
0.0000000001127424
 11
5076.896168194893
 21
1289.362950411984
 31
0.0000000001127424
  0
LINE
  5
10172
330
18
100
AcDbEntity
  8
01
100
AcDbLine
 10
5076.896168194893
 20
1289.362950411984
 30
0.0000000001127424
 11
5076.638187848213
 21
1289.37863644714
 31
0.0000000001127424
  0
LINE
  5
10173
330
18
100
AcDbEntity
  8
01
100
AcDbLine
 10
5076.638187848213
 20
1289.37863644714
 30
0.0000000001127424
 11
5076.381046734932
 21
1289.403569308468
 31
0.0000000001127424
  0
LINE
  5
10174
330
18
100
AcDbEntity
  8
01
100
AcDbLine
 10
5076.381046734932
 20
1289.403569308468
 30
0.0000000001127424
 11
5076.125248395088
 21
1289.439793673703
 31
0.0000000001127424
  0
LINE
  5
10175
330
18
100
AcDbEntity
  8
01
100
AcDbLine
 10
5076.125248395088
 20
1289.439793673703
 30
0.0000000001127424
 11
5075.871769391182
 21
1289.488682833859
 31
0.0000000001127424
  0
LINE
  5
10176
330
18
100
AcDbEntity
  8
01
100
AcDbLine
 10
5075.871769391182
 20
1289.488682833859
 30
0.0000000001127424
 11
5075.588734112862
 21
1289.560551730343
 31
0.0000000001127424
  0
LINE
  5
10177
330
18
100
AcDbEntity
  8
01
100
AcDbLine
 10
5072.630161725167
 20
1292.729588595578
 30
0.0000000001127424
 11
5072.564243756417
 21
1293.098790255734
 31
0.0000000001127424
  0
LINE
  5
10178
330
18
100
AcDbEntity
  8
01
100
AcDbLine
 10
5072.564243756417
 20
1293.098790255734
 30
0.0000000001127424
 11
5072.524280987862
 21
1293.477940646359
 31
0.0000000001127424
  0
LINE
  5
10179
330
18
100
AcDbEntity
  8
01
100
AcDbLine
 10
5072.524280987862
 20
1293.477940646359
 30
0.0000000001127424
 11
5072.506031476143
 21
1293.865239230343
 31
0.0000000001127424
  0
LINE
  5
1017A
330
18
100
AcDbEntity
  8
01
100
AcDbLine
 10
5072.506031476143
 20
1293.865239230343
 30
0.0000000001127424
 11
5072.501987897042
 21
1294.347539035031
 31
0.0000000001127424
  0
LINE
  5
1017B
330
18
100
AcDbEntity
  8
01
100
AcDbLine
 10
5050.206287823799
 20
1433.417453340422
 30
0.0000000001127424
 11
5049.937992535713
 21
1433.442813447843
 31
0.0000000001127424
  0
LINE
  5
1017C
330
18
100
AcDbEntity
  8
01
100
AcDbLine
 10
5049.937992535713
 20
1433.442813447843
 30
0.0000000001127424
 11
5049.662952862862
 21
1433.447513154875
 31
0.0000000001127424
  0
LINE
  5
1017D
330
18
100
AcDbEntity
  8
01
100
AcDbLine
 10
5049.662952862862
 20
1433.447513154875
 30
0.0000000001127424
 11
5049.381443463448
 21
1433.414004854093
 31
0.0000000001127424
  0
LINE
  5
1017E
330
18
100
AcDbEntity
  8
01
100
AcDbLine
 10
5049.381443463448
 20
1433.414004854093
 30
0.0000000001127424
 11
5049.10487791169
 21
1433.306430391203
 31
0.0000000001127424
  0
LINE
  5
1017F
330
18
100
AcDbEntity
  8
01
100
AcDbLine
 10
5049.10487791169
 20
1433.306430391203
 30
0.0000000001127424
 11
5048.890659772042
 21
1433.087131074797
 31
0.0000000001127424
  0
LINE
  5
10180
330
18
100
AcDbEntity
  8
01
100
AcDbLine
 10
5048.890659772042
 20
1433.087131074797
 30
0.0000000001127424
 11
5048.79660459626
 21
1432.804721406828
 31
0.0000000001127424
  0
LINE
  5
10181
330
18
100
AcDbEntity
  8
01
100
AcDbLine
 10
5048.79660459626
 20
1432.804721406828
 30
0.0000000001127424
 11
5048.787205182198
 21
1432.520480684172
 31
0.0000000001127424
  0
LINE
  5
10182
330
18
100
AcDbEntity
  8
01
100
AcDbLine
 10
5048.787205182198
 20
1432.520480684172
 30
0.0000000001127424
 11
5048.822941266182
 21
1432.246036104093
 31
0.0000000001127424
  0
LINE
  5
10183
330
18
100
AcDbEntity
  8
01
100
AcDbLine
 10
5048.822941266182
 20
1432.246036104093
 30
0.0000000001127424
 11
5048.88466306794
 21
1431.980777315031
 31
0.0000000001127424
  0
LINE
  5
10184
330
18
100
AcDbEntity
  8
01
100
AcDbLine
 10
5048.88466306794
 20
1431.980777315031
 30
0.0000000001127424
 11
5048.96295591462
 21
1431.722690156828
 31
0.0000000001127424
  0
LINE
  5
10185
330
18
100
AcDbEntity
  8
01
100
AcDbLine
 10
5048.96295591462
 20
1431.722690156828
 30
0.0000000001127424
 11
5049.052097760323
 21
1431.470157197843
 31
0.0000000001127424
  0
LINE
  5
10186
330
18
100
AcDbEntity
  8
01
100
AcDbLine
 10
5049.052097760323
 20
1431.470157197843
 30
0.0000000001127424
 11
5049.14899107087
 21
1431.221927217375
 31
0.0000000001127424
  0
LINE
  5
10187
330
18
100
AcDbEntity
  8
01
100
AcDbLine
 10
5049.14899107087
 20
1431.221927217375
 30
0.0000000001127424
 11
5049.251865826729
 21
1430.974002412687
 31
0.0000000001127424
  0
LINE
  5
10188
330
18
100
AcDbEntity
  8
01
100
AcDbLine
 10
5077.412708722237
 20
1411.524173311125
 30
0.0000000001127424
 11
5077.154499493721
 21
1411.518924287687
 31
0.0000000001127424
  0
LINE
  5
10189
330
18
100
AcDbEntity
  8
01
100
AcDbLine
 10
5077.154499493721
 20
1411.518924287687
 30
0.0000000001127424
 11
5076.896168194893
 21
1411.510043672453
 31
0.0000000001127424
  0
LINE
  5
1018A
330
18
100
AcDbEntity
  8
01
100
AcDbLine
 10
5076.896168194893
 20
1411.510043672453
 30
0.0000000001127424
 11
5076.638187848213
 21
1411.494357637297
 31
0.0000000001127424
  0
LINE
  5
1018B
330
18
100
AcDbEntity
  8
01
100
AcDbLine
 10
5076.638187848213
 20
1411.494357637297
 30
0.0000000001127424
 11
5076.381046734932
 21
1411.469424775968
 31
0.0000000001127424
  0
LINE
  5
1018C
330
18
100
AcDbEntity
  8
01
100
AcDbLine
 10
5076.381046734932
 20
1411.469424775968
 30
0.0000000001127424
 11
5076.125248395088
 21
1411.433200410734
 31
0.0000000001127424
  0
LINE
  5
1018D
330
18
100
AcDbEntity
  8
01
100
AcDbLine
 10
5076.125248395088
 20
1411.433200410734
 30
0.0000000001127424
 11
5075.871769391182
 21
1411.384311250578
 31
0.0000000001127424
  0
LINE
  5
1018E
330
18
100
AcDbEntity
  8
01
100
AcDbLine
 10
5075.871769391182
 20
1411.384311250578
 30
0.0000000001127424
 11
5075.588734112862
 21
1411.312442354093
 31
0.0000000001127424
  0
LINE
  5
1018F
330
18
100
AcDbEntity
  8
01
100
AcDbLine
 10
5072.630161725167
 20
1408.143405488859
 30
0.0000000001127424
 11
5072.564243756417
 21
1407.774203828703
 31
0.0000000001127424
  0
LINE
  5
10190
330
18
100
AcDbEntity
  8
01
100
AcDbLine
 10
5072.564243756417
 20
1407.774203828703
 30
0.0000000001127424
 11
5072.524280987862
 21
1407.395053438078
 31
0.0000000001127424
  0
LINE
  5
10191
330
18
100
AcDbEntity
  8
01
100
AcDbLine
 10
5072.524280987862
 20
1407.395053438078
 30
0.0000000001127424
 11
5072.506031476143
 21
1407.007754854093
 31
0.0000000001127424
  0
LINE
  5
10192
330
18
100
AcDbEntity
  8
01
100
AcDbLine
 10
5072.506031476143
 20
1407.007754854093
 30
0.0000000001127424
 11
5072.501987897042
 21
1406.525455049406
 31
0.0000000001127424
  0
LINE
  5
10193
330
18
100
AcDbEntity
  8
01
100
AcDbLine
 10
4807.998364563212
 20
1084.538410465297
 30
0.0
 11
4807.344327087626
 21
1084.522304217395
 31
0.0
  0
LINE
  5
10194
330
18
100
AcDbEntity
  8
01
100
AcDbLine
 10
4807.344327087626
 20
1084.522304217395
 30
0.0
 11
4806.749890442118
 21
1084.505820076045
 31
0.0
  0
LINE
  5
10195
330
18
100
AcDbEntity
  8
01
100
AcDbLine
 10
4806.749890442118
 20
1084.505820076045
 30
0.0
 11
4806.24669372581
 21
1084.473879139003
 31
0.0
  0
LINE
  5
10196
330
18
100
AcDbEntity
  8
01
100
AcDbLine
 10
4806.24669372581
 20
1084.473879139003
 30
0.0
 11
4805.860242004618
 21
1084.425919096049
 31
0.0
  0
LINE
  5
10197
330
18
100
AcDbEntity
  8
01
100
AcDbLine
 10
4805.860242004618
 20
1084.425919096049
 30
0.0
 11
4805.601857300028
 21
1084.377252499637
 31
0.0
  0
LINE
  5
10198
330
18
100
AcDbEntity
  8
01
100
AcDbLine
 10
4805.601857300028
 20
1084.377252499637
 30
0.0
 11
4805.580433960185
 21
1084.372487823543
 31
0.0
  0
LINE
  5
10199
330
18
100
AcDbEntity
  8
01
100
AcDbLine
 10
4805.580433960185
 20
1084.372487823543
 30
0.0
 11
4805.50221740745
 21
1084.350045125064
 31
0.0
  0
LINE
  5
1019A
330
18
100
AcDbEntity
  8
01
100
AcDbLine
 10
4805.601857300028
 20
1076.498467843112
 30
0.0
 11
4805.580433960185
 21
1076.503232399997
 31
0.0
  0
LINE
  5
1019B
330
18
100
AcDbEntity
  8
01
100
AcDbLine
 10
4805.580433960185
 20
1076.503232399997
 30
0.0
 11
4805.50221740745
 21
1076.525675217685
 31
0.0
  0
LINE
  5
1019C
330
18
100
AcDbEntity
  8
01
100
AcDbLine
 10
4807.998364563212
 20
1076.337309281405
 30
0.0
 11
4807.344327087626
 21
1076.353415886935
 31
0.0
  0
LINE
  5
1019D
330
18
100
AcDbEntity
  8
01
100
AcDbLine
 10
4807.344327087626
 20
1076.353415886935
 30
0.0
 11
4806.749890442118
 21
1076.369900147494
 31
0.0
  0
LINE
  5
1019E
330
18
100
AcDbEntity
  8
01
100
AcDbLine
 10
4806.749890442118
 20
1076.369900147494
 30
0.0
 11
4806.246686096415
 21
1076.401841084536
 31
0.0
  0
LINE
  5
1019F
330
18
100
AcDbEntity
  8
01
100
AcDbLine
 10
4806.246686096415
 20
1076.401841084536
 30
0.0
 11
4805.860234375224
 21
1076.449800889071
 31
0.0
  0
LINE
  5
101A0
330
18
100
AcDbEntity
  8
01
100
AcDbLine
 10
4805.860234375224
 20
1076.449800889071
 30
0.0
 11
4805.601857300028
 21
1076.498467843112
 31
0.0
  0
LINE
  5
101A1
330
18
100
AcDbEntity
  8
01
100
AcDbLine
 10
4859.379799957499
 20
1069.451894681033
 30
0.0
 11
4859.305270309672
 21
1069.5661982699
 31
0.0
  0
LINE
  5
101A2
330
18
100
AcDbEntity
  8
01
100
AcDbLine
 10
4859.305270309672
 20
1069.5661982699
 30
0.0
 11
4859.086337204203
 21
1069.68671981531
 31
0.0
  0
LINE
  5
101A3
330
18
100
AcDbEntity
  8
01
100
AcDbLine
 10
4859.086337204203
 20
1069.68671981531
 30
0.0
 11
4858.73130523704
 21
1069.808236996707
 31
0.0
  0
LINE
  5
101A4
330
18
100
AcDbEntity
  8
01
100
AcDbLine
 10
4858.73130523704
 20
1069.808236996707
 30
0.0
 11
4858.256632919535
 21
1069.925491253909
 31
0.0
  0
LINE
  5
101A5
330
18
100
AcDbEntity
  8
01
100
AcDbLine
 10
4858.256632919535
 20
1069.925491253909
 30
0.0
 11
4857.682417984232
 21
1070.033275525149
 31
0.0
  0
LINE
  5
101A6
330
18
100
AcDbEntity
  8
01
100
AcDbLine
 10
4857.682417984232
 20
1070.033275525149
 30
0.0
 11
4857.0339556887
 21
1070.126994053897
 31
0.0
  0
LINE
  5
101A7
330
18
100
AcDbEntity
  8
01
100
AcDbLine
 10
4857.0339556887
 20
1070.126994053897
 30
0.0
 11
4856.339610214457
 21
1070.20245734888
 31
0.0
  0
LINE
  5
101A8
330
18
100
AcDbEntity
  8
01
100
AcDbLine
 10
4856.339610214457
 20
1070.20245734888
 30
0.0
 11
4855.629389877543
 21
1070.256445805606
 31
0.0
  0
LINE
  5
101A9
330
18
100
AcDbEntity
  8
01
100
AcDbLine
 10
4855.629389877543
 20
1070.256445805606
 30
0.0
 11
4854.934630508646
 21
1070.28658096033
 31
0.0
  0
LINE
  5
101AA
330
18
100
AcDbEntity
  8
01
100
AcDbLine
 10
4854.934630508646
 20
1070.28658096033
 30
0.0
 11
4854.285372848734
 21
1070.291510502871
 31
0.0
  0
LINE
  5
101AB
330
18
100
AcDbEntity
  8
01
100
AcDbLine
 10
4854.285372848734
 20
1070.291510502871
 30
0.0
 11
4853.709990616068
 21
1070.271118084964
 31
0.0
  0
LINE
  5
101AC
330
18
100
AcDbEntity
  8
01
100
AcDbLine
 10
4853.709990616068
 20
1070.271118084964
 30
0.0
 11
4853.233861084208
 21
1070.226142804202
 31
0.0
  0
LINE
  5
101AD
330
18
100
AcDbEntity
  8
01
100
AcDbLine
 10
4853.233861084208
 20
1070.226142804202
 30
0.0
 11
4852.877114410624
 21
1070.158730427798
 31
0.0
  0
LINE
  5
101AE
330
18
100
AcDbEntity
  8
01
100
AcDbLine
 10
4852.877114410624
 20
1070.158730427798
 30
0.0
 11
4852.656308288798
 21
1070.071628491458
 31
0.0
  0
LINE
  5
101AF
330
18
100
AcDbEntity
  8
01
100
AcDbLine
 10
4852.656308288798
 20
1070.071628491458
 30
0.0
 11
4852.57981216453
 21
1069.968812863406
 31
0.0
  0
LINE
  5
101B0
330
18
100
AcDbEntity
  8
01
100
AcDbLine
 10
4852.57981216453
 20
1069.968812863406
 30
0.0
 11
4852.652379150614
 21
1069.854636113223
 31
0.0
  0
LINE
  5
101B1
330
18
100
AcDbEntity
  8
01
100
AcDbLine
 10
4852.652379150614
 20
1069.854636113223
 30
0.0
 11
4852.869439239726
 21
1069.734154622134
 31
0.0
  0
LINE
  5
101B2
330
18
100
AcDbEntity
  8
01
100
AcDbLine
 10
4852.869439239726
 20
1069.734154622134
 30
0.0
 11
4853.222752685771
 21
1069.61261359888
 31
0.0
  0
LINE
  5
101B3
330
18
100
AcDbEntity
  8
01
100
AcDbLine
 10
4853.222752685771
 20
1069.61261359888
 30
0.0
 11
4853.695965881571
 21
1069.495269696292
 31
0.0
  0
LINE
  5
101B4
330
18
100
AcDbEntity
  8
01
100
AcDbLine
 10
4853.695965881571
 20
1069.495269696292
 30
0.0
 11
4854.269007797465
 21
1069.387329022464
 31
0.0
  0
LINE
  5
101B5
330
18
100
AcDbEntity
  8
01
100
AcDbLine
 10
4854.269007797465
 20
1069.387329022464
 30
0.0
 11
4854.916669006571
 21
1069.293395916995
 31
0.0
  0
LINE
  5
101B6
330
18
100
AcDbEntity
  8
01
100
AcDbLine
 10
4854.916669006571
 20
1069.293395916995
 30
0.0
 11
4855.610594864115
 21
1069.217664639529
 31
0.0
  0
LINE
  5
101B7
330
18
100
AcDbEntity
  8
01
100
AcDbLine
 10
4855.610594864115
 20
1069.217664639529
 30
0.0
 11
4856.320809478983
 21
1069.163375775393
 31
0.0
  0
LINE
  5
101B8
330
18
100
AcDbEntity
  8
01
100
AcDbLine
 10
4856.320809478983
 20
1069.163375775393
 30
0.0
 11
4857.015978927836
 21
1069.132909695682
 31
0.0
  0
LINE
  5
101B9
330
18
100
AcDbEntity
  8
01
100
AcDbLine
 10
4857.015978927836
 20
1069.132909695682
 30
0.0
 11
4857.666026230082
 21
1069.127643506106
 31
0.0
  0
LINE
  5
101BA
330
18
100
AcDbEntity
  8
01
100
AcDbLine
 10
4857.666026230082
 20
1069.127643506106
 30
0.0
 11
4858.242571945414
 21
1069.147701184329
 31
0.0
  0
LINE
  5
101BB
330
18
100
AcDbEntity
  8
01
100
AcDbLine
 10
4858.242571945414
 20
1069.147701184329
 30
0.0
 11
4858.720156784281
 21
1069.192365567264
 31
0.0
  0
LINE
  5
101BC
330
18
100
AcDbEntity
  8
01
100
AcDbLine
 10
4858.720156784281
 20
1069.192365567264
 30
0.0
 11
4859.078616256937
 21
1069.259491841372
 31
0.0
  0
LINE
  5
101BD
330
18
100
AcDbEntity
  8
01
100
AcDbLine
 10
4859.078616256937
 20
1069.259491841372
 30
0.0
 11
4859.301289673075
 21
1069.346348683413
 31
0.0
  0
LINE
  5
101BE
330
18
100
AcDbEntity
  8
01
100
AcDbLine
 10
4859.301289673075
 20
1069.346348683413
 30
0.0
 11
4859.379799957499
 21
1069.451894681033
 31
0.0
  0
LINE
  5
101BF
330
18
100
AcDbEntity
  8
01
100
AcDbLine
 10
4805.50221740745
 20
1076.525675217685
 30
0.0
 11
4805.534108276591
 21
1076.275329510745
 31
0.0
  0
LINE
  5
101C0
330
18
100
AcDbEntity
  8
01
100
AcDbLine
 10
4805.534108276591
 20
1076.275329510745
 30
0.0
 11
4805.627545471415
 21
1076.040685574588
 31
0.0
  0
LINE
  5
101C1
330
18
100
AcDbEntity
  8
01
100
AcDbLine
 10
4805.627545471415
 20
1076.040685574588
 30
0.0
 11
4805.776051635966
 21
1075.837649743136
 31
0.0
  0
LINE
  5
101C2
330
18
100
AcDbEntity
  8
01
100
AcDbLine
 10
4805.776051635966
 20
1075.837649743136
 30
0.0
 11
4805.966008301005
 21
1075.680528561648
 31
0.0
  0
LINE
  5
101C3
330
18
100
AcDbEntity
  8
01
100
AcDbLine
 10
4805.966008301005
 20
1075.680528561648
 30
0.0
 11
4806.140393371806
 21
1075.590548913058
 31
0.0
  0
LINE
  5
101C4
330
18
100
AcDbEntity
  8
01
100
AcDbLine
 10
4806.140393371806
 20
1075.590548913058
 30
0.0
 11
4806.25645935081
 21
1075.548446576175
 31
0.0
  0
LINE
  5
101C5
330
18
100
AcDbEntity
  8
01
100
AcDbLine
 10
4806.25645935081
 20
1085.327273289737
 30
0.0
 11
4806.154019470438
 21
1085.290691296634
 31
0.0
  0
LINE
  5
101C6
330
18
100
AcDbEntity
  8
01
100
AcDbLine
 10
4806.154019470438
 20
1085.290691296634
 30
0.0
 11
4805.986912842021
 21
1085.208242098865
 31
0.0
  0
LINE
  5
101C7
330
18
100
AcDbEntity
  8
01
100
AcDbLine
 10
4805.986912842021
 20
1085.208242098865
 30
0.0
 11
4805.79388916038
 21
1085.056496064242
 31
0.0
  0
LINE
  5
101C8
330
18
100
AcDbEntity
  8
01
100
AcDbLine
 10
4805.79388916038
 20
1085.056496064242
 30
0.0
 11
4805.639950866923
 21
1084.856778900203
 31
0.0
  0
LINE
  5
101C9
330
18
100
AcDbEntity
  8
01
100
AcDbLine
 10
4805.639950866923
 20
1084.856778900203
 30
0.0
 11
4805.540455932841
 21
1084.623845974978
 31
0.0
  0
LINE
  5
101CA
330
18
100
AcDbEntity
  8
01
100
AcDbLine
 10
4805.540455932841
 20
1084.623845974978
 30
0.0
 11
4805.50221740745
 21
1084.350045125064
 31
0.0
  0
LINE
  5
101CB
330
18
100
AcDbEntity
  8
01
100
AcDbLine
 10
4809.887204284892
 20
1085.963999192294
 30
0.0
 11
4809.736714477763
 21
1085.94281927782
 31
0.0
  0
LINE
  5
101CC
330
18
100
AcDbEntity
  8
01
100
AcDbLine
 10
4809.736714477763
 20
1085.94281927782
 30
0.0
 11
4809.585759277567
 21
1085.921544949588
 31
0.0
  0
LINE
  5
101CD
330
18
100
AcDbEntity
  8
01
100
AcDbLine
 10
4809.585759277567
 20
1085.921544949588
 30
0.0
 11
4809.434819336161
 21
1085.900290410098
 31
0.0
  0
LINE
  5
101CE
330
18
100
AcDbEntity
  8
01
100
AcDbLine
 10
4809.434819336161
 20
1085.900290410098
 30
0.0
 11
4809.2829791262
 21
1085.878958622989
 31
0.0
  0
LINE
  5
101CF
330
18
100
AcDbEntity
  8
01
100
AcDbLine
 10
4809.2829791262
 20
1085.878958622989
 30
0.0
 11
4809.130452270731
 21
1085.857597748813
 31
0.0
  0
LINE
  5
101D0
330
18
100
AcDbEntity
  8
01
100
AcDbLine
 10
4809.130452270731
 20
1085.857597748813
 30
0.0
 11
4808.97674285911
 21
1085.836153189715
 31
0.0
  0
LINE
  5
101D1
330
18
100
AcDbEntity
  8
01
100
AcDbLine
 10
4808.97674285911
 20
1085.836153189715
 30
0.0
 11
4808.821652527079
 21
1085.814613263186
 31
0.0
  0
LINE
  5
101D2
330
18
100
AcDbEntity
  8
01
100
AcDbLine
 10
4808.821652527079
 20
1085.814613263186
 30
0.0
 11
4808.664868469462
 21
1085.792957942065
 31
0.0
  0
LINE
  5
101D3
330
18
100
AcDbEntity
  8
01
100
AcDbLine
 10
4808.664868469462
 20
1085.792957942065
 30
0.0
 11
4808.506077881083
 21
1085.771158854541
 31
0.0
  0
LINE
  5
101D4
330
18
100
AcDbEntity
  8
01
100
AcDbLine
 10
4808.506077881083
 20
1085.771158854541
 30
0.0
 11
4808.345105285868
 21
1085.749206702289
 31
0.0
  0
LINE
  5
101D5
330
18
100
AcDbEntity
  8
01
100
AcDbLine
 10
4808.345105285868
 20
1085.749206702289
 30
0.0
 11
4808.18230926536
 21
1085.727155129489
 31
0.0
  0
LINE
  5
101D6
330
18
100
AcDbEntity
  8
01
100
AcDbLine
 10
4808.18230926536
 20
1085.727155129489
 30
0.0
 11
4808.020268554911
 21
1085.705334345874
 31
0.0
  0
LINE
  5
101D7
330
18
100
AcDbEntity
  8
01
100
AcDbLine
 10
4808.020268554911
 20
1085.705334345874
 30
0.0
 11
4807.867695923075
 21
1085.684834639605
 31
0.0
  0
LINE
  5
101D8
330
18
100
AcDbEntity
  8
01
100
AcDbLine
 10
4807.867695923075
 20
1085.684834639605
 30
0.0
 11
4807.744275207743
 21
1085.668110529956
 31
0.0
  0
LINE
  5
101D9
330
18
100
AcDbEntity
  8
01
100
AcDbLine
 10
4807.744275207743
 20
1085.668110529956
 30
0.0
 11
4807.661030884013
 21
1085.656454007205
 31
0.0
  0
LINE
  5
101DA
330
18
100
AcDbEntity
  8
01
100
AcDbLine
 10
4807.661030884013
 20
1085.656454007205
 30
0.0
 11
4807.605031128153
 21
1085.647876898822
 31
0.0
  0
LINE
  5
101DB
330
18
100
AcDbEntity
  8
01
100
AcDbLine
 10
4807.605031128153
 20
1085.647876898822
 30
0.0
 11
4807.506848449931
 21
1085.627919117984
 31
0.0
  0
LINE
  5
101DC
330
18
100
AcDbEntity
  8
01
100
AcDbLine
 10
4809.887204284892
 20
1074.91172019678
 30
0.0
 11
4809.609624023661
 21
1074.950800816592
 31
0.0
  0
LINE
  5
101DD
330
18
100
AcDbEntity
  8
01
100
AcDbLine
 10
4809.609624023661
 20
1074.950800816592
 30
0.0
 11
4809.331029052958
 21
1074.990004460391
 31
0.0
  0
LINE
  5
101DE
330
18
100
AcDbEntity
  8
01
100
AcDbLine
 10
4809.331029052958
 20
1074.990004460391
 30
0.0
 11
4809.049771423563
 21
1075.029388825473
 31
0.0
  0
LINE
  5
101DF
330
18
100
AcDbEntity
  8
01
100
AcDbLine
 10
4809.049771423563
 20
1075.029388825473
 30
0.0
 11
4808.764180298075
 21
1075.069058816012
 31
0.0
  0
LINE
  5
101E0
330
18
100
AcDbEntity
  8
01
100
AcDbLine
 10
4808.764180298075
 20
1075.069058816012
 30
0.0
 11
4808.472455139384
 21
1075.109157483157
 31
0.0
  0
LINE
  5
101E1
330
18
100
AcDbEntity
  8
01
100
AcDbLine
 10
4808.472455139384
 20
1075.109157483157
 30
0.0
 11
4808.173871155009
 21
1075.149704854068
 31
0.0
  0
LINE
  5
101E2
330
18
100
AcDbEntity
  8
01
100
AcDbLine
 10
4808.173871155009
 20
1075.149704854068
 30
0.0
 11
4807.883046264872
 21
1075.188817898807
 31
0.0
  0
LINE
  5
101E3
330
18
100
AcDbEntity
  8
01
100
AcDbLine
 10
4807.883046264872
 20
1075.188817898807
 30
0.0
 11
4807.679295654521
 21
1075.216648976382
 31
0.0
  0
LINE
  5
101E4
330
18
100
AcDbEntity
  8
01
100
AcDbLine
 10
4807.679295654521
 20
1075.216648976382
 30
0.0
 11
4807.564023132548
 21
1075.235307137546
 31
0.0
  0
LINE
  5
101E5
330
18
100
AcDbEntity
  8
01
100
AcDbLine
 10
4731.786543315187
 20
1075.210323977566
 30
0.0
 11
4731.912596171633
 21
1075.192791628933
 31
0.0
  0
LINE
  5
101E6
330
18
100
AcDbEntity
  8
01
100
AcDbLine
 10
4731.912596171633
 20
1075.192791628933
 30
0.0
 11
4731.930281108156
 21
1075.172634768582
 31
0.0
  0
LINE
  5
101E7
330
18
100
AcDbEntity
  8
01
100
AcDbLine
 10
4731.930281108156
 20
1075.172634768582
 30
0.0
 11
4731.882978862062
 21
1075.15232532034
 31
0.0
  0
LINE
  5
101E8
330
18
100
AcDbEntity
  8
01
100
AcDbLine
 10
4731.882978862062
 20
1075.15232532034
 30
0.0
 11
4731.804838603273
 21
1075.131664919949
 31
0.0
  0
LINE
  5
101E9
330
18
100
AcDbEntity
  8
01
100
AcDbLine
 10
4731.804838603273
 20
1075.131664919949
 30
0.0
 11
4731.710844462648
 21
1075.110088992215
 31
0.0
  0
LINE
  5
101EA
330
18
100
AcDbEntity
  8
01
100
AcDbLine
 10
4731.710844462648
 20
1075.110088992215
 30
0.0
 11
4731.608290141359
 21
1075.087231326199
 31
0.0
  0
LINE
  5
101EB
330
18
100
AcDbEntity
  8
01
100
AcDbLine
 10
4731.608290141359
 20
1075.087231326199
 30
0.0
 11
4731.501432841555
 21
1075.062542605496
 31
0.0
  0
LINE
  5
101EC
330
18
100
AcDbEntity
  8
01
100
AcDbLine
 10
4731.501432841555
 20
1075.062542605496
 30
0.0
 11
4731.393400614992
 21
1075.035366702175
 31
0.0
  0
LINE
  5
101ED
330
18
100
AcDbEntity
  8
01
100
AcDbLine
 10
4731.393400614992
 20
1075.035366702175
 30
0.0
 11
4731.273115580812
 21
1075.000576663113
 31
0.0
  0
LINE
  5
101EE
330
18
100
AcDbEntity
  8
01
100
AcDbLine
 10
4709.94633335425
 20
1067.659985232449
 30
0.0
 11
4709.721113627687
 21
1067.639507937527
 31
0.0
  0
LINE
  5
101EF
330
18
100
AcDbEntity
  8
01
100
AcDbLine
 10
4709.721113627687
 20
1067.639507937527
 30
0.0
 11
4709.385740702883
 21
1067.712200808621
 31
0.0
  0
LINE
  5
101F0
330
18
100
AcDbEntity
  8
01
100
AcDbLine
 10
4731.787199443117
 20
1085.66534106741
 30
0.0
 11
4731.912733500734
 21
1085.682873416043
 31
0.0
  0
LINE
  5
101F1
330
18
100
AcDbEntity
  8
01
100
AcDbLine
 10
4731.912733500734
 20
1085.682873416043
 30
0.0
 11
4731.930250590578
 21
1085.702999758816
 31
0.0
  0
LINE
  5
101F2
330
18
100
AcDbEntity
  8
01
100
AcDbLine
 10
4731.930250590578
 20
1085.702999758816
 30
0.0
 11
4731.883055156008
 21
1085.723293948269
 31
0.0
  0
LINE
  5
101F3
330
18
100
AcDbEntity
  8
01
100
AcDbLine
 10
4731.883055156008
 20
1085.723293948269
 30
0.0
 11
4731.804945414797
 21
1085.743939089871
 31
0.0
  0
LINE
  5
101F4
330
18
100
AcDbEntity
  8
01
100
AcDbLine
 10
4731.804945414797
 20
1085.743939089871
 30
0.0
 11
4731.71113437964
 21
1085.765499758816
 31
0.0
  0
LINE
  5
101F5
330
18
100
AcDbEntity
  8
01
100
AcDbLine
 10
4731.71113437964
 20
1085.765499758816
 30
0.0
 11
4731.608519023195
 21
1085.788357424832
 31
0.0
  0
LINE
  5
101F6
330
18
100
AcDbEntity
  8
01
100
AcDbLine
 10
4731.608519023195
 20
1085.788357424832
 30
0.0
 11
4731.501707499758
 21
1085.813015627957
 31
0.0
  0
LINE
  5
101F7
330
18
100
AcDbEntity
  8
01
100
AcDbLine
 10
4731.501707499758
 20
1085.813015627957
 30
0.0
 11
4731.393812602297
 21
1085.84014575491
 31
0.0
  0
LINE
  5
101F8
330
18
100
AcDbEntity
  8
01
100
AcDbLine
 10
4731.393812602297
 20
1085.84014575491
 30
0.0
 11
4731.273115580812
 21
1085.875057864285
 31
0.0
  0
LINE
  5
101F9
330
18
100
AcDbEntity
  8
01
100
AcDbLine
 10
4709.94633335425
 20
1093.215649294949
 30
0.0
 11
4709.721113627687
 21
1093.236126589871
 31
0.0
  0
LINE
  5
101FA
330
18
100
AcDbEntity
  8
01
100
AcDbLine
 10
4709.721113627687
 20
1093.236126589871
 30
0.0
 11
4709.385740702883
 21
1093.163433718777
 31
0.0
  0
LINE
  5
101FB
330
18
100
AcDbEntity
  8
01
100
AcDbLine
 10
4708.502241557375
 20
1092.097485232449
 30
0.0
 11
4708.524763530031
 21
1092.41175525198
 31
0.0
  0
LINE
  5
101FC
330
18
100
AcDbEntity
  8
01
100
AcDbLine
 10
4708.524763530031
 20
1092.41175525198
 30
0.0
 11
4708.639082377687
 21
1092.704144167996
 31
0.0
  0
LINE
  5
101FD
330
18
100
AcDbEntity
  8
01
100
AcDbLine
 10
4708.639082377687
 20
1092.704144167996
 30
0.0
 11
4708.854124491945
 21
1092.932507205105
 31
0.0
  0
LINE
  5
101FE
330
18
100
AcDbEntity
  8
01
100
AcDbLine
 10
4708.854124491945
 20
1092.932507205105
 30
0.0
 11
4709.172956889406
 21
1093.086468386746
 31
0.0
  0
LINE
  5
101FF
330
18
100
AcDbEntity
  8
01
100
AcDbLine
 10
4709.172956889406
 20
1067.789166140652
 30
0.0
 11
4708.88691562964
 21
1067.920773196316
 31
0.0
  0
LINE
  5
10200
330
18
100
AcDbEntity
  8
01
100
AcDbLine
 10
4708.88691562964
 20
1067.920773196316
 30
0.0
 11
4708.660993998781
 21
1068.138409304715
 31
0.0
  0
LINE
  5
10201
330
18
100
AcDbEntity
  8
01
100
AcDbLine
 10
4708.660993998781
 20
1068.138409304715
 30
0.0
 11
4708.533384745851
 21
1068.424999880886
 31
0.0
  0
LINE
  5
10202
330
18
100
AcDbEntity
  8
01
100
AcDbLine
 10
4708.533384745851
 20
1068.424999880886
 30
0.0
 11
4708.502241557375
 21
1068.778149294949
 31
0.0
  0
LINE
  5
10203
330
18
100
AcDbEntity
  8
01
100
AcDbLine
 10
4734.502241557375
 20
1084.559460330105
 30
0.0
 11
4734.459623759523
 21
1084.538372683621
 31
0.0
  0
LINE
  5
10204
330
18
100
AcDbEntity
  8
01
100
AcDbLine
 10
4734.459623759523
 20
1084.538372683621
 30
0.0
 11
4734.268476908937
 21
1084.522198367215
 31
0.0
  0
LINE
  5
10205
330
18
100
AcDbEntity
  8
01
100
AcDbLine
 10
4734.268476908937
 20
1084.522198367215
 30
0.0
 11
4733.933653300539
 21
1084.505581545925
 31
0.0
  0
LINE
  5
10206
330
18
100
AcDbEntity
  8
01
100
AcDbLine
 10
4733.933653300539
 20
1084.505581545925
 30
0.0
 11
4733.47335666968
 21
1084.473263430691
 31
0.0
  0
LINE
  5
10207
330
18
100
AcDbEntity
  8
01
100
AcDbLine
 10
4733.47335666968
 20
1084.473263430691
 30
0.0
 11
4732.912687724367
 21
1084.424954104519
 31
0.0
  0
LINE
  5
10208
330
18
100
AcDbEntity
  8
01
100
AcDbLine
 10
4732.912687724367
 20
1084.424954104519
 30
0.0
 11
4732.269010966555
 21
1084.377209353543
 31
0.0
  0
LINE
  5
10209
330
18
100
AcDbEntity
  8
01
100
AcDbLine
 10
4599.502256816164
 20
1081.618679690457
 30
0.0
 11
4598.837919657961
 21
1081.621945071316
 31
0.0
  0
LINE
  5
1020A
330
18
100
AcDbEntity
  8
01
100
AcDbLine
 10
4598.837919657961
 20
1081.621945071316
 30
0.0
 11
4598.206602519289
 21
1081.649899172879
 31
0.0
  0
LINE
  5
1020B
330
18
100
AcDbEntity
  8
01
100
AcDbLine
 10
4598.206602519289
 20
1081.649899172879
 30
0.0
 11
4597.639585917726
 21
1081.701183962918
 31
0.0
  0
LINE
  5
1020C
330
18
100
AcDbEntity
  8
01
100
AcDbLine
 10
4597.639585917726
 20
1081.701183962918
 30
0.0
 11
4597.165068095461
 21
1081.773220706082
 31
0.0
  0
LINE
  5
1020D
330
18
100
AcDbEntity
  8
01
100
AcDbLine
 10
4597.165068095461
 20
1081.773220706082
 30
0.0
 11
4596.806608622805
 21
1081.86243884573
 31
0.0
  0
LINE
  5
1020E
330
18
100
AcDbEntity
  8
01
100
AcDbLine
 10
4596.806608622805
 20
1081.86243884573
 30
0.0
 11
4596.581968730226
 21
1081.964413333035
 31
0.0
  0
LINE
  5
1020F
330
18
100
AcDbEntity
  8
01
100
AcDbLine
 10
4596.581968730226
 20
1081.964413333035
 30
0.0
 11
4596.502256816164
 21
1082.077969241238
 31
0.0
  0
LINE
  5
10210
330
18
100
AcDbEntity
  8
01
100
AcDbLine
 10
4599.502256816164
 20
1079.256954836941
 30
0.0
 11
4598.837919657961
 21
1079.253689456082
 31
0.0
  0
LINE
  5
10211
330
18
100
AcDbEntity
  8
01
100
AcDbLine
 10
4598.837919657961
 20
1079.253689456082
 30
0.0
 11
4598.206602519289
 21
1079.22572009573
 31
0.0
  0
LINE
  5
10212
330
18
100
AcDbEntity
  8
01
100
AcDbLine
 10
4598.206602519289
 20
1079.22572009573
 30
0.0
 11
4597.639585917726
 21
1079.17445056448
 31
0.0
  0
LINE
  5
10213
330
18
100
AcDbEntity
  8
01
100
AcDbLine
 10
4597.639585917726
 20
1079.17445056448
 30
0.0
 11
4597.165068095461
 21
1079.102413821316
 31
0.0
  0
LINE
  5
10214
330
18
100
AcDbEntity
  8
01
100
AcDbLine
 10
4597.165068095461
 20
1079.102413821316
 30
0.0
 11
4596.806608622805
 21
1079.013195681668
 31
0.0
  0
LINE
  5
10215
330
18
100
AcDbEntity
  8
01
100
AcDbLine
 10
4596.806608622805
 20
1079.013195681668
 30
0.0
 11
4596.581968730226
 21
1078.911221194363
 31
0.0
  0
LINE
  5
10216
330
18
100
AcDbEntity
  8
01
100
AcDbLine
 10
4596.581968730226
 20
1078.911221194363
 30
0.0
 11
4596.502256816164
 21
1078.797650027371
 31
0.0
  0
LINE
  5
10217
330
18
100
AcDbEntity
  8
01
100
AcDbLine
 10
4734.459623759523
 20
1076.337261843777
 30
0.0
 11
4734.268476908937
 21
1076.353436160183
 31
0.0
  0
LINE
  5
10218
330
18
100
AcDbEntity
  8
01
100
AcDbLine
 10
4734.268476908937
 20
1076.353436160183
 30
0.0
 11
4733.933653300539
 21
1076.370052981472
 31
0.0
  0
LINE
  5
10219
330
18
100
AcDbEntity
  8
01
100
AcDbLine
 10
4733.933653300539
 20
1076.370052981472
 30
0.0
 11
4733.47335666968
 21
1076.402355837918
 31
0.0
  0
LINE
  5
1021A
330
18
100
AcDbEntity
  8
01
100
AcDbLine
 10
4733.47335666968
 20
1076.402355837918
 30
0.0
 11
4732.912687724367
 21
1076.450680422879
 31
0.0
  0
LINE
  5
1021B
330
18
100
AcDbEntity
  8
01
100
AcDbLine
 10
4732.912687724367
 20
1076.450680422879
 30
0.0
 11
4732.269010966555
 21
1076.498425173855
 31
0.0
  0
LINE
  5
1021C
330
18
100
AcDbEntity
  8
01
100
AcDbLine
 10
4734.502241557375
 20
1076.316174197293
 30
0.0
 11
4734.459623759523
 21
1076.337261843777
 31
0.0
  0
LINE
  5
1021D
330
18
100
AcDbEntity
  8
01
100
AcDbLine
 10
4720.54772800757
 20
1069.451855349636
 30
0.0
 11
4721.253813212648
 21
1069.566128420925
 31
0.0
  0
LINE
  5
1021E
330
18
100
AcDbEntity
  8
01
100
AcDbLine
 10
4721.253813212648
 20
1069.566128420925
 30
0.0
 11
4721.929182475344
 21
1069.686611819363
 31
0.0
  0
LINE
  5
1021F
330
18
100
AcDbEntity
  8
01
100
AcDbLine
 10
4721.929182475344
 20
1069.686611819363
 30
0.0
 11
4722.54398960425
 21
1069.808102297879
 31
0.0
  0
LINE
  5
10220
330
18
100
AcDbEntity
  8
01
100
AcDbLine
 10
4722.54398960425
 20
1069.808102297879
 30
0.0
 11
4723.072218364015
 21
1069.925335574246
 31
0.0
  0
LINE
  5
10221
330
18
100
AcDbEntity
  8
01
100
AcDbLine
 10
4723.072218364015
 20
1069.925335574246
 30
0.0
 11
4723.489927714601
 21
1070.033108401394
 31
0.0
  0
LINE
  5
10222
330
18
100
AcDbEntity
  8
01
100
AcDbLine
 10
4723.489927714601
 20
1070.033108401394
 30
0.0
 11
4723.779692118898
 21
1070.126827883816
 31
0.0
  0
LINE
  5
10223
330
18
100
AcDbEntity
  8
01
100
AcDbLine
 10
4723.779692118898
 20
1070.126827883816
 30
0.0
 11
4723.928282206789
 21
1070.202297854519
 31
0.0
  0
LINE
  5
10224
330
18
100
AcDbEntity
  8
01
100
AcDbLine
 10
4723.928282206789
 20
1070.202297854519
 30
0.0
 11
4723.929533427492
 21
1070.2563139678
 31
0.0
  0
LINE
  5
10225
330
18
100
AcDbEntity
  8
01
100
AcDbLine
 10
4723.929533427492
 20
1070.2563139678
 30
0.0
 11
4723.783445781008
 21
1070.286495852566
 31
0.0
  0
LINE
  5
10226
330
18
100
AcDbEntity
  8
01
100
AcDbLine
 10
4723.783445781008
 20
1070.286495852566
 30
0.0
 11
4723.49597019507
 21
1070.29148547659
 31
0.0
  0
LINE
  5
10227
330
18
100
AcDbEntity
  8
01
100
AcDbLine
 10
4723.49597019507
 20
1070.29148547659
 30
0.0
 11
4723.080336039797
 21
1070.271176028347
 31
0.0
  0
LINE
  5
10228
330
18
100
AcDbEntity
  8
01
100
AcDbLine
 10
4723.080336039797
 20
1070.271176028347
 30
0.0
 11
4722.553816264406
 21
1070.226269412136
 31
0.0
  0
LINE
  5
10229
330
18
100
AcDbEntity
  8
01
100
AcDbLine
 10
4722.553816264406
 20
1070.226269412136
 30
0.0
 11
4721.940245097414
 21
1070.158947634793
 31
0.0
  0
LINE
  5
1022A
330
18
100
AcDbEntity
  8
01
100
AcDbLine
 10
4721.940245097414
 20
1070.158947634793
 30
0.0
 11
4721.265623515383
 21
1070.071926760769
 31
0.0
  0
LINE
  5
1022B
330
18
100
AcDbEntity
  8
01
100
AcDbLine
 10
4721.265623515383
 20
1070.071926760769
 30
0.0
 11
4720.559874003664
 21
1069.969189334011
 31
0.0
  0
LINE
  5
1022C
330
18
100
AcDbEntity
  8
01
100
AcDbLine
 10
4720.559874003664
 20
1069.969189334011
 30
0.0
 11
4719.853590434328
 21
1069.855068850613
 31
0.0
  0
LINE
  5
1022D
330
18
100
AcDbEntity
  8
01
100
AcDbLine
 10
4719.853590434328
 20
1069.855068850613
 30
0.0
 11
4719.177397197023
 21
1069.734631228543
 31
0.0
  0
LINE
  5
1022E
330
18
100
AcDbEntity
  8
01
100
AcDbLine
 10
4719.177397197023
 20
1069.734631228543
 30
0.0
 11
4718.561293071047
 21
1069.613125491238
 31
0.0
  0
LINE
  5
1022F
330
18
100
AcDbEntity
  8
01
100
AcDbLine
 10
4718.561293071047
 20
1069.613125491238
 30
0.0
 11
4718.031385844484
 21
1069.495770144558
 31
0.0
  0
LINE
  5
10230
330
18
100
AcDbEntity
  8
01
100
AcDbLine
 10
4718.031385844484
 20
1069.495770144558
 30
0.0
 11
4717.611647074953
 21
1069.387798953152
 31
0.0
  0
LINE
  5
10231
330
18
100
AcDbEntity
  8
01
100
AcDbLine
 10
4717.611647074953
 20
1069.387798953152
 30
0.0
 11
4717.319578593508
 21
1069.293804812527
 31
0.0
  0
LINE
  5
10232
330
18
100
AcDbEntity
  8
01
100
AcDbLine
 10
4717.319578593508
 20
1069.293804812527
 30
0.0
 11
4717.168486064211
 21
1069.217983889675
 31
0.0
  0
LINE
  5
10233
330
18
100
AcDbEntity
  8
01
100
AcDbLine
 10
4717.168486064211
 20
1069.217983889675
 30
0.0
 11
4717.164717143312
 21
1069.163586306668
 31
0.0
  0
LINE
  5
10234
330
18
100
AcDbEntity
  8
01
100
AcDbLine
 10
4717.164717143312
 20
1069.163586306668
 30
0.0
 11
4717.30830234839
 21
1069.132977175808
 31
0.0
  0
LINE
  5
10235
330
18
100
AcDbEntity
  8
01
100
AcDbLine
 10
4717.30830234839
 20
1069.132977175808
 30
0.0
 11
4717.59347385718
 21
1069.127560305691
 31
0.0
  0
LINE
  5
10236
330
18
100
AcDbEntity
  8
01
100
AcDbLine
 10
4717.59347385718
 20
1069.127560305691
 30
0.0
 11
4718.00704807593
 21
1069.14744250784
 31
0.0
  0
LINE
  5
10237
330
18
100
AcDbEntity
  8
01
100
AcDbLine
 10
4718.00704807593
 20
1069.14744250784
 30
0.0
 11
4718.531874125734
 21
1069.191937136746
 31
0.0
  0
LINE
  5
10238
330
18
100
AcDbEntity
  8
01
100
AcDbLine
 10
4718.531874125734
 20
1069.191937136746
 30
0.0
 11
4719.144148295656
 21
1069.258907961941
 31
0.0
  0
LINE
  5
10239
330
18
100
AcDbEntity
  8
01
100
AcDbLine
 10
4719.144148295656
 20
1069.258907961941
 30
0.0
 11
4719.817930644289
 21
1069.345608401394
 31
0.0
  0
LINE
  5
1023A
330
18
100
AcDbEntity
  8
01
100
AcDbLine
 10
4719.817930644289
 20
1069.345608401394
 30
0.0
 11
4720.54772800757
 21
1069.451855349636
 31
0.0
  0
LINE
  5
1023B
330
18
100
AcDbEntity
  8
01
100
AcDbLine
 10
4730.824385112062
 20
1085.655514407254
 30
0.0
 11
4730.935850566164
 21
1085.654568362332
 31
0.0
  0
LINE
  5
1023C
330
18
100
AcDbEntity
  8
01
100
AcDbLine
 10
4730.935850566164
 20
1085.654568362332
 30
0.0
 11
4731.047590678469
 21
1085.6537749053
 31
0.0
  0
LINE
  5
1023D
330
18
100
AcDbEntity
  8
01
100
AcDbLine
 10
4731.047590678469
 20
1085.6537749053
 30
0.0
 11
4731.159468119875
 21
1085.653256106472
 31
0.0
  0
LINE
  5
1023E
330
18
100
AcDbEntity
  8
01
100
AcDbLine
 10
4731.159468119875
 20
1085.653256106472
 30
0.0
 11
4731.271543925539
 21
1085.65313403616
 31
0.0
  0
LINE
  5
1023F
330
18
100
AcDbEntity
  8
01
100
AcDbLine
 10
4731.271543925539
 20
1085.65313403616
 30
0.0
 11
4731.383818095461
 21
1085.653561282254
 31
0.0
  0
LINE
  5
10240
330
18
100
AcDbEntity
  8
01
100
AcDbLine
 10
4731.383818095461
 20
1085.653561282254
 30
0.0
 11
4731.496061747805
 21
1085.654781985379
 31
0.0
  0
LINE
  5
10241
330
18
100
AcDbEntity
  8
01
100
AcDbLine
 10
4731.496061747805
 20
1085.654781985379
 30
0.0
 11
4731.607267802492
 21
1085.657147097683
 31
0.0
  0
LINE
  5
10242
330
18
100
AcDbEntity
  8
01
100
AcDbLine
 10
4731.607267802492
 20
1085.657147097683
 30
0.0
 11
4731.71456760718
 21
1085.66109912405
 31
0.0
  0
LINE
  5
10243
330
18
100
AcDbEntity
  8
01
100
AcDbLine
 10
4731.71456760718
 20
1085.66109912405
 30
0.0
 11
4731.791670268312
 21
1085.665737795925
 31
0.0
  0
LINE
  5
10244
330
18
100
AcDbEntity
  8
01
100
AcDbLine
 10
4730.824385112062
 20
1075.220120120144
 30
0.0
 11
4730.924971049562
 21
1075.220974612332
 31
0.0
  0
LINE
  5
10245
330
18
100
AcDbEntity
  8
01
100
AcDbLine
 10
4730.924971049562
 20
1075.220974612332
 30
0.0
 11
4731.025618022219
 21
1075.221722292996
 31
0.0
  0
LINE
  5
10246
330
18
100
AcDbEntity
  8
01
100
AcDbLine
 10
4731.025618022219
 20
1075.221722292996
 30
0.0
 11
4731.126387065187
 21
1075.222271609402
 31
0.0
  0
LINE
  5
10247
330
18
100
AcDbEntity
  8
01
100
AcDbLine
 10
4731.126387065187
 20
1075.222271609402
 30
0.0
 11
4731.227339213625
 21
1075.222515750027
 31
0.0
  0
LINE
  5
10248
330
18
100
AcDbEntity
  8
01
100
AcDbLine
 10
4731.227339213625
 20
1075.222515750027
 30
0.0
 11
4731.328504985109
 21
1075.222363162136
 31
0.0
  0
LINE
  5
10249
330
18
100
AcDbEntity
  8
01
100
AcDbLine
 10
4731.328504985109
 20
1075.222363162136
 30
0.0
 11
4731.42973179175
 21
1075.221676516629
 31
0.0
  0
LINE
  5
1024A
330
18
100
AcDbEntity
  8
01
100
AcDbLine
 10
4731.42973179175
 20
1075.221676516629
 30
0.0
 11
4731.530744975344
 21
1075.220242190457
 31
0.0
  0
LINE
  5
1024B
330
18
100
AcDbEntity
  8
01
100
AcDbLine
 10
4731.530744975344
 20
1075.220242190457
 30
0.0
 11
4731.630506938234
 21
1075.217800784207
 31
0.0
  0
LINE
  5
1024C
330
18
100
AcDbEntity
  8
01
100
AcDbLine
 10
4731.630506938234
 20
1075.217800784207
 30
0.0
 11
4731.7261185105
 21
1075.213970828152
 31
0.0
  0
LINE
  5
1024D
330
18
100
AcDbEntity
  8
01
100
AcDbLine
 10
4731.7261185105
 20
1075.213970828152
 30
0.0
 11
4731.791593974367
 21
1075.209911990261
 31
0.0
  0
LINE
  5
1024E
330
18
100
AcDbEntity
  8
01
  6
BYBLOCK
100
AcDbLine
 10
5001.101985989699
 20
1209.161321233935
 30
0.0
 11
4998.501985989698
 21
1209.857989127935
 31
0.0
  0
LINE
  5
1024F
330
18
100
AcDbEntity
  8
01
  6
BYBLOCK
100
AcDbLine
 10
4998.501985989698
 20
1209.857989127935
 30
0.0
 11
5001.101985989699
 21
1210.554657021935
 31
0.0
  0
LINE
  5
10250
330
18
100
AcDbEntity
  8
01
  6
BYBLOCK
100
AcDbLine
 10
4998.501985989698
 20
1209.857989127935
 30
0.0
 11
5001.101985989699
 21
1209.857989127935
 31
0.0
  0
LINE
  5
10251
330
18
100
AcDbEntity
  8
01
  6
BYBLOCK
100
AcDbLine
 10
5006.901985989698
 20
1210.554657021935
 30
0.0
 11
5009.501985989698
 21
1209.857989127935
 31
0.0
  0
LINE
  5
10252
330
18
100
AcDbEntity
  8
01
  6
BYBLOCK
100
AcDbLine
 10
5009.501985989698
 20
1209.857989127935
 30
0.0
 11
5006.901985989698
 21
1209.161321233935
 31
0.0
  0
LINE
  5
10253
330
18
100
AcDbEntity
  8
01
  6
BYBLOCK
100
AcDbLine
 10
5009.501985989698
 20
1209.857989127935
 30
0.0
 11
5006.901985989698
 21
1209.857989127935
 31
0.0
  0
TEXT
  5
10254
330
18
100
AcDbEntity
  8
01
  6
CONTINUOUS
100
AcDbText
 10
5001.726985989699
 20
1210.767989127935
 30
0.0
 40
4.55
  1
11
100
AcDbText
1001
ACAD
1000
DSTYLE
1002
{
1070
    40
1040
1.3
1070
    45
1040
0.5
1002
}
  0
LINE
  5
10255
330
18
100
AcDbEntity
  8
01
  6
BYBLOCK
100
AcDbLine
 10
5104.805318095699
 20
1135.829124535639
 30
0.0
 11
5105.501985989698
 21
1138.429124535639
 31
0.0
  0
LINE
  5
10256
330
18
100
AcDbEntity
  8
01
  6
BYBLOCK
100
AcDbLine
 10
5105.501985989698
 20
1138.429124535639
 30
0.0
 11
5106.198653883698
 21
1135.829124535639
 31
0.0
  0
LINE
  5
10257
330
18
100
AcDbEntity
  8
01
  6
BYBLOCK
100
AcDbLine
 10
5105.501985989698
 20
1138.429124535639
 30
0.0
 11
5105.501985989698
 21
1135.829124535639
 31
0.0
  0
LINE
  5
10258
330
18
100
AcDbEntity
  8
01
  6
BYBLOCK
100
AcDbLine
 10
5106.198653883698
 20
1067.036497043247
 30
0.0
 11
5105.501985989698
 21
1064.436497043247
 31
0.0
  0
LINE
  5
10259
330
18
100
AcDbEntity
  8
01
  6
BYBLOCK
100
AcDbLine
 10
5105.501985989698
 20
1064.436497043247
 30
0.0
 11
5104.805318095699
 21
1067.036497043247
 31
0.0
  0
LINE
  5
1025A
330
18
100
AcDbEntity
  8
01
  6
BYBLOCK
100
AcDbLine
 10
5105.501985989698
 20
1064.436497043247
 30
0.0
 11
5105.501985989698
 21
1067.036497043247
 31
0.0
  0
TEXT
  5
1025B
330
18
100
AcDbEntity
  8
01
  6
CONTINUOUS
100
AcDbText
 10
5104.591985989698
 20
1119.407841129265
 30
0.0
 40
4.55
  1
74
 50
90.0
100
AcDbText
1001
ACAD
1000
DSTYLE
1002
{
1070
    40
1040
1.3
1070
    45
1040
0.5
1002
}
  0
LINE
  5
1025C
330
18
100
AcDbEntity
  8
01
  6
BYBLOCK
100
AcDbLine
 10
5075.901985989698
 20
1220.634524489983
 30
0.0
 11
5078.501985989698
 21
1219.937856595983
 31
0.0
  0
LINE
  5
1025D
330
18
100
AcDbEntity
  8
01
  6
BYBLOCK
100
AcDbLine
 10
5078.501985989698
 20
1219.937856595983
 30
0.0
 11
5075.901985989698
 21
1219.241188701983
 31
0.0
  0
LINE
  5
1025E
330
18
100
AcDbEntity
  8
01
  6
BYBLOCK
100
AcDbLine
 10
5078.501985989698
 20
1219.937856595983
 30
0.0
 11
5075.901985989698
 21
1219.937856595983
 31
0.0
  0
LINE
  5
1025F
330
18
100
AcDbEntity
  8
01
  6
BYBLOCK
100
AcDbLine
 10
5012.101985989699
 20
1219.241188701983
 30
0.0
 11
5009.501985989698
 21
1219.937856595983
 31
0.0
  0
LINE
  5
10260
330
18
100
AcDbEntity
  8
01
  6
BYBLOCK
100
AcDbLine
 10
5009.501985989698
 20
1219.937856595983
 30
0.0
 11
5012.101985989699
 21
1220.634524489983
 31
0.0
  0
LINE
  5
10261
330
18
100
AcDbEntity
  8
01
  6
BYBLOCK
100
AcDbLine
 10
5009.501985989698
 20
1219.937856595983
 30
0.0
 11
5012.101985989699
 21
1219.937856595983
 31
0.0
  0
TEXT
  5
10262
330
18
100
AcDbEntity
  8
01
  6
CONTINUOUS
100
AcDbText
 10
5040.19346747118
 20
1220.847856595983
 30
0.0
 40
4.55
  1
69
100
AcDbText
1001
ACAD
1000
DSTYLE
1002
{
1070
    40
1040
1.3
1070
    45
1040
0.5
1002
}
  0
LINE
  5
10263
330
18
100
AcDbEntity
  8
01
  6
BYBLOCK
100
AcDbLine
 10
5012.101985989699
 20
1209.161321233935
 30
0.0
 11
5009.501985989698
 21
1209.857989127935
 31
0.0
  0
LINE
  5
10264
330
18
100
AcDbEntity
  8
01
  6
BYBLOCK
100
AcDbLine
 10
5009.501985989698
 20
1209.857989127935
 30
0.0
 11
5012.101985989699
 21
1210.554657021935
 31
0.0
  0
LINE
  5
10265
330
18
100
AcDbEntity
  8
01
  6
BYBLOCK
100
AcDbLine
 10
5009.501985989698
 20
1209.857989127935
 30
0.0
 11
5012.101985989699
 21
1209.857989127935
 31
0.0
  0
LINE
  5
10266
330
18
100
AcDbEntity
  8
01
  6
BYBLOCK
100
AcDbLine
 10
5057.901985989698
 20
1210.554657021935
 30
0.0
 11
5060.501985989698
 21
1209.857989127935
 31
0.0
  0
LINE
  5
10267
330
18
100
AcDbEntity
  8
01
  6
BYBLOCK
100
AcDbLine
 10
5060.501985989698
 20
1209.857989127935
 30
0.0
 11
5057.901985989698
 21
1209.161321233935
 31
0.0
  0
LINE
  5
10268
330
18
100
AcDbEntity
  8
01
  6
BYBLOCK
100
AcDbLine
 10
5060.501985989698
 20
1209.857989127935
 30
0.0
 11
5057.901985989698
 21
1209.857989127935
 31
0.0
  0
TEXT
  5
10269
330
18
100
AcDbEntity
  8
01
  6
CONTINUOUS
100
AcDbText
 10
5031.952854045254
 20
1210.767989127935
 30
0.0
 40
4.55
  1
51
100
AcDbText
1001
ACAD
1000
DSTYLE
1002
{
1070
    40
1040
1.3
1070
    45
1040
0.5
1002
}
  0
LINE
  5
1026A
330
18
100
AcDbEntity
  8
01
  6
BYBLOCK
100
AcDbLine
 10
4974.666591011556
 20
1155.836497043246
 30
0.0
 11
4975.363258905556
 21
1158.436497043246
 31
0.0
  0
LINE
  5
1026B
330
18
100
AcDbEntity
  8
01
  6
BYBLOCK
100
AcDbLine
 10
4975.363258905556
 20
1158.436497043246
 30
0.0
 11
4976.059926799556
 21
1155.836497043246
 31
0.0
  0
LINE
  5
1026C
330
18
100
AcDbEntity
  8
01
  6
BYBLOCK
100
AcDbLine
 10
4975.363258905556
 20
1158.436497043246
 30
0.0
 11
4975.363258905556
 21
1155.836497043246
 31
0.0
  0
LINE
  5
1026D
330
18
100
AcDbEntity
  8
01
  6
BYBLOCK
100
AcDbLine
 10
4976.059926799556
 20
1047.036497043246
 30
0.0
 11
4975.363258905556
 21
1044.436497043246
 31
0.0
  0
LINE
  5
1026E
330
18
100
AcDbEntity
  8
01
  6
BYBLOCK
100
AcDbLine
 10
4975.363258905556
 20
1044.436497043246
 30
0.0
 11
4974.666591011556
 21
1047.036497043246
 31
0.0
  0
LINE
  5
1026F
330
18
100
AcDbEntity
  8
01
  6
BYBLOCK
100
AcDbLine
 10
4975.363258905556
 20
1044.436497043246
 30
0.0
 11
4975.363258905556
 21
1047.036497043246
 31
0.0
  0
TEXT
  5
10270
330
18
100
AcDbEntity
  8
01
  6
CONTINUOUS
100
AcDbText
 10
4974.453258905555
 20
1126.019519391168
 30
0.0
 40
4.55
  1
114
 50
90.0
100
AcDbText
1001
ACAD
1000
DSTYLE
1002
{
1070
    40
1040
1.3
1070
    45
1040
0.5
1002
}
  0
LINE
  5
10271
330
18
100
AcDbEntity
  8
01
  6
BYBLOCK
100
AcDbLine
 10
4984.030925177781
 20
1163.73605189883
 30
0.0
 11
4984.727593071781
 21
1166.33605189883
 31
0.0
  0
LINE
  5
10272
330
18
100
AcDbEntity
  8
01
  6
BYBLOCK
100
AcDbLine
 10
4984.727593071781
 20
1166.33605189883
 30
0.0
 11
4985.42426096578
 21
1163.73605189883
 31
0.0
  0
LINE
  5
10273
330
18
100
AcDbEntity
  8
01
  6
BYBLOCK
100
AcDbLine
 10
4984.727593071781
 20
1166.33605189883
 30
0.0
 11
4984.727593071781
 21
1163.73605189883
 31
0.0
  0
LINE
  5
10274
330
18
100
AcDbEntity
  8
01
  6
BYBLOCK
100
AcDbLine
 10
4985.42426096578
 20
1039.136497043246
 30
0.0
 11
4984.727593071781
 21
1036.536497043247
 31
0.0
  0
LINE
  5
10275
330
18
100
AcDbEntity
  8
01
  6
BYBLOCK
100
AcDbLine
 10
4984.727593071781
 20
1036.536497043247
 30
0.0
 11
4984.030925177781
 21
1039.136497043246
 31
0.0
  0
LINE
  5
10276
330
18
100
AcDbEntity
  8
01
  6
BYBLOCK
100
AcDbLine
 10
4984.727593071781
 20
1036.536497043247
 30
0.0
 11
4984.727593071781
 21
1039.136497043246
 31
0.0
  0
TEXT
  5
10277
330
18
100
AcDbEntity
  8
01
  6
CONTINUOUS
100
AcDbText
 10
4983.817593071781
 20
1125.234955388361
 30
0.0
 40
4.55
  1
130
 50
90.0
100
AcDbText
1001
ACAD
1000
DSTYLE
1002
{
1070
    40
1040
1.3
1070
    45
1040
0.5
1002
}
  0
LINE
  5
10278
330
18
100
AcDbEntity
  8
01
  6
BYBLOCK
100
AcDbLine
 10
4880.602102329443
 20
1209.161321233935
 30
0.0
 11
4878.002102329443
 21
1209.857989127935
 31
0.0
  0
LINE
  5
10279
330
18
100
AcDbEntity
  8
01
  6
BYBLOCK
100
AcDbLine
 10
4878.002102329443
 20
1209.857989127935
 30
0.0
 11
4880.602102329443
 21
1210.554657021935
 31
0.0
  0
LINE
  5
1027A
330
18
100
AcDbEntity
  8
01
  6
BYBLOCK
100
AcDbLine
 10
4878.002102329443
 20
1209.857989127935
 30
0.0
 11
4880.602102329443
 21
1209.857989127935
 31
0.0
  0
LINE
  5
1027B
330
18
100
AcDbEntity
  8
01
  6
BYBLOCK
100
AcDbLine
 10
4900.402102329443
 20
1210.554657021935
 30
0.0
 11
4903.002102329443
 21
1209.857989127935
 31
0.0
  0
LINE
  5
1027C
330
18
100
AcDbEntity
  8
01
  6
BYBLOCK
100
AcDbLine
 10
4903.002102329443
 20
1209.857989127935
 30
0.0
 11
4900.402102329443
 21
1209.161321233935
 31
0.0
  0
LINE
  5
1027D
330
18
100
AcDbEntity
  8
01
  6
BYBLOCK
100
AcDbLine
 10
4903.002102329443
 20
1209.857989127935
 30
0.0
 11
4900.402102329443
 21
1209.857989127935
 31
0.0
  0
TEXT
  5
1027E
330
18
100
AcDbEntity
  8
01
  6
CONTINUOUS
100
AcDbText
 10
4886.710435662776
 20
1210.767989127935
 30
0.0
 40
4.55
  1
25
100
AcDbText
1001
ACAD
1000
DSTYLE
1002
{
1070
    40
1040
1.3
1070
    45
1040
0.5
1002
}
  0
LINE
  5
1027F
330
18
100
AcDbEntity
  8
01
  6
BYBLOCK
100
AcDbLine
 10
5024.805318095699
 20
1104.337815356349
 30
0.0
 11
5025.501985989698
 21
1106.937815356348
 31
0.0
  0
LINE
  5
10280
330
18
100
AcDbEntity
  8
01
  6
BYBLOCK
100
AcDbLine
 10
5025.501985989698
 20
1106.937815356348
 30
0.0
 11
5026.198653883698
 21
1104.337815356349
 31
0.0
  0
LINE
  5
10281
330
18
100
AcDbEntity
  8
01
  6
BYBLOCK
100
AcDbLine
 10
5025.501985989698
 20
1106.937815356348
 30
0.0
 11
5025.501985989698
 21
1104.337815356349
 31
0.0
  0
LINE
  5
10282
330
18
100
AcDbEntity
  8
01
  6
BYBLOCK
100
AcDbLine
 10
5026.198653883698
 20
1056.537815356348
 30
0.0
 11
5025.501985989698
 21
1053.937815356348
 31
0.0
  0
LINE
  5
10283
330
18
100
AcDbEntity
  8
01
  6
BYBLOCK
100
AcDbLine
 10
5025.501985989698
 20
1053.937815356348
 30
0.0
 11
5024.805318095699
 21
1056.537815356348
 31
0.0
  0
LINE
  5
10284
330
18
100
AcDbEntity
  8
01
  6
BYBLOCK
100
AcDbLine
 10
5025.501985989698
 20
1053.937815356348
 30
0.0
 11
5025.501985989698
 21
1056.537815356348
 31
0.0
  0
TEXT
  5
10285
330
18
100
AcDbEntity
  8
01
  6
CONTINUOUS
100
AcDbText
 10
5024.591985989699
 20
1072.408937449752
 30
0.0
 40
4.55
  1
□53
 50
90.0
100
AcDbText
1001
ACAD
1000
DSTYLE
1002
{
1070
     3
1000
□<>
1070
    40
1040
1.3
1070
    45
1040
0.5
1002
}
  0
SOLID
  5
10286
330
18
100
AcDbEntity
  8
1DIM
100
AcDbTrace
 10
5057.871835344445
 20
1304.385739988303
 30
0.0000000000563712
 11
5060.242587229759
 21
1305.537830816344
 31
0.0000000000563712
 12
5058.373635174366
 22
1303.679122664852
 32
0.0000000000563712
 13
5058.373635174366
 23
1303.679122664852
 33
0.0000000000563712
1001
ACAD
1000
DSTYLE
1002
{
1070
    40
1040
1.3
1070
    45
1040
0.5
1002
}
  0
LINE
  5
10287
330
18
100
AcDbEntity
  8
1DIM
100
AcDbLine
 10
5058.122735259405
 20
1304.032431326578
 30
0.0000000000563712
 11
5030.655147082716
 21
1284.526497042218
 31
0.0000000000563712
1001
ACAD
1000
DSTYLE
1002
{
1070
    40
1040
1.3
1070
    45
1040
0.5
1002
}
  0
LINE
  5
10288
330
18
100
AcDbEntity
  8
1DIM
100
AcDbLine
 10
5076.902870171758
 20
1359.936497042218
 30
0.0
 11
5097.463260931471
 21
1359.936497042218
 31
0.0
1001
ACAD
1000
DSTYLE
1002
{
1070
    45
1040
0.5
1070
    40
1040
1.3
1002
}
  0
LINE
  5
10289
330
18
100
AcDbEntity
  8
1DIM
100
AcDbLine
 10
5078.502870171758
 20
1341.136497042218
 30
0.0
 11
5097.463260931471
 21
1341.136497042218
 31
0.0
1001
ACAD
1000
DSTYLE
1002
{
1070
    45
1040
0.5
1070
    40
1040
1.3
1002
}
  0
LINE
  5
1028A
330
18
100
AcDbEntity
  8
1DIM
100
AcDbLine
 10
5096.163260931471
 20
1357.336497042219
 30
0.0
 11
5096.163260931471
 21
1343.736497042218
 31
0.0
1001
ACAD
1000
DSTYLE
1002
{
1070
    45
1040
0.5
1070
    40
1040
1.3
1002
}
  0
LINE
  5
1028E
330
18
100
AcDbEntity
  8
1DIM
100
AcDbLine
 10
5184.406677044928
 20
1287.454035982907
 30
0.0000000001127424
 11
5216.801985989699
 21
1287.454035982907
 31
0.0000000001127424
1001
ACAD
1000
DSTYLE
1002
{
1070
    40
1040
1.3
1070
    45
1040
0.5
1002
}
  0
LINE
  5
1028F
330
18
100
AcDbEntity
  8
1DIM
100
AcDbLine
 10
5163.257133987046
 20
1330.436497043248
 30
0.0000000001127424
 11
5216.801985989699
 21
1330.436497043248
 31
0.0000000001127424
1001
ACAD
1000
DSTYLE
1002
{
1070
    40
1040
1.3
1070
    45
1040
0.5
1002
}
  0
LINE
  5
10290
330
18
100
AcDbEntity
  8
1DIM
100
AcDbLine
 10
5215.501985989698
 20
1290.054035982907
 30
0.0000000001127424
 11
5215.501985989698
 21
1327.836497043248
 31
0.0000000001127424
1001
ACAD
1000
DSTYLE
1002
{
1070
    40
1040
1.3
1070
    45
1040
0.5
1002
}
  0
LINE
  5
10294
330
18
100
AcDbEntity
  8
1DIM
100
AcDbLine
 10
5181.868899898254
 20
1265.436497723649
 30
0.0000000001127424
 11
5226.801985989699
 21
1265.436497723649
 31
0.0000000001127424
1001
ACAD
1000
DSTYLE
1002
{
1070
    40
1040
1.3
1070
    45
1040
0.5
1002
}
  0
LINE
  5
10295
330
18
100
AcDbEntity
  8
1DIM
100
AcDbLine
 10
5163.257133987046
 20
1330.436497043248
 30
0.0000000001127424
 11
5226.801985989699
 21
1330.436497043248
 31
0.0000000001127424
1001
ACAD
1000
DSTYLE
1002
{
1070
    40
1040
1.3
1070
    45
1040
0.5
1002
}
  0
LINE
  5
10296
330
18
100
AcDbEntity
  8
1DIM
100
AcDbLine
 10
5225.501985989698
 20
1268.036497723649
 30
0.0000000001127424
 11
5225.501985989698
 21
1327.836497043248
 31
0.0000000001127424
1001
ACAD
1000
DSTYLE
1002
{
1070
    40
1040
1.3
1070
    45
1040
0.5
1002
}
  0
LINE
  5
1029A
330
18
100
AcDbEntity
  8
1DIM
100
AcDbLine
 10
5183.494892733277
 20
1073.982031620975
 30
0.0
 11
5216.801985989699
 21
1073.982031620975
 31
0.0
1001
ACAD
1000
DSTYLE
1002
{
1070
    40
1040
1.3
1070
   271
1070
     0
1070
   279
1070
     2
1070
   289
1070
     3
1002
}
  0
LINE
  5
1029B
330
18
100
AcDbEntity
  8
1DIM
100
AcDbLine
 10
5183.494835799991
 20
1086.893583015459
 30
0.0
 11
5216.801985989699
 21
1086.893583015459
 31
0.0
1001
ACAD
1000
DSTYLE
1002
{
1070
    40
1040
1.3
1070
   271
1070
     0
1070
   279
1070
     2
1070
   289
1070
     3
1002
}
  0
LINE
  5
1029C
330
18
100
AcDbEntity
  8
1DIM
100
AcDbLine
 10
5215.501985989698
 20
1076.582031620975
 30
0.0
 11
5215.501985989698
 21
1084.293583015459
 31
0.0
1001
ACAD
1000
DSTYLE
1002
{
1070
    40
1040
1.3
1070
   271
1070
     0
1070
   279
1070
     2
1070
   289
1070
     3
1002
}
  0
LINE
  5
102A0
330
18
100
AcDbEntity
  8
1DIM
100
AcDbLine
 10
5060.501985989697
 20
1308.936497043248
 30
0.0000000001127424
 11
5060.501985989697
 21
1244.136497043248
 31
0.0000000001127424
1001
ACAD
1000
DSTYLE
1002
{
1070
    40
1040
1.3
1070
   271
1070
     0
1002
}
  0
LINE
  5
102A1
330
18
100
AcDbEntity
  8
1DIM
100
AcDbLine
 10
5184.501985989693
 20
1268.436497746579
 30
0.0000000001127424
 11
5184.501985989693
 21
1244.136497043248
 31
0.0000000001127424
1001
ACAD
1000
DSTYLE
1002
{
1070
    40
1040
1.3
1070
   271
1070
     0
1002
}
  0
LINE
  5
102A2
330
18
100
AcDbEntity
  8
1DIM
100
AcDbLine
 10
5063.101985989697
 20
1245.436497043248
 30
0.0000000001127424
 11
5181.901985989693
 21
1245.436497043248
 31
0.0000000001127424
1001
ACAD
1000
DSTYLE
1002
{
1070
    40
1040
1.3
1070
   271
1070
     0
1002
}
  0
LINE
  5
102A6
330
18
100
AcDbEntity
  8
1DIM
100
AcDbLine
 10
5046.501985989693
 20
1268.436497595104
 30
0.0000000001127424
 11
5046.501985989693
 21
1234.136497043248
 31
0.0000000001127424
1001
ACAD
1000
DSTYLE
1002
{
1070
    40
1040
1.3
1070
   271
1070
     0
1002
}
  0
LINE
  5
102A7
330
18
100
AcDbEntity
  8
1DIM
100
AcDbLine
 10
5184.501985989693
 20
1268.436497746579
 30
0.0000000001127424
 11
5184.501985989693
 21
1234.136497043248
 31
0.0000000001127424
1001
ACAD
1000
DSTYLE
1002
{
1070
    40
1040
1.3
1070
   271
1070
     0
1002
}
  0
LINE
  5
102A8
330
18
100
AcDbEntity
  8
1DIM
100
AcDbLine
 10
5049.101985989693
 20
1235.436497043248
 30
0.0000000001127424
 11
5181.901985989693
 21
1235.436497043248
 31
0.0000000001127424
1001
ACAD
1000
DSTYLE
1002
{
1070
    40
1040
1.3
1070
   271
1070
     0
1002
}
  0
LINE
  5
102AC
330
18
100
AcDbEntity
  8
0
  6
BYBLOCK
100
AcDbLine
 10
5095.466593037471
 20
1357.336497042219
 30
0.0
 11
5096.163260931471
 21
1359.936497042218
 31
0.0
  0
LINE
  5
102AD
330
18
100
AcDbEntity
  8
0
  6
BYBLOCK
100
AcDbLine
 10
5096.163260931471
 20
1359.936497042218
 30
0.0
 11
5096.859928825471
 21
1357.336497042219
 31
0.0
  0
LINE
  5
102AE
330
18
100
AcDbEntity
  8
0
  6
BYBLOCK
100
AcDbLine
 10
5096.163260931471
 20
1359.936497042218
 30
0.0
 11
5096.163260931471
 21
1357.336497042219
 31
0.0
  0
LINE
  5
102AF
330
18
100
AcDbEntity
  8
0
  6
BYBLOCK
100
AcDbLine
 10
5096.859928825471
 20
1343.736497042218
 30
0.0
 11
5096.163260931471
 21
1341.136497042218
 31
0.0
  0
LINE
  5
102B0
330
18
100
AcDbEntity
  8
0
  6
BYBLOCK
100
AcDbLine
 10
5096.163260931471
 20
1341.136497042218
 30
0.0
 11
5095.466593037471
 21
1343.736497042218
 31
0.0
  0
LINE
  5
102B1
330
18
100
AcDbEntity
  8
0
  6
BYBLOCK
100
AcDbLine
 10
5096.163260931471
 20
1341.136497042218
 30
0.0
 11
5096.163260931471
 21
1343.736497042218
 31
0.0
  0
TEXT
  5
102B2
330
18
100
AcDbEntity
  8
1DIM
  6
CONTINUOUS
100
AcDbText
 10
5095.25326093147
 20
1347.502110468144
 30
0.0
 40
4.55
  1
19
 50
90.0
100
AcDbText
1001
ACAD
1000
DSTYLE
1002
{
1070
    45
1040
0.5
1070
    40
1040
1.3
1002
}
  0
LINE
  5
102B3
330
18
100
AcDbEntity
  8
0
  6
BYBLOCK
100
AcDbLine
 10
5216.198653883698
 20
1290.054035982907
 30
0.0000000001127424
 11
5215.501985989698
 21
1287.454035982907
 31
0.0000000001127424
  0
LINE
  5
102B4
330
18
100
AcDbEntity
  8
0
  6
BYBLOCK
100
AcDbLine
 10
5215.501985989698
 20
1287.454035982907
 30
0.0000000001127424
 11
5214.805318095699
 21
1290.054035982907
 31
0.0000000001127424
  0
LINE
  5
102B5
330
18
100
AcDbEntity
  8
0
  6
BYBLOCK
100
AcDbLine
 10
5215.501985989698
 20
1287.454035982907
 30
0.0000000001127424
 11
5215.501985989698
 21
1290.054035982907
 31
0.0000000001127424
  0
LINE
  5
102B6
330
18
100
AcDbEntity
  8
0
  6
BYBLOCK
100
AcDbLine
 10
5214.805318095699
 20
1327.836497043248
 30
0.0000000001127424
 11
5215.501985989698
 21
1330.436497043248
 31
0.0000000001127424
  0
LINE
  5
102B7
330
18
100
AcDbEntity
  8
0
  6
BYBLOCK
100
AcDbLine
 10
5215.501985989698
 20
1330.436497043248
 30
0.0000000001127424
 11
5216.198653883698
 21
1327.836497043248
 31
0.0000000001127424
  0
LINE
  5
102B8
330
18
100
AcDbEntity
  8
0
  6
BYBLOCK
100
AcDbLine
 10
5215.501985989698
 20
1330.436497043248
 30
0.0000000001127424
 11
5215.501985989698
 21
1327.836497043248
 31
0.0000000001127424
  0
TEXT
  5
102B9
330
18
100
AcDbEntity
  8
1DIM
  6
CONTINUOUS
100
AcDbText
 10
5214.591985989699
 20
1305.153599846411
 30
0.0000000001127424
 40
4.55
  1
43
 50
90.0
100
AcDbText
1001
ACAD
1000
DSTYLE
1002
{
1070
    40
1040
1.3
1070
    45
1040
0.5
1002
}
  0
LINE
  5
102BA
330
18
100
AcDbEntity
  8
0
  6
BYBLOCK
100
AcDbLine
 10
5226.198653883698
 20
1268.036497723649
 30
0.0000000001127424
 11
5225.501985989698
 21
1265.436497723649
 31
0.0000000001127424
  0
LINE
  5
102BB
330
18
100
AcDbEntity
  8
0
  6
BYBLOCK
100
AcDbLine
 10
5225.501985989698
 20
1265.436497723649
 30
0.0000000001127424
 11
5224.805318095699
 21
1268.036497723649
 31
0.0000000001127424
  0
LINE
  5
102BC
330
18
100
AcDbEntity
  8
0
  6
BYBLOCK
100
AcDbLine
 10
5225.501985989698
 20
1265.436497723649
 30
0.0000000001127424
 11
5225.501985989698
 21
1268.036497723649
 31
0.0000000001127424
  0
LINE
  5
102BD
330
18
100
AcDbEntity
  8
0
  6
BYBLOCK
100
AcDbLine
 10
5224.805318095699
 20
1327.836497043248
 30
0.0000000001127424
 11
5225.501985989698
 21
1330.436497043248
 31
0.0000000001127424
  0
LINE
  5
102BE
330
18
100
AcDbEntity
  8
0
  6
BYBLOCK
100
AcDbLine
 10
5225.501985989698
 20
1330.436497043248
 30
0.0000000001127424
 11
5226.198653883698
 21
1327.836497043248
 31
0.0000000001127424
  0
LINE
  5
102BF
330
18
100
AcDbEntity
  8
0
  6
BYBLOCK
100
AcDbLine
 10
5225.501985989698
 20
1330.436497043248
 30
0.0000000001127424
 11
5225.501985989698
 21
1327.836497043248
 31
0.0000000001127424
  0
TEXT
  5
102C0
330
18
100
AcDbEntity
  8
1DIM
  6
CONTINUOUS
100
AcDbText
 10
5224.591985989698
 20
1294.129032105671
 30
0.0000000001127424
 40
4.55
  1
65
 50
90.0
100
AcDbText
1001
ACAD
1000
DSTYLE
1002
{
1070
    40
1040
1.3
1070
    45
1040
0.5
1002
}
  0
LINE
  5
102C1
330
18
100
AcDbEntity
  8
0
  6
BYBLOCK
100
AcDbLine
 10
5216.198653883698
 20
1076.582031620975
 30
0.0
 11
5215.501985989698
 21
1073.982031620975
 31
0.0
  0
LINE
  5
102C2
330
18
100
AcDbEntity
  8
0
  6
BYBLOCK
100
AcDbLine
 10
5215.501985989698
 20
1073.982031620975
 30
0.0
 11
5214.805318095699
 21
1076.582031620975
 31
0.0
  0
LINE
  5
102C3
330
18
100
AcDbEntity
  8
0
  6
BYBLOCK
100
AcDbLine
 10
5215.501985989698
 20
1073.982031620975
 30
0.0
 11
5215.501985989698
 21
1076.582031620975
 31
0.0
  0
LINE
  5
102C4
330
18
100
AcDbEntity
  8
0
  6
BYBLOCK
100
AcDbLine
 10
5214.805318095699
 20
1084.293583015459
 30
0.0
 11
5215.501985989698
 21
1086.893583015459
 31
0.0
  0
LINE
  5
102C5
330
18
100
AcDbEntity
  8
0
  6
BYBLOCK
100
AcDbLine
 10
5215.501985989698
 20
1086.893583015459
 30
0.0
 11
5216.198653883698
 21
1084.293583015459
 31
0.0
  0
LINE
  5
102C6
330
18
100
AcDbEntity
  8
0
  6
BYBLOCK
100
AcDbLine
 10
5215.501985989698
 20
1086.893583015459
 30
0.0
 11
5215.501985989698
 21
1084.293583015459
 31
0.0
  0
TEXT
  5
102C7
330
18
100
AcDbEntity
  8
1DIM
  6
CONTINUOUS
100
AcDbText
 10
5214.591985989699
 20
1077.404473984884
 30
0.0
 40
4.55
  1
13
 50
90.0
100
AcDbText
1001
ACAD
1000
DSTYLE
1002
{
1070
    40
1040
1.3
1070
   271
1070
     0
1070
   279
1070
     2
1070
   289
1070
     3
1002
}
  0
LINE
  5
102C8
330
18
100
AcDbEntity
  8
0
  6
BYBLOCK
100
AcDbLine
 10
5063.101985989697
 20
1244.739829149247
 30
0.0000000001127424
 11
5060.501985989697
 21
1245.436497043248
 31
0.0000000001127424
  0
LINE
  5
102C9
330
18
100
AcDbEntity
  8
0
  6
BYBLOCK
100
AcDbLine
 10
5060.501985989697
 20
1245.436497043248
 30
0.0000000001127424
 11
5063.101985989697
 21
1246.133164937248
 31
0.0000000001127424
  0
LINE
  5
102CA
330
18
100
AcDbEntity
  8
0
  6
BYBLOCK
100
AcDbLine
 10
5060.501985989697
 20
1245.436497043248
 30
0.0000000001127424
 11
5063.101985989697
 21
1245.436497043248
 31
0.0000000001127424
  0
LINE
  5
102CB
330
18
100
AcDbEntity
  8
0
  6
BYBLOCK
100
AcDbLine
 10
5181.901985989693
 20
1246.133164937248
 30
0.0000000001127424
 11
5184.501985989693
 21
1245.436497043248
 31
0.0000000001127424
  0
LINE
  5
102CC
330
18
100
AcDbEntity
  8
0
  6
BYBLOCK
100
AcDbLine
 10
5184.501985989693
 20
1245.436497043248
 30
0.0000000001127424
 11
5181.901985989693
 21
1244.739829149247
 31
0.0000000001127424
  0
LINE
  5
102CD
330
18
100
AcDbEntity
  8
0
  6
BYBLOCK
100
AcDbLine
 10
5184.501985989693
 20
1245.436497043248
 30
0.0000000001127424
 11
5181.901985989693
 21
1245.436497043248
 31
0.0000000001127424
  0
TEXT
  5
102CE
330
18
100
AcDbEntity
  8
1DIM
  6
CONTINUOUS
100
AcDbText
 10
5118.213189255505
 20
1246.346497043248
 30
0.0000000001127424
 40
4.55
  1
124
100
AcDbText
1001
ACAD
1000
DSTYLE
1002
{
1070
    40
1040
1.3
1070
   271
1070
     0
1002
}
  0
LINE
  5
102CF
330
18
100
AcDbEntity
  8
0
  6
BYBLOCK
100
AcDbLine
 10
5049.101985989693
 20
1234.739829149247
 30
0.0000000001127424
 11
5046.501985989693
 21
1235.436497043248
 31
0.0000000001127424
  0
LINE
  5
102D0
330
18
100
AcDbEntity
  8
0
  6
BYBLOCK
100
AcDbLine
 10
5046.501985989693
 20
1235.436497043248
 30
0.0000000001127424
 11
5049.101985989693
 21
1236.133164937248
 31
0.0000000001127424
  0
LINE
  5
102D1
330
18
100
AcDbEntity
  8
0
  6
BYBLOCK
100
AcDbLine
 10
5046.501985989693
 20
1235.436497043248
 30
0.0000000001127424
 11
5049.101985989693
 21
1235.436497043248
 31
0.0000000001127424
  0
LINE
  5
102D2
330
18
100
AcDbEntity
  8
0
  6
BYBLOCK
100
AcDbLine
 10
5181.901985989693
 20
1236.133164937248
 30
0.0000000001127424
 11
5184.501985989693
 21
1235.436497043248
 31
0.0000000001127424
  0
LINE
  5
102D3
330
18
100
AcDbEntity
  8
0
  6
BYBLOCK
100
AcDbLine
 10
5184.501985989693
 20
1235.436497043248
 30
0.0000000001127424
 11
5181.901985989693
 21
1234.739829149247
 31
0.0000000001127424
  0
LINE
  5
102D4
330
18
100
AcDbEntity
  8
0
  6
BYBLOCK
100
AcDbLine
 10
5184.501985989693
 20
1235.436497043248
 30
0.0000000001127424
 11
5181.901985989693
 21
1235.436497043248
 31
0.0000000001127424
  0
TEXT
  5
102D5
330
18
100
AcDbEntity
  8
1DIM
  6
CONTINUOUS
100
AcDbText
 10
5112.087195899771
 20
1236.346497043248
 30
0.0000000001127424
 40
4.55
  1
138
100
AcDbText
1001
ACAD
1000
DSTYLE
1002
{
1070
    40
1040
1.3
1070
   271
1070
     0
1002
}
  0
VIEWPORT
  5
57
330
15
100
AcDbEntity
 67
     1
  8
0
100
AcDbViewport
 68
     1
 10
0.0
 20
0.0
 30
0.0
 40
555.8298653610772
 41
297.0
 68
     1
 69
     1
1001
ACAD
1000
MVIEW
1002
{
1070
    16
1010
0.0
1020
0.0
1030
0.0
1010
0.0
1020
0.0
1030
1.0
1040
0.0
1040
297.0
1040
5.728000000000009
1040
25.339
1040
50.0
1040
0.0
1040
0.0
1070
    16
1070
   100
1070
     0
1070
     1
1070
     0
1070
     0
1070
     0
1070
     0
1040
0.0
1040
0.0
1040
0.0
1040
10.0
1040
10.0
1040
10.0
1040
10.0
1070
     0
1002
{
1002
}
1002
}
  0
ENDSEC
  0
SECTION
  2
OBJECTS
  0
DICTIONARY
  5
C
330
0
100
AcDbDictionary
  3
ACAD_CIP_PREVIOUS_PRODUCT_INFO
350
AEA8
  3
ACAD_COLOR
350
18D
  3
ACAD_GROUP
350
D
  3
ACAD_LAYOUT
350
18E
  3
ACAD_MATERIAL
350
18C
  3
ACAD_MLEADERSTYLE
350
9583
  3
ACAD_MLINESTYLE
350
1B
  3
ACAD_PLOTSETTINGS
350
18F
  3
ACAD_SCALELIST
350
9561
  3
ACAD_VISUALSTYLE
350
9550
  3
ACDBHEADERROUNDTRIPXREC
350
102D6
  3
ACDBVARIABLEDICTIONARY
350
37
  3
CONTENTDICTIONARY
350
D8
  3
DRAWINGVARIABLESDICT
350
20
  3
DWGPROPS
350
102D9
1001
ACAD
1000
TREAT_AS_HARD
1070
     0
  0
DICTIONARY
  5
96D9
330
2
100
AcDbDictionary
  3
ACAD_LAYERSTATES
360
96DA
1001
ACAD
1000
TREAT_AS_HARD
1070
     1
  0
DICTIONARY
  5
9593
330
E
100
AcDbDictionary
  3
ADSK_XREC_LAYER_RECONCILED
360
9594
1001
ACAD
1000
TREAT_AS_HARD
1070
     1
  0
DICTIONARY
  5
9595
330
29
100
AcDbDictionary
  3
ADSK_XREC_LAYER_RECONCILED
360
9596
1001
ACAD
1000
TREAT_AS_HARD
1070
     1
  0
DICTIONARY
  5
9597
330
31
100
AcDbDictionary
  3
ADSK_XREC_LAYER_RECONCILED
360
9598
1001
ACAD
1000
TREAT_AS_HARD
1070
     1
  0
DICTIONARY
  5
959D
330
243
100
AcDbDictionary
  3
ADSK_XREC_LAYER_RECONCILED
360
959E
1001
ACAD
1000
TREAT_AS_HARD
1070
     1
  0
DICTIONARY
  5
95A3
330
24E
100
AcDbDictionary
  3
ADSK_XREC_LAYER_RECONCILED
360
95A4
1001
ACAD
1000
TREAT_AS_HARD
1070
     1
  0
DICTIONARY
  5
95AF
330
2C05
100
AcDbDictionary
  3
ADSK_XREC_LAYER_RECONCILED
360
95B0
1001
ACAD
1000
TREAT_AS_HARD
1070
     1
  0
DICTIONARY
  5
88F
330
18
100
AcDbDictionary
  3
ACAD_SORTENTS
360
890
1001
ACAD
1000
TREAT_AS_HARD
1070
     1
  0
XRECORD
  5
AEA8
102
{ACAD_REACTORS
330
C
102
}
330
C
100
AcDbXrecord
300
ACDLT
300
2012
300
ACDLT_F_S
  0
DICTIONARY
  5
18D
102
{ACAD_REACTORS
330
C
102
}
330
C
100
AcDbDictionary
1001
ACAD
1000
TREAT_AS_HARD
1070
     0
  0
DICTIONARY
  5
D
102
{ACAD_REACTORS
330
C
102
}
330
C
100
AcDbDictionary
1001
ACAD
1000
TREAT_AS_HARD
1070
     0
  0
DICTIONARY
  5
18E
102
{ACAD_REACTORS
330
C
102
}
330
C
100
AcDbDictionary
1001
ACAD
1000
TREAT_AS_HARD
1070
     0
  0
DICTIONARY
  5
18C
102
{ACAD_REACTORS
330
C
102
}
330
C
100
AcDbDictionary
  3
BYBLOCK
350
9540
  3
BYLAYER
350
9538
  3
GLOBAL
350
9548
1001
ACAD
1000
TREAT_AS_HARD
1070
     0
  0
DICTIONARY
  5
9583
102
{ACAD_REACTORS
330
C
102
}
330
C
100
AcDbDictionary
  3
STANDARD
350
9584
1001
ACAD
1000
TREAT_AS_HARD
1070
     0
  0
DICTIONARY
  5
1B
102
{ACAD_REACTORS
330
C
102
}
330
C
100
AcDbDictionary
  3
STANDARD
350
1C
1001
ACAD
1000
TREAT_AS_HARD
1070
     0
  0
DICTIONARY
  5
18F
102
{ACAD_REACTORS
330
C
102
}
330
C
100
AcDbDictionary
1001
ACAD
1000
TREAT_AS_HARD
1070
     0
  0
DICTIONARY
  5
9561
102
{ACAD_REACTORS
330
C
102
}
330
C
100
AcDbDictionary
  3
A0
350
9562
  3
A1
350
9563
  3
A2
350
9564
  3
A3
350
9565
  3
A4
350
9566
  3
A5
350
9567
  3
A6
350
9568
  3
A7
350
9569
  3
A8
350
956A
  3
A9
350
956B
  3
B0
350
956C
  3
B1
350
956D
  3
B2
350
956E
  3
B3
350
956F
  3
B4
350
9570
  3
B5
350
9571
  3
B6
350
9572
  3
B7
350
9573
  3
B8
350
9574
  3
B9
350
9575
  3
C0
350
9576
  3
C1
350
9577
  3
C2
350
9578
  3
C3
350
9579
  3
C4
350
957A
  3
C5
350
957B
  3
C6
350
957C
  3
C7
350
957D
  3
C8
350
957E
  3
C9
350
957F
  3
D0
350
9580
  3
D1
350
9581
  3
D2
350
9582
1001
ACAD
1000
TREAT_AS_HARD
1070
     0
  0
DICTIONARY
  5
9550
102
{ACAD_REACTORS
330
C
102
}
330
C
100
AcDbDictionary
  3
2DWIREFRAME
350
9556
  3
3D_HIDDEN
350
9558
  3
3DWIREFRAME
350
9557
  3
BASIC
350
9555
  3
BRIGHTEN
350
955C
  3
COLORCHANGE
350
9560
  3
CONCEPTUAL
350
9559
  3
DIM
350
955B
  3
EDGECOLOROFF
350
A211
  3
FACEPATTERN
350
955F
  3
FLAT
350
9551
  3
FLATWITHEDGES
350
9552
  3
GOURAUD
350
9553
  3
GOURAUDWITHEDGES
350
9554
  3
HIDDEN
350
A260
  3
JITTEROFF
350
A20F
  3
LINEPATTERN
350
955E
  3
MODELING
350
A266
  3
OVERHANGOFF
350
A210
  3
REALISTIC
350
955A
  3
SHADED
350
A265
  3
SHADED_WITH_EDGES
350
A264
  3
SHADES_OF_GRAY
350
A261
  3
SKETCHY
350
A262
  3
THICKEN
350
955D
  3
WIREFRAME
350
A25F
  3
X-RAY
350
A263
1001
ACAD
1000
TREAT_AS_HARD
1070
     0
  0
DICTIONARY
  5
102D6
102
{ACAD_REACTORS
330
C
102
}
330
C
100
AcDbDictionary
  3
COLORDICT
350
102D7
  3
MATERIALDICT
350
102D8
1001
ACAD
1000
TREAT_AS_HARD
1070
     0
  0
DICTIONARY
  5
37
102
{ACAD_REACTORS
330
C
102
}
330
C
100
AcDbDictionary
  3
CANNOSCALE
350
AAE0
  3
CMLEADERSTYLE
350
9627
  3
CTABLESTYLE
350
29E
  3
DIMADEC
350
38
  3
DIMASSOC
350
1CE
  3
HIDETEXT
350
704E
  3
INDEXCTL
350
962A
  3
INTERSECTIONCOLOR
350
7052
  3
INTERSECTIONDISPLAY
350
7051
  3
MSLTSCALE
350
AB30
  3
OBSCOLOR
350
704F
  3
OBSLTYPE
350
7050
  3
PROJECTNAME
350
1CF
  3
SORTENTS
350
9629
  3
XCLIPFRAME
350
FFDB
1001
ACAD
1000
TREAT_AS_HARD
1070
     0
  0
DICTIONARY
  5
D8
102
{ACAD_REACTORS
330
C
102
}
330
C
100
AcDbDictionary
1001
ACAD
1000
TREAT_AS_HARD
1070
     0
  0
DICTIONARY
  5
20
102
{ACAD_REACTORS
330
C
102
}
330
C
100
AcDbDictionary
1001
DRAWINGVARIABLESXDATA
1000
POLARANG
1000
0.261799387799149410000000
1000
POLARMODE
1000
1
1000
POLARSTYLE
1000
1
1001
ACAD
1000
TREAT_AS_HARD
1070
     0
  0
XRECORD
  5
102D9
102
{ACAD_REACTORS
330
C
102
}
330
C
100
AcDbXrecord
  1
DWGPROPS COOKIE
  2

  3

  4

  6

  7

  8
3684
  9

300
=
301
=
302
=
303
=
304
=
305
=
306
=
307
=
308
=
309
=
 40
0.0
 41
2451318.246352917
 42
2458157.162622141
  1

 90
        0
  0
DICTIONARY
  5
96DA
102
{ACAD_REACTORS
330
96D9
102
}
330
96D9
100
AcDbDictionary
1001
ACAD
1000
TREAT_AS_HARD
1070
     0
  0
ACAD_PROXY_OBJECT
  5
9594
102
{ACAD_REACTORS
330
9593
102
}
330
9593
100
AcDbZombieObject
 90
      499
 91
      514
 93
       34
310
40C8804040
  0
ACAD_PROXY_OBJECT
  5
9596
102
{ACAD_REACTORS
330
9595
102
}
330
9595
100
AcDbZombieObject
 90
      499
 91
      514
 93
       34
310
40C8804040
  0
ACAD_PROXY_OBJECT
  5
9598
102
{ACAD_REACTORS
330
9597
102
}
330
9597
100
AcDbZombieObject
 90
      499
 91
      514
 93
       34
310
40C8804040
  0
ACAD_PROXY_OBJECT
  5
959E
102
{ACAD_REACTORS
330
959D
102
}
330
959D
100
AcDbZombieObject
 90
      499
 91
      514
 93
       34
310
40C8804040
  0
ACAD_PROXY_OBJECT
  5
95A4
102
{ACAD_REACTORS
330
95A3
102
}
330
95A3
100
AcDbZombieObject
 90
      499
 91
      514
 93
       34
310
40C8804040
  0
ACAD_PROXY_OBJECT
  5
95B0
102
{ACAD_REACTORS
330
95AF
102
}
330
95AF
100
AcDbZombieObject
 90
      499
 91
      514
 93
       34
310
40C8804040
  0
SORTENTSTABLE
  5
890
102
{ACAD_REACTORS
330
88F
102
}
330
88F
100
AcDbSortentsTable
330
18
331
0
  5
F030
331
F02F
  5
F049
331
F030
  5
F04A
331
F031
  5
F04B
331
F035
  5
F06D
331
F036
  5
F06E
331
F037
  5
F06F
331
F038
  5
F070
331
F039
  5
F071
331
F03A
  5
F072
331
F03B
  5
F073
331
F03C
  5
F074
331
F03D
  5
F075
331
F03E
  5
F076
331
F03F
  5
F077
331
F040
  5
F078
331
F041
  5
F079
331
F042
  5
F07A
331
F043
  5
F07B
331
F044
  5
F07C
331
F045
  5
F07D
331
F046
  5
F07E
331
F047
  5
F07F
331
F048
  5
F080
331
F049
  5
F081
331
F04A
  5
F082
331
F04B
  5
F083
331
F04C
  5
F084
331
F04D
  5
F085
331
F04E
  5
F086
331
F04F
  5
F087
331
F050
  5
F088
331
F051
  5
F089
331
F052
  5
F08A
331
F053
  5
F08B
331
F054
  5
F08C
331
F055
  5
F08D
331
F056
  5
F08E
331
F057
  5
F08F
331
F058
  5
F090
331
F059
  5
F091
331
F05A
  5
F092
331
F05B
  5
F093
331
F05C
  5
F094
331
F05D
  5
F095
331
F05E
  5
F096
331
F05F
  5
F097
331
F060
  5
F098
331
F061
  5
F099
331
F062
  5
F09A
331
F063
  5
F09B
331
F064
  5
F09C
331
F065
  5
F09D
331
F066
  5
F0A1
331
F067
  5
F0A2
331
F068
  5
F0A3
331
F069
  5
F0A4
331
F06A
  5
F0A5
331
F06B
  5
F0A6
331
F06C
  5
F0A7
331
F06D
  5
F0A8
331
F06E
  5
F0A9
331
F06F
  5
F0AA
331
F070
  5
F0AB
331
F071
  5
F0AC
331
F072
  5
F0AD
331
F073
  5
F0AF
331
F074
  5
F0B0
331
0
  5
F0AE
331
F076
  5
F182
331
F077
  5
F183
331
F078
  5
F184
331
F079
  5
F188
331
F07A
  5
F189
331
F07B
  5
F18A
331
F07C
  5
F18E
331
F07D
  5
F18F
331
F07E
  5
F190
331
F07F
  5
F191
331
F080
  5
F192
331
F081
  5
F193
331
F082
  5
F194
331
F083
  5
F195
331
F084
  5
F196
331
F085
  5
F197
331
F086
  5
F198
331
F087
  5
F199
331
F088
  5
F19A
331
F089
  5
F19B
331
F08A
  5
F19C
331
F08B
  5
F19D
331
F08C
  5
F19E
331
F08D
  5
F19F
331
F08E
  5
F1A0
331
F08F
  5
F1A1
331
F090
  5
F1A2
331
F091
  5
F1A3
331
F092
  5
F1A4
331
F093
  5
F1A5
331
F094
  5
F1A6
331
F095
  5
F1A7
331
F096
  5
F1A8
331
F097
  5
F1A9
331
F098
  5
F1AA
331
F099
  5
F1AB
331
F09A
  5
F1AC
331
F09B
  5
F1AD
331
F09C
  5
F1AE
331
F09D
  5
F1AF
331
F0A1
  5
F2A5
331
F0A2
  5
F2A6
331
F0A3
  5
F2A7
331
F0A4
  5
F2A8
331
F0A5
  5
F2A9
331
F0A6
  5
F2AA
331
F0A7
  5
F2AB
331
F0A8
  5
F2AC
331
F0A9
  5
F2AD
331
F0AA
  5
F2AE
331
F0AB
  5
F2AF
331
F0AC
  5
F2B0
331
F0AD
  5
F2B1
331
F0AE
  5
F2B2
331
F0AF
  5
F2B3
331
F0B0
  5
F2B4
331
F0B1
  5
F2B5
331
F0B2
  5
F2B6
331
F0B3
  5
F2B7
331
F0B4
  5
F2B8
331
F0B5
  5
F2B9
331
F0B6
  5
F2BA
331
F0B7
  5
F2BB
331
F0B8
  5
F2BD
331
F0B9
  5
F2BF
331
F0BA
  5
F2C1
331
F17B
  5
F2C3
331
F17C
  5
F2C4
331
F17D
  5
F2C6
331
F17E
  5
F2C7
331
F17F
  5
F2C9
331
F180
  5
F2CC
331
F182
  5
F2CD
331
F183
  5
F2CF
331
F184
  5
F2D0
331
F185
  5
F2D2
331
F186
  5
F2D3
331
F187
  5
F2D6
331
F188
  5
F2D7
331
F189
  5
F2D8
331
F18A
  5
F2D9
331
F18B
  5
F2DA
331
F18C
  5
F2DB
331
F18D
  5
F2DC
331
F18E
  5
F2DE
331
F18F
  5
F2DF
331
F190
  5
F2E0
331
F191
  5
F2EA
331
F192
  5
F2EB
331
F193
  5
F2EC
331
F194
  5
F2ED
331
F195
  5
F2EF
331
F196
  5
F2F2
331
F197
  5
F2F3
331
F198
  5
F2F4
331
F199
  5
F2F5
331
F19A
  5
F2F7
331
F19B
  5
F2F8
331
F19C
  5
F2F9
331
F19D
  5
F2FB
331
F19E
  5
F2FC
331
F19F
  5
F2FD
331
F1A0
  5
F2FE
331
F1A1
  5
F300
331
F1A2
  5
F301
331
F1A3
  5
F302
331
F1A4
  5
F303
331
F1A5
  5
F304
331
F1A6
  5
F305
331
F1A7
  5
F306
331
F1A8
  5
F307
331
F1A9
  5
F308
331
F1AA
  5
F309
331
F1AB
  5
F30A
331
F1AC
  5
F30B
331
F1AD
  5
F30C
331
F1AE
  5
F30D
331
F1AF
  5
F30E
331
F1B0
  5
F30F
331
F1B1
  5
F310
331
F1B2
  5
F311
331
F1B3
  5
F314
331
F1B4
  5
F316
331
F1B5
  5
F317
331
F1B6
  5
F318
331
F1B7
  5
F319
331
F1B8
  5
F31A
331
F1B9
  5
F31D
331
F1BA
  5
F31E
331
F1BB
  5
F31F
331
F1BC
  5
F320
331
F1BD
  5
F321
331
F1BE
  5
F322
331
F1BF
  5
F323
331
F1C0
  5
F324
331
F1C1
  5
F325
331
F1C2
  5
F326
331
F1C3
  5
F327
331
F1C4
  5
F331
331
F29B
  5
F332
331
F29C
  5
F333
331
F29D
  5
F33A
331
0
  5
F31B
331
0
  5
F31C
331
F2A0
  5
F356
331
F2A1
  5
F357
331
F2A2
  5
F359
331
F2A3
  5
F35A
331
F2A5
  5
F36C
331
F2A6
  5
F36D
331
F2A7
  5
F36E
331
F2A8
  5
F373
331
F2A9
  5
F374
331
F2AA
  5
10076
331
F2AB
  5
10077
331
F2AC
  5
10078
331
F2AD
  5
10079
331
F2AE
  5
1007A
331
F2AF
  5
1007B
331
F2B0
  5
1007C
331
F2B1
  5
1007D
331
F2B2
  5
1007E
331
F2B3
  5
1007F
331
F2B4
  5
10080
331
F2B5
  5
10081
331
F2B6
  5
10082
331
F2B7
  5
10083
331
F2B8
  5
10084
331
F2B9
  5
10085
331
0
  5
F34B
331
F2BB
  5
10090
331
F2BD
  5
1009A
331
F2BF
  5
1009D
331
F2C1
  5
100A7
331
F2C3
  5
100AA
331
F2C4
  5
100AB
331
F2C6
  5
100B0
331
F2C7
  5
100B1
331
F2C9
  5
100B6
331
F2CC
  5
100BD
331
F2CD
  5
100BE
331
F2CF
  5
100C6
331
F2D0
  5
100C7
331
F2D2
  5
100CF
331
F2D3
  5
100D0
331
F2D6
  5
100D7
331
F2D7
  5
100D8
331
F2D8
  5
100D9
331
F2D9
  5
100DA
331
F2DA
  5
100DB
331
F2DB
  5
100DC
331
F2DC
  5
100DD
331
F2DE
  5
100FC
331
F2DF
  5
100FD
331
F2E0
  5
100FE
331
F2E1
  5
100FF
331
F2E4
  5
10113
331
F2E5
  5
10114
331
F2EA
  5
10123
331
F2EB
  5
10124
331
F2EC
  5
10125
331
F2ED
  5
10126
331
F2EF
  5
10147
331
F2F2
  5
10154
331
F2F3
  5
10155
331
F2F4
  5
10156
331
F2F5
  5
10157
331
F2F7
  5
1016F
331
F2F8
  5
10170
331
F2F9
  5
10171
331
F2FB
  5
1017B
331
0
  5
1013E
331
0
  5
1013F
331
F2FE
  5
10190
331
F300
  5
1019E
331
F301
  5
1019F
331
F302
  5
101A0
331
F303
  5
101A1
331
F304
  5
101A2
331
F305
  5
101A3
331
F306
  5
101A4
331
F307
  5
101A5
331
F308
  5
101A6
331
F309
  5
101A7
331
F30A
  5
101A8
331
F30B
  5
101A9
331
F30C
  5
101AA
331
F30D
  5
101AB
331
F30E
  5
101AC
331
F30F
  5
101AD
331
F310
  5
101AE
331
F311
  5
101AF
331
F314
  5
101BB
331
F316
  5
101C9
331
F317
  5
101CA
331
F318
  5
101CB
331
F319
  5
101CC
331
F31A
  5
101CD
331
F31B
  5
101CE
331
F31C
  5
101CF
331
F31D
  5
101D0
331
F31E
  5
101D1
331
F31F
  5
101D2
331
F320
  5
101D3
331
F321
  5
101D4
331
F322
  5
101D5
331
F323
  5
101D6
331
F324
  5
101D7
331
F325
  5
101D8
331
F326
  5
101D9
331
F327
  5
101DA
331
F32A
  5
101E6
331
F32B
  5
101E7
331
F32C
  5
101E8
331
F331
  5
101F7
331
F332
  5
101F8
331
F333
  5
101F9
331
F334
  5
101FA
331
F336
  5
10219
331
F339
  5
10226
331
F33A
  5
10227
331
F33B
  5
10228
331
F33C
  5
10229
331
F33E
  5
1023B
331
F33F
  5
1023C
331
F340
  5
1023D
331
F342
  5
10247
331
F343
  5
10248
331
F344
  5
10249
331
F345
  5
1024A
331
F346
  5
1024B
331
F347
  5
1024C
331
F348
  5
1024D
331
F349
  5
1024E
331
F34A
  5
1024F
331
F34B
  5
10250
331
F34C
  5
10251
331
F34D
  5
10252
331
F34E
  5
10253
331
F350
  5
1025D
331
F352
  5
10260
331
F354
  5
1026A
331
F356
  5
1026D
331
F357
  5
1026E
331
F359
  5
10273
331
F35A
  5
10274
331
F35C
  5
10279
331
F35F
  5
10280
331
F360
  5
10281
331
F362
  5
10289
331
F363
  5
1028A
331
F365
  5
10292
331
F366
  5
10293
331
F369
  5
1029A
331
F36A
  5
1029B
331
F36B
  5
1029C
331
F36C
  5
1029D
331
F36D
  5
1029E
331
F36E
  5
1029F
331
F36F
  5
102A0
331
F371
  5
102BF
331
F372
  5
102C0
331
F373
  5
102C1
331
F374
  5
102C2
331
10076
  5
EF8A
331
10077
  5
F02F
331
10078
  5
F036
331
10079
  5
F03A
331
1007A
  5
F03B
331
0
  5
F037
331
0
  5
F038
331
0
  5
F039
331
1007E
  5
F04F
331
1007F
  5
F050
331
10080
  5
F051
331
0
  5
F040
331
0
  5
F041
331
0
  5
F042
331
10084
  5
F059
331
10085
  5
F05A
331
10086
  5
F05B
331
0
  5
F046
331
0
  5
F047
331
0
  5
F048
331
1008A
  5
F063
331
1008B
  5
F064
331
1008C
  5
F065
331
0
  5
F04C
331
0
  5
F04D
331
0
  5
F04E
331
10090
  5
F1B0
331
10091
  5
F1B1
331
10092
  5
F1B2
331
0
  5
F17E
331
0
  5
F17F
331
0
  5
F180
331
10096
  5
F1BA
331
10097
  5
F1BB
331
10098
  5
F1BC
331
0
  5
F185
331
0
  5
F186
331
0
  5
F187
331
1009C
  5
F1C4
331
1009D
  5
F29B
331
1009E
  5
F29C
331
0
  5
F18B
331
0
  5
F18C
331
0
  5
F18D
331
100A2
  5
F35C
331
100A3
  5
F35F
331
100A4
  5
F360
331
0
  5
F2E1
331
0
  5
F2E4
331
0
  5
F2E5
331
100A8
  5
10091
331
100A9
  5
10092
331
100AA
  5
10093
331
100AB
  5
10094
331
100AC
  5
10095
331
100AD
  5
10096
331
100AE
  5
10097
331
100AF
  5
10098
331
100B0
  5
10099
331
100B1
  5
1009B
331
100B2
  5
1009C
331
100B3
  5
1009E
331
100B4
  5
1009F
331
100B5
  5
100A0
331
100B6
  5
100A1
331
100B7
  5
100A2
331
100B8
  5
100A3
331
100B9
  5
100A4
331
100BA
  5
100A5
331
100BB
  5
100A6
331
100BC
  5
100A8
331
100BD
  5
100A9
331
100BE
  5
100AC
331
100BF
  5
100AD
331
100C0
  5
100AE
331
100C1
  5
100AF
331
100C2
  5
100B2
331
100C3
  5
100B3
331
100C4
  5
100B4
331
100C5
  5
100B5
331
100C6
  5
100B7
331
100C7
  5
100B8
331
100C8
  5
100B9
331
100C9
  5
100BA
331
100CA
  5
100BB
331
100CB
  5
100BC
331
100CC
  5
100BF
331
100CD
  5
100C0
331
100CE
  5
100C1
331
100CF
  5
100C2
331
100D0
  5
100C3
331
100D1
  5
100C4
331
100D2
  5
100C5
331
100D3
  5
100C8
331
100D4
  5
100C9
331
100D5
  5
100CA
331
100D6
  5
100CB
331
100D7
  5
100CC
331
100D8
  5
100CD
331
100D9
  5
100CE
331
100DA
  5
100D1
331
100DB
  5
100D2
331
100DC
  5
100D3
331
100DD
  5
100D4
331
100DE
  5
100D5
331
100DF
  5
100D6
331
100E0
  5
100DE
331
100E1
  5
100DF
331
100E2
  5
100E0
331
100E3
  5
100E1
331
100E4
  5
100E2
331
100E5
  5
100E3
331
100E6
  5
100E4
331
100E7
  5
100E5
331
100E8
  5
100E6
331
100E9
  5
100E7
331
100EA
  5
100E8
331
100EB
  5
100E9
331
100EC
  5
100EA
331
100ED
  5
100EB
331
100EE
  5
100EC
331
100EF
  5
100ED
331
100F0
  5
100EE
331
100F1
  5
100EF
331
100F2
  5
100F0
331
100F3
  5
100F1
331
100F4
  5
100F2
331
100F5
  5
100F3
331
100F6
  5
100F4
331
100F7
  5
100F5
331
100F8
  5
100F6
331
100F9
  5
100F7
331
100FA
  5
100F8
331
100FB
  5
100F9
331
100FC
  5
100FA
331
100FD
  5
100FB
331
100FE
  5
10100
331
100FF
  5
10101
331
10100
  5
10102
331
10101
  5
10103
331
10102
  5
10104
331
10103
  5
10105
331
10104
  5
10106
331
10105
  5
10107
331
10106
  5
10108
331
10107
  5
10109
331
10108
  5
1010A
331
10109
  5
1010B
331
1010A
  5
1010C
331
1010B
  5
1010D
331
1010C
  5
1010E
331
1010D
  5
1010F
331
1010E
  5
10110
331
1010F
  5
10111
331
10110
  5
10112
331
10111
  5
10115
331
10112
  5
10116
331
10113
  5
10117
331
10114
  5
10118
331
10115
  5
10119
331
10116
  5
1011A
331
10117
  5
1011B
331
10118
  5
1011C
331
10119
  5
1011D
331
1011A
  5
1011E
331
1011B
  5
1011F
331
1011C
  5
10120
331
1011D
  5
10121
331
1011E
  5
10122
331
1011F
  5
10127
331
10120
  5
10128
331
10121
  5
10129
331
10122
  5
1012A
331
10123
  5
1012B
331
10124
  5
1012C
331
10125
  5
1012D
331
10126
  5
1012E
331
10127
  5
1012F
331
10128
  5
10130
331
10129
  5
10131
331
1012A
  5
10132
331
1012B
  5
10133
331
1012C
  5
10134
331
1012D
  5
10135
331
1012E
  5
10136
331
1012F
  5
10137
331
10130
  5
10138
331
10131
  5
10139
331
10132
  5
1013A
331
10133
  5
1013B
331
10134
  5
1013C
331
10135
  5
1013D
331
10136
  5
10140
331
10137
  5
10141
331
10138
  5
10142
331
10139
  5
10143
331
1013A
  5
10144
331
1013B
  5
10145
331
1013C
  5
10146
331
1013D
  5
10148
331
1013E
  5
10149
331
1013F
  5
1014A
331
10140
  5
1014B
331
10141
  5
1014C
331
10142
  5
1014D
331
10143
  5
1014E
331
10144
  5
1014F
331
10145
  5
10150
331
10146
  5
10151
331
10147
  5
10152
331
10148
  5
10153
331
10149
  5
10158
331
1014A
  5
10159
331
1014B
  5
1015A
331
1014C
  5
1015B
331
1014D
  5
1015C
331
1014E
  5
10160
331
1014F
  5
10161
331
10150
  5
10162
331
10151
  5
10166
331
10152
  5
10167
331
10153
  5
10168
331
10154
  5
10169
331
10155
  5
1016A
331
10156
  5
1016B
331
10157
  5
1016C
331
10158
  5
1016D
331
10159
  5
1016E
331
1015A
  5
10172
331
1015B
  5
10173
331
1015C
  5
10174
331
1015D
  5
10175
331
1015E
  5
10176
331
1015F
  5
10177
331
10160
  5
10178
331
10161
  5
10179
331
10162
  5
1017A
331
10163
  5
10191
331
10164
  5
10192
331
10165
  5
10193
331
10166
  5
10194
331
10167
  5
10195
331
10168
  5
10196
331
10169
  5
10197
331
1016A
  5
10198
331
1016B
  5
10199
331
1016C
  5
1019A
331
1016D
  5
1019B
331
1016E
  5
1019C
331
1016F
  5
1019D
331
10170
  5
101B0
331
10171
  5
101B1
331
10172
  5
101B2
331
10173
  5
101B3
331
10174
  5
101B4
331
10175
  5
101B5
331
10176
  5
101B6
331
10177
  5
101B7
331
10178
  5
101B8
331
10179
  5
101B9
331
1017A
  5
101BA
331
1017B
  5
101BC
331
1017C
  5
101BD
331
1017D
  5
101BE
331
1017E
  5
101BF
331
1017F
  5
101C0
331
10180
  5
101C1
331
10181
  5
101C2
331
10182
  5
101C3
331
10183
  5
101C4
331
10184
  5
101C5
331
10185
  5
101C6
331
10186
  5
101C7
331
10187
  5
101C8
331
10188
  5
101DB
331
10189
  5
101DC
331
1018A
  5
101DD
331
1018B
  5
101DE
331
1018C
  5
101DF
331
1018D
  5
101E0
331
1018E
  5
101E1
331
1018F
  5
101E2
331
10190
  5
101E3
331
10191
  5
101E4
331
10192
  5
101E5
331
10193
  5
101E9
331
10194
  5
101EA
331
10195
  5
101EB
331
10196
  5
101EC
331
10197
  5
101ED
331
10198
  5
101EE
331
10199
  5
101EF
331
1019A
  5
101F0
331
1019B
  5
101F1
331
1019C
  5
101F2
331
1019D
  5
101F3
331
1019E
  5
101F4
331
1019F
  5
101F5
331
101A0
  5
101F6
331
101A1
  5
101FB
331
101A2
  5
101FC
331
101A3
  5
101FD
331
101A4
  5
101FE
331
101A5
  5
101FF
331
101A6
  5
10200
331
101A7
  5
10201
331
101A8
  5
10202
331
101A9
  5
10203
331
101AA
  5
10204
331
101AB
  5
10205
331
101AC
  5
10206
331
101AD
  5
10207
331
101AE
  5
10208
331
101AF
  5
10209
331
101B0
  5
1020A
331
101B1
  5
1020B
331
101B2
  5
1020C
331
101B3
  5
1020D
331
101B4
  5
1020E
331
101B5
  5
1020F
331
101B6
  5
10210
331
101B7
  5
10211
331
101B8
  5
10212
331
101B9
  5
10213
331
101BA
  5
10214
331
101BB
  5
10215
331
101BC
  5
10216
331
101BD
  5
10217
331
101BE
  5
10218
331
101BF
  5
1021A
331
101C0
  5
1021B
331
101C1
  5
1021C
331
101C2
  5
1021D
331
101C3
  5
1021E
331
101C4
  5
1021F
331
101C5
  5
10220
331
101C6
  5
10221
331
101C7
  5
10222
331
101C8
  5
10223
331
101C9
  5
10224
331
101CA
  5
10225
331
101CB
  5
1022A
331
101CC
  5
1022B
331
101CD
  5
1022C
331
101CE
  5
1022D
331
101CF
  5
1022E
331
101D0
  5
1022F
331
101D1
  5
10230
331
101D2
  5
10231
331
101D3
  5
10232
331
101D4
  5
10233
331
101D5
  5
10234
331
101D6
  5
10235
331
101D7
  5
10236
331
101D8
  5
10237
331
101D9
  5
10238
331
101DA
  5
10239
331
101DB
  5
1023A
331
101DC
  5
1023E
331
101DD
  5
1023F
331
101DE
  5
10240
331
101DF
  5
10241
331
101E0
  5
10242
331
101E1
  5
10243
331
101E2
  5
10244
331
101E3
  5
10245
331
101E4
  5
10246
331
101E5
  5
10254
331
101E6
  5
10255
331
101E7
  5
10256
331
101E8
  5
10257
331
101E9
  5
10258
331
101EA
  5
10259
331
101EB
  5
1025A
331
101EC
  5
1025B
331
101ED
  5
1025C
331
101EE
  5
1025E
331
101EF
  5
1025F
331
101F0
  5
10261
331
101F1
  5
10262
331
101F2
  5
10263
331
101F3
  5
10264
331
101F4
  5
10265
331
101F5
  5
10266
331
101F6
  5
10267
331
101F7
  5
10268
331
101F8
  5
10269
331
101F9
  5
1026B
331
101FA
  5
1026C
331
101FB
  5
1026F
331
101FC
  5
10270
331
101FD
  5
10271
331
101FE
  5
10272
331
101FF
  5
10275
331
10200
  5
10276
331
10201
  5
10277
331
10202
  5
10278
331
10203
  5
1027A
331
10204
  5
1027B
331
10205
  5
1027C
331
10206
  5
1027D
331
10207
  5
1027E
331
10208
  5
1027F
331
10209
  5
10282
331
1020A
  5
10283
331
1020B
  5
10284
331
1020C
  5
10285
331
1020D
  5
10286
331
1020E
  5
10287
331
1020F
  5
10288
331
10210
  5
1028B
331
10211
  5
1028C
331
10212
  5
1028D
331
10213
  5
1028E
331
10214
  5
1028F
331
10215
  5
10290
331
10216
  5
10291
331
10217
  5
10294
331
10218
  5
10295
331
10219
  5
10296
331
1021A
  5
10297
331
1021B
  5
10298
331
1021C
  5
10299
331
1021D
  5
102A1
331
1021E
  5
102A2
331
1021F
  5
102A3
331
10220
  5
102A4
331
10221
  5
102A5
331
10222
  5
102A6
331
10223
  5
102A7
331
10224
  5
102A8
331
10225
  5
102A9
331
10226
  5
102AA
331
10227
  5
102AB
331
10228
  5
102AC
331
10229
  5
102AD
331
1022A
  5
102AE
331
1022B
  5
102AF
331
1022C
  5
102B0
331
1022D
  5
102B1
331
1022E
  5
102B2
331
1022F
  5
102B3
331
10230
  5
102B4
331
10231
  5
102B5
331
10232
  5
102B6
331
10233
  5
102B7
331
10234
  5
102B8
331
10235
  5
102B9
331
10236
  5
102BA
331
10237
  5
102BB
331
10238
  5
102BC
331
10239
  5
102BD
331
1023A
  5
102BE
331
1023B
  5
102C3
331
1023C
  5
102C4
331
1023D
  5
102C5
331
1023E
  5
102C6
331
1023F
  5
102C7
331
10240
  5
102C8
331
10241
  5
102C9
331
10242
  5
102CA
331
10243
  5
102CB
331
10244
  5
102CC
331
10245
  5
102CD
331
10246
  5
102CE
331
10247
  5
102CF
331
10248
  5
102D0
331
10249
  5
102D1
331
1024A
  5
102D2
331
1024B
  5
102D3
331
1024C
  5
102D4
331
1024D
  5
102D5
331
1024E
  5
F03C
331
1024F
  5
F03D
331
10250
  5
F03E
331
10251
  5
F03F
331
10252
  5
F043
331
10253
  5
F044
331
10254
  5
F045
331
10255
  5
F052
331
10256
  5
F053
331
10257
  5
F054
331
10258
  5
F055
331
10259
  5
F056
331
1025A
  5
F057
331
1025B
  5
F058
331
1025C
  5
F05C
331
1025D
  5
F05D
331
1025E
  5
F05E
331
1025F
  5
F05F
331
10260
  5
F060
331
10261
  5
F061
331
10262
  5
F062
331
10263
  5
F066
331
10264
  5
F067
331
10265
  5
F068
331
10266
  5
F069
331
10267
  5
F06A
331
10268
  5
F06B
331
10269
  5
F06C
331
1026A
  5
F1B3
331
1026B
  5
F1B4
331
1026C
  5
F1B5
331
1026D
  5
F1B6
331
1026E
  5
F1B7
331
1026F
  5
F1B8
331
10270
  5
F1B9
331
10271
  5
F1BD
331
10272
  5
F1BE
331
10273
  5
F1BF
331
10274
  5
F1C0
331
10275
  5
F1C1
331
10276
  5
F1C2
331
10277
  5
F1C3
331
10278
  5
F29D
331
10279
  5
F29E
331
1027A
  5
F29F
331
1027B
  5
F2A0
331
1027C
  5
F2A1
331
1027D
  5
F2A2
331
1027E
  5
F2A3
331
1027F
  5
F362
331
10280
  5
F363
331
10281
  5
F365
331
10282
  5
F366
331
10283
  5
F369
331
10284
  5
F36A
331
10285
  5
F36B
331
10286
  5
F031
331
10287
  5
F035
331
10288
  5
F0B1
331
10289
  5
F0B2
331
1028A
  5
F0B3
331
0
  5
F0B4
331
0
  5
F0B5
331
0
  5
F0B6
331
1028E
  5
F33B
331
1028F
  5
F33C
331
10290
  5
F33E
331
0
  5
F32A
331
0
  5
F32B
331
0
  5
F32C
331
10294
  5
F347
331
10295
  5
F348
331
10296
  5
F349
331
0
  5
F334
331
0
  5
F336
331
0
  5
F339
331
1029A
  5
10086
331
1029B
  5
10087
331
1029C
  5
10088
331
0
  5
F36F
331
0
  5
F371
331
0
  5
F372
331
102A0
  5
1017C
331
102A1
  5
1017D
331
102A2
  5
1017E
331
0
  5
1015D
331
0
  5
1015E
331
0
  5
1015F
331
102A6
  5
10186
331
102A7
  5
10187
331
102A8
  5
10188
331
0
  5
10163
331
0
  5
10164
331
0
  5
10165
331
102AC
  5
F0B7
331
102AD
  5
F0B8
331
102AE
  5
F0B9
331
102AF
  5
F0BA
331
102B0
  5
F17B
331
102B1
  5
F17C
331
102B2
  5
F17D
331
102B3
  5
F33F
331
102B4
  5
F340
331
102B5
  5
F342
331
102B6
  5
F343
331
102B7
  5
F344
331
102B8
  5
F345
331
102B9
  5
F346
331
102BA
  5
F34A
331
102BB
  5
F34C
331
102BC
  5
F34D
331
102BD
  5
F34E
331
102BE
  5
F350
331
102BF
  5
F352
331
102C0
  5
F354
331
102C1
  5
10089
331
102C2
  5
1008A
331
102C3
  5
1008B
331
102C4
  5
1008C
331
102C5
  5
1008D
331
102C6
  5
1008E
331
102C7
  5
1008F
331
102C8
  5
1017F
331
102C9
  5
10180
331
102CA
  5
10181
331
102CB
  5
10182
331
102CC
  5
10183
331
102CD
  5
10184
331
102CE
  5
10185
331
102CF
  5
10189
331
102D0
  5
1018A
331
102D1
  5
1018B
331
102D2
  5
1018C
331
102D3
  5
1018D
331
102D4
  5
1018E
331
102D5
  5
1018F
  0
MATERIAL
  5
9540
102
{ACAD_REACTORS
330
18C
102
}
102
{ACAD_XDICTIONARY
360
10474
102
}
330
18C
100
AcDbMaterial
  1
BYBLOCK
 72
     0
 73
     2
 43
0.0208333333333333
 43
0.0
 43
0.0
 43
0.0
 43
0.0
 43
0.0208333333333333
 43
0.0
 43
0.0
 43
0.0
 43
0.0
 43
1.0
 43
0.0
 43
0.0
 43
0.0
 43
0.0
 43
1.0
 77
     0
 78
     2
 47
0.0208333333333333
 47
0.0
 47
0.0
 47
0.0
 47
0.0
 47
0.0208333333333333
 47
0.0
 47
0.0
 47
0.0
 47
0.0
 47
1.0
 47
0.0
 47
0.0
 47
0.0
 47
0.0
 47
1.0
171
     0
172
     2
 49
0.0208333333333333
 49
0.0
 49
0.0
 49
0.0
 49
0.0
 49
0.0208333333333333
 49
0.0
 49
0.0
 49
0.0
 49
0.0
 49
1.0
 49
0.0
 49
0.0
 49
0.0
 49
0.0
 49
1.0
175
     0
176
     2
142
0.0208333333333333
142
0.0
142
0.0
142
0.0
142
0.0
142
0.0208333333333333
142
0.0
142
0.0
142
0.0
142
0.0
142
1.0
142
0.0
142
0.0
142
0.0
142
0.0
142
1.0
179
     0
270
     2
144
0.0208333333333333
144
0.0
144
0.0
144
0.0
144
0.0
144
0.0208333333333333
144
0.0
144
0.0
144
0.0
144
0.0
144
1.0
144
0.0
144
0.0
144
0.0
144
0.0
144
1.0
274
     2
147
0.0208333333333333
147
0.0
147
0.0
147
0.0
147
0.0
147
0.0208333333333333
147
0.0
147
0.0
147
0.0
147
0.0
147
1.0
147
0.0
147
0.0
147
0.0
147
0.0
147
1.0
  0
MATERIAL
  5
9538
102
{ACAD_REACTORS
330
18C
102
}
102
{ACAD_XDICTIONARY
360
10476
102
}
330
18C
100
AcDbMaterial
  1
BYLAYER
 72
     0
 73
     2
 43
0.0208333333333333
 43
0.0
 43
0.0
 43
0.0
 43
0.0
 43
0.0208333333333333
 43
0.0
 43
0.0
 43
0.0
 43
0.0
 43
1.0
 43
0.0
 43
0.0
 43
0.0
 43
0.0
 43
1.0
 77
     0
 78
     2
 47
0.0208333333333333
 47
0.0
 47
0.0
 47
0.0
 47
0.0
 47
0.0208333333333333
 47
0.0
 47
0.0
 47
0.0
 47
0.0
 47
1.0
 47
0.0
 47
0.0
 47
0.0
 47
0.0
 47
1.0
171
     0
172
     2
 49
0.0208333333333333
 49
0.0
 49
0.0
 49
0.0
 49
0.0
 49
0.0208333333333333
 49
0.0
 49
0.0
 49
0.0
 49
0.0
 49
1.0
 49
0.0
 49
0.0
 49
0.0
 49
0.0
 49
1.0
175
     0
176
     2
142
0.0208333333333333
142
0.0
142
0.0
142
0.0
142
0.0
142
0.0208333333333333
142
0.0
142
0.0
142
0.0
142
0.0
142
1.0
142
0.0
142
0.0
142
0.0
142
0.0
142
1.0
179
     0
270
     2
144
0.0208333333333333
144
0.0
144
0.0
144
0.0
144
0.0
144
0.0208333333333333
144
0.0
144
0.0
144
0.0
144
0.0
144
1.0
144
0.0
144
0.0
144
0.0
144
0.0
144
1.0
274
     2
147
0.0208333333333333
147
0.0
147
0.0
147
0.0
147
0.0
147
0.0208333333333333
147
0.0
147
0.0
147
0.0
147
0.0
147
1.0
147
0.0
147
0.0
147
0.0
147
0.0
147
1.0
  0
MATERIAL
  5
9548
102
{ACAD_REACTORS
330
18C
102
}
102
{ACAD_XDICTIONARY
360
10478
102
}
330
18C
100
AcDbMaterial
  1
GLOBAL
 72
     0
 73
     2
 43
0.0208333333333333
 43
0.0
 43
0.0
 43
0.0
 43
0.0
 43
0.0208333333333333
 43
0.0
 43
0.0
 43
0.0
 43
0.0
 43
1.0
 43
0.0
 43
0.0
 43
0.0
 43
0.0
 43
1.0
 77
     0
 78
     2
 47
0.0208333333333333
 47
0.0
 47
0.0
 47
0.0
 47
0.0
 47
0.0208333333333333
 47
0.0
 47
0.0
 47
0.0
 47
0.0
 47
1.0
 47
0.0
 47
0.0
 47
0.0
 47
0.0
 47
1.0
171
     0
172
     2
 49
0.0208333333333333
 49
0.0
 49
0.0
 49
0.0
 49
0.0
 49
0.0208333333333333
 49
0.0
 49
0.0
 49
0.0
 49
0.0
 49
1.0
 49
0.0
 49
0.0
 49
0.0
 49
0.0
 49
1.0
175
     0
176
     2
142
0.0208333333333333
142
0.0
142
0.0
142
0.0
142
0.0
142
0.0208333333333333
142
0.0
142
0.0
142
0.0
142
0.0
142
1.0
142
0.0
142
0.0
142
0.0
142
0.0
142
1.0
179
     0
270
     2
144
0.0208333333333333
144
0.0
144
0.0
144
0.0
144
0.0
144
0.0208333333333333
144
0.0
144
0.0
144
0.0
144
0.0
144
1.0
144
0.0
144
0.0
144
0.0
144
0.0
144
1.0
274
     2
147
0.0208333333333333
147
0.0
147
0.0
147
0.0
147
0.0
147
0.0208333333333333
147
0.0
147
0.0
147
0.0
147
0.0
147
1.0
147
0.0
147
0.0
147
0.0
147
0.0
147
1.0
  0
ACAD_PROXY_OBJECT
  5
9584
102
{ACAD_REACTORS
330
9583
102
}
330
9583
100
AcDbZombieObject
 90
      499
 91
      511
 93
      610
310
40901902A4063FBFFFFFE000000000000002040AD7A3703D0AD73F4214DD185B99185C990000000000000104090141901A00000000000004100000000000000041025764000000000000300FC0
340
12
340
0
340
F
340
0
 94
        0
1001
ACAD_MLEADERVER
1070
     2
  0
MLINESTYLE
  5
1C
102
{ACAD_REACTORS
330
1B
102
}
330
1B
100
AcDbMlineStyle
  2
STANDARD
 70
     0
  3

 62
   256
 51
90.0
 52
90.0
 71
     2
 49
0.5
 62
   256
  6
BYLAYER
 49
-0.5
 62
   256
  6
BYLAYER
  0
ACAD_PROXY_OBJECT
  5
9562
102
{ACAD_REACTORS
330
9561
102
}
330
9561
100
AcDbZombieObject
 90
      499
 91
      510
 93
       41
310
903313A31580
  0
ACAD_PROXY_OBJECT
  5
9563
102
{ACAD_REACTORS
330
9561
102
}
330
9561
100
AcDbZombieObject
 90
      499
 91
      510
 93
      105
310
903313A324000000000000004000
  0
ACAD_PROXY_OBJECT
  5
9564
102
{ACAD_REACTORS
330
9561
102
}
330
9561
100
AcDbZombieObject
 90
      499
 91
      510
 93
      105
310
903313A344000000000000104000
  0
ACAD_PROXY_OBJECT
  5
9565
102
{ACAD_REACTORS
330
9561
102
}
330
9561
100
AcDbZombieObject
 90
      499
 91
      510
 93
      105
310
903313A354000000000000144000
  0
ACAD_PROXY_OBJECT
  5
9566
102
{ACAD_REACTORS
330
9561
102
}
330
9561
100
AcDbZombieObject
 90
      499
 91
      510
 93
      105
310
903313A384000000000000204000
  0
ACAD_PROXY_OBJECT
  5
9567
102
{ACAD_REACTORS
330
9561
102
}
330
9561
100
AcDbZombieObject
 90
      499
 91
      510
 93
      113
310
904313A31304000000000000244000
  0
ACAD_PROXY_OBJECT
  5
9568
102
{ACAD_REACTORS
330
9561
102
}
330
9561
100
AcDbZombieObject
 90
      499
 91
      510
 93
      113
310
904313A31364000000000000304000
  0
ACAD_PROXY_OBJECT
  5
9569
102
{ACAD_REACTORS
330
9561
102
}
330
9561
100
AcDbZombieObject
 90
      499
 91
      510
 93
      113
310
904313A32304000000000000344000
  0
ACAD_PROXY_OBJECT
  5
956A
102
{ACAD_REACTORS
330
9561
102
}
330
9561
100
AcDbZombieObject
 90
      499
 91
      510
 93
      113
310
904313A333040000000000003E4000
  0
ACAD_PROXY_OBJECT
  5
956B
102
{ACAD_REACTORS
330
9561
102
}
330
9561
100
AcDbZombieObject
 90
      499
 91
      510
 93
      113
310
904313A34304000000000000444000
  0
ACAD_PROXY_OBJECT
  5
956C
102
{ACAD_REACTORS
330
9561
102
}
330
9561
100
AcDbZombieObject
 90
      499
 91
      510
 93
      113
310
904313A35304000000000000494000
  0
ACAD_PROXY_OBJECT
  5
956D
102
{ACAD_REACTORS
330
9561
102
}
330
9561
100
AcDbZombieObject
 90
      499
 91
      510
 93
      121
310
905313A3130304000000000000594000
  0
ACAD_PROXY_OBJECT
  5
956E
102
{ACAD_REACTORS
330
9561
102
}
330
9561
100
AcDbZombieObject
 90
      499
 91
      510
 93
      105
310
903323A310000000000000010100
  0
ACAD_PROXY_OBJECT
  5
956F
102
{ACAD_REACTORS
330
9561
102
}
330
9561
100
AcDbZombieObject
 90
      499
 91
      510
 93
      105
310
903343A310000000000000410100
  0
ACAD_PROXY_OBJECT
  5
9570
102
{ACAD_REACTORS
330
9561
102
}
330
9561
100
AcDbZombieObject
 90
      499
 91
      510
 93
      105
310
903383A310000000000000810100
  0
ACAD_PROXY_OBJECT
  5
9571
102
{ACAD_REACTORS
330
9561
102
}
330
9561
100
AcDbZombieObject
 90
      499
 91
      510
 93
      113
310
90431303A310000000000000910100
  0
ACAD_PROXY_OBJECT
  5
9572
102
{ACAD_REACTORS
330
9561
102
}
330
9561
100
AcDbZombieObject
 90
      499
 91
      510
 93
      121
310
9053130303A310000000000001650100
  0
ACAD_PROXY_OBJECT
  5
9573
102
{ACAD_REACTORS
330
9561
102
}
330
9561
100
AcDbZombieObject
 90
      499
 91
      510
 93
      257
310
90E312F31323822203D2031272D3022000000000000200FC000000000000284000
  0
ACAD_PROXY_OBJECT
  5
9574
102
{ACAD_REACTORS
330
9561
102
}
330
9561
100
AcDbZombieObject
 90
      499
 91
      510
 93
      249
310
90D312F363422203D2031272D3022000000000000240FC000000000000284000
  0
ACAD_PROXY_OBJECT
  5
9575
102
{ACAD_REACTORS
330
9561
102
}
330
9561
100
AcDbZombieObject
 90
      499
 91
      510
 93
      249
310
90D312F333222203D2031272D3022000000000000280FC000000000000284000
  0
ACAD_PROXY_OBJECT
  5
9576
102
{ACAD_REACTORS
330
9561
102
}
330
9561
100
AcDbZombieObject
 90
      499
 91
      510
 93
      249
310
90D312F313622203D2031272D30220000000000002C0FC000000000000284000
  0
ACAD_PROXY_OBJECT
  5
9577
102
{ACAD_REACTORS
330
9561
102
}
330
9561
100
AcDbZombieObject
 90
      499
 91
      510
 93
      249
310
90D332F333222203D2031272D30220000000000002E0FC000000000000284000
  0
ACAD_PROXY_OBJECT
  5
9578
102
{ACAD_REACTORS
330
9561
102
}
330
9561
100
AcDbZombieObject
 90
      499
 91
      510
 93
      241
310
90C312F3822203D2031272D3022000000000000300FC000000000000284000
  0
ACAD_PROXY_OBJECT
  5
9579
102
{ACAD_REACTORS
330
9561
102
}
330
9561
100
AcDbZombieObject
 90
      499
 91
      510
 93
      249
310
90D332F313622203D2031272D3022000000000000320FC000000000000284000
  0
ACAD_PROXY_OBJECT
  5
957A
102
{ACAD_REACTORS
330
9561
102
}
330
9561
100
AcDbZombieObject
 90
      499
 91
      510
 93
      241
310
90C312F3422203D2031272D3022000000000000340FC000000000000284000
  0
ACAD_PROXY_OBJECT
  5
957B
102
{ACAD_REACTORS
330
9561
102
}
330
9561
100
AcDbZombieObject
 90
      499
 91
      510
 93
      241
310
90C332F3822203D2031272D3022000000000000360FC000000000000284000
  0
ACAD_PROXY_OBJECT
  5
957C
102
{ACAD_REACTORS
330
9561
102
}
330
9561
100
AcDbZombieObject
 90
      499
 91
      510
 93
      241
310
90C312F3222203D2031272D3022000000000000380FC000000000000284000
  0
ACAD_PROXY_OBJECT
  5
957D
102
{ACAD_REACTORS
330
9561
102
}
330
9561
100
AcDbZombieObject
 90
      499
 91
      510
 93
      241
310
90C332F3422203D2031272D30220000000000003A0FC000000000000284000
  0
ACAD_PROXY_OBJECT
  5
957E
102
{ACAD_REACTORS
330
9561
102
}
330
9561
100
AcDbZombieObject
 90
      499
 91
      510
 93
      161
310
90A3122203D2031272D30224000000000000284000
  0
ACAD_PROXY_OBJECT
  5
957F
102
{ACAD_REACTORS
330
9561
102
}
330
9561
100
AcDbZombieObject
 90
      499
 91
      510
 93
      257
310
90E312D312F3222203D2031272D30220000000000003E0FC000000000000284000
  0
ACAD_PROXY_OBJECT
  5
9580
102
{ACAD_REACTORS
330
9561
102
}
330
9561
100
AcDbZombieObject
 90
      499
 91
      510
 93
      225
310
90A3322203D2031272D302200000000000002100000000000000284000
  0
ACAD_PROXY_OBJECT
  5
9581
102
{ACAD_REACTORS
330
9561
102
}
330
9561
100
AcDbZombieObject
 90
      499
 91
      510
 93
      225
310
90A3622203D2031272D302200000000000006100000000000000284000
  0
ACAD_PROXY_OBJECT
  5
9582
102
{ACAD_REACTORS
330
9561
102
}
330
9561
100
AcDbZombieObject
 90
      499
 91
      510
 93
      249
310
90D31272D3022203D2031272D30220000000000000A100000000000000284000
  0
ACAD_PROXY_OBJECT
  5
9556
102
{ACAD_REACTORS
330
9550
102
}
330
9550
100
AcDbZombieObject
 90
      499
 91
      509
 93
      436
310
42CC9915DA5C99599C985B595049028333333333333E3BF0000000000000FB0107901411070040501600405405064090741402480A0340
1001
ACAD
1000
AcDbSavedByObjectVersion
1070
     0
  0
ACAD_PROXY_OBJECT
  5
9558
102
{ACAD_REACTORS
330
9550
102
}
330
9550
100
AcDbZombieObject
 90
      499
 91
      509
 93
      500
310
424CD108121A5919195B90640502408333333333333E3BF0000000000000FB01079024090700405020000000000001110200405405064090740C02480A0340
1001
ACAD
1000
AcDbSavedByObjectVersion
1070
     0
  0
ACAD_PROXY_OBJECT
  5
9557
102
{ACAD_REACTORS
330
9550
102
}
330
9550
100
AcDbZombieObject
 90
      499
 91
      509
 93
      436
310
42CCD915DA5C99599C985B595059028333333333333E3BF0000000000000FB0107901411070040501600405405064090741402480A0340
1001
ACAD
1000
AcDbSavedByObjectVersion
1070
     0
  0
ACAD_PROXY_OBJECT
  5
9555
102
{ACAD_REACTORS
330
9550
102
}
330
9550
100
AcDbZombieObject
 90
      499
 91
      509
 93
      388
310
4150985CDA58D07406404333333333333E3BF0000000000000FB0107A41107004050150841D405064090741402480A0350
1001
ACAD
1000
AcDbSavedByObjectVersion
1070
     0
  0
ACAD_PROXY_OBJECT
  5
955C
102
{ACAD_REACTORS
330
9550
102
}
330
9550
100
AcDbZombieObject
 90
      499
 91
      509
 93
      428
310
42109C9A59DA1D195B90C409028333333333333E3BF0000000000000FB010790141107004050150841D405064090741402480A029950
1001
ACAD
1000
AcDbSavedByObjectVersion
1070
     0
  0
ACAD_PROXY_OBJECT
  5
9560
102
{ACAD_REACTORS
330
9550
102
}
330
9550
100
AcDbZombieObject
 90
      499
 91
      509
 93
      452
310
42D0DBDB1BDC90DA185B99D95104090240C333333333333E3BF0000000000000FB0108901411070040501508421405064090741402480A0350
1001
ACAD
1000
AcDbSavedByObjectVersion
1070
     0
  0
ACAD_PROXY_OBJECT
  5
9559
102
{ACAD_REACTORS
330
9550
102
}
330
9550
100
AcDbZombieObject
 90
      499
 91
      509
 93
      500
310
4290DBDB98D95C1D1D585B10940D028333333333333E3BF0000000000000FB0107902409070040501000000000000111010841D405064090740C02480A0340
1001
ACAD
1000
AcDbSavedByObjectVersion
1070
     0
  0
ACAD_PROXY_OBJECT
  5
955B
102
{ACAD_REACTORS
330
9550
102
}
330
9550
100
AcDbZombieObject
 90
      499
 91
      509
 93
      412
310
40D11A5B50B409028333333333333E3BF0000000000000FB010790141107004050150841D405064090741402480A02677FFFFFD0
1001
ACAD
1000
AcDbSavedByObjectVersion
1070
     0
  0
ACAD_PROXY_OBJECT
  5
A211
102
{ACAD_REACTORS
330
9550
102
}
330
9550
100
AcDbZombieObject
 90
      499
 91
      509
 93
      452
310
43115919D950DBDB1BDC93D999916409028333333333333E3BF0000000000000FB010790141107004050150841D405064090741402480A0350
1001
ACAD
1000
AcDbSavedByObjectVersion
1070
     0
  0
ACAD_PROXY_OBJECT
  5
955F
102
{ACAD_REACTORS
330
9550
102
}
330
9550
100
AcDbZombieObject
 90
      499
 91
      509
 93
      444
310
42D19858D95C185D1D195C9B90F409028333333333333E3BF0000000000000FB010790141107004050150841D405064090741402480A0350
1001
ACAD
1000
AcDbSavedByObjectVersion
1070
     0
  0
ACAD_PROXY_OBJECT
  5
9551
102
{ACAD_REACTORS
330
9550
102
}
330
9550
100
AcDbZombieObject
 90
      499
 91
      509
 93
      388
310
41119B185D240901404333333333333E3BF0000000000000F9010740A41107004050150841D405064090741402480A1B50
1001
ACAD
1000
AcDbSavedByObjectVersion
1070
     0
  0
ACAD_PROXY_OBJECT
  5
9552
102
{ACAD_REACTORS
330
9550
102
}
330
9550
100
AcDbZombieObject
 90
      499
 91
      509
 93
      476
310
43519B185D15DA5D1A115919D95CD0140901404333333333333E3BF0000000000000F9010740901411070040501600405405064090741402480A1B50
1001
ACAD
1000
AcDbSavedByObjectVersion
1070
     0
  0
ACAD_PROXY_OBJECT
  5
9553
102
{ACAD_REACTORS
330
9550
102
}
330
9550
100
AcDbZombieObject
 90
      499
 91
      509
 93
      412
310
41D1DBDD5C985D5910240902404333333333333E3BF0000000000000F9010740A411070040501641D405064090741402480A1B50
1001
ACAD
1000
AcDbSavedByObjectVersion
1070
     0
  0
ACAD_PROXY_OBJECT
  5
9554
102
{ACAD_REACTORS
330
9550
102
}
330
9550
100
AcDbZombieObject
 90
      499
 91
      509
 93
      500
310
4411DBDD5C985D5915DA5D1A115919D95CD0340902404333333333333E3BF0000000000000F9010740901411070040501600405405064090741402480A1B50
1001
ACAD
1000
AcDbSavedByObjectVersion
1070
     0
  0
ACAD_PROXY_OBJECT
  5
A260
102
{ACAD_REACTORS
330
9550
102
}
330
9550
100
AcDbZombieObject
 90
      499
 91
      509
 93
      476
310
41921A5919195B90640502408333333333333E3BF0000000000000FB01079024090700405020000000000001110200405405064090740C02480A0340
1001
ACAD
1000
AcDbSavedByObjectVersion
1070
     0
  0
ACAD_PROXY_OBJECT
  5
A20F
102
{ACAD_REACTORS
330
9550
102
}
330
9550
100
AcDbZombieObject
 90
      499
 91
      509
 93
      428
310
42529A5D1D195C93D999914409028333333333333E3BF0000000000000FB010790141107004050150A41D405064090741402480A0350
1001
ACAD
1000
AcDbSavedByObjectVersion
1070
     0
  0
ACAD_PROXY_OBJECT
  5
955E
102
{ACAD_REACTORS
330
9550
102
}
330
9550
100
AcDbZombieObject
 90
      499
 91
      509
 93
      444
310
42D31A5B995C185D1D195C9B90E409028333333333333E3BF0000000000000FB010790141107004050750841D405064090741402483A0350
1001
ACAD
1000
AcDbSavedByObjectVersion
1070
     0
  0
ACAD_PROXY_OBJECT
  5
A266
102
{ACAD_REACTORS
330
9550
102
}
330
9550
100
AcDbZombieObject
 90
      499
 91
      509
 93
      484
310
42135BD9195B1A5B99D0A409028333333333333E3BF0000000000000F901074090290700405010000000000201990108421405064090741402480A1B40
1001
ACAD
1000
AcDbSavedByObjectVersion
1070
     0
  0
ACAD_PROXY_OBJECT
  5
A210
102
{ACAD_REACTORS
330
9550
102
}
330
9550
100
AcDbZombieObject
 90
      499
 91
      509
 93
      444
310
42D3DD995C9A185B99D3D999915409028333333333333E3BF0000000000000FB010790141107004050150941D405064090741402480A0350
1001
ACAD
1000
AcDbSavedByObjectVersion
1070
     0
  0
ACAD_PROXY_OBJECT
  5
955A
102
{ACAD_REACTORS
330
9550
102
}
330
9550
100
AcDbZombieObject
 90
      499
 91
      509
 93
      420
310
425499585B1A5CDD1A58D08409028333333333333E3BF0000000000000FB01079019070040501508421405064090741402480A1B40
1001
ACAD
1000
AcDbSavedByObjectVersion
1070
     0
  0
ACAD_PROXY_OBJECT
  5
A265
102
{ACAD_REACTORS
330
9550
102
}
330
9550
100
AcDbZombieObject
 90
      499
 91
      509
 93
      420
310
4194DA1859195911B40902404333333333333E3BF0000000000000F9010740A41107004050150800405405064090840C02480A0B40
1001
ACAD
1000
AcDbSavedByObjectVersion
1070
     0
  0
ACAD_PROXY_OBJECT
  5
A264
102
{ACAD_REACTORS
330
9550
102
}
330
9550
100
AcDbZombieObject
 90
      499
 91
      509
 93
      516
310
4454DA18591959081DDA5D1A08195919D95CD1A40902404333333333333E3BF0000000000000F901074090142907004050250800405405064090740C02480A0B40
1001
ACAD
1000
AcDbSavedByObjectVersion
1070
     0
  0
ACAD_PROXY_OBJECT
  5
A261
102
{ACAD_REACTORS
330
9550
102
}
330
9550
100
AcDbZombieObject
 90
      499
 91
      509
 93
      532
310
4394DA1859195CC81BD98811DC985E5174090240C333333333333E3BF0000000000000FB01079024090741D01000000000000111010841D405064090740C02480A0340
1001
ACAD
1000
AcDbSavedByObjectVersion
1070
     0
  0
ACAD_PROXY_OBJECT
  5
A262
102
{ACAD_REACTORS
330
9550
102
}
330
9550
100
AcDbZombieObject
 90
      499
 91
      509
 93
      476
310
41D4DAD95D18DA1E51840502408333333333333E3BF0000000000000FB01079024090741D01000000000000111010B41D405064090741802480A0340
1001
ACAD
1000
AcDbSavedByObjectVersion
1070
     0
  0
ACAD_PROXY_OBJECT
  5
955D
102
{ACAD_REACTORS
330
9550
102
}
330
9550
100
AcDbZombieObject
 90
      499
 91
      509
 93
      412
310
41D51A1A58DAD95B90D409028333333333333E3BF0000000000000FB010790141107004050150C41D405064090741402480A0350
1001
ACAD
1000
AcDbSavedByObjectVersion
1070
     0
  0
ACAD_PROXY_OBJECT
  5
A25F
102
{ACAD_REACTORS
330
9550
102
}
330
9550
100
AcDbZombieObject
 90
      499
 91
      509
 93
      420
310
4255DA5C99599C985B595059028333333333333E3BF0000000000000FB0107901411070040501600405405064090740C02480A0340
1001
ACAD
1000
AcDbSavedByObjectVersion
1070
     0
  0
ACAD_PROXY_OBJECT
  5
A263
102
{ACAD_REACTORS
330
9550
102
}
330
9550
100
AcDbZombieObject
 90
      499
 91
      509
 93
      404
310
41560B54985E51940902404000000000000E03F0000000000000FB010740501907004050150841D405064090740C02480A1B40
1001
ACAD
1000
AcDbSavedByObjectVersion
1070
     0
  0
XRECORD
  5
102D7
102
{ACAD_REACTORS
330
102D6
102
}
330
102D6
100
AcDbXrecord
340
18D
  0
XRECORD
  5
102D8
102
{ACAD_REACTORS
330
102D6
102
}
330
102D6
100
AcDbXrecord
340
18C
  0
DICTIONARYVAR
  5
AAE0
102
{ACAD_REACTORS
330
37
102
}
330
37
100
DictionaryVariables
280
     0
  1
1:1
  0
DICTIONARYVAR
  5
9627
102
{ACAD_REACTORS
330
37
102
}
330
37
100
DictionaryVariables
280
     0
  1
Standard
  0
DICTIONARYVAR
  5
29E
102
{ACAD_REACTORS
330
37
102
}
330
37
100
DictionaryVariables
280
     0
  1
Standard
  0
DICTIONARYVAR
  5
38
102
{ACAD_REACTORS
330
37
102
}
330
37
100
DictionaryVariables
280
     0
  1
-1
  0
DICTIONARYVAR
  5
1CE
102
{ACAD_REACTORS
330
37
102
}
330
37
100
DictionaryVariables
280
     0
  1
2
  0
DICTIONARYVAR
  5
704E
102
{ACAD_REACTORS
330
37
102
}
330
37
100
DictionaryVariables
280
     0
  1
1
  0
DICTIONARYVAR
  5
962A
102
{ACAD_REACTORS
330
37
102
}
330
37
100
DictionaryVariables
280
     0
  1
0
  0
DICTIONARYVAR
  5
7052
102
{ACAD_REACTORS
330
37
102
}
330
37
100
DictionaryVariables
280
     0
  1
8
  0
DICTIONARYVAR
  5
7051
102
{ACAD_REACTORS
330
37
102
}
330
37
100
DictionaryVariables
280
     0
  1
1
  0
DICTIONARYVAR
  5
AB30
102
{ACAD_REACTORS
330
37
102
}
330
37
100
DictionaryVariables
280
     0
  1
0
  0
DICTIONARYVAR
  5
704F
102
{ACAD_REACTORS
330
37
102
}
330
37
100
DictionaryVariables
280
     0
  1
8
  0
DICTIONARYVAR
  5
7050
102
{ACAD_REACTORS
330
37
102
}
330
37
100
DictionaryVariables
280
     0
  1
2
  0
DICTIONARYVAR
  5
1CF
102
{ACAD_REACTORS
330
37
102
}
330
37
100
DictionaryVariables
280
     0
  1

  0
DICTIONARYVAR
  5
9629
102
{ACAD_REACTORS
330
37
102
}
330
37
100
DictionaryVariables
280
     0
  1
127
  0
DICTIONARYVAR
  5
FFDB
102
{ACAD_REACTORS
330
37
102
}
330
37
100
DictionaryVariables
280
     0
  1
2
  0
DICTIONARY
  5
10474
330
9540
100
AcDbDictionary
  3
ACAD_XREC_ROUNDTRIP
360
10475
1001
ACAD
1000
TREAT_AS_HARD
1070
     1
  0
DICTIONARY
  5
10476
330
9538
100
AcDbDictionary
  3
ACAD_XREC_ROUNDTRIP
360
10477
1001
ACAD
1000
TREAT_AS_HARD
1070
     1
  0
DICTIONARY
  5
10478
330
9548
100
AcDbDictionary
  3
ACAD_XREC_ROUNDTRIP
360
10479
1001
ACAD
1000
TREAT_AS_HARD
1070
     1
  0
XRECORD
  5
10475
102
{ACAD_REACTORS
330
10474
102
}
330
10474
100
AcDbXrecord
102
MATERIAL
148
0.0
149
0.0
149
0.0
 93
        0
 94
      127
282
     0
 72
     0
 77
     0
171
     0
175
     0
179
     0
273
     0
  0
XRECORD
  5
10477
102
{ACAD_REACTORS
330
10476
102
}
330
10476
100
AcDbXrecord
102
MATERIAL
148
0.0
149
0.0
149
0.0
 93
        0
 94
      127
282
     0
 72
     0
 77
     0
171
     0
175
     0
179
     0
273
     0
  0
XRECORD
  5
10479
102
{ACAD_REACTORS
330
10478
102
}
330
10478
100
AcDbXrecord
102
MATERIAL
148
0.0
149
0.0
149
0.0
 93
        0
 94
      127
282
     0
 72
     0
 77
     0
171
     0
175
     0
179
     0
273
     0
  0
ENDSEC
  0
EOF
