  0
SECTION
  2
HEADER
  9
$ACADVER
  1
AC1012
  9
$DWGCODEPAGE
  3
ansi_932
  9
$INSBASE
 10
0.0
 20
0.0
 30
0.0
  9
$EXTMIN
 10
4726.277464814443
 20
-372.9022699669281
 30
0.0
  9
$EXTMAX
 10
5352.567956520147
 20
52.79641171894036
 30
0.0000000000563712
  9
$LIMMIN
 10
0.0
 20
0.0
  9
$LIMMAX
 10
420.0
 20
297.0
  9
$ORTHOMODE
 70
     0
  9
$REGENMODE
 70
     1
  9
$FILLMODE
 70
     1
  9
$QTEXTMODE
 70
     0
  9
$MIRRTEXT
 70
     0
  9
$DRAGMODE
 70
     2
  9
$LTSCALE
 40
0.5
  9
$OSMODE
 70
 16383
  9
$ATTMODE
 70
     1
  9
$TEXTSIZE
 40
4.0
  9
$TRACEWID
 40
1.0
  9
$TEXTSTYLE
  7
STANDARD
  9
$CLAYER
  8
1TEXT
  9
$CELTYPE
  6
BYLAYER
  9
$CECOLOR
 62
   256
  9
$CELTSCALE
 40
1.0
  9
$DELOBJ
 70
     1
  9
$DISPSILH
 70
     0
  9
$DIMSCALE
 40
1.3
  9
$DIMASZ
 40
2.0
  9
$DIMEXO
 40
0.0
  9
$DIMDLI
 40
7.0
  9
$DIMRND
 40
0.0
  9
$DIMDLE
 40
0.0
  9
$DIMEXE
 40
1.0
  9
$DIMTP
 40
0.0
  9
$DIMTM
 40
0.0
  9
$DIMTXT
 40
3.5
  9
$DIMCEN
 40
0.0
  9
$DIMTSZ
 40
0.0
  9
$DIMTOL
 70
     0
  9
$DIMLIM
 70
     0
  9
$DIMTIH
 70
     0
  9
$DIMTOH
 70
     0
  9
$DIMSE1
 70
     0
  9
$DIMSE2
 70
     0
  9
$DIMTAD
 70
     1
  9
$DIMZIN
 70
     8
  9
$DIMBLK
  1

  9
$DIMASO
 70
     1
  9
$DIMSHO
 70
     1
  9
$DIMPOST
  1
 
  9
$DIMAPOST
  1

  9
$DIMALT
 70
     0
  9
$DIMALTD
 70
     2
  9
$DIMALTF
 40
25.4
  9
$DIMLFAC
 40
1.0
  9
$DIMTOFL
 70
     1
  9
$DIMTVP
 40
0.0
  9
$DIMTIX
 70
     0
  9
$DIMSOXD
 70
     0
  9
$DIMSAH
 70
     1
  9
$DIMBLK1
  1
OPEN30
  9
$DIMBLK2
  1
OPEN30
  9
$DIMSTYLE
  2
NEWX10
  9
$DIMCLRD
 70
   256
  9
$DIMCLRE
 70
   256
  9
$DIMCLRT
 70
   201
  9
$DIMTFAC
 40
0.7
  9
$DIMGAP
 40
0.7
  9
$DIMJUST
 70
     0
  9
$DIMSD1
 70
     0
  9
$DIMSD2
 70
     0
  9
$DIMTOLJ
 70
     1
  9
$DIMTZIN
 70
     8
  9
$DIMALTZ
 70
     0
  9
$DIMALTTZ
 70
     0
  9
$DIMFIT
 70
     2
  9
$DIMUPT
 70
     0
  9
$DIMUNIT
 70
     2
  9
$DIMDEC
 70
     2
  9
$DIMTDEC
 70
     4
  9
$DIMALTU
 70
     2
  9
$DIMALTTD
 70
     2
  9
$DIMTXSTY
  7
STANDARD
  9
$DIMAUNIT
 70
     0
  9
$LUNITS
 70
     2
  9
$LUPREC
 70
     4
  9
$SKETCHINC
 40
1.0
  9
$FILLETRAD
 40
0.0
  9
$AUNITS
 70
     0
  9
$AUPREC
 70
     2
  9
$MENU
  1
acad
  9
$ELEVATION
 40
0.0
  9
$PELEVATION
 40
0.0
  9
$THICKNESS
 40
0.0
  9
$LIMCHECK
 70
     0
  9
$CHAMFERA
 40
10.0
  9
$CHAMFERB
 40
10.0
  9
$CHAMFERC
 40
20.0
  9
$CHAMFERD
 40
0.0
  9
$SKPOLY
 70
     0
  9
$TDCREATE
 40
2451318.621352917
  9
$TDUPDATE
 40
2458493.61481
  9
$TDINDWG
 40
1.5872958218
  9
$TDUSRTIMER
 40
1.5872958218
  9
$USRTIMER
 70
     1
  9
$ANGBASE
 50
0.0
  9
$ANGDIR
 70
     0
  9
$PDMODE
 70
     0
  9
$PDSIZE
 40
0.0
  9
$PLINEWID
 40
0.0
  9
$COORDS
 70
     2
  9
$SPLFRAME
 70
     0
  9
$SPLINETYPE
 70
     6
  9
$SPLINESEGS
 70
     8
  9
$ATTDIA
 70
     0
  9
$ATTREQ
 70
     1
  9
$HANDLING
 70
     1
  9
$HANDSEED
  5
D322
  9
$SURFTAB1
 70
     6
  9
$SURFTAB2
 70
     6
  9
$SURFTYPE
 70
     6
  9
$SURFU
 70
     6
  9
$SURFV
 70
     6
  9
$UCSNAME
  2

  9
$UCSORG
 10
0.0
 20
0.0
 30
0.0
  9
$UCSXDIR
 10
1.0
 20
0.0
 30
0.0
  9
$UCSYDIR
 10
0.0
 20
1.0
 30
0.0
  9
$PUCSNAME
  2

  9
$PUCSORG
 10
0.0
 20
0.0
 30
0.0
  9
$PUCSXDIR
 10
1.0
 20
0.0
 30
0.0
  9
$PUCSYDIR
 10
0.0
 20
1.0
 30
0.0
  9
$USERI1
 70
     0
  9
$USERI2
 70
     0
  9
$USERI3
 70
     0
  9
$USERI4
 70
     0
  9
$USERI5
 70
     0
  9
$USERR1
 40
0.0
  9
$USERR2
 40
0.0
  9
$USERR3
 40
0.0
  9
$USERR4
 40
0.0
  9
$USERR5
 40
0.0
  9
$WORLDVIEW
 70
     1
  9
$SHADEDGE
 70
     3
  9
$SHADEDIF
 70
    70
  9
$TILEMODE
 70
     1
  9
$MAXACTVP
 70
    48
  9
$PINSBASE
 10
0.0
 20
0.0
 30
0.0
  9
$PLIMCHECK
 70
     0
  9
$PEXTMIN
 10
1.000000000000000E+20
 20
1.000000000000000E+20
 30
1.000000000000000E+20
  9
$PEXTMAX
 10
-1.000000000000000E+20
 20
-1.000000000000000E+20
 30
-1.000000000000000E+20
  9
$PLIMMIN
 10
0.0
 20
0.0
  9
$PLIMMAX
 10
420.0
 20
297.0
  9
$UNITMODE
 70
     0
  9
$VISRETAIN
 70
     1
  9
$PLINEGEN
 70
     0
  9
$PSLTSCALE
 70
     1
  9
$TREEDEPTH
 70
  3020
  9
$PICKSTYLE
 70
     0
  9
$CMLSTYLE
  2
STANDARD
  9
$CMLJUST
 70
     0
  9
$CMLSCALE
 40
20.0
  9
$SAVEIMAGES
 70
     1
  0
ENDSEC
  0
SECTION
  2
CLASSES
  0
CLASS
  1
DICTIONARYVAR
  2
AcDbDictionaryVar
  3
ObjectDBX Classes
 90
        0
280
     0
281
     0
  0
CLASS
  1
IDBUFFER
  2
AcDbIdBuffer
  3
ObjectDBX Classes
 90
    32768
280
     0
281
     0
  0
CLASS
  1
LWPOLYLINE
  2
AcDbPolyline
  3
ObjectDBX Classes
 90
    32768
280
     0
281
     1
  0
CLASS
  1
ACDBDICTIONARYWDFLT
  2
AcDbDictionaryWithDefault
  3
ObjectDBX Classes
 90
    32768
280
     0
281
     0
  0
CLASS
  1
ACDBPLACEHOLDER
  2
AcDbPlaceHolder
  3
ObjectDBX Classes
 90
        0
280
     0
281
     0
  0
CLASS
  1
LAYOUT
  2
AcDbLayout
  3
ObjectDBX Classes
 90
        0
280
     0
281
     0
  0
CLASS
  1
TABLESTYLE
  2
AcDbTableStyle
  3
ObjectDBX Classes
 90
     4095
280
     0
281
     0
  0
CLASS
  1
SORTENTSTABLE
  2
AcDbSortentsTable
  3
ObjectDBX Classes
 90
    32768
280
     0
281
     0
  0
CLASS
  1
MATERIAL
  2
AcDbMaterial
  3
ObjectDBX Classes
 90
     1153
280
     0
281
     0
  0
CLASS
  1
VISUALSTYLE
  2
AcDbVisualStyle
  3
ObjectDBX Classes
 90
     4095
280
     0
281
     0
  0
CLASS
  1
SCALE
  2
AcDbScale
  3
ObjectDBX Classes
 90
     1153
280
     0
281
     0
  0
CLASS
  1
MLEADERSTYLE
  2
AcDbMLeaderStyle
  3
ACDB_MLEADERSTYLE_CLASS
 90
     4095
280
     0
281
     0
  0
CLASS
  1
CELLSTYLEMAP
  2
AcDbCellStyleMap
  3
ObjectDBX Classes
 90
     1152
280
     0
281
     0
  0
CLASS
  1
SUN
  2
AcDbSun
  3
SCENEOE
 90
     1153
280
     0
281
     0
  0
CLASS
  1
XRECORD
  2
AcDbXrecord
  3
ObjectDBX Classes
 90
    32768
280
     0
281
     0
  0
CLASS
  1
HATCH
  2
AcDbHatch
  3
ObjectDBX Classes
 90
    32768
280
     0
281
     1
  0
ENDSEC
  0
SECTION
  2
TABLES
  0
TABLE
  2
VPORT
  5
8
330
0
100
AcDbSymbolTable
 70
     1
  0
VPORT
  5
952D
330
8
100
AcDbSymbolTableRecord
100
AcDbViewportTableRecord
  2
*ACTIVE
 70
     0
 10
0.0
 20
0.0
 11
1.0
 21
1.0
 12
5039.422710667295
 22
-160.0529291239939
 13
0.0
 23
0.0
 14
10.0
 24
10.0
 15
10.0
 25
10.0
 16
0.0
 26
0.0
 36
1.0
 17
0.0
 27
0.0
 37
0.0
 40
457.0659529679851
 41
1.803066037735849
 42
50.0
 43
0.0
 44
0.0
 50
0.0
 51
0.0
 71
    16
 72
   100
 73
     1
 74
     1
 75
     0
 76
     0
 77
     0
 78
     0
1001
ACAD_NAV_VCDISPLAY
1070
     3
  0
ENDTAB
  0
TABLE
  2
LTYPE
  5
5
330
0
100
AcDbSymbolTable
 70
     3
  0
LTYPE
  5
12
330
5
100
AcDbSymbolTableRecord
100
AcDbLinetypeTableRecord
  2
BYBLOCK
 70
     0
  3

 72
    65
 73
     0
 40
0.0
  0
LTYPE
  5
13
330
5
100
AcDbSymbolTableRecord
100
AcDbLinetypeTableRecord
  2
BYLAYER
 70
     0
  3

 72
    65
 73
     0
 40
0.0
  0
LTYPE
  5
14
330
5
100
AcDbSymbolTableRecord
100
AcDbLinetypeTableRecord
  2
CONTINUOUS
 70
     0
  3
Solid line
 72
    65
 73
     0
 40
0.0
  0
LTYPE
  5
2C03
330
5
100
AcDbSymbolTableRecord
100
AcDbLinetypeTableRecord
  2
HIDDEN
 70
     0
  3
Hidden __ __ __ __ __ __ __ __ __ __ __ __ __ _
 72
    65
 73
     2
 40
9.524999999999999
 49
6.35
 74
     0
 49
-3.175
 74
     0
  0
LTYPE
  5
9837
330
5
100
AcDbSymbolTableRecord
100
AcDbLinetypeTableRecord
  2
CENTER2
 70
     0
  3
Center (.5x) ___ _ ___ _ ___ _ ___ _ ___ _ ___
 72
    65
 73
     4
 40
28.575
 49
19.05
 74
     0
 49
-3.175
 74
     0
 49
3.175
 74
     0
 49
-3.175
 74
     0
  0
ENDTAB
  0
TABLE
  2
LAYER
  5
2
102
{ACAD_XDICTIONARY
360
96D9
102
}
330
0
100
AcDbSymbolTable
 70
     6
  0
LAYER
  5
E
102
{ACAD_XDICTIONARY
360
9593
102
}
330
2
100
AcDbSymbolTableRecord
100
AcDbLayerTableRecord
  2
0
 70
     0
 62
     7
  6
CONTINUOUS
  0
LAYER
  5
29
102
{ACAD_XDICTIONARY
360
9595
102
}
330
2
100
AcDbSymbolTableRecord
100
AcDbLayerTableRecord
  2
1CENTER
 70
     0
 62
     7
  6
CENTER2
  0
LAYER
  5
31
102
{ACAD_XDICTIONARY
360
9597
102
}
330
2
100
AcDbSymbolTableRecord
100
AcDbLayerTableRecord
  2
1TEXT
 70
     0
 62
     7
  6
CONTINUOUS
  0
LAYER
  5
243
102
{ACAD_XDICTIONARY
360
959D
102
}
330
2
100
AcDbSymbolTableRecord
100
AcDbLayerTableRecord
  2
01
 70
     0
 62
     1
  6
CONTINUOUS
  0
LAYER
  5
24E
102
{ACAD_XDICTIONARY
360
95A3
102
}
330
2
100
AcDbSymbolTableRecord
100
AcDbLayerTableRecord
  2
1DIM
 70
     0
 62
     7
  6
CONTINUOUS
  0
LAYER
  5
252
102
{ACAD_XDICTIONARY
360
95A5
102
}
330
2
100
AcDbSymbolTableRecord
100
AcDbLayerTableRecord
  2
1HATCH
 70
     0
 62
     7
  6
CONTINUOUS
  0
ENDTAB
  0
TABLE
  2
STYLE
  5
3
330
0
100
AcDbSymbolTable
 70
     1
  0
STYLE
  5
F
330
3
100
AcDbSymbolTableRecord
100
AcDbTextStyleTableRecord
  2
STANDARD
 70
     0
 40
0.0
 41
1.0
 50
0.0
 71
     0
 42
4.0
  3
txt.shx
  4
extfont.shx
  0
ENDTAB
  0
TABLE
  2
VIEW
  5
6
330
0
100
AcDbSymbolTable
 70
     0
  0
ENDTAB
  0
TABLE
  2
UCS
  5
7
330
0
100
AcDbSymbolTable
 70
     0
  0
ENDTAB
  0
TABLE
  2
APPID
  5
9
330
0
100
AcDbSymbolTable
 70
    17
  0
APPID
  5
10
330
9
100
AcDbSymbolTableRecord
100
AcDbRegAppTableRecord
  2
ACAD
 70
     0
  0
APPID
  5
21
330
9
100
AcDbSymbolTableRecord
100
AcDbRegAppTableRecord
  2
DRAWINGVARIABLESXDATA
 70
     0
  0
APPID
  5
64
330
9
100
AcDbSymbolTableRecord
100
AcDbRegAppTableRecord
  2
CONTENTTABDATA
 70
     0
  0
APPID
  5
65
330
9
100
AcDbSymbolTableRecord
100
AcDbRegAppTableRecord
  2
CONTENTCURRENTTAB
 70
     0
  0
APPID
  5
66
330
9
100
AcDbSymbolTableRecord
100
AcDbRegAppTableRecord
  2
CONTENTBLOCKDESCRIPTION
 70
     0
  0
APPID
  5
67
330
9
100
AcDbSymbolTableRecord
100
AcDbRegAppTableRecord
  2
CONTENTBLOCKICON
 70
     0
  0
APPID
  5
68
330
9
100
AcDbSymbolTableRecord
100
AcDbRegAppTableRecord
  2
CONTENTLONGBLOCKNAME
 70
     0
  0
APPID
  5
2AE
330
9
100
AcDbSymbolTableRecord
100
AcDbRegAppTableRecord
  2
ACAD_PSEXT
 70
     0
  0
APPID
  5
9585
330
9
100
AcDbSymbolTableRecord
100
AcDbRegAppTableRecord
  2
ACAD_MLEADERVER
 70
     0
  0
APPID
  5
A2E3
330
9
100
AcDbSymbolTableRecord
100
AcDbRegAppTableRecord
  2
ACADANNOTATIVE
 70
     0
  0
APPID
  5
A2E4
330
9
100
AcDbSymbolTableRecord
100
AcDbRegAppTableRecord
  2
ACDBBLOCKREPETAG
 70
     0
  0
APPID
  5
AD6E
330
9
100
AcDbSymbolTableRecord
100
AcDbRegAppTableRecord
  2
ACAD_EXEMPT_FROM_CAD_STAND
 70
     0
  0
APPID
  5
AD77
330
9
100
AcDbSymbolTableRecord
100
AcDbRegAppTableRecord
  2
ACAD_NAV_VCDISPLAY
 70
     0
  0
APPID
  5
ADC3
330
9
100
AcDbSymbolTableRecord
100
AcDbRegAppTableRecord
  2
ACAECLAYERSTANDARD
 70
     0
  0
APPID
  5
C36C
330
9
100
AcDbSymbolTableRecord
100
AcDbRegAppTableRecord
  2
ACAD_DSTYLE_DIMJAG
 70
     0
  0
APPID
  5
C36D
330
9
100
AcDbSymbolTableRecord
100
AcDbRegAppTableRecord
  2
ACAD_DSTYLE_DIMTALN
 70
     0
  0
APPID
  5
C5F4
330
9
100
AcDbSymbolTableRecord
100
AcDbRegAppTableRecord
  2
ACAD_OBJECT_CHANGE_GUID
 70
     0
  0
ENDTAB
  0
TABLE
  2
DIMSTYLE
  5
A
330
0
100
AcDbSymbolTable
 70
     1
  0
DIMSTYLE
105
48
330
A
100
AcDbSymbolTableRecord
100
AcDbDimStyleTableRecord
  2
NEWX10
 70
     0
  3
 
  4

  5

  6
OPEN30
  7
OPEN30
 40
1.0
 41
2.0
 42
0.0
 43
7.0
 44
1.0
 45
0.0
 46
0.0
 47
0.0
 48
0.0
140
3.5
141
0.0
142
0.0
143
25.4
144
1.0
145
0.0
146
0.7
147
0.7
 71
     0
 72
     0
 73
     0
 74
     0
 75
     0
 76
     0
 77
     1
 78
     8
170
     0
171
     2
172
     1
173
     1
174
     0
175
     0
176
   256
177
   256
178
   201
179
     2
270
     2
271
     2
272
     4
273
     2
274
     2
340
F
275
     0
280
     0
281
     0
282
     0
283
     1
284
     8
285
     0
286
     0
287
     2
288
     0
  0
ENDTAB
  0
TABLE
  2
BLOCK_RECORD
  5
1
330
0
100
AcDbSymbolTable
 70
     8
  0
BLOCK_RECORD
  5
18
102
{ACAD_XDICTIONARY
360
88F
102
}
330
1
100
AcDbSymbolTableRecord
100
AcDbBlockTableRecord
  2
*MODEL_SPACE
  0
BLOCK_RECORD
  5
15
330
1
100
AcDbSymbolTableRecord
100
AcDbBlockTableRecord
  2
*PAPER_SPACE
  0
BLOCK_RECORD
  5
42
330
1
100
AcDbSymbolTableRecord
100
AcDbBlockTableRecord
  2
_OPEN30
  0
BLOCK_RECORD
  5
A333
330
1
100
AcDbSymbolTableRecord
100
AcDbBlockTableRecord
  2
A3WAKUKAWAJUN2017_HYOUDAI_
  0
BLOCK_RECORD
  5
D182
330
1
100
AcDbSymbolTableRecord
100
AcDbBlockTableRecord
  2
*X66
  0
BLOCK_RECORD
  5
D1D0
330
1
100
AcDbSymbolTableRecord
100
AcDbBlockTableRecord
  2
*X67
  0
BLOCK_RECORD
  5
D222
330
1
100
AcDbSymbolTableRecord
100
AcDbBlockTableRecord
  2
*X68
  0
BLOCK_RECORD
  5
D273
330
1
100
AcDbSymbolTableRecord
100
AcDbBlockTableRecord
  2
*X69
  0
BLOCK_RECORD
  5
D2B0
330
1
100
AcDbSymbolTableRecord
100
AcDbBlockTableRecord
  2
*X70
  0
BLOCK_RECORD
  5
D2F0
330
1
100
AcDbSymbolTableRecord
100
AcDbBlockTableRecord
  2
*X71
  0
ENDTAB
  0
ENDSEC
  0
SECTION
  2
BLOCKS
  0
BLOCK
  5
19
330
18
100
AcDbEntity
  8
0
100
AcDbBlockBegin
  2
*MODEL_SPACE
 70
     0
 10
0.0
 20
0.0
 30
0.0
  3
*MODEL_SPACE
  1

  0
ENDBLK
  5
1A
330
18
100
AcDbEntity
  8
0
100
AcDbBlockEnd
  0
BLOCK
  5
16
330
15
100
AcDbEntity
 67
     1
  8
0
100
AcDbBlockBegin
  2
*PAPER_SPACE
 70
     0
 10
0.0
 20
0.0
 30
0.0
  3
*PAPER_SPACE
  1

  0
ENDBLK
  5
17
330
15
100
AcDbEntity
 67
     1
  8
0
100
AcDbBlockEnd
  0
BLOCK
  5
43
330
42
100
AcDbEntity
  8
0
100
AcDbBlockBegin
  2
_OPEN30
 70
     0
 10
0.0
 20
0.0
 30
0.0
  3
_OPEN30
  1

  0
LINE
  5
44
330
42
100
AcDbEntity
  8
0
  6
BYBLOCK
 62
     0
100
AcDbLine
 10
-1.0
 20
0.26794919
 30
0.0
 11
0.0
 21
0.0
 31
0.0
  0
LINE
  5
45
330
42
100
AcDbEntity
  8
0
  6
BYBLOCK
 62
     0
100
AcDbLine
 10
0.0
 20
0.0
 30
0.0
 11
-1.0
 21
-0.26794919
 31
0.0
  0
LINE
  5
46
330
42
100
AcDbEntity
  8
0
  6
BYBLOCK
 62
     0
100
AcDbLine
 10
0.0
 20
0.0
 30
0.0
 11
-1.0
 21
0.0
 31
0.0
  0
ENDBLK
  5
47
330
42
100
AcDbEntity
  8
0
100
AcDbBlockEnd
  0
BLOCK
  5
AA56
330
A333
100
AcDbEntity
  8
0
100
AcDbBlockBegin
  2
A3WAKUKAWAJUN2017_HYOUDAI_
 70
     0
 10
0.0
 20
0.0
 30
0.0
  3
A3WAKUKAWAJUN2017_HYOUDAI_
  1

  0
LINE
  5
A335
330
A333
100
AcDbEntity
  8
0
100
AcDbLine
 10
13.26299999998673
 20
-0.0001000000000317
 30
0.0
 11
9.236999999990758
 21
8.999899999990987
 31
0.0
1001
ACAD
1000
ASC_BOUNDS
1002
{
1070
    19
1005
A376
1002
}
  0
LINE
  5
A336
330
A333
100
AcDbEntity
  8
0
100
AcDbLine
 10
5.657999999994331
 20
0.9999999999989768
 30
0.0
 11
9.236999999990758
 21
8.999999999991019
 31
0.0
1001
ACAD
1000
ASC_BOUNDS
1002
{
1070
    19
1005
A376
1002
}
  0
LINE
  5
A337
330
A333
100
AcDbEntity
  8
0
100
AcDbLine
 10
18.59199999998134
 20
-0.2368999999997641
 30
0.0
 11
16.46099999998353
 21
5.432899999994561
 31
0.0
1001
ACAD
1000
ASC_BOUNDS
1002
{
1070
    19
1005
A377
1002
}
  0
LINE
  5
A338
330
A333
100
AcDbEntity
  8
0
100
AcDbLine
 10
18.59199999998134
 20
-0.2368999999997641
 30
0.0
 11
22.38199999997767
 21
8.763099999991255
 31
0.0
1001
ACAD
1000
ASC_BOUNDS
1002
{
1070
    19
1005
A377
1002
}
  0
LINE
  5
A339
330
A333
100
AcDbEntity
  8
0
100
AcDbLine
 10
14.32899999998563
 20
-0.2368999999997641
 30
0.0
 11
16.46099999998353
 21
5.432899999994561
 31
0.0
1001
ACAD
1000
ASC_BOUNDS
1002
{
1070
    19
1005
A377
1002
}
  0
LINE
  5
A33A
330
A333
100
AcDbEntity
  8
0
100
AcDbLine
 10
14.32899999998563
 20
-0.2368999999997641
 30
0.0
 11
10.53899999998941
 21
8.763099999991255
 31
0.0
1001
ACAD
1000
ASC_BOUNDS
1002
{
1070
    19
1005
A377
1002
}
  0
LINE
  5
A33B
330
A333
100
AcDbEntity
  8
0
100
AcDbLine
 10
19.53899999998043
 20
-0.0001000000000317
 30
0.0
 11
23.56599999997638
 21
8.999899999990987
 31
0.0
1001
ACAD
1000
ASC_BOUNDS
1002
{
1070
    19
1005
A378
1002
}
  0
LINE
  5
A33C
330
A333
100
AcDbEntity
  8
0
100
AcDbLine
 10
26.97358892824991
 20
1.383099999991202
 30
0.0
 11
23.56599999997638
 21
8.999899999990987
 31
0.0
1001
ACAD
1000
ASC_BOUNDS
1002
{
1070
    19
1005
A378
1002
}
  0
LINE
  5
A33D
330
A333
100
AcDbEntity
  8
0
100
AcDbLine
 10
5.657999999994331
 20
0.9999999999989768
 30
0.0
 11
3.181999999996833
 21
4.668599999995308
 31
0.0
1001
ACAD
1000
ASC_BOUNDS
1002
{
1070
    19
1005
A376
1002
}
  0
LINE
  5
A33E
330
A333
100
AcDbEntity
  8
0
100
AcDbLine
 10
4.617999999995391
 20
-0.0001000000000317
 30
0.0
 11
1.420999999998571
 21
4.736799999995242
 31
0.0
1001
ACAD
1000
ASC_BOUNDS
1002
{
1070
    19
1005
A376
1002
}
  0
LINE
  5
A33F
330
A333
100
AcDbEntity
  8
0
100
AcDbLine
 10
1.420999999998571
 20
8.763099999991255
 30
0.0
 11
1.420999999998571
 21
0.0
 31
0.0
1001
ACAD
1000
ASC_BOUNDS
1002
{
1070
    19
1005
A37B
1002
}
  0
LINE
  5
A340
330
A333
100
AcDbEntity
  8
0
100
AcDbLine
 10
0.0
 20
8.763099999991255
 30
0.0
 11
0.0
 21
0.0
 31
0.0
1001
ACAD
1000
ASC_BOUNDS
1002
{
1070
    19
1005
A37B
1002
}
  0
LINE
  5
A341
330
A333
100
AcDbEntity
  8
0
100
AcDbLine
 10
6.766999999993232
 20
-0.0001000000000317
 30
0.0
 11
7.826999999992154
 21
2.368399999997621
 31
0.0
1001
ACAD
1000
ASC_BOUNDS
1002
{
1070
    19
1005
A376
1002
}
  0
LINE
  5
A342
330
A333
100
AcDbEntity
  8
0
100
AcDbLine
 10
0.0
 20
0.0
 30
0.0
 11
1.420999999998571
 21
0.0
 31
0.0
1001
ACAD
1000
ASC_BOUNDS
1002
{
1070
    19
1005
A37B
1002
}
  0
LINE
  5
A343
330
A333
100
AcDbEntity
  8
0
100
AcDbLine
 10
4.617999999995391
 20
0.0
 30
0.0
 11
6.766999999993232
 21
0.0
 31
0.0
1001
ACAD
1000
ASC_BOUNDS
1002
{
1070
    19
1005
A376
1002
}
  0
LINE
  5
A344
330
A333
100
AcDbEntity
  8
0
100
AcDbLine
 10
11.70599999998831
 20
-0.0001000000000317
 30
0.0
 11
10.64699999998936
 21
2.368399999997621
 31
0.0
1001
ACAD
1000
ASC_BOUNDS
1002
{
1070
    19
1005
A376
1002
}
  0
LINE
  5
A345
330
A333
100
AcDbEntity
  8
0
100
AcDbLine
 10
7.826999999992154
 20
2.368399999997621
 30
0.0
 11
10.64699999998936
 21
2.368399999997621
 31
0.0
1001
ACAD
1000
ASC_BOUNDS
1002
{
1070
    19
1005
A376
1002
}
  0
LINE
  5
A346
330
A333
100
AcDbEntity
  8
0
100
AcDbLine
 10
11.70599999998831
 20
0.0
 30
0.0
 11
13.26299999998673
 21
0.0
 31
0.0
1001
ACAD
1000
ASC_BOUNDS
1002
{
1070
    19
1005
A376
1002
}
  0
LINE
  5
A347
330
A333
100
AcDbEntity
  8
0
100
AcDbLine
 10
22.15599999997789
 20
2.368399999997621
 30
0.0
 11
24.97599999997499
 21
2.368399999997621
 31
0.0
1001
ACAD
1000
ASC_BOUNDS
1002
{
1070
    19
1005
A378
1002
}
  0
LINE
  5
A348
330
A333
100
AcDbEntity
  8
0
100
AcDbLine
 10
19.53899999998043
 20
0.0
 30
0.0
 11
21.09599999997886
 21
0.0
 31
0.0
1001
ACAD
1000
ASC_BOUNDS
1002
{
1070
    19
1005
A378
1002
}
  0
LINE
  5
A349
330
A333
100
AcDbEntity
  8
0
100
AcDbLine
 10
21.09599999997886
 20
-0.0001000000000317
 30
0.0
 11
22.15599999997789
 21
2.368399999997621
 31
0.0
1001
ACAD
1000
ASC_BOUNDS
1002
{
1070
    19
1005
A378
1002
}
  0
LINE
  5
A34A
330
A333
100
AcDbEntity
  8
0
100
AcDbLine
 10
26.02015566812236
 20
0.0330999999912365
 30
0.0
 11
24.97599999997499
 21
2.368399999997621
 31
0.0
1001
ACAD
1000
ASC_BOUNDS
1002
{
1070
    19
1005
A378
1002
}
  0
LINE
  5
A34B
330
A333
100
AcDbEntity
  8
0
100
AcDbLine
 10
14.32399999998563
 20
3.315799999996671
 30
0.0
 11
16.46099999998353
 21
8.999899999990987
 31
0.0
1001
ACAD
1000
ASC_BOUNDS
1002
{
1070
    19
1005
A377
1002
}
  0
LINE
  5
A34C
330
A333
100
AcDbEntity
  8
0
100
AcDbLine
 10
6.432999999993513
 20
8.763099999991255
 30
0.0
 11
3.181999999996833
 21
4.668599999995308
 31
0.0
1001
ACAD
1000
ASC_BOUNDS
1002
{
1070
    19
1005
A376
1002
}
  0
LINE
  5
A34D
330
A333
100
AcDbEntity
  8
0
100
AcDbLine
 10
4.617999999995391
 20
8.763099999991255
 30
0.0
 11
1.420999999998571
 21
4.736799999995242
 31
0.0
1001
ACAD
1000
ASC_BOUNDS
1002
{
1070
    19
1005
A376
1002
}
  0
LINE
  5
A34E
330
A333
100
AcDbEntity
  8
0
100
AcDbLine
 10
0.0
 20
8.763099999991255
 30
0.0
 11
1.420999999998571
 21
8.763099999991255
 31
0.0
1001
ACAD
1000
ASC_BOUNDS
1002
{
1070
    19
1005
A37B
1002
}
  0
LINE
  5
A34F
330
A333
100
AcDbEntity
  8
0
100
AcDbLine
 10
4.617999999995391
 20
8.763099999991255
 30
0.0
 11
6.432999999993513
 21
8.763099999991255
 31
0.0
1001
ACAD
1000
ASC_BOUNDS
1002
{
1070
    19
1005
A376
1002
}
  0
LINE
  5
A350
330
A333
100
AcDbEntity
  8
0
100
AcDbLine
 10
14.32399999998563
 20
3.315799999996671
 30
0.0
 11
12.02999999998792
 21
8.763099999991255
 31
0.0
1001
ACAD
1000
ASC_BOUNDS
1002
{
1070
    19
1005
A377
1002
}
  0
LINE
  5
A351
330
A333
100
AcDbEntity
  8
0
100
AcDbLine
 10
10.06399999998996
 20
3.670999999996297
 30
0.0
 11
9.236999999990758
 21
5.5200999999945
 31
0.0
1001
ACAD
1000
ASC_BOUNDS
1002
{
1070
    19
1005
A376
1002
}
  0
LINE
  5
A352
330
A333
100
AcDbEntity
  8
0
100
AcDbLine
 10
8.409999999991555
 20
3.670999999996297
 30
0.0
 11
9.236999999990758
 21
5.5200999999945
 31
0.0
1001
ACAD
1000
ASC_BOUNDS
1002
{
1070
    19
1005
A376
1002
}
  0
LINE
  5
A353
330
A333
100
AcDbEntity
  8
0
100
AcDbLine
 10
8.409999999991555
 20
3.670999999996297
 30
0.0
 11
10.06399999998996
 21
3.670999999996297
 31
0.0
1001
ACAD
1000
ASC_BOUNDS
1002
{
1070
    19
1005
A376
1002
}
  0
LINE
  5
A354
330
A333
100
AcDbEntity
  8
0
100
AcDbLine
 10
10.53899999998941
 20
8.763099999991255
 30
0.0
 11
12.02999999998792
 21
8.763099999991255
 31
0.0
1001
ACAD
1000
ASC_BOUNDS
1002
{
1070
    19
1005
A377
1002
}
  0
LINE
  5
A355
330
A333
100
AcDbEntity
  8
0
100
AcDbLine
 10
22.7389999999773
 20
3.670999999996297
 30
0.0
 11
23.56599999997638
 21
5.5200999999945
 31
0.0
1001
ACAD
1000
ASC_BOUNDS
1002
{
1070
    19
1005
A378
1002
}
  0
LINE
  5
A356
330
A333
100
AcDbEntity
  8
0
100
AcDbLine
 10
22.7389999999773
 20
3.670999999996297
 30
0.0
 11
24.39299999997559
 21
3.670999999996297
 31
0.0
1001
ACAD
1000
ASC_BOUNDS
1002
{
1070
    19
1005
A378
1002
}
  0
LINE
  5
A357
330
A333
100
AcDbEntity
  8
0
100
AcDbLine
 10
18.59799999998143
 20
3.315799999996671
 30
0.0
 11
20.89099999997916
 21
8.763099999991255
 31
0.0
1001
ACAD
1000
ASC_BOUNDS
1002
{
1070
    19
1005
A377
1002
}
  0
LINE
  5
A358
330
A333
100
AcDbEntity
  8
0
100
AcDbLine
 10
18.59799999998143
 20
3.315799999996671
 30
0.0
 11
16.46099999998353
 21
8.999899999990987
 31
0.0
1001
ACAD
1000
ASC_BOUNDS
1002
{
1070
    19
1005
A377
1002
}
  0
LINE
  5
A359
330
A333
100
AcDbEntity
  8
0
100
AcDbLine
 10
20.89099999997916
 20
8.763099999991255
 30
0.0
 11
22.38199999997767
 21
8.763099999991255
 31
0.0
1001
ACAD
1000
ASC_BOUNDS
1002
{
1070
    19
1005
A377
1002
}
  0
LINE
  5
A35A
330
A333
100
AcDbEntity
  8
0
100
AcDbLine
 10
24.39299999997559
 20
3.670999999996297
 30
0.0
 11
23.56599999997638
 21
5.5200999999945
 31
0.0
1001
ACAD
1000
ASC_BOUNDS
1002
{
1070
    19
1005
A378
1002
}
  0
LINE
  5
A35B
330
A333
100
AcDbEntity
  8
0
100
AcDbLine
 10
44.99999999995498
 20
-0.2368999999997641
 30
0.0
 11
40.02599999995994
 21
5.341799999994635
 31
0.0
1001
ACAD
1000
ASC_BOUNDS
1002
{
1070
    19
1005
A37A
1002
}
  0
LINE
  5
A35C
330
A333
100
AcDbEntity
  8
0
100
AcDbLine
 10
40.02599999995994
 20
5.341799999994635
 30
0.0
 11
40.02599999995994
 21
0.0
 31
0.0
1001
ACAD
1000
ASC_BOUNDS
1002
{
1070
    19
1005
A37A
1002
}
  0
LINE
  5
A35D
330
A333
100
AcDbEntity
  8
0
100
AcDbLine
 10
38.60499999996136
 20
8.999999999991019
 30
0.0
 11
38.60499999996136
 21
0.0
 31
0.0
1001
ACAD
1000
ASC_BOUNDS
1002
{
1070
    19
1005
A37A
1002
}
  0
LINE
  5
A35E
330
A333
100
AcDbEntity
  8
0
100
AcDbLine
 10
44.99999999995498
 20
8.763099999991255
 30
0.0
 11
44.99999999995498
 21
-0.2368999999997641
 31
0.0
1001
ACAD
1000
ASC_BOUNDS
1002
{
1070
    19
1005
A37A
1002
}
  0
LINE
  5
A35F
330
A333
100
AcDbEntity
  8
0
100
AcDbLine
 10
38.60499999996136
 20
0.0
 30
0.0
 11
40.02599999995994
 21
0.0
 31
0.0
1001
ACAD
1000
ASC_BOUNDS
1002
{
1070
    19
1005
A37A
1002
}
  0
LINE
  5
A360
330
A333
100
AcDbEntity
  8
0
100
AcDbLine
 10
43.57899999995641
 20
3.421199999996588
 30
0.0
 11
38.60499999996136
 21
8.999899999990987
 31
0.0
1001
ACAD
1000
ASC_BOUNDS
1002
{
1070
    19
1005
A37A
1002
}
  0
LINE
  5
A361
330
A333
100
AcDbEntity
  8
0
100
AcDbLine
 10
43.57899999995641
 20
8.763099999991255
 30
0.0
 11
43.57899999995641
 21
3.421199999996588
 31
0.0
1001
ACAD
1000
ASC_BOUNDS
1002
{
1070
    19
1005
A37A
1002
}
  0
LINE
  5
A362
330
A333
100
AcDbEntity
  8
0
100
AcDbLine
 10
43.57899999995641
 20
8.763099999991255
 30
0.0
 11
44.99999999995498
 21
8.763099999991255
 31
0.0
1001
ACAD
1000
ASC_BOUNDS
1002
{
1070
    19
1005
A37A
1002
}
  0
LINE
  5
A363
330
A333
100
AcDbEntity
  8
0
100
AcDbLine
 10
37.67199999996831
 20
8.763099999991255
 30
0.0
 11
36.23199999996837
 21
8.763099999991255
 31
0.0
  0
LINE
  5
A364
330
A333
100
AcDbEntity
  8
0
100
AcDbLine
 10
31.64199999996833
 20
8.763099999991255
 30
0.0
 11
31.64199999996833
 21
2.481619422925121
 31
0.0
  0
LINE
  5
A365
330
A333
100
AcDbEntity
  8
0
100
AcDbLine
 10
37.67199999996831
 20
8.763099999991255
 30
0.0
 11
37.67199999996831
 21
2.481619422925121
 31
0.0
  0
LINE
  5
A366
330
A333
100
AcDbEntity
  8
0
100
AcDbLine
 10
36.23199999996837
 20
8.763099999991255
 30
0.0
 11
36.23199999996837
 21
2.481619422925064
 31
0.0
  0
LINE
  5
A367
330
A333
100
AcDbEntity
  8
0
100
AcDbLine
 10
33.08199999996839
 20
8.763099999991255
 30
0.0
 11
33.08199999996839
 21
2.481619422925121
 31
0.0
  0
ARC
  5
A368
330
A333
100
AcDbEntity
  8
0
100
AcDbCircle
 10
34.65699999996832
 20
3.183099999991214
 30
0.0
 40
3.420000000000007
100
AcDbArc
 50
240.0000000000255
 51
299.9999999999766
  0
ARC
  5
A369
330
A333
100
AcDbEntity
  8
0
100
AcDbCircle
 10
34.65699999996832
 20
3.183099999991214
 30
0.0
 40
1.97999999999999
100
AcDbArc
 50
240.000000000026
 51
299.9999999999703
  0
LINE
  5
A36A
330
A333
100
AcDbEntity
  8
0
100
AcDbLine
 10
33.08199999996828
 20
8.763099999991255
 30
0.0
 11
31.64199999996833
 21
8.763099999991255
 31
0.0
  0
ARC
  5
A36B
330
A333
100
AcDbEntity
  8
0
100
AcDbCircle
 10
35.06199999996829
 20
2.481619422925064
 30
0.0
 40
1.17
100
AcDbArc
 50
299.9999999999699
 51
0.0
  0
ARC
  5
A36C
330
A333
100
AcDbEntity
  8
0
100
AcDbCircle
 10
34.25199999996835
 20
2.481619422925121
 30
0.0
 40
1.17
100
AcDbArc
 50
180.0
 51
240.0000000000238
  0
ARC
  5
A36D
330
A333
100
AcDbEntity
  8
0
100
AcDbCircle
 10
35.06199999996841
 20
2.481619422925121
 30
0.0
 40
2.61
100
AcDbArc
 50
299.9999999999756
 51
0.0
  0
ARC
  5
A36E
330
A333
100
AcDbEntity
  8
0
100
AcDbCircle
 10
34.25199999996835
 20
2.481619422925121
 30
0.0
 40
2.61
100
AcDbArc
 50
180.0
 51
240.0000000000244
  0
LINE
  5
A36F
330
A333
100
AcDbEntity
  8
0
100
AcDbLine
 10
29.30199999996933
 20
8.763099999991255
 30
0.0
 11
30.74199999996927
 21
8.763099999991255
 31
0.0
1001
ACAD
1000
ASC_BOUNDS
1002
{
1070
    19
1005
A378
1002
}
  0
LINE
  5
A370
330
A333
100
AcDbEntity
  8
0
100
AcDbLine
 10
30.74199999996927
 20
8.763099999991255
 30
0.0
 11
30.74199999996927
 21
2.373099999991211
 31
0.0
1001
ACAD
1000
ASC_BOUNDS
1002
{
1070
    19
1005
A378
1002
}
  0
LINE
  5
A371
330
A333
100
AcDbEntity
  8
0
100
AcDbLine
 10
26.02015566812236
 20
0.0330999999912365
 30
0.0
 11
28.40199999996923
 21
0.0330999999912365
 31
0.0
1001
ACAD
1000
ASC_BOUNDS
1002
{
1070
    19
1005
A378
1002
}
  0
LINE
  5
A372
330
A333
100
AcDbEntity
  8
0
100
AcDbLine
 10
29.30199999996933
 20
8.763099999991255
 30
0.0
 11
29.30199999996933
 21
2.283099999991236
 31
0.0
1001
ACAD
1000
ASC_BOUNDS
1002
{
1070
    19
1005
A378
1002
}
  0
LINE
  5
A373
330
A333
100
AcDbEntity
  8
0
100
AcDbLine
 10
26.97358892824991
 20
1.383099999991202
 30
0.0
 11
28.40199999996923
 21
1.383099999991202
 31
0.0
1001
ACAD
1000
ASC_BOUNDS
1002
{
1070
    19
1005
A378
1002
}
  0
ARC
  5
A374
330
A333
100
AcDbEntity
  8
0
100
AcDbCircle
 10
28.40199999996923
 20
2.283099999991236
 30
0.0
 40
0.9
100
AcDbArc
 50
270.0
 51
0.0
1001
ACAD
1000
ASC_BOUNDS
1002
{
1070
    19
1005
A378
1002
}
  0
ARC
  5
A375
330
A333
100
AcDbEntity
  8
0
100
AcDbCircle
 10
28.40199999996923
 20
2.373099999991211
 30
0.0
 40
2.34
100
AcDbArc
 50
270.0
 51
0.0
1001
ACAD
1000
ASC_BOUNDS
1002
{
1070
    19
1005
A378
1002
}
  0
INSERT
  5
A376
330
A333
100
AcDbEntity
  8
0
100
AcDbBlockReference
  2
*X66
 10
0.0
 20
0.0
 30
0.0
1001
ACAD
1000
HATCH
1002
{
1070
    19
1000
ANSI37
1040
0.15
1040
0.0
1000
ASC_BOUNDS
1070
     2
1070
     2
1070
    12
1005
A335
1005
A336
1005
A33D
1005
A34C
1005
A34F
1005
A34D
1005
A33E
1005
A343
1005
A341
1005
A345
1005
A344
1005
A346
1070
     2
1070
     3
1005
A351
1005
A353
1005
A352
1000
ASC_SEEDPOINT
1011
3.614004224891801
1021
2.996669441146025
1031
0.0
1000
R14_HATCH_DATA
1000
A376
1011
1.0
1021
0.0
1031
0.0
1011
0.0
1021
1.0
1031
0.0
1011
0.0
1021
0.0
1031
1.0
1040
0.0
1010
0.0
1020
0.0
1030
1.0
1000
ANSI37
1070
     0
1070
     1
1071
        2
1071
        7
1070
     0
1070
     1
1071
       17
1040
13.26299999998673
1040
-0.0001000000000317
1040
9.236999999990758
1040
8.999899999990987
1040
9.236999999990758
1040
8.999999999991019
1040
5.657999999994331
1040
0.9999999999989768
1040
3.181999999996833
1040
4.668599999995308
1040
6.432999999993513
1040
8.763099999991255
1040
4.617999999995391
1040
8.763099999991255
1040
1.420999999998571
1040
4.736799999995242
1040
4.617999999995391
1040
-0.0001000000000317
1040
4.617999999995391
1040
0.0
1040
6.766999999993232
1040
0.0
1040
6.766999999993232
1040
-0.0001000000000317
1040
7.826999999992154
1040
2.368399999997621
1040
10.64699999998936
1040
2.368399999997621
1040
11.70599999998831
1040
-0.0001000000000317
1040
11.70599999998831
1040
0.0
1040
13.26299999998673
1040
0.0
1071
       12
1005
A335
1005
A336
1005
A33D
1005
A34C
1005
A34F
1005
A34D
1005
A33E
1005
A343
1005
A341
1005
A345
1005
A344
1005
A346
1071
       22
1070
     0
1070
     1
1071
        3
1040
9.236999999990758
1040
5.5200999999945
1040
10.06399999998996
1040
3.670999999996297
1040
8.409999999991555
1040
3.670999999996297
1071
        3
1005
A351
1005
A353
1005
A352
1070
     0
1070
     1
1040
0.0
1040
0.15
1070
     0
1070
     2
1040
0.7853981633974483
1040
49.29960901727088
1040
-10.17736998311392
1040
-0.3367596045400932
1040
0.3367596045400932
1070
     0
1040
2.356194490192345
1040
49.29960901727088
1040
-10.17736998311392
1040
-0.3367596045400932
1040
-0.3367596045400932
1070
     0
1040
0.0110235143455945
1071
        2
1040
3.614004224891801
1040
2.996669441146025
1040
0.0
1040
3.614004224891801
1040
2.996669441146025
1040
0.0
1002
}
  0
INSERT
  5
A377
330
A333
100
AcDbEntity
  8
0
100
AcDbBlockReference
  2
*X67
 10
0.0
 20
0.0
 30
0.0
1001
ACAD
1000
HATCH
1002
{
1070
    19
1000
ANSI37
1040
0.15
1040
0.0
1000
ASC_BOUNDS
1070
     1
1070
     2
1070
    10
1005
A337
1005
A338
1005
A359
1005
A357
1005
A358
1005
A34B
1005
A350
1005
A354
1005
A33A
1005
A339
1000
ASC_SEEDPOINT
1011
14.73245321214324
1021
2.798246178283421
1031
0.0
1000
R14_HATCH_DATA
1000
A377
1011
1.0
1021
0.0
1031
0.0
1011
0.0
1021
1.0
1031
0.0
1011
0.0
1021
0.0
1031
1.0
1040
0.0
1010
0.0
1020
0.0
1030
1.0
1000
ANSI37
1070
     0
1070
     1
1071
        1
1071
        7
1070
     0
1070
     1
1071
       10
1040
16.46099999998353
1040
5.432899999994561
1040
18.59199999998134
1040
-0.2368999999997641
1040
22.38199999997767
1040
8.763099999991255
1040
20.89099999997916
1040
8.763099999991255
1040
18.59799999998143
1040
3.315799999996671
1040
16.46099999998353
1040
8.999899999990987
1040
14.32399999998563
1040
3.315799999996671
1040
12.02999999998792
1040
8.763099999991255
1040
10.53899999998941
1040
8.763099999991255
1040
14.32899999998563
1040
-0.2368999999997641
1071
       10
1005
A337
1005
A338
1005
A359
1005
A357
1005
A358
1005
A34B
1005
A350
1005
A354
1005
A33A
1005
A339
1070
     0
1070
     1
1040
0.0
1040
0.15
1070
     0
1070
     2
1040
0.7853981633974483
1040
49.29960901727088
1040
-10.17736998311392
1040
-0.3367596045400932
1040
0.3367596045400932
1070
     0
1040
2.356194490192345
1040
49.29960901727088
1040
-10.17736998311392
1040
-0.3367596045400932
1040
-0.3367596045400932
1070
     0
1040
0.0110235143455945
1071
        1
1040
14.73245321214324
1040
2.798246178283421
1040
0.0
1002
}
  0
INSERT
  5
A378
330
A333
100
AcDbEntity
  8
0
100
AcDbBlockReference
  2
*X68
 10
0.0
 20
0.0
 30
0.0
1001
ACAD
1000
HATCH
1002
{
1070
    19
1000
ANSI37
1040
0.15
1040
0.0
1000
ASC_BOUNDS
1070
     2
1070
     2
1070
    13
1005
A33B
1005
A348
1005
A349
1005
A347
1005
A34A
1005
A371
1005
A375
1005
A370
1005
A36F
1005
A372
1005
A374
1005
A373
1005
A33C
1070
     2
1070
     3
1005
A355
1005
A35A
1005
A356
1000
ASC_SEEDPOINT
1011
21.97929957367762
1021
3.294304244259308
1031
0.0
1000
R14_HATCH_DATA
1000
A378
1011
1.0
1021
0.0
1031
0.0
1011
0.0
1021
1.0
1031
0.0
1011
0.0
1021
0.0
1031
1.0
1040
0.0
1010
0.0
1020
0.0
1030
1.0
1000
ANSI37
1070
     0
1070
     1
1071
        2
1071
        7
1070
     1
1070
     1
1071
       15
1040
23.56599999997638
1040
8.999899999990987
1040
0.0
1040
19.53899999998043
1040
-0.0001000000000317
1040
0.0
1040
19.53899999998043
1040
0.0
1040
0.0
1040
21.09599999997886
1040
0.0
1040
0.0
1040
21.09599999997886
1040
-0.0001000000000317
1040
0.0
1040
22.15599999997789
1040
2.368399999997621
1040
0.0
1040
24.97599999997499
1040
2.368399999997621
1040
0.0
1040
26.02015566812236
1040
0.0330999999912365
1040
0.0
1040
28.40199999996923
1040
0.0330999999912365
1040
0.414213562373095
1040
30.74199999996923
1040
2.373099999991211
1040
0.0
1040
30.74199999996927
1040
8.763099999991255
1040
0.0
1040
29.30199999996933
1040
8.763099999991255
1040
0.0
1040
29.30199999996933
1040
2.283099999991236
1040
-0.414213562373095
1040
28.40199999996923
1040
1.383099999991237
1040
0.0
1040
26.97358892824991
1040
1.383099999991202
1040
0.0
1071
       13
1005
A33B
1005
A348
1005
A349
1005
A347
1005
A34A
1005
A371
1005
A375
1005
A370
1005
A36F
1005
A372
1005
A374
1005
A373
1005
A33C
1071
       22
1070
     0
1070
     1
1071
        3
1040
22.7389999999773
1040
3.670999999996297
1040
23.56599999997638
1040
5.5200999999945
1040
24.39299999997559
1040
3.670999999996297
1071
        3
1005
A355
1005
A35A
1005
A356
1070
     0
1070
     1
1040
0.0
1040
0.15
1070
     0
1070
     2
1040
0.7853981633974483
1040
49.29960901727088
1040
-10.17736998311392
1040
-0.3367596045400932
1040
0.3367596045400932
1070
     0
1040
2.356194490192345
1040
49.29960901727088
1040
-10.17736998311392
1040
-0.3367596045400932
1040
-0.3367596045400932
1070
     0
1040
0.0110235143455945
1071
        2
1040
21.97929957367762
1040
3.294304244259308
1040
0.0
1040
21.97929957367762
1040
3.294304244259308
1040
0.0
1002
}
  0
INSERT
  5
A379
330
A333
100
AcDbEntity
  8
0
100
AcDbBlockReference
  2
*X69
 10
0.0
 20
0.0
 30
0.0
1001
ACAD
1000
HATCH
1002
{
1070
    19
1000
ANSI37
1040
0.15
1040
0.0
1000
R14_HATCH_DATA
1000
A379
1011
1.0
1021
0.0
1031
0.0
1011
0.0
1021
1.0
1031
0.0
1011
0.0
1021
0.0
1031
1.0
1040
0.0
1010
0.0
1020
0.0
1030
1.0
1000
ANSI37
1070
     0
1070
     1
1071
        1
1071
        7
1070
     1
1070
     1
1071
       12
1040
31.64199999996833
1040
2.481619422925121
1040
0.2679491924310942
1040
32.94699999997067
1040
0.2212931190493919
1040
0.2679491924301353
1040
36.36699999995983
1040
0.2212931190459813
1040
0.2679491924321411
1040
37.67199999996831
1040
2.481619422928361
1040
0.0
1040
37.67199999996831
1040
8.763099999991255
1040
0.0
1040
36.23199999996837
1040
8.763099999991255
1040
0.0
1040
36.23199999996837
1040
2.481619422925064
1040
-0.2679491924310291
1040
35.64699999996708
1040
1.468369700498386
1040
-0.267949192430519
1040
33.66699999997093
1040
1.468369700497703
1040
-0.267949192431809
1040
33.08199999996839
1040
2.481619422926997
1040
0.0
1040
33.08199999996839
1040
8.763099999991255
1040
0.0
1040
31.64199999996833
1040
8.763099999991255
1040
0.0
1071
        0
1070
     0
1070
     1
1040
0.0
1040
0.15
1070
     0
1070
     2
1040
0.7853981633974483
1040
49.29960901727088
1040
-10.17736998311392
1040
-0.3367596045400932
1040
0.3367596045400932
1070
     0
1040
2.356194490192345
1040
49.29960901727088
1040
-10.17736998311392
1040
-0.3367596045400932
1040
-0.3367596045400932
1070
     0
1040
0.0110235143455945
1071
        1
1040
32.30357378967278
1040
3.988785755459219
1040
0.0
1002
}
  0
INSERT
  5
A37A
330
A333
100
AcDbEntity
  8
0
100
AcDbBlockReference
  2
*X70
 10
0.0
 20
0.0
 30
0.0
1001
ACAD
1000
HATCH
1002
{
1070
    19
1000
ANSI37
1040
0.15
1040
0.0
1000
ASC_BOUNDS
1070
     1
1070
     2
1070
     8
1005
A35B
1005
A35E
1005
A362
1005
A361
1005
A360
1005
A35D
1005
A35F
1005
A35C
1000
ASC_SEEDPOINT
1011
39.74896370716704
1021
4.484843821435049
1031
0.0
1000
R14_HATCH_DATA
1000
A37A
1011
1.0
1021
0.0
1031
0.0
1011
0.0
1021
1.0
1031
0.0
1011
0.0
1021
0.0
1031
1.0
1040
0.0
1010
0.0
1020
0.0
1030
1.0
1000
ANSI37
1070
     0
1070
     1
1071
        1
1071
        7
1070
     0
1070
     1
1071
        9
1040
40.02599999995994
1040
5.341799999994635
1040
44.99999999995498
1040
-0.2368999999997641
1040
44.99999999995498
1040
8.763099999991255
1040
43.57899999995641
1040
8.763099999991255
1040
43.57899999995641
1040
3.421199999996588
1040
38.60499999996136
1040
8.999899999990987
1040
38.60499999996136
1040
8.999999999991019
1040
38.60499999996136
1040
0.0
1040
40.02599999995994
1040
0.0
1071
        8
1005
A35B
1005
A35E
1005
A362
1005
A361
1005
A360
1005
A35D
1005
A35F
1005
A35C
1070
     0
1070
     1
1040
0.0
1040
0.15
1070
     0
1070
     2
1040
0.7853981633974483
1040
49.29960901727088
1040
-10.17736998311392
1040
-0.3367596045400932
1040
0.3367596045400932
1070
     0
1040
2.356194490192345
1040
49.29960901727088
1040
-10.17736998311392
1040
-0.3367596045400932
1040
-0.3367596045400932
1070
     0
1040
0.0110235143455945
1071
        1
1040
39.74896370716704
1040
4.484843821435049
1040
0.0
1002
}
  0
INSERT
  5
A37B
330
A333
100
AcDbEntity
  8
0
100
AcDbBlockReference
  2
*X71
 10
0.0
 20
0.0
 30
0.0
1001
ACAD
1000
HATCH
1002
{
1070
    19
1000
ANSI37
1040
0.15
1040
0.0
1000
ASC_BOUNDS
1070
     1
1070
     2
1070
     4
1005
A33F
1005
A34E
1005
A340
1005
A342
1000
ASC_SEEDPOINT
1011
1.079051535452663
1021
4.148538732891836
1031
0.0
1000
R14_HATCH_DATA
1000
A37B
1011
1.0
1021
0.0
1031
0.0
1011
0.0
1021
1.0
1031
0.0
1011
0.0
1021
0.0
1031
1.0
1040
0.0
1010
0.0
1020
0.0
1030
1.0
1000
ANSI37
1070
     0
1070
     1
1071
        1
1071
        7
1070
     0
1070
     1
1071
        4
1040
1.420999999998571
1040
0.0
1040
1.420999999998571
1040
8.763099999991255
1040
0.0
1040
8.763099999991255
1040
0.0
1040
0.0
1071
        4
1005
A33F
1005
A34E
1005
A340
1005
A342
1070
     0
1070
     1
1040
0.0
1040
0.15
1070
     0
1070
     2
1040
0.7853981633974483
1040
49.29960901727088
1040
-10.17736998311392
1040
-0.3367596045400932
1040
0.3367596045400932
1070
     0
1040
2.356194490192345
1040
49.29960901727088
1040
-10.17736998311392
1040
-0.3367596045400932
1040
-0.3367596045400932
1070
     0
1040
0.0053004257112761
1071
        1
1040
1.079051535452663
1040
4.148538732891836
1040
0.0
1002
}
  0
ENDBLK
  5
AA57
330
A333
100
AcDbEntity
  8
0
100
AcDbBlockEnd
  0
BLOCK
  5
D310
330
D182
100
AcDbEntity
  8
0
100
AcDbBlockBegin
  2
*X66
 70
     1
 10
0.0
 20
0.0
 30
0.0
  3
*X66
  1

  0
LINE
  5
D183
330
D182
100
AcDbEntity
  8
0
  6
CONTINUOUS
100
AcDbLine
 10
3.418023043697893
 20
7.251849696850613
 30
0.0
 11
4.929273346838536
 21
8.763099999991255
 31
0.0
  0
LINE
  5
D184
330
D182
100
AcDbEntity
  8
0
  6
CONTINUOUS
100
AcDbLine
 10
1.483656411257782
 20
4.643963855330318
 30
0.0
 11
5.60279255591872
 21
8.763099999991255
 31
0.0
  0
LINE
  5
D185
330
D182
100
AcDbEntity
  8
0
  6
CONTINUOUS
100
AcDbLine
 10
1.755053947328235
 20
4.241842182320584
 30
0.0
 11
6.276311764998907
 21
8.763099999991255
 31
0.0
  0
LINE
  5
D186
330
D182
100
AcDbEntity
  8
0
  6
CONTINUOUS
100
AcDbLine
 10
2.026451483398688
 20
3.839720509310849
 30
0.0
 11
4.441040904851878
 21
6.254309930764039
 31
0.0
  0
LINE
  5
D187
330
D182
100
AcDbEntity
  8
0
  6
CONTINUOUS
100
AcDbLine
 10
2.297849019469139
 20
3.437598836301114
 30
0.0
 11
3.321765168359338
 21
4.461514985191313
 31
0.0
  0
LINE
  5
D188
330
D182
100
AcDbEntity
  8
0
  6
CONTINUOUS
100
AcDbLine
 10
2.569246555539591
 20
3.03547716329138
 30
0.0
 11
3.593163397972743
 21
4.059394005724531
 31
0.0
  0
LINE
  5
D189
330
D182
100
AcDbEntity
  8
0
  6
CONTINUOUS
100
AcDbLine
 10
2.840644091610043
 20
2.633355490281646
 30
0.0
 11
3.864561627586149
 21
3.657273026257751
 31
0.0
  0
LINE
  5
D18A
330
D182
100
AcDbEntity
  8
0
  6
CONTINUOUS
100
AcDbLine
 10
3.112041627680496
 20
2.231233817271911
 30
0.0
 11
4.135959857199554
 21
3.25515204679097
 31
0.0
  0
LINE
  5
D18B
330
D182
100
AcDbEntity
  8
0
  6
CONTINUOUS
100
AcDbLine
 10
3.383439163750948
 20
1.829112144262177
 30
0.0
 11
4.40735808681296
 21
2.853031067324189
 31
0.0
  0
LINE
  5
D18C
330
D182
100
AcDbEntity
  8
0
  6
CONTINUOUS
100
AcDbLine
 10
3.654836699821399
 20
1.426990471252442
 30
0.0
 11
4.678756316426365
 21
2.450910087857407
 31
0.0
  0
LINE
  5
D18D
330
D182
100
AcDbEntity
  8
0
  6
CONTINUOUS
100
AcDbLine
 10
3.926234235891853
 20
1.024868798242709
 30
0.0
 11
4.95015454603977
 21
2.048789108390626
 31
0.0
  0
LINE
  5
D18E
330
D182
100
AcDbEntity
  8
0
  6
CONTINUOUS
100
AcDbLine
 10
4.197631771962304
 20
0.6227471252329737
 30
0.0
 11
5.221552775653176
 21
1.646668128923846
 31
0.0
  0
LINE
  5
D18F
330
D182
100
AcDbEntity
  8
0
  6
CONTINUOUS
100
AcDbLine
 10
8.715877546767851
 20
7.835069736359266
 30
0.0
 11
9.435953450375058
 21
8.555145639966472
 31
0.0
  0
LINE
  5
D190
330
D182
100
AcDbEntity
  8
0
  6
CONTINUOUS
100
AcDbLine
 10
8.170620868422267
 20
6.616293848933497
 30
0.0
 11
9.644120833743461
 21
8.08979381425469
 31
0.0
  0
LINE
  5
D191
330
D182
100
AcDbEntity
  8
0
  6
CONTINUOUS
100
AcDbLine
 10
7.625364190076684
 20
5.397517961507727
 30
0.0
 11
9.852288217111864
 21
7.624441988542907
 31
0.0
  0
LINE
  5
D192
330
D182
100
AcDbEntity
  8
0
  6
CONTINUOUS
100
AcDbLine
 10
7.080107511731101
 20
4.178742074081957
 30
0.0
 11
10.06045560048027
 21
7.159090162831124
 31
0.0
  0
LINE
  5
D193
330
D182
100
AcDbEntity
  8
0
  6
CONTINUOUS
100
AcDbLine
 10
6.534850833385518
 20
2.959966186656187
 30
0.0
 11
10.26862298384867
 21
6.693738337119342
 31
0.0
  0
LINE
  5
D194
330
D182
100
AcDbEntity
  8
0
  6
CONTINUOUS
100
AcDbLine
 10
4.469029308032756
 20
0.2206254522232385
 30
0.0
 11
5.492951005266582
 21
1.244547149457064
 31
0.0
  0
LINE
  5
D195
330
D182
100
AcDbEntity
  8
0
  6
CONTINUOUS
100
AcDbLine
 10
5.989594155039935
 20
1.741190299230417
 30
0.0
 11
8.806950407233131
 21
4.558546551423613
 31
0.0
  0
LINE
  5
D196
330
D182
100
AcDbEntity
  8
0
  6
CONTINUOUS
100
AcDbLine
 10
9.401251593263643
 20
5.152847737454126
 30
0.0
 11
10.47679036721708
 21
6.228386511407559
 31
0.0
  0
LINE
  5
D197
330
D182
100
AcDbEntity
  8
0
  6
CONTINUOUS
100
AcDbLine
 10
4.921837203428691
 20
-0.0000858614610131
 30
0.0
 11
8.592923064886001
 21
3.670999999996297
 31
0.0
  0
LINE
  5
D198
330
D182
100
AcDbEntity
  8
0
  6
CONTINUOUS
100
AcDbLine
 10
9.609390446785305
 20
4.6874673818956
 30
0.0
 11
10.68495775058548
 21
5.763034685695775
 31
0.0
  0
LINE
  5
D199
330
D182
100
AcDbEntity
  8
0
  6
CONTINUOUS
100
AcDbLine
 10
5.595387755019432
 20
-0.0000545189504582
 30
0.0
 11
7.716137258923768
 21
2.120694984953879
 31
0.0
  0
LINE
  5
D19A
330
D182
100
AcDbEntity
  8
0
  6
CONTINUOUS
100
AcDbLine
 10
6.268938306610172
 20
-0.000023176439905
 30
0.0
 11
7.170485805526503
 21
0.9015243224764267
 31
0.0
  0
LINE
  5
D19B
330
D182
100
AcDbEntity
  8
0
  6
CONTINUOUS
100
AcDbLine
 10
7.963842273967511
 20
2.368399999997621
 30
0.0
 11
9.266442273966188
 21
3.670999999996297
 31
0.0
  0
LINE
  5
D19C
330
D182
100
AcDbEntity
  8
0
  6
CONTINUOUS
100
AcDbLine
 10
8.637361483047696
 20
2.368399999997621
 30
0.0
 11
9.939961483046375
 21
3.670999999996297
 31
0.0
  0
LINE
  5
D19D
330
D182
100
AcDbEntity
  8
0
  6
CONTINUOUS
100
AcDbLine
 10
9.817529300306965
 20
4.222087026337075
 30
0.0
 11
10.89312513395388
 21
5.297682859983993
 31
0.0
  0
LINE
  5
D19E
330
D182
100
AcDbEntity
  8
0
  6
CONTINUOUS
100
AcDbLine
 10
10.02566815382863
 20
3.756706670778549
 30
0.0
 11
11.10129251732229
 21
4.832331034272211
 31
0.0
  0
LINE
  5
D19F
330
D182
100
AcDbEntity
  8
0
  6
CONTINUOUS
100
AcDbLine
 10
9.310880692127883
 20
2.368399999997621
 30
0.0
 11
11.30945990069069
 21
4.366979208560428
 31
0.0
  0
LINE
  5
D1A0
330
D182
100
AcDbEntity
  8
0
  6
CONTINUOUS
100
AcDbLine
 10
9.98439990120807
 20
2.36839999999762
 30
0.0
 11
11.5176272840591
 21
3.901627382848645
 31
0.0
  0
LINE
  5
D1A1
330
D182
100
AcDbEntity
  8
0
  6
CONTINUOUS
100
AcDbLine
 10
10.65037369446246
 20
2.36085458417182
 30
0.0
 11
11.7257946674275
 21
3.436275557136862
 31
0.0
  0
LINE
  5
D1A2
330
D182
100
AcDbEntity
  8
0
  6
CONTINUOUS
100
AcDbLine
 10
10.85847197087848
 20
1.895433651507656
 30
0.0
 11
11.9339620507959
 21
2.97092373142508
 31
0.0
  0
LINE
  5
D1A3
330
D182
100
AcDbEntity
  8
0
  6
CONTINUOUS
100
AcDbLine
 10
11.0665702472945
 20
1.430012718843491
 30
0.0
 11
12.14212943416431
 21
2.505571905713296
 31
0.0
  0
LINE
  5
D1A4
330
D182
100
AcDbEntity
  8
0
  6
CONTINUOUS
100
AcDbLine
 10
11.27466852371052
 20
0.9645917861793256
 30
0.0
 11
12.35029681753271
 21
2.040220080001513
 31
0.0
  0
LINE
  5
D1A5
330
D182
100
AcDbEntity
  8
0
  6
CONTINUOUS
100
AcDbLine
 10
11.48276680012654
 20
0.4991708535151611
 30
0.0
 11
12.55846420090111
 21
1.57486825428973
 31
0.0
  0
LINE
  5
D1A6
330
D182
100
AcDbEntity
  8
0
  6
CONTINUOUS
100
AcDbLine
 10
11.69086507654257
 20
0.0337499208509957
 30
0.0
 11
12.76663158426952
 21
1.109516428577947
 31
0.0
  0
LINE
  5
D1A7
330
D182
100
AcDbEntity
  8
0
  6
CONTINUOUS
100
AcDbLine
 10
12.33057447873954
 20
-0.0000598860322123
 30
0.0
 11
12.97479896763792
 21
0.6441646028661663
 31
0.0
  0
LINE
  5
D1A8
330
D182
100
AcDbEntity
  8
0
  6
CONTINUOUS
100
AcDbLine
 10
13.00413694809395
 20
-0.0000166257579952
 30
0.0
 11
13.18296635100632
 21
0.1788127771543824
 31
0.0
  0
LINE
  5
D1A9
330
D182
100
AcDbEntity
  8
0
  6
CONTINUOUS
100
AcDbLine
 10
4.772852165289667
 20
-0.000092794222212
 30
0.0
 11
4.296495091028902
 21
0.4762642800385528
 31
0.0
  0
LINE
  5
D1AA
330
D182
100
AcDbEntity
  8
0
  6
CONTINUOUS
100
AcDbLine
 10
5.446340034776103
 20
-0.0000614546284616
 30
0.0
 11
2.898195908335625
 21
2.548082671812017
 31
0.0
  0
LINE
  5
D1AB
330
D182
100
AcDbEntity
  8
0
  6
CONTINUOUS
100
AcDbLine
 10
6.119827904262539
 20
-0.0000301150347113
 30
0.0
 11
1.499896725642348
 21
4.61990106358548
 31
0.0
  0
LINE
  5
D1AC
330
D182
100
AcDbEntity
  8
0
  6
CONTINUOUS
100
AcDbLine
 10
6.775136745476159
 20
0.0181802528318542
 30
0.0
 11
5.699826040202669
 21
1.093490958105344
 31
0.0
  0
LINE
  5
D1AD
330
D182
100
AcDbEntity
  8
0
  6
CONTINUOUS
100
AcDbLine
 10
6.983376846288489
 20
0.4834593610997118
 30
0.0
 11
5.908008617934405
 21
1.558827589453796
 31
0.0
  0
LINE
  5
D1AE
330
D182
100
AcDbEntity
  8
0
  6
CONTINUOUS
100
AcDbLine
 10
5.377063484962296
 20
1.416253513345719
 30
0.0
 11
1.702276957014131
 21
5.091040041293883
 31
0.0
  0
LINE
  5
D1AF
330
D182
100
AcDbEntity
  8
0
  6
CONTINUOUS
100
AcDbLine
 10
3.978745891735324
 20
3.488090315652877
 30
0.0
 11
2.000373521109399
 21
5.466462686278803
 31
0.0
  0
LINE
  5
D1B0
330
D182
100
AcDbEntity
  8
0
  6
CONTINUOUS
100
AcDbLine
 10
7.191616947100819
 20
0.948738469367568
 30
0.0
 11
6.11619119566614
 21
2.024164220802247
 31
0.0
  0
LINE
  5
D1B1
330
D182
100
AcDbEntity
  8
0
  6
CONTINUOUS
100
AcDbLine
 10
7.399857047913149
 20
1.414017577635424
 30
0.0
 11
6.324373773397875
 21
2.489500852150698
 31
0.0
  0
LINE
  5
D1B2
330
D182
100
AcDbEntity
  8
0
  6
CONTINUOUS
100
AcDbLine
 10
7.608097148725479
 20
1.879296685903281
 30
0.0
 11
6.53255635112961
 21
2.95483748349915
 31
0.0
  0
LINE
  5
D1B3
330
D182
100
AcDbEntity
  8
0
  6
CONTINUOUS
100
AcDbLine
 10
7.816337249537808
 20
2.344575794171138
 30
0.0
 11
6.740738928861345
 21
3.420174114847601
 31
0.0
  0
LINE
  5
D1B4
330
D182
100
AcDbEntity
  8
0
  6
CONTINUOUS
100
AcDbLine
 10
3.310241080789734
 20
4.830114335678653
 30
0.0
 11
2.298470085204666
 21
5.84188533126372
 31
0.0
  0
LINE
  5
D1B5
330
D182
100
AcDbEntity
  8
0
  6
CONTINUOUS
100
AcDbLine
 10
3.60832983563551
 20
5.205544789913063
 30
0.0
 11
2.596566649299935
 21
6.217307976248638
 31
0.0
  0
LINE
  5
D1B6
330
D182
100
AcDbEntity
  8
0
  6
CONTINUOUS
100
AcDbLine
 10
3.906418590481286
 20
5.580975244147473
 30
0.0
 11
2.894663213395203
 21
6.592730621233557
 31
0.0
  0
LINE
  5
D1B7
330
D182
100
AcDbEntity
  8
0
  6
CONTINUOUS
100
AcDbLine
 10
4.204507345327062
 20
5.956405698381884
 30
0.0
 11
3.192759777490472
 21
6.968153266218474
 31
0.0
  0
LINE
  5
D1B8
330
D182
100
AcDbEntity
  8
0
  6
CONTINUOUS
100
AcDbLine
 10
8.466032252791512
 20
2.368399999997621
 30
0.0
 11
6.948921506593081
 21
3.885510746196053
 31
0.0
  0
LINE
  5
D1B9
330
D182
100
AcDbEntity
  8
0
  6
CONTINUOUS
100
AcDbLine
 10
9.139551461871699
 20
2.36839999999762
 30
0.0
 11
7.157104084324816
 21
4.350847377544504
 31
0.0
  0
LINE
  5
D1BA
330
D182
100
AcDbEntity
  8
0
  6
CONTINUOUS
100
AcDbLine
 10
4.502596100172839
 20
6.331836152616295
 30
0.0
 11
3.49085634158574
 21
7.343575911203393
 31
0.0
  0
LINE
  5
D1BB
330
D182
100
AcDbEntity
  8
0
  6
CONTINUOUS
100
AcDbLine
 10
4.800684855018615
 20
6.707266606850705
 30
0.0
 11
3.788952905681008
 21
7.718998556188312
 31
0.0
  0
LINE
  5
D1BC
330
D182
100
AcDbEntity
  8
0
  6
CONTINUOUS
100
AcDbLine
 10
12.18154012887317
 20
-0.0000694579236642
 30
0.0
 11
11.32140332908496
 21
0.8600673418645499
 31
0.0
  0
LINE
  5
D1BD
330
D182
100
AcDbEntity
  8
0
  6
CONTINUOUS
100
AcDbLine
 10
12.85501608323566
 20
-0.0000262032059659
 30
0.0
 11
10.77672456435345
 21
2.078265315676246
 31
0.0
  0
LINE
  5
D1BE
330
D182
100
AcDbEntity
  8
0
  6
CONTINUOUS
100
AcDbLine
 10
9.813070670951886
 20
2.36839999999762
 30
0.0
 11
8.51047067095321
 21
3.670999999996297
 31
0.0
  0
LINE
  5
D1BF
330
D182
100
AcDbEntity
  8
0
  6
CONTINUOUS
100
AcDbLine
 10
10.48658988003207
 20
2.36839999999762
 30
0.0
 11
9.183989880033396
 21
3.670999999996297
 31
0.0
  0
LINE
  5
D1C0
330
D182
100
AcDbEntity
  8
0
  6
CONTINUOUS
100
AcDbLine
 10
8.441048632286794
 20
3.740422038662712
 30
0.0
 11
7.365286662056551
 21
4.816184008892956
 31
0.0
  0
LINE
  5
D1C1
330
D182
100
AcDbEntity
  8
0
  6
CONTINUOUS
100
AcDbLine
 10
8.649187485808454
 20
4.205802394221237
 30
0.0
 11
7.573469239788285
 21
5.281520640241407
 31
0.0
  0
LINE
  5
D1C2
330
D182
100
AcDbEntity
  8
0
  6
CONTINUOUS
100
AcDbLine
 10
5.098773609864391
 20
7.082697061085115
 30
0.0
 11
4.087049469776277
 21
8.09442120117323
 31
0.0
  0
LINE
  5
D1C3
330
D182
100
AcDbEntity
  8
0
  6
CONTINUOUS
100
AcDbLine
 10
5.396862364710167
 20
7.458127515319526
 30
0.0
 11
4.385146033871544
 21
8.469843846158149
 31
0.0
  0
LINE
  5
D1C4
330
D182
100
AcDbEntity
  8
0
  6
CONTINUOUS
100
AcDbLine
 10
13.04801363231285
 20
0.4804954567970334
 30
0.0
 11
9.85750908911358
 21
3.670999999996297
 31
0.0
  0
LINE
  5
D1C5
330
D182
100
AcDbEntity
  8
0
  6
CONTINUOUS
100
AcDbLine
 10
8.857326339330116
 20
4.671182749779763
 30
0.0
 11
7.781651817520021
 21
5.746857271589858
 31
0.0
  0
LINE
  5
D1C6
330
D182
100
AcDbEntity
  8
0
  6
CONTINUOUS
100
AcDbLine
 10
5.694951119555943
 20
7.833557969553937
 30
0.0
 11
4.765409089118624
 21
8.763099999991255
 31
0.0
  0
LINE
  5
D1C7
330
D182
100
AcDbEntity
  8
0
  6
CONTINUOUS
100
AcDbLine
 10
12.50286117236978
 20
1.699167125820288
 30
0.0
 11
9.68611877250287
 21
4.515909525687196
 31
0.0
  0
LINE
  5
D1C8
330
D182
100
AcDbEntity
  8
0
  6
CONTINUOUS
100
AcDbLine
 10
9.065465192851777
 20
5.136563105338288
 30
0.0
 11
7.989834395251757
 21
6.21219390293831
 31
0.0
  0
LINE
  5
D1C9
330
D182
100
AcDbEntity
  8
0
  6
CONTINUOUS
100
AcDbLine
 10
5.993039874401719
 20
8.208988423788346
 30
0.0
 11
5.43892829819881
 21
8.763099999991255
 31
0.0
  0
LINE
  5
D1CA
330
D182
100
AcDbEntity
  8
0
  6
CONTINUOUS
100
AcDbLine
 10
11.95770871242671
 20
2.917838794843543
 30
0.0
 11
8.19801697298349
 21
6.677530534286761
 31
0.0
  0
LINE
  5
D1CB
330
D182
100
AcDbEntity
  8
0
  6
CONTINUOUS
100
AcDbLine
 10
6.291128629247495
 20
8.584418878022756
 30
0.0
 11
6.112447507278997
 21
8.763099999991255
 31
0.0
  0
LINE
  5
D1CC
330
D182
100
AcDbEntity
  8
0
  6
CONTINUOUS
100
AcDbLine
 10
11.41255625248364
 20
4.136510463866797
 30
0.0
 11
8.406199550715227
 21
7.142867165635211
 31
0.0
  0
LINE
  5
D1CD
330
D182
100
AcDbEntity
  8
0
  6
CONTINUOUS
100
AcDbLine
 10
10.86740379254057
 20
5.355182132890051
 30
0.0
 11
8.614382128446962
 21
7.608203796983664
 31
0.0
  0
LINE
  5
D1CE
330
D182
100
AcDbEntity
  8
0
  6
CONTINUOUS
100
AcDbLine
 10
10.3222513325975
 20
6.573853801913305
 30
0.0
 11
8.822564706178696
 21
8.073540428332114
 31
0.0
  0
LINE
  5
D1CF
330
D182
100
AcDbEntity
  8
0
  6
CONTINUOUS
100
AcDbLine
 10
9.777098872654436
 20
7.792525470936562
 30
0.0
 11
9.030747283910433
 21
8.538877059680566
 31
0.0
  0
ENDBLK
  5
D311
330
D182
100
AcDbEntity
  8
0
100
AcDbBlockEnd
  0
BLOCK
  5
D312
330
D1D0
100
AcDbEntity
  8
0
100
AcDbBlockBegin
  2
*X67
 70
     1
 10
0.0
 20
0.0
 30
0.0
  3
*X67
  1

  0
LINE
  5
D1D1
330
D1D0
100
AcDbEntity
  8
0
  6
CONTINUOUS
100
AcDbLine
 10
10.67292308101235
 20
8.445076852443387
 30
0.0
 11
10.99094622856022
 21
8.763099999991255
 31
0.0
  0
LINE
  5
D1D2
330
D1D0
100
AcDbEntity
  8
0
  6
CONTINUOUS
100
AcDbLine
 10
10.87250383178748
 20
7.971138394138331
 30
0.0
 11
11.6644654376404
 21
8.763099999991255
 31
0.0
  0
LINE
  5
D1D3
330
D1D0
100
AcDbEntity
  8
0
  6
CONTINUOUS
100
AcDbLine
 10
11.07208458256261
 20
7.497199935833273
 30
0.0
 11
12.12126590876355
 21
8.546381262034211
 31
0.0
  0
LINE
  5
D1D4
330
D1D0
100
AcDbEntity
  8
0
  6
CONTINUOUS
100
AcDbLine
 10
11.27166533333774
 20
7.023261477528216
 30
0.0
 11
12.32085164573666
 21
8.072447789927136
 31
0.0
  0
LINE
  5
D1D5
330
D1D0
100
AcDbEntity
  8
0
  6
CONTINUOUS
100
AcDbLine
 10
11.47124608411287
 20
6.549323019223158
 30
0.0
 11
12.52043738270977
 21
7.59851431782006
 31
0.0
  0
LINE
  5
D1D6
330
D1D0
100
AcDbEntity
  8
0
  6
CONTINUOUS
100
AcDbLine
 10
11.670826834888
 20
6.075384560918101
 30
0.0
 11
12.72002311968288
 21
7.124580845712984
 31
0.0
  0
LINE
  5
D1D7
330
D1D0
100
AcDbEntity
  8
0
  6
CONTINUOUS
100
AcDbLine
 10
11.87040758566313
 20
5.601446102613043
 30
0.0
 11
12.91960885665599
 21
6.650647373605907
 31
0.0
  0
LINE
  5
D1D8
330
D1D0
100
AcDbEntity
  8
0
  6
CONTINUOUS
100
AcDbLine
 10
12.06998833643825
 20
5.127507644307986
 30
0.0
 11
13.1191945936291
 21
6.176713901498832
 31
0.0
  0
LINE
  5
D1D9
330
D1D0
100
AcDbEntity
  8
0
  6
CONTINUOUS
100
AcDbLine
 10
12.26956908721338
 20
4.65356918600293
 30
0.0
 11
13.31878033060221
 21
5.702780429391757
 31
0.0
  0
LINE
  5
D1DA
330
D1D0
100
AcDbEntity
  8
0
  6
CONTINUOUS
100
AcDbLine
 10
12.46914983798851
 20
4.179630727697873
 30
0.0
 11
13.51836606757532
 21
5.228846957284683
 31
0.0
  0
LINE
  5
D1DB
330
D1D0
100
AcDbEntity
  8
0
  6
CONTINUOUS
100
AcDbLine
 10
12.66873058876364
 20
3.705692269392816
 30
0.0
 11
13.71795180454843
 21
4.754913485177607
 31
0.0
  0
LINE
  5
D1DC
330
D1D0
100
AcDbEntity
  8
0
  6
CONTINUOUS
100
AcDbLine
 10
12.86831133953877
 20
3.231753811087759
 30
0.0
 11
13.91753754152154
 21
4.280980013070531
 31
0.0
  0
LINE
  5
D1DD
330
D1D0
100
AcDbEntity
  8
0
  6
CONTINUOUS
100
AcDbLine
 10
13.0678920903139
 20
2.757815352782702
 30
0.0
 11
14.11712327849465
 21
3.807046540963456
 31
0.0
  0
LINE
  5
D1DE
330
D1D0
100
AcDbEntity
  8
0
  6
CONTINUOUS
100
AcDbLine
 10
13.26747284108903
 20
2.283876894477644
 30
0.0
 11
14.31670901546777
 21
3.333113068856379
 31
0.0
  0
LINE
  5
D1DF
330
D1D0
100
AcDbEntity
  8
0
  6
CONTINUOUS
100
AcDbLine
 10
16.36767838827179
 20
8.751678487061342
 30
0.0
 11
16.50332410898388
 21
8.887324207773432
 31
0.0
  0
LINE
  5
D1E0
330
D1D0
100
AcDbEntity
  8
0
  6
CONTINUOUS
100
AcDbLine
 10
15.96190732182191
 20
7.67238821153127
 30
0.0
 11
16.68735328004734
 21
8.397834169756699
 31
0.0
  0
LINE
  5
D1E1
330
D1D0
100
AcDbEntity
  8
0
  6
CONTINUOUS
100
AcDbLine
 10
15.55613625537202
 20
6.593097936001196
 30
0.0
 11
16.87138245111079
 21
7.908344131739965
 31
0.0
  0
LINE
  5
D1E2
330
D1D0
100
AcDbEntity
  8
0
  6
CONTINUOUS
100
AcDbLine
 10
15.15036518892213
 20
5.513807660471122
 30
0.0
 11
17.05541162217424
 21
7.418854093723231
 31
0.0
  0
LINE
  5
D1E3
330
D1D0
100
AcDbEntity
  8
0
  6
CONTINUOUS
100
AcDbLine
 10
14.74459412247225
 20
4.434517384941048
 30
0.0
 11
17.2394407932377
 21
6.929364055706499
 31
0.0
  0
LINE
  5
D1E4
330
D1D0
100
AcDbEntity
  8
0
  6
CONTINUOUS
100
AcDbLine
 10
14.33882305602236
 20
3.355227109410975
 30
0.0
 11
17.42346996430115
 21
6.439874017689766
 31
0.0
  0
LINE
  5
D1E5
330
D1D0
100
AcDbEntity
  8
0
  6
CONTINUOUS
100
AcDbLine
 10
13.46705359186416
 20
1.809938436172586
 30
0.0
 11
16.0819338255367
 21
4.424818669845129
 31
0.0
  0
LINE
  5
D1E6
330
D1D0
100
AcDbEntity
  8
0
  6
CONTINUOUS
100
AcDbLine
 10
16.63283254238972
 20
4.975717386698149
 30
0.0
 11
17.60749913536461
 21
5.950383979673033
 31
0.0
  0
LINE
  5
D1E7
330
D1D0
100
AcDbEntity
  8
0
  6
CONTINUOUS
100
AcDbLine
 10
13.66663434263929
 20
1.335999977867529
 30
0.0
 11
15.67604797733754
 21
3.345413612565779
 31
0.0
  0
LINE
  5
D1E8
330
D1D0
100
AcDbEntity
  8
0
  6
CONTINUOUS
100
AcDbLine
 10
13.86621509341442
 20
0.8620615195624723
 30
0.0
 11
15.27016212913838
 21
2.26600855528643
 31
0.0
  0
LINE
  5
D1E9
330
D1D0
100
AcDbEntity
  8
0
  6
CONTINUOUS
100
AcDbLine
 10
16.81682257348267
 20
4.486188208710908
 30
0.0
 11
17.79152830642806
 21
5.460893941656299
 31
0.0
  0
LINE
  5
D1EA
330
D1D0
100
AcDbEntity
  8
0
  6
CONTINUOUS
100
AcDbLine
 10
17.00081260457561
 20
3.996659030723667
 30
0.0
 11
17.97555747749151
 21
4.971403903639565
 31
0.0
  0
LINE
  5
D1EB
330
D1D0
100
AcDbEntity
  8
0
  6
CONTINUOUS
100
AcDbLine
 10
20.74362343514722
 20
8.412989070375462
 30
0.0
 11
21.09373436476302
 21
8.763099999991256
 31
0.0
  0
LINE
  5
D1EC
330
D1D0
100
AcDbEntity
  8
0
  6
CONTINUOUS
100
AcDbLine
 10
20.25401257174777
 20
7.249858997895826
 30
0.0
 11
21.7672535738432
 21
8.763099999991255
 31
0.0
  0
LINE
  5
D1ED
330
D1D0
100
AcDbEntity
  8
0
  6
CONTINUOUS
100
AcDbLine
 10
14.06579584418955
 20
0.3881230612574149
 30
0.0
 11
14.86427628093921
 21
1.186603498007082
 31
0.0
  0
LINE
  5
D1EE
330
D1D0
100
AcDbEntity
  8
0
  6
CONTINUOUS
100
AcDbLine
 10
14.26537659496467
 20
-0.0858153970476412
 30
0.0
 11
14.45839043274005
 21
0.1071984407277329
 31
0.0
  0
LINE
  5
D1EF
330
D1D0
100
AcDbEntity
  8
0
  6
CONTINUOUS
100
AcDbLine
 10
17.18480263566856
 20
3.507129852736426
 30
0.0
 11
18.15958664855496
 21
4.481913865622833
 31
0.0
  0
LINE
  5
D1F0
330
D1D0
100
AcDbEntity
  8
0
  6
CONTINUOUS
100
AcDbLine
 10
17.3687926667615
 20
3.017600674749186
 30
0.0
 11
18.34361581961842
 21
3.9924238276061
 31
0.0
  0
LINE
  5
D1F1
330
D1D0
100
AcDbEntity
  8
0
  6
CONTINUOUS
100
AcDbLine
 10
19.76440170834832
 20
6.086728925416191
 30
0.0
 11
22.33924590259489
 21
8.661573119662755
 31
0.0
  0
LINE
  5
D1F2
330
D1D0
100
AcDbEntity
  8
0
  6
CONTINUOUS
100
AcDbLine
 10
19.27479084494887
 20
4.923598852936555
 30
0.0
 11
21.84929622842713
 21
7.498104236414807
 31
0.0
  0
LINE
  5
D1F3
330
D1D0
100
AcDbEntity
  8
0
  6
CONTINUOUS
100
AcDbLine
 10
17.55278269785445
 20
2.528071496761945
 30
0.0
 11
18.52764499068187
 21
3.502933789589366
 31
0.0
  0
LINE
  5
D1F4
330
D1D0
100
AcDbEntity
  8
0
  6
CONTINUOUS
100
AcDbLine
 10
18.78517998154942
 20
3.760468780456919
 30
0.0
 11
21.35934655425936
 21
6.33463535316686
 31
0.0
  0
LINE
  5
D1F5
330
D1D0
100
AcDbEntity
  8
0
  6
CONTINUOUS
100
AcDbLine
 10
17.73677272894739
 20
2.038542318774704
 30
0.0
 11
20.8693968800916
 21
5.171166469918914
 31
0.0
  0
LINE
  5
D1F6
330
D1D0
100
AcDbEntity
  8
0
  6
CONTINUOUS
100
AcDbLine
 10
17.92076276004034
 20
1.549013140787464
 30
0.0
 11
20.37944720592384
 21
4.007697586670968
 31
0.0
  0
LINE
  5
D1F7
330
D1D0
100
AcDbEntity
  8
0
  6
CONTINUOUS
100
AcDbLine
 10
18.10475279113329
 20
1.059483962800223
 30
0.0
 11
19.88949753175608
 21
2.84422870342302
 31
0.0
  0
LINE
  5
D1F8
330
D1D0
100
AcDbEntity
  8
0
  6
CONTINUOUS
100
AcDbLine
 10
18.28874282222623
 20
0.5699547848129822
 30
0.0
 11
19.39954785758832
 21
1.680759820175074
 31
0.0
  0
LINE
  5
D1F9
330
D1D0
100
AcDbEntity
  8
0
  6
CONTINUOUS
100
AcDbLine
 10
18.47273285331918
 20
0.0804256068257416
 30
0.0
 11
18.90959818342056
 21
0.517290936927127
 31
0.0
  0
LINE
  5
D1FA
330
D1D0
100
AcDbEntity
  8
0
  6
CONTINUOUS
100
AcDbLine
 10
14.3590401358224
 20
-0.1570118376323384
 30
0.0
 11
14.24903296539946
 21
-0.0470046672093929
 31
0.0
  0
LINE
  5
D1FB
330
D1D0
100
AcDbEntity
  8
0
  6
CONTINUOUS
100
AcDbLine
 10
14.54309291258661
 20
0.332454594683643
 30
0.0
 11
13.75908329123172
 21
1.116464216038529
 31
0.0
  0
LINE
  5
D1FC
330
D1D0
100
AcDbEntity
  8
0
  6
CONTINUOUS
100
AcDbLine
 10
14.72714568935081
 20
0.8219210269996244
 30
0.0
 11
13.26913361706399
 21
2.27993309928645
 31
0.0
  0
LINE
  5
D1FD
330
D1D0
100
AcDbEntity
  8
0
  6
CONTINUOUS
100
AcDbLine
 10
14.91119846611502
 20
1.311387459315606
 30
0.0
 11
12.77918394289625
 21
3.443401982534371
 31
0.0
  0
LINE
  5
D1FE
330
D1D0
100
AcDbEntity
  8
0
  6
CONTINUOUS
100
AcDbLine
 10
15.09525124287922
 20
1.800853891631587
 30
0.0
 11
12.28923426872852
 21
4.606870865782293
 31
0.0
  0
LINE
  5
D1FF
330
D1D0
100
AcDbEntity
  8
0
  6
CONTINUOUS
100
AcDbLine
 10
15.27930401964343
 20
2.290320323947569
 30
0.0
 11
11.79928459456078
 21
5.770339749030213
 31
0.0
  0
LINE
  5
D200
330
D1D0
100
AcDbEntity
  8
0
  6
CONTINUOUS
100
AcDbLine
 10
15.46335679640763
 20
2.77978675626355
 30
0.0
 11
14.48885470994921
 21
3.754288842721972
 31
0.0
  0
LINE
  5
D201
330
D1D0
100
AcDbEntity
  8
0
  6
CONTINUOUS
100
AcDbLine
 10
13.88507249233704
 20
4.358071060334137
 30
0.0
 11
11.30933492039305
 21
6.933808632278135
 31
0.0
  0
LINE
  5
D202
330
D1D0
100
AcDbEntity
  8
0
  6
CONTINUOUS
100
AcDbLine
 10
18.75840522805855
 20
0.1582575336928151
 30
0.0
 11
18.25383727664818
 21
0.6628254851031863
 31
0.0
  0
LINE
  5
D203
330
D1D0
100
AcDbEntity
  8
0
  6
CONTINUOUS
100
AcDbLine
 10
15.64740957317184
 20
3.269253188579531
 30
0.0
 11
14.67288388101266
 21
4.243778880738705
 31
0.0
  0
LINE
  5
D204
330
D1D0
100
AcDbEntity
  8
0
  6
CONTINUOUS
100
AcDbLine
 10
13.39509276772158
 20
5.521569994029786
 30
0.0
 11
10.81938524622531
 21
8.097277515526056
 31
0.0
  0
LINE
  5
D205
330
D1D0
100
AcDbEntity
  8
0
  6
CONTINUOUS
100
AcDbLine
 10
18.95798597883369
 20
0.6321959919978686
 30
0.0
 11
17.84825644852853
 21
1.741925522303024
 31
0.0
  0
LINE
  5
D206
330
D1D0
100
AcDbEntity
  8
0
  6
CONTINUOUS
100
AcDbLine
 10
19.15756672960882
 20
1.106134450302922
 30
0.0
 11
17.44267562040888
 21
2.821025559502861
 31
0.0
  0
LINE
  5
D207
330
D1D0
100
AcDbEntity
  8
0
  6
CONTINUOUS
100
AcDbLine
 10
15.83146234993604
 20
3.758719620895513
 30
0.0
 11
14.85691305207612
 21
4.733268918755439
 31
0.0
  0
LINE
  5
D208
330
D1D0
100
AcDbEntity
  8
0
  6
CONTINUOUS
100
AcDbLine
 10
16.01551512670025
 20
4.248186053211494
 30
0.0
 11
15.04094222313957
 21
5.222758956772172
 31
0.0
  0
LINE
  5
D209
330
D1D0
100
AcDbEntity
  8
0
  6
CONTINUOUS
100
AcDbLine
 10
12.90511304310612
 20
6.685068927725435
 30
0.0
 11
10.8270819708403
 21
8.763099999991255
 31
0.0
  0
LINE
  5
D20A
330
D1D0
100
AcDbEntity
  8
0
  6
CONTINUOUS
100
AcDbLine
 10
12.41513331849066
 20
7.848567861421083
 30
0.0
 11
11.50060117992049
 21
8.763099999991255
 31
0.0
  0
LINE
  5
D20B
330
D1D0
100
AcDbEntity
  8
0
  6
CONTINUOUS
100
AcDbLine
 10
19.35714748038395
 20
1.580072908607975
 30
0.0
 11
17.03709479228923
 21
3.900125596702697
 31
0.0
  0
LINE
  5
D20C
330
D1D0
100
AcDbEntity
  8
0
  6
CONTINUOUS
100
AcDbLine
 10
19.55672823115909
 20
2.054011366913028
 30
0.0
 11
16.63151396416958
 21
4.979225633902534
 31
0.0
  0
LINE
  5
D20D
330
D1D0
100
AcDbEntity
  8
0
  6
CONTINUOUS
100
AcDbLine
 10
16.19956790346445
 20
4.737652485527476
 30
0.0
 11
15.22497139420302
 21
5.712248994788904
 31
0.0
  0
LINE
  5
D20E
330
D1D0
100
AcDbEntity
  8
0
  6
CONTINUOUS
100
AcDbLine
 10
16.38362068022866
 20
5.227118917843457
 30
0.0
 11
15.40900056526648
 21
6.201739032805637
 31
0.0
  0
LINE
  5
D20F
330
D1D0
100
AcDbEntity
  8
0
  6
CONTINUOUS
100
AcDbLine
 10
19.75630898193422
 20
2.527949825218081
 30
0.0
 11
18.70774536448286
 21
3.576513442669441
 31
0.0
  0
LINE
  5
D210
330
D1D0
100
AcDbEntity
  8
0
  6
CONTINUOUS
100
AcDbLine
 10
19.95588973270936
 20
3.001888283523134
 30
0.0
 11
18.90726987211446
 21
4.050508144118028
 31
0.0
  0
LINE
  5
D211
330
D1D0
100
AcDbEntity
  8
0
  6
CONTINUOUS
100
AcDbLine
 10
20.15547048348449
 20
3.475826741828186
 30
0.0
 11
19.10679437974606
 21
4.524502845566614
 31
0.0
  0
LINE
  5
D212
330
D1D0
100
AcDbEntity
  8
0
  6
CONTINUOUS
100
AcDbLine
 10
20.35505123425962
 20
3.94976520013324
 30
0.0
 11
19.30631888737766
 21
4.998497547015201
 31
0.0
  0
LINE
  5
D213
330
D1D0
100
AcDbEntity
  8
0
  6
CONTINUOUS
100
AcDbLine
 10
20.55463198503475
 20
4.423703658438292
 30
0.0
 11
19.50584339500926
 21
5.472492248463787
 31
0.0
  0
LINE
  5
D214
330
D1D0
100
AcDbEntity
  8
0
  6
CONTINUOUS
100
AcDbLine
 10
18.37481191085755
 20
3.909446896294752
 30
0.0
 11
15.59302973632993
 21
6.691229070822371
 31
0.0
  0
LINE
  5
D215
330
D1D0
100
AcDbEntity
  8
0
  6
CONTINUOUS
100
AcDbLine
 10
17.96904084440766
 20
4.988737171824825
 30
0.0
 11
15.77705890739338
 21
7.180719108839104
 31
0.0
  0
LINE
  5
D216
330
D1D0
100
AcDbEntity
  8
0
  6
CONTINUOUS
100
AcDbLine
 10
17.56326977795777
 20
6.068027447354899
 30
0.0
 11
15.96108807845684
 21
7.670209146855838
 31
0.0
  0
LINE
  5
D217
330
D1D0
100
AcDbEntity
  8
0
  6
CONTINUOUS
100
AcDbLine
 10
17.15749871150789
 20
7.147317722884972
 30
0.0
 11
16.14511724952029
 21
8.15969918487257
 31
0.0
  0
LINE
  5
D218
330
D1D0
100
AcDbEntity
  8
0
  6
CONTINUOUS
100
AcDbLine
 10
16.751727645058
 20
8.226607998415046
 30
0.0
 11
16.32914642058374
 21
8.649189222889303
 31
0.0
  0
LINE
  5
D219
330
D1D0
100
AcDbEntity
  8
0
  6
CONTINUOUS
100
AcDbLine
 10
20.75421273580989
 20
4.897642116743345
 30
0.0
 11
19.70536790264086
 21
5.946486949912374
 31
0.0
  0
LINE
  5
D21A
330
D1D0
100
AcDbEntity
  8
0
  6
CONTINUOUS
100
AcDbLine
 10
20.95379348658502
 20
5.371580575048398
 30
0.0
 11
19.90489241027246
 21
6.42048165136096
 31
0.0
  0
LINE
  5
D21B
330
D1D0
100
AcDbEntity
  8
0
  6
CONTINUOUS
100
AcDbLine
 10
21.15337423736015
 20
5.845519033353452
 30
0.0
 11
20.10441691790406
 21
6.894476352809547
 31
0.0
  0
LINE
  5
D21C
330
D1D0
100
AcDbEntity
  8
0
  6
CONTINUOUS
100
AcDbLine
 10
21.35295498813529
 20
6.319457491658505
 30
0.0
 11
20.30394142553566
 21
7.368471054258134
 31
0.0
  0
LINE
  5
D21D
330
D1D0
100
AcDbEntity
  8
0
  6
CONTINUOUS
100
AcDbLine
 10
21.55253573891042
 20
6.793395949963558
 30
0.0
 11
20.50346593316726
 21
7.842465755706721
 31
0.0
  0
LINE
  5
D21E
330
D1D0
100
AcDbEntity
  8
0
  6
CONTINUOUS
100
AcDbLine
 10
21.75211648968556
 20
7.267334408268612
 30
0.0
 11
20.70299044079886
 21
8.316460457155308
 31
0.0
  0
LINE
  5
D21F
330
D1D0
100
AcDbEntity
  8
0
  6
CONTINUOUS
100
AcDbLine
 10
21.95169724046069
 20
7.741272866573663
 30
0.0
 11
20.9298701070431
 21
8.763099999991256
 31
0.0
  0
LINE
  5
D220
330
D1D0
100
AcDbEntity
  8
0
  6
CONTINUOUS
100
AcDbLine
 10
22.15127799123582
 20
8.215211324878716
 30
0.0
 11
21.60338931612328
 21
8.763099999991256
 31
0.0
  0
LINE
  5
D221
330
D1D0
100
AcDbEntity
  8
0
  6
CONTINUOUS
100
AcDbLine
 10
22.35085874201096
 20
8.689149783183769
 30
0.0
 11
22.27690852520347
 21
8.763099999991255
 31
0.0
  0
ENDBLK
  5
D313
330
D1D0
100
AcDbEntity
  8
0
100
AcDbBlockEnd
  0
BLOCK
  5
D314
330
D222
100
AcDbEntity
  8
0
100
AcDbBlockBegin
  2
*X68
 70
     1
 10
0.0
 20
0.0
 30
0.0
  3
*X68
  1

  0
LINE
  5
D223
330
D222
100
AcDbEntity
  8
0
  6
CONTINUOUS
100
AcDbLine
 10
23.19462913593892
 20
8.169917934846424
 30
0.0
 11
23.70775465517246
 21
8.683043454079957
 31
0.0
  0
LINE
  5
D224
330
D222
100
AcDbEntity
  8
0
  6
CONTINUOUS
100
AcDbLine
 10
22.64923161835078
 20
6.951001208178088
 30
0.0
 11
23.9159364069932
 21
8.217705996820516
 31
0.0
  0
LINE
  5
D225
330
D222
100
AcDbEntity
  8
0
  6
CONTINUOUS
100
AcDbLine
 10
22.10383410076263
 20
5.732084481509751
 30
0.0
 11
24.12411815881395
 21
7.752368539561078
 31
0.0
  0
LINE
  5
D226
330
D222
100
AcDbEntity
  8
0
  6
CONTINUOUS
100
AcDbLine
 10
21.55843658317447
 20
4.513167754841414
 30
0.0
 11
24.3322999106347
 21
7.287031082301639
 31
0.0
  0
LINE
  5
D227
330
D222
100
AcDbEntity
  8
0
  6
CONTINUOUS
100
AcDbLine
 10
21.01303906558632
 20
3.294251028173077
 30
0.0
 11
24.54048166245544
 21
6.821693625042199
 31
0.0
  0
LINE
  5
D228
330
D222
100
AcDbEntity
  8
0
  6
CONTINUOUS
100
AcDbLine
 10
20.46764154799817
 20
2.075334301504738
 30
0.0
 11
23.28571549467848
 21
4.89340824818505
 31
0.0
  0
LINE
  5
D229
330
D222
100
AcDbEntity
  8
0
  6
CONTINUOUS
100
AcDbLine
 10
19.92224403041002
 20
0.8564175748364002
 30
0.0
 11
22.74075865492779
 21
3.674932199354171
 31
0.0
  0
LINE
  5
D22A
330
D222
100
AcDbEntity
  8
0
  6
CONTINUOUS
100
AcDbLine
 10
23.67305085490148
 20
5.280743608408048
 30
0.0
 11
24.74866341427619
 21
6.356356167782759
 31
0.0
  0
LINE
  5
D22B
330
D222
100
AcDbEntity
  8
0
  6
CONTINUOUS
100
AcDbLine
 10
23.88118970842314
 20
4.815363252849522
 30
0.0
 11
24.95684516609694
 21
5.89101871052332
 31
0.0
  0
LINE
  5
D22C
330
D222
100
AcDbEntity
  8
0
  6
CONTINUOUS
100
AcDbLine
 10
19.73925852647308
 20
-0.0000871381807288
 30
0.0
 11
23.4103456646501
 21
3.670999999996297
 31
0.0
  0
LINE
  5
D22D
330
D222
100
AcDbEntity
  8
0
  6
CONTINUOUS
100
AcDbLine
 10
24.0893285619448
 20
4.349982897290997
 30
0.0
 11
25.16502691791769
 21
5.42568125326388
 31
0.0
  0
LINE
  5
D22E
330
D222
100
AcDbEntity
  8
0
  6
CONTINUOUS
100
AcDbLine
 10
20.41282099582748
 20
-0.0000438779065108
 30
0.0
 11
21.64944178675636
 21
1.236576913022366
 31
0.0
  0
LINE
  5
D22F
330
D222
100
AcDbEntity
  8
0
  6
CONTINUOUS
100
AcDbLine
 10
22.78126487373161
 20
2.36839999999762
 30
0.0
 11
24.08386487373029
 21
3.670999999996297
 31
0.0
  0
LINE
  5
D230
330
D222
100
AcDbEntity
  8
0
  6
CONTINUOUS
100
AcDbLine
 10
24.29746741546646
 20
3.884602541732471
 30
0.0
 11
25.37320866973843
 21
4.960343796004441
 31
0.0
  0
LINE
  5
D231
330
D222
100
AcDbEntity
  8
0
  6
CONTINUOUS
100
AcDbLine
 10
21.08638346518189
 20
-0.0000006176322938
 30
0.0
 11
21.10379033335899
 21
0.0174062505448083
 31
0.0
  0
LINE
  5
D232
330
D222
100
AcDbEntity
  8
0
  6
CONTINUOUS
100
AcDbLine
 10
23.4547840828118
 20
2.36839999999762
 30
0.0
 11
25.58139042155918
 21
4.495006338745002
 31
0.0
  0
LINE
  5
D233
330
D222
100
AcDbEntity
  8
0
  6
CONTINUOUS
100
AcDbLine
 10
29.30199999996933
 20
8.215615917155148
 30
0.0
 11
29.84948408280543
 21
8.763099999991255
 31
0.0
  0
LINE
  5
D234
330
D222
100
AcDbEntity
  8
0
  6
CONTINUOUS
100
AcDbLine
 10
24.12830329189199
 20
2.36839999999762
 30
0.0
 11
25.78957217337993
 21
4.029668881485562
 31
0.0
  0
LINE
  5
D235
330
D222
100
AcDbEntity
  8
0
  6
CONTINUOUS
100
AcDbLine
 10
29.30199999996933
 20
7.54209670807496
 30
0.0
 11
30.52300329188562
 21
8.763099999991255
 31
0.0
  0
LINE
  5
D236
330
D222
100
AcDbEntity
  8
0
  6
CONTINUOUS
100
AcDbLine
 10
24.80182250097217
 20
2.36839999999762
 30
0.0
 11
25.99775392520067
 21
3.564331424226122
 31
0.0
  0
LINE
  5
D237
330
D222
100
AcDbEntity
  8
0
  6
CONTINUOUS
100
AcDbLine
 10
29.30199999996933
 20
6.868577498994774
 30
0.0
 11
30.74199999996926
 21
8.308577498994712
 31
0.0
  0
LINE
  5
D238
330
D222
100
AcDbEntity
  8
0
  6
CONTINUOUS
100
AcDbLine
 10
25.13028238392013
 20
2.023340673865392
 30
0.0
 11
26.20593567702142
 21
3.098993966966683
 31
0.0
  0
LINE
  5
D239
330
D222
100
AcDbEntity
  8
0
  6
CONTINUOUS
100
AcDbLine
 10
25.33838066033617
 20
1.557919741201244
 30
0.0
 11
26.41411742884217
 21
2.633656509707244
 31
0.0
  0
LINE
  5
D23A
330
D222
100
AcDbEntity
  8
0
  6
CONTINUOUS
100
AcDbLine
 10
25.54647893675221
 20
1.092498808537098
 30
0.0
 11
26.62229918066291
 21
2.168319052447804
 31
0.0
  0
LINE
  5
D23B
330
D222
100
AcDbEntity
  8
0
  6
CONTINUOUS
100
AcDbLine
 10
25.75457721316825
 20
0.62707787587295
 30
0.0
 11
26.83048093248366
 21
1.702981595188365
 31
0.0
  0
LINE
  5
D23C
330
D222
100
AcDbEntity
  8
0
  6
CONTINUOUS
100
AcDbLine
 10
29.30199999996933
 20
6.195058289914587
 30
0.0
 11
30.74199999996926
 21
7.635058289914522
 31
0.0
  0
LINE
  5
D23D
330
D222
100
AcDbEntity
  8
0
  6
CONTINUOUS
100
AcDbLine
 10
29.30199999996933
 20
5.521539080834401
 30
0.0
 11
30.74199999996926
 21
6.961539080834331
 31
0.0
  0
LINE
  5
D23E
330
D222
100
AcDbEntity
  8
0
  6
CONTINUOUS
100
AcDbLine
 10
29.30199999996933
 20
4.848019871754214
 30
0.0
 11
30.74199999996925
 21
6.288019871754143
 31
0.0
  0
LINE
  5
D23F
330
D222
100
AcDbEntity
  8
0
  6
CONTINUOUS
100
AcDbLine
 10
29.30199999996933
 20
4.174500662674028
 30
0.0
 11
30.74199999996925
 21
5.614500662673953
 31
0.0
  0
LINE
  5
D240
330
D222
100
AcDbEntity
  8
0
  6
CONTINUOUS
100
AcDbLine
 10
25.96267548958429
 20
0.1616569432088024
 30
0.0
 11
27.18411854636669
 21
1.383099999991207
 31
0.0
  0
LINE
  5
D241
330
D222
100
AcDbEntity
  8
0
  6
CONTINUOUS
100
AcDbLine
 10
29.30199999996933
 20
3.500981453593841
 30
0.0
 11
30.74199999996925
 21
4.940981453593762
 31
0.0
  0
LINE
  5
D242
330
D222
100
AcDbEntity
  8
0
  6
CONTINUOUS
100
AcDbLine
 10
26.50763775544691
 20
0.0330999999912356
 30
0.0
 11
27.85763775544689
 21
1.383099999991223
 31
0.0
  0
LINE
  5
D243
330
D222
100
AcDbEntity
  8
0
  6
CONTINUOUS
100
AcDbLine
 10
29.30199999996933
 20
2.827462244513656
 30
0.0
 11
30.74199999996925
 21
4.267462244513574
 31
0.0
  0
LINE
  5
D244
330
D222
100
AcDbEntity
  8
0
  6
CONTINUOUS
100
AcDbLine
 10
27.18115696452709
 20
0.0330999999912356
 30
0.0
 11
28.55073879889363
 21
1.402681834357775
 31
0.0
  0
LINE
  5
D245
330
D222
100
AcDbEntity
  8
0
  6
CONTINUOUS
100
AcDbLine
 10
29.28241816560272
 20
2.134361201066866
 30
0.0
 11
30.74199999996924
 21
3.593943035433383
 31
0.0
  0
LINE
  5
D246
330
D222
100
AcDbEntity
  8
0
  6
CONTINUOUS
100
AcDbLine
 10
27.85467617360728
 20
0.0330999999912356
 30
0.0
 11
30.74199999996924
 21
2.920423826353195
 31
0.0
  0
LINE
  5
D247
330
D222
100
AcDbEntity
  8
0
  6
CONTINUOUS
100
AcDbLine
 10
28.53897559587887
 20
0.0438802131826428
 30
0.0
 11
30.73121978677781
 21
2.236124404081585
 31
0.0
  0
LINE
  5
D248
330
D222
100
AcDbEntity
  8
0
  6
CONTINUOUS
100
AcDbLine
 10
29.45140055588722
 20
0.2827859641107988
 30
0.0
 11
30.49231403584965
 21
1.323699444073236
 31
0.0
  0
LINE
  5
D249
330
D222
100
AcDbEntity
  8
0
  6
CONTINUOUS
100
AcDbLine
 10
19.59027867740337
 20
-0.0000967065718083
 30
0.0
 11
19.55485265190471
 21
0.035329318926844
 31
0.0
  0
LINE
  5
D24A
330
D222
100
AcDbEntity
  8
0
  6
CONTINUOUS
100
AcDbLine
 10
20.26375463176586
 20
-0.0000534518541091
 30
0.0
 11
19.76305575737534
 21
0.5006454225364014
 31
0.0
  0
LINE
  5
D24B
330
D222
100
AcDbEntity
  8
0
  6
CONTINUOUS
100
AcDbLine
 10
20.93723058612834
 20
-0.0000101971364099
 30
0.0
 11
19.97125886284597
 21
0.965961526145958
 31
0.0
  0
LINE
  5
D24C
330
D222
100
AcDbEntity
  8
0
  6
CONTINUOUS
100
AcDbLine
 10
21.25514828313686
 20
0.355591314935257
 30
0.0
 11
20.1794619683166
 21
1.431277629755512
 31
0.0
  0
LINE
  5
D24D
330
D222
100
AcDbEntity
  8
0
  6
CONTINUOUS
100
AcDbLine
 10
21.46338838394921
 20
0.8208704232030986
 30
0.0
 11
20.38766507378723
 21
1.896593733365069
 31
0.0
  0
LINE
  5
D24E
330
D222
100
AcDbEntity
  8
0
  6
CONTINUOUS
100
AcDbLine
 10
21.67162848476155
 20
1.28614953147094
 30
0.0
 11
20.59586817925786
 21
2.361909836974626
 31
0.0
  0
LINE
  5
D24F
330
D222
100
AcDbEntity
  8
0
  6
CONTINUOUS
100
AcDbLine
 10
21.8798685855739
 20
1.751428639738782
 30
0.0
 11
20.80407128472849
 21
2.827225940584183
 31
0.0
  0
LINE
  5
D250
330
D222
100
AcDbEntity
  8
0
  6
CONTINUOUS
100
AcDbLine
 10
22.08810868638624
 20
2.216707748006623
 30
0.0
 11
21.01227439019912
 21
3.292542044193739
 31
0.0
  0
LINE
  5
D251
330
D222
100
AcDbEntity
  8
0
  6
CONTINUOUS
100
AcDbLine
 10
22.60993564347543
 20
2.36839999999762
 30
0.0
 11
21.22047749566975
 21
3.757858147803296
 31
0.0
  0
LINE
  5
D252
330
D222
100
AcDbEntity
  8
0
  6
CONTINUOUS
100
AcDbLine
 10
23.28345485255561
 20
2.36839999999762
 30
0.0
 11
21.42868060114038
 21
4.223174251412853
 31
0.0
  0
LINE
  5
D253
330
D222
100
AcDbEntity
  8
0
  6
CONTINUOUS
100
AcDbLine
 10
26.29227406164219
 20
0.0330999999912356
 30
0.0
 11
25.80009199592872
 21
0.5252820657046957
 31
0.0
  0
LINE
  5
D254
330
D222
100
AcDbEntity
  8
0
  6
CONTINUOUS
100
AcDbLine
 10
23.9569740616358
 20
2.36839999999762
 30
0.0
 11
21.63688370661101
 21
4.688490355022409
 31
0.0
  0
LINE
  5
D255
330
D222
100
AcDbEntity
  8
0
  6
CONTINUOUS
100
AcDbLine
 10
26.96579327072237
 20
0.0330999999912356
 30
0.0
 11
25.2554132311971
 21
1.743480039516508
 31
0.0
  0
LINE
  5
D256
330
D222
100
AcDbEntity
  8
0
  6
CONTINUOUS
100
AcDbLine
 10
24.63049327071599
 20
2.36839999999762
 30
0.0
 11
23.32789327071731
 21
3.670999999996297
 31
0.0
  0
LINE
  5
D257
330
D222
100
AcDbEntity
  8
0
  6
CONTINUOUS
100
AcDbLine
 10
22.92098674744635
 20
4.077906523267254
 30
0.0
 11
21.84508681208164
 21
5.153806458631966
 31
0.0
  0
LINE
  5
D258
330
D222
100
AcDbEntity
  8
0
  6
CONTINUOUS
100
AcDbLine
 10
27.63931247980256
 20
0.0330999999912356
 30
0.0
 11
24.0014124797975
 21
3.670999999996297
 31
0.0
  0
LINE
  5
D259
330
D222
100
AcDbEntity
  8
0
  6
CONTINUOUS
100
AcDbLine
 10
23.129125600968
 20
4.5432868788258
 30
0.0
 11
22.05328991755227
 21
5.619122562241522
 31
0.0
  0
LINE
  5
D25A
330
D222
100
AcDbEntity
  8
0
  6
CONTINUOUS
100
AcDbLine
 10
28.31283168888275
 20
0.0330999999912356
 30
0.0
 11
24.16488385994816
 21
4.181047828925828
 31
0.0
  0
LINE
  5
D25B
330
D222
100
AcDbEntity
  8
0
  6
CONTINUOUS
100
AcDbLine
 10
23.33726445448964
 20
5.008667234384345
 30
0.0
 11
22.2614930230229
 21
6.084438665851079
 31
0.0
  0
LINE
  5
D25C
330
D222
100
AcDbEntity
  8
0
  6
CONTINUOUS
100
AcDbLine
 10
28.92085740005492
 20
0.0985934978992438
 30
0.0
 11
27.63635089796295
 21
1.383099999991217
 31
0.0
  0
LINE
  5
D25D
330
D222
100
AcDbEntity
  8
0
  6
CONTINUOUS
100
AcDbLine
 10
26.43704649509776
 20
2.582404402856405
 30
0.0
 11
23.61992702019732
 21
5.399523877756844
 31
0.0
  0
LINE
  5
D25E
330
D222
100
AcDbEntity
  8
0
  6
CONTINUOUS
100
AcDbLine
 10
23.54540330801128
 20
5.47404758994289
 30
0.0
 11
22.46969612849353
 21
6.549754769460635
 31
0.0
  0
LINE
  5
D25F
330
D222
100
AcDbEntity
  8
0
  6
CONTINUOUS
100
AcDbLine
 10
29.42225615078443
 20
0.2707139562499279
 30
0.0
 11
28.30987010704312
 21
1.383099999991234
 31
0.0
  0
LINE
  5
D260
330
D222
100
AcDbEntity
  8
0
  6
CONTINUOUS
100
AcDbLine
 10
25.89179548232307
 20
3.801174624711282
 30
0.0
 11
22.67789923396416
 21
7.015070873070191
 31
0.0
  0
LINE
  5
D261
330
D222
100
AcDbEntity
  8
0
  6
CONTINUOUS
100
AcDbLine
 10
29.83624534690007
 20
0.5302439692144705
 30
0.0
 11
28.85811781497101
 21
1.508371501143527
 31
0.0
  0
LINE
  5
D262
330
D222
100
AcDbEntity
  8
0
  6
CONTINUOUS
100
AcDbLine
 10
25.34654446954838
 20
5.01994484656616
 30
0.0
 11
22.88610233943479
 21
7.480386976679748
 31
0.0
  0
LINE
  5
D263
330
D222
100
AcDbEntity
  8
0
  6
CONTINUOUS
100
AcDbLine
 10
30.17865975401872
 20
0.8613487711760022
 30
0.0
 11
29.18888744090175
 21
1.851121084292977
 31
0.0
  0
LINE
  5
D264
330
D222
100
AcDbEntity
  8
0
  6
CONTINUOUS
100
AcDbLine
 10
24.80129345677369
 20
6.238715068421037
 30
0.0
 11
23.09430544490542
 21
7.945703080289305
 31
0.0
  0
LINE
  5
D265
330
D222
100
AcDbEntity
  8
0
  6
CONTINUOUS
100
AcDbLine
 10
30.45496647202376
 20
1.258561262251155
 30
0.0
 11
29.30199999996933
 21
2.411527734305588
 31
0.0
  0
LINE
  5
D266
330
D222
100
AcDbEntity
  8
0
  6
CONTINUOUS
100
AcDbLine
 10
24.256042443999
 20
7.457485290275915
 30
0.0
 11
23.30250855037605
 21
8.411019183898862
 31
0.0
  0
LINE
  5
D267
330
D222
100
AcDbEntity
  8
0
  6
CONTINUOUS
100
AcDbLine
 10
30.64868582078271
 20
1.738361122572387
 30
0.0
 11
29.30199999996933
 21
3.085046943385775
 31
0.0
  0
LINE
  5
D268
330
D222
100
AcDbEntity
  8
0
  6
CONTINUOUS
100
AcDbLine
 10
23.71079143122431
 20
8.676255512130794
 30
0.0
 11
23.51071165584668
 21
8.876335287508416
 31
0.0
  0
LINE
  5
D269
330
D222
100
AcDbEntity
  8
0
  6
CONTINUOUS
100
AcDbLine
 10
30.73802122914428
 20
2.322544923291007
 30
0.0
 11
29.30199999996933
 21
3.758566152465961
 31
0.0
  0
LINE
  5
D26A
330
D222
100
AcDbEntity
  8
0
  6
CONTINUOUS
100
AcDbLine
 10
30.74199999996924
 20
2.992085361546236
 30
0.0
 11
29.30199999996933
 21
4.432085361546148
 31
0.0
  0
LINE
  5
D26B
330
D222
100
AcDbEntity
  8
0
  6
CONTINUOUS
100
AcDbLine
 10
30.74199999996924
 20
3.665604570626419
 30
0.0
 11
29.30199999996933
 21
5.105604570626333
 31
0.0
  0
LINE
  5
D26C
330
D222
100
AcDbEntity
  8
0
  6
CONTINUOUS
100
AcDbLine
 10
30.74199999996925
 20
4.339123779706602
 30
0.0
 11
29.30199999996933
 21
5.77912377970652
 31
0.0
  0
LINE
  5
D26D
330
D222
100
AcDbEntity
  8
0
  6
CONTINUOUS
100
AcDbLine
 10
30.74199999996925
 20
5.012642988786785
 30
0.0
 11
29.30199999996933
 21
6.452642988786707
 31
0.0
  0
LINE
  5
D26E
330
D222
100
AcDbEntity
  8
0
  6
CONTINUOUS
100
AcDbLine
 10
30.74199999996925
 20
5.68616219786697
 30
0.0
 11
29.30199999996933
 21
7.126162197866894
 31
0.0
  0
LINE
  5
D26F
330
D222
100
AcDbEntity
  8
0
  6
CONTINUOUS
100
AcDbLine
 10
30.74199999996925
 20
6.359681406947153
 30
0.0
 11
29.30199999996933
 21
7.799681406947081
 31
0.0
  0
LINE
  5
D270
330
D222
100
AcDbEntity
  8
0
  6
CONTINUOUS
100
AcDbLine
 10
30.74199999996926
 20
7.033200616027337
 30
0.0
 11
29.30199999996933
 21
8.473200616027269
 31
0.0
  0
LINE
  5
D271
330
D222
100
AcDbEntity
  8
0
  6
CONTINUOUS
100
AcDbLine
 10
30.74199999996926
 20
7.706719825107518
 30
0.0
 11
29.68561982508552
 21
8.763099999991255
 31
0.0
  0
LINE
  5
D272
330
D222
100
AcDbEntity
  8
0
  6
CONTINUOUS
100
AcDbLine
 10
30.74199999996926
 20
8.380239034187703
 30
0.0
 11
30.35913903416571
 21
8.763099999991255
 31
0.0
  0
ENDBLK
  5
D315
330
D222
100
AcDbEntity
  8
0
100
AcDbBlockEnd
  0
BLOCK
  5
D316
330
D273
100
AcDbEntity
  8
0
100
AcDbBlockBegin
  2
*X69
 70
     1
 10
0.0
 20
0.0
 30
0.0
  3
*X69
  1

  0
LINE
  5
D274
330
D273
100
AcDbEntity
  8
0
  6
CONTINUOUS
100
AcDbLine
 10
31.64199999996833
 20
8.535058289913598
 30
0.0
 11
31.87004171004599
 21
8.763099999991255
 31
0.0
  0
LINE
  5
D275
330
D273
100
AcDbEntity
  8
0
  6
CONTINUOUS
100
AcDbLine
 10
31.64199999996833
 20
7.861539080833412
 30
0.0
 11
32.54356091912618
 21
8.763099999991255
 31
0.0
  0
LINE
  5
D276
330
D273
100
AcDbEntity
  8
0
  6
CONTINUOUS
100
AcDbLine
 10
31.64199999996833
 20
7.188019871753226
 30
0.0
 11
33.08199999996839
 21
8.628019871753281
 31
0.0
  0
LINE
  5
D277
330
D273
100
AcDbEntity
  8
0
  6
CONTINUOUS
100
AcDbLine
 10
31.64199999996833
 20
6.51450066267304
 30
0.0
 11
33.08199999996839
 21
7.954500662673095
 31
0.0
  0
LINE
  5
D278
330
D273
100
AcDbEntity
  8
0
  6
CONTINUOUS
100
AcDbLine
 10
31.64199999996833
 20
5.840981453592853
 30
0.0
 11
33.08199999996839
 21
7.280981453592908
 31
0.0
  0
LINE
  5
D279
330
D273
100
AcDbEntity
  8
0
  6
CONTINUOUS
100
AcDbLine
 10
31.64199999996833
 20
5.167462244512667
 30
0.0
 11
33.08199999996839
 21
6.607462244512721
 31
0.0
  0
LINE
  5
D27A
330
D273
100
AcDbEntity
  8
0
  6
CONTINUOUS
100
AcDbLine
 10
31.64199999996833
 20
4.493943035432481
 30
0.0
 11
33.08199999996839
 21
5.933943035432535
 31
0.0
  0
LINE
  5
D27B
330
D273
100
AcDbEntity
  8
0
  6
CONTINUOUS
100
AcDbLine
 10
31.64199999996833
 20
3.820423826352293
 30
0.0
 11
33.08199999996839
 21
5.260423826352348
 31
0.0
  0
LINE
  5
D27C
330
D273
100
AcDbEntity
  8
0
  6
CONTINUOUS
100
AcDbLine
 10
31.64199999996833
 20
3.146904617272106
 30
0.0
 11
33.08199999996839
 21
4.586904617272161
 31
0.0
  0
LINE
  5
D27D
330
D273
100
AcDbEntity
  8
0
  6
CONTINUOUS
100
AcDbLine
 10
36.23199999996837
 20
8.410423826352325
 30
0.0
 11
36.5846761736073
 21
8.763099999991255
 31
0.0
  0
LINE
  5
D27E
330
D273
100
AcDbEntity
  8
0
  6
CONTINUOUS
100
AcDbLine
 10
36.23199999996837
 20
7.73690461727214
 30
0.0
 11
37.25819538268748
 21
8.763099999991255
 31
0.0
  0
LINE
  5
D27F
330
D273
100
AcDbEntity
  8
0
  6
CONTINUOUS
100
AcDbLine
 10
31.64257403601376
 20
2.473959444237348
 30
0.0
 11
33.08199999996839
 21
3.913385408191974
 31
0.0
  0
LINE
  5
D280
330
D273
100
AcDbEntity
  8
0
  6
CONTINUOUS
100
AcDbLine
 10
36.23199999996837
 20
7.063385408191953
 30
0.0
 11
37.67199999996831
 21
8.503385408191894
 31
0.0
  0
LINE
  5
D281
330
D273
100
AcDbEntity
  8
0
  6
CONTINUOUS
100
AcDbLine
 10
31.72013636841932
 20
1.87800256756272
 30
0.0
 11
33.08199999996839
 21
3.239866199111788
 31
0.0
  0
LINE
  5
D282
330
D273
100
AcDbEntity
  8
0
  6
CONTINUOUS
100
AcDbLine
 10
36.23199999996837
 20
6.389866199111767
 30
0.0
 11
37.67199999996831
 21
7.829866199111708
 31
0.0
  0
LINE
  5
D283
330
D273
100
AcDbEntity
  8
0
  6
CONTINUOUS
100
AcDbLine
 10
31.89042734314753
 20
1.374774333210744
 30
0.0
 11
33.08199999996839
 21
2.566346990031601
 31
0.0
  0
LINE
  5
D284
330
D273
100
AcDbEntity
  8
0
  6
CONTINUOUS
100
AcDbLine
 10
36.23199999996837
 20
5.71634699003158
 30
0.0
 11
37.67199999996831
 21
7.156346990031521
 31
0.0
  0
LINE
  5
D285
330
D273
100
AcDbEntity
  8
0
  6
CONTINUOUS
100
AcDbLine
 10
32.14210568064475
 20
0.952933461627778
 30
0.0
 11
33.18745552475986
 21
1.998283305742888
 31
0.0
  0
LINE
  5
D286
330
D273
100
AcDbEntity
  8
0
  6
CONTINUOUS
100
AcDbLine
 10
36.23199999996837
 20
5.042827780951393
 30
0.0
 11
37.67199999996831
 21
6.482827780951334
 31
0.0
  0
LINE
  5
D287
330
D273
100
AcDbEntity
  8
0
  6
CONTINUOUS
100
AcDbLine
 10
32.45820639400955
 20
0.5955149659123915
 30
0.0
 11
33.47242681921943
 21
1.60973539112227
 31
0.0
  0
LINE
  5
D288
330
D273
100
AcDbEntity
  8
0
  6
CONTINUOUS
100
AcDbLine
 10
36.23199999996837
 20
4.369308571871207
 30
0.0
 11
37.67199999996831
 21
5.809308571871147
 31
0.0
  0
LINE
  5
D289
330
D273
100
AcDbEntity
  8
0
  6
CONTINUOUS
100
AcDbLine
 10
32.83432456621412
 20
0.2981139290367771
 30
0.0
 11
33.89722476612215
 21
1.361014128944803
 31
0.0
  0
LINE
  5
D28A
330
D273
100
AcDbEntity
  8
0
  6
CONTINUOUS
100
AcDbLine
 10
36.23199999996837
 20
3.69578936279102
 30
0.0
 11
37.67199999996831
 21
5.135789362790962
 31
0.0
  0
LINE
  5
D28B
330
D273
100
AcDbEntity
  8
0
  6
CONTINUOUS
100
AcDbLine
 10
33.2711633111245
 20
0.0614334648669672
 30
0.0
 11
34.43247338014423
 21
1.222743533886696
 31
0.0
  0
LINE
  5
D28C
330
D273
100
AcDbEntity
  8
0
  6
CONTINUOUS
100
AcDbLine
 10
36.23199999996837
 20
3.022270153710834
 30
0.0
 11
37.67199999996831
 21
4.462270153710775
 31
0.0
  0
LINE
  5
D28D
330
D273
100
AcDbEntity
  8
0
  6
CONTINUOUS
100
AcDbLine
 10
33.76515245874577
 20
-0.1180965965919523
 30
0.0
 11
35.1587445516215
 21
1.27549549628378
 31
0.0
  0
LINE
  5
D28E
330
D273
100
AcDbEntity
  8
0
  6
CONTINUOUS
100
AcDbLine
 10
36.21639478609585
 20
2.333145730758136
 30
0.0
 11
37.67199999996831
 21
3.788750944630588
 31
0.0
  0
LINE
  5
D28F
330
D273
100
AcDbEntity
  8
0
  6
CONTINUOUS
100
AcDbLine
 10
34.34060583368432
 20
-0.2161624307335863
 30
0.0
 11
37.67199999996831
 21
3.115231735550401
 31
0.0
  0
LINE
  5
D290
330
D273
100
AcDbEntity
  8
0
  6
CONTINUOUS
100
AcDbLine
 10
35.01698193613905
 20
-0.2133055373590427
 30
0.0
 11
37.66876712070525
 21
2.438479647207154
 31
0.0
  0
LINE
  5
D291
330
D273
100
AcDbEntity
  8
0
  6
CONTINUOUS
100
AcDbLine
 10
35.90743367693304
 20
0.0036269943547609
 30
0.0
 11
37.51723902192366
 21
1.613432339345381
 31
0.0
  0
LINE
  5
D292
330
D273
100
AcDbEntity
  8
0
  6
CONTINUOUS
100
AcDbLine
 10
32.55309425579761
 20
0.5074718966376706
 30
0.0
 11
32.27784730925847
 21
0.7827188431768102
 31
0.0
  0
LINE
  5
D293
330
D273
100
AcDbEntity
  8
0
  6
CONTINUOUS
100
AcDbLine
 10
33.87496468909684
 20
-0.1408793275813673
 30
0.0
 11
31.67993083278052
 21
2.054154528734943
 31
0.0
  0
LINE
  5
D294
330
D273
100
AcDbEntity
  8
0
  6
CONTINUOUS
100
AcDbLine
 10
34.64362813207632
 20
-0.2360235614806649
 30
0.0
 11
31.64199999996833
 21
2.765604570627322
 31
0.0
  0
LINE
  5
D295
330
D273
100
AcDbEntity
  8
0
  6
CONTINUOUS
100
AcDbLine
 10
35.25801106796118
 20
-0.1768872882853429
 30
0.0
 11
31.64199999996833
 21
3.439123779707508
 31
0.0
  0
LINE
  5
D296
330
D273
100
AcDbEntity
  8
0
  6
CONTINUOUS
100
AcDbLine
 10
35.79065650332146
 20
-0.0360135145654361
 30
0.0
 11
34.54143210838231
 21
1.213210880373721
 31
0.0
  0
LINE
  5
D297
330
D273
100
AcDbEntity
  8
0
  6
CONTINUOUS
100
AcDbLine
 10
33.08199999996839
 20
2.67264298878764
 30
0.0
 11
31.64199999996833
 21
4.112642988787695
 31
0.0
  0
LINE
  5
D298
330
D273
100
AcDbEntity
  8
0
  6
CONTINUOUS
100
AcDbLine
 10
36.25975597779143
 20
0.1684062200447833
 30
0.0
 11
35.15395110240023
 21
1.274211095435983
 31
0.0
  0
LINE
  5
D299
330
D273
100
AcDbEntity
  8
0
  6
CONTINUOUS
100
AcDbLine
 10
33.08199999996839
 20
3.346162197867826
 30
0.0
 11
31.64199999996833
 21
4.786162197867881
 31
0.0
  0
LINE
  5
D29A
330
D273
100
AcDbEntity
  8
0
  6
CONTINUOUS
100
AcDbLine
 10
36.67226329638774
 20
0.4294181105286579
 30
0.0
 11
35.63766478748767
 21
1.464016619428737
 31
0.0
  0
LINE
  5
D29B
330
D273
100
AcDbEntity
  8
0
  6
CONTINUOUS
100
AcDbLine
 10
33.08199999996839
 20
4.019681406948012
 30
0.0
 11
31.64199999996833
 21
5.459681406948068
 31
0.0
  0
LINE
  5
D29C
330
D273
100
AcDbEntity
  8
0
  6
CONTINUOUS
100
AcDbLine
 10
37.01677749710036
 20
0.7584231188962329
 30
0.0
 11
35.99563422741351
 21
1.779566388583076
 31
0.0
  0
LINE
  5
D29D
330
D273
100
AcDbEntity
  8
0
  6
CONTINUOUS
100
AcDbLine
 10
33.08199999996839
 20
4.693200616028199
 30
0.0
 11
31.64199999996833
 21
6.133200616028255
 31
0.0
  0
LINE
  5
D29E
330
D273
100
AcDbEntity
  8
0
  6
CONTINUOUS
100
AcDbLine
 10
37.29859977568887
 20
1.1501200493879
 30
0.0
 11
36.20680593341555
 21
2.241913891661226
 31
0.0
  0
LINE
  5
D29F
330
D273
100
AcDbEntity
  8
0
  6
CONTINUOUS
100
AcDbLine
 10
33.08199999996839
 20
5.366719825108386
 30
0.0
 11
31.64199999996833
 21
6.80671982510844
 31
0.0
  0
LINE
  5
D2A0
330
D273
100
AcDbEntity
  8
0
  6
CONTINUOUS
100
AcDbLine
 10
37.5148623517228
 20
1.607376682434161
 30
0.0
 11
36.23199999996837
 21
2.890239034188594
 31
0.0
  0
LINE
  5
D2A1
330
D273
100
AcDbEntity
  8
0
  6
CONTINUOUS
100
AcDbLine
 10
33.08199999996839
 20
6.040239034188573
 30
0.0
 11
31.64199999996833
 21
7.480239034188627
 31
0.0
  0
LINE
  5
D2A2
330
D273
100
AcDbEntity
  8
0
  6
CONTINUOUS
100
AcDbLine
 10
37.64705163358367
 20
2.148706609653477
 30
0.0
 11
36.23199999996837
 21
3.56375824326878
 31
0.0
  0
LINE
  5
D2A3
330
D273
100
AcDbEntity
  8
0
  6
CONTINUOUS
100
AcDbLine
 10
33.08199999996839
 20
6.713758243268758
 30
0.0
 11
31.64199999996833
 21
8.153758243268815
 31
0.0
  0
LINE
  5
D2A4
330
D273
100
AcDbEntity
  8
0
  6
CONTINUOUS
100
AcDbLine
 10
37.67199999996831
 20
2.797277452349026
 30
0.0
 11
36.23199999996837
 21
4.237277452348967
 31
0.0
  0
LINE
  5
D2A5
330
D273
100
AcDbEntity
  8
0
  6
CONTINUOUS
100
AcDbLine
 10
37.67199999996831
 20
3.470796661429213
 30
0.0
 11
36.23199999996837
 21
4.910796661429154
 31
0.0
  0
LINE
  5
D2A6
330
D273
100
AcDbEntity
  8
0
  6
CONTINUOUS
100
AcDbLine
 10
37.67199999996831
 20
4.144315870509399
 30
0.0
 11
36.23199999996837
 21
5.58431587050934
 31
0.0
  0
LINE
  5
D2A7
330
D273
100
AcDbEntity
  8
0
  6
CONTINUOUS
100
AcDbLine
 10
33.08199999996839
 20
7.387277452348945
 30
0.0
 11
31.70617745232608
 21
8.763099999991255
 31
0.0
  0
LINE
  5
D2A8
330
D273
100
AcDbEntity
  8
0
  6
CONTINUOUS
100
AcDbLine
 10
33.08199999996839
 20
8.060796661429132
 30
0.0
 11
32.37969666140626
 21
8.763099999991255
 31
0.0
  0
LINE
  5
D2A9
330
D273
100
AcDbEntity
  8
0
  6
CONTINUOUS
100
AcDbLine
 10
33.08199999996839
 20
8.734315870509318
 30
0.0
 11
33.05321587048645
 21
8.763099999991255
 31
0.0
  0
LINE
  5
D2AA
330
D273
100
AcDbEntity
  8
0
  6
CONTINUOUS
100
AcDbLine
 10
37.67199999996831
 20
4.817835079589585
 30
0.0
 11
36.23199999996837
 21
6.257835079589526
 31
0.0
  0
LINE
  5
D2AB
330
D273
100
AcDbEntity
  8
0
  6
CONTINUOUS
100
AcDbLine
 10
37.67199999996831
 20
5.491354288669771
 30
0.0
 11
36.23199999996837
 21
6.931354288669713
 31
0.0
  0
LINE
  5
D2AC
330
D273
100
AcDbEntity
  8
0
  6
CONTINUOUS
100
AcDbLine
 10
37.67199999996831
 20
6.164873497749958
 30
0.0
 11
36.23199999996837
 21
7.6048734977499
 31
0.0
  0
LINE
  5
D2AD
330
D273
100
AcDbEntity
  8
0
  6
CONTINUOUS
100
AcDbLine
 10
37.67199999996831
 20
6.838392706830144
 30
0.0
 11
36.23199999996837
 21
8.278392706830086
 31
0.0
  0
LINE
  5
D2AE
330
D273
100
AcDbEntity
  8
0
  6
CONTINUOUS
100
AcDbLine
 10
37.67199999996831
 20
7.511911915910332
 30
0.0
 11
36.42081191588738
 21
8.763099999991255
 31
0.0
  0
LINE
  5
D2AF
330
D273
100
AcDbEntity
  8
0
  6
CONTINUOUS
100
AcDbLine
 10
37.67199999996831
 20
8.185431124990519
 30
0.0
 11
37.09433112496757
 21
8.763099999991255
 31
0.0
  0
ENDBLK
  5
D317
330
D273
100
AcDbEntity
  8
0
100
AcDbBlockEnd
  0
BLOCK
  5
D318
330
D2B0
100
AcDbEntity
  8
0
100
AcDbBlockBegin
  2
*X70
 70
     1
 10
0.0
 20
0.0
 30
0.0
  3
*X70
  1

  0
LINE
  5
D2B1
330
D2B0
100
AcDbEntity
  8
0
  6
CONTINUOUS
100
AcDbLine
 10
38.60499999996136
 20
8.762866199104765
 30
0.0
 11
38.71672554182345
 21
8.874591740966855
 31
0.0
  0
LINE
  5
D2B2
330
D2B0
100
AcDbEntity
  8
0
  6
CONTINUOUS
100
AcDbLine
 10
38.60499999996136
 20
8.089346990024577
 30
0.0
 11
39.03418785440363
 21
8.518534844466847
 31
0.0
  0
LINE
  5
D2B3
330
D2B0
100
AcDbEntity
  8
0
  6
CONTINUOUS
100
AcDbLine
 10
38.60499999996136
 20
7.41582778094439
 30
0.0
 11
39.35165016698382
 21
8.16247794796684
 31
0.0
  0
LINE
  5
D2B4
330
D2B0
100
AcDbEntity
  8
0
  6
CONTINUOUS
100
AcDbLine
 10
38.60499999996136
 20
6.742308571864204
 30
0.0
 11
39.66911247956399
 21
7.806421051466834
 31
0.0
  0
LINE
  5
D2B5
330
D2B0
100
AcDbEntity
  8
0
  6
CONTINUOUS
100
AcDbLine
 10
38.60499999996136
 20
6.068789362784018
 30
0.0
 11
39.98657479214418
 21
7.450364154966827
 31
0.0
  0
LINE
  5
D2B6
330
D2B0
100
AcDbEntity
  8
0
  6
CONTINUOUS
100
AcDbLine
 10
38.60499999996136
 20
5.395270153703832
 30
0.0
 11
40.30403710472435
 21
7.09430725846682
 31
0.0
  0
LINE
  5
D2B7
330
D2B0
100
AcDbEntity
  8
0
  6
CONTINUOUS
100
AcDbLine
 10
38.60499999996136
 20
4.721750944623645
 30
0.0
 11
40.62149941730453
 21
6.738250361966813
 31
0.0
  0
LINE
  5
D2B8
330
D2B0
100
AcDbEntity
  8
0
  6
CONTINUOUS
100
AcDbLine
 10
38.60499999996136
 20
4.048231735543458
 30
0.0
 11
40.93896172988471
 21
6.382193465466806
 31
0.0
  0
LINE
  5
D2B9
330
D2B0
100
AcDbEntity
  8
0
  6
CONTINUOUS
100
AcDbLine
 10
38.60499999996136
 20
3.374712526463272
 30
0.0
 11
40.02599999995994
 21
4.795712526461843
 31
0.0
  0
LINE
  5
D2BA
330
D2B0
100
AcDbEntity
  8
0
  6
CONTINUOUS
100
AcDbLine
 10
38.60499999996136
 20
2.701193317383085
 30
0.0
 11
40.02599999995994
 21
4.122193317381657
 31
0.0
  0
LINE
  5
D2BB
330
D2B0
100
AcDbEntity
  8
0
  6
CONTINUOUS
100
AcDbLine
 10
40.28339754687704
 20
5.053110073378947
 30
0.0
 11
41.25642404246489
 21
6.026136568966799
 31
0.0
  0
LINE
  5
D2BC
330
D2B0
100
AcDbEntity
  8
0
  6
CONTINUOUS
100
AcDbLine
 10
40.60085985945722
 20
4.697053176878939
 30
0.0
 11
41.57388635504507
 21
5.670079672466793
 31
0.0
  0
LINE
  5
D2BD
330
D2B0
100
AcDbEntity
  8
0
  6
CONTINUOUS
100
AcDbLine
 10
43.57899999995641
 20
8.348712526458318
 30
0.0
 11
43.99338747348935
 21
8.763099999991255
 31
0.0
  0
LINE
  5
D2BE
330
D2B0
100
AcDbEntity
  8
0
  6
CONTINUOUS
100
AcDbLine
 10
43.57899999995641
 20
7.675193317378131
 30
0.0
 11
44.66690668256953
 21
8.763099999991255
 31
0.0
  0
LINE
  5
D2BF
330
D2B0
100
AcDbEntity
  8
0
  6
CONTINUOUS
100
AcDbLine
 10
38.60499999996136
 20
2.027674108302898
 30
0.0
 11
40.02599999995994
 21
3.44867410830147
 31
0.0
  0
LINE
  5
D2C0
330
D2B0
100
AcDbEntity
  8
0
  6
CONTINUOUS
100
AcDbLine
 10
38.60499999996136
 20
1.354154899222712
 30
0.0
 11
40.02599999995994
 21
2.775154899221284
 31
0.0
  0
LINE
  5
D2C1
330
D2B0
100
AcDbEntity
  8
0
  6
CONTINUOUS
100
AcDbLine
 10
38.60499999996136
 20
0.6806356901425255
 30
0.0
 11
40.02599999995994
 21
2.101635690141098
 31
0.0
  0
LINE
  5
D2C2
330
D2B0
100
AcDbEntity
  8
0
  6
CONTINUOUS
100
AcDbLine
 10
38.60499999996136
 20
0.0071164810623383
 30
0.0
 11
40.02599999995994
 21
1.428116481060911
 31
0.0
  0
LINE
  5
D2C3
330
D2B0
100
AcDbEntity
  8
0
  6
CONTINUOUS
100
AcDbLine
 10
40.9183221720374
 20
4.340996280378933
 30
0.0
 11
41.89134866762525
 21
5.314022775966786
 31
0.0
  0
LINE
  5
D2C4
330
D2B0
100
AcDbEntity
  8
0
  6
CONTINUOUS
100
AcDbLine
 10
41.23578448461758
 20
3.984939383878926
 30
0.0
 11
42.20881098020543
 21
4.957965879466778
 31
0.0
  0
LINE
  5
D2C5
330
D2B0
100
AcDbEntity
  8
0
  6
CONTINUOUS
100
AcDbLine
 10
41.55324679719776
 20
3.628882487378919
 30
0.0
 11
42.52627329278561
 21
4.601908982966772
 31
0.0
  0
LINE
  5
D2C6
330
D2B0
100
AcDbEntity
  8
0
  6
CONTINUOUS
100
AcDbLine
 10
41.87070910977793
 20
3.272825590878912
 30
0.0
 11
42.84373560536579
 21
4.245852086466765
 31
0.0
  0
LINE
  5
D2C7
330
D2B0
100
AcDbEntity
  8
0
  6
CONTINUOUS
100
AcDbLine
 10
43.57899999995641
 20
7.001674108297943
 30
0.0
 11
44.99999999995498
 21
8.422674108296516
 31
0.0
  0
LINE
  5
D2C8
330
D2B0
100
AcDbEntity
  8
0
  6
CONTINUOUS
100
AcDbLine
 10
43.57899999995641
 20
6.328154899217758
 30
0.0
 11
44.99999999995498
 21
7.749154899216329
 31
0.0
  0
LINE
  5
D2C9
330
D2B0
100
AcDbEntity
  8
0
  6
CONTINUOUS
100
AcDbLine
 10
43.57899999995641
 20
5.654635690137571
 30
0.0
 11
44.99999999995498
 21
7.075635690136142
 31
0.0
  0
LINE
  5
D2CA
330
D2B0
100
AcDbEntity
  8
0
  6
CONTINUOUS
100
AcDbLine
 10
43.57899999995641
 20
4.981116481057384
 30
0.0
 11
44.99999999995498
 21
6.402116481055955
 31
0.0
  0
LINE
  5
D2CB
330
D2B0
100
AcDbEntity
  8
0
  6
CONTINUOUS
100
AcDbLine
 10
39.27140272797921
 20
-0.0000000000000009
 30
0.0
 11
40.02599999995994
 21
0.7545972719807246
 31
0.0
  0
LINE
  5
D2CC
330
D2B0
100
AcDbEntity
  8
0
  6
CONTINUOUS
100
AcDbLine
 10
39.9449219370594
 20
-0.0000000000000009
 30
0.0
 11
40.02599999995994
 21
0.0810780629005379
 31
0.0
  0
LINE
  5
D2CD
330
D2B0
100
AcDbEntity
  8
0
  6
CONTINUOUS
100
AcDbLine
 10
42.18817142235812
 20
2.916768694378905
 30
0.0
 11
43.16119791794597
 21
3.889795189966758
 31
0.0
  0
LINE
  5
D2CE
330
D2B0
100
AcDbEntity
  8
0
  6
CONTINUOUS
100
AcDbLine
 10
42.50563373493829
 20
2.560711797878898
 30
0.0
 11
43.47866023052615
 21
3.533738293466751
 31
0.0
  0
LINE
  5
D2CF
330
D2B0
100
AcDbEntity
  8
0
  6
CONTINUOUS
100
AcDbLine
 10
43.57899999995641
 20
4.307597271977198
 30
0.0
 11
44.99999999995498
 21
5.728597271975769
 31
0.0
  0
LINE
  5
D2D0
330
D2B0
100
AcDbEntity
  8
0
  6
CONTINUOUS
100
AcDbLine
 10
43.57899999995641
 20
3.634078062897011
 30
0.0
 11
44.99999999995498
 21
5.055078062895582
 31
0.0
  0
LINE
  5
D2D1
330
D2B0
100
AcDbEntity
  8
0
  6
CONTINUOUS
100
AcDbLine
 10
42.82309604751848
 20
2.204654901378891
 30
0.0
 11
44.99999999995498
 21
4.381558853815395
 31
0.0
  0
LINE
  5
D2D2
330
D2B0
100
AcDbEntity
  8
0
  6
CONTINUOUS
100
AcDbLine
 10
43.14055836009865
 20
1.848598004878885
 30
0.0
 11
44.99999999995498
 21
3.70803964473521
 31
0.0
  0
LINE
  5
D2D3
330
D2B0
100
AcDbEntity
  8
0
  6
CONTINUOUS
100
AcDbLine
 10
43.45802067267883
 20
1.492541108378878
 30
0.0
 11
44.99999999995498
 21
3.034520435655023
 31
0.0
  0
LINE
  5
D2D4
330
D2B0
100
AcDbEntity
  8
0
  6
CONTINUOUS
100
AcDbLine
 10
43.77548298525902
 20
1.136484211878871
 30
0.0
 11
44.99999999995498
 21
2.361001226574837
 31
0.0
  0
LINE
  5
D2D5
330
D2B0
100
AcDbEntity
  8
0
  6
CONTINUOUS
100
AcDbLine
 10
44.09294529783919
 20
0.7804273153788639
 30
0.0
 11
44.99999999995498
 21
1.687482017494649
 31
0.0
  0
LINE
  5
D2D6
330
D2B0
100
AcDbEntity
  8
0
  6
CONTINUOUS
100
AcDbLine
 10
44.41040761041938
 20
0.4243704188788566
 30
0.0
 11
44.99999999995498
 21
1.013962808414463
 31
0.0
  0
LINE
  5
D2D7
330
D2B0
100
AcDbEntity
  8
0
  6
CONTINUOUS
100
AcDbLine
 10
44.72786992299955
 20
0.0683135223788494
 30
0.0
 11
44.99999999995498
 21
0.340443599334276
 31
0.0
  0
LINE
  5
D2D8
330
D2B0
100
AcDbEntity
  8
0
  6
CONTINUOUS
100
AcDbLine
 10
39.12223903415696
 20
-0.0000000000000009
 30
0.0
 11
38.60499999996136
 21
0.5172390341955961
 31
0.0
  0
LINE
  5
D2D9
330
D2B0
100
AcDbEntity
  8
0
  6
CONTINUOUS
100
AcDbLine
 10
39.79575824323715
 20
-0.0000000000000009
 30
0.0
 11
38.60499999996136
 21
1.190758243275783
 31
0.0
  0
LINE
  5
D2DA
330
D2B0
100
AcDbEntity
  8
0
  6
CONTINUOUS
100
AcDbLine
 10
40.02599999995994
 20
0.443277452357397
 30
0.0
 11
38.60499999996136
 21
1.864277452355969
 31
0.0
  0
LINE
  5
D2DB
330
D2B0
100
AcDbEntity
  8
0
  6
CONTINUOUS
100
AcDbLine
 10
40.02599999995994
 20
1.116796661437583
 30
0.0
 11
38.60499999996136
 21
2.537796661436155
 31
0.0
  0
LINE
  5
D2DC
330
D2B0
100
AcDbEntity
  8
0
  6
CONTINUOUS
100
AcDbLine
 10
40.02599999995994
 20
1.79031587051777
 30
0.0
 11
38.60499999996136
 21
3.211315870516341
 31
0.0
  0
LINE
  5
D2DD
330
D2B0
100
AcDbEntity
  8
0
  6
CONTINUOUS
100
AcDbLine
 10
40.02599999995994
 20
2.463835079597956
 30
0.0
 11
38.60499999996136
 21
3.884835079596527
 31
0.0
  0
LINE
  5
D2DE
330
D2B0
100
AcDbEntity
  8
0
  6
CONTINUOUS
100
AcDbLine
 10
40.02599999995994
 20
3.137354288678143
 30
0.0
 11
38.60499999996136
 21
4.558354288676714
 31
0.0
  0
LINE
  5
D2DF
330
D2B0
100
AcDbEntity
  8
0
  6
CONTINUOUS
100
AcDbLine
 10
40.02599999995994
 20
3.810873497758329
 30
0.0
 11
38.60499999996136
 21
5.2318734977569
 31
0.0
  0
LINE
  5
D2E0
330
D2B0
100
AcDbEntity
  8
0
  6
CONTINUOUS
100
AcDbLine
 10
40.02599999995994
 20
4.484392706838515
 30
0.0
 11
38.60499999996136
 21
5.905392706837086
 31
0.0
  0
LINE
  5
D2E1
330
D2B0
100
AcDbEntity
  8
0
  6
CONTINUOUS
100
AcDbLine
 10
44.99999999995498
 20
0.183911915923658
 30
0.0
 11
41.53858364506288
 21
3.64532827081576
 31
0.0
  0
LINE
  5
D2E2
330
D2B0
100
AcDbEntity
  8
0
  6
CONTINUOUS
100
AcDbLine
 10
40.02599999995994
 20
5.157911915918703
 30
0.0
 11
38.60499999996136
 21
6.578911915917274
 31
0.0
  0
LINE
  5
D2E3
330
D2B0
100
AcDbEntity
  8
0
  6
CONTINUOUS
100
AcDbLine
 10
44.99999999995498
 20
0.8574311250038447
 30
0.0
 11
38.60499999996136
 21
7.25243112499746
 31
0.0
  0
LINE
  5
D2E4
330
D2B0
100
AcDbEntity
  8
0
  6
CONTINUOUS
100
AcDbLine
 10
44.99999999995498
 20
1.530950334084031
 30
0.0
 11
38.60499999996136
 21
7.925950334077647
 31
0.0
  0
LINE
  5
D2E5
330
D2B0
100
AcDbEntity
  8
0
  6
CONTINUOUS
100
AcDbLine
 10
44.99999999995498
 20
2.204469543164218
 30
0.0
 11
43.57899999995641
 21
3.625469543162789
 31
0.0
  0
LINE
  5
D2E6
330
D2B0
100
AcDbEntity
  8
0
  6
CONTINUOUS
100
AcDbLine
 10
41.89876730984767
 20
5.305702233271528
 30
0.0
 11
38.60499999996136
 21
8.599469543157834
 31
0.0
  0
LINE
  5
D2E7
330
D2B0
100
AcDbEntity
  8
0
  6
CONTINUOUS
100
AcDbLine
 10
44.99999999995498
 20
2.877988752244405
 30
0.0
 11
43.57899999995641
 21
4.298988752242975
 31
0.0
  0
LINE
  5
D2E8
330
D2B0
100
AcDbEntity
  8
0
  6
CONTINUOUS
100
AcDbLine
 10
44.99999999995498
 20
3.551507961324591
 30
0.0
 11
43.57899999995641
 21
4.972507961323163
 31
0.0
  0
LINE
  5
D2E9
330
D2B0
100
AcDbEntity
  8
0
  6
CONTINUOUS
100
AcDbLine
 10
44.99999999995498
 20
4.225027170404777
 30
0.0
 11
43.57899999995641
 21
5.646027170403348
 31
0.0
  0
LINE
  5
D2EA
330
D2B0
100
AcDbEntity
  8
0
  6
CONTINUOUS
100
AcDbLine
 10
44.99999999995498
 20
4.898546379484964
 30
0.0
 11
43.57899999995641
 21
6.319546379483535
 31
0.0
  0
LINE
  5
D2EB
330
D2B0
100
AcDbEntity
  8
0
  6
CONTINUOUS
100
AcDbLine
 10
44.99999999995498
 20
5.572065588565151
 30
0.0
 11
43.57899999995641
 21
6.993065588563722
 31
0.0
  0
LINE
  5
D2EC
330
D2B0
100
AcDbEntity
  8
0
  6
CONTINUOUS
100
AcDbLine
 10
44.99999999995498
 20
6.245584797645336
 30
0.0
 11
43.57899999995641
 21
7.666584797643908
 31
0.0
  0
LINE
  5
D2ED
330
D2B0
100
AcDbEntity
  8
0
  6
CONTINUOUS
100
AcDbLine
 10
44.99999999995498
 20
6.919104006725522
 30
0.0
 11
43.57899999995641
 21
8.340104006724093
 31
0.0
  0
LINE
  5
D2EE
330
D2B0
100
AcDbEntity
  8
0
  6
CONTINUOUS
100
AcDbLine
 10
44.99999999995498
 20
7.592623215805709
 30
0.0
 11
43.82952321576943
 21
8.763099999991255
 31
0.0
  0
LINE
  5
D2EF
330
D2B0
100
AcDbEntity
  8
0
  6
CONTINUOUS
100
AcDbLine
 10
44.99999999995498
 20
8.266142424885896
 30
0.0
 11
44.50304242484962
 21
8.763099999991255
 31
0.0
  0
ENDBLK
  5
D319
330
D2B0
100
AcDbEntity
  8
0
100
AcDbBlockEnd
  0
BLOCK
  5
D31A
330
D2F0
100
AcDbEntity
  8
0
100
AcDbBlockBegin
  2
*X71
 70
     1
 10
0.0
 20
0.0
 30
0.0
  3
*X71
  1

  0
LINE
  5
D2F1
330
D2F0
100
AcDbEntity
  8
0
  6
CONTINUOUS
100
AcDbLine
 10
0.0
 20
8.548461116714023
 30
0.0
 11
0.2146388832772324
 21
8.763099999991255
 31
0.0
  0
LINE
  5
D2F2
330
D2F0
100
AcDbEntity
  8
0
  6
CONTINUOUS
100
AcDbLine
 10
-0.0000000000000002
 20
7.874941907633837
 30
0.0
 11
0.8881580923574184
 21
8.763099999991255
 31
0.0
  0
LINE
  5
D2F3
330
D2F0
100
AcDbEntity
  8
0
  6
CONTINUOUS
100
AcDbLine
 10
0.0
 20
7.20142269855365
 30
0.0
 11
1.420999999998572
 21
8.622422698552223
 31
0.0
  0
LINE
  5
D2F4
330
D2F0
100
AcDbEntity
  8
0
  6
CONTINUOUS
100
AcDbLine
 10
-0.0000000000000001
 20
6.527903489473465
 30
0.0
 11
1.420999999998571
 21
7.948903489472036
 31
0.0
  0
LINE
  5
D2F5
330
D2F0
100
AcDbEntity
  8
0
  6
CONTINUOUS
100
AcDbLine
 10
-0.0000000000000002
 20
5.854384280393278
 30
0.0
 11
1.420999999998571
 21
7.275384280391849
 31
0.0
  0
LINE
  5
D2F6
330
D2F0
100
AcDbEntity
  8
0
  6
CONTINUOUS
100
AcDbLine
 10
-0.0000000000000002
 20
5.180865071313091
 30
0.0
 11
1.420999999998571
 21
6.601865071311663
 31
0.0
  0
LINE
  5
D2F7
330
D2F0
100
AcDbEntity
  8
0
  6
CONTINUOUS
100
AcDbLine
 10
0.0
 20
4.507345862232905
 30
0.0
 11
1.420999999998571
 21
5.928345862231477
 31
0.0
  0
LINE
  5
D2F8
330
D2F0
100
AcDbEntity
  8
0
  6
CONTINUOUS
100
AcDbLine
 10
-0.0000000000000003
 20
3.833826653152718
 30
0.0
 11
1.420999999998571
 21
5.25482665315129
 31
0.0
  0
LINE
  5
D2F9
330
D2F0
100
AcDbEntity
  8
0
  6
CONTINUOUS
100
AcDbLine
 10
-0.0000000000000002
 20
3.160307444072532
 30
0.0
 11
1.420999999998571
 21
4.581307444071103
 31
0.0
  0
LINE
  5
D2FA
330
D2F0
100
AcDbEntity
  8
0
  6
CONTINUOUS
100
AcDbLine
 10
-0.0000000000000001
 20
2.486788234992345
 30
0.0
 11
1.420999999998571
 21
3.907788234990917
 31
0.0
  0
LINE
  5
D2FB
330
D2F0
100
AcDbEntity
  8
0
  6
CONTINUOUS
100
AcDbLine
 10
-0.0000000000000006
 20
1.813269025912159
 30
0.0
 11
1.420999999998571
 21
3.234269025910731
 31
0.0
  0
LINE
  5
D2FC
330
D2F0
100
AcDbEntity
  8
0
  6
CONTINUOUS
100
AcDbLine
 10
0.0
 20
1.139749816831973
 30
0.0
 11
1.420999999998571
 21
2.560749816830544
 31
0.0
  0
LINE
  5
D2FD
330
D2F0
100
AcDbEntity
  8
0
  6
CONTINUOUS
100
AcDbLine
 10
0.0000000000000002
 20
0.466230607751787
 30
0.0
 11
1.420999999998571
 21
1.887230607750358
 31
0.0
  0
LINE
  5
D2FE
330
D2F0
100
AcDbEntity
  8
0
  6
CONTINUOUS
100
AcDbLine
 10
0.2072886013284003
 20
-0.0000000000000009
 30
0.0
 11
1.420999999998571
 21
1.213711398670171
 31
0.0
  0
LINE
  5
D2FF
330
D2F0
100
AcDbEntity
  8
0
  6
CONTINUOUS
100
AcDbLine
 10
0.8808078104085864
 20
-0.0000000000000009
 30
0.0
 11
1.420999999998571
 21
0.5401921895899839
 31
0.0
  0
LINE
  5
D300
330
D2F0
100
AcDbEntity
  8
0
  6
CONTINUOUS
100
AcDbLine
 10
0.0581249075061505
 20
-0.0000000000000009
 30
0.0
 11
-0.0000000000000002
 21
0.0581249075061496
 31
0.0
  0
LINE
  5
D301
330
D2F0
100
AcDbEntity
  8
0
  6
CONTINUOUS
100
AcDbLine
 10
0.7316441165863372
 20
-0.0000000000000009
 30
0.0
 11
-0.0000000000000002
 21
0.7316441165863363
 31
0.0
  0
LINE
  5
D302
330
D2F0
100
AcDbEntity
  8
0
  6
CONTINUOUS
100
AcDbLine
 10
1.405163325666523
 20
-0.0000000000000009
 30
0.0
 11
-0.0000000000000002
 21
1.405163325666523
 31
0.0
  0
LINE
  5
D303
330
D2F0
100
AcDbEntity
  8
0
  6
CONTINUOUS
100
AcDbLine
 10
1.420999999998572
 20
0.6576825347481381
 30
0.0
 11
-0.0000000000000001
 21
2.07868253474671
 31
0.0
  0
LINE
  5
D304
330
D2F0
100
AcDbEntity
  8
0
  6
CONTINUOUS
100
AcDbLine
 10
1.420999999998571
 20
1.331201743828324
 30
0.0
 11
-0.0000000000000001
 21
2.752201743826896
 31
0.0
  0
LINE
  5
D305
330
D2F0
100
AcDbEntity
  8
0
  6
CONTINUOUS
100
AcDbLine
 10
1.420999999998571
 20
2.004720952908511
 30
0.0
 11
-0.0000000000000002
 21
3.425720952907082
 31
0.0
  0
LINE
  5
D306
330
D2F0
100
AcDbEntity
  8
0
  6
CONTINUOUS
100
AcDbLine
 10
1.420999999998571
 20
2.678240161988697
 30
0.0
 11
-0.0000000000000001
 21
4.099240161987269
 31
0.0
  0
LINE
  5
D307
330
D2F0
100
AcDbEntity
  8
0
  6
CONTINUOUS
100
AcDbLine
 10
1.420999999998572
 20
3.351759371068884
 30
0.0
 11
0.0
 21
4.772759371067455
 31
0.0
  0
LINE
  5
D308
330
D2F0
100
AcDbEntity
  8
0
  6
CONTINUOUS
100
AcDbLine
 10
1.420999999998571
 20
4.02527858014907
 30
0.0
 11
-0.0000000000000003
 21
5.446278580147642
 31
0.0
  0
LINE
  5
D309
330
D2F0
100
AcDbEntity
  8
0
  6
CONTINUOUS
100
AcDbLine
 10
1.420999999998571
 20
4.698797789229257
 30
0.0
 11
0.0
 21
6.119797789227828
 31
0.0
  0
LINE
  5
D30A
330
D2F0
100
AcDbEntity
  8
0
  6
CONTINUOUS
100
AcDbLine
 10
1.420999999998571
 20
5.372316998309444
 30
0.0
 11
-0.0000000000000001
 21
6.793316998308015
 31
0.0
  0
LINE
  5
D30B
330
D2F0
100
AcDbEntity
  8
0
  6
CONTINUOUS
100
AcDbLine
 10
1.420999999998572
 20
6.045836207389629
 30
0.0
 11
-0.0000000000000004
 21
7.466836207388202
 31
0.0
  0
LINE
  5
D30C
330
D2F0
100
AcDbEntity
  8
0
  6
CONTINUOUS
100
AcDbLine
 10
1.420999999998571
 20
6.719355416469816
 30
0.0
 11
0.0
 21
8.140355416468388
 31
0.0
  0
LINE
  5
D30D
330
D2F0
100
AcDbEntity
  8
0
  6
CONTINUOUS
100
AcDbLine
 10
1.420999999998571
 20
7.392874625550003
 30
0.0
 11
0.0507746255573185
 21
8.763099999991255
 31
0.0
  0
LINE
  5
D30E
330
D2F0
100
AcDbEntity
  8
0
  6
CONTINUOUS
100
AcDbLine
 10
1.420999999998571
 20
8.06639383463019
 30
0.0
 11
0.7242938346375052
 21
8.763099999991255
 31
0.0
  0
LINE
  5
D30F
330
D2F0
100
AcDbEntity
  8
0
  6
CONTINUOUS
100
AcDbLine
 10
1.420999999998571
 20
8.739913043710375
 30
0.0
 11
1.397813043717691
 21
8.763099999991255
 31
0.0
  0
ENDBLK
  5
D31B
330
D2F0
100
AcDbEntity
  8
0
100
AcDbBlockEnd
  0
ENDSEC
  0
SECTION
  2
ENTITIES
  0
LINE
  5
AE2F
330
18
100
AcDbEntity
  8
01
  6
BYBLOCK
100
AcDbLine
 10
5135.268724362464
 20
-52.90226996795627
 30
0.0000000000563712
 11
5289.023104517495
 21
-52.90226996795627
 31
0.0000000000563712
  0
LINE
  5
AE37
330
18
100
AcDbEntity
  8
01
100
AcDbLine
 10
5036.267840180404
 20
-182.9009516538244
 30
0.0000000000563712
 11
5036.267840180404
 21
-372.9009516538244
 31
0.0000000000563712
  0
LINE
  5
AE3A
330
18
100
AcDbEntity
  8
01
100
AcDbLine
 10
5186.267840180404
 20
-272.9009516538244
 30
0.0000000000563712
 11
5186.267840180404
 21
-332.9009516538244
 31
0.0000000000563712
  0
LINE
  5
B873
330
18
100
AcDbEntity
  8
01
100
AcDbLine
 10
5130.267840180404
 20
-224.9022699669276
 30
0.0000000000563712
 11
5144.267840180404
 21
-224.9022699669276
 31
0.0000000000563712
  0
LINE
  5
B874
330
18
100
AcDbEntity
  8
01
100
AcDbLine
 10
5135.268724362464
 20
-12.90226996795627
 30
0.0000000000563712
 11
5289.023104517497
 21
-12.90226996795627
 31
0.0000000000563712
  0
LINE
  5
B875
330
18
100
AcDbEntity
  8
01
  6
BYBLOCK
100
AcDbLine
 10
5135.268724362464
 20
-12.90226996795627
 30
0.0000000000563712
 11
5135.268724362464
 21
-52.90226996795627
 31
0.0000000000563712
  0
LINE
  5
B879
330
18
100
AcDbEntity
  8
01
100
AcDbLine
 10
5186.267956520149
 20
-17.90226996898491
 30
0.0000000000563712
 11
5186.267956520149
 21
13.01581022026403
 31
0.0000000000563712
  0
LINE
  5
B87D
330
18
100
AcDbEntity
  8
01
  6
BYBLOCK
100
AcDbLine
 10
5136.767840180404
 20
-217.0022699669275
 30
0.0000000000563712
 11
5136.767840180404
 21
-346.8022699669275
 31
0.0000000000563712
  0
LINE
  5
B87E
330
18
100
AcDbEntity
  8
01
  6
BYBLOCK
100
AcDbLine
 10
5136.767840180404
 20
-345.9022699669276
 30
0.0000000000563712
 11
5139.267840180404
 21
-345.9022699669276
 31
0.0000000000563712
  0
LINE
  5
B87F
330
18
100
AcDbEntity
  8
01
  6
BYBLOCK
100
AcDbLine
 10
5139.267840180404
 20
-345.9022699669276
 30
0.0000000000563712
 11
5139.267840180404
 21
-329.3993262417753
 31
0.0000000000563712
  0
LINE
  5
B880
330
18
100
AcDbEntity
  8
01
  6
BYBLOCK
100
AcDbLine
 10
5135.267840180404
 20
-217.0022699669275
 30
0.0000000000563712
 11
5135.267840180404
 21
-346.8022699669275
 31
0.0000000000563712
  0
LINE
  5
B881
330
18
100
AcDbEntity
  8
01
  6
BYBLOCK
100
AcDbLine
 10
5135.267840180404
 20
-346.8022699669275
 30
0.0000000000563712
 11
5136.767840180404
 21
-346.8022699669275
 31
0.0000000000563712
  0
LINE
  5
B882
330
18
100
AcDbEntity
  8
01
  6
BYBLOCK
100
AcDbLine
 10
5136.767840180404
 20
-217.9022699669276
 30
0.0000000000563712
 11
5139.267840180404
 21
-217.9022699669276
 31
0.0000000000563712
  0
LINE
  5
B883
330
18
100
AcDbEntity
  8
01
  6
BYBLOCK
100
AcDbLine
 10
5135.267840180404
 20
-217.0022699669275
 30
0.0000000000563712
 11
5136.767840180404
 21
-217.0022699669275
 31
0.0000000000563712
  0
LINE
  5
B884
330
18
100
AcDbEntity
  8
01
  6
BYBLOCK
100
AcDbLine
 10
5136.767840180404
 20
-241.9022699669276
 30
0.0000000000563712
 11
5137.967840180403
 21
-241.9022699669276
 31
0.0000000000563712
  0
ARC
  5
B885
330
18
100
AcDbEntity
  8
01
  6
BYBLOCK
100
AcDbCircle
 10
5203.267840180404
 20
-245.9022699669276
 30
0.0000000000563712
 40
1.0
100
AcDbArc
 50
0.0
 51
90.0
  0
LINE
  5
B886
330
18
100
AcDbEntity
  8
01
  6
BYBLOCK
100
AcDbLine
 10
5137.967840180403
 20
-236.2022699669274
 30
0.0000000000563712
 11
5137.967840180403
 21
-327.6022699669275
 31
0.0000000000563712
  0
LINE
  5
B887
330
18
100
AcDbEntity
  8
01
  6
BYBLOCK
100
AcDbLine
 10
5138.067840180403
 20
-345.9022699669276
 30
0.0000000000563712
 11
5138.067840180403
 21
-329.3022699669275
 31
0.0000000000563712
  0
LINE
  5
B888
330
18
100
AcDbEntity
  8
01
  6
BYBLOCK
100
AcDbLine
 10
5138.067840180403
 20
-329.3022699669275
 30
0.0000000000563712
 11
5137.11931204298
 21
-328.3537418295036
 31
0.0000000000563712
  0
LINE
  5
B889
330
18
100
AcDbEntity
  8
01
  6
BYBLOCK
100
AcDbLine
 10
5138.916368317827
 20
-328.5507981043513
 30
0.0000000000563712
 11
5137.967840180403
 21
-327.6022699669275
 31
0.0000000000563712
  0
ARC
  5
B88A
330
18
100
AcDbEntity
  8
01
  6
BYBLOCK
100
AcDbCircle
 10
5138.067840180403
 20
-329.3993262417753
 30
0.0000000000563712
 40
1.2
100
AcDbArc
 50
0.0
 51
45.00000000004836
  0
ARC
  5
B88B
330
18
100
AcDbEntity
  8
01
  6
BYBLOCK
100
AcDbCircle
 10
5137.967840180403
 20
-327.5052136920797
 30
0.0000000000563712
 40
1.2
100
AcDbArc
 50
180.0
 51
225.0000000000484
  0
LINE
  5
B88C
330
18
100
AcDbEntity
  8
01
  6
BYBLOCK
100
AcDbLine
 10
5139.267840180404
 20
-217.9022699669276
 30
0.0000000000563712
 11
5139.267840180404
 21
-234.4052136920798
 31
0.0000000000563712
  0
LINE
  5
B88D
330
18
100
AcDbEntity
  8
01
  6
BYBLOCK
100
AcDbLine
 10
5138.067840180403
 20
-217.9022699669276
 30
0.0000000000563712
 11
5138.067840180403
 21
-234.5022699669275
 31
0.0000000000563712
  0
LINE
  5
B88E
330
18
100
AcDbEntity
  8
01
  6
BYBLOCK
100
AcDbLine
 10
5138.067840180403
 20
-234.5022699669275
 30
0.0000000000563712
 11
5137.11931204298
 21
-235.4507981043514
 31
0.0000000000563712
  0
LINE
  5
B88F
330
18
100
AcDbEntity
  8
01
  6
BYBLOCK
100
AcDbLine
 10
5138.916368317827
 20
-235.2537418295037
 30
0.0000000000563712
 11
5137.967840180403
 21
-236.2022699669276
 31
0.0000000000563712
  0
ARC
  5
B890
330
18
100
AcDbEntity
  8
01
  6
BYBLOCK
100
AcDbCircle
 10
5138.067840180403
 20
-234.4052136920798
 30
0.0000000000563712
 40
1.2
100
AcDbArc
 50
314.9999999999516
 51
0.0
  0
ARC
  5
B891
330
18
100
AcDbEntity
  8
01
  6
BYBLOCK
100
AcDbCircle
 10
5137.967840180403
 20
-236.2993262417754
 30
0.0000000000563712
 40
1.2
100
AcDbArc
 50
134.9999999999516
 51
180.0
  0
CIRCLE
  5
B892
330
18
100
AcDbEntity
  8
01
  6
BYBLOCK
100
AcDbCircle
 10
5186.267840180404
 20
-252.9022699669276
 30
0.0000000000563712
 40
4.75
  0
LINE
  5
B893
330
18
100
AcDbEntity
  8
01
  6
BYBLOCK
100
AcDbLine
 10
5137.967840180403
 20
-318.9022699669279
 30
0.0000000000563712
 11
5159.767840180408
 21
-318.9022699669276
 31
0.0000000000563712
  0
ARC
  5
B894
330
18
100
AcDbEntity
  8
01
  6
BYBLOCK
100
AcDbCircle
 10
5138.368724362464
 20
-29.34101942495636
 30
0.0000000000563712
 40
1.6
100
AcDbArc
 50
115.9444797720213
 51
180.0
  0
ARC
  5
B895
330
18
100
AcDbEntity
  8
01
  6
BYBLOCK
100
AcDbCircle
 10
5138.368724362464
 20
-36.46352051095619
 30
0.0000000000563712
 40
1.6
100
AcDbArc
 50
180.0
 51
244.0555202279787
  0
ARC
  5
B896
330
18
100
AcDbEntity
  8
01
  6
BYBLOCK
100
AcDbCircle
 10
5137.668724362464
 20
-37.74101942495622
 30
0.0000000000563712
 40
1.6
100
AcDbArc
 50
0.0
 51
64.05552022797873
  0
ARC
  5
B897
330
18
100
AcDbEntity
  8
01
  6
BYBLOCK
100
AcDbCircle
 10
5137.668724362464
 20
-28.06352051095632
 30
0.0000000000563712
 40
1.6
100
AcDbArc
 50
295.9444797720212
 51
0.0
  0
LINE
  5
B898
330
18
100
AcDbEntity
  8
01
  6
BYBLOCK
100
AcDbLine
 10
5139.268724362464
 20
-28.06352051095632
 30
0.0000000000563712
 11
5139.268724362464
 21
-20.70226996795623
 31
0.0000000000563712
  0
LINE
  5
B899
330
18
100
AcDbEntity
  8
01
  6
BYBLOCK
100
AcDbLine
 10
5138.368724362464
 20
-36.30226996795636
 30
0.0000000000563712
 11
5138.368724362464
 21
-29.50226996795618
 31
0.0000000000563712
  0
LINE
  5
B89A
330
18
100
AcDbEntity
  8
01
  6
BYBLOCK
100
AcDbLine
 10
5139.268724362464
 20
-44.90226996795627
 30
0.0000000000563712
 11
5139.268724362464
 21
-37.74101942495622
 31
0.0000000000563712
  0
LINE
  5
B89B
330
18
100
AcDbEntity
  8
01
  6
BYBLOCK
100
AcDbLine
 10
5137.668724362464
 20
-27.90226996795627
 30
0.0000000000563712
 11
5137.668724362464
 21
-20.70226996795623
 31
0.0000000000563712
  0
LINE
  5
B89C
330
18
100
AcDbEntity
  8
01
  6
BYBLOCK
100
AcDbLine
 10
5137.668724362464
 20
-37.90226996795627
 30
0.0000000000563712
 11
5137.668724362464
 21
-45.00226996795618
 31
0.0000000000563712
  0
ARC
  5
B89D
330
18
100
AcDbEntity
  8
01
  6
BYBLOCK
100
AcDbCircle
 10
5202.668724362464
 20
-25.00226996795618
 30
0.0000000000563712
 40
1.6
100
AcDbArc
 50
0.0
 51
90.0
  0
LINE
  5
B89E
330
18
100
AcDbEntity
  8
01
  6
BYBLOCK
100
AcDbLine
 10
5136.768724362464
 20
-20.50226996795618
 30
0.0000000000563712
 11
5136.768724362464
 21
-45.30226996795614
 31
0.0000000000563712
  0
LINE
  5
B89F
330
18
100
AcDbEntity
  8
01
  6
BYBLOCK
100
AcDbLine
 10
5202.668724362464
 20
-23.40226996795627
 30
0.0000000000563712
 11
5139.268724362464
 21
-23.40226996795627
 31
0.0000000000563712
  0
LINE
  5
B8A0
330
18
100
AcDbEntity
  8
01
  6
BYBLOCK
100
AcDbLine
 10
5202.668724362464
 20
-40.60226996795632
 30
0.0000000000563712
 11
5202.668724362464
 21
-23.40226996795627
 31
0.0000000000563712
  0
LINE
  5
B8A1
330
18
100
AcDbEntity
  8
01
  6
BYBLOCK
100
AcDbLine
 10
5204.268724362464
 20
-42.20226996795623
 30
0.0000000000563712
 11
5204.268724362464
 21
-25.00226996795618
 31
0.0000000000563712
  0
LINE
  5
B8A2
330
18
100
AcDbEntity
  8
01
  6
BYBLOCK
100
AcDbLine
 10
5136.768724362464
 20
-20.70226996795623
 30
0.0000000000563712
 11
5139.268724362464
 21
-20.70226996795623
 31
0.0000000000563712
  0
LINE
  5
B8A3
330
18
100
AcDbEntity
  8
01
  6
BYBLOCK
100
AcDbLine
 10
5139.268724362464
 20
-44.90226996795627
 30
0.0000000000563712
 11
5137.668724362464
 21
-44.90226996795627
 31
0.0000000000563712
  0
LINE
  5
B8A4
330
18
100
AcDbEntity
  8
01
  6
BYBLOCK
100
AcDbLine
 10
5137.668724362464
 20
-45.00226996795618
 30
0.0000000000563712
 11
5136.768724362464
 21
-45.00226996795618
 31
0.0000000000563712
  0
ARC
  5
B8A5
330
18
100
AcDbEntity
  8
01
  6
BYBLOCK
100
AcDbCircle
 10
5133.969319289863
 20
-38.60226996795564
 30
0.0000000000563712
 40
0.3000000000000051
100
AcDbArc
 50
232.8678058729399
 51
270.0
  0
LINE
  5
B8A6
330
18
100
AcDbEntity
  8
01
  6
BYBLOCK
100
AcDbLine
 10
5134.768724362464
 20
-38.90226996795559
 30
0.0000000000563712
 11
5133.969319289863
 21
-38.90226996795559
 31
0.0000000000563712
  0
LINE
  5
B8A7
330
18
100
AcDbEntity
  8
01
  6
BYBLOCK
100
AcDbLine
 10
5124.368724362464
 20
-29.22928110175144
 30
0.0000000000563712
 11
5124.368724362464
 21
-29.39990315730051
 31
0.0000000000563712
  0
ARC
  5
B8A8
330
18
100
AcDbEntity
  8
01
  6
BYBLOCK
100
AcDbCircle
 10
5124.668724362464
 20
-29.39990315730051
 30
0.0000000000563712
 40
0.3
100
AcDbArc
 50
180.0
 51
217.740529562962
  0
ARC
  5
B8A9
330
18
100
AcDbEntity
  8
01
  6
BYBLOCK
100
AcDbCircle
 10
5163.971024961747
 20
1.020799786640282
 30
0.0000000000563712
 40
50.00000000000002
100
AcDbArc
 50
217.7405295629796
 51
232.8678058729912
  0
LINE
  5
B8AA
330
18
100
AcDbEntity
  8
01
  6
BYBLOCK
100
AcDbLine
 10
5124.168724362464
 20
-28.10226996795609
 30
0.0000000000563712
 11
5124.168724362464
 21
-27.40226996795627
 31
0.0000000000563712
  0
ARC
  5
B8AB
330
18
100
AcDbEntity
  8
01
  6
BYBLOCK
100
AcDbCircle
 10
5124.668724362464
 20
-27.40226996795627
 30
0.0000000000563712
 40
0.5000000000000142
100
AcDbArc
 50
90.0
 51
180.0
  0
LINE
  5
B8AC
330
18
100
AcDbEntity
  8
01
  6
BYBLOCK
100
AcDbLine
 10
5134.768724362464
 20
-26.90226996795627
 30
0.0000000000563712
 11
5124.668724362464
 21
-26.90226996795627
 31
0.0000000000563712
  0
LINE
  5
B8AD
330
18
100
AcDbEntity
  8
01
  6
BYBLOCK
100
AcDbLine
 10
5124.168724362464
 20
-28.48094962439654
 30
0.0000000000563712
 11
5124.168724362464
 21
-28.10226996795609
 31
0.0000000000563712
  0
SPLINE
  5
B8AE
330
18
100
AcDbEntity
  8
01
  6
BYBLOCK
100
AcDbSpline
210
0.0
220
0.0
230
1.0
 70
     8
 71
     3
 72
     8
 73
     4
 74
     0
 42
0.0000000001
 43
0.0000000001
 40
0.0
 40
0.0
 40
0.0
 40
0.0
 40
1.0
 40
1.0
 40
1.0
 40
1.0
 10
5124.194456903728
 20
-28.75760005384564
 30
0.0000000000563712
 10
5124.176989017617
 20
-28.66451385796518
 30
0.0000000000563712
 10
5124.168724362464
 20
-28.57124784707366
 30
0.0000000000563712
 10
5124.168724362464
 20
-28.48094962439609
 30
0.0000000000563712
  0
ARC
  5
B8AF
330
18
100
AcDbEntity
  8
01
  6
BYBLOCK
100
AcDbCircle
 10
5125.668724362464
 20
-28.48094962439654
 30
0.0000000000563712
 40
1.499999999999998
100
AcDbArc
 50
190.628112987605
 51
225.000000000046
  0
LINE
  5
B8B0
330
18
100
AcDbEntity
  8
01
  6
BYBLOCK
100
AcDbLine
 10
5135.268724362464
 20
-26.05226996795614
 30
0.0000000000563712
 11
5134.768724362464
 21
-26.05226996795614
 31
0.0000000000563712
  0
LINE
  5
B8B1
330
18
100
AcDbEntity
  8
01
  6
BYBLOCK
100
AcDbLine
 10
5134.768724362464
 20
-39.75226996795618
 30
0.0000000000563712
 11
5135.268724362464
 21
-39.75226996795618
 31
0.0000000000563712
  0
LINE
  5
B8B2
330
18
100
AcDbEntity
  8
01
  6
BYBLOCK
100
AcDbLine
 10
5134.768724362464
 20
-39.75226996795618
 30
0.0000000000563712
 11
5134.768724362464
 21
-26.05226996795614
 31
0.0000000000563712
  0
LINE
  5
B8B3
330
18
100
AcDbEntity
  8
01
  6
BYBLOCK
100
AcDbLine
 10
5135.268724362464
 20
-20.50226996795618
 30
0.0000000000563712
 11
5136.768724362464
 21
-20.50226996795618
 31
0.0000000000563712
  0
LINE
  5
B8B4
330
18
100
AcDbEntity
  8
01
  6
BYBLOCK
100
AcDbLine
 10
5135.268724362464
 20
-45.30226996795614
 30
0.0000000000563712
 11
5136.768724362464
 21
-45.30226996795614
 31
0.0000000000563712
  0
LINE
  5
B8B5
330
18
100
AcDbEntity
  8
01
  6
BYBLOCK
100
AcDbLine
 10
5135.268724362464
 20
-45.30226996795614
 30
0.0000000000563712
 11
5135.268724362464
 21
-20.50226996795618
 31
0.0000000000563712
  0
LINE
  5
B8B6
330
18
100
AcDbEntity
  8
01
  6
BYBLOCK
100
AcDbLine
 10
5204.268724362464
 20
-40.60226996795632
 30
0.0000000000563712
 11
5139.268724362464
 21
-40.60226996795632
 31
0.0000000000563712
  0
LINE
  5
B8B7
330
18
100
AcDbEntity
  8
01
  6
BYBLOCK
100
AcDbLine
 10
5204.268724362464
 20
-42.20226996795623
 30
0.0000000000563712
 11
5153.868724362464
 21
-42.20226996795623
 31
0.0000000000563712
  0
LINE
  5
B8B8
330
18
100
AcDbEntity
  8
01
  6
BYBLOCK
100
AcDbLine
 10
5156.705982662666
 20
-42.20226996795623
 30
0.0000000000563712
 11
5139.268724362464
 21
-42.20226996795623
 31
0.0000000000563712
  0
LINE
  5
B8B9
330
18
100
AcDbEntity
  8
01
  6
BYBLOCK
100
AcDbLine
 10
5133.822277753057
 20
-38.75582335854961
 30
0.0000000000563712
 11
5124.608064190683
 21
-29.54160979617654
 31
0.0000000000563712
  0
ARC
  5
B8BA
330
18
100
AcDbEntity
  8
01
  6
BYBLOCK
100
AcDbCircle
 10
5134.17583114365
 20
-38.40226996795627
 30
0.0000000000563712
 40
0.5
100
AcDbArc
 50
224.9999999999908
 51
270.0
  0
LINE
  5
B8BB
330
18
100
AcDbEntity
  8
01
  6
BYBLOCK
100
AcDbLine
 10
5134.768724362464
 20
-38.90226996795627
 30
0.0000000000563712
 11
5134.17583114365
 21
-38.90226996795627
 31
0.0000000000563712
  0
LINE
  5
B8BD
330
18
100
AcDbEntity
  8
01
  6
BYBLOCK
100
AcDbLine
 10
5182.661595596352
 20
-252.9022699669276
 30
0.0000000000563712
 11
5186.267840180404
 21
-249.2960253828762
 31
0.0000000000563712
  0
LINE
  5
B8BE
330
18
100
AcDbEntity
  8
01
  6
BYBLOCK
100
AcDbLine
 10
5189.874084764455
 20
-252.9022699669276
 30
0.0000000000563712
 11
5186.267840180404
 21
-249.2960253828762
 31
0.0000000000563712
  0
LINE
  5
B8BF
330
18
100
AcDbEntity
  8
01
  6
BYBLOCK
100
AcDbLine
 10
5182.661595596352
 20
-252.9022699669276
 30
0.0000000000563712
 11
5186.267840180404
 21
-256.5085145509788
 31
0.0000000000563712
  0
LINE
  5
B8C0
330
18
100
AcDbEntity
  8
01
  6
BYBLOCK
100
AcDbLine
 10
5189.874084764455
 20
-252.9022699669276
 30
0.0000000000563712
 11
5186.267840180404
 21
-256.5085145509788
 31
0.0000000000563712
  0
LINE
  5
B8C1
330
18
100
AcDbEntity
  8
01
  6
BYBLOCK
100
AcDbLine
 10
5124.267840180404
 20
-271.8705996999115
 30
0.0000000000563712
 11
5124.267840180404
 21
-289.9339402339174
 31
0.0000000000563712
  0
LINE
  5
B8C2
330
18
100
AcDbEntity
  8
01
  6
BYBLOCK
100
AcDbLine
 10
5128.560733399217
 20
-270.9022699669144
 30
0.0000000000563712
 11
5135.267840180404
 21
-270.9022699669144
 31
0.0000000000563712
  0
LINE
  5
B8C3
330
18
100
AcDbEntity
  8
01
  6
BYBLOCK
100
AcDbLine
 10
5128.560733399217
 20
-290.9022699669144
 30
0.0000000000563712
 11
5135.267840180404
 21
-290.9022699669144
 31
0.0000000000563712
  0
LINE
  5
B8C4
330
18
100
AcDbEntity
  8
01
  6
BYBLOCK
100
AcDbLine
 10
5134.060733399217
 20
-275.6522699669144
 30
0.0000000000563712
 11
5134.060733399217
 21
-286.1522699669144
 31
0.0000000000563712
  0
ARC
  5
B8C5
330
18
100
AcDbEntity
  8
01
  6
BYBLOCK
100
AcDbCircle
 10
5128.560733399217
 20
-280.9022699669144
 30
0.0000000000563712
 40
10.00000000000009
100
AcDbArc
 50
53.13010235414377
 51
115.4224671781405
  0
ARC
  5
B8C6
330
18
100
AcDbEntity
  8
01
  6
BYBLOCK
100
AcDbCircle
 10
5128.560733399217
 20
-280.9022699669142
 30
0.0000000000563712
 40
10.00000000000009
100
AcDbArc
 50
244.5775328218595
 51
306.8698976458562
  0
LINE
  5
B8C7
330
18
100
AcDbEntity
  8
01
  6
BYBLOCK
100
AcDbLine
 10
5134.560733399217
 20
-272.9022699669144
 30
0.0000000000563712
 11
5134.560733399217
 21
-288.9022699669144
 31
0.0000000000563712
  0
LINE
  5
B8C8
330
18
100
AcDbEntity
  8
01
  6
BYBLOCK
100
AcDbLine
 10
5124.267840180404
 20
-275.6522699669144
 30
0.0000000000563712
 11
5134.060733399217
 21
-275.6522699669144
 31
0.0000000000563712
  0
LINE
  5
B8C9
330
18
100
AcDbEntity
  8
01
  6
BYBLOCK
100
AcDbLine
 10
5124.267840180404
 20
-286.1522699669144
 30
0.0000000000563712
 11
5134.060733399217
 21
-286.1522699669144
 31
0.0000000000563712
  0
LINE
  5
B8CA
330
18
100
AcDbEntity
  8
01
  6
BYBLOCK
100
AcDbLine
 10
5009.867956520149
 20
-217.0022699669282
 30
0.0000000000563712
 11
5022.667956520148
 21
-217.0022699669282
 31
0.0000000000563712
  0
LINE
  5
B8CB
330
18
100
AcDbEntity
  8
01
  6
BYBLOCK
100
AcDbLine
 10
5009.867956520149
 20
-346.8022699669282
 30
0.0000000000563712
 11
5022.667956520148
 21
-346.8022699669282
 31
0.0000000000563712
  0
LINE
  5
B8CC
330
18
100
AcDbEntity
  8
01
  6
BYBLOCK
100
AcDbLine
 10
5003.867956520149
 20
-223.0022699669282
 30
0.0000000000563712
 11
5003.867956520149
 21
-340.8022699669282
 31
0.0000000000563712
  0
LINE
  5
B8CD
330
18
100
AcDbEntity
  8
01
  6
BYBLOCK
100
AcDbLine
 10
5028.667956520148
 20
-223.0022699669282
 30
0.0000000000563712
 11
5028.667956520148
 21
-340.8022699669282
 31
0.0000000000563712
  0
ARC
  5
B8CE
330
18
100
AcDbEntity
  8
01
  6
BYBLOCK
100
AcDbCircle
 10
5009.867956520149
 20
-340.8022699669282
 30
0.0000000000563712
 40
6.0
100
AcDbArc
 50
180.0
 51
270.0
  0
ARC
  5
B8CF
330
18
100
AcDbEntity
  8
01
  6
BYBLOCK
100
AcDbCircle
 10
5022.667956520148
 20
-340.8022699669282
 30
0.0000000000563712
 40
6.0
100
AcDbArc
 50
270.0
 51
0.0
  0
ARC
  5
B8D0
330
18
100
AcDbEntity
  8
01
  6
BYBLOCK
100
AcDbCircle
 10
5009.867956520149
 20
-223.0022699669282
 30
0.0000000000563712
 40
6.0
100
AcDbArc
 50
90.0
 51
180.0
  0
ARC
  5
B8D1
330
18
100
AcDbEntity
  8
01
  6
BYBLOCK
100
AcDbCircle
 10
5022.667956520148
 20
-223.0022699669282
 30
0.0000000000563712
 40
6.0
100
AcDbArc
 50
0.0
 51
90.0
  0
CIRCLE
  5
B8D2
330
18
100
AcDbEntity
  8
01
  6
BYBLOCK
100
AcDbCircle
 10
5016.267956520149
 20
-338.9022699669281
 30
0.0000000000563712
 40
2.75
  0
CIRCLE
  5
B8D3
330
18
100
AcDbEntity
  8
01
  6
BYBLOCK
100
AcDbCircle
 10
5016.267956520149
 20
-338.9022699669281
 30
0.0000000000563712
 40
4.25
  0
CIRCLE
  5
B8D4
330
18
100
AcDbEntity
  8
01
  6
BYBLOCK
100
AcDbCircle
 10
5016.267956520149
 20
-224.9022699669283
 30
0.0000000000563712
 40
2.75
  0
CIRCLE
  5
B8D5
330
18
100
AcDbEntity
  8
01
  6
BYBLOCK
100
AcDbCircle
 10
5016.267956520149
 20
-224.9022699669283
 30
0.0000000000563712
 40
4.25
  0
LINE
  5
B8D6
330
18
100
AcDbEntity
  8
1CENTER
100
AcDbLine
 10
5022.142981928055
 20
-338.9022699669283
 30
0.0000000000563712
 11
5010.392931112243
 21
-338.9022699669283
 31
0.0000000000563712
  0
LINE
  5
B8D7
330
18
100
AcDbEntity
  8
1CENTER
100
AcDbLine
 10
5016.267956520149
 20
-333.0272445590219
 30
0.0000000000563712
 11
5016.267956520149
 21
-344.7772953748345
 31
0.0000000000563712
  0
LINE
  5
B8D8
330
18
100
AcDbEntity
  8
1CENTER
100
AcDbLine
 10
5022.142981928055
 20
-224.9022699669283
 30
0.0000000000563712
 11
5010.392931112243
 21
-224.9022699669283
 31
0.0000000000563712
  0
LINE
  5
B8D9
330
18
100
AcDbEntity
  8
1CENTER
100
AcDbLine
 10
5016.267956520149
 20
-219.0272445590219
 30
0.0000000000563712
 11
5016.267956520149
 21
-230.7772953748345
 31
0.0000000000563712
  0
ARC
  5
B8DA
330
18
100
AcDbEntity
  8
01
  6
BYBLOCK
100
AcDbCircle
 10
5016.267956520149
 20
-280.9022699669281
 30
0.0000000000563712
 40
10.15
100
AcDbArc
 50
231.9925780701383
 51
308.0074219298617
  0
LINE
  5
B8DB
330
18
100
AcDbEntity
  8
01
  6
BYBLOCK
100
AcDbLine
 10
5010.017956520149
 20
-272.9047703576753
 30
0.0000000000563712
 11
5010.017956520149
 21
-288.8997695761809
 31
0.0000000000563712
  0
LINE
  5
B8DC
330
18
100
AcDbEntity
  8
01
  6
BYBLOCK
100
AcDbLine
 10
5022.517956520149
 20
-272.9047703576753
 30
0.0000000000563712
 11
5022.517956520149
 21
-288.8997695761809
 31
0.0000000000563712
  0
ARC
  5
B8DD
330
18
100
AcDbEntity
  8
01
  6
BYBLOCK
100
AcDbCircle
 10
5016.267956520149
 20
-280.9022699669281
 30
0.0000000000563712
 40
10.15
100
AcDbArc
 50
51.99257807013829
 51
128.0074219298617
  0
LINE
  5
B8DE
330
18
100
AcDbEntity
  8
01
  6
BYBLOCK
100
AcDbLine
 10
5011.767956520149
 20
-275.6522699669281
 30
0.0000000000563712
 11
5011.767956520149
 21
-286.1522699669281
 31
0.0000000000563712
  0
LINE
  5
B8DF
330
18
100
AcDbEntity
  8
01
  6
BYBLOCK
100
AcDbLine
 10
5021.767956520149
 20
-275.6522699669281
 30
0.0000000000563712
 11
5021.767956520149
 21
-286.1522699669281
 31
0.0000000000563712
  0
LINE
  5
B8E0
330
18
100
AcDbEntity
  8
01
  6
BYBLOCK
100
AcDbLine
 10
5012.267956520149
 20
-271.5736848652098
 30
0.0000000000563712
 11
5012.267956520149
 21
-275.6522699669283
 31
0.0000000000563712
  0
LINE
  5
B8E1
330
18
100
AcDbEntity
  8
01
  6
BYBLOCK
100
AcDbLine
 10
5010.767956520149
 20
-275.6522699669283
 30
0.0000000000563712
 11
5010.767956520149
 21
-286.1522699669281
 31
0.0000000000563712
  0
LINE
  5
B8E2
330
18
100
AcDbEntity
  8
01
  6
BYBLOCK
100
AcDbLine
 10
5012.267956520149
 20
-286.1522699669281
 30
0.0000000000563712
 11
5012.267956520149
 21
-290.2308550686464
 31
0.0000000000563712
  0
LINE
  5
B8E3
330
18
100
AcDbEntity
  8
01
  6
BYBLOCK
100
AcDbLine
 10
5010.767956520149
 20
-275.6522699669281
 30
0.0000000000563712
 11
5021.767956520149
 21
-275.6522699669281
 31
0.0000000000563712
  0
LINE
  5
B8E4
330
18
100
AcDbEntity
  8
01
  6
BYBLOCK
100
AcDbLine
 10
5010.767956520149
 20
-286.1522699669281
 30
0.0000000000563712
 11
5021.767956520149
 21
-286.1522699669281
 31
0.0000000000563712
  0
LINE
  5
B8E8
330
18
100
AcDbEntity
  8
01
100
AcDbLine
 10
4996.268072859892
 20
-182.9022699669279
 30
0.0000000000563712
 11
4996.268072859892
 21
-372.9022699669281
 31
0.0000000000563712
  0
LINE
  5
B8F9
330
18
100
AcDbEntity
  8
01
100
AcDbLine
 10
5130.267840180692
 20
-338.9022699666389
 30
0.0000000000563712
 11
5144.267840180692
 21
-338.9022699666389
 31
0.0000000000563712
  0
LINE
  5
B8FA
330
18
100
AcDbEntity
  8
01
100
AcDbLine
 10
5197.579728447945
 20
-252.9022699669276
 30
0.0000000000563712
 11
5174.955951912862
 21
-252.9022699669276
 31
0.0000000000563712
  0
LINE
  5
B8FB
330
18
100
AcDbEntity
  8
01
100
AcDbLine
 10
5186.267840180404
 20
-241.5903816993859
 30
0.0000000000563712
 11
5186.267840180404
 21
-264.2141582344693
 31
0.0000000000563712
  0
LINE
  5
B8FC
330
18
100
AcDbEntity
  8
01
  6
BYBLOCK
100
AcDbLine
 10
4908.268072859893
 20
-271.8705996999115
 30
0.0000000000563712
 11
4908.268072859893
 21
-289.9339402339174
 31
0.0000000000563712
  0
LINE
  5
B8FD
330
18
100
AcDbEntity
  8
01
  6
BYBLOCK
100
AcDbLine
 10
4903.97517964108
 20
-270.9022699669144
 30
0.0000000000563712
 11
4897.268072859893
 21
-270.9022699669144
 31
0.0000000000563712
  0
LINE
  5
B8FE
330
18
100
AcDbEntity
  8
01
  6
BYBLOCK
100
AcDbLine
 10
4903.97517964108
 20
-290.9022699669144
 30
0.0000000000563712
 11
4897.268072859893
 21
-290.9022699669144
 31
0.0000000000563712
  0
ARC
  5
B8FF
330
18
100
AcDbEntity
  8
01
  6
BYBLOCK
100
AcDbCircle
 10
4903.97517964108
 20
-280.9022699669144
 30
0.0000000000563712
 40
10.00000000000009
100
AcDbArc
 50
64.57753282185949
 51
90.0
  0
LINE
  5
B900
330
18
100
AcDbEntity
  8
01
  6
CONTINUOUS
100
AcDbLine
 10
4907.768072859893
 20
-289.2170641597452
 30
0.0000000000563712
 11
4897.268072859893
 21
-289.2170641597452
 31
0.0000000000563712
  0
ARC
  5
B901
330
18
100
AcDbEntity
  8
01
  6
CONTINUOUS
100
AcDbCircle
 10
4907.806653106807
 20
-288.7549249289384
 30
0.0000000000563712
 40
0.4637468103423796
100
AcDbArc
 50
265.2279066161985
 51
354.2577450626174
  0
LINE
  5
B902
330
18
100
AcDbEntity
  8
01
  6
CONTINUOUS
100
AcDbLine
 10
4908.268072859893
 20
-273.4189551933664
 30
0.0000000000563712
 11
4908.268072859893
 21
-288.3855847404623
 31
0.0000000000563712
  0
ARC
  5
B903
330
18
100
AcDbEntity
  8
01
  6
CONTINUOUS
100
AcDbCircle
 10
4907.806653106807
 20
-273.04961500489
 30
0.0000000000563712
 40
0.4637468103423387
100
AcDbArc
 50
5.742254937382608
 51
94.77209338380148
  0
ARC
  5
B904
330
18
100
AcDbEntity
  8
01
  6
BYBLOCK
100
AcDbCircle
 10
4903.97517964108
 20
-280.9022699669142
 30
0.0000000000563712
 40
10.00000000000009
100
AcDbArc
 50
270.0
 51
295.4224671781406
  0
LINE
  5
B905
330
18
100
AcDbEntity
  8
01
  6
CONTINUOUS
100
AcDbLine
 10
4897.268072859893
 20
-272.5874757740833
 30
0.0000000000563712
 11
4907.768072859893
 21
-272.5874757740833
 31
0.0000000000563712
  0
LINE
  5
B906
330
18
100
AcDbEntity
  8
01
100
AcDbLine
 10
5204.267840180404
 20
-276.4022699669295
 30
0.0000000000563712
 11
5204.267840180404
 21
-299.7522699669275
 31
0.0000000000563712
  0
LINE
  5
B909
330
18
100
AcDbEntity
  8
01
100
AcDbLine
 10
5204.267840180404
 20
-306.0522699669275
 30
0.0000000000563712
 11
5204.267840180404
 21
-317.7022699669276
 31
0.0000000000563712
  0
LINE
  5
B90A
330
18
100
AcDbEntity
  8
01
100
AcDbLine
 10
5204.267840180404
 20
-317.9022699669276
 30
0.0000000000563712
 11
5204.267840180404
 21
-306.0522699669275
 31
0.0000000000563712
  0
ARC
  5
B90B
330
18
100
AcDbEntity
  8
01
100
AcDbCircle
 10
5203.267840180404
 20
-317.9022699669276
 30
0.0000000000563712
 40
1.0
100
AcDbArc
 50
270.0
 51
0.0
  0
LINE
  5
B90C
330
18
100
AcDbEntity
  8
01
100
AcDbLine
 10
5204.267840180406
 20
-276.4022699669295
 30
0.0000000000563712
 11
5204.267840180406
 21
-299.2522699669275
 31
0.0000000000563712
  0
LINE
  5
B910
330
18
100
AcDbEntity
  8
01
100
AcDbLine
 10
5159.767840180408
 20
-318.9022699669276
 30
0.0000000000563712
 11
5203.267840180404
 21
-318.9022699669274
 31
0.0000000000563712
  0
LINE
  5
B91A
330
18
100
AcDbEntity
  8
01
100
AcDbLine
 10
5186.267840180404
 20
-272.9022699669276
 30
0.0000000000563712
 11
5186.267840180404
 21
-332.9022699669276
 31
0.0000000000563712
  0
LINE
  5
B920
330
18
100
AcDbEntity
  8
01
  6
BYBLOCK
100
AcDbLine
 10
5204.267840180404
 20
-245.9022699669276
 30
0.0000000000563712
 11
5204.267840180404
 21
-267.4022697628004
 31
0.0000000000563712
  0
LINE
  5
B921
330
18
100
AcDbEntity
  8
01
  6
BYBLOCK
100
AcDbLine
 10
5137.967840180403
 20
-244.9022699669276
 30
0.0000000000563712
 11
5166.267840180406
 21
-244.9022699669276
 31
0.0000000000563712
  0
LINE
  5
B922
330
18
100
AcDbEntity
  8
01
  6
BYBLOCK
100
AcDbLine
 10
5166.267840180406
 20
-244.9022699669276
 30
0.0000000000563712
 11
5203.267840180404
 21
-244.9022699669276
 31
0.0000000000563712
  0
LINE
  5
B923
330
18
100
AcDbEntity
  8
01
  6
BYBLOCK
100
AcDbLine
 10
5204.267840180406
 20
-267.4022697628004
 30
0.0000000000563712
 11
5204.267840180406
 21
-276.4022699669295
 31
0.0000000000563712
  0
LINE
  5
B924
330
18
100
AcDbEntity
  8
01
100
AcDbLine
 10
4902.268072859893
 20
-224.9022699669276
 30
0.0000000000563712
 11
4888.268072859893
 21
-224.9022699669276
 31
0.0000000000563712
  0
LINE
  5
B925
330
18
100
AcDbEntity
  8
01
  6
BYBLOCK
100
AcDbLine
 10
4895.768072859893
 20
-217.0022699669275
 30
0.0000000000563712
 11
4895.768072859893
 21
-346.8022699669275
 31
0.0000000000563712
  0
LINE
  5
B926
330
18
100
AcDbEntity
  8
01
  6
BYBLOCK
100
AcDbLine
 10
4895.768072859893
 20
-345.9022699669276
 30
0.0000000000563712
 11
4893.268072859893
 21
-345.9022699669276
 31
0.0000000000563712
  0
LINE
  5
B927
330
18
100
AcDbEntity
  8
01
  6
BYBLOCK
100
AcDbLine
 10
4893.268072859893
 20
-345.9022699669276
 30
0.0000000000563712
 11
4893.268072859893
 21
-329.3993262417753
 31
0.0000000000563712
  0
LINE
  5
B928
330
18
100
AcDbEntity
  8
01
  6
BYBLOCK
100
AcDbLine
 10
4897.268072859893
 20
-217.0022699669275
 30
0.0000000000563712
 11
4897.268072859893
 21
-346.8022699669275
 31
0.0000000000563712
  0
LINE
  5
B929
330
18
100
AcDbEntity
  8
01
  6
BYBLOCK
100
AcDbLine
 10
4897.268072859893
 20
-346.8022699669275
 30
0.0000000000563712
 11
4895.768072859893
 21
-346.8022699669275
 31
0.0000000000563712
  0
LINE
  5
B92A
330
18
100
AcDbEntity
  8
01
  6
BYBLOCK
100
AcDbLine
 10
4895.768072859893
 20
-217.9022699669276
 30
0.0000000000563712
 11
4893.268072859893
 21
-217.9022699669276
 31
0.0000000000563712
  0
LINE
  5
B92B
330
18
100
AcDbEntity
  8
01
  6
BYBLOCK
100
AcDbLine
 10
4897.268072859893
 20
-217.0022699669275
 30
0.0000000000563712
 11
4895.768072859893
 21
-217.0022699669275
 31
0.0000000000563712
  0
LINE
  5
B92C
330
18
100
AcDbEntity
  8
01
  6
BYBLOCK
100
AcDbLine
 10
4895.768072859893
 20
-241.9022699669276
 30
0.0000000000563712
 11
4894.568072859893
 21
-241.9022699669276
 31
0.0000000000563712
  0
ARC
  5
B92D
330
18
100
AcDbEntity
  8
01
  6
BYBLOCK
100
AcDbCircle
 10
4829.268072859893
 20
-245.9022699669276
 30
0.0000000000563712
 40
1.0
100
AcDbArc
 50
90.0
 51
180.0
  0
LINE
  5
B92E
330
18
100
AcDbEntity
  8
01
  6
BYBLOCK
100
AcDbLine
 10
4894.568072859893
 20
-236.2022699669274
 30
0.0000000000563712
 11
4894.568072859893
 21
-327.6022699669275
 31
0.0000000000563712
  0
LINE
  5
B92F
330
18
100
AcDbEntity
  8
01
  6
BYBLOCK
100
AcDbLine
 10
4894.468072859892
 20
-345.9022699669276
 30
0.0000000000563712
 11
4894.468072859892
 21
-329.3022699669275
 31
0.0000000000563712
  0
LINE
  5
B930
330
18
100
AcDbEntity
  8
01
  6
BYBLOCK
100
AcDbLine
 10
4894.468072859892
 20
-329.3022699669275
 30
0.0000000000563712
 11
4895.416600997318
 21
-328.3537418295036
 31
0.0000000000563712
  0
LINE
  5
B931
330
18
100
AcDbEntity
  8
01
  6
BYBLOCK
100
AcDbLine
 10
4893.619544722469
 20
-328.5507981043513
 30
0.0000000000563712
 11
4894.568072859893
 21
-327.6022699669275
 31
0.0000000000563712
  0
ARC
  5
B932
330
18
100
AcDbEntity
  8
01
  6
BYBLOCK
100
AcDbCircle
 10
4894.468072859892
 20
-329.3993262417753
 30
0.0000000000563712
 40
1.2
100
AcDbArc
 50
134.9999999999516
 51
180.0
  0
ARC
  5
B933
330
18
100
AcDbEntity
  8
01
  6
BYBLOCK
100
AcDbCircle
 10
4894.568072859893
 20
-327.5052136920797
 30
0.0000000000563712
 40
1.2
100
AcDbArc
 50
314.9999999999516
 51
0.0
  0
LINE
  5
B934
330
18
100
AcDbEntity
  8
01
  6
BYBLOCK
100
AcDbLine
 10
4893.268072859893
 20
-217.9022699669276
 30
0.0000000000563712
 11
4893.268072859893
 21
-234.4052136920798
 31
0.0000000000563712
  0
LINE
  5
B935
330
18
100
AcDbEntity
  8
01
  6
BYBLOCK
100
AcDbLine
 10
4894.468072859892
 20
-217.9022699669276
 30
0.0000000000563712
 11
4894.468072859892
 21
-234.5022699669275
 31
0.0000000000563712
  0
LINE
  5
B936
330
18
100
AcDbEntity
  8
01
  6
BYBLOCK
100
AcDbLine
 10
4894.468072859892
 20
-234.5022699669275
 30
0.0000000000563712
 11
4895.416600997318
 21
-235.4507981043514
 31
0.0000000000563712
  0
LINE
  5
B937
330
18
100
AcDbEntity
  8
01
  6
BYBLOCK
100
AcDbLine
 10
4893.619544722469
 20
-235.2537418295037
 30
0.0000000000563712
 11
4894.568072859893
 21
-236.2022699669276
 31
0.0000000000563712
  0
ARC
  5
B938
330
18
100
AcDbEntity
  8
01
  6
BYBLOCK
100
AcDbCircle
 10
4894.468072859892
 20
-234.4052136920798
 30
0.0000000000563712
 40
1.2
100
AcDbArc
 50
180.0
 51
225.0000000000484
  0
ARC
  5
B939
330
18
100
AcDbEntity
  8
01
  6
BYBLOCK
100
AcDbCircle
 10
4894.568072859893
 20
-236.2993262417754
 30
0.0000000000563712
 40
1.2
100
AcDbArc
 50
0.0
 51
45.00000000004836
  0
CIRCLE
  5
B93A
330
18
100
AcDbEntity
  8
01
  6
BYBLOCK
100
AcDbCircle
 10
4846.268072859893
 20
-252.9022699669276
 30
0.0000000000563712
 40
4.75
  0
LINE
  5
B93B
330
18
100
AcDbEntity
  8
01
  6
BYBLOCK
100
AcDbLine
 10
4895.768072859893
 20
-318.9022699669278
 30
0.0000000000563712
 11
4872.76807285989
 21
-318.9022699669276
 31
0.0000000000563712
  0
LINE
  5
B93C
330
18
100
AcDbEntity
  8
01
  6
BYBLOCK
100
AcDbLine
 10
4849.874317443944
 20
-252.9022699669276
 30
0.0000000000563712
 11
4846.268072859893
 21
-249.2960253828762
 31
0.0000000000563712
  0
LINE
  5
B93D
330
18
100
AcDbEntity
  8
01
  6
BYBLOCK
100
AcDbLine
 10
4842.661828275841
 20
-252.9022699669276
 30
0.0000000000563712
 11
4846.268072859893
 21
-249.2960253828762
 31
0.0000000000563712
  0
LINE
  5
B93E
330
18
100
AcDbEntity
  8
01
  6
BYBLOCK
100
AcDbLine
 10
4849.874317443944
 20
-252.9022699669276
 30
0.0000000000563712
 11
4846.268072859893
 21
-256.5085145509788
 31
0.0000000000563712
  0
LINE
  5
B93F
330
18
100
AcDbEntity
  8
01
  6
BYBLOCK
100
AcDbLine
 10
4842.661828275841
 20
-252.9022699669276
 30
0.0000000000563712
 11
4846.268072859893
 21
-256.5085145509788
 31
0.0000000000563712
  0
LINE
  5
B940
330
18
100
AcDbEntity
  8
01
  6
BYBLOCK
100
AcDbLine
 10
4908.268072859893
 20
-271.8705996999115
 30
0.0000000000563712
 11
4908.268072859893
 21
-289.9339402339174
 31
0.0000000000563712
  0
LINE
  5
B941
330
18
100
AcDbEntity
  8
01
  6
BYBLOCK
100
AcDbLine
 10
4903.97517964108
 20
-270.9022699669144
 30
0.0000000000563712
 11
4897.268072859893
 21
-270.9022699669144
 31
0.0000000000563712
  0
LINE
  5
B942
330
18
100
AcDbEntity
  8
01
  6
BYBLOCK
100
AcDbLine
 10
4903.97517964108
 20
-290.9022699669144
 30
0.0000000000563712
 11
4897.268072859893
 21
-290.9022699669144
 31
0.0000000000563712
  0
LINE
  5
B943
330
18
100
AcDbEntity
  8
01
100
AcDbLine
 10
4902.268072859606
 20
-338.9022699666389
 30
0.0000000000563712
 11
4888.268072859606
 21
-338.9022699666389
 31
0.0000000000563712
  0
LINE
  5
B946
330
18
100
AcDbEntity
  8
01
  6
BYBLOCK
100
AcDbLine
 10
4828.268072859893
 20
-245.9022699669276
 30
0.0000000000563712
 11
4828.268072859893
 21
-276.4022699669295
 31
0.0000000000563712
  0
LINE
  5
B947
330
18
100
AcDbEntity
  8
01
  6
BYBLOCK
100
AcDbLine
 10
4894.568072859893
 20
-244.9022699669276
 30
0.0000000000563712
 11
4866.268072859892
 21
-244.9022699669276
 31
0.0000000000563712
  0
LINE
  5
B948
330
18
100
AcDbEntity
  8
01
  6
BYBLOCK
100
AcDbLine
 10
4866.268072859892
 20
-244.9022699669276
 30
0.0000000000563712
 11
4829.268072859893
 21
-244.9022699669276
 31
0.0000000000563712
  0
TEXT
  5
B94A
330
18
100
AcDbEntity
  8
1TEXT
100
AcDbText
 10
4828.267972520149
 20
-21.40226996692763
 30
0.0
 40
20.0
  1
1-TET-X-LJ-2
100
AcDbText
  0
LINE
  5
C1D2
330
18
100
AcDbEntity
  8
01
100
AcDbLine
 10
5186.267840180404
 20
-272.9009516538244
 30
0.0000000000563712
 11
5186.267840180404
 21
-332.9009516538244
 31
0.0000000000563712
  0
LINE
  5
C1D3
330
18
100
AcDbEntity
  8
1DIM
100
AcDbLine
 10
4835.388079318566
 20
-82.90226996692763
 30
0.0000000000563712
 11
4992.888079318567
 21
-82.90226996692763
 31
0.0000000000563712
  0
TEXT
  5
C1D5
330
18
100
AcDbEntity
  8
1TEXT
100
AcDbText
 10
4890.088079318568
 20
-59.65226996692763
 30
0.0
 40
6.0
  1
表面処理：握り
 72
     1
 11
4913.988079318568
 21
-59.65226996692763
 31
0.0
100
AcDbText
  0
TEXT
  5
C1D6
330
18
100
AcDbEntity
  8
1TEXT
100
AcDbText
 10
4889.188079318567
 20
-69.90520295621445
 30
0.0
 40
6.0
  1
サテンニッケル
 72
     1
 11
4913.988079318568
 21
-69.90520295621445
 31
0.0
100
AcDbText
  0
LINE
  5
C1D7
330
18
100
AcDbEntity
  8
1DIM
100
AcDbLine
 10
4835.388079318566
 20
-51.40226996692763
 30
0.0000000000563712
 11
4992.888079318567
 21
-51.40226996692763
 31
0.0000000000563712
  0
LINE
  5
C1D8
330
18
100
AcDbEntity
  8
1DIM
100
AcDbLine
 10
4835.388079318566
 20
-61.90226996692763
 30
0.0000000000563712
 11
4992.888079318567
 21
-61.90226996692763
 31
0.0000000000563712
  0
LINE
  5
C1D9
330
18
100
AcDbEntity
  8
1DIM
100
AcDbLine
 10
4835.388079318566
 20
-72.40226996692763
 30
0.0000000000563712
 11
4992.888079318567
 21
-72.40226996692763
 31
0.0000000000563712
  0
LINE
  5
C1DA
330
18
100
AcDbEntity
  8
1DIM
100
AcDbLine
 10
4835.388079318566
 20
-72.40226996692763
 30
0.0000000000563712
 11
4992.888079318567
 21
-72.40226996692763
 31
0.0000000000563712
  0
LINE
  5
C1DB
330
18
100
AcDbEntity
  8
1DIM
100
AcDbLine
 10
4940.388079318567
 20
-51.40226996692763
 30
0.0000000000563712
 11
4940.388079318567
 21
-82.90226996692765
 31
0.0000000000563712
  0
TEXT
  5
C1DC
330
18
100
AcDbEntity
  8
1TEXT
100
AcDbText
 10
4944.288079318568
 20
-70.4738054424015
 30
0.0
 40
6.0
  1
1-TET-CN-LJ-2
 41
0.6
 72
     1
 11
4966.488079318568
 21
-70.4738054424015
 31
0.0
100
AcDbText
  0
TEXT
  5
C1DD
330
18
100
AcDbEntity
  8
1TEXT
100
AcDbText
 10
4956.188079318567
 20
-59.65226996692763
 30
0.0
 40
6.0
  1
コード
 72
     1
 11
4966.488079318568
 21
-59.65226996692763
 31
0.0
100
AcDbText
  0
TEXT
  5
C1DF
330
18
100
AcDbEntity
  8
1TEXT
100
AcDbText
 10
4889.688079318567
 20
-80.36864038428394
 30
0.0
 40
6.0
  1
ダークアンバー
 72
     1
 11
4913.988079318568
 21
-80.36864038428394
 31
0.0
100
AcDbText
  0
LINE
  5
C1E1
330
18
100
AcDbEntity
  8
1DIM
100
AcDbLine
 10
4992.888079318567
 20
-82.90226996692765
 30
0.0000000000563712
 11
4992.888079318567
 21
-51.40226996692763
 31
0.0000000000563712
  0
TEXT
  5
C1E3
330
18
100
AcDbEntity
  8
1TEXT
100
AcDbText
 10
4942.488079318568
 20
-80.9738054424015
 30
0.0
 40
6.0
  1
1-TET-N4Q-LJ-2
 41
0.6
 72
     1
 11
4966.488079318568
 21
-80.9738054424015
 31
0.0
100
AcDbText
  0
LINE
  5
C3F7
330
18
100
AcDbEntity
  8
01
100
AcDbLine
 10
5156.267840180404
 20
-302.9009516538244
 30
0.0000000000563712
 11
5216.267840180404
 21
-302.9009516538244
 31
0.0000000000563712
  0
LINE
  5
C3F8
330
18
100
AcDbEntity
  8
01
100
AcDbLine
 10
5186.267840180404
 20
-272.9009516538244
 30
0.0000000000563712
 11
5186.267840180404
 21
-332.9009516538244
 31
0.0000000000563712
  0
LINE
  5
CB10
330
18
100
AcDbEntity
  8
01
100
AcDbLine
 10
4996.268072859893
 20
-329.4035882800299
 30
0.0000000000563712
 11
4996.268072859893
 21
-276.4035882800326
 31
0.0000000000563712
  0
LINE
  5
CB11
330
18
100
AcDbEntity
  8
01
100
AcDbLine
 10
4987.768072859893
 20
-328.9035882800299
 30
0.0000000000563712
 11
4987.768072859893
 21
-276.9035882800326
 31
0.0000000000563712
  0
LINE
  5
CB12
330
18
100
AcDbEntity
  8
01
100
AcDbLine
 10
4996.268072859893
 20
-276.4035882800326
 30
0.0000000000563712
 11
4988.268072859893
 21
-276.4035882800326
 31
0.0000000000563712
  0
LINE
  5
CB13
330
18
100
AcDbEntity
  8
01
100
AcDbLine
 10
4996.268072859893
 20
-329.4035882800299
 30
0.0000000000563712
 11
4988.268072859893
 21
-329.4035882800299
 31
0.0000000000563712
  0
ARC
  5
CB14
330
18
100
AcDbEntity
  8
01
100
AcDbCircle
 10
4988.268072859893
 20
-328.9035882800299
 30
0.0000000000563712
 40
0.5
100
AcDbArc
 50
180.0
 51
270.0
  0
ARC
  5
CB15
330
18
100
AcDbEntity
  8
01
100
AcDbCircle
 10
4988.268072859893
 20
-276.9035882800326
 30
0.0000000000563712
 40
0.5
100
AcDbArc
 50
90.0
 51
180.0
  0
LINE
  5
CB16
330
18
100
AcDbEntity
  8
01
100
AcDbLine
 10
5159.767840180408
 20
-12.90358828105946
 30
0.0000000000563712
 11
5212.767840180404
 21
-12.90358828105946
 31
0.0000000000563712
  0
LINE
  5
CB17
330
18
100
AcDbEntity
  8
01
100
AcDbLine
 10
5160.267840180408
 20
-4.403588281059456
 30
0.0000000000563712
 11
5212.267840180404
 21
-4.403588281059456
 31
0.0000000000563712
  0
LINE
  5
CB18
330
18
100
AcDbEntity
  8
01
100
AcDbLine
 10
5212.767840180404
 20
-12.90358828105946
 30
0.0000000000563712
 11
5212.767840180404
 21
-4.903588281059456
 31
0.0000000000563712
  0
LINE
  5
CB19
330
18
100
AcDbEntity
  8
01
100
AcDbLine
 10
5159.767840180408
 20
-12.90358828105946
 30
0.0000000000563712
 11
5159.767840180408
 21
-4.903588281059456
 31
0.0000000000563712
  0
ARC
  5
CB1A
330
18
100
AcDbEntity
  8
01
100
AcDbCircle
 10
5160.267840180408
 20
-4.903588281059456
 30
0.0000000000563712
 40
0.5
100
AcDbArc
 50
90.0
 51
180.0
  0
ARC
  5
CB1B
330
18
100
AcDbEntity
  8
01
100
AcDbCircle
 10
5212.267840180404
 20
-4.903588281059456
 30
0.0000000000563712
 40
0.5
100
AcDbArc
 50
0.0
 51
90.0
  0
LINE
  5
CB1C
330
18
100
AcDbEntity
  8
01
100
AcDbLine
 10
5186.267956520147
 20
-47.90358828105946
 30
0.0000000000563712
 11
5186.267956520147
 21
-74.40358828105946
 31
0.0000000000563712
  0
LINE
  5
CB22
330
18
100
AcDbEntity
  8
1CENTER
100
AcDbLine
 10
5050.767840180404
 20
-317.9022699669276
 30
0.0000000000563712
 11
5050.767840180404
 21
-309.9022699669276
 31
0.0000000000563712
  0
LINE
  5
CB23
330
18
100
AcDbEntity
  8
01
100
AcDbLine
 10
5156.267840180404
 20
-302.9022699669276
 30
0.0000000000563712
 11
5216.267840180404
 21
-302.9022699669276
 31
0.0000000000563712
  0
LINE
  5
CB24
330
18
100
AcDbEntity
  8
01
100
AcDbLine
 10
5186.267840180404
 20
-272.9022699669276
 30
0.0000000000563712
 11
5186.267840180404
 21
-332.9022699669276
 31
0.0000000000563712
  0
LINE
  5
CB26
330
18
100
AcDbEntity
  8
01
100
AcDbLine
 10
5212.267840180404
 20
-276.4022699669295
 30
0.0000000000563712
 11
5160.267840180408
 21
-276.4022699669295
 31
0.0000000000563712
  0
LINE
  5
CB27
330
18
100
AcDbEntity
  8
01
100
AcDbLine
 10
5160.267840180408
 20
-329.4022699669295
 30
0.0000000000563712
 11
5212.267840180404
 21
-329.4022699669295
 31
0.0000000000563712
  0
LINE
  5
CB28
330
18
100
AcDbEntity
  8
01
100
AcDbLine
 10
5159.767840180408
 20
-276.9022699669295
 30
0.0000000000563712
 11
5159.767840180408
 21
-328.9022699669295
 31
0.0000000000563712
  0
ARC
  5
CB29
330
18
100
AcDbEntity
  8
01
100
AcDbCircle
 10
5160.267840180408
 20
-328.9022699669295
 30
0.0000000000563712
 40
0.5
100
AcDbArc
 50
180.0
 51
270.0
  0
ARC
  5
CB2A
330
18
100
AcDbEntity
  8
01
100
AcDbCircle
 10
5160.267840180408
 20
-276.9022699669295
 30
0.0000000000563712
 40
0.5
100
AcDbArc
 50
90.0
 51
180.0
  0
LINE
  5
CB2B
330
18
100
AcDbEntity
  8
01
100
AcDbLine
 10
5212.767840180404
 20
-276.9022699669295
 30
0.0000000000563712
 11
5212.767840180404
 21
-290.9019401971536
 31
0.0000000000563712
  0
LINE
  5
CB2C
330
18
100
AcDbEntity
  8
01
100
AcDbLine
 10
5212.767840180404
 20
-310.6965713699478
 30
0.0000000000563712
 11
5212.767840180404
 21
-328.9022699669295
 31
0.0000000000563712
  0
ARC
  5
CB2D
330
18
100
AcDbEntity
  8
01
100
AcDbCircle
 10
5212.267840180404
 20
-328.9022699669295
 30
0.0000000000563712
 40
0.5
100
AcDbArc
 50
270.0
 51
0.0
  0
ARC
  5
CB2E
330
18
100
AcDbEntity
  8
01
100
AcDbCircle
 10
5212.267840180404
 20
-276.9022699669295
 30
0.0000000000563712
 40
0.5
100
AcDbArc
 50
0.0
 51
90.0
  0
LINE
  5
CB2F
330
18
100
AcDbEntity
  8
01
100
AcDbLine
 10
5159.767956520151
 20
-52.90358828105946
 30
0.0000000000563712
 11
5212.767956520147
 21
-52.90358828105946
 31
0.0000000000563712
  0
LINE
  5
CB30
330
18
100
AcDbEntity
  8
01
100
AcDbLine
 10
5160.267956520151
 20
-61.40358828105946
 30
0.0000000000563712
 11
5212.267956520147
 21
-61.40358828105946
 31
0.0000000000563712
  0
LINE
  5
CB31
330
18
100
AcDbEntity
  8
01
100
AcDbLine
 10
5212.767956520147
 20
-52.90358828105946
 30
0.0000000000563712
 11
5212.767956520147
 21
-60.90358828105946
 31
0.0000000000563712
  0
LINE
  5
CB32
330
18
100
AcDbEntity
  8
01
100
AcDbLine
 10
5159.767956520151
 20
-52.90358828105946
 30
0.0000000000563712
 11
5159.767956520151
 21
-60.90358828105946
 31
0.0000000000563712
  0
ARC
  5
CB33
330
18
100
AcDbEntity
  8
01
100
AcDbCircle
 10
5160.267956520151
 20
-60.90358828105946
 30
0.0000000000563712
 40
0.5
100
AcDbArc
 50
180.0
 51
270.0
  0
ARC
  5
CB34
330
18
100
AcDbEntity
  8
01
100
AcDbCircle
 10
5212.267956520147
 20
-60.90358828105946
 30
0.0000000000563712
 40
0.5
100
AcDbArc
 50
270.0
 51
0.0
  0
LINE
  5
CB35
330
18
100
AcDbEntity
  8
01
100
AcDbLine
 10
5036.267840180404
 20
-329.4022699669267
 30
0.0000000000563712
 11
5036.267840180404
 21
-276.4022699669295
 31
0.0000000000563712
  0
LINE
  5
CB36
330
18
100
AcDbEntity
  8
01
100
AcDbLine
 10
5044.767840180404
 20
-328.9022699669267
 30
0.0000000000563712
 11
5044.767840180404
 21
-276.9022699669295
 31
0.0000000000563712
  0
LINE
  5
CB37
330
18
100
AcDbEntity
  8
01
100
AcDbLine
 10
5036.267840180404
 20
-276.4022699669295
 30
0.0000000000563712
 11
5044.267840180404
 21
-276.4022699669295
 31
0.0000000000563712
  0
LINE
  5
CB38
330
18
100
AcDbEntity
  8
01
100
AcDbLine
 10
5036.267840180404
 20
-329.4022699669267
 30
0.0000000000563712
 11
5044.267840180404
 21
-329.4022699669267
 31
0.0000000000563712
  0
ARC
  5
CB39
330
18
100
AcDbEntity
  8
01
100
AcDbCircle
 10
5044.267840180404
 20
-328.9022699669267
 30
0.0000000000563712
 40
0.5
100
AcDbArc
 50
270.0
 51
0.0
  0
ARC
  5
CB3A
330
18
100
AcDbEntity
  8
01
100
AcDbCircle
 10
5044.267840180404
 20
-276.9022699669295
 30
0.0000000000563712
 40
0.5
100
AcDbArc
 50
0.0
 51
90.0
  0
LINE
  5
CB3B
330
18
100
AcDbEntity
  8
01
100
AcDbLine
 10
5174.267956520147
 20
-62.10358828105927
 30
0.0000000000563712
 11
5173.267956520147
 21
-62.10358828105927
 31
0.0000000000563712
  0
LINE
  5
CB3C
330
18
100
AcDbEntity
  8
01
100
AcDbLine
 10
5173.267956520147
 20
-62.10358828105927
 30
0.0000000000563712
 11
5173.267956520147
 21
-115.1035882810593
 31
0.0000000000563712
  0
LINE
  5
CB3D
330
18
100
AcDbEntity
  8
01
100
AcDbLine
 10
5173.267956520147
 20
-115.1035882810593
 30
0.0000000000563712
 11
5173.267956520147
 21
-117.1035882810593
 31
0.0000000000563712
  0
ARC
  5
CB3E
330
18
100
AcDbEntity
  8
01
100
AcDbCircle
 10
5174.267956520147
 20
-117.1035882810593
 30
0.0000000000563712
 40
1.000000000022837
100
AcDbArc
 50
180.0
 51
270.0
  0
LINE
  5
CB3F
330
18
100
AcDbEntity
  8
01
100
AcDbLine
 10
5199.267956520147
 20
-62.10358828105927
 30
0.0000000000563712
 11
5198.267956520147
 21
-62.10358828105927
 31
0.0000000000563712
  0
LINE
  5
CB40
330
18
100
AcDbEntity
  8
01
100
AcDbLine
 10
5199.267956676053
 20
-88.10358837112881
 30
0.0000000000563712
 11
5199.267956520147
 21
-62.10358828105927
 31
0.0000000000563712
  0
LINE
  5
CB41
330
18
100
AcDbEntity
  8
01
100
AcDbLine
 10
5198.267956520147
 20
-62.10358828105927
 30
0.0000000000563712
 11
5174.267956520147
 21
-62.10358828105927
 31
0.0000000000563712
  0
LINE
  5
CB42
330
18
100
AcDbEntity
  8
01
100
AcDbLine
 10
5174.267956520147
 20
-118.1035882810593
 30
0.0000000000563712
 11
5177.267956520147
 21
-118.1035882810593
 31
0.0000000000563712
  0
ARC
  5
CB43
330
18
100
AcDbEntity
  8
01
100
AcDbCircle
 10
5177.267956520147
 20
-117.1035882810593
 30
0.0000000000563712
 40
1.000000000000152
100
AcDbArc
 50
270.0
 51
0.0
  0
LINE
  5
CB44
330
18
100
AcDbEntity
  8
01
100
AcDbLine
 10
5178.267956520147
 20
-117.1035882810593
 30
0.0000000000563712
 11
5178.267956520147
 21
-116.5988197021538
 31
0.0000000000563712
  0
LINE
  5
CB45
330
18
100
AcDbEntity
  8
01
100
AcDbLine
 10
5177.267956520147
 20
-118.1035882810593
 30
0.0000000000563712
 11
5178.649922531397
 21
-118.1035882810593
 31
0.0000000000563712
  0
ARC
  5
CB46
330
18
100
AcDbEntity
  8
01
100
AcDbCircle
 10
5203.267956520147
 20
-88.10358828105927
 30
0.0000000000563712
 40
3.999999999999571
100
AcDbArc
 50
227.7212290000174
 51
241.0449756281532
  0
ARC
  5
CB47
330
18
100
AcDbEntity
  8
01
100
AcDbCircle
 10
5203.268035520146
 20
-88.10355828105912
 30
0.0000000000563712
 40
4.000078844206927
100
AcDbArc
 50
180.0004309999861
 51
221.8098840000209
  0
SPLINE
  5
CB48
330
18
100
AcDbEntity
  8
01
100
AcDbSpline
210
0.0
220
0.0
230
1.0
 70
     8
 71
     3
 72
    15
 73
    11
 74
     0
 42
0.0000000001
 43
0.0000000001
 40
0.0
 40
0.0
 40
0.0
 40
0.0
 40
0.023299996409835
 40
0.046722705474904
 40
0.093957070019804
 40
0.19010103315497
 40
0.288693819584109
 40
0.338992080854447
 40
0.3644020684411591
 40
0.3899887616986549
 40
0.3899887616986549
 40
0.3899887616986549
 40
0.3899887616986549
 10
5200.577002745569
 20
-91.06311010948957
 30
0.0000000000563712
 10
5200.570612745361
 20
-91.05727785235877
 30
0.0000000000563712
 10
5200.557799091126
 20
-91.04558262170849
 30
0.0000000000563712
 10
5200.532398181593
 20
-91.02201381866962
 30
0.0000000000563712
 10
5200.488066552731
 20
-90.98010532056014
 30
0.0000000000563712
 10
5200.426187942557
 20
-90.91924100336382
 30
0.0000000000563712
 10
5200.366900409923
 20
-90.85784256279385
 30
0.0000000000563712
 10
5200.326536239179
 20
-90.81440455397114
 30
0.0000000000563712
 10
5200.303570188235
 20
-90.78923347644786
 30
0.0000000000563712
 10
5200.292224814542
 20
-90.77659586105392
 30
0.0000000000563712
 10
5200.286532471595
 20
-90.77025515841933
 30
0.0000000000563712
  0
LINE
  5
CB49
330
18
100
AcDbEntity
  8
01
100
AcDbLine
 10
5196.267956520147
 20
-61.90358828105946
 30
0.0000000000563712
 11
5176.267956520147
 21
-61.90358828105946
 31
0.0000000000563712
  0
LINE
  5
CB4A
330
18
100
AcDbEntity
  8
01
100
AcDbLine
 10
5176.267956520147
 20
-61.90358828105946
 30
0.0000000000563712
 11
5176.267956520147
 21
-62.10358828105927
 31
0.0000000000563712
  0
LINE
  5
CB4B
330
18
100
AcDbEntity
  8
01
100
AcDbLine
 10
5196.267956520147
 20
-62.10358828105927
 30
0.0000000000563712
 11
5196.267956520147
 21
-61.90358828105946
 31
0.0000000000563712
  0
LINE
  5
CB4C
330
18
100
AcDbEntity
  8
01
100
AcDbLine
 10
5186.268002520146
 20
-55.60414828105922
 30
0.0000000000563712
 11
5186.267956520147
 21
-55.60414827997738
 31
0.0000000000563712
  0
SPLINE
  5
CB4D
330
18
100
AcDbEntity
  8
01
100
AcDbSpline
210
0.0
220
0.0
230
1.0
 70
    24
 71
     3
 72
     8
 73
     4
 74
     0
 42
0.0000000001
 43
0.0000000001
 40
96.83297648375492
 40
96.83297648375492
 40
96.83297648375492
 40
96.83297648375492
 40
96.8331166357304
 40
96.8331166357304
 40
96.8331166357304
 40
96.8331166357304
 10
5186.267956520147
 20
-55.10414670329919
 30
0.0000000000563712
 10
5186.267979400549
 20
-55.10414670433875
 30
0.0000000000563712
 10
5186.268002280961
 20
-55.1041467053783
 30
0.0000000000563712
 10
5186.268025161384
 20
-55.10414670641785
 30
0.0000000000563712
  0
LINE
  5
CB4E
330
18
100
AcDbEntity
  8
01
100
AcDbLine
 10
5194.218002520147
 20
-61.40358828105946
 30
0.0000000000563712
 11
5194.218002520147
 21
-61.90358828105946
 31
0.0000000000563712
  0
LINE
  5
CB4F
330
18
100
AcDbEntity
  8
01
100
AcDbLine
 10
5178.318002520146
 20
-61.40358828105946
 30
0.0000000000563712
 11
5178.318002520146
 21
-61.90358828105946
 31
0.0000000000563712
  0
LINE
  5
CB50
330
18
100
AcDbEntity
  8
01
100
AcDbLine
 10
5199.267961560023
 20
-90.60359845807852
 30
0.0000000000563712
 11
5199.267986844872
 21
-88.11909391006702
 31
0.0000000000563712
  0
ARC
  5
CB51
330
18
100
AcDbEntity
  8
01
100
AcDbCircle
 10
5198.267961560074
 20
-90.60358828105927
 30
0.0000000000563712
 40
1.0
100
AcDbArc
 50
270.0
 51
359.999416899749
  0
LINE
  5
CB52
330
18
100
AcDbEntity
  8
01
100
AcDbLine
 10
5178.267956520147
 20
-93.10358828105927
 30
0.0000000000563712
 11
5178.267956520147
 21
-93.59881970215383
 31
0.0000000000563712
  0
LINE
  5
CB53
330
18
100
AcDbEntity
  8
01
100
AcDbLine
 10
5179.267956520147
 20
-91.60358828105927
 30
0.0000000000563712
 11
5198.267961560074
 21
-91.60358828105927
 31
0.0000000000563712
  0
LINE
  5
CB54
330
18
100
AcDbEntity
  8
01
100
AcDbLine
 10
5178.267956520147
 20
-92.60358828105927
 30
0.0000000000563712
 11
5178.267956520147
 21
-116.5988197021538
 31
0.0000000000563712
  0
ARC
  5
CB55
330
18
100
AcDbEntity
  8
01
100
AcDbCircle
 10
5179.267956520147
 20
-92.60358828105927
 30
0.0000000000563712
 40
1.0
100
AcDbArc
 50
90.0
 51
180.0
  0
LINE
  5
CB5B
330
18
100
AcDbEntity
  8
01
  6
HIDDEN
100
AcDbLine
 10
5306.267956520147
 20
-116.603645281059
 30
0.0000000000563712
 11
5306.267956520147
 21
-93.60364528105902
 31
0.0000000000563712
  0
LINE
  5
CB5C
330
18
100
AcDbEntity
  8
01
100
AcDbLine
 10
5179.767956520147
 20
-91.60358828105927
 30
0.0000000000563712
 11
5304.767956520147
 21
-91.60358828105927
 31
0.0000000000563712
  0
ARC
  5
CB5D
330
18
100
AcDbEntity
  8
01
100
AcDbCircle
 10
5304.767956520147
 20
-93.10358828105927
 30
0.0000000000563712
 40
1.5
100
AcDbArc
 50
0.0
 51
90.0
  0
ARC
  5
CB5E
330
18
100
AcDbEntity
  8
01
100
AcDbCircle
 10
5179.767956520147
 20
-93.10358828105927
 30
0.0000000000563712
 40
1.5
100
AcDbArc
 50
90.0
 51
180.0
  0
LINE
  5
CB5F
330
18
100
AcDbEntity
  8
01
100
AcDbLine
 10
5306.267956520147
 20
-93.10358828105927
 30
0.0000000000563712
 11
5306.267956520147
 21
-117.1035882810593
 31
0.0000000000563712
  0
ARC
  5
CB60
330
18
100
AcDbEntity
  8
01
100
AcDbCircle
 10
5304.767956520147
 20
-117.1035882810593
 30
0.0000000000563712
 40
1.5
100
AcDbArc
 50
270.0
 51
0.0
  0
LINE
  5
CB61
330
18
100
AcDbEntity
  8
01
100
AcDbLine
 10
5304.767956520147
 20
-118.6035882810593
 30
0.0000000000563712
 11
5179.767956520147
 21
-118.6035882810593
 31
0.0000000000563712
  0
ARC
  5
CB62
330
18
100
AcDbEntity
  8
01
100
AcDbCircle
 10
5179.767956520147
 20
-117.1035882810593
 30
0.0000000000563712
 40
1.5
100
AcDbArc
 50
180.0
 51
270.0
  0
LINE
  5
CB63
330
18
100
AcDbEntity
  8
01
100
AcDbLine
 10
5178.267956520147
 20
-117.1035882810593
 30
0.0000000000563712
 11
5178.267956520147
 21
-93.10358828105927
 31
0.0000000000563712
  0
LINE
  5
CB64
330
18
100
AcDbEntity
  8
01
100
AcDbLine
 10
5045.467840180403
 20
-312.8646699669275
 30
0.0000000000563712
 11
5045.467840180403
 21
-313.8672739669273
 31
0.0000000000563712
  0
SPLINE
  5
CB65
330
18
100
AcDbEntity
  8
01
100
AcDbSpline
210
0.0
220
0.0
230
1.0
 70
    12
 71
     2
 72
     6
 73
     3
 74
     0
 42
0.0000000001
 43
0.0000000001
 40
3.14159265358979
 40
3.14159265358979
 40
3.14159265358979
 40
4.712388980384691
 40
4.712388980384691
 40
4.712388980384691
 10
5045.467840003828
 20
-291.9022486101162
 30
0.0000000000563712
 41
1.0
 10
5045.467840001236
 20
-291.9022443827344
 30
0.0000000000563712
 41
0.707106781186548
 10
5045.467839998644
 20
-292.9022401553525
 30
0.0000000000563712
 41
1.0
  0
LINE
  5
CB66
330
18
100
AcDbEntity
  8
01
100
AcDbLine
 10
5098.467840180403
 20
-291.9022489669278
 30
0.0000000000563712
 11
5045.467840180403
 21
-291.9022489669278
 31
0.0000000000563712
  0
ARC
  5
CB67
330
18
100
AcDbEntity
  8
01
100
AcDbCircle
 10
5100.467840180403
 20
-308.4788259669276
 30
0.0000000000563712
 40
0.9999999052787758
100
AcDbArc
 50
274.5598320000042
 51
359.9999959999944
  0
ARC
  5
CB68
330
18
100
AcDbEntity
  8
01
100
AcDbCircle
 10
5098.467831180404
 20
-294.9022569669278
 30
0.0000000000563712
 40
3.000008460301692
100
AcDbArc
 50
0.0001619999928548
 51
89.99983799999411
  0
LINE
  5
CB69
330
18
100
AcDbEntity
  8
01
100
AcDbLine
 10
5045.267840180404
 20
-292.9022489669278
 30
0.0000000000563712
 11
5045.267840180404
 21
-312.9022489669278
 31
0.0000000000563712
  0
LINE
  5
CB6A
330
18
100
AcDbEntity
  8
01
100
AcDbLine
 10
5045.467840180403
 20
-312.8646699669275
 30
0.0000000000563712
 11
5045.467840180403
 21
-292.9022399669275
 31
0.0000000000563712
  0
LINE
  5
CB6B
330
18
100
AcDbEntity
  8
01
100
AcDbLine
 10
5101.467840180403
 20
-308.4788259669276
 30
0.0000000000563712
 11
5101.467840180403
 21
-294.9022489669278
 31
0.0000000000563712
  0
LINE
  5
CB6C
330
18
100
AcDbEntity
  8
01
100
AcDbLine
 10
5045.267840180404
 20
-294.9522379669274
 30
0.0000000000563712
 11
5044.767840180404
 21
-294.9522379669272
 31
0.0000000000563712
  0
LINE
  5
CB6D
330
18
100
AcDbEntity
  8
01
100
AcDbLine
 10
5044.767840180404
 20
-310.8522430464416
 30
0.0000000000563712
 11
5045.267840180404
 21
-310.8522379669275
 31
0.0000000000563712
  0
LINE
  5
CB6E
330
18
100
AcDbEntity
  8
01
100
AcDbLine
 10
5045.267840180404
 20
-312.9022489669278
 30
0.0000000000563712
 11
5045.467840180403
 21
-312.9022489669278
 31
0.0000000000563712
  0
LINE
  5
CB6F
330
18
100
AcDbEntity
  8
01
100
AcDbLine
 10
5045.267840180404
 20
-292.9022489669278
 30
0.0000000000563712
 11
5045.467840180403
 21
-292.9022489669278
 31
0.0000000000563712
  0
LINE
  5
CB70
330
18
100
AcDbEntity
  8
01
100
AcDbLine
 10
5045.467921180403
 20
-313.8678249669274
 30
0.0000000000563712
 11
5100.547340180404
 21
-309.4756609669275
 31
0.0000000000563712
  0
ARC
  5
CB71
330
18
100
AcDbEntity
  8
01
100
AcDbCircle
 10
5098.467840180403
 20
-293.9022489669278
 30
0.0000000000563712
 40
3.0
100
AcDbArc
 50
0.0
 51
90.0
  0
LINE
  5
CB72
330
18
100
AcDbEntity
  8
01
100
AcDbLine
 10
5098.467840180403
 20
-290.9022489669278
 30
0.0000000000563712
 11
5078.467840180403
 21
-290.9022489669278
 31
0.0000000000563712
  0
ARC
  5
CB73
330
18
100
AcDbEntity
  8
01
100
AcDbCircle
 10
5078.467840180403
 20
-293.9022489669278
 30
0.0000000000563712
 40
3.0
100
AcDbArc
 50
90.0
 51
138.1896851042078
  0
LINE
  5
CB74
330
18
100
AcDbEntity
  8
01
100
AcDbLine
 10
5101.467840000873
 20
-293.901211093952
 30
0.0000000000563712
 11
5101.467839640693
 21
-294.9022484846037
 31
0.0000000000563712
  0
ARC
  5
CB75
330
18
100
AcDbEntity
  8
01
100
AcDbCircle
 10
5196.255660225857
 20
-310.1207969669276
 30
0.0000000000563712
 40
3.001656176973546
100
AcDbArc
 50
271.9857619999928
 51
343.4209569999982
  0
LINE
  5
CB76
330
18
100
AcDbEntity
  8
01
100
AcDbLine
 10
5304.759052225857
 20
-309.4031759669276
 30
0.0000000000563712
 11
5305.259354225856
 21
-309.4031759669276
 31
0.0000000000563712
  0
ARC
  5
CB77
330
18
100
AcDbEntity
  8
01
100
AcDbCircle
 10
5305.258448225857
 20
-308.4031759669276
 30
0.0000000000563712
 40
0.999999908703491
100
AcDbArc
 50
270.0518999999707
 51
359.9999949999995
  0
ARC
  5
CB78
330
18
100
AcDbEntity
  8
01
100
AcDbCircle
 10
5305.258448225857
 20
-308.4160689669277
 30
0.0000000000563712
 40
0.9999999288386744
100
AcDbArc
 50
270.7960800000341
 51
359.9999909999939
  0
ARC
  5
CB79
330
18
100
AcDbEntity
  8
01
100
AcDbCircle
 10
5174.259914225857
 20
-312.8663469669277
 30
0.0000000000563712
 40
1.001467516190334
100
AcDbArc
 50
179.9053059999996
 51
271.8449560000241
  0
ARC
  5
CB7A
330
18
100
AcDbEntity
  8
01
100
AcDbCircle
 10
5174.256870225858
 20
-308.4772619669277
 30
0.0000000000563712
 40
0.9984233021449032
100
AcDbArc
 50
180.091033
 51
270.1223679999856
  0
LINE
  5
CB7B
330
18
100
AcDbEntity
  8
01
100
AcDbLine
 10
5173.258448225857
 20
-308.4788479669278
 30
0.0000000000563712
 11
5173.258448225857
 21
-312.8646919669277
 31
0.0000000000563712
  0
ARC
  5
CB7C
330
18
100
AcDbEntity
  8
01
100
AcDbCircle
 10
5174.258448225857
 20
-292.9022699669276
 30
0.0000000000563712
 40
0.9999999999999228
100
AcDbArc
 50
90.0
 51
180.0
  0
ARC
  5
CB7D
330
18
100
AcDbEntity
  8
01
100
AcDbCircle
 10
4474.064489225857
 20
1377354.947273033
 30
0.0000000000563712
 40
1377664.600891397
100
AcDbArc
 50
270.0291199999634
 51
270.0345480000051
  0
LINE
  5
CB7E
330
18
100
AcDbEntity
  8
01
100
AcDbLine
 10
5173.258448225857
 20
-292.9022699669276
 30
0.0000000000563712
 11
5173.258448225857
 21
-294.9022699669276
 31
0.0000000000563712
  0
LINE
  5
CB7F
330
18
100
AcDbEntity
  8
01
100
AcDbLine
 10
5174.258448225857
 20
-291.9022699669276
 30
0.0000000000563712
 11
5177.258448225857
 21
-291.9022699669276
 31
0.0000000000563712
  0
LINE
  5
CB80
330
18
100
AcDbEntity
  8
01
100
AcDbLine
 10
5177.258448225857
 20
-291.9022699669276
 30
0.0000000000563712
 11
5178.258448225857
 21
-291.9022699669276
 31
0.0000000000563712
  0
LINE
  5
CB81
330
18
100
AcDbEntity
  8
01
100
AcDbLine
 10
5178.258448225857
 20
-294.9022699669276
 30
0.0000000000563712
 11
5178.258448225857
 21
-292.9022699669276
 31
0.0000000000563712
  0
ARC
  5
CB82
330
18
100
AcDbEntity
  8
01
100
AcDbCircle
 10
5177.258448225857
 20
-292.9022699669276
 30
0.0000000000563712
 40
0.9999999999999828
100
AcDbArc
 50
0.0
 51
90.0
  0
LINE
  5
CB83
330
18
100
AcDbEntity
  8
01
100
AcDbLine
 10
5178.258448225857
 20
-302.4022699669276
 30
0.0000000000563712
 11
5178.258448225857
 21
-294.9022699669276
 31
0.0000000000563712
  0
ARC
  5
CB84
330
18
100
AcDbEntity
  8
01
100
AcDbCircle
 10
5179.258448225857
 20
-302.4022699669276
 30
0.0000000000563712
 40
1.000000006913581
100
AcDbArc
 50
180.0
 51
269.583802999958
  0
ARC
  5
CB85
330
18
100
AcDbEntity
  8
01
100
AcDbCircle
 10
5305.758448225857
 20
-303.9022699669276
 30
0.0000000000563712
 40
0.4999999999998433
100
AcDbArc
 50
0.0
 51
90.0
  0
LINE
  5
CB86
330
18
100
AcDbEntity
  8
01
100
AcDbLine
 10
5305.758448225857
 20
-303.4022699669276
 30
0.0000000000563712
 11
5304.758448225857
 21
-303.4022699669276
 31
0.0000000000563712
  0
LINE
  5
CB87
330
18
100
AcDbEntity
  8
01
100
AcDbLine
 10
5304.758448225857
 20
-303.4022699669276
 30
0.0000000000563712
 11
5179.194854225857
 21
-303.4022699669276
 31
0.0000000000563712
  0
LINE
  5
CB88
330
18
100
AcDbEntity
  8
01
100
AcDbLine
 10
5173.258448225857
 20
-308.4788479669278
 30
0.0000000000563712
 11
5173.258448225857
 21
-294.9022699669276
 31
0.0000000000563712
  0
LINE
  5
CB89
330
18
100
AcDbEntity
  8
01
100
AcDbLine
 10
5196.359671225857
 20
-313.1206499669277
 30
0.0000000000563712
 11
5174.292157225856
 21
-313.8672949669276
 31
0.0000000000563712
  0
LINE
  5
CB8A
330
18
100
AcDbEntity
  8
01
100
AcDbLine
 10
5306.258448225857
 20
-308.4031759669276
 30
0.0000000000563712
 11
5306.258448225857
 21
-303.9022699669276
 31
0.0000000000563712
  0
ARC
  5
CB8B
330
18
100
AcDbEntity
  8
1HATCH
100
AcDbCircle
 10
5185.453457225857
 20
-288.3491239669277
 30
0.0000000000563712
 40
24.62976889231148
100
AcDbArc
 50
271.8724010000225
 51
275.8224330000022
  0
SPLINE
  5
CB8C
330
18
100
AcDbEntity
  8
1HATCH
100
AcDbSpline
210
0.0
220
0.0
230
1.0
 70
     8
 71
     3
 72
    10
 73
     6
 74
     0
 42
0.0000000001
 43
0.0000000001
 40
6.474434189107349
 40
6.474434189107349
 40
6.474434189107349
 40
6.474434189107349
 40
6.591844108695059
 40
6.591844108695059
 40
8.80081889028375
 40
8.80081889028375
 40
8.80081889028375
 40
8.80081889028375
 10
5184.414476699154
 20
-312.9651894911347
 30
0.0000000000563712
 10
5184.438254641643
 20
-312.9664914819325
 30
0.0000000000563712
 10
5184.462630660242
 20
-312.9677341767938
 30
0.0000000000563712
 10
5184.957314552177
 20
-312.9911520539204
 30
0.0000000000563712
 10
5185.592946454324
 20
-312.9897649877557
 30
0.0000000000563712
 10
5186.258204121321
 20
-312.9657427445163
 30
0.0000000000563712
  0
SPLINE
  5
CB8D
330
18
100
AcDbEntity
  8
01
100
AcDbSpline
210
0.0
220
0.0
230
1.0
 70
     8
 71
     3
 72
    15
 73
    11
 74
     0
 42
0.0000000001
 43
0.0000000001
 40
-0.009353712543665
 40
-0.009353712543665
 40
-0.009353712543665
 40
-0.009353712543665
 40
1.04118989236864
 40
2.16519073070768
 40
3.28740496900587
 40
4.42102807614408
 40
5.482083954735019
 40
6.62572436971428
 40
7.699648236514361
 40
8.800852173204948
 40
8.800852173204948
 40
8.800852173204948
 40
8.800852173204948
 10
5186.266812554377
 20
-312.858849268634
 30
0.0000000000563712
 10
5185.91682304566
 20
-312.8689176640851
 30
0.0000000000563712
 10
5185.192589796836
 20
-312.8997419013854
 30
0.0000000000563712
 10
5184.254046948217
 20
-312.9716629616432
 30
0.0000000000563712
 10
5183.611553650635
 20
-313.0607932695566
 30
0.0000000000563712
 10
5183.395037544931
 20
-313.1492716560265
 30
0.0000000000563712
 10
5183.616204445769
 20
-313.2247667300974
 30
0.0000000000563712
 10
5184.236276265956
 20
-313.2738004891091
 30
0.0000000000563712
 10
5185.176129685446
 20
-313.2894593747601
 30
0.0000000000563712
 10
5185.900898183325
 20
-313.2766291413898
 30
0.0000000000563712
 10
5186.267840180404
 20
-313.2648031020344
 30
0.0000000000563712
  0
SPLINE
  5
CB8E
330
18
100
AcDbEntity
  8
01
100
AcDbSpline
210
0.0
220
0.0
230
1.0
 70
     8
 71
     3
 72
    15
 73
    11
 74
     0
 42
0.0000000001
 43
0.0000000001
 40
0.008947000702026
 40
0.008947000702026
 40
0.008947000702026
 40
0.008947000702026
 40
1.06113719162091
 40
2.19292429644252
 40
3.25894240914876
 40
4.39583778203234
 40
5.466539295517171
 40
6.608513211229511
 40
7.683257489385241
 40
8.8186634975776
 40
8.8186634975776
 40
8.8186634975776
 40
8.8186634975776
 10
5186.267840180404
 20
-313.2648031020344
 30
0.0000000000563712
 10
5186.618328016113
 20
-313.2535346356954
 30
0.0000000000563712
 10
5187.345682650173
 20
-313.2201078034993
 30
0.0000000000563712
 10
5188.269765774727
 20
-313.1474909546462
 30
0.0000000000563712
 10
5188.90884909568
 20
-313.0613045645882
 30
0.0000000000563712
 10
5189.140208863237
 20
-312.9773448950955
 30
0.0000000000563712
 10
5188.933343534258
 20
-312.9046504651187
 30
0.0000000000563712
 10
5188.323024653682
 20
-312.856178568537
 30
0.0000000000563712
 10
5187.381604380948
 20
-312.8377243225291
 30
0.0000000000563712
 10
5186.645181968423
 20
-312.8479327235259
 30
0.0000000000563712
 10
5186.266812554377
 20
-312.858849268634
 30
0.0000000000563712
  0
SPLINE
  5
CB8F
330
18
100
AcDbEntity
  8
1HATCH
100
AcDbSpline
210
0.0
220
0.0
230
1.0
 70
     8
 71
     3
 72
    18
 73
    14
 74
     0
 42
0.0000000001
 43
0.0000000001
 40
19.59632921874201
 40
19.59632921874201
 40
19.59632921874201
 40
19.59632921874201
 40
21.8326339812483
 40
21.8326339812483
 40
24.1014088914055
 40
24.1014088914055
 40
26.1952272113068
 40
26.1952272113068
 40
28.2883969847294
 40
28.2883969847294
 40
30.5579561830035
 40
30.5579561830035
 40
32.44874098108298
 40
32.44874098108298
 40
32.44874098108298
 40
32.44874098108298
 10
5201.387873801959
 20
-310.0590780500631
 30
0.0000000000563712
 10
5201.651494725495
 20
-310.1005376958533
 30
0.0000000000563712
 10
5202.044713424304
 20
-310.1363887793873
 30
0.0000000000563712
 10
5203.051715484336
 20
-310.1924166020976
 30
0.0000000000563712
 10
5203.657605811781
 20
-310.2117645821215
 30
0.0000000000563712
 10
5204.941253449468
 20
-310.2300314959675
 30
0.0000000000563712
 10
5205.596675287678
 20
-310.2302760244872
 30
0.0000000000563712
 10
5206.921785460781
 20
-310.2145843900994
 30
0.0000000000563712
 10
5207.576850834195
 20
-310.1988264188872
 30
0.0000000000563712
 10
5208.8597939063
 20
-310.1522131762943
 30
0.0000000000563712
 10
5209.465487505428
 20
-310.1206501646207
 30
0.0000000000563712
 10
5210.394851297684
 20
-310.0535437716719
 30
0.0000000000563712
 10
5210.741162147856
 20
-310.0200600343364
 30
0.0000000000563712
 10
5210.997454635557
 20
-309.9849283979647
 30
0.0000000000563712
  0
SPLINE
  5
CB90
330
18
100
AcDbEntity
  8
01
100
AcDbSpline
210
0.0
220
0.0
230
1.0
 70
     8
 71
     3
 72
    23
 73
    19
 74
     0
 42
0.0000000001
 43
0.0000000001
 40
0.017309116306802
 40
0.017309116306802
 40
0.017309116306802
 40
0.017309116306802
 40
1.73869996402668
 40
2.52845866934612
 40
3.608970580009101
 40
4.885192260443191
 40
5.7955101784165
 40
6.85665556020366
 40
8.1515773999032
 40
9.066454366987852
 40
9.97645999194656
 40
10.8689150433565
 40
11.7827451056654
 40
13.2426916241094
 40
14.1352696495085
 40
15.0446894442937
 40
16.5036749962483
 40
17.3984718553894
 40
17.3984718553894
 40
17.3984718553894
 40
17.3984718553894
 10
5211.8107977503
 20
-310.1431302162171
 30
0.0000000000563712
 10
5211.810973488862
 20
-310.1104386237596
 30
0.0000000000563712
 10
5211.679985691226
 20
-310.0637736918459
 30
0.0000000000563712
 10
5211.234221673329
 20
-310.0029606879807
 30
0.0000000000563712
 10
5210.684852191825
 20
-309.9546390825003
 30
0.0000000000563712
 10
5209.929079154044
 20
-309.9128210280037
 30
0.0000000000563712
 10
5209.040727687257
 20
-309.8808093104892
 30
0.0000000000563712
 10
5208.049076940049
 20
-309.8583196545278
 30
0.0000000000563712
 10
5206.97846382128
 20
-309.8486514884123
 30
0.0000000000563712
 10
5205.935261103476
 20
-309.8517915279858
 30
0.0000000000563712
 10
5205.035481893497
 20
-309.8635685710638
 30
0.0000000000563712
 10
5204.168736930289
 20
-309.8841973502558
 30
0.0000000000563712
 10
5203.193084304443
 20
-309.9192373254266
 30
0.0000000000563712
 10
5202.339556691489
 20
-309.9667684019728
 30
0.0000000000563712
 10
5201.655035836633
 20
-310.0240999094012
 30
0.0000000000563712
 10
5201.116156538228
 20
-310.0873504373867
 30
0.0000000000563712
 10
5200.787776294303
 20
-310.1561147083864
 30
0.0000000000563712
 10
5200.714970758065
 20
-310.2065549472197
 30
0.0000000000563712
 10
5200.711246282816
 20
-310.2255645356627
 30
0.0000000000563712
  0
SPLINE
  5
CB91
330
18
100
AcDbEntity
  8
01
100
AcDbSpline
210
0.0
220
0.0
230
1.0
 70
     8
 71
     3
 72
    24
 73
    20
 74
     0
 42
0.0000000001
 43
0.0000000001
 40
17.3984718553894
 40
17.3984718553894
 40
17.3984718553894
 40
17.3984718553894
 40
18.3052201529634
 40
19.2113435994769
 40
20.1039423168264
 40
21.2727390097795
 40
22.4619222052583
 40
23.3490416816168
 40
24.4998142207937
 40
25.7095334052068
 40
26.5968671728884
 40
27.50194362695201
 40
28.4113373977728
 40
29.3037820766097
 40
30.7541612899284
 40
31.66103152263451
 40
32.5553489641963
 40
34.0129946595377
 40
34.9214093146169
 40
34.9214093146169
 40
34.9214093146169
 40
34.9214093146169
 10
5200.711246282816
 20
-310.2255645356627
 30
0.0000000000563712
 10
5200.707472061264
 20
-310.2448280274625
 30
0.0000000000563712
 10
5200.749103023209
 20
-310.2830021430552
 30
0.0000000000563712
 10
5200.95681562768
 20
-310.3372205377354
 30
0.0000000000563712
 10
5201.336891206677
 20
-310.3919015828292
 30
0.0000000000563712
 10
5201.932538555076
 20
-310.4437633105342
 30
0.0000000000563712
 10
5202.70596451155
 20
-310.4838305925834
 30
0.0000000000563712
 10
5203.600955159579
 20
-310.5118461486989
 30
0.0000000000563712
 10
5204.599496147037
 20
-310.5276457665943
 30
0.0000000000563712
 10
5205.667719528721
 20
-310.5286758235227
 30
0.0000000000563712
 10
5206.671557217571
 20
-310.5178611663714
 30
0.0000000000563712
 10
5207.564268133644
 20
-310.4995802255194
 30
0.0000000000563712
 10
5208.423922005414
 20
-310.4733095173267
 30
0.0000000000563712
 10
5209.388087322149
 20
-310.4333426908483
 30
0.0000000000563712
 10
5210.229272190125
 20
-310.3840460666381
 30
0.0000000000563712
 10
5210.90171329891
 20
-310.3281220997271
 30
0.0000000000563712
 10
5211.42919473694
 20
-310.2684424452057
 30
0.0000000000563712
 10
5211.746686782462
 20
-310.2058145502774
 30
0.0000000000563712
 10
5211.810803191225
 20
-310.1603815224321
 30
0.0000000000563712
 10
5211.8107977503
 20
-310.1431302162171
 30
0.0000000000563712
  0
SPLINE
  5
CB92
330
18
100
AcDbEntity
  8
01
100
AcDbSpline
210
0.0
220
0.0
230
1.0
 70
     8
 71
     3
 72
    23
 73
    19
 74
     0
 42
0.0000000001
 43
0.0000000001
 40
-0.00150715962443
 40
-0.00150715962443
 40
-0.00150715962443
 40
-0.00150715962443
 40
1.77243425848412
 40
2.55301890176645
 40
3.71711594017937
 40
4.98184342214043
 40
5.905143223238751
 40
7.14747078274516
 40
8.33032271606006
 40
9.269764599041698
 40
10.1960290828974
 40
11.1393577727767
 40
12.1724388065105
 40
13.5446067171954
 40
14.4854557534276
 40
15.6016564528141
 40
16.9125864630305
 40
17.8361453557762
 40
17.8361453557762
 40
17.8361453557762
 40
17.8361453557762
 10
5298.310804378083
 20
-309.464687948534
 30
0.0000000000563712
 10
5298.311241539405
 20
-309.4675215747152
 30
0.0000000000563712
 10
5298.173651834553
 20
-309.4727008929776
 30
0.0000000000563712
 10
5297.701406197788
 20
-309.4827974583229
 30
0.0000000000563712
 10
5297.125675321518
 20
-309.4931594700904
 30
0.0000000000563712
 10
5296.331691215662
 20
-309.505878692592
 30
0.0000000000563712
 10
5295.37829011296
 20
-309.5200510397392
 30
0.0000000000563712
 10
5294.341672392238
 20
-309.53441274343
 30
0.0000000000563712
 10
5293.231294530107
 20
-309.5483548272286
 30
0.0000000000563712
 10
5292.211649264247
 20
-309.559690118931
 30
0.0000000000563712
 10
5291.287739041712
 20
-309.5685225566476
 30
0.0000000000563712
 10
5290.376011320981
 20
-309.5754658165208
 30
0.0000000000563712
 10
5289.408352813198
 20
-309.5803131851312
 30
0.0000000000563712
 10
5288.58298016918
 20
-309.5808734627622
 30
0.0000000000563712
 10
5287.919901115687
 20
-309.5771493661257
 30
0.0000000000563712
 10
5287.448314339626
 20
-309.5699946800994
 30
0.0000000000563712
 10
5287.211279624225
 20
-309.5593791360486
 30
0.0000000000563712
 10
5287.203042520603
 20
-309.5508174142692
 30
0.0000000000563712
 10
5287.225220545876
 20
-309.5471180106615
 30
0.0000000000563712
  0
SPLINE
  5
CB93
330
18
100
AcDbEntity
  8
01
100
AcDbSpline
210
0.0
220
0.0
230
1.0
 70
     8
 71
     3
 72
    25
 73
    21
 74
     0
 42
0.0000000001
 43
0.0000000001
 40
17.8361453557762
 40
17.8361453557762
 40
17.8361453557762
 40
17.8361453557762
 40
18.780692390634
 40
19.7254148679284
 40
20.6487634054228
 40
21.5333610241716
 40
22.134487323944
 40
23.0758418112364
 40
24.0170970359949
 40
24.9411456057015
 40
25.8824746228762
 40
26.8278803693882
 40
27.7558752467715
 40
29.06224051366
 40
30.1825542010003
 40
31.1238213884143
 40
32.0480689337902
 40
32.9896636052536
 40
33.9313572503347
 40
34.8713749077868
 40
34.8713749077868
 40
34.8713749077868
 40
34.8713749077868
 10
5287.225220545876
 20
-309.5471180106615
 30
0.0000000000563712
 10
5287.247902573168
 20
-309.5433345370402
 30
0.0000000000563712
 10
5287.346792890525
 20
-309.535430738526
 30
0.0000000000563712
 10
5287.649357641165
 20
-309.5232609633717
 30
0.0000000000563712
 10
5288.087209588606
 20
-309.5115121007389
 30
0.0000000000563712
 10
5288.580164268666
 20
-309.5017637514366
 30
0.0000000000563712
 10
5289.156998255043
 20
-309.4926351575423
 30
0.0000000000563712
 10
5289.82365424202
 20
-309.4841683878772
 30
0.0000000000563712
 10
5290.660794028277
 20
-309.4760090833463
 30
0.0000000000563712
 10
5291.557112047644
 20
-309.4693158956827
 30
0.0000000000563712
 10
5292.488999826594
 20
-309.4640518258602
 30
0.0000000000563712
 10
5293.430020023668
 20
-309.4601259040942
 30
0.0000000000563712
 10
5294.471418557411
 20
-309.4570222372031
 30
0.0000000000563712
 10
5295.505784174715
 20
-309.4551811040958
 30
0.0000000000563712
 10
5296.420901479189
 20
-309.4545901017123
 30
0.0000000000563712
 10
5297.109187997276
 20
-309.4549183170086
 30
0.0000000000563712
 10
5297.633258989621
 20
-309.4559576527795
 30
0.0000000000563712
 10
5298.019713923632
 20
-309.4577985055621
 30
0.0000000000563712
 10
5298.257390997624
 20
-309.4605906598495
 30
0.0000000000563712
 10
5298.310761560035
 20
-309.4631836594735
 30
0.0000000000563712
 10
5298.310804378083
 20
-309.464687948534
 30
0.0000000000563712
  0
ARC
  5
CB94
330
18
100
AcDbEntity
  8
01
100
AcDbCircle
 10
-7180.070766523257
 20
898231.880450865
 30
0.0000000000563712
 40
898628.034934639
100
AcDbArc
 50
270.7895784455753
 51
270.7960807533078
  0
SPLINE
  5
CB95
330
18
100
AcDbEntity
  8
01
100
AcDbSpline
210
0.0
220
0.0
230
1.0
 70
     8
 71
     3
 72
    18
 73
    14
 74
     0
 42
0.0000000001
 43
0.0000000001
 40
4.67318229361288
 40
4.67318229361288
 40
4.67318229361288
 40
4.67318229361288
 40
4.872400131756585
 40
5.34829698281034
 40
5.581669252088256
 40
6.284019987652521
 40
6.913391305604139
 40
7.705948557781269
 40
8.349520956973343
 40
9.482700027989024
 40
10.78778741619538
 40
11.9347296428614
 40
13.20905444891073
 40
13.20905444891073
 40
13.20905444891073
 40
13.20905444891073
 10
5197.246367909866
 20
-311.1689603277639
 30
0.0000000000563712
 10
5197.246366049325
 20
-311.1689523809623
 30
0.0000000000563712
 10
5197.255787765636
 20
-311.1667189374023
 30
0.0000000000563712
 10
5197.304895175879
 20
-311.1572712178236
 30
0.0000000000563712
 10
5197.427807656551
 20
-311.137264289423
 30
0.0000000000563712
 10
5197.623601571853
 20
-311.109939419425
 30
0.0000000000563712
 10
5197.974027807983
 20
-311.0702921764062
 30
0.0000000000563712
 10
5198.388613116733
 20
-311.0315833325849
 30
0.0000000000563712
 10
5198.982891728234
 20
-310.9855951743689
 30
0.0000000000563712
 10
5199.798494697208
 20
-310.9350828503179
 30
0.0000000000563712
 10
5200.870124947067
 20
-310.8865568704443
 30
0.0000000000563712
 10
5202.067792638603
 20
-310.8488166362192
 30
0.0000000000563712
 10
5202.875699792605
 20
-310.8328842128356
 30
0.0000000000563712
 10
5203.299794348632
 20
-310.8271062339327
 30
0.0000000000563712
  0
LINE
  5
CB96
330
18
100
AcDbEntity
  8
01
100
AcDbLine
 10
5197.247923225857
 20
-311.1685969669277
 30
0.0000000000563712
 11
5197.246368225857
 21
-311.1689599669276
 31
0.0000000000563712
  0
LINE
  5
CB97
330
18
100
AcDbEntity
  8
01
100
AcDbLine
 10
5179.758448225857
 20
-290.9019401971536
 30
0.0000000000563712
 11
5304.758448225857
 21
-290.9019401971536
 31
0.0000000000563712
  0
ARC
  5
CB98
330
18
100
AcDbEntity
  8
01
100
AcDbCircle
 10
5179.758448225857
 20
-292.4019401971536
 30
0.0000000000563712
 40
1.5
100
AcDbArc
 50
90.0
 51
180.0
  0
LINE
  5
CB99
330
18
100
AcDbEntity
  8
01
100
AcDbLine
 10
5306.258448225857
 20
-292.4019401971536
 30
0.0000000000563712
 11
5306.258448225857
 21
-301.9022699669276
 31
0.0000000000563712
  0
ARC
  5
CB9A
330
18
100
AcDbEntity
  8
01
100
AcDbCircle
 10
5304.758448225857
 20
-292.4019401971536
 30
0.0000000000563712
 40
1.5
100
AcDbArc
 50
0.0
 51
90.0
  0
LINE
  5
CB9B
330
18
100
AcDbEntity
  8
01
100
AcDbLine
 10
5178.258448225857
 20
-301.9022699669276
 30
0.0000000000563712
 11
5178.258448225857
 21
-292.4019401971536
 31
0.0000000000563712
  0
LINE
  5
CB9C
330
18
100
AcDbEntity
  8
01
100
AcDbLine
 10
5179.758448225857
 20
-303.4022699669276
 30
0.0000000000563712
 11
5304.758448225857
 21
-303.4022699669276
 31
0.0000000000563712
  0
ARC
  5
CB9D
330
18
100
AcDbEntity
  8
01
100
AcDbCircle
 10
5304.758448225857
 20
-301.9022699669276
 30
0.0000000000563712
 40
1.5
100
AcDbArc
 50
270.0
 51
0.0
  0
ARC
  5
CB9E
330
18
100
AcDbEntity
  8
01
100
AcDbCircle
 10
5179.758448225857
 20
-301.9022699669276
 30
0.0000000000563712
 40
1.5
100
AcDbArc
 50
180.0
 51
270.0
  0
LINE
  5
CB9F
330
18
100
AcDbEntity
  8
01
100
AcDbLine
 10
5174.267956520147
 20
-3.703588281059638
 30
0.0000000000563712
 11
5173.267956520147
 21
-3.703588281059638
 31
0.0000000000563712
  0
LINE
  5
CBA0
330
18
100
AcDbEntity
  8
01
100
AcDbLine
 10
5173.267956520147
 20
-3.703588281059638
 30
0.0000000000563712
 11
5173.267956520147
 21
49.29641171894036
 31
0.0000000000563712
  0
LINE
  5
CBA1
330
18
100
AcDbEntity
  8
01
100
AcDbLine
 10
5173.267956520147
 20
49.29641171894036
 30
0.0000000000563712
 11
5173.267956520147
 21
51.29641171894036
 31
0.0000000000563712
  0
ARC
  5
CBA2
330
18
100
AcDbEntity
  8
01
100
AcDbCircle
 10
5174.267956520147
 20
51.29641171894036
 30
0.0000000000563712
 40
1.000000000022837
100
AcDbArc
 50
90.0
 51
180.0
  0
LINE
  5
CBA3
330
18
100
AcDbEntity
  8
01
100
AcDbLine
 10
5199.267956520147
 20
-3.703588281059638
 30
0.0000000000563712
 11
5198.267956520147
 21
-3.703588281059638
 31
0.0000000000563712
  0
LINE
  5
CBA4
330
18
100
AcDbEntity
  8
01
100
AcDbLine
 10
5199.267956676053
 20
22.2964118090099
 30
0.0000000000563712
 11
5199.267956520147
 21
-3.703588281059638
 31
0.0000000000563712
  0
LINE
  5
CBA5
330
18
100
AcDbEntity
  8
01
100
AcDbLine
 10
5198.267956520147
 20
-3.703588281059638
 30
0.0000000000563712
 11
5174.267956520147
 21
-3.703588281059638
 31
0.0000000000563712
  0
LINE
  5
CBA6
330
18
100
AcDbEntity
  8
01
100
AcDbLine
 10
5174.267956520147
 20
52.29641171894036
 30
0.0000000000563712
 11
5177.267956520147
 21
52.29641171894036
 31
0.0000000000563712
  0
ARC
  5
CBA7
330
18
100
AcDbEntity
  8
01
100
AcDbCircle
 10
5177.267956520147
 20
51.29641171894036
 30
0.0000000000563712
 40
1.000000000000152
100
AcDbArc
 50
0.0
 51
90.0
  0
LINE
  5
CBA8
330
18
100
AcDbEntity
  8
01
100
AcDbLine
 10
5178.267956520147
 20
51.29641171894036
 30
0.0000000000563712
 11
5178.267956520147
 21
50.79164314003492
 31
0.0000000000563712
  0
LINE
  5
CBA9
330
18
100
AcDbEntity
  8
01
100
AcDbLine
 10
5177.267956520147
 20
52.29641171894036
 30
0.0000000000563712
 11
5178.649922531397
 21
52.29641171894036
 31
0.0000000000563712
  0
ARC
  5
CBAA
330
18
100
AcDbEntity
  8
01
100
AcDbCircle
 10
5203.267956520147
 20
22.29641171894036
 30
0.0000000000563712
 40
3.999999999999571
100
AcDbArc
 50
118.9550243718468
 51
132.2787709999827
  0
ARC
  5
CBAB
330
18
100
AcDbEntity
  8
01
100
AcDbCircle
 10
5203.268035520146
 20
22.29638171894021
 30
0.0000000000563712
 40
4.000078844206927
100
AcDbArc
 50
138.190115999979
 51
179.9995690000139
  0
SPLINE
  5
CBAC
330
18
100
AcDbEntity
  8
01
100
AcDbSpline
210
0.0
220
0.0
230
1.0
 70
     8
 71
     3
 72
    15
 73
    11
 74
     0
 42
0.0000000001
 43
0.0000000001
 40
0.0
 40
0.0
 40
0.0
 40
0.0
 40
0.023299996409835
 40
0.046722705474904
 40
0.093957070019804
 40
0.19010103315497
 40
0.288693819584109
 40
0.338992080854447
 40
0.3644020684411591
 40
0.3899887616986549
 40
0.3899887616986549
 40
0.3899887616986549
 40
0.3899887616986549
 10
5200.577002745569
 20
25.25593354737066
 30
0.0000000000563712
 10
5200.570612745361
 20
25.25010129023985
 30
0.0000000000563712
 10
5200.557799091126
 20
25.23840605958958
 30
0.0000000000563712
 10
5200.532398181593
 20
25.21483725655071
 30
0.0000000000563712
 10
5200.488066552731
 20
25.17292875844123
 30
0.0000000000563712
 10
5200.426187942557
 20
25.11206444124491
 30
0.0000000000563712
 10
5200.366900409923
 20
25.05066600067494
 30
0.0000000000563712
 10
5200.326536239179
 20
25.00722799185223
 30
0.0000000000563712
 10
5200.303570188235
 20
24.98205691432895
 30
0.0000000000563712
 10
5200.292224814542
 20
24.96941929893501
 30
0.0000000000563712
 10
5200.286532471595
 20
24.96307859630042
 30
0.0000000000563712
  0
LINE
  5
CBAD
330
18
100
AcDbEntity
  8
01
100
AcDbLine
 10
5196.267956520147
 20
-3.903588281059456
 30
0.0000000000563712
 11
5176.267956520147
 21
-3.903588281059456
 31
0.0000000000563712
  0
LINE
  5
CBAE
330
18
100
AcDbEntity
  8
01
100
AcDbLine
 10
5176.267956520147
 20
-3.903588281059456
 30
0.0000000000563712
 11
5176.267956520147
 21
-3.703588281059638
 31
0.0000000000563712
  0
LINE
  5
CBAF
330
18
100
AcDbEntity
  8
01
100
AcDbLine
 10
5196.267956520147
 20
-3.703588281059638
 30
0.0000000000563712
 11
5196.267956520147
 21
-3.903588281059456
 31
0.0000000000563712
  0
LINE
  5
CBB0
330
18
100
AcDbEntity
  8
01
100
AcDbLine
 10
5194.218002520147
 20
-4.403588281059456
 30
0.0000000000563712
 11
5194.218002520147
 21
-3.903588281059456
 31
0.0000000000563712
  0
LINE
  5
CBB1
330
18
100
AcDbEntity
  8
01
100
AcDbLine
 10
5178.318002520146
 20
-4.403588281059456
 30
0.0000000000563712
 11
5178.318002520146
 21
-3.903588281059456
 31
0.0000000000563712
  0
LINE
  5
CBB2
330
18
100
AcDbEntity
  8
01
100
AcDbLine
 10
5199.267961560023
 20
24.79642189595961
 30
0.0000000000563712
 11
5199.267986844872
 21
22.31191734794811
 31
0.0000000000563712
  0
ARC
  5
CBB3
330
18
100
AcDbEntity
  8
01
100
AcDbCircle
 10
5198.267961560074
 20
24.79641171894036
 30
0.0000000000563712
 40
1.0
100
AcDbArc
 50
0.0005831002509816
 51
90.0
  0
LINE
  5
CBB4
330
18
100
AcDbEntity
  8
01
100
AcDbLine
 10
5178.267956520147
 20
27.29641171894036
 30
0.0000000000563712
 11
5178.267956520147
 21
27.79164314003492
 31
0.0000000000563712
  0
LINE
  5
CBB5
330
18
100
AcDbEntity
  8
01
100
AcDbLine
 10
5179.267956520147
 20
25.79641171894036
 30
0.0000000000563712
 11
5198.267961560074
 21
25.79641171894036
 31
0.0000000000563712
  0
LINE
  5
CBB6
330
18
100
AcDbEntity
  8
01
100
AcDbLine
 10
5178.267956520147
 20
26.79641171894036
 30
0.0000000000563712
 11
5178.267956520147
 21
50.79164314003492
 31
0.0000000000563712
  0
ARC
  5
CBB7
330
18
100
AcDbEntity
  8
01
100
AcDbCircle
 10
5179.267956520147
 20
26.79641171894036
 30
0.0000000000563712
 40
1.0
100
AcDbArc
 50
180.0
 51
270.0
  0
LINE
  5
CBBD
330
18
100
AcDbEntity
  8
01
  6
HIDDEN
100
AcDbLine
 10
5306.267956520147
 20
50.7964687189401
 30
0.0000000000563712
 11
5306.267956520147
 21
27.7964687189401
 31
0.0000000000563712
  0
LINE
  5
CBBE
330
18
100
AcDbEntity
  8
01
100
AcDbLine
 10
5179.767956520147
 20
25.79641171894036
 30
0.0000000000563712
 11
5304.767956520147
 21
25.79641171894036
 31
0.0000000000563712
  0
ARC
  5
CBBF
330
18
100
AcDbEntity
  8
01
100
AcDbCircle
 10
5304.767956520147
 20
27.29641171894036
 30
0.0000000000563712
 40
1.5
100
AcDbArc
 50
270.0
 51
0.0
  0
ARC
  5
CBC0
330
18
100
AcDbEntity
  8
01
100
AcDbCircle
 10
5179.767956520147
 20
27.29641171894036
 30
0.0000000000563712
 40
1.5
100
AcDbArc
 50
180.0
 51
270.0
  0
LINE
  5
CBC1
330
18
100
AcDbEntity
  8
01
100
AcDbLine
 10
5306.267956520147
 20
27.29641171894036
 30
0.0000000000563712
 11
5306.267956520147
 21
51.29641171894036
 31
0.0000000000563712
  0
ARC
  5
CBC2
330
18
100
AcDbEntity
  8
01
100
AcDbCircle
 10
5304.767956520147
 20
51.29641171894036
 30
0.0000000000563712
 40
1.5
100
AcDbArc
 50
0.0
 51
90.0
  0
LINE
  5
CBC3
330
18
100
AcDbEntity
  8
01
100
AcDbLine
 10
5304.767956520147
 20
52.79641171894036
 30
0.0000000000563712
 11
5179.767956520147
 21
52.79641171894036
 31
0.0000000000563712
  0
ARC
  5
CBC4
330
18
100
AcDbEntity
  8
01
100
AcDbCircle
 10
5179.767956520147
 20
51.29641171894036
 30
0.0000000000563712
 40
1.5
100
AcDbArc
 50
90.0
 51
180.0
  0
LINE
  5
CBC5
330
18
100
AcDbEntity
  8
01
100
AcDbLine
 10
5178.267956520147
 20
51.29641171894036
 30
0.0000000000563712
 11
5178.267956520147
 21
27.29641171894036
 31
0.0000000000563712
  0
LINE
  5
CBC6
330
18
100
AcDbEntity
  8
1CENTER
100
AcDbLine
 10
4981.768072859897
 20
-317.9022699669276
 30
0.0000000000563712
 11
4981.768072859897
 21
-309.9022699669276
 31
0.0000000000563712
  0
LINE
  5
CBC7
330
18
100
AcDbEntity
  8
01
100
AcDbLine
 10
4987.068072859896
 20
-312.8646699669275
 30
0.0000000000563712
 11
4987.068072859896
 21
-313.8672739669273
 31
0.0000000000563712
  0
SPLINE
  5
CBC8
330
18
100
AcDbEntity
  8
01
100
AcDbSpline
210
0.0
220
0.0
230
1.0
 70
    12
 71
     2
 72
     6
 73
     3
 74
     0
 42
0.0000000001
 43
0.0000000001
 40
3.14159265358979
 40
3.14159265358979
 40
3.14159265358979
 40
4.712388980384691
 40
4.712388980384691
 40
4.712388980384691
 10
4987.068073036471
 20
-291.9022486101162
 30
0.0000000000563712
 41
1.0
 10
4987.068073039065
 20
-291.9022443827344
 30
0.0000000000563712
 41
0.707106781186548
 10
4987.068073041657
 20
-292.9022401553525
 30
0.0000000000563712
 41
1.0
  0
LINE
  5
CBC9
330
18
100
AcDbEntity
  8
01
100
AcDbLine
 10
4934.068072859896
 20
-291.9022489669278
 30
0.0000000000563712
 11
4987.068072859896
 21
-291.9022489669278
 31
0.0000000000563712
  0
ARC
  5
CBCA
330
18
100
AcDbEntity
  8
01
100
AcDbCircle
 10
4932.068072859896
 20
-308.4788259669276
 30
0.0000000000563712
 40
0.9999999052787758
100
AcDbArc
 50
180.0000040000056
 51
265.4401679999958
  0
ARC
  5
CBCB
330
18
100
AcDbEntity
  8
01
100
AcDbCircle
 10
4934.068081859897
 20
-294.9022569669278
 30
0.0000000000563712
 40
3.000008460301692
100
AcDbArc
 50
90.00016200000589
 51
179.9998380000071
  0
LINE
  5
CBCC
330
18
100
AcDbEntity
  8
01
100
AcDbLine
 10
4987.268072859897
 20
-292.9022489669278
 30
0.0000000000563712
 11
4987.268072859897
 21
-312.9022489669278
 31
0.0000000000563712
  0
LINE
  5
CBCD
330
18
100
AcDbEntity
  8
01
100
AcDbLine
 10
4987.068072859896
 20
-312.8646699669275
 30
0.0000000000563712
 11
4987.068072859896
 21
-292.9022399669275
 31
0.0000000000563712
  0
LINE
  5
CBCE
330
18
100
AcDbEntity
  8
01
100
AcDbLine
 10
4931.068072859896
 20
-308.4788259669276
 30
0.0000000000563712
 11
4931.068072859896
 21
-294.9022489669278
 31
0.0000000000563712
  0
LINE
  5
CBCF
330
18
100
AcDbEntity
  8
01
100
AcDbLine
 10
4987.268072859897
 20
-294.9522379669274
 30
0.0000000000563712
 11
4987.768072859897
 21
-294.9522379669272
 31
0.0000000000563712
  0
LINE
  5
CBD0
330
18
100
AcDbEntity
  8
01
100
AcDbLine
 10
4987.768072859897
 20
-310.8522430464416
 30
0.0000000000563712
 11
4987.268072859897
 21
-310.8522379669275
 31
0.0000000000563712
  0
LINE
  5
CBD1
330
18
100
AcDbEntity
  8
01
100
AcDbLine
 10
4987.268072859897
 20
-312.9022489669278
 30
0.0000000000563712
 11
4987.068072859896
 21
-312.9022489669278
 31
0.0000000000563712
  0
LINE
  5
CBD2
330
18
100
AcDbEntity
  8
01
100
AcDbLine
 10
4987.268072859897
 20
-292.9022489669278
 30
0.0000000000563712
 11
4987.068072859896
 21
-292.9022489669278
 31
0.0000000000563712
  0
LINE
  5
CBD3
330
18
100
AcDbEntity
  8
01
100
AcDbLine
 10
4987.067991859896
 20
-313.8678249669274
 30
0.0000000000563712
 11
4931.988572859897
 21
-309.4756609669275
 31
0.0000000000563712
  0
ARC
  5
CBD4
330
18
100
AcDbEntity
  8
01
100
AcDbCircle
 10
4934.068072859896
 20
-293.9022489669278
 30
0.0000000000563712
 40
3.0
100
AcDbArc
 50
90.0
 51
180.0
  0
LINE
  5
CBD5
330
18
100
AcDbEntity
  8
01
100
AcDbLine
 10
4934.068072859896
 20
-290.9022489669278
 30
0.0000000000563712
 11
4954.068072859896
 21
-290.9022489669278
 31
0.0000000000563712
  0
ARC
  5
CBD6
330
18
100
AcDbEntity
  8
01
100
AcDbCircle
 10
4954.068072859896
 20
-293.9022489669278
 30
0.0000000000563712
 40
3.0
100
AcDbArc
 50
41.81031489579222
 51
90.0
  0
LINE
  5
CBD7
330
18
100
AcDbEntity
  8
01
100
AcDbLine
 10
4931.068073039427
 20
-293.901211093952
 30
0.0000000000563712
 11
4931.068073399607
 21
-294.9022484846037
 31
0.0000000000563712
  0
LINE
  5
CBD8
330
18
100
AcDbEntity
  8
01
100
AcDbLine
 10
4876.268072859897
 20
-302.9022699669276
 30
0.0000000000563712
 11
4816.268072859897
 21
-302.9022699669276
 31
0.0000000000563712
  0
LINE
  5
CBD9
330
18
100
AcDbEntity
  8
01
100
AcDbLine
 10
4846.268072859897
 20
-272.9022699669276
 30
0.0000000000563712
 11
4846.268072859897
 21
-332.9022699669276
 31
0.0000000000563712
  0
LINE
  5
CBDA
330
18
100
AcDbEntity
  8
01
100
AcDbLine
 10
4820.268072859897
 20
-276.4022699669295
 30
0.0000000000563712
 11
4872.268072859893
 21
-276.4022699669295
 31
0.0000000000563712
  0
LINE
  5
CBDB
330
18
100
AcDbEntity
  8
01
100
AcDbLine
 10
4872.268072859893
 20
-329.4022699669295
 30
0.0000000000563712
 11
4820.268072859897
 21
-329.4022699669295
 31
0.0000000000563712
  0
LINE
  5
CBDC
330
18
100
AcDbEntity
  8
01
100
AcDbLine
 10
4872.768072859893
 20
-276.9022699669295
 30
0.0000000000563712
 11
4872.768072859893
 21
-328.9022699669295
 31
0.0000000000563712
  0
ARC
  5
CBDD
330
18
100
AcDbEntity
  8
01
100
AcDbCircle
 10
4872.268072859893
 20
-328.9022699669295
 30
0.0000000000563712
 40
0.5
100
AcDbArc
 50
270.0
 51
0.0
  0
ARC
  5
CBDE
330
18
100
AcDbEntity
  8
01
100
AcDbCircle
 10
4872.268072859893
 20
-276.9022699669295
 30
0.0000000000563712
 40
0.5
100
AcDbArc
 50
0.0
 51
90.0
  0
LINE
  5
CBDF
330
18
100
AcDbEntity
  8
01
100
AcDbLine
 10
4819.768072859897
 20
-276.9022699669295
 30
0.0000000000563712
 11
4819.768072859897
 21
-290.9019401971536
 31
0.0000000000563712
  0
LINE
  5
CBE0
330
18
100
AcDbEntity
  8
01
100
AcDbLine
 10
4819.768072859897
 20
-310.6965713699478
 30
0.0000000000563712
 11
4819.768072859897
 21
-328.9022699669295
 31
0.0000000000563712
  0
ARC
  5
CBE1
330
18
100
AcDbEntity
  8
01
100
AcDbCircle
 10
4820.268072859897
 20
-328.9022699669295
 30
0.0000000000563712
 40
0.5
100
AcDbArc
 50
180.0
 51
270.0
  0
ARC
  5
CBE2
330
18
100
AcDbEntity
  8
01
100
AcDbCircle
 10
4820.268072859897
 20
-276.9022699669295
 30
0.0000000000563712
 40
0.5
100
AcDbArc
 50
90.0
 51
180.0
  0
ARC
  5
CBE3
330
18
100
AcDbEntity
  8
01
100
AcDbCircle
 10
4836.280252814444
 20
-310.1207969669276
 30
0.0000000000563712
 40
3.001656176973546
100
AcDbArc
 50
196.5790430000019
 51
268.0142379999551
  0
LINE
  5
CBE4
330
18
100
AcDbEntity
  8
01
100
AcDbLine
 10
4727.776860814443
 20
-309.4031759669276
 30
0.0000000000563712
 11
4727.276558814443
 21
-309.4031759669276
 31
0.0000000000563712
  0
ARC
  5
CBE5
330
18
100
AcDbEntity
  8
01
100
AcDbCircle
 10
4727.277464814443
 20
-308.4031759669276
 30
0.0000000000563712
 40
0.999999908703491
100
AcDbArc
 50
180.0000050000005
 51
269.9481000000293
  0
ARC
  5
CBE6
330
18
100
AcDbEntity
  8
01
100
AcDbCircle
 10
4727.277464814443
 20
-308.4160689669277
 30
0.0000000000563712
 40
0.9999999288386744
100
AcDbArc
 50
180.0000090000061
 51
269.2039199999659
  0
ARC
  5
CBE7
330
18
100
AcDbEntity
  8
01
100
AcDbCircle
 10
4858.275998814443
 20
-312.8663469669277
 30
0.0000000000563712
 40
1.001467516190334
100
AcDbArc
 50
268.1550439999759
 51
0.0946940000004379
  0
ARC
  5
CBE8
330
18
100
AcDbEntity
  8
01
100
AcDbCircle
 10
4858.279042814444
 20
-308.4772619669277
 30
0.0000000000563712
 40
0.9984233021449032
100
AcDbArc
 50
269.8776320000144
 51
359.9089670000001
  0
LINE
  5
CBE9
330
18
100
AcDbEntity
  8
01
100
AcDbLine
 10
4859.277464814443
 20
-308.4788479669278
 30
0.0000000000563712
 11
4859.277464814443
 21
-312.8646919669277
 31
0.0000000000563712
  0
ARC
  5
CBEA
330
18
100
AcDbEntity
  8
01
100
AcDbCircle
 10
4858.277464814443
 20
-292.9022699669276
 30
0.0000000000563712
 40
0.9999999999999228
100
AcDbArc
 50
0.0
 51
90.0
  0
ARC
  5
CBEB
330
18
100
AcDbEntity
  8
01
100
AcDbCircle
 10
5558.471423814443
 20
1377354.947273033
 30
0.0000000000563712
 40
1377664.600891397
100
AcDbArc
 50
269.965452000047
 51
269.9708799999844
  0
LINE
  5
CBEC
330
18
100
AcDbEntity
  8
01
100
AcDbLine
 10
4859.277464814443
 20
-292.9022699669276
 30
0.0000000000563712
 11
4859.277464814443
 21
-294.9022699669276
 31
0.0000000000563712
  0
LINE
  5
CBED
330
18
100
AcDbEntity
  8
01
100
AcDbLine
 10
4858.277464814443
 20
-291.9022699669276
 30
0.0000000000563712
 11
4855.277464814443
 21
-291.9022699669276
 31
0.0000000000563712
  0
LINE
  5
CBEE
330
18
100
AcDbEntity
  8
01
100
AcDbLine
 10
4855.277464814443
 20
-291.9022699669276
 30
0.0000000000563712
 11
4854.277464814443
 21
-291.9022699669276
 31
0.0000000000563712
  0
LINE
  5
CBEF
330
18
100
AcDbEntity
  8
01
100
AcDbLine
 10
4854.277464814443
 20
-294.9022699669276
 30
0.0000000000563712
 11
4854.277464814443
 21
-292.9022699669276
 31
0.0000000000563712
  0
ARC
  5
CBF0
330
18
100
AcDbEntity
  8
01
100
AcDbCircle
 10
4855.277464814443
 20
-292.9022699669276
 30
0.0000000000563712
 40
0.9999999999999828
100
AcDbArc
 50
90.0
 51
180.0
  0
LINE
  5
CBF1
330
18
100
AcDbEntity
  8
01
100
AcDbLine
 10
4854.277464814443
 20
-302.4022699669276
 30
0.0000000000563712
 11
4854.277464814443
 21
-294.9022699669276
 31
0.0000000000563712
  0
ARC
  5
CBF2
330
18
100
AcDbEntity
  8
01
100
AcDbCircle
 10
4853.277464814443
 20
-302.4022699669276
 30
0.0000000000563712
 40
1.000000006913581
100
AcDbArc
 50
270.4161969999898
 51
0.0
  0
ARC
  5
CBF3
330
18
100
AcDbEntity
  8
01
100
AcDbCircle
 10
4726.777464814443
 20
-303.9022699669276
 30
0.0000000000563712
 40
0.4999999999998433
100
AcDbArc
 50
90.0
 51
180.0
  0
LINE
  5
CBF4
330
18
100
AcDbEntity
  8
01
100
AcDbLine
 10
4726.777464814443
 20
-303.4022699669276
 30
0.0000000000563712
 11
4727.777464814443
 21
-303.4022699669276
 31
0.0000000000563712
  0
LINE
  5
CBF5
330
18
100
AcDbEntity
  8
01
100
AcDbLine
 10
4727.777464814443
 20
-303.4022699669276
 30
0.0000000000563712
 11
4853.341058814443
 21
-303.4022699669276
 31
0.0000000000563712
  0
LINE
  5
CBF6
330
18
100
AcDbEntity
  8
01
100
AcDbLine
 10
4859.277464814443
 20
-308.4788479669278
 30
0.0000000000563712
 11
4859.277464814443
 21
-294.9022699669276
 31
0.0000000000563712
  0
LINE
  5
CBF7
330
18
100
AcDbEntity
  8
01
100
AcDbLine
 10
4836.176241814443
 20
-313.1206499669277
 30
0.0000000000563712
 11
4858.243755814443
 21
-313.8672949669276
 31
0.0000000000563712
  0
LINE
  5
CBF8
330
18
100
AcDbEntity
  8
01
100
AcDbLine
 10
4726.277464814443
 20
-308.4031759669276
 30
0.0000000000563712
 11
4726.277464814443
 21
-303.9022699669276
 31
0.0000000000563712
  0
ARC
  5
CBF9
330
18
100
AcDbEntity
  8
1HATCH
100
AcDbCircle
 10
4847.082455814443
 20
-288.3491239669277
 30
0.0000000000563712
 40
24.62976889231148
100
AcDbArc
 50
264.1775669999977
 51
268.1275989999775
  0
SPLINE
  5
CBFA
330
18
100
AcDbEntity
  8
1HATCH
100
AcDbSpline
210
0.0
220
0.0
230
1.0
 70
     8
 71
     3
 72
    10
 73
     6
 74
     0
 42
0.0000000001
 43
0.0000000001
 40
6.474434189107349
 40
6.474434189107349
 40
6.474434189107349
 40
6.474434189107349
 40
6.591844108695059
 40
6.591844108695059
 40
8.80081889028375
 40
8.80081889028375
 40
8.80081889028375
 40
8.80081889028375
 10
4848.121436341147
 20
-312.9651894911347
 30
0.0000000000563712
 10
4848.097658398658
 20
-312.9664914819325
 30
0.0000000000563712
 10
4848.073282380059
 20
-312.9677341767938
 30
0.0000000000563712
 10
4847.578598488123
 20
-312.9911520539204
 30
0.0000000000563712
 10
4846.942966585975
 20
-312.9897649877557
 30
0.0000000000563712
 10
4846.277708918979
 20
-312.9657427445163
 30
0.0000000000563712
  0
SPLINE
  5
CBFB
330
18
100
AcDbEntity
  8
01
100
AcDbSpline
210
0.0
220
0.0
230
1.0
 70
     8
 71
     3
 72
    15
 73
    11
 74
     0
 42
0.0000000001
 43
0.0000000001
 40
-0.009353712543665
 40
-0.009353712543665
 40
-0.009353712543665
 40
-0.009353712543665
 40
1.04118989236864
 40
2.16519073070768
 40
3.28740496900587
 40
4.42102807614408
 40
5.482083954735019
 40
6.62572436971428
 40
7.699648236514361
 40
8.800852173204948
 40
8.800852173204948
 40
8.800852173204948
 40
8.800852173204948
 10
4846.269100485924
 20
-312.858849268634
 30
0.0000000000563712
 10
4846.61908999464
 20
-312.8689176640851
 30
0.0000000000563712
 10
4847.343323243465
 20
-312.8997419013854
 30
0.0000000000563712
 10
4848.281866092083
 20
-312.9716629616432
 30
0.0000000000563712
 10
4848.924359389666
 20
-313.0607932695566
 30
0.0000000000563712
 10
4849.14087549537
 20
-313.1492716560265
 30
0.0000000000563712
 10
4848.919708594532
 20
-313.2247667300974
 30
0.0000000000563712
 10
4848.299636774344
 20
-313.2738004891091
 30
0.0000000000563712
 10
4847.359783354855
 20
-313.2894593747601
 30
0.0000000000563712
 10
4846.635014856975
 20
-313.2766291413898
 30
0.0000000000563712
 10
4846.268072859897
 20
-313.2648031020344
 30
0.0000000000563712
  0
SPLINE
  5
CBFC
330
18
100
AcDbEntity
  8
01
100
AcDbSpline
210
0.0
220
0.0
230
1.0
 70
     8
 71
     3
 72
    15
 73
    11
 74
     0
 42
0.0000000001
 43
0.0000000001
 40
0.008947000702026
 40
0.008947000702026
 40
0.008947000702026
 40
0.008947000702026
 40
1.06113719162091
 40
2.19292429644252
 40
3.25894240914876
 40
4.39583778203234
 40
5.466539295517171
 40
6.608513211229511
 40
7.683257489385241
 40
8.8186634975776
 40
8.8186634975776
 40
8.8186634975776
 40
8.8186634975776
 10
4846.268072859897
 20
-313.2648031020344
 30
0.0000000000563712
 10
4845.917585024186
 20
-313.2535346356954
 30
0.0000000000563712
 10
4845.190230390128
 20
-313.2201078034993
 30
0.0000000000563712
 10
4844.266147265575
 20
-313.1474909546462
 30
0.0000000000563712
 10
4843.62706394462
 20
-313.0613045645882
 30
0.0000000000563712
 10
4843.395704177065
 20
-312.9773448950955
 30
0.0000000000563712
 10
4843.602569506043
 20
-312.9046504651187
 30
0.0000000000563712
 10
4844.212888386617
 20
-312.856178568537
 30
0.0000000000563712
 10
4845.154308659352
 20
-312.8377243225291
 30
0.0000000000563712
 10
4845.890731071877
 20
-312.8479327235259
 30
0.0000000000563712
 10
4846.269100485924
 20
-312.858849268634
 30
0.0000000000563712
  0
SPLINE
  5
CBFD
330
18
100
AcDbEntity
  8
1HATCH
100
AcDbSpline
210
0.0
220
0.0
230
1.0
 70
     8
 71
     3
 72
    18
 73
    14
 74
     0
 42
0.0000000001
 43
0.0000000001
 40
19.59632921874201
 40
19.59632921874201
 40
19.59632921874201
 40
19.59632921874201
 40
21.8326339812483
 40
21.8326339812483
 40
24.1014088914055
 40
24.1014088914055
 40
26.1952272113068
 40
26.1952272113068
 40
28.2883969847294
 40
28.2883969847294
 40
30.5579561830035
 40
30.5579561830035
 40
32.44874098108298
 40
32.44874098108298
 40
32.44874098108298
 40
32.44874098108298
 10
4831.148039238341
 20
-310.0590780500631
 30
0.0000000000563712
 10
4830.884418314807
 20
-310.1005376958533
 30
0.0000000000563712
 10
4830.491199615996
 20
-310.1363887793873
 30
0.0000000000563712
 10
4829.484197555963
 20
-310.1924166020976
 30
0.0000000000563712
 10
4828.87830722852
 20
-310.2117645821215
 30
0.0000000000563712
 10
4827.594659590832
 20
-310.2300314959675
 30
0.0000000000563712
 10
4826.939237752622
 20
-310.2302760244872
 30
0.0000000000563712
 10
4825.61412757952
 20
-310.2145843900994
 30
0.0000000000563712
 10
4824.959062206106
 20
-310.1988264188872
 30
0.0000000000563712
 10
4823.676119134001
 20
-310.1522131762943
 30
0.0000000000563712
 10
4823.070425534874
 20
-310.1206501646207
 30
0.0000000000563712
 10
4822.141061742615
 20
-310.0535437716719
 30
0.0000000000563712
 10
4821.794750892444
 20
-310.0200600343364
 30
0.0000000000563712
 10
4821.538458404743
 20
-309.9849283979647
 30
0.0000000000563712
  0
SPLINE
  5
CBFE
330
18
100
AcDbEntity
  8
01
100
AcDbSpline
210
0.0
220
0.0
230
1.0
 70
     8
 71
     3
 72
    23
 73
    19
 74
     0
 42
0.0000000001
 43
0.0000000001
 40
0.017309116306802
 40
0.017309116306802
 40
0.017309116306802
 40
0.017309116306802
 40
1.73869996402668
 40
2.52845866934612
 40
3.608970580009101
 40
4.885192260443191
 40
5.7955101784165
 40
6.85665556020366
 40
8.1515773999032
 40
9.066454366987852
 40
9.97645999194656
 40
10.8689150433565
 40
11.7827451056654
 40
13.2426916241094
 40
14.1352696495085
 40
15.0446894442937
 40
16.5036749962483
 40
17.3984718553894
 40
17.3984718553894
 40
17.3984718553894
 40
17.3984718553894
 10
4820.725115290001
 20
-310.1431302162171
 30
0.0000000000563712
 10
4820.724939551437
 20
-310.1104386237596
 30
0.0000000000563712
 10
4820.855927349075
 20
-310.0637736918459
 30
0.0000000000563712
 10
4821.301691366973
 20
-310.0029606879807
 30
0.0000000000563712
 10
4821.851060848474
 20
-309.9546390825003
 30
0.0000000000563712
 10
4822.606833886257
 20
-309.9128210280037
 30
0.0000000000563712
 10
4823.495185353042
 20
-309.8808093104892
 30
0.0000000000563712
 10
4824.48683610025
 20
-309.8583196545278
 30
0.0000000000563712
 10
4825.557449219019
 20
-309.8486514884123
 30
0.0000000000563712
 10
4826.600651936826
 20
-309.8517915279858
 30
0.0000000000563712
 10
4827.500431146802
 20
-309.8635685710638
 30
0.0000000000563712
 10
4828.36717611001
 20
-309.8841973502558
 30
0.0000000000563712
 10
4829.342828735857
 20
-309.9192373254266
 30
0.0000000000563712
 10
4830.196356348812
 20
-309.9667684019728
 30
0.0000000000563712
 10
4830.880877203666
 20
-310.0240999094012
 30
0.0000000000563712
 10
4831.419756502073
 20
-310.0873504373867
 30
0.0000000000563712
 10
4831.748136745999
 20
-310.1561147083864
 30
0.0000000000563712
 10
4831.820942282235
 20
-310.2065549472197
 30
0.0000000000563712
 10
4831.824666757484
 20
-310.2255645356627
 30
0.0000000000563712
  0
SPLINE
  5
CBFF
330
18
100
AcDbEntity
  8
01
100
AcDbSpline
210
0.0
220
0.0
230
1.0
 70
     8
 71
     3
 72
    24
 73
    20
 74
     0
 42
0.0000000001
 43
0.0000000001
 40
17.3984718553894
 40
17.3984718553894
 40
17.3984718553894
 40
17.3984718553894
 40
18.3052201529634
 40
19.2113435994769
 40
20.1039423168264
 40
21.2727390097795
 40
22.4619222052583
 40
23.3490416816168
 40
24.4998142207937
 40
25.7095334052068
 40
26.5968671728884
 40
27.50194362695201
 40
28.4113373977728
 40
29.3037820766097
 40
30.7541612899284
 40
31.66103152263451
 40
32.5553489641963
 40
34.0129946595377
 40
34.9214093146169
 40
34.9214093146169
 40
34.9214093146169
 40
34.9214093146169
 10
4831.824666757484
 20
-310.2255645356627
 30
0.0000000000563712
 10
4831.828440979036
 20
-310.2448280274625
 30
0.0000000000563712
 10
4831.786810017092
 20
-310.2830021430552
 30
0.0000000000563712
 10
4831.579097412621
 20
-310.3372205377354
 30
0.0000000000563712
 10
4831.199021833623
 20
-310.3919015828292
 30
0.0000000000563712
 10
4830.603374485225
 20
-310.4437633105342
 30
0.0000000000563712
 10
4829.82994852875
 20
-310.4838305925834
 30
0.0000000000563712
 10
4828.934957880721
 20
-310.5118461486989
 30
0.0000000000563712
 10
4827.936416893263
 20
-310.5276457665943
 30
0.0000000000563712
 10
4826.86819351158
 20
-310.5286758235227
 30
0.0000000000563712
 10
4825.86435582273
 20
-310.5178611663714
 30
0.0000000000563712
 10
4824.971644906656
 20
-310.4995802255194
 30
0.0000000000563712
 10
4824.111991034886
 20
-310.4733095173267
 30
0.0000000000563712
 10
4823.147825718152
 20
-310.4333426908483
 30
0.0000000000563712
 10
4822.306640850175
 20
-310.3840460666381
 30
0.0000000000563712
 10
4821.634199741391
 20
-310.3281220997271
 30
0.0000000000563712
 10
4821.106718303361
 20
-310.2684424452057
 30
0.0000000000563712
 10
4820.789226257837
 20
-310.2058145502774
 30
0.0000000000563712
 10
4820.725109849075
 20
-310.1603815224321
 30
0.0000000000563712
 10
4820.725115290001
 20
-310.1431302162171
 30
0.0000000000563712
  0
SPLINE
  5
CC00
330
18
100
AcDbEntity
  8
01
100
AcDbSpline
210
0.0
220
0.0
230
1.0
 70
     8
 71
     3
 72
    23
 73
    19
 74
     0
 42
0.0000000001
 43
0.0000000001
 40
-0.00150715962443
 40
-0.00150715962443
 40
-0.00150715962443
 40
-0.00150715962443
 40
1.77243425848412
 40
2.55301890176645
 40
3.71711594017937
 40
4.98184342214043
 40
5.905143223238751
 40
7.14747078274516
 40
8.33032271606006
 40
9.269764599041698
 40
10.1960290828974
 40
11.1393577727767
 40
12.1724388065105
 40
13.5446067171954
 40
14.4854557534276
 40
15.6016564528141
 40
16.9125864630305
 40
17.8361453557762
 40
17.8361453557762
 40
17.8361453557762
 40
17.8361453557762
 10
4734.225108662216
 20
-309.464687948534
 30
0.0000000000563712
 10
4734.224671500895
 20
-309.4675215747152
 30
0.0000000000563712
 10
4734.362261205747
 20
-309.4727008929776
 30
0.0000000000563712
 10
4734.834506842511
 20
-309.4827974583229
 30
0.0000000000563712
 10
4735.410237718782
 20
-309.4931594700904
 30
0.0000000000563712
 10
4736.204221824638
 20
-309.505878692592
 30
0.0000000000563712
 10
4737.157622927341
 20
-309.5200510397392
 30
0.0000000000563712
 10
4738.194240648062
 20
-309.53441274343
 30
0.0000000000563712
 10
4739.304618510193
 20
-309.5483548272286
 30
0.0000000000563712
 10
4740.324263776053
 20
-309.559690118931
 30
0.0000000000563712
 10
4741.248173998588
 20
-309.5685225566476
 30
0.0000000000563712
 10
4742.15990171932
 20
-309.5754658165208
 30
0.0000000000563712
 10
4743.127560227102
 20
-309.5803131851312
 30
0.0000000000563712
 10
4743.95293287112
 20
-309.5808734627622
 30
0.0000000000563712
 10
4744.616011924612
 20
-309.5771493661257
 30
0.0000000000563712
 10
4745.087598700674
 20
-309.5699946800994
 30
0.0000000000563712
 10
4745.324633416075
 20
-309.5593791360486
 30
0.0000000000563712
 10
4745.332870519696
 20
-309.5508174142692
 30
0.0000000000563712
 10
4745.310692494424
 20
-309.5471180106615
 30
0.0000000000563712
  0
SPLINE
  5
CC01
330
18
100
AcDbEntity
  8
01
100
AcDbSpline
210
0.0
220
0.0
230
1.0
 70
     8
 71
     3
 72
    25
 73
    21
 74
     0
 42
0.0000000001
 43
0.0000000001
 40
17.8361453557762
 40
17.8361453557762
 40
17.8361453557762
 40
17.8361453557762
 40
18.780692390634
 40
19.7254148679284
 40
20.6487634054228
 40
21.5333610241716
 40
22.134487323944
 40
23.0758418112364
 40
24.0170970359949
 40
24.9411456057015
 40
25.8824746228762
 40
26.8278803693882
 40
27.7558752467715
 40
29.06224051366
 40
30.1825542010003
 40
31.1238213884143
 40
32.0480689337902
 40
32.9896636052536
 40
33.9313572503347
 40
34.8713749077868
 40
34.8713749077868
 40
34.8713749077868
 40
34.8713749077868
 10
4745.310692494424
 20
-309.5471180106615
 30
0.0000000000563712
 10
4745.288010467132
 20
-309.5433345370402
 30
0.0000000000563712
 10
4745.189120149775
 20
-309.535430738526
 30
0.0000000000563712
 10
4744.886555399136
 20
-309.5232609633717
 30
0.0000000000563712
 10
4744.448703451693
 20
-309.5115121007389
 30
0.0000000000563712
 10
4743.955748771634
 20
-309.5017637514366
 30
0.0000000000563712
 10
4743.378914785257
 20
-309.4926351575423
 30
0.0000000000563712
 10
4742.712258798281
 20
-309.4841683878772
 30
0.0000000000563712
 10
4741.875119012023
 20
-309.4760090833463
 30
0.0000000000563712
 10
4740.978800992656
 20
-309.4693158956827
 30
0.0000000000563712
 10
4740.046913213706
 20
-309.4640518258602
 30
0.0000000000563712
 10
4739.105893016632
 20
-309.4601259040942
 30
0.0000000000563712
 10
4738.064494482889
 20
-309.4570222372031
 30
0.0000000000563712
 10
4737.030128865586
 20
-309.4551811040958
 30
0.0000000000563712
 10
4736.115011561113
 20
-309.4545901017123
 30
0.0000000000563712
 10
4735.426725043024
 20
-309.4549183170086
 30
0.0000000000563712
 10
4734.90265405068
 20
-309.4559576527795
 30
0.0000000000563712
 10
4734.51619911667
 20
-309.4577985055621
 30
0.0000000000563712
 10
4734.278522042678
 20
-309.4605906598495
 30
0.0000000000563712
 10
4734.225151480265
 20
-309.4631836594735
 30
0.0000000000563712
 10
4734.225108662216
 20
-309.464687948534
 30
0.0000000000563712
  0
ARC
  5
CC02
330
18
100
AcDbEntity
  8
01
100
AcDbCircle
 10
17212.60667956356
 20
898231.880450865
 30
0.0000000000563712
 40
898628.034934639
100
AcDbArc
 50
269.2039192466922
 51
269.2104215544247
  0
SPLINE
  5
CC03
330
18
100
AcDbEntity
  8
01
100
AcDbSpline
210
0.0
220
0.0
230
1.0
 70
     8
 71
     3
 72
    18
 73
    14
 74
     0
 42
0.0000000001
 43
0.0000000001
 40
4.67318229361288
 40
4.67318229361288
 40
4.67318229361288
 40
4.67318229361288
 40
4.872400131756585
 40
5.34829698281034
 40
5.581669252088256
 40
6.284019987652521
 40
6.913391305604139
 40
7.705948557781269
 40
8.349520956973343
 40
9.482700027989024
 40
10.78778741619538
 40
11.9347296428614
 40
13.20905444891073
 40
13.20905444891073
 40
13.20905444891073
 40
13.20905444891073
 10
4835.289545130434
 20
-311.1689603277639
 30
0.0000000000563712
 10
4835.289546990976
 20
-311.1689523809623
 30
0.0000000000563712
 10
4835.280125274664
 20
-311.1667189374023
 30
0.0000000000563712
 10
4835.231017864421
 20
-311.1572712178236
 30
0.0000000000563712
 10
4835.10810538375
 20
-311.137264289423
 30
0.0000000000563712
 10
4834.912311468448
 20
-311.109939419425
 30
0.0000000000563712
 10
4834.561885232319
 20
-311.0702921764062
 30
0.0000000000563712
 10
4834.147299923568
 20
-311.0315833325849
 30
0.0000000000563712
 10
4833.553021312066
 20
-310.9855951743689
 30
0.0000000000563712
 10
4832.737418343091
 20
-310.9350828503179
 30
0.0000000000563712
 10
4831.665788093233
 20
-310.8865568704443
 30
0.0000000000563712
 10
4830.468120401697
 20
-310.8488166362192
 30
0.0000000000563712
 10
4829.660213247695
 20
-310.8328842128356
 30
0.0000000000563712
 10
4829.236118691668
 20
-310.8271062339327
 30
0.0000000000563712
  0
LINE
  5
CC04
330
18
100
AcDbEntity
  8
01
100
AcDbLine
 10
4835.287989814444
 20
-311.1685969669277
 30
0.0000000000563712
 11
4835.289544814443
 21
-311.1689599669276
 31
0.0000000000563712
  0
LINE
  5
CC05
330
18
100
AcDbEntity
  8
01
100
AcDbLine
 10
4852.777464814443
 20
-290.9019401971536
 30
0.0000000000563712
 11
4727.777464814443
 21
-290.9019401971536
 31
0.0000000000563712
  0
ARC
  5
CC06
330
18
100
AcDbEntity
  8
01
100
AcDbCircle
 10
4852.777464814443
 20
-292.4019401971536
 30
0.0000000000563712
 40
1.5
100
AcDbArc
 50
0.0
 51
90.0
  0
LINE
  5
CC07
330
18
100
AcDbEntity
  8
01
100
AcDbLine
 10
4726.277464814443
 20
-292.4019401971536
 30
0.0000000000563712
 11
4726.277464814443
 21
-301.9022699669276
 31
0.0000000000563712
  0
ARC
  5
CC08
330
18
100
AcDbEntity
  8
01
100
AcDbCircle
 10
4727.777464814443
 20
-292.4019401971536
 30
0.0000000000563712
 40
1.5
100
AcDbArc
 50
90.0
 51
180.0
  0
LINE
  5
CC09
330
18
100
AcDbEntity
  8
01
100
AcDbLine
 10
4854.277464814443
 20
-301.9022699669276
 30
0.0000000000563712
 11
4854.277464814443
 21
-292.4019401971536
 31
0.0000000000563712
  0
LINE
  5
CC0A
330
18
100
AcDbEntity
  8
01
100
AcDbLine
 10
4852.777464814443
 20
-303.4022699669276
 30
0.0000000000563712
 11
4727.777464814443
 21
-303.4022699669276
 31
0.0000000000563712
  0
ARC
  5
CC0B
330
18
100
AcDbEntity
  8
01
100
AcDbCircle
 10
4727.777464814443
 20
-301.9022699669276
 30
0.0000000000563712
 40
1.5
100
AcDbArc
 50
180.0
 51
270.0
  0
ARC
  5
CC0C
330
18
100
AcDbEntity
  8
01
100
AcDbCircle
 10
4852.777464814443
 20
-301.9022699669276
 30
0.0000000000563712
 40
1.5
100
AcDbArc
 50
270.0
 51
0.0
  0
LINE
  5
CF94
330
18
100
AcDbEntity
  8
01
100
AcDbLine
 10
4998.396358242326
 20
-302.9035882800308
 30
0.0000000000563712
 11
4975.768072859893
 21
-302.9035882800308
 31
0.0000000000563712
  0
LINE
  5
CF95
330
18
100
AcDbEntity
  8
01
100
AcDbLine
 10
5034.139554797974
 20
-302.9022699669276
 30
0.0000000000563712
 11
5056.767840180404
 21
-302.9022699669276
 31
0.0000000000563712
  0
TEXT
  5
CF97
330
18
100
AcDbEntity
  8
1TEXT
100
AcDbText
 10
4836.788079318568
 20
-59.65226996692763
 30
0.0
 40
6.0
  1
表面処理：脚部
 72
     1
 11
4861.488079318568
 21
-59.65226996692763
 31
0.0
100
AcDbText
  0
TEXT
  5
CF98
330
18
100
AcDbEntity
  8
1TEXT
100
AcDbText
 10
4847.288079318568
 20
-69.90520295621445
 30
0.0
 40
6.0
  1
クローム
 72
     1
 11
4861.488079318568
 21
-69.90520295621445
 31
0.0
100
AcDbText
  0
LINE
  5
CF99
330
18
100
AcDbEntity
  8
1DIM
100
AcDbLine
 10
4887.888079318567
 20
-51.40226996692763
 30
0.0000000000563712
 11
4887.888079318567
 21
-82.90226996692763
 31
0.0000000000563712
  0
TEXT
  5
CF9A
330
18
100
AcDbEntity
  8
1TEXT
100
AcDbText
 10
4836.688079318567
 20
-80.36864038428394
 30
0.0
 40
6.0
  1
サテンニッケル
 72
     1
 11
4861.488079318568
 21
-80.36864038428394
 31
0.0
100
AcDbText
  0
LINE
  5
CF9B
330
18
100
AcDbEntity
  8
1DIM
100
AcDbLine
 10
4835.388079318567
 20
-82.90226996692763
 30
0.0000000000563712
 11
4835.388079318567
 21
-51.40226996692763
 31
0.0000000000563712
  0
LINE
  5
D0BF
330
18
100
AcDbEntity
  8
01
100
AcDbLine
 10
5124.267840180404
 20
-274.9022706650589
 30
0.0000000000563712
 11
5124.267840180404
 21
-172.1807778822396
 31
0.0000000000563712
1001
ACAD
1000
DSTYLE
1002
{
1070
    40
1040
1.3
1070
    45
1040
0.5
1002
}
  0
LINE
  5
D0C0
330
18
100
AcDbEntity
  8
01
100
AcDbLine
 10
5135.267840180404
 20
-217.03095261577
 30
0.0000000000563712
 11
5135.267840180404
 21
-172.1807778822396
 31
0.0000000000563712
1001
ACAD
1000
DSTYLE
1002
{
1070
    40
1040
1.3
1070
    45
1040
0.5
1002
}
  0
LINE
  5
D0C1
330
18
100
AcDbEntity
  8
01
100
AcDbLine
 10
5126.867840180405
 20
-173.4807778822396
 30
0.0000000000563712
 11
5132.667840180404
 21
-173.4807778822396
 31
0.0000000000563712
1001
ACAD
1000
DSTYLE
1002
{
1070
    40
1040
1.3
1070
    45
1040
0.5
1002
}
  0
LINE
  5
D0C5
330
18
100
AcDbEntity
  8
01
100
AcDbLine
 10
5204.267840180404
 20
-244.9096424745358
 30
0.0000000000563712
 11
5232.567840180404
 21
-244.9096424745358
 31
0.0000000000563712
1001
ACAD
1000
DSTYLE
1002
{
1070
    40
1040
1.3
1070
    45
1040
0.5
1002
}
  0
LINE
  5
D0C6
330
18
100
AcDbEntity
  8
01
100
AcDbLine
 10
5204.267840180404
 20
-318.9022699669281
 30
0.0000000000563712
 11
5232.567840180404
 21
-318.9022699669281
 31
0.0000000000563712
1001
ACAD
1000
DSTYLE
1002
{
1070
    40
1040
1.3
1070
    45
1040
0.5
1002
}
  0
LINE
  5
D0C7
330
18
100
AcDbEntity
  8
01
100
AcDbLine
 10
5231.267840180404
 20
-247.5096424745358
 30
0.0000000000563712
 11
5231.267840180404
 21
-316.3022699669281
 31
0.0000000000563712
1001
ACAD
1000
DSTYLE
1002
{
1070
    40
1040
1.3
1070
    45
1040
0.5
1002
}
  0
LINE
  5
D0CB
330
18
100
AcDbEntity
  8
01
100
AcDbLine
 10
5204.267840180404
 20
-244.9096424745358
 30
0.0000000000563712
 11
5204.267840180404
 21
-162.1009104141914
 31
0.0000000000563712
1001
ACAD
1000
DSTYLE
1002
{
1070
    40
1040
1.3
1070
    45
1040
0.5
1002
}
  0
LINE
  5
D0CC
330
18
100
AcDbEntity
  8
01
100
AcDbLine
 10
5135.267840180404
 20
-217.03095261577
 30
0.0000000000563712
 11
5135.267840180404
 21
-162.1009104141914
 31
0.0000000000563712
1001
ACAD
1000
DSTYLE
1002
{
1070
    40
1040
1.3
1070
    45
1040
0.5
1002
}
  0
LINE
  5
D0CD
330
18
100
AcDbEntity
  8
01
100
AcDbLine
 10
5201.667840180404
 20
-163.4009104141915
 30
0.0000000000563712
 11
5137.867840180405
 21
-163.4009104141915
 31
0.0000000000563712
1001
ACAD
1000
DSTYLE
1002
{
1070
    40
1040
1.3
1070
    45
1040
0.5
1002
}
  0
LINE
  5
D0D1
330
18
100
AcDbEntity
  8
01
100
AcDbLine
 10
5135.267840180404
 20
-217.03095261577
 30
0.0000000000563712
 11
5135.267840180404
 21
-172.1807778822396
 31
0.0000000000563712
1001
ACAD
1000
DSTYLE
1002
{
1070
    40
1040
1.3
1070
    45
1040
0.5
1002
}
  0
LINE
  5
D0D2
330
18
100
AcDbEntity
  8
01
100
AcDbLine
 10
5186.267840180404
 20
-252.9022699669276
 30
0.0000000000563712
 11
5186.267840180404
 21
-172.1807778822396
 31
0.0000000000563712
1001
ACAD
1000
DSTYLE
1002
{
1070
    40
1040
1.3
1070
    45
1040
0.5
1002
}
  0
LINE
  5
D0D3
330
18
100
AcDbEntity
  8
01
100
AcDbLine
 10
5137.867840180405
 20
-173.4807778822396
 30
0.0000000000563712
 11
5183.667840180404
 21
-173.4807778822396
 31
0.0000000000563712
1001
ACAD
1000
DSTYLE
1002
{
1070
    40
1040
1.3
1070
    45
1040
0.5
1002
}
  0
LINE
  5
D0D7
330
18
100
AcDbEntity
  8
01
100
AcDbLine
 10
5022.142981928055
 20
-224.9022699669283
 30
0.0000000000563712
 11
5102.429113096262
 21
-224.9022699669283
 31
0.0000000000563712
1001
ACAD
1000
DSTYLE
1002
{
1070
    40
1040
1.3
1070
    45
1040
0.5
1002
}
  0
LINE
  5
D0D8
330
18
100
AcDbEntity
  8
01
100
AcDbLine
 10
5022.142981928055
 20
-338.9022699669283
 30
0.0000000000563712
 11
5102.429113096262
 21
-338.9022699669283
 31
0.0000000000563712
1001
ACAD
1000
DSTYLE
1002
{
1070
    40
1040
1.3
1070
    45
1040
0.5
1002
}
  0
LINE
  5
D0D9
330
18
100
AcDbEntity
  8
01
100
AcDbLine
 10
5101.129113096262
 20
-227.5022699669283
 30
0.0000000000563712
 11
5101.129113096262
 21
-336.3022699669283
 31
0.0000000000563712
1001
ACAD
1000
DSTYLE
1002
{
1070
    40
1040
1.3
1070
    45
1040
0.5
1002
}
  0
LINE
  5
D0DD
330
18
100
AcDbEntity
  8
01
100
AcDbLine
 10
5022.741042324818
 20
-217.0027151113447
 30
0.0000000000563712
 11
5111.793447262487
 21
-217.0027151113448
 31
0.0000000000563712
1001
ACAD
1000
DSTYLE
1002
{
1070
    40
1040
1.3
1070
    45
1040
0.5
1002
}
  0
LINE
  5
D0DE
330
18
100
AcDbEntity
  8
01
100
AcDbLine
 10
5022.667956520148
 20
-346.8022699669282
 30
0.0000000000563712
 11
5111.793447262487
 21
-346.8022699669282
 31
0.0000000000563712
1001
ACAD
1000
DSTYLE
1002
{
1070
    40
1040
1.3
1070
    45
1040
0.5
1002
}
  0
LINE
  5
D0DF
330
18
100
AcDbEntity
  8
01
100
AcDbLine
 10
5110.493447262486
 20
-219.6027151113448
 30
0.0000000000563712
 11
5110.493447262486
 21
-344.2022699669282
 31
0.0000000000563712
1001
ACAD
1000
DSTYLE
1002
{
1070
    40
1040
1.3
1070
    45
1040
0.5
1002
}
  0
LINE
  5
D0E3
330
18
100
AcDbEntity
  8
01
100
AcDbLine
 10
5003.767956520149
 20
-222.9022699669281
 30
0.0000000000563712
 11
5003.767956520149
 21
-172.1807778822399
 31
0.0000000000563712
1001
ACAD
1000
DSTYLE
1002
{
1070
    40
1040
1.3
1070
    45
1040
0.5
1002
}
  0
LINE
  5
D0E4
330
18
100
AcDbEntity
  8
01
100
AcDbLine
 10
5028.767956520149
 20
-222.9022699669281
 30
0.0000000000563712
 11
5028.767956520149
 21
-172.1807778822399
 31
0.0000000000563712
1001
ACAD
1000
DSTYLE
1002
{
1070
    40
1040
1.3
1070
    45
1040
0.5
1002
}
  0
LINE
  5
D0E5
330
18
100
AcDbEntity
  8
01
100
AcDbLine
 10
5006.367956520149
 20
-173.4807778822399
 30
0.0000000000563712
 11
5026.167956520148
 21
-173.4807778822399
 31
0.0000000000563712
1001
ACAD
1000
DSTYLE
1002
{
1070
    40
1040
1.3
1070
    45
1040
0.5
1002
}
  0
TEXT
  5
D0E9
330
18
100
AcDbEntity
  8
01
  6
CONTINUOUS
100
AcDbText
 10
5097.271001273422
 20
-90.32025494772613
 30
0.0000000000563712
 40
4.55
  1
材質：亜鉛ダイキャスト
100
AcDbText
  0
TEXT
  5
D0EA
330
18
100
AcDbEntity
  8
01
  6
CONTINUOUS
100
AcDbText
 10
5107.584334606756
 20
-97.90358828105946
 30
0.0000000000563712
 40
4.55
  1
仕上げ：各種メッキ
100
AcDbText
  0
LINE
  5
D0EB
330
18
100
AcDbEntity
  8
01
100
AcDbLine
 10
5160.267840180408
 20
-276.4022699669295
 30
0.0000000000563712
 11
5149.967840180404
 21
-276.4022699669295
 31
0.0000000000563712
1001
ACAD
1000
DSTYLE
1002
{
1070
     3
1000
□<>
1070
    40
1040
1.3
1070
    45
1040
0.5
1002
}
  0
LINE
  5
D0EC
330
18
100
AcDbEntity
  8
01
100
AcDbLine
 10
5160.267840180408
 20
-329.4022699669295
 30
0.0000000000563712
 11
5149.967840180404
 21
-329.4022699669295
 31
0.0000000000563712
1001
ACAD
1000
DSTYLE
1002
{
1070
     3
1000
□<>
1070
    40
1040
1.3
1070
    45
1040
0.5
1002
}
  0
LINE
  5
D0ED
330
18
100
AcDbEntity
  8
01
100
AcDbLine
 10
5151.267840180404
 20
-279.0022699669295
 30
0.0000000000563712
 11
5151.267840180404
 21
-326.8022699669294
 31
0.0000000000563712
1001
ACAD
1000
DSTYLE
1002
{
1070
     3
1000
□<>
1070
    40
1040
1.3
1070
    45
1040
0.5
1002
}
  0
LINE
  5
D0F1
330
18
100
AcDbEntity
  8
01
  6
BYBLOCK
100
AcDbLine
 10
5126.867840180405
 20
-174.1774457762396
 30
0.0000000000563712
 11
5124.267840180404
 21
-173.4807778822396
 31
0.0000000000563712
  0
LINE
  5
D0F2
330
18
100
AcDbEntity
  8
01
  6
BYBLOCK
100
AcDbLine
 10
5124.267840180404
 20
-173.4807778822396
 30
0.0000000000563712
 11
5126.867840180405
 21
-172.7841099882396
 31
0.0000000000563712
  0
LINE
  5
D0F3
330
18
100
AcDbEntity
  8
01
  6
BYBLOCK
100
AcDbLine
 10
5124.267840180404
 20
-173.4807778822396
 30
0.0000000000563712
 11
5126.867840180405
 21
-173.4807778822396
 31
0.0000000000563712
  0
LINE
  5
D0F4
330
18
100
AcDbEntity
  8
01
  6
BYBLOCK
100
AcDbLine
 10
5132.667840180404
 20
-172.7841099882396
 30
0.0000000000563712
 11
5135.267840180404
 21
-173.4807778822396
 31
0.0000000000563712
  0
LINE
  5
D0F5
330
18
100
AcDbEntity
  8
01
  6
BYBLOCK
100
AcDbLine
 10
5135.267840180404
 20
-173.4807778822396
 30
0.0000000000563712
 11
5132.667840180404
 21
-174.1774457762396
 31
0.0000000000563712
  0
LINE
  5
D0F6
330
18
100
AcDbEntity
  8
01
  6
BYBLOCK
100
AcDbLine
 10
5135.267840180404
 20
-173.4807778822396
 30
0.0000000000563712
 11
5132.667840180404
 21
-173.4807778822396
 31
0.0000000000563712
  0
TEXT
  5
D0F7
330
18
100
AcDbEntity
  8
01
  6
CONTINUOUS
100
AcDbText
 10
5127.492840180405
 20
-172.5707778822396
 30
0.0000000000563712
 40
4.55
  1
11
100
AcDbText
1001
ACAD
1000
DSTYLE
1002
{
1070
    40
1040
1.3
1070
    45
1040
0.5
1002
}
  0
LINE
  5
D0F8
330
18
100
AcDbEntity
  8
01
  6
BYBLOCK
100
AcDbLine
 10
5230.571172286404
 20
-247.5096424745358
 30
0.0000000000563712
 11
5231.267840180404
 21
-244.9096424745358
 31
0.0000000000563712
  0
LINE
  5
D0F9
330
18
100
AcDbEntity
  8
01
  6
BYBLOCK
100
AcDbLine
 10
5231.267840180404
 20
-244.9096424745358
 30
0.0000000000563712
 11
5231.964508074404
 21
-247.5096424745358
 31
0.0000000000563712
  0
LINE
  5
D0FA
330
18
100
AcDbEntity
  8
01
  6
BYBLOCK
100
AcDbLine
 10
5231.267840180404
 20
-244.9096424745358
 30
0.0000000000563712
 11
5231.267840180404
 21
-247.5096424745358
 31
0.0000000000563712
  0
LINE
  5
D0FB
330
18
100
AcDbEntity
  8
01
  6
BYBLOCK
100
AcDbLine
 10
5231.964508074404
 20
-316.3022699669281
 30
0.0000000000563712
 11
5231.267840180404
 21
-318.9022699669281
 31
0.0000000000563712
  0
LINE
  5
D0FC
330
18
100
AcDbEntity
  8
01
  6
BYBLOCK
100
AcDbLine
 10
5231.267840180404
 20
-318.9022699669281
 30
0.0000000000563712
 11
5230.571172286404
 21
-316.3022699669281
 31
0.0000000000563712
  0
LINE
  5
D0FD
330
18
100
AcDbEntity
  8
01
  6
BYBLOCK
100
AcDbLine
 10
5231.267840180404
 20
-318.9022699669281
 30
0.0000000000563712
 11
5231.267840180404
 21
-316.3022699669281
 31
0.0000000000563712
  0
TEXT
  5
D0FE
330
18
100
AcDbEntity
  8
01
  6
CONTINUOUS
100
AcDbText
 10
5230.357840180403
 20
-263.9309258809099
 30
0.0000000000563712
 40
4.55
  1
74
 50
90.0
100
AcDbText
1001
ACAD
1000
DSTYLE
1002
{
1070
    40
1040
1.3
1070
    45
1040
0.5
1002
}
  0
LINE
  5
D0FF
330
18
100
AcDbEntity
  8
01
  6
BYBLOCK
100
AcDbLine
 10
5201.667840180404
 20
-162.7042425201915
 30
0.0000000000563712
 11
5204.267840180404
 21
-163.4009104141915
 31
0.0000000000563712
  0
LINE
  5
D100
330
18
100
AcDbEntity
  8
01
  6
BYBLOCK
100
AcDbLine
 10
5204.267840180404
 20
-163.4009104141915
 30
0.0000000000563712
 11
5201.667840180404
 21
-164.0975783081915
 31
0.0000000000563712
  0
LINE
  5
D101
330
18
100
AcDbEntity
  8
01
  6
BYBLOCK
100
AcDbLine
 10
5204.267840180404
 20
-163.4009104141915
 30
0.0000000000563712
 11
5201.667840180404
 21
-163.4009104141915
 31
0.0000000000563712
  0
LINE
  5
D102
330
18
100
AcDbEntity
  8
01
  6
BYBLOCK
100
AcDbLine
 10
5137.867840180405
 20
-164.0975783081915
 30
0.0000000000563712
 11
5135.267840180404
 21
-163.4009104141915
 31
0.0000000000563712
  0
LINE
  5
D103
330
18
100
AcDbEntity
  8
01
  6
BYBLOCK
100
AcDbLine
 10
5135.267840180404
 20
-163.4009104141915
 30
0.0000000000563712
 11
5137.867840180405
 21
-162.7042425201915
 31
0.0000000000563712
  0
LINE
  5
D104
330
18
100
AcDbEntity
  8
01
  6
BYBLOCK
100
AcDbLine
 10
5135.267840180404
 20
-163.4009104141915
 30
0.0000000000563712
 11
5137.867840180405
 21
-163.4009104141915
 31
0.0000000000563712
  0
TEXT
  5
D105
330
18
100
AcDbEntity
  8
01
  6
CONTINUOUS
100
AcDbText
 10
5165.959321661886
 20
-162.4909104141915
 30
0.0000000000563712
 40
4.55
  1
69
100
AcDbText
1001
ACAD
1000
DSTYLE
1002
{
1070
    40
1040
1.3
1070
    45
1040
0.5
1002
}
  0
LINE
  5
D106
330
18
100
AcDbEntity
  8
01
  6
BYBLOCK
100
AcDbLine
 10
5137.867840180405
 20
-174.1774457762396
 30
0.0000000000563712
 11
5135.267840180404
 21
-173.4807778822396
 31
0.0000000000563712
  0
LINE
  5
D107
330
18
100
AcDbEntity
  8
01
  6
BYBLOCK
100
AcDbLine
 10
5135.267840180404
 20
-173.4807778822396
 30
0.0000000000563712
 11
5137.867840180405
 21
-172.7841099882396
 31
0.0000000000563712
  0
LINE
  5
D108
330
18
100
AcDbEntity
  8
01
  6
BYBLOCK
100
AcDbLine
 10
5135.267840180404
 20
-173.4807778822396
 30
0.0000000000563712
 11
5137.867840180405
 21
-173.4807778822396
 31
0.0000000000563712
  0
LINE
  5
D109
330
18
100
AcDbEntity
  8
01
  6
BYBLOCK
100
AcDbLine
 10
5183.667840180404
 20
-172.7841099882396
 30
0.0000000000563712
 11
5186.267840180404
 21
-173.4807778822396
 31
0.0000000000563712
  0
LINE
  5
D10A
330
18
100
AcDbEntity
  8
01
  6
BYBLOCK
100
AcDbLine
 10
5186.267840180404
 20
-173.4807778822396
 30
0.0000000000563712
 11
5183.667840180404
 21
-174.1774457762396
 31
0.0000000000563712
  0
LINE
  5
D10B
330
18
100
AcDbEntity
  8
01
  6
BYBLOCK
100
AcDbLine
 10
5186.267840180404
 20
-173.4807778822396
 30
0.0000000000563712
 11
5183.667840180404
 21
-173.4807778822396
 31
0.0000000000563712
  0
TEXT
  5
D10C
330
18
100
AcDbEntity
  8
01
  6
CONTINUOUS
100
AcDbText
 10
5157.71870823596
 20
-172.5707778822396
 30
0.0000000000563712
 40
4.55
  1
51
100
AcDbText
1001
ACAD
1000
DSTYLE
1002
{
1070
    40
1040
1.3
1070
    45
1040
0.5
1002
}
  0
LINE
  5
D10D
330
18
100
AcDbEntity
  8
01
  6
BYBLOCK
100
AcDbLine
 10
5100.432445202262
 20
-227.5022699669283
 30
0.0000000000563712
 11
5101.129113096262
 21
-224.9022699669283
 31
0.0000000000563712
  0
LINE
  5
D10E
330
18
100
AcDbEntity
  8
01
  6
BYBLOCK
100
AcDbLine
 10
5101.129113096262
 20
-224.9022699669283
 30
0.0000000000563712
 11
5101.825780990262
 21
-227.5022699669283
 31
0.0000000000563712
  0
LINE
  5
D10F
330
18
100
AcDbEntity
  8
01
  6
BYBLOCK
100
AcDbLine
 10
5101.129113096262
 20
-224.9022699669283
 30
0.0000000000563712
 11
5101.129113096262
 21
-227.5022699669283
 31
0.0000000000563712
  0
LINE
  5
D110
330
18
100
AcDbEntity
  8
01
  6
BYBLOCK
100
AcDbLine
 10
5101.825780990262
 20
-336.3022699669283
 30
0.0000000000563712
 11
5101.129113096262
 21
-338.9022699669283
 31
0.0000000000563712
  0
LINE
  5
D111
330
18
100
AcDbEntity
  8
01
  6
BYBLOCK
100
AcDbLine
 10
5101.129113096262
 20
-338.9022699669283
 30
0.0000000000563712
 11
5100.432445202262
 21
-336.3022699669283
 31
0.0000000000563712
  0
LINE
  5
D112
330
18
100
AcDbEntity
  8
01
  6
BYBLOCK
100
AcDbLine
 10
5101.129113096262
 20
-338.9022699669283
 30
0.0000000000563712
 11
5101.129113096262
 21
-336.3022699669283
 31
0.0000000000563712
  0
TEXT
  5
D113
330
18
100
AcDbEntity
  8
01
  6
CONTINUOUS
100
AcDbText
 10
5100.219113096262
 20
-257.319247619007
 30
0.0000000000563712
 40
4.55
  1
114
 50
90.0
100
AcDbText
1001
ACAD
1000
DSTYLE
1002
{
1070
    40
1040
1.3
1070
    45
1040
0.5
1002
}
  0
LINE
  5
D114
330
18
100
AcDbEntity
  8
01
  6
BYBLOCK
100
AcDbLine
 10
5109.796779368487
 20
-219.6027151113448
 30
0.0000000000563712
 11
5110.493447262486
 21
-217.0027151113448
 31
0.0000000000563712
  0
LINE
  5
D115
330
18
100
AcDbEntity
  8
01
  6
BYBLOCK
100
AcDbLine
 10
5110.493447262486
 20
-217.0027151113448
 30
0.0000000000563712
 11
5111.190115156486
 21
-219.6027151113448
 31
0.0000000000563712
  0
LINE
  5
D116
330
18
100
AcDbEntity
  8
01
  6
BYBLOCK
100
AcDbLine
 10
5110.493447262486
 20
-217.0027151113448
 30
0.0000000000563712
 11
5110.493447262486
 21
-219.6027151113448
 31
0.0000000000563712
  0
LINE
  5
D117
330
18
100
AcDbEntity
  8
01
  6
BYBLOCK
100
AcDbLine
 10
5111.190115156486
 20
-344.2022699669282
 30
0.0000000000563712
 11
5110.493447262486
 21
-346.8022699669282
 31
0.0000000000563712
  0
LINE
  5
D118
330
18
100
AcDbEntity
  8
01
  6
BYBLOCK
100
AcDbLine
 10
5110.493447262486
 20
-346.8022699669282
 30
0.0000000000563712
 11
5109.796779368487
 21
-344.2022699669282
 31
0.0000000000563712
  0
LINE
  5
D119
330
18
100
AcDbEntity
  8
01
  6
BYBLOCK
100
AcDbLine
 10
5110.493447262486
 20
-346.8022699669282
 30
0.0000000000563712
 11
5110.493447262486
 21
-344.2022699669282
 31
0.0000000000563712
  0
TEXT
  5
D11A
330
18
100
AcDbEntity
  8
01
  6
CONTINUOUS
100
AcDbText
 10
5109.583447262486
 20
-258.1038116218142
 30
0.0000000000563712
 40
4.55
  1
130
 50
90.0
100
AcDbText
1001
ACAD
1000
DSTYLE
1002
{
1070
    40
1040
1.3
1070
    45
1040
0.5
1002
}
  0
LINE
  5
D11B
330
18
100
AcDbEntity
  8
01
  6
BYBLOCK
100
AcDbLine
 10
5006.367956520149
 20
-174.1774457762399
 30
0.0000000000563712
 11
5003.767956520149
 21
-173.4807778822399
 31
0.0000000000563712
  0
LINE
  5
D11C
330
18
100
AcDbEntity
  8
01
  6
BYBLOCK
100
AcDbLine
 10
5003.767956520149
 20
-173.4807778822399
 30
0.0000000000563712
 11
5006.367956520149
 21
-172.7841099882399
 31
0.0000000000563712
  0
LINE
  5
D11D
330
18
100
AcDbEntity
  8
01
  6
BYBLOCK
100
AcDbLine
 10
5003.767956520149
 20
-173.4807778822399
 30
0.0000000000563712
 11
5006.367956520149
 21
-173.4807778822399
 31
0.0000000000563712
  0
LINE
  5
D11E
330
18
100
AcDbEntity
  8
01
  6
BYBLOCK
100
AcDbLine
 10
5026.167956520148
 20
-172.7841099882399
 30
0.0000000000563712
 11
5028.767956520149
 21
-173.4807778822399
 31
0.0000000000563712
  0
LINE
  5
D11F
330
18
100
AcDbEntity
  8
01
  6
BYBLOCK
100
AcDbLine
 10
5028.767956520149
 20
-173.4807778822399
 30
0.0000000000563712
 11
5026.167956520148
 21
-174.1774457762399
 31
0.0000000000563712
  0
LINE
  5
D120
330
18
100
AcDbEntity
  8
01
  6
BYBLOCK
100
AcDbLine
 10
5028.767956520149
 20
-173.4807778822399
 30
0.0000000000563712
 11
5026.167956520148
 21
-173.4807778822399
 31
0.0000000000563712
  0
TEXT
  5
D121
330
18
100
AcDbEntity
  8
01
  6
CONTINUOUS
100
AcDbText
 10
5012.476289853482
 20
-172.5707778822399
 30
0.0000000000563712
 40
4.55
  1
25
100
AcDbText
1001
ACAD
1000
DSTYLE
1002
{
1070
    40
1040
1.3
1070
    45
1040
0.5
1002
}
  0
LINE
  5
D122
330
18
100
AcDbEntity
  8
01
  6
BYBLOCK
100
AcDbLine
 10
5150.571172286404
 20
-279.0022699669295
 30
0.0000000000563712
 11
5151.267840180404
 21
-276.4022699669295
 31
0.0000000000563712
  0
LINE
  5
D123
330
18
100
AcDbEntity
  8
01
  6
BYBLOCK
100
AcDbLine
 10
5151.267840180404
 20
-276.4022699669295
 30
0.0000000000563712
 11
5151.964508074404
 21
-279.0022699669295
 31
0.0000000000563712
  0
LINE
  5
D124
330
18
100
AcDbEntity
  8
01
  6
BYBLOCK
100
AcDbLine
 10
5151.267840180404
 20
-276.4022699669295
 30
0.0000000000563712
 11
5151.267840180404
 21
-279.0022699669295
 31
0.0000000000563712
  0
LINE
  5
D125
330
18
100
AcDbEntity
  8
01
  6
BYBLOCK
100
AcDbLine
 10
5151.964508074404
 20
-326.8022699669294
 30
0.0000000000563712
 11
5151.267840180404
 21
-329.4022699669295
 31
0.0000000000563712
  0
LINE
  5
D126
330
18
100
AcDbEntity
  8
01
  6
BYBLOCK
100
AcDbLine
 10
5151.267840180404
 20
-329.4022699669295
 30
0.0000000000563712
 11
5150.571172286404
 21
-326.8022699669294
 31
0.0000000000563712
  0
LINE
  5
D127
330
18
100
AcDbEntity
  8
01
  6
BYBLOCK
100
AcDbLine
 10
5151.267840180404
 20
-329.4022699669295
 30
0.0000000000563712
 11
5151.267840180404
 21
-326.8022699669294
 31
0.0000000000563712
  0
TEXT
  5
D128
330
18
100
AcDbEntity
  8
01
  6
CONTINUOUS
100
AcDbText
 10
5150.357840180404
 20
-310.9311478735262
 30
0.0000000000563712
 40
4.55
  1
□53
 50
90.0
100
AcDbText
1001
ACAD
1000
DSTYLE
1002
{
1070
     3
1000
□<>
1070
    40
1040
1.3
1070
    45
1040
0.5
1002
}
  0
LINE
  5
D129
330
18
100
AcDbEntity
  8
1DIM
100
AcDbLine
 10
5202.668724362464
 20
-23.40226996795627
 30
0.0000000000563712
 11
5223.229115122177
 21
-23.40226996795628
 31
0.0000000000563712
1001
ACAD
1000
DSTYLE
1002
{
1070
    45
1040
0.5
1070
    40
1040
1.3
1002
}
  0
LINE
  5
D12A
330
18
100
AcDbEntity
  8
1DIM
100
AcDbLine
 10
5204.268724362464
 20
-42.20226996795623
 30
0.0000000000563712
 11
5223.229115122177
 21
-42.20226996795623
 31
0.0000000000563712
1001
ACAD
1000
DSTYLE
1002
{
1070
    45
1040
0.5
1070
    40
1040
1.3
1002
}
  0
LINE
  5
D12B
330
18
100
AcDbEntity
  8
1DIM
100
AcDbLine
 10
5221.929115122177
 20
-26.00226996795628
 30
0.0000000000563712
 11
5221.929115122177
 21
-39.60226996795623
 31
0.0000000000563712
1001
ACAD
1000
DSTYLE
1002
{
1070
    45
1040
0.5
1070
    40
1040
1.3
1002
}
  0
SOLID
  5
D12F
330
18
100
AcDbEntity
  8
1DIM
100
AcDbTrace
 10
5183.63768953515
 20
-78.95434533497465
 30
0.0000000000563712
 11
5186.008441420465
 21
-77.80225450693433
 31
0.0000000000563712
 12
5184.139489365072
 22
-79.66096265842589
 32
0.0000000000563712
 13
5184.139489365072
 23
-79.66096265842589
 33
0.0000000000563712
1001
ACAD
1000
DSTYLE
1002
{
1070
    40
1040
1.3
1070
    45
1040
0.5
1002
}
  0
LINE
  5
D130
330
18
100
AcDbEntity
  8
1DIM
100
AcDbLine
 10
5183.888589450111
 20
-79.30765399670027
 30
0.0000000000563712
 11
5156.421001273422
 21
-98.81358828105945
 31
0.0000000000563712
1001
ACAD
1000
DSTYLE
1002
{
1070
    40
1040
1.3
1070
    45
1040
0.5
1002
}
  0
SOLID
  5
D131
330
18
100
AcDbEntity
  8
1DIM
100
AcDbTrace
 10
5220.342999682317
 20
-96.23351546090932
 30
0.0000000000563712
 11
5218.325831849485
 21
-97.93022159691645
 31
0.0000000000563712
 12
5219.683680512107
 22
-95.67101271166678
 32
0.0000000000563712
 13
5219.683680512107
 23
-95.67101271166678
 33
0.0000000000563712
1001
ACAD
1000
DSTYLE
1002
{
1070
    40
1040
1.3
1070
    45
1040
0.5
1002
}
  0
LINE
  5
D132
330
18
100
AcDbEntity
  8
1DIM
100
AcDbLine
 10
5220.013340097212
 20
-95.95226408628804
 30
0.0000000000563712
 11
5231.630059425604
 21
-82.33610708356096
 31
0.0000000000563712
1001
ACAD
1000
DSTYLE
1002
{
1070
    40
1040
1.3
1070
    45
1040
0.5
1002
}
  0
LINE
  5
D133
330
18
100
AcDbEntity
  8
1DIM
100
AcDbLine
 10
5231.630059425604
 20
-82.33610708356096
 30
0.0000000000563712
 11
5293.076726092271
 21
-82.33610708356096
 31
0.0000000000563712
1001
ACAD
1000
DSTYLE
1002
{
1070
    40
1040
1.3
1070
    45
1040
0.5
1002
}
  0
TEXT
  5
D134
330
18
100
AcDbEntity
  8
1DIM
  6
CONTINUOUS
100
AcDbText
 10
5234.836726092271
 20
-73.84277375022764
 30
0.0000000000563712
 40
4.55
  1
材質：亜鉛ダイキャスト
100
AcDbText
  0
TEXT
  5
D135
330
18
100
AcDbEntity
  8
1DIM
  6
CONTINUOUS
100
AcDbText
 10
5234.988392758938
 20
-81.42610708356096
 30
0.0000000000563712
 40
4.55
  1
仕上げ：各種メッキ
100
AcDbText
  0
LINE
  5
D136
330
18
100
AcDbEntity
  8
1DIM
100
AcDbLine
 10
5186.267956520147
 20
-74.40358828105946
 30
0.0000000000563712
 11
5186.267956520147
 21
-139.2035882810595
 31
0.0000000000563712
1001
ACAD
1000
DSTYLE
1002
{
1070
    40
1040
1.3
1070
    45
1040
0.5
1002
}
  0
LINE
  5
D137
330
18
100
AcDbEntity
  8
1DIM
100
AcDbLine
 10
5306.267956520147
 20
-116.6035882810588
 30
0.0000000000563712
 11
5306.267956520147
 21
-139.2035882810595
 31
0.0000000000563712
1001
ACAD
1000
DSTYLE
1002
{
1070
    40
1040
1.3
1070
    45
1040
0.5
1002
}
  0
LINE
  5
D138
330
18
100
AcDbEntity
  8
1DIM
100
AcDbLine
 10
5188.867956520147
 20
-137.9035882810595
 30
0.0000000000563712
 11
5303.667956520147
 21
-137.9035882810595
 31
0.0000000000563712
1001
ACAD
1000
DSTYLE
1002
{
1070
    40
1040
1.3
1070
    45
1040
0.5
1002
}
  0
LINE
  5
D13C
330
18
100
AcDbEntity
  8
1DIM
100
AcDbLine
 10
5173.267956520123
 20
-117.1035882810593
 30
0.0000000000563712
 11
5173.267956520123
 21
-149.2035882810595
 31
0.0000000000563712
1001
ACAD
1000
DSTYLE
1002
{
1070
    40
1040
1.3
1070
    45
1040
0.5
1002
}
  0
LINE
  5
D13D
330
18
100
AcDbEntity
  8
1DIM
100
AcDbLine
 10
5306.267956520147
 20
-116.6035882810588
 30
0.0000000000563712
 11
5306.267956520147
 21
-149.2035882810595
 31
0.0000000000563712
1001
ACAD
1000
DSTYLE
1002
{
1070
    40
1040
1.3
1070
    45
1040
0.5
1002
}
  0
LINE
  5
D13E
330
18
100
AcDbEntity
  8
1DIM
100
AcDbLine
 10
5175.867956520124
 20
-147.9035882810595
 30
0.0000000000563712
 11
5303.667956520147
 21
-147.9035882810595
 31
0.0000000000563712
1001
ACAD
1000
DSTYLE
1002
{
1070
    40
1040
1.3
1070
    45
1040
0.5
1002
}
  0
LINE
  5
D142
330
18
100
AcDbEntity
  8
1DIM
100
AcDbLine
 10
5304.767956520147
 20
-91.60358828105927
 30
0.0000000000563712
 11
5342.567956520147
 21
-91.60358828105927
 31
0.0000000000563712
1001
ACAD
1000
DSTYLE
1002
{
1070
    40
1040
1.3
1070
    45
1040
0.5
1002
}
  0
LINE
  5
D143
330
18
100
AcDbEntity
  8
1DIM
100
AcDbLine
 10
5289.023104517495
 20
-52.90358828105946
 30
0.0000000000563712
 11
5342.567956520147
 21
-52.90358828105947
 31
0.0000000000563712
1001
ACAD
1000
DSTYLE
1002
{
1070
    40
1040
1.3
1070
    45
1040
0.5
1002
}
  0
LINE
  5
D144
330
18
100
AcDbEntity
  8
1DIM
100
AcDbLine
 10
5341.267956520147
 20
-89.00358828105928
 30
0.0000000000563712
 11
5341.267956520147
 21
-55.50358828105947
 31
0.0000000000563712
1001
ACAD
1000
DSTYLE
1002
{
1070
    40
1040
1.3
1070
    45
1040
0.5
1002
}
  0
LINE
  5
D148
330
18
100
AcDbEntity
  8
1DIM
100
AcDbLine
 10
5304.767956520147
 20
-118.6035882810593
 30
0.0000000000563712
 11
5352.567956520147
 21
-118.6035882810593
 31
0.0000000000563712
1001
ACAD
1000
DSTYLE
1002
{
1070
    40
1040
1.3
1070
    45
1040
0.5
1002
}
  0
LINE
  5
D149
330
18
100
AcDbEntity
  8
1DIM
100
AcDbLine
 10
5289.023104517495
 20
-52.90358828105946
 30
0.0000000000563712
 11
5352.567956520147
 21
-52.90358828105948
 31
0.0000000000563712
1001
ACAD
1000
DSTYLE
1002
{
1070
    40
1040
1.3
1070
    45
1040
0.5
1002
}
  0
LINE
  5
D14A
330
18
100
AcDbEntity
  8
1DIM
100
AcDbLine
 10
5351.267956520147
 20
-116.0035882810593
 30
0.0000000000563712
 11
5351.267956520147
 21
-55.50358828105948
 31
0.0000000000563712
1001
ACAD
1000
DSTYLE
1002
{
1070
    40
1040
1.3
1070
    45
1040
0.5
1002
}
  0
LINE
  5
D14E
330
18
100
AcDbEntity
  8
1DIM
100
AcDbLine
 10
5203.299794357534
 20
-310.827106234095
 30
0.0000000000563712
 11
5342.567840180404
 21
-310.8271062340951
 31
0.0000000000563712
1001
ACAD
1000
DSTYLE
1002
{
1070
    40
1040
1.3
1070
    45
1040
0.5
1002
}
  0
LINE
  5
D14F
330
18
100
AcDbEntity
  8
1DIM
100
AcDbLine
 10
5304.472380828792
 20
-290.9019401971536
 30
0.0000000000563712
 11
5342.567840180404
 21
-290.9019401971536
 31
0.0000000000563712
1001
ACAD
1000
DSTYLE
1002
{
1070
    40
1040
1.3
1070
    45
1040
0.5
1002
}
  0
LINE
  5
D150
330
18
100
AcDbEntity
  8
1DIM
100
AcDbLine
 10
5341.267840180404
 20
-308.2271062340951
 30
0.0000000000563712
 11
5341.267840180404
 21
-293.5019401971537
 31
0.0000000000563712
1001
ACAD
1000
DSTYLE
1002
{
1070
    40
1040
1.3
1070
    45
1040
0.5
1002
}
  0
LINE
  5
D154
330
18
100
AcDbEntity
  8
0
  6
BYBLOCK
100
AcDbLine
 10
5221.232447228177
 20
-26.00226996795628
 30
0.0000000000563712
 11
5221.929115122177
 21
-23.40226996795628
 31
0.0000000000563712
  0
LINE
  5
D155
330
18
100
AcDbEntity
  8
0
  6
BYBLOCK
100
AcDbLine
 10
5221.929115122177
 20
-23.40226996795628
 30
0.0000000000563712
 11
5222.625783016177
 21
-26.00226996795628
 31
0.0000000000563712
  0
LINE
  5
D156
330
18
100
AcDbEntity
  8
0
  6
BYBLOCK
100
AcDbLine
 10
5221.929115122177
 20
-23.40226996795628
 30
0.0000000000563712
 11
5221.929115122177
 21
-26.00226996795628
 31
0.0000000000563712
  0
LINE
  5
D157
330
18
100
AcDbEntity
  8
0
  6
BYBLOCK
100
AcDbLine
 10
5222.625783016177
 20
-39.60226996795623
 30
0.0000000000563712
 11
5221.929115122177
 21
-42.20226996795623
 31
0.0000000000563712
  0
LINE
  5
D158
330
18
100
AcDbEntity
  8
0
  6
BYBLOCK
100
AcDbLine
 10
5221.929115122177
 20
-42.20226996795623
 30
0.0000000000563712
 11
5221.232447228177
 21
-39.60226996795623
 31
0.0000000000563712
  0
LINE
  5
D159
330
18
100
AcDbEntity
  8
0
  6
BYBLOCK
100
AcDbLine
 10
5221.929115122177
 20
-42.20226996795623
 30
0.0000000000563712
 11
5221.929115122177
 21
-39.60226996795623
 31
0.0000000000563712
  0
TEXT
  5
D15A
330
18
100
AcDbEntity
  8
1DIM
  6
CONTINUOUS
100
AcDbText
 10
5221.019115122176
 20
-35.83665654203014
 30
0.0000000000563712
 40
4.55
  1
19
 50
90.0
100
AcDbText
1001
ACAD
1000
DSTYLE
1002
{
1070
    45
1040
0.5
1070
    40
1040
1.3
1002
}
  0
LINE
  5
D15B
330
18
100
AcDbEntity
  8
0
  6
BYBLOCK
100
AcDbLine
 10
5188.867956520147
 20
-138.6002561750595
 30
0.0000000000563712
 11
5186.267956520147
 21
-137.9035882810595
 31
0.0000000000563712
  0
LINE
  5
D15C
330
18
100
AcDbEntity
  8
0
  6
BYBLOCK
100
AcDbLine
 10
5186.267956520147
 20
-137.9035882810595
 30
0.0000000000563712
 11
5188.867956520147
 21
-137.2069203870595
 31
0.0000000000563712
  0
LINE
  5
D15D
330
18
100
AcDbEntity
  8
0
  6
BYBLOCK
100
AcDbLine
 10
5186.267956520147
 20
-137.9035882810595
 30
0.0000000000563712
 11
5188.867956520147
 21
-137.9035882810595
 31
0.0000000000563712
  0
LINE
  5
D15E
330
18
100
AcDbEntity
  8
0
  6
BYBLOCK
100
AcDbLine
 10
5303.667956520147
 20
-137.2069203870595
 30
0.0000000000563712
 11
5306.267956520147
 21
-137.9035882810595
 31
0.0000000000563712
  0
LINE
  5
D15F
330
18
100
AcDbEntity
  8
0
  6
BYBLOCK
100
AcDbLine
 10
5306.267956520147
 20
-137.9035882810595
 30
0.0000000000563712
 11
5303.667956520147
 21
-138.6002561750595
 31
0.0000000000563712
  0
LINE
  5
D160
330
18
100
AcDbEntity
  8
0
  6
BYBLOCK
100
AcDbLine
 10
5306.267956520147
 20
-137.9035882810595
 30
0.0000000000563712
 11
5303.667956520147
 21
-137.9035882810595
 31
0.0000000000563712
  0
TEXT
  5
D161
330
18
100
AcDbEntity
  8
1DIM
  6
CONTINUOUS
100
AcDbText
 10
5241.243998186814
 20
-136.9935882810595
 30
0.0000000000563712
 40
4.55
  1
120
100
AcDbText
1001
ACAD
1000
DSTYLE
1002
{
1070
    40
1040
1.3
1070
    45
1040
0.5
1002
}
  0
LINE
  5
D162
330
18
100
AcDbEntity
  8
0
  6
BYBLOCK
100
AcDbLine
 10
5175.867956520124
 20
-148.6002561750595
 30
0.0000000000563712
 11
5173.267956520123
 21
-147.9035882810595
 31
0.0000000000563712
  0
LINE
  5
D163
330
18
100
AcDbEntity
  8
0
  6
BYBLOCK
100
AcDbLine
 10
5173.267956520123
 20
-147.9035882810595
 30
0.0000000000563712
 11
5175.867956520124
 21
-147.2069203870595
 31
0.0000000000563712
  0
LINE
  5
D164
330
18
100
AcDbEntity
  8
0
  6
BYBLOCK
100
AcDbLine
 10
5173.267956520123
 20
-147.9035882810595
 30
0.0000000000563712
 11
5175.867956520124
 21
-147.9035882810595
 31
0.0000000000563712
  0
LINE
  5
D165
330
18
100
AcDbEntity
  8
0
  6
BYBLOCK
100
AcDbLine
 10
5303.667956520147
 20
-147.2069203870595
 30
0.0000000000563712
 11
5306.267956520147
 21
-147.9035882810595
 31
0.0000000000563712
  0
LINE
  5
D166
330
18
100
AcDbEntity
  8
0
  6
BYBLOCK
100
AcDbLine
 10
5306.267956520147
 20
-147.9035882810595
 30
0.0000000000563712
 11
5303.667956520147
 21
-148.6002561750595
 31
0.0000000000563712
  0
LINE
  5
D167
330
18
100
AcDbEntity
  8
0
  6
BYBLOCK
100
AcDbLine
 10
5306.267956520147
 20
-147.9035882810595
 30
0.0000000000563712
 11
5303.667956520147
 21
-147.9035882810595
 31
0.0000000000563712
  0
TEXT
  5
D168
330
18
100
AcDbEntity
  8
1DIM
  6
CONTINUOUS
100
AcDbText
 10
5234.459623186802
 20
-146.9935882810595
 30
0.0000000000563712
 40
4.55
  1
133
100
AcDbText
1001
ACAD
1000
DSTYLE
1002
{
1070
    40
1040
1.3
1070
    45
1040
0.5
1002
}
  0
LINE
  5
D169
330
18
100
AcDbEntity
  8
0
  6
BYBLOCK
100
AcDbLine
 10
5341.964624414147
 20
-89.00358828105928
 30
0.0000000000563712
 11
5341.267956520147
 21
-91.60358828105927
 31
0.0000000000563712
  0
LINE
  5
D16A
330
18
100
AcDbEntity
  8
0
  6
BYBLOCK
100
AcDbLine
 10
5341.267956520147
 20
-91.60358828105927
 30
0.0000000000563712
 11
5340.571288626147
 21
-89.00358828105928
 31
0.0000000000563712
  0
LINE
  5
D16B
330
18
100
AcDbEntity
  8
0
  6
BYBLOCK
100
AcDbLine
 10
5341.267956520147
 20
-91.60358828105927
 30
0.0000000000563712
 11
5341.267956520147
 21
-89.00358828105928
 31
0.0000000000563712
  0
LINE
  5
D16C
330
18
100
AcDbEntity
  8
0
  6
BYBLOCK
100
AcDbLine
 10
5340.571288626147
 20
-55.50358828105947
 30
0.0000000000563712
 11
5341.267956520147
 21
-52.90358828105947
 31
0.0000000000563712
  0
LINE
  5
D16D
330
18
100
AcDbEntity
  8
0
  6
BYBLOCK
100
AcDbLine
 10
5341.267956520147
 20
-52.90358828105947
 30
0.0000000000563712
 11
5341.964624414147
 21
-55.50358828105947
 31
0.0000000000563712
  0
LINE
  5
D16E
330
18
100
AcDbEntity
  8
0
  6
BYBLOCK
100
AcDbLine
 10
5341.267956520147
 20
-52.90358828105947
 30
0.0000000000563712
 11
5341.267956520147
 21
-55.50358828105947
 31
0.0000000000563712
  0
TEXT
  5
D16F
330
18
100
AcDbEntity
  8
1DIM
  6
CONTINUOUS
100
AcDbText
 10
5340.357956520146
 20
-79.07858828105873
 30
0.0000000000563712
 40
4.55
  1
38.5
 50
90.0
100
AcDbText
1001
ACAD
1000
DSTYLE
1002
{
1070
    40
1040
1.3
1070
    45
1040
0.5
1002
}
  0
LINE
  5
D170
330
18
100
AcDbEntity
  8
0
  6
BYBLOCK
100
AcDbLine
 10
5351.964624414147
 20
-116.0035882810593
 30
0.0000000000563712
 11
5351.267956520147
 21
-118.6035882810593
 31
0.0000000000563712
  0
LINE
  5
D171
330
18
100
AcDbEntity
  8
0
  6
BYBLOCK
100
AcDbLine
 10
5351.267956520147
 20
-118.6035882810593
 30
0.0000000000563712
 11
5350.571288626147
 21
-116.0035882810593
 31
0.0000000000563712
  0
LINE
  5
D172
330
18
100
AcDbEntity
  8
0
  6
BYBLOCK
100
AcDbLine
 10
5351.267956520147
 20
-118.6035882810593
 30
0.0000000000563712
 11
5351.267956520147
 21
-116.0035882810593
 31
0.0000000000563712
  0
LINE
  5
D173
330
18
100
AcDbEntity
  8
0
  6
BYBLOCK
100
AcDbLine
 10
5350.571288626147
 20
-55.50358828105948
 30
0.0000000000563712
 11
5351.267956520147
 21
-52.90358828105948
 31
0.0000000000563712
  0
LINE
  5
D174
330
18
100
AcDbEntity
  8
0
  6
BYBLOCK
100
AcDbLine
 10
5351.267956520147
 20
-52.90358828105948
 30
0.0000000000563712
 11
5351.964624414147
 21
-55.50358828105948
 31
0.0000000000563712
  0
LINE
  5
D175
330
18
100
AcDbEntity
  8
0
  6
BYBLOCK
100
AcDbLine
 10
5351.267956520147
 20
-52.90358828105948
 30
0.0000000000563712
 11
5351.267956520147
 21
-55.50358828105948
 31
0.0000000000563712
  0
TEXT
  5
D176
330
18
100
AcDbEntity
  8
1DIM
  6
CONTINUOUS
100
AcDbText
 10
5350.357956520146
 20
-92.61018550328117
 30
0.0000000000563712
 40
4.55
  1
65.5
 50
90.0
100
AcDbText
1001
ACAD
1000
DSTYLE
1002
{
1070
    40
1040
1.3
1070
    45
1040
0.5
1002
}
  0
LINE
  5
D177
330
18
100
AcDbEntity
  8
0
  6
BYBLOCK
100
AcDbLine
 10
5341.964508074404
 20
-308.2271062340951
 30
0.0000000000563712
 11
5341.267840180404
 21
-310.8271062340951
 31
0.0000000000563712
  0
LINE
  5
D178
330
18
100
AcDbEntity
  8
0
  6
BYBLOCK
100
AcDbLine
 10
5341.267840180404
 20
-310.8271062340951
 30
0.0000000000563712
 11
5340.571172286404
 21
-308.2271062340951
 31
0.0000000000563712
  0
LINE
  5
D179
330
18
100
AcDbEntity
  8
0
  6
BYBLOCK
100
AcDbLine
 10
5341.267840180404
 20
-310.8271062340951
 30
0.0000000000563712
 11
5341.267840180404
 21
-308.2271062340951
 31
0.0000000000563712
  0
LINE
  5
D17A
330
18
100
AcDbEntity
  8
0
  6
BYBLOCK
100
AcDbLine
 10
5340.571172286404
 20
-293.5019401971537
 30
0.0000000000563712
 11
5341.267840180404
 21
-290.9019401971536
 31
0.0000000000563712
  0
LINE
  5
D17B
330
18
100
AcDbEntity
  8
0
  6
BYBLOCK
100
AcDbLine
 10
5341.267840180404
 20
-290.9019401971536
 30
0.0000000000563712
 11
5341.964508074404
 21
-293.5019401971537
 31
0.0000000000563712
  0
LINE
  5
D17C
330
18
100
AcDbEntity
  8
0
  6
BYBLOCK
100
AcDbLine
 10
5341.267840180404
 20
-290.9019401971536
 30
0.0000000000563712
 11
5341.267840180404
 21
-293.5019401971537
 31
0.0000000000563712
  0
TEXT
  5
D17D
330
18
100
AcDbEntity
  8
1DIM
  6
CONTINUOUS
100
AcDbText
 10
5340.357840180403
 20
-304.37181488229
 30
0.0000000000563712
 40
4.55
  1
20
 50
90.0
100
AcDbText
1001
ACAD
1000
DSTYLE
1002
{
1070
    40
1040
1.3
1070
    45
1040
0.5
1002
}
  0
VIEWPORT
  5
57
330
15
100
AcDbEntity
 67
     1
  8
0
100
AcDbViewport
 68
     1
 10
0.0
 20
0.0
 30
0.0
 40
535.5106132075472
 41
297.0
 68
     1
 69
     1
1001
ACAD
1000
MVIEW
1002
{
1070
    16
1010
0.0
1020
0.0
1030
0.0
1010
0.0
1020
0.0
1030
1.0
1040
0.0
1040
297.0
1040
5.728000000000009
1040
25.33899999999998
1040
50.0
1040
0.0
1040
0.0
1070
    16
1070
   100
1070
     0
1070
     1
1070
     0
1070
     0
1070
     0
1070
     0
1040
0.0
1040
0.0
1040
0.0
1040
10.0
1040
10.0
1040
10.0
1040
10.0
1070
     0
1002
{
1002
}
1002
}
  0
ENDSEC
  0
SECTION
  2
OBJECTS
  0
DICTIONARY
  5
C
330
0
100
AcDbDictionary
  3
ACAD_CIP_PREVIOUS_PRODUCT_INFO
350
AD5D
  3
ACAD_COLOR
350
18D
  3
ACAD_GROUP
350
D
  3
ACAD_LAYOUT
350
18E
  3
ACAD_MATERIAL
350
18C
  3
ACAD_MLEADERSTYLE
350
9583
  3
ACAD_MLINESTYLE
350
1B
  3
ACAD_PLOTSETTINGS
350
18F
  3
ACAD_SCALELIST
350
9561
  3
ACAD_VISUALSTYLE
350
9550
  3
ACDBHEADERROUNDTRIPXREC
350
D17E
  3
ACDBVARIABLEDICTIONARY
350
37
  3
AEC_PROPERTY_SET_DEFS
350
AE18
  3
CONTENTDICTIONARY
350
D8
  3
DRAWINGVARIABLESDICT
350
20
  3
DWGPROPS
350
D181
1001
ACAD
1000
TREAT_AS_HARD
1070
     0
  0
DICTIONARY
  5
96D9
330
2
100
AcDbDictionary
  3
ACAD_LAYERSTATES
360
96DA
1001
ACAD
1000
TREAT_AS_HARD
1070
     1
  0
DICTIONARY
  5
9593
330
E
100
AcDbDictionary
  3
ADSK_XREC_LAYER_RECONCILED
360
9594
1001
ACAD
1000
TREAT_AS_HARD
1070
     1
  0
DICTIONARY
  5
9595
330
29
100
AcDbDictionary
  3
ADSK_XREC_LAYER_RECONCILED
360
9596
1001
ACAD
1000
TREAT_AS_HARD
1070
     1
  0
DICTIONARY
  5
9597
330
31
100
AcDbDictionary
  3
ADSK_XREC_LAYER_RECONCILED
360
9598
1001
ACAD
1000
TREAT_AS_HARD
1070
     1
  0
DICTIONARY
  5
959D
330
243
100
AcDbDictionary
  3
ADSK_XREC_LAYER_RECONCILED
360
959E
1001
ACAD
1000
TREAT_AS_HARD
1070
     1
  0
DICTIONARY
  5
95A3
330
24E
100
AcDbDictionary
  3
ADSK_XREC_LAYER_RECONCILED
360
95A4
1001
ACAD
1000
TREAT_AS_HARD
1070
     1
  0
DICTIONARY
  5
95A5
330
252
100
AcDbDictionary
  3
ADSK_XREC_LAYER_RECONCILED
360
95A6
1001
ACAD
1000
TREAT_AS_HARD
1070
     1
  0
DICTIONARY
  5
88F
330
18
100
AcDbDictionary
  3
ACAD_SORTENTS
360
890
1001
ACAD
1000
TREAT_AS_HARD
1070
     1
  0
XRECORD
  5
AD5D
102
{ACAD_REACTORS
330
C
102
}
330
C
100
AcDbXrecord
300
ACDLT
300
2012
300
ACDLT_F_S
  0
DICTIONARY
  5
18D
102
{ACAD_REACTORS
330
C
102
}
330
C
100
AcDbDictionary
1001
ACAD
1000
TREAT_AS_HARD
1070
     0
  0
DICTIONARY
  5
D
102
{ACAD_REACTORS
330
C
102
}
330
C
100
AcDbDictionary
1001
ACAD
1000
TREAT_AS_HARD
1070
     0
  0
DICTIONARY
  5
18E
102
{ACAD_REACTORS
330
C
102
}
330
C
100
AcDbDictionary
1001
ACAD
1000
TREAT_AS_HARD
1070
     0
  0
DICTIONARY
  5
18C
102
{ACAD_REACTORS
330
C
102
}
330
C
100
AcDbDictionary
  3
BYBLOCK
350
9540
  3
BYLAYER
350
9538
  3
GLOBAL
350
9548
1001
ACAD
1000
TREAT_AS_HARD
1070
     0
  0
DICTIONARY
  5
9583
102
{ACAD_REACTORS
330
C
102
}
330
C
100
AcDbDictionary
  3
STANDARD
350
9584
1001
ACAD
1000
TREAT_AS_HARD
1070
     0
  0
DICTIONARY
  5
1B
102
{ACAD_REACTORS
330
C
102
}
330
C
100
AcDbDictionary
  3
STANDARD
350
1C
1001
ACAD
1000
TREAT_AS_HARD
1070
     0
  0
DICTIONARY
  5
18F
102
{ACAD_REACTORS
330
C
102
}
330
C
100
AcDbDictionary
1001
ACAD
1000
TREAT_AS_HARD
1070
     0
  0
DICTIONARY
  5
9561
102
{ACAD_REACTORS
330
C
102
}
330
C
100
AcDbDictionary
  3
A0
350
9562
  3
A1
350
9563
  3
A2
350
9564
  3
A3
350
9565
  3
A4
350
9566
  3
A5
350
9567
  3
A6
350
9568
  3
A7
350
9569
  3
A8
350
956A
  3
A9
350
956B
  3
B0
350
956C
  3
B1
350
956D
  3
B2
350
956E
  3
B3
350
956F
  3
B4
350
9570
  3
B5
350
9571
  3
B6
350
9572
  3
B7
350
9573
  3
B8
350
9574
  3
B9
350
9575
  3
C0
350
9576
  3
C1
350
9577
  3
C2
350
9578
  3
C3
350
9579
  3
C4
350
957A
  3
C5
350
957B
  3
C6
350
957C
  3
C7
350
957D
  3
C8
350
957E
  3
C9
350
957F
  3
D0
350
9580
  3
D1
350
9581
  3
D2
350
9582
1001
ACAD
1000
TREAT_AS_HARD
1070
     0
  0
DICTIONARY
  5
9550
102
{ACAD_REACTORS
330
C
102
}
330
C
100
AcDbDictionary
  3
2DWIREFRAME
350
9556
  3
3D_HIDDEN
350
9558
  3
3DWIREFRAME
350
9557
  3
BASIC
350
9555
  3
BRIGHTEN
350
955C
  3
COLORCHANGE
350
9560
  3
CONCEPTUAL
350
9559
  3
DIM
350
955B
  3
EDGECOLOROFF
350
A211
  3
FACEPATTERN
350
955F
  3
FLAT
350
9551
  3
FLATWITHEDGES
350
9552
  3
GOURAUD
350
9553
  3
GOURAUDWITHEDGES
350
9554
  3
HIDDEN
350
A260
  3
JITTEROFF
350
A20F
  3
LINEPATTERN
350
955E
  3
MODELING
350
A266
  3
OVERHANGOFF
350
A210
  3
REALISTIC
350
955A
  3
SHADED
350
A265
  3
SHADED_WITH_EDGES
350
A264
  3
SHADES_OF_GRAY
350
A261
  3
SKETCHY
350
A262
  3
THICKEN
350
955D
  3
WIREFRAME
350
A25F
  3
X-RAY
350
A263
1001
ACAD
1000
TREAT_AS_HARD
1070
     0
  0
DICTIONARY
  5
D17E
102
{ACAD_REACTORS
330
C
102
}
330
C
100
AcDbDictionary
  3
COLORDICT
350
D17F
  3
MATERIALDICT
350
D180
1001
ACAD
1000
TREAT_AS_HARD
1070
     0
  0
DICTIONARY
  5
37
102
{ACAD_REACTORS
330
C
102
}
330
C
100
AcDbDictionary
  3
CANNOSCALE
350
AAE0
  3
CMLEADERSTYLE
350
9627
  3
CTABLESTYLE
350
29E
  3
DIMADEC
350
38
  3
DIMASSOC
350
1CE
  3
HIDETEXT
350
704E
  3
INDEXCTL
350
962A
  3
INTERSECTIONCOLOR
350
7052
  3
INTERSECTIONDISPLAY
350
7051
  3
MSLTSCALE
350
AB30
  3
OBSCOLOR
350
704F
  3
OBSLTYPE
350
7050
  3
PROJECTNAME
350
1CF
  3
SORTENTS
350
9629
  3
XCLIPFRAME
350
D01F
1001
ACAD
1000
TREAT_AS_HARD
1070
     0
  0
DICTIONARY
  5
AE18
102
{ACAD_REACTORS
330
C
102
}
330
C
100
AcDbDictionary
1001
ACAD
1000
TREAT_AS_HARD
1070
     0
  0
DICTIONARY
  5
D8
102
{ACAD_REACTORS
330
C
102
}
330
C
100
AcDbDictionary
1001
ACAD
1000
TREAT_AS_HARD
1070
     0
  0
DICTIONARY
  5
20
102
{ACAD_REACTORS
330
C
102
}
330
C
100
AcDbDictionary
1001
DRAWINGVARIABLESXDATA
1000
POLARANG
1000
0.261799387799149410000000
1000
POLARMODE
1000
1
1000
POLARSTYLE
1000
1
1001
ACAD
1000
TREAT_AS_HARD
1070
     0
  0
XRECORD
  5
D181
102
{ACAD_REACTORS
330
C
102
}
330
C
100
AcDbXrecord
  1
DWGPROPS COOKIE
  2

  3

  4

  6

  7

  8
3684
  9

300
=
301
=
302
=
303
=
304
=
305
=
306
=
307
=
308
=
309
=
 40
0.0
 41
2451318.246352917
 42
2458493.23981
  1

 90
        0
  0
DICTIONARY
  5
96DA
102
{ACAD_REACTORS
330
96D9
102
}
330
96D9
100
AcDbDictionary
1001
ACAD
1000
TREAT_AS_HARD
1070
     0
  0
ACAD_PROXY_OBJECT
  5
9594
102
{ACAD_REACTORS
330
9593
102
}
330
9593
100
AcDbZombieObject
 90
      499
 91
      514
 93
       34
310
40C8804040
  0
ACAD_PROXY_OBJECT
  5
9596
102
{ACAD_REACTORS
330
9595
102
}
330
9595
100
AcDbZombieObject
 90
      499
 91
      514
 93
       34
310
40C8804040
  0
ACAD_PROXY_OBJECT
  5
9598
102
{ACAD_REACTORS
330
9597
102
}
330
9597
100
AcDbZombieObject
 90
      499
 91
      514
 93
       34
310
40C8804040
  0
ACAD_PROXY_OBJECT
  5
959E
102
{ACAD_REACTORS
330
959D
102
}
330
959D
100
AcDbZombieObject
 90
      499
 91
      514
 93
       34
310
40C8804040
  0
ACAD_PROXY_OBJECT
  5
95A4
102
{ACAD_REACTORS
330
95A3
102
}
330
95A3
100
AcDbZombieObject
 90
      499
 91
      514
 93
       34
310
40C8804040
  0
ACAD_PROXY_OBJECT
  5
95A6
102
{ACAD_REACTORS
330
95A5
102
}
330
95A5
100
AcDbZombieObject
 90
      499
 91
      514
 93
       34
310
40C8804040
  0
SORTENTSTABLE
  5
890
102
{ACAD_REACTORS
330
88F
102
}
330
88F
100
AcDbSortentsTable
330
18
331
0
  5
B874
331
B873
  5
B88B
331
B874
  5
B88C
331
B875
  5
B890
331
0
  5
B878
331
0
  5
B879
331
0
  5
B87A
331
B879
  5
B8B2
331
B87D
  5
B8B3
331
B87E
  5
B8B4
331
B87F
  5
B8B5
331
B880
  5
B8B6
331
B881
  5
B8B7
331
B882
  5
B8B8
331
B883
  5
B8B9
331
B884
  5
B8BA
331
B885
  5
B8BB
331
B886
  5
B8BC
331
B887
  5
B8BD
331
B888
  5
B8BE
331
B889
  5
B8BF
331
B88A
  5
B8C0
331
B88B
  5
B8C1
331
B88C
  5
B8C2
331
B88D
  5
B8C3
331
B88E
  5
B8C4
331
B88F
  5
B8C5
331
B890
  5
B8C6
331
B891
  5
B8C7
331
B892
  5
B8C8
331
B893
  5
B8C9
331
B894
  5
B8CA
331
B895
  5
B8CB
331
B896
  5
B8CC
331
B897
  5
B8CD
331
B898
  5
B8CE
331
B899
  5
B8CF
331
B89A
  5
B8D0
331
B89B
  5
B8D1
331
B89C
  5
B8D2
331
B89D
  5
B8D3
331
B89E
  5
B8D4
331
B89F
  5
B8D5
331
B8A0
  5
B8D6
331
B8A1
  5
B8D7
331
B8A2
  5
B8D8
331
B8A3
  5
B8D9
331
B8A4
  5
B8DA
331
B8A5
  5
B8DB
331
B8A6
  5
B8DC
331
B8A7
  5
B8DD
331
B8A8
  5
B8DE
331
B8A9
  5
B8DF
331
B8AA
  5
B8E0
331
B8AB
  5
B8E1
331
B8AC
  5
B8E2
331
B8AD
  5
B8E3
331
B8AE
  5
B8E4
331
B8AF
  5
B8E5
331
B8B0
  5
B8E6
331
B8B1
  5
B8EE
331
B8B2
  5
B8FB
331
B8B3
  5
B8FC
331
B8B4
  5
B8FD
331
B8B5
  5
B8FE
331
B8B6
  5
B8FF
331
B8B7
  5
B900
331
B8B8
  5
B901
331
B8B9
  5
B902
331
B8BA
  5
B903
331
B8BB
  5
B904
331
0
  5
B905
331
B8BD
  5
B926
331
B8BE
  5
B927
331
B8BF
  5
B92B
331
B8C0
  5
B92C
331
B8C1
  5
B92D
331
B8C2
  5
B931
331
B8C3
  5
B932
331
B8C4
  5
B933
331
B8C5
  5
B937
331
B8C6
  5
B938
331
B8C7
  5
B939
331
B8C8
  5
B93A
331
B8C9
  5
B93B
331
B8CA
  5
B93C
331
B8CB
  5
B93D
331
B8CC
  5
B93E
331
B8CD
  5
B93F
331
B8CE
  5
B940
331
B8CF
  5
B941
331
B8D0
  5
B942
331
B8D1
  5
B943
331
B8D2
  5
B944
331
B8D3
  5
B945
331
B8D4
  5
B948
331
B8D5
  5
B949
331
B8D6
  5
B94A
331
B8D7
  5
BAC8
331
B8D8
  5
C1D4
331
B8D9
  5
C1D5
331
B8DA
  5
C1D7
331
B8DB
  5
C1D8
331
B8DC
  5
C1D9
331
B8DD
  5
C1DA
331
B8DE
  5
C1DB
331
B8DF
  5
C1DC
331
B8E0
  5
C1DD
331
B8E1
  5
C1DE
331
B8E2
  5
C1DF
331
B8E3
  5
C1E1
331
B8E4
  5
C1E3
331
0
  5
B8E7
331
0
  5
B8E8
331
0
  5
B8E9
331
B8E8
  5
CB29
331
B8F9
  5
CB2A
331
B8FA
  5
CB2B
331
B8FB
  5
CB2C
331
B8FC
  5
CB2D
331
B8FD
  5
CB2E
331
B8FE
  5
CB2F
331
B8FF
  5
CB30
331
B900
  5
CB31
331
B901
  5
CB32
331
B902
  5
CB33
331
B903
  5
CB34
331
B904
  5
CB35
331
B905
  5
CB36
331
B906
  5
CB37
331
B909
  5
CB38
331
B90A
  5
CB39
331
B90B
  5
CB3A
331
B90C
  5
CB3B
331
B910
  5
CB3C
331
B91A
  5
CB3D
331
B920
  5
CB3E
331
B921
  5
CB3F
331
B922
  5
CB40
331
B923
  5
CB41
331
B924
  5
CB42
331
B925
  5
CB43
331
B926
  5
CB44
331
B927
  5
CB45
331
B928
  5
CB46
331
B929
  5
CB47
331
B92A
  5
CB48
331
B92B
  5
CB49
331
B92C
  5
CB4A
331
B92D
  5
CB4B
331
B92E
  5
CB4C
331
B92F
  5
CB4D
331
B930
  5
CB4E
331
B931
  5
CB4F
331
B932
  5
CB50
331
B933
  5
CB51
331
B934
  5
CB52
331
B935
  5
CB53
331
B936
  5
CB54
331
B937
  5
CB5D
331
B938
  5
CB5E
331
B939
  5
CB5F
331
B93A
  5
CB60
331
B93B
  5
CB61
331
B93C
  5
CB62
331
B93D
  5
CB63
331
B93E
  5
CB64
331
B93F
  5
CB65
331
B940
  5
CB66
331
B941
  5
CB67
331
B942
  5
CB68
331
B943
  5
CB69
331
B946
  5
CB6A
331
B947
  5
CB6B
331
B948
  5
CB6C
331
B94A
  5
CB6D
331
C1D2
  5
CB6E
331
C1D3
  5
CB6F
331
C1D5
  5
CB70
331
C1D6
  5
CB72
331
C1D7
  5
CB73
331
C1D8
  5
CB76
331
C1D9
  5
CB77
331
C1DA
  5
CB78
331
C1DB
  5
CB79
331
C1DC
  5
CB7A
331
C1DD
  5
CB7B
331
C1DF
  5
CB7C
331
C1E1
  5
CB7D
331
C1E3
  5
CB7E
331
C3F7
  5
CB7F
331
C3F8
  5
CB80
331
0
  5
CB71
331
0
  5
CB74
331
0
  5
CB75
331
CB10
  5
CB8F
331
CB11
  5
CB90
331
CB12
  5
CB91
331
CB13
  5
CB92
331
CB14
  5
CB93
331
CB15
  5
CB94
331
CB16
  5
CB95
331
CB17
  5
CB96
331
CB18
  5
CB97
331
CB19
  5
CB9B
331
CB1A
  5
CB9C
331
CB1B
  5
CB9D
331
CB1C
  5
CBA1
331
0
  5
CB83
331
0
  5
CB84
331
0
  5
CB85
331
0
  5
CB86
331
0
  5
CB87
331
CB22
  5
CBE2
331
CB23
  5
CBE3
331
CB24
  5
CBE4
331
CB26
  5
CBEF
331
CB27
  5
CBF0
331
CB28
  5
CBF1
331
CB29
  5
CBF2
331
CB2A
  5
CBF3
331
CB2B
  5
CBF4
331
CB2C
  5
CBF5
331
CB2D
  5
CBF6
331
CB2E
  5
CBF7
331
CB2F
  5
CBF8
331
CB30
  5
CBF9
331
CB31
  5
CBFA
331
CB32
  5
CBFB
331
CB33
  5
CBFC
331
CB34
  5
CBFD
331
CB35
  5
CBFE
331
CB36
  5
CBFF
331
CB37
  5
CC00
331
CB38
  5
CC01
331
CB39
  5
CC02
331
CB3A
  5
CC03
331
CB3B
  5
CC04
331
CB3C
  5
CC05
331
CB3D
  5
CC06
331
CB3E
  5
CC07
331
CB3F
  5
CC08
331
CB40
  5
CC09
331
CB41
  5
CC0A
331
CB42
  5
CC0B
331
CB43
  5
CC0C
331
CB44
  5
CF94
331
CB45
  5
CF95
331
CB46
  5
CF97
331
CB47
  5
CF98
331
CB48
  5
CF99
331
CB49
  5
CF9A
331
CB4A
  5
CF9B
331
CB4B
  5
D0BF
331
CB4C
  5
D0C0
331
CB4D
  5
D0C1
331
CB4E
  5
D0C2
331
CB4F
  5
D0C3
331
CB50
  5
D0C4
331
CB51
  5
D0C5
331
CB52
  5
D0C6
331
CB53
  5
D0C7
331
CB54
  5
D0C8
331
CB55
  5
D0C9
331
CB5B
  5
D0CA
331
CB5C
  5
D0CB
331
CB5D
  5
D0CC
331
CB5E
  5
D0CD
331
CB5F
  5
D0CE
331
CB60
  5
D0CF
331
CB61
  5
D0D0
331
CB62
  5
D0D1
331
CB63
  5
D0D2
331
CB64
  5
D0D3
331
CB65
  5
D0D4
331
CB66
  5
D0D5
331
CB67
  5
D0D6
331
CB68
  5
D0D7
331
CB69
  5
D0D8
331
CB6A
  5
D0D9
331
CB6B
  5
D0DA
331
CB6C
  5
D0DB
331
CB6D
  5
D0DC
331
CB6E
  5
D0DD
331
CB6F
  5
D0DE
331
CB70
  5
D0DF
331
CB71
  5
D0E0
331
CB72
  5
D0E1
331
CB73
  5
D0E2
331
CB74
  5
D0E3
331
CB75
  5
D0E4
331
CB76
  5
D0E5
331
CB77
  5
D0E6
331
CB78
  5
D0E7
331
CB79
  5
D0E8
331
CB7A
  5
D0E9
331
CB7B
  5
D0EA
331
CB7C
  5
D0EB
331
CB7D
  5
D0EC
331
CB7E
  5
D0ED
331
CB7F
  5
D0EE
331
CB80
  5
D0EF
331
CB81
  5
D0F0
331
CB82
  5
D0F1
331
CB83
  5
D0F2
331
CB84
  5
D0F3
331
CB85
  5
D0F4
331
CB86
  5
D0F5
331
CB87
  5
D0F6
331
CB88
  5
D0F7
331
CB89
  5
D0F8
331
CB8A
  5
D0F9
331
CB8B
  5
D0FA
331
CB8C
  5
D0FB
331
CB8D
  5
D0FC
331
CB8E
  5
D0FD
331
CB8F
  5
D0FE
331
CB90
  5
D0FF
331
CB91
  5
D100
331
CB92
  5
D101
331
CB93
  5
D102
331
CB94
  5
D103
331
CB95
  5
D104
331
CB96
  5
D105
331
CB97
  5
D106
331
CB98
  5
D107
331
CB99
  5
D108
331
CB9A
  5
D109
331
CB9B
  5
D10A
331
CB9C
  5
D10B
331
CB9D
  5
D10C
331
CB9E
  5
D10D
331
CB9F
  5
D10E
331
CBA0
  5
D10F
331
CBA1
  5
D110
331
CBA2
  5
D111
331
CBA3
  5
D112
331
CBA4
  5
D113
331
CBA5
  5
D114
331
CBA6
  5
D115
331
CBA7
  5
D116
331
CBA8
  5
D117
331
CBA9
  5
D118
331
CBAA
  5
D119
331
CBAB
  5
D11A
331
CBAC
  5
D11B
331
CBAD
  5
D11C
331
CBAE
  5
D11D
331
CBAF
  5
D11E
331
CBB0
  5
D11F
331
CBB1
  5
D120
331
CBB2
  5
D121
331
CBB3
  5
D122
331
CBB4
  5
D123
331
CBB5
  5
D124
331
CBB6
  5
D125
331
CBB7
  5
D126
331
CBBD
  5
D127
331
CBBE
  5
D128
331
CBBF
  5
D129
331
CBC0
  5
D12A
331
CBC1
  5
D12B
331
CBC2
  5
D12C
331
CBC3
  5
D12D
331
CBC4
  5
D12E
331
CBC5
  5
D12F
331
CBC6
  5
D130
331
CBC7
  5
D131
331
CBC8
  5
D132
331
CBC9
  5
D133
331
CBCA
  5
D134
331
CBCB
  5
D135
331
CBCC
  5
D136
331
CBCD
  5
D137
331
CBCE
  5
D138
331
CBCF
  5
D139
331
CBD0
  5
D13A
331
CBD1
  5
D13B
331
CBD2
  5
D13C
331
CBD3
  5
D13D
331
CBD4
  5
D13E
331
CBD5
  5
D13F
331
CBD6
  5
D140
331
CBD7
  5
D141
331
CBD8
  5
D142
331
CBD9
  5
D143
331
CBDA
  5
D144
331
CBDB
  5
D145
331
CBDC
  5
D146
331
CBDD
  5
D147
331
CBDE
  5
D148
331
CBDF
  5
D149
331
CBE0
  5
D14A
331
CBE1
  5
D14B
331
CBE2
  5
D14C
331
CBE3
  5
D14D
331
CBE4
  5
D14E
331
CBE5
  5
D14F
331
CBE6
  5
D150
331
CBE7
  5
D151
331
CBE8
  5
D152
331
CBE9
  5
D153
331
CBEA
  5
D154
331
CBEB
  5
D155
331
CBEC
  5
D156
331
CBED
  5
D157
331
CBEE
  5
D158
331
CBEF
  5
D159
331
CBF0
  5
D15A
331
CBF1
  5
D15B
331
CBF2
  5
D15C
331
CBF3
  5
D15D
331
CBF4
  5
D15E
331
CBF5
  5
D15F
331
CBF6
  5
D160
331
CBF7
  5
D161
331
CBF8
  5
D162
331
CBF9
  5
D163
331
CBFA
  5
D164
331
CBFB
  5
D165
331
CBFC
  5
D166
331
CBFD
  5
D167
331
CBFE
  5
D168
331
CBFF
  5
D169
331
CC00
  5
D16A
331
CC01
  5
D16B
331
CC02
  5
D16C
331
CC03
  5
D16D
331
CC04
  5
D16E
331
CC05
  5
D16F
331
CC06
  5
D170
331
CC07
  5
D171
331
CC08
  5
D172
331
CC09
  5
D173
331
CC0A
  5
D174
331
CC0B
  5
D175
331
CC0C
  5
D176
331
CF94
  5
D177
331
CF95
  5
D178
331
CF97
  5
D179
331
CF98
  5
D17A
331
CF99
  5
D17B
331
CF9A
  5
D17C
331
CF9B
  5
D17D
331
D0BF
  5
B875
331
D0C0
  5
B876
331
D0C1
  5
B877
331
0
  5
B87E
331
0
  5
B87F
331
0
  5
B880
331
D0C5
  5
B891
331
D0C6
  5
B892
331
D0C7
  5
B896
331
0
  5
B887
331
0
  5
B888
331
0
  5
B889
331
D0CB
  5
B89E
331
D0CC
  5
B89F
331
D0CD
  5
B8A0
331
0
  5
B88D
331
0
  5
B88E
331
0
  5
B88F
331
D0D1
  5
B8A8
331
D0D2
  5
B8A9
331
D0D3
  5
B8AA
331
0
  5
B893
331
0
  5
B894
331
0
  5
B895
331
D0D7
  5
C1E5
331
D0D8
  5
C3F7
331
D0D9
  5
C3F8
331
0
  5
B928
331
0
  5
B929
331
0
  5
B92A
331
D0DD
  5
CB14
331
D0DE
  5
CB15
331
D0DF
  5
CB16
331
0
  5
B92E
331
0
  5
B92F
331
0
  5
B930
331
D0E3
  5
CB1E
331
D0E4
  5
CB1F
331
D0E5
  5
CB20
331
0
  5
B934
331
0
  5
B935
331
0
  5
B936
331
D0E9
  5
CB88
331
D0EA
  5
CB89
331
D0EB
  5
CBE5
331
D0EC
  5
CBE6
331
D0ED
  5
CBE7
331
0
  5
CB55
331
0
  5
CB5B
331
0
  5
CB5C
331
D0F1
  5
B881
331
D0F2
  5
B882
331
D0F3
  5
B883
331
D0F4
  5
B884
331
D0F5
  5
B885
331
D0F6
  5
B886
331
D0F7
  5
B88A
331
D0F8
  5
B897
331
D0F9
  5
B898
331
D0FA
  5
B899
331
D0FB
  5
B89A
331
D0FC
  5
B89B
331
D0FD
  5
B89C
331
D0FE
  5
B89D
331
D0FF
  5
B8A1
331
D100
  5
B8A2
331
D101
  5
B8A3
331
D102
  5
B8A4
331
D103
  5
B8A5
331
D104
  5
B8A6
331
D105
  5
B8A7
331
D106
  5
B8AB
331
D107
  5
B8AC
331
D108
  5
B8AD
331
D109
  5
B8AE
331
D10A
  5
B8AF
331
D10B
  5
B8B0
331
D10C
  5
B8B1
331
D10D
  5
CB0C
331
D10E
  5
CB0E
331
D10F
  5
CB0F
331
D110
  5
CB10
331
D111
  5
CB11
331
D112
  5
CB12
331
D113
  5
CB13
331
D114
  5
CB17
331
D115
  5
CB18
331
D116
  5
CB19
331
D117
  5
CB1A
331
D118
  5
CB1B
331
D119
  5
CB1C
331
D11A
  5
CB1D
331
D11B
  5
CB21
331
D11C
  5
CB22
331
D11D
  5
CB23
331
D11E
  5
CB24
331
D11F
  5
CB26
331
D120
  5
CB27
331
D121
  5
CB28
331
D122
  5
CBE8
331
D123
  5
CBE9
331
D124
  5
CBEA
331
D125
  5
CBEB
331
D126
  5
CBEC
331
D127
  5
CBED
331
D128
  5
CBEE
331
D129
  5
B906
331
D12A
  5
B907
331
D12B
  5
B90A
331
0
  5
B90B
331
0
  5
B90C
331
0
  5
B90D
331
D12F
  5
CB81
331
D130
  5
CB82
331
D131
  5
CB8A
331
D132
  5
CB8B
331
D133
  5
CB8C
331
D134
  5
CB8D
331
D135
  5
CB8E
331
D136
  5
CBA2
331
D137
  5
CBA3
331
D138
  5
CBA7
331
0
  5
CB98
331
0
  5
CB99
331
0
  5
CB9A
331
D13C
  5
CBB5
331
D13D
  5
CBB6
331
D13E
  5
CBB7
331
0
  5
CB9E
331
0
  5
CB9F
331
0
  5
CBA0
331
D142
  5
CBC4
331
D143
  5
CBC5
331
D144
  5
CBC6
331
0
  5
CBA4
331
0
  5
CBA5
331
0
  5
CBA6
331
D148
  5
CBCE
331
D149
  5
CBCF
331
D14A
  5
CBD0
331
0
  5
CBAA
331
0
  5
CBAB
331
0
  5
CBAC
331
D14E
  5
CBD8
331
D14F
  5
CBD9
331
D150
  5
CBDA
331
0
  5
CBB0
331
0
  5
CBB1
331
0
  5
CBB2
331
D154
  5
B911
331
D155
  5
B912
331
D156
  5
B921
331
D157
  5
B922
331
D158
  5
B923
331
D159
  5
B924
331
D15A
  5
B925
331
D15B
  5
CBA8
331
D15C
  5
CBA9
331
D15D
  5
CBAD
331
D15E
  5
CBAE
331
D15F
  5
CBAF
331
D160
  5
CBB3
331
D161
  5
CBB4
331
D162
  5
CBBD
331
D163
  5
CBBE
331
D164
  5
CBBF
331
D165
  5
CBC0
331
D166
  5
CBC1
331
D167
  5
CBC2
331
D168
  5
CBC3
331
D169
  5
CBC7
331
D16A
  5
CBC8
331
D16B
  5
CBC9
331
D16C
  5
CBCA
331
D16D
  5
CBCB
331
D16E
  5
CBCC
331
D16F
  5
CBCD
331
D170
  5
CBD1
331
D171
  5
CBD2
331
D172
  5
CBD3
331
D173
  5
CBD4
331
D174
  5
CBD5
331
D175
  5
CBD6
331
D176
  5
CBD7
331
D177
  5
CBDB
331
D178
  5
CBDC
331
D179
  5
CBDD
331
D17A
  5
CBDE
331
D17B
  5
CBDF
331
D17C
  5
CBE0
331
D17D
  5
CBE1
  0
MATERIAL
  5
9540
102
{ACAD_REACTORS
330
18C
102
}
102
{ACAD_XDICTIONARY
360
D31C
102
}
330
18C
100
AcDbMaterial
  1
BYBLOCK
 72
     0
 73
     2
 43
0.0208333333333333
 43
0.0
 43
0.0
 43
0.0
 43
0.0
 43
0.0208333333333333
 43
0.0
 43
0.0
 43
0.0
 43
0.0
 43
1.0
 43
0.0
 43
0.0
 43
0.0
 43
0.0
 43
1.0
 77
     0
 78
     2
 47
0.0208333333333333
 47
0.0
 47
0.0
 47
0.0
 47
0.0
 47
0.0208333333333333
 47
0.0
 47
0.0
 47
0.0
 47
0.0
 47
1.0
 47
0.0
 47
0.0
 47
0.0
 47
0.0
 47
1.0
171
     0
172
     2
 49
0.0208333333333333
 49
0.0
 49
0.0
 49
0.0
 49
0.0
 49
0.0208333333333333
 49
0.0
 49
0.0
 49
0.0
 49
0.0
 49
1.0
 49
0.0
 49
0.0
 49
0.0
 49
0.0
 49
1.0
175
     0
176
     2
142
0.0208333333333333
142
0.0
142
0.0
142
0.0
142
0.0
142
0.0208333333333333
142
0.0
142
0.0
142
0.0
142
0.0
142
1.0
142
0.0
142
0.0
142
0.0
142
0.0
142
1.0
179
     0
270
     2
144
0.0208333333333333
144
0.0
144
0.0
144
0.0
144
0.0
144
0.0208333333333333
144
0.0
144
0.0
144
0.0
144
0.0
144
1.0
144
0.0
144
0.0
144
0.0
144
0.0
144
1.0
274
     2
147
0.0208333333333333
147
0.0
147
0.0
147
0.0
147
0.0
147
0.0208333333333333
147
0.0
147
0.0
147
0.0
147
0.0
147
1.0
147
0.0
147
0.0
147
0.0
147
0.0
147
1.0
  0
MATERIAL
  5
9538
102
{ACAD_REACTORS
330
18C
102
}
102
{ACAD_XDICTIONARY
360
D31E
102
}
330
18C
100
AcDbMaterial
  1
BYLAYER
 72
     0
 73
     2
 43
0.0208333333333333
 43
0.0
 43
0.0
 43
0.0
 43
0.0
 43
0.0208333333333333
 43
0.0
 43
0.0
 43
0.0
 43
0.0
 43
1.0
 43
0.0
 43
0.0
 43
0.0
 43
0.0
 43
1.0
 77
     0
 78
     2
 47
0.0208333333333333
 47
0.0
 47
0.0
 47
0.0
 47
0.0
 47
0.0208333333333333
 47
0.0
 47
0.0
 47
0.0
 47
0.0
 47
1.0
 47
0.0
 47
0.0
 47
0.0
 47
0.0
 47
1.0
171
     0
172
     2
 49
0.0208333333333333
 49
0.0
 49
0.0
 49
0.0
 49
0.0
 49
0.0208333333333333
 49
0.0
 49
0.0
 49
0.0
 49
0.0
 49
1.0
 49
0.0
 49
0.0
 49
0.0
 49
0.0
 49
1.0
175
     0
176
     2
142
0.0208333333333333
142
0.0
142
0.0
142
0.0
142
0.0
142
0.0208333333333333
142
0.0
142
0.0
142
0.0
142
0.0
142
1.0
142
0.0
142
0.0
142
0.0
142
0.0
142
1.0
179
     0
270
     2
144
0.0208333333333333
144
0.0
144
0.0
144
0.0
144
0.0
144
0.0208333333333333
144
0.0
144
0.0
144
0.0
144
0.0
144
1.0
144
0.0
144
0.0
144
0.0
144
0.0
144
1.0
274
     2
147
0.0208333333333333
147
0.0
147
0.0
147
0.0
147
0.0
147
0.0208333333333333
147
0.0
147
0.0
147
0.0
147
0.0
147
1.0
147
0.0
147
0.0
147
0.0
147
0.0
147
1.0
  0
MATERIAL
  5
9548
102
{ACAD_REACTORS
330
18C
102
}
102
{ACAD_XDICTIONARY
360
D320
102
}
330
18C
100
AcDbMaterial
  1
GLOBAL
 72
     0
 73
     2
 43
0.0208333333333333
 43
0.0
 43
0.0
 43
0.0
 43
0.0
 43
0.0208333333333333
 43
0.0
 43
0.0
 43
0.0
 43
0.0
 43
1.0
 43
0.0
 43
0.0
 43
0.0
 43
0.0
 43
1.0
 77
     0
 78
     2
 47
0.0208333333333333
 47
0.0
 47
0.0
 47
0.0
 47
0.0
 47
0.0208333333333333
 47
0.0
 47
0.0
 47
0.0
 47
0.0
 47
1.0
 47
0.0
 47
0.0
 47
0.0
 47
0.0
 47
1.0
171
     0
172
     2
 49
0.0208333333333333
 49
0.0
 49
0.0
 49
0.0
 49
0.0
 49
0.0208333333333333
 49
0.0
 49
0.0
 49
0.0
 49
0.0
 49
1.0
 49
0.0
 49
0.0
 49
0.0
 49
0.0
 49
1.0
175
     0
176
     2
142
0.0208333333333333
142
0.0
142
0.0
142
0.0
142
0.0
142
0.0208333333333333
142
0.0
142
0.0
142
0.0
142
0.0
142
1.0
142
0.0
142
0.0
142
0.0
142
0.0
142
1.0
179
     0
270
     2
144
0.0208333333333333
144
0.0
144
0.0
144
0.0
144
0.0
144
0.0208333333333333
144
0.0
144
0.0
144
0.0
144
0.0
144
1.0
144
0.0
144
0.0
144
0.0
144
0.0
144
1.0
274
     2
147
0.0208333333333333
147
0.0
147
0.0
147
0.0
147
0.0
147
0.0208333333333333
147
0.0
147
0.0
147
0.0
147
0.0
147
1.0
147
0.0
147
0.0
147
0.0
147
0.0
147
1.0
  0
ACAD_PROXY_OBJECT
  5
9584
102
{ACAD_REACTORS
330
9583
102
}
330
9583
100
AcDbZombieObject
 90
      499
 91
      511
 93
      610
310
40901902A4063FBFFFFFE000000000000002040AD7A3703D0AD73F4214DD185B99185C990000000000000104090141901A00000000000004100000000000000041025764000000000000300FC0
340
12
340
0
340
F
340
0
 94
        0
1001
ACAD_MLEADERVER
1070
     2
  0
MLINESTYLE
  5
1C
102
{ACAD_REACTORS
330
1B
102
}
330
1B
100
AcDbMlineStyle
  2
STANDARD
 70
     0
  3

 62
   256
 51
90.0
 52
90.0
 71
     2
 49
0.5
 62
   256
  6
BYLAYER
 49
-0.5
 62
   256
  6
BYLAYER
  0
ACAD_PROXY_OBJECT
  5
9562
102
{ACAD_REACTORS
330
9561
102
}
330
9561
100
AcDbZombieObject
 90
      499
 91
      510
 93
       41
310
903313A31580
  0
ACAD_PROXY_OBJECT
  5
9563
102
{ACAD_REACTORS
330
9561
102
}
330
9561
100
AcDbZombieObject
 90
      499
 91
      510
 93
      105
310
903313A324000000000000004000
  0
ACAD_PROXY_OBJECT
  5
9564
102
{ACAD_REACTORS
330
9561
102
}
330
9561
100
AcDbZombieObject
 90
      499
 91
      510
 93
      105
310
903313A344000000000000104000
  0
ACAD_PROXY_OBJECT
  5
9565
102
{ACAD_REACTORS
330
9561
102
}
330
9561
100
AcDbZombieObject
 90
      499
 91
      510
 93
      105
310
903313A354000000000000144000
  0
ACAD_PROXY_OBJECT
  5
9566
102
{ACAD_REACTORS
330
9561
102
}
330
9561
100
AcDbZombieObject
 90
      499
 91
      510
 93
      105
310
903313A384000000000000204000
  0
ACAD_PROXY_OBJECT
  5
9567
102
{ACAD_REACTORS
330
9561
102
}
330
9561
100
AcDbZombieObject
 90
      499
 91
      510
 93
      113
310
904313A31304000000000000244000
  0
ACAD_PROXY_OBJECT
  5
9568
102
{ACAD_REACTORS
330
9561
102
}
330
9561
100
AcDbZombieObject
 90
      499
 91
      510
 93
      113
310
904313A31364000000000000304000
  0
ACAD_PROXY_OBJECT
  5
9569
102
{ACAD_REACTORS
330
9561
102
}
330
9561
100
AcDbZombieObject
 90
      499
 91
      510
 93
      113
310
904313A32304000000000000344000
  0
ACAD_PROXY_OBJECT
  5
956A
102
{ACAD_REACTORS
330
9561
102
}
330
9561
100
AcDbZombieObject
 90
      499
 91
      510
 93
      113
310
904313A333040000000000003E4000
  0
ACAD_PROXY_OBJECT
  5
956B
102
{ACAD_REACTORS
330
9561
102
}
330
9561
100
AcDbZombieObject
 90
      499
 91
      510
 93
      113
310
904313A34304000000000000444000
  0
ACAD_PROXY_OBJECT
  5
956C
102
{ACAD_REACTORS
330
9561
102
}
330
9561
100
AcDbZombieObject
 90
      499
 91
      510
 93
      113
310
904313A35304000000000000494000
  0
ACAD_PROXY_OBJECT
  5
956D
102
{ACAD_REACTORS
330
9561
102
}
330
9561
100
AcDbZombieObject
 90
      499
 91
      510
 93
      121
310
905313A3130304000000000000594000
  0
ACAD_PROXY_OBJECT
  5
956E
102
{ACAD_REACTORS
330
9561
102
}
330
9561
100
AcDbZombieObject
 90
      499
 91
      510
 93
      105
310
903323A310000000000000010100
  0
ACAD_PROXY_OBJECT
  5
956F
102
{ACAD_REACTORS
330
9561
102
}
330
9561
100
AcDbZombieObject
 90
      499
 91
      510
 93
      105
310
903343A310000000000000410100
  0
ACAD_PROXY_OBJECT
  5
9570
102
{ACAD_REACTORS
330
9561
102
}
330
9561
100
AcDbZombieObject
 90
      499
 91
      510
 93
      105
310
903383A310000000000000810100
  0
ACAD_PROXY_OBJECT
  5
9571
102
{ACAD_REACTORS
330
9561
102
}
330
9561
100
AcDbZombieObject
 90
      499
 91
      510
 93
      113
310
90431303A310000000000000910100
  0
ACAD_PROXY_OBJECT
  5
9572
102
{ACAD_REACTORS
330
9561
102
}
330
9561
100
AcDbZombieObject
 90
      499
 91
      510
 93
      121
310
9053130303A310000000000001650100
  0
ACAD_PROXY_OBJECT
  5
9573
102
{ACAD_REACTORS
330
9561
102
}
330
9561
100
AcDbZombieObject
 90
      499
 91
      510
 93
      257
310
90E312F31323822203D2031272D3022000000000000200FC000000000000284000
  0
ACAD_PROXY_OBJECT
  5
9574
102
{ACAD_REACTORS
330
9561
102
}
330
9561
100
AcDbZombieObject
 90
      499
 91
      510
 93
      249
310
90D312F363422203D2031272D3022000000000000240FC000000000000284000
  0
ACAD_PROXY_OBJECT
  5
9575
102
{ACAD_REACTORS
330
9561
102
}
330
9561
100
AcDbZombieObject
 90
      499
 91
      510
 93
      249
310
90D312F333222203D2031272D3022000000000000280FC000000000000284000
  0
ACAD_PROXY_OBJECT
  5
9576
102
{ACAD_REACTORS
330
9561
102
}
330
9561
100
AcDbZombieObject
 90
      499
 91
      510
 93
      249
310
90D312F313622203D2031272D30220000000000002C0FC000000000000284000
  0
ACAD_PROXY_OBJECT
  5
9577
102
{ACAD_REACTORS
330
9561
102
}
330
9561
100
AcDbZombieObject
 90
      499
 91
      510
 93
      249
310
90D332F333222203D2031272D30220000000000002E0FC000000000000284000
  0
ACAD_PROXY_OBJECT
  5
9578
102
{ACAD_REACTORS
330
9561
102
}
330
9561
100
AcDbZombieObject
 90
      499
 91
      510
 93
      241
310
90C312F3822203D2031272D3022000000000000300FC000000000000284000
  0
ACAD_PROXY_OBJECT
  5
9579
102
{ACAD_REACTORS
330
9561
102
}
330
9561
100
AcDbZombieObject
 90
      499
 91
      510
 93
      249
310
90D332F313622203D2031272D3022000000000000320FC000000000000284000
  0
ACAD_PROXY_OBJECT
  5
957A
102
{ACAD_REACTORS
330
9561
102
}
330
9561
100
AcDbZombieObject
 90
      499
 91
      510
 93
      241
310
90C312F3422203D2031272D3022000000000000340FC000000000000284000
  0
ACAD_PROXY_OBJECT
  5
957B
102
{ACAD_REACTORS
330
9561
102
}
330
9561
100
AcDbZombieObject
 90
      499
 91
      510
 93
      241
310
90C332F3822203D2031272D3022000000000000360FC000000000000284000
  0
ACAD_PROXY_OBJECT
  5
957C
102
{ACAD_REACTORS
330
9561
102
}
330
9561
100
AcDbZombieObject
 90
      499
 91
      510
 93
      241
310
90C312F3222203D2031272D3022000000000000380FC000000000000284000
  0
ACAD_PROXY_OBJECT
  5
957D
102
{ACAD_REACTORS
330
9561
102
}
330
9561
100
AcDbZombieObject
 90
      499
 91
      510
 93
      241
310
90C332F3422203D2031272D30220000000000003A0FC000000000000284000
  0
ACAD_PROXY_OBJECT
  5
957E
102
{ACAD_REACTORS
330
9561
102
}
330
9561
100
AcDbZombieObject
 90
      499
 91
      510
 93
      161
310
90A3122203D2031272D30224000000000000284000
  0
ACAD_PROXY_OBJECT
  5
957F
102
{ACAD_REACTORS
330
9561
102
}
330
9561
100
AcDbZombieObject
 90
      499
 91
      510
 93
      257
310
90E312D312F3222203D2031272D30220000000000003E0FC000000000000284000
  0
ACAD_PROXY_OBJECT
  5
9580
102
{ACAD_REACTORS
330
9561
102
}
330
9561
100
AcDbZombieObject
 90
      499
 91
      510
 93
      225
310
90A3322203D2031272D302200000000000002100000000000000284000
  0
ACAD_PROXY_OBJECT
  5
9581
102
{ACAD_REACTORS
330
9561
102
}
330
9561
100
AcDbZombieObject
 90
      499
 91
      510
 93
      225
310
90A3622203D2031272D302200000000000006100000000000000284000
  0
ACAD_PROXY_OBJECT
  5
9582
102
{ACAD_REACTORS
330
9561
102
}
330
9561
100
AcDbZombieObject
 90
      499
 91
      510
 93
      249
310
90D31272D3022203D2031272D30220000000000000A100000000000000284000
  0
ACAD_PROXY_OBJECT
  5
9556
102
{ACAD_REACTORS
330
9550
102
}
330
9550
100
AcDbZombieObject
 90
      499
 91
      509
 93
      436
310
42CC9915DA5C99599C985B595049028333333333333E3BF0000000000000FB0107901411070040501600405405064090741402480A0340
1001
ACAD
1000
AcDbSavedByObjectVersion
1070
     0
  0
ACAD_PROXY_OBJECT
  5
9558
102
{ACAD_REACTORS
330
9550
102
}
330
9550
100
AcDbZombieObject
 90
      499
 91
      509
 93
      500
310
424CD108121A5919195B90640502408333333333333E3BF0000000000000FB01079024090700405020000000000001110200405405064090740C02480A0340
1001
ACAD
1000
AcDbSavedByObjectVersion
1070
     0
  0
ACAD_PROXY_OBJECT
  5
9557
102
{ACAD_REACTORS
330
9550
102
}
330
9550
100
AcDbZombieObject
 90
      499
 91
      509
 93
      436
310
42CCD915DA5C99599C985B595059028333333333333E3BF0000000000000FB0107901411070040501600405405064090741402480A0340
1001
ACAD
1000
AcDbSavedByObjectVersion
1070
     0
  0
ACAD_PROXY_OBJECT
  5
9555
102
{ACAD_REACTORS
330
9550
102
}
330
9550
100
AcDbZombieObject
 90
      499
 91
      509
 93
      388
310
4150985CDA58D07406404333333333333E3BF0000000000000FB0107A41107004050150841D405064090741402480A0350
1001
ACAD
1000
AcDbSavedByObjectVersion
1070
     0
  0
ACAD_PROXY_OBJECT
  5
955C
102
{ACAD_REACTORS
330
9550
102
}
330
9550
100
AcDbZombieObject
 90
      499
 91
      509
 93
      428
310
42109C9A59DA1D195B90C409028333333333333E3BF0000000000000FB010790141107004050150841D405064090741402480A029950
1001
ACAD
1000
AcDbSavedByObjectVersion
1070
     0
  0
ACAD_PROXY_OBJECT
  5
9560
102
{ACAD_REACTORS
330
9550
102
}
330
9550
100
AcDbZombieObject
 90
      499
 91
      509
 93
      452
310
42D0DBDB1BDC90DA185B99D95104090240C333333333333E3BF0000000000000FB0108901411070040501508421405064090741402480A0350
1001
ACAD
1000
AcDbSavedByObjectVersion
1070
     0
  0
ACAD_PROXY_OBJECT
  5
9559
102
{ACAD_REACTORS
330
9550
102
}
330
9550
100
AcDbZombieObject
 90
      499
 91
      509
 93
      500
310
4290DBDB98D95C1D1D585B10940D028333333333333E3BF0000000000000FB0107902409070040501000000000000111010841D405064090740C02480A0340
1001
ACAD
1000
AcDbSavedByObjectVersion
1070
     0
  0
ACAD_PROXY_OBJECT
  5
955B
102
{ACAD_REACTORS
330
9550
102
}
330
9550
100
AcDbZombieObject
 90
      499
 91
      509
 93
      412
310
40D11A5B50B409028333333333333E3BF0000000000000FB010790141107004050150841D405064090741402480A02677FFFFFD0
1001
ACAD
1000
AcDbSavedByObjectVersion
1070
     0
  0
ACAD_PROXY_OBJECT
  5
A211
102
{ACAD_REACTORS
330
9550
102
}
330
9550
100
AcDbZombieObject
 90
      499
 91
      509
 93
      452
310
43115919D950DBDB1BDC93D999916409028333333333333E3BF0000000000000FB010790141107004050150841D405064090741402480A0350
1001
ACAD
1000
AcDbSavedByObjectVersion
1070
     0
  0
ACAD_PROXY_OBJECT
  5
955F
102
{ACAD_REACTORS
330
9550
102
}
330
9550
100
AcDbZombieObject
 90
      499
 91
      509
 93
      444
310
42D19858D95C185D1D195C9B90F409028333333333333E3BF0000000000000FB010790141107004050150841D405064090741402480A0350
1001
ACAD
1000
AcDbSavedByObjectVersion
1070
     0
  0
ACAD_PROXY_OBJECT
  5
9551
102
{ACAD_REACTORS
330
9550
102
}
330
9550
100
AcDbZombieObject
 90
      499
 91
      509
 93
      388
310
41119B185D240901404333333333333E3BF0000000000000F9010740A41107004050150841D405064090741402480A1B50
1001
ACAD
1000
AcDbSavedByObjectVersion
1070
     0
  0
ACAD_PROXY_OBJECT
  5
9552
102
{ACAD_REACTORS
330
9550
102
}
330
9550
100
AcDbZombieObject
 90
      499
 91
      509
 93
      476
310
43519B185D15DA5D1A115919D95CD0140901404333333333333E3BF0000000000000F9010740901411070040501600405405064090741402480A1B50
1001
ACAD
1000
AcDbSavedByObjectVersion
1070
     0
  0
ACAD_PROXY_OBJECT
  5
9553
102
{ACAD_REACTORS
330
9550
102
}
330
9550
100
AcDbZombieObject
 90
      499
 91
      509
 93
      412
310
41D1DBDD5C985D5910240902404333333333333E3BF0000000000000F9010740A411070040501641D405064090741402480A1B50
1001
ACAD
1000
AcDbSavedByObjectVersion
1070
     0
  0
ACAD_PROXY_OBJECT
  5
9554
102
{ACAD_REACTORS
330
9550
102
}
330
9550
100
AcDbZombieObject
 90
      499
 91
      509
 93
      500
310
4411DBDD5C985D5915DA5D1A115919D95CD0340902404333333333333E3BF0000000000000F9010740901411070040501600405405064090741402480A1B50
1001
ACAD
1000
AcDbSavedByObjectVersion
1070
     0
  0
ACAD_PROXY_OBJECT
  5
A260
102
{ACAD_REACTORS
330
9550
102
}
330
9550
100
AcDbZombieObject
 90
      499
 91
      509
 93
      476
310
41921A5919195B90640502408333333333333E3BF0000000000000FB01079024090700405020000000000001110200405405064090740C02480A0340
1001
ACAD
1000
AcDbSavedByObjectVersion
1070
     0
  0
ACAD_PROXY_OBJECT
  5
A20F
102
{ACAD_REACTORS
330
9550
102
}
330
9550
100
AcDbZombieObject
 90
      499
 91
      509
 93
      428
310
42529A5D1D195C93D999914409028333333333333E3BF0000000000000FB010790141107004050150A41D405064090741402480A0350
1001
ACAD
1000
AcDbSavedByObjectVersion
1070
     0
  0
ACAD_PROXY_OBJECT
  5
955E
102
{ACAD_REACTORS
330
9550
102
}
330
9550
100
AcDbZombieObject
 90
      499
 91
      509
 93
      444
310
42D31A5B995C185D1D195C9B90E409028333333333333E3BF0000000000000FB010790141107004050750841D405064090741402483A0350
1001
ACAD
1000
AcDbSavedByObjectVersion
1070
     0
  0
ACAD_PROXY_OBJECT
  5
A266
102
{ACAD_REACTORS
330
9550
102
}
330
9550
100
AcDbZombieObject
 90
      499
 91
      509
 93
      484
310
42135BD9195B1A5B99D0A409028333333333333E3BF0000000000000F901074090290700405010000000000201990108421405064090741402480A1B40
1001
ACAD
1000
AcDbSavedByObjectVersion
1070
     0
  0
ACAD_PROXY_OBJECT
  5
A210
102
{ACAD_REACTORS
330
9550
102
}
330
9550
100
AcDbZombieObject
 90
      499
 91
      509
 93
      444
310
42D3DD995C9A185B99D3D999915409028333333333333E3BF0000000000000FB010790141107004050150941D405064090741402480A0350
1001
ACAD
1000
AcDbSavedByObjectVersion
1070
     0
  0
ACAD_PROXY_OBJECT
  5
955A
102
{ACAD_REACTORS
330
9550
102
}
330
9550
100
AcDbZombieObject
 90
      499
 91
      509
 93
      420
310
425499585B1A5CDD1A58D08409028333333333333E3BF0000000000000FB01079019070040501508421405064090741402480A1B40
1001
ACAD
1000
AcDbSavedByObjectVersion
1070
     0
  0
ACAD_PROXY_OBJECT
  5
A265
102
{ACAD_REACTORS
330
9550
102
}
330
9550
100
AcDbZombieObject
 90
      499
 91
      509
 93
      420
310
4194DA1859195911B40902404333333333333E3BF0000000000000F9010740A41107004050150800405405064090840C02480A0B40
1001
ACAD
1000
AcDbSavedByObjectVersion
1070
     0
  0
ACAD_PROXY_OBJECT
  5
A264
102
{ACAD_REACTORS
330
9550
102
}
330
9550
100
AcDbZombieObject
 90
      499
 91
      509
 93
      516
310
4454DA18591959081DDA5D1A08195919D95CD1A40902404333333333333E3BF0000000000000F901074090142907004050250800405405064090740C02480A0B40
1001
ACAD
1000
AcDbSavedByObjectVersion
1070
     0
  0
ACAD_PROXY_OBJECT
  5
A261
102
{ACAD_REACTORS
330
9550
102
}
330
9550
100
AcDbZombieObject
 90
      499
 91
      509
 93
      532
310
4394DA1859195CC81BD98811DC985E5174090240C333333333333E3BF0000000000000FB01079024090741D01000000000000111010841D405064090740C02480A0340
1001
ACAD
1000
AcDbSavedByObjectVersion
1070
     0
  0
ACAD_PROXY_OBJECT
  5
A262
102
{ACAD_REACTORS
330
9550
102
}
330
9550
100
AcDbZombieObject
 90
      499
 91
      509
 93
      476
310
41D4DAD95D18DA1E51840502408333333333333E3BF0000000000000FB01079024090741D01000000000000111010B41D405064090741802480A0340
1001
ACAD
1000
AcDbSavedByObjectVersion
1070
     0
  0
ACAD_PROXY_OBJECT
  5
955D
102
{ACAD_REACTORS
330
9550
102
}
330
9550
100
AcDbZombieObject
 90
      499
 91
      509
 93
      412
310
41D51A1A58DAD95B90D409028333333333333E3BF0000000000000FB010790141107004050150C41D405064090741402480A0350
1001
ACAD
1000
AcDbSavedByObjectVersion
1070
     0
  0
ACAD_PROXY_OBJECT
  5
A25F
102
{ACAD_REACTORS
330
9550
102
}
330
9550
100
AcDbZombieObject
 90
      499
 91
      509
 93
      420
310
4255DA5C99599C985B595059028333333333333E3BF0000000000000FB0107901411070040501600405405064090740C02480A0340
1001
ACAD
1000
AcDbSavedByObjectVersion
1070
     0
  0
ACAD_PROXY_OBJECT
  5
A263
102
{ACAD_REACTORS
330
9550
102
}
330
9550
100
AcDbZombieObject
 90
      499
 91
      509
 93
      404
310
41560B54985E51940902404000000000000E03F0000000000000FB010740501907004050150841D405064090740C02480A1B40
1001
ACAD
1000
AcDbSavedByObjectVersion
1070
     0
  0
XRECORD
  5
D17F
102
{ACAD_REACTORS
330
D17E
102
}
330
D17E
100
AcDbXrecord
340
18D
  0
XRECORD
  5
D180
102
{ACAD_REACTORS
330
D17E
102
}
330
D17E
100
AcDbXrecord
340
18C
  0
DICTIONARYVAR
  5
AAE0
102
{ACAD_REACTORS
330
37
102
}
330
37
100
DictionaryVariables
280
     0
  1
1:1
  0
DICTIONARYVAR
  5
9627
102
{ACAD_REACTORS
330
37
102
}
330
37
100
DictionaryVariables
280
     0
  1
Standard
  0
DICTIONARYVAR
  5
29E
102
{ACAD_REACTORS
330
37
102
}
330
37
100
DictionaryVariables
280
     0
  1
Standard
  0
DICTIONARYVAR
  5
38
102
{ACAD_REACTORS
330
37
102
}
330
37
100
DictionaryVariables
280
     0
  1
-1
  0
DICTIONARYVAR
  5
1CE
102
{ACAD_REACTORS
330
37
102
}
330
37
100
DictionaryVariables
280
     0
  1
2
  0
DICTIONARYVAR
  5
704E
102
{ACAD_REACTORS
330
37
102
}
330
37
100
DictionaryVariables
280
     0
  1
1
  0
DICTIONARYVAR
  5
962A
102
{ACAD_REACTORS
330
37
102
}
330
37
100
DictionaryVariables
280
     0
  1
0
  0
DICTIONARYVAR
  5
7052
102
{ACAD_REACTORS
330
37
102
}
330
37
100
DictionaryVariables
280
     0
  1
8
  0
DICTIONARYVAR
  5
7051
102
{ACAD_REACTORS
330
37
102
}
330
37
100
DictionaryVariables
280
     0
  1
1
  0
DICTIONARYVAR
  5
AB30
102
{ACAD_REACTORS
330
37
102
}
330
37
100
DictionaryVariables
280
     0
  1
0
  0
DICTIONARYVAR
  5
704F
102
{ACAD_REACTORS
330
37
102
}
330
37
100
DictionaryVariables
280
     0
  1
8
  0
DICTIONARYVAR
  5
7050
102
{ACAD_REACTORS
330
37
102
}
330
37
100
DictionaryVariables
280
     0
  1
2
  0
DICTIONARYVAR
  5
1CF
102
{ACAD_REACTORS
330
37
102
}
330
37
100
DictionaryVariables
280
     0
  1

  0
DICTIONARYVAR
  5
9629
102
{ACAD_REACTORS
330
37
102
}
330
37
100
DictionaryVariables
280
     0
  1
127
  0
DICTIONARYVAR
  5
D01F
102
{ACAD_REACTORS
330
37
102
}
330
37
100
DictionaryVariables
280
     0
  1
2
  0
DICTIONARY
  5
D31C
330
9540
100
AcDbDictionary
  3
ACAD_XREC_ROUNDTRIP
360
D31D
1001
ACAD
1000
TREAT_AS_HARD
1070
     1
  0
DICTIONARY
  5
D31E
330
9538
100
AcDbDictionary
  3
ACAD_XREC_ROUNDTRIP
360
D31F
1001
ACAD
1000
TREAT_AS_HARD
1070
     1
  0
DICTIONARY
  5
D320
330
9548
100
AcDbDictionary
  3
ACAD_XREC_ROUNDTRIP
360
D321
1001
ACAD
1000
TREAT_AS_HARD
1070
     1
  0
XRECORD
  5
D31D
102
{ACAD_REACTORS
330
D31C
102
}
330
D31C
100
AcDbXrecord
102
MATERIAL
148
0.0
149
0.0
149
0.0
 93
        0
 94
      127
282
     0
 72
     0
 77
     0
171
     0
175
     0
179
     0
273
     0
  0
XRECORD
  5
D31F
102
{ACAD_REACTORS
330
D31E
102
}
330
D31E
100
AcDbXrecord
102
MATERIAL
148
0.0
149
0.0
149
0.0
 93
        0
 94
      127
282
     0
 72
     0
 77
     0
171
     0
175
     0
179
     0
273
     0
  0
XRECORD
  5
D321
102
{ACAD_REACTORS
330
D320
102
}
330
D320
100
AcDbXrecord
102
MATERIAL
148
0.0
149
0.0
149
0.0
 93
        0
 94
      127
282
     0
 72
     0
 77
     0
171
     0
175
     0
179
     0
273
     0
  0
ENDSEC
  0
EOF
