  0
SECTION
  2
HEADER
  9
$ACADVER
  1
AC1012
  9
$DWGCODEPAGE
  3
ansi_932
  9
$INSBASE
 10
0.0
 20
0.0
 30
0.0
  9
$EXTMIN
 10
4630.859443523997
 20
876.7118229474959
 30
0.0
  9
$EXTMAX
 10
5243.159210844508
 20
1293.211822945439
 30
0.0000000001691137
  9
$LIMMIN
 10
0.0
 20
0.0
  9
$LIMMAX
 10
420.0
 20
297.0
  9
$ORTHOMODE
 70
     0
  9
$REGENMODE
 70
     1
  9
$FILLMODE
 70
     1
  9
$QTEXTMODE
 70
     0
  9
$MIRRTEXT
 70
     0
  9
$DRAGMODE
 70
     2
  9
$LTSCALE
 40
0.5
  9
$OSMODE
 70
 16383
  9
$ATTMODE
 70
     1
  9
$TEXTSIZE
 40
4.0
  9
$TRACEWID
 40
1.0
  9
$TEXTSTYLE
  7
STANDARD
  9
$CLAYER
  8
1TEXT
  9
$CELTYPE
  6
BYLAYER
  9
$CECOLOR
 62
   256
  9
$CELTSCALE
 40
1.0
  9
$DELOBJ
 70
     1
  9
$DISPSILH
 70
     0
  9
$DIMSCALE
 40
1.0
  9
$DIMASZ
 40
2.0
  9
$DIMEXO
 40
0.0
  9
$DIMDLI
 40
7.0
  9
$DIMRND
 40
0.0
  9
$DIMDLE
 40
0.0
  9
$DIMEXE
 40
1.0
  9
$DIMTP
 40
0.0
  9
$DIMTM
 40
0.0
  9
$DIMTXT
 40
3.5
  9
$DIMCEN
 40
0.0
  9
$DIMTSZ
 40
0.0
  9
$DIMTOL
 70
     0
  9
$DIMLIM
 70
     0
  9
$DIMTIH
 70
     0
  9
$DIMTOH
 70
     0
  9
$DIMSE1
 70
     0
  9
$DIMSE2
 70
     0
  9
$DIMTAD
 70
     1
  9
$DIMZIN
 70
     8
  9
$DIMBLK
  1

  9
$DIMASO
 70
     1
  9
$DIMSHO
 70
     1
  9
$DIMPOST
  1
 
  9
$DIMAPOST
  1

  9
$DIMALT
 70
     0
  9
$DIMALTD
 70
     2
  9
$DIMALTF
 40
25.4
  9
$DIMLFAC
 40
1.0
  9
$DIMTOFL
 70
     1
  9
$DIMTVP
 40
0.0
  9
$DIMTIX
 70
     0
  9
$DIMSOXD
 70
     0
  9
$DIMSAH
 70
     1
  9
$DIMBLK1
  1
OPEN30
  9
$DIMBLK2
  1
OPEN30
  9
$DIMSTYLE
  2
NEWX10
  9
$DIMCLRD
 70
   256
  9
$DIMCLRE
 70
   256
  9
$DIMCLRT
 70
   201
  9
$DIMTFAC
 40
0.7
  9
$DIMGAP
 40
0.7
  9
$DIMJUST
 70
     0
  9
$DIMSD1
 70
     0
  9
$DIMSD2
 70
     0
  9
$DIMTOLJ
 70
     1
  9
$DIMTZIN
 70
     8
  9
$DIMALTZ
 70
     0
  9
$DIMALTTZ
 70
     0
  9
$DIMFIT
 70
     2
  9
$DIMUPT
 70
     0
  9
$DIMUNIT
 70
     2
  9
$DIMDEC
 70
     2
  9
$DIMTDEC
 70
     4
  9
$DIMALTU
 70
     2
  9
$DIMALTTD
 70
     2
  9
$DIMTXSTY
  7
STANDARD
  9
$DIMAUNIT
 70
     0
  9
$LUNITS
 70
     2
  9
$LUPREC
 70
     4
  9
$SKETCHINC
 40
1.0
  9
$FILLETRAD
 40
0.0
  9
$AUNITS
 70
     0
  9
$AUPREC
 70
     2
  9
$MENU
  1
acad
  9
$ELEVATION
 40
0.0
  9
$PELEVATION
 40
0.0
  9
$THICKNESS
 40
0.0
  9
$LIMCHECK
 70
     0
  9
$CHAMFERA
 40
10.0
  9
$CHAMFERB
 40
10.0
  9
$CHAMFERC
 40
20.0
  9
$CHAMFERD
 40
0.0
  9
$SKPOLY
 70
     0
  9
$TDCREATE
 40
2451318.621352917
  9
$TDUPDATE
 40
2458967.577853681
  9
$TDINDWG
 40
1.4847042477
  9
$TDUSRTIMER
 40
1.4847042477
  9
$USRTIMER
 70
     1
  9
$ANGBASE
 50
0.0
  9
$ANGDIR
 70
     0
  9
$PDMODE
 70
     0
  9
$PDSIZE
 40
0.0
  9
$PLINEWID
 40
0.0
  9
$COORDS
 70
     2
  9
$SPLFRAME
 70
     0
  9
$SPLINETYPE
 70
     6
  9
$SPLINESEGS
 70
     8
  9
$ATTDIA
 70
     0
  9
$ATTREQ
 70
     1
  9
$HANDLING
 70
     1
  9
$HANDSEED
  5
E57D
  9
$SURFTAB1
 70
     6
  9
$SURFTAB2
 70
     6
  9
$SURFTYPE
 70
     6
  9
$SURFU
 70
     6
  9
$SURFV
 70
     6
  9
$UCSNAME
  2

  9
$UCSORG
 10
0.0
 20
0.0
 30
0.0
  9
$UCSXDIR
 10
1.0
 20
0.0
 30
0.0
  9
$UCSYDIR
 10
0.0
 20
1.0
 30
0.0
  9
$PUCSNAME
  2

  9
$PUCSORG
 10
0.0
 20
0.0
 30
0.0
  9
$PUCSXDIR
 10
1.0
 20
0.0
 30
0.0
  9
$PUCSYDIR
 10
0.0
 20
1.0
 30
0.0
  9
$USERI1
 70
     0
  9
$USERI2
 70
     0
  9
$USERI3
 70
     0
  9
$USERI4
 70
     0
  9
$USERI5
 70
     0
  9
$USERR1
 40
0.0
  9
$USERR2
 40
0.0
  9
$USERR3
 40
0.0
  9
$USERR4
 40
0.0
  9
$USERR5
 40
0.0
  9
$WORLDVIEW
 70
     1
  9
$SHADEDGE
 70
     3
  9
$SHADEDIF
 70
    70
  9
$TILEMODE
 70
     1
  9
$MAXACTVP
 70
    48
  9
$PINSBASE
 10
0.0
 20
0.0
 30
0.0
  9
$PLIMCHECK
 70
     0
  9
$PEXTMIN
 10
1.000000000000000E+20
 20
1.000000000000000E+20
 30
1.000000000000000E+20
  9
$PEXTMAX
 10
-1.000000000000000E+20
 20
-1.000000000000000E+20
 30
-1.000000000000000E+20
  9
$PLIMMIN
 10
0.0
 20
0.0
  9
$PLIMMAX
 10
420.0
 20
297.0
  9
$UNITMODE
 70
     0
  9
$VISRETAIN
 70
     1
  9
$PLINEGEN
 70
     0
  9
$PSLTSCALE
 70
     1
  9
$TREEDEPTH
 70
  3020
  9
$PICKSTYLE
 70
     0
  9
$CMLSTYLE
  2
STANDARD
  9
$CMLJUST
 70
     0
  9
$CMLSCALE
 40
20.0
  9
$SAVEIMAGES
 70
     1
  0
ENDSEC
  0
SECTION
  2
CLASSES
  0
CLASS
  1
DICTIONARYVAR
  2
AcDbDictionaryVar
  3
ObjectDBX Classes
 90
        0
280
     0
281
     0
  0
CLASS
  1
IDBUFFER
  2
AcDbIdBuffer
  3
ObjectDBX Classes
 90
    32768
280
     0
281
     0
  0
CLASS
  1
LWPOLYLINE
  2
AcDbPolyline
  3
ObjectDBX Classes
 90
    32768
280
     0
281
     1
  0
CLASS
  1
ACDBDICTIONARYWDFLT
  2
AcDbDictionaryWithDefault
  3
ObjectDBX Classes
 90
    32768
280
     0
281
     0
  0
CLASS
  1
ACDBPLACEHOLDER
  2
AcDbPlaceHolder
  3
ObjectDBX Classes
 90
        0
280
     0
281
     0
  0
CLASS
  1
LAYOUT
  2
AcDbLayout
  3
ObjectDBX Classes
 90
        0
280
     0
281
     0
  0
CLASS
  1
TABLESTYLE
  2
AcDbTableStyle
  3
ObjectDBX Classes
 90
     4095
280
     0
281
     0
  0
CLASS
  1
SORTENTSTABLE
  2
AcDbSortentsTable
  3
ObjectDBX Classes
 90
    32768
280
     0
281
     0
  0
CLASS
  1
MATERIAL
  2
AcDbMaterial
  3
ObjectDBX Classes
 90
     1153
280
     0
281
     0
  0
CLASS
  1
VISUALSTYLE
  2
AcDbVisualStyle
  3
ObjectDBX Classes
 90
     4095
280
     0
281
     0
  0
CLASS
  1
SCALE
  2
AcDbScale
  3
ObjectDBX Classes
 90
     1153
280
     0
281
     0
  0
CLASS
  1
MLEADERSTYLE
  2
AcDbMLeaderStyle
  3
ACDB_MLEADERSTYLE_CLASS
 90
     4095
280
     0
281
     0
  0
CLASS
  1
CELLSTYLEMAP
  2
AcDbCellStyleMap
  3
ObjectDBX Classes
 90
     1152
280
     0
281
     0
  0
CLASS
  1
SUN
  2
AcDbSun
  3
SCENEOE
 90
     1153
280
     0
281
     0
  0
CLASS
  1
XRECORD
  2
AcDbXrecord
  3
ObjectDBX Classes
 90
    32768
280
     0
281
     0
  0
CLASS
  1
HATCH
  2
AcDbHatch
  3
ObjectDBX Classes
 90
    32768
280
     0
281
     1
  0
ENDSEC
  0
SECTION
  2
TABLES
  0
TABLE
  2
VPORT
  5
8
330
0
100
AcDbSymbolTable
 70
     1
  0
VPORT
  5
952D
330
8
100
AcDbSymbolTableRecord
100
AcDbViewportTableRecord
  2
*ACTIVE
 70
     0
 10
0.0
 20
0.0
 11
1.0
 21
1.0
 12
4937.009327184252
 22
1084.961822946467
 13
0.0
 23
0.0
 14
10.0
 24
10.0
 15
10.0
 25
10.0
 16
0.0
 26
0.0
 36
1.0
 17
0.0
 27
0.0
 37
0.0
 40
447.1894736820022
 41
1.803066037735849
 42
50.0
 43
0.0
 44
0.0
 50
0.0
 51
0.0
 71
    16
 72
   100
 73
     1
 74
     1
 75
     0
 76
     0
 77
     0
 78
     0
1001
ACAD_NAV_VCDISPLAY
1070
     3
  0
ENDTAB
  0
TABLE
  2
LTYPE
  5
5
330
0
100
AcDbSymbolTable
 70
     2
  0
LTYPE
  5
12
330
5
100
AcDbSymbolTableRecord
100
AcDbLinetypeTableRecord
  2
BYBLOCK
 70
     0
  3

 72
    65
 73
     0
 40
0.0
  0
LTYPE
  5
13
330
5
100
AcDbSymbolTableRecord
100
AcDbLinetypeTableRecord
  2
BYLAYER
 70
     0
  3

 72
    65
 73
     0
 40
0.0
  0
LTYPE
  5
14
330
5
100
AcDbSymbolTableRecord
100
AcDbLinetypeTableRecord
  2
CONTINUOUS
 70
     0
  3
Solid line
 72
    65
 73
     0
 40
0.0
  0
LTYPE
  5
9837
330
5
100
AcDbSymbolTableRecord
100
AcDbLinetypeTableRecord
  2
CENTER2
 70
     0
  3
Center (.5x) ___ _ ___ _ ___ _ ___ _ ___ _ ___
 72
    65
 73
     4
 40
28.575
 49
19.05
 74
     0
 49
-3.175
 74
     0
 49
3.175
 74
     0
 49
-3.175
 74
     0
  0
ENDTAB
  0
TABLE
  2
LAYER
  5
2
102
{ACAD_XDICTIONARY
360
96D9
102
}
330
0
100
AcDbSymbolTable
 70
     5
  0
LAYER
  5
E
102
{ACAD_XDICTIONARY
360
9593
102
}
330
2
100
AcDbSymbolTableRecord
100
AcDbLayerTableRecord
  2
0
 70
     0
 62
     7
  6
CONTINUOUS
  0
LAYER
  5
29
102
{ACAD_XDICTIONARY
360
9595
102
}
330
2
100
AcDbSymbolTableRecord
100
AcDbLayerTableRecord
  2
1CENTER
 70
     0
 62
     7
  6
CENTER2
  0
LAYER
  5
31
102
{ACAD_XDICTIONARY
360
9597
102
}
330
2
100
AcDbSymbolTableRecord
100
AcDbLayerTableRecord
  2
1TEXT
 70
     0
 62
     7
  6
CONTINUOUS
  0
LAYER
  5
243
102
{ACAD_XDICTIONARY
360
959D
102
}
330
2
100
AcDbSymbolTableRecord
100
AcDbLayerTableRecord
  2
01
 70
     0
 62
     1
  6
CONTINUOUS
  0
LAYER
  5
24E
102
{ACAD_XDICTIONARY
360
95A3
102
}
330
2
100
AcDbSymbolTableRecord
100
AcDbLayerTableRecord
  2
1DIM
 70
     0
 62
     7
  6
CONTINUOUS
  0
ENDTAB
  0
TABLE
  2
STYLE
  5
3
330
0
100
AcDbSymbolTable
 70
     1
  0
STYLE
  5
F
330
3
100
AcDbSymbolTableRecord
100
AcDbTextStyleTableRecord
  2
STANDARD
 70
     0
 40
0.0
 41
1.0
 50
0.0
 71
     0
 42
4.0
  3
txt.shx
  4
extfont.shx
  0
ENDTAB
  0
TABLE
  2
VIEW
  5
6
330
0
100
AcDbSymbolTable
 70
     0
  0
ENDTAB
  0
TABLE
  2
UCS
  5
7
330
0
100
AcDbSymbolTable
 70
     0
  0
ENDTAB
  0
TABLE
  2
APPID
  5
9
330
0
100
AcDbSymbolTable
 70
    15
  0
APPID
  5
10
330
9
100
AcDbSymbolTableRecord
100
AcDbRegAppTableRecord
  2
ACAD
 70
     0
  0
APPID
  5
21
330
9
100
AcDbSymbolTableRecord
100
AcDbRegAppTableRecord
  2
DRAWINGVARIABLESXDATA
 70
     0
  0
APPID
  5
64
330
9
100
AcDbSymbolTableRecord
100
AcDbRegAppTableRecord
  2
CONTENTTABDATA
 70
     0
  0
APPID
  5
65
330
9
100
AcDbSymbolTableRecord
100
AcDbRegAppTableRecord
  2
CONTENTCURRENTTAB
 70
     0
  0
APPID
  5
66
330
9
100
AcDbSymbolTableRecord
100
AcDbRegAppTableRecord
  2
CONTENTBLOCKDESCRIPTION
 70
     0
  0
APPID
  5
67
330
9
100
AcDbSymbolTableRecord
100
AcDbRegAppTableRecord
  2
CONTENTBLOCKICON
 70
     0
  0
APPID
  5
68
330
9
100
AcDbSymbolTableRecord
100
AcDbRegAppTableRecord
  2
CONTENTLONGBLOCKNAME
 70
     0
  0
APPID
  5
2AE
330
9
100
AcDbSymbolTableRecord
100
AcDbRegAppTableRecord
  2
ACAD_PSEXT
 70
     0
  0
APPID
  5
9585
330
9
100
AcDbSymbolTableRecord
100
AcDbRegAppTableRecord
  2
ACAD_MLEADERVER
 70
     0
  0
APPID
  5
A2E3
330
9
100
AcDbSymbolTableRecord
100
AcDbRegAppTableRecord
  2
ACADANNOTATIVE
 70
     0
  0
APPID
  5
A2E4
330
9
100
AcDbSymbolTableRecord
100
AcDbRegAppTableRecord
  2
ACDBBLOCKREPETAG
 70
     0
  0
APPID
  5
AEB1
330
9
100
AcDbSymbolTableRecord
100
AcDbRegAppTableRecord
  2
ACAD_NAV_VCDISPLAY
 70
     0
  0
APPID
  5
B6A4
330
9
100
AcDbSymbolTableRecord
100
AcDbRegAppTableRecord
  2
ACAECLAYERSTANDARD
 70
     0
  0
APPID
  5
E1EF
330
9
100
AcDbSymbolTableRecord
100
AcDbRegAppTableRecord
  2
ACAD_EXEMPT_FROM_CAD_STAND
 70
     0
  0
APPID
  5
E209
330
9
100
AcDbSymbolTableRecord
100
AcDbRegAppTableRecord
  2
ACAD_OBJECT_CHANGE_GUID
 70
     0
  0
ENDTAB
  0
TABLE
  2
DIMSTYLE
  5
A
330
0
100
AcDbSymbolTable
 70
     1
  0
DIMSTYLE
105
48
330
A
100
AcDbSymbolTableRecord
100
AcDbDimStyleTableRecord
  2
NEWX10
 70
     0
  3
 
  4

  5

  6
OPEN30
  7
OPEN30
 40
1.0
 41
2.0
 42
0.0
 43
7.0
 44
1.0
 45
0.0
 46
0.0
 47
0.0
 48
0.0
140
3.5
141
0.0
142
0.0
143
25.4
144
1.0
145
0.0
146
0.7
147
0.7
 71
     0
 72
     0
 73
     0
 74
     0
 75
     0
 76
     0
 77
     1
 78
     8
170
     0
171
     2
172
     1
173
     1
174
     0
175
     0
176
   256
177
   256
178
   201
179
     2
270
     2
271
     2
272
     4
273
     2
274
     2
340
F
275
     0
280
     0
281
     0
282
     0
283
     1
284
     8
285
     0
286
     0
287
     2
288
     0
  0
ENDTAB
  0
TABLE
  2
BLOCK_RECORD
  5
1
330
0
100
AcDbSymbolTable
 70
     8
  0
BLOCK_RECORD
  5
18
102
{ACAD_XDICTIONARY
360
88F
102
}
330
1
100
AcDbSymbolTableRecord
100
AcDbBlockTableRecord
  2
*MODEL_SPACE
  0
BLOCK_RECORD
  5
15
330
1
100
AcDbSymbolTableRecord
100
AcDbBlockTableRecord
  2
*PAPER_SPACE
  0
BLOCK_RECORD
  5
42
330
1
100
AcDbSymbolTableRecord
100
AcDbBlockTableRecord
  2
_OPEN30
  0
BLOCK_RECORD
  5
A333
330
1
100
AcDbSymbolTableRecord
100
AcDbBlockTableRecord
  2
A3WAKUKAWAJUN2017_HYOUDAI_
  0
BLOCK_RECORD
  5
E3DD
330
1
100
AcDbSymbolTableRecord
100
AcDbBlockTableRecord
  2
*X21
  0
BLOCK_RECORD
  5
E42B
330
1
100
AcDbSymbolTableRecord
100
AcDbBlockTableRecord
  2
*X22
  0
BLOCK_RECORD
  5
E47D
330
1
100
AcDbSymbolTableRecord
100
AcDbBlockTableRecord
  2
*X23
  0
BLOCK_RECORD
  5
E4CE
330
1
100
AcDbSymbolTableRecord
100
AcDbBlockTableRecord
  2
*X24
  0
BLOCK_RECORD
  5
E50B
330
1
100
AcDbSymbolTableRecord
100
AcDbBlockTableRecord
  2
*X25
  0
BLOCK_RECORD
  5
E54B
330
1
100
AcDbSymbolTableRecord
100
AcDbBlockTableRecord
  2
*X26
  0
ENDTAB
  0
ENDSEC
  0
SECTION
  2
BLOCKS
  0
BLOCK
  5
19
330
18
100
AcDbEntity
  8
0
100
AcDbBlockBegin
  2
*MODEL_SPACE
 70
     0
 10
0.0
 20
0.0
 30
0.0
  3
*MODEL_SPACE
  1

  0
ENDBLK
  5
1A
330
18
100
AcDbEntity
  8
0
100
AcDbBlockEnd
  0
BLOCK
  5
16
330
15
100
AcDbEntity
 67
     1
  8
0
100
AcDbBlockBegin
  2
*PAPER_SPACE
 70
     0
 10
0.0
 20
0.0
 30
0.0
  3
*PAPER_SPACE
  1

  0
ENDBLK
  5
17
330
15
100
AcDbEntity
 67
     1
  8
0
100
AcDbBlockEnd
  0
BLOCK
  5
43
330
42
100
AcDbEntity
  8
0
100
AcDbBlockBegin
  2
_OPEN30
 70
     0
 10
0.0
 20
0.0
 30
0.0
  3
_OPEN30
  1

  0
LINE
  5
44
330
42
100
AcDbEntity
  8
0
  6
BYBLOCK
 62
     0
100
AcDbLine
 10
-1.0
 20
0.26794919
 30
0.0
 11
0.0
 21
0.0
 31
0.0
  0
LINE
  5
45
330
42
100
AcDbEntity
  8
0
  6
BYBLOCK
 62
     0
100
AcDbLine
 10
0.0
 20
0.0
 30
0.0
 11
-1.0
 21
-0.26794919
 31
0.0
  0
LINE
  5
46
330
42
100
AcDbEntity
  8
0
  6
BYBLOCK
 62
     0
100
AcDbLine
 10
0.0
 20
0.0
 30
0.0
 11
-1.0
 21
0.0
 31
0.0
  0
ENDBLK
  5
47
330
42
100
AcDbEntity
  8
0
100
AcDbBlockEnd
  0
BLOCK
  5
AA56
330
A333
100
AcDbEntity
  8
0
100
AcDbBlockBegin
  2
A3WAKUKAWAJUN2017_HYOUDAI_
 70
     0
 10
0.0
 20
0.0
 30
0.0
  3
A3WAKUKAWAJUN2017_HYOUDAI_
  1

  0
LINE
  5
A335
330
A333
100
AcDbEntity
  8
0
100
AcDbLine
 10
13.26299999998673
 20
-0.0001000000000317
 30
0.0
 11
9.236999999990758
 21
8.999899999990987
 31
0.0
1001
ACAD
1000
ASC_BOUNDS
1002
{
1070
    19
1005
A376
1002
}
  0
LINE
  5
A336
330
A333
100
AcDbEntity
  8
0
100
AcDbLine
 10
5.657999999994331
 20
0.9999999999989768
 30
0.0
 11
9.236999999990758
 21
8.999999999991019
 31
0.0
1001
ACAD
1000
ASC_BOUNDS
1002
{
1070
    19
1005
A376
1002
}
  0
LINE
  5
A337
330
A333
100
AcDbEntity
  8
0
100
AcDbLine
 10
18.59199999998134
 20
-0.2368999999997641
 30
0.0
 11
16.46099999998353
 21
5.432899999994561
 31
0.0
1001
ACAD
1000
ASC_BOUNDS
1002
{
1070
    19
1005
A377
1002
}
  0
LINE
  5
A338
330
A333
100
AcDbEntity
  8
0
100
AcDbLine
 10
18.59199999998134
 20
-0.2368999999997641
 30
0.0
 11
22.38199999997767
 21
8.763099999991255
 31
0.0
1001
ACAD
1000
ASC_BOUNDS
1002
{
1070
    19
1005
A377
1002
}
  0
LINE
  5
A339
330
A333
100
AcDbEntity
  8
0
100
AcDbLine
 10
14.32899999998563
 20
-0.2368999999997641
 30
0.0
 11
16.46099999998353
 21
5.432899999994561
 31
0.0
1001
ACAD
1000
ASC_BOUNDS
1002
{
1070
    19
1005
A377
1002
}
  0
LINE
  5
A33A
330
A333
100
AcDbEntity
  8
0
100
AcDbLine
 10
14.32899999998563
 20
-0.2368999999997641
 30
0.0
 11
10.53899999998941
 21
8.763099999991255
 31
0.0
1001
ACAD
1000
ASC_BOUNDS
1002
{
1070
    19
1005
A377
1002
}
  0
LINE
  5
A33B
330
A333
100
AcDbEntity
  8
0
100
AcDbLine
 10
19.53899999998043
 20
-0.0001000000000317
 30
0.0
 11
23.56599999997638
 21
8.999899999990987
 31
0.0
1001
ACAD
1000
ASC_BOUNDS
1002
{
1070
    19
1005
A378
1002
}
  0
LINE
  5
A33C
330
A333
100
AcDbEntity
  8
0
100
AcDbLine
 10
26.97358892824991
 20
1.383099999991202
 30
0.0
 11
23.56599999997638
 21
8.999899999990987
 31
0.0
1001
ACAD
1000
ASC_BOUNDS
1002
{
1070
    19
1005
A378
1002
}
  0
LINE
  5
A33D
330
A333
100
AcDbEntity
  8
0
100
AcDbLine
 10
5.657999999994331
 20
0.9999999999989768
 30
0.0
 11
3.181999999996833
 21
4.668599999995308
 31
0.0
1001
ACAD
1000
ASC_BOUNDS
1002
{
1070
    19
1005
A376
1002
}
  0
LINE
  5
A33E
330
A333
100
AcDbEntity
  8
0
100
AcDbLine
 10
4.617999999995391
 20
-0.0001000000000317
 30
0.0
 11
1.420999999998571
 21
4.736799999995242
 31
0.0
1001
ACAD
1000
ASC_BOUNDS
1002
{
1070
    19
1005
A376
1002
}
  0
LINE
  5
A33F
330
A333
100
AcDbEntity
  8
0
100
AcDbLine
 10
1.420999999998571
 20
8.763099999991255
 30
0.0
 11
1.420999999998571
 21
0.0
 31
0.0
1001
ACAD
1000
ASC_BOUNDS
1002
{
1070
    19
1005
A37B
1002
}
  0
LINE
  5
A340
330
A333
100
AcDbEntity
  8
0
100
AcDbLine
 10
0.0
 20
8.763099999991255
 30
0.0
 11
0.0
 21
0.0
 31
0.0
1001
ACAD
1000
ASC_BOUNDS
1002
{
1070
    19
1005
A37B
1002
}
  0
LINE
  5
A341
330
A333
100
AcDbEntity
  8
0
100
AcDbLine
 10
6.766999999993232
 20
-0.0001000000000317
 30
0.0
 11
7.826999999992154
 21
2.368399999997621
 31
0.0
1001
ACAD
1000
ASC_BOUNDS
1002
{
1070
    19
1005
A376
1002
}
  0
LINE
  5
A342
330
A333
100
AcDbEntity
  8
0
100
AcDbLine
 10
0.0
 20
0.0
 30
0.0
 11
1.420999999998571
 21
0.0
 31
0.0
1001
ACAD
1000
ASC_BOUNDS
1002
{
1070
    19
1005
A37B
1002
}
  0
LINE
  5
A343
330
A333
100
AcDbEntity
  8
0
100
AcDbLine
 10
4.617999999995391
 20
0.0
 30
0.0
 11
6.766999999993232
 21
0.0
 31
0.0
1001
ACAD
1000
ASC_BOUNDS
1002
{
1070
    19
1005
A376
1002
}
  0
LINE
  5
A344
330
A333
100
AcDbEntity
  8
0
100
AcDbLine
 10
11.70599999998831
 20
-0.0001000000000317
 30
0.0
 11
10.64699999998936
 21
2.368399999997621
 31
0.0
1001
ACAD
1000
ASC_BOUNDS
1002
{
1070
    19
1005
A376
1002
}
  0
LINE
  5
A345
330
A333
100
AcDbEntity
  8
0
100
AcDbLine
 10
7.826999999992154
 20
2.368399999997621
 30
0.0
 11
10.64699999998936
 21
2.368399999997621
 31
0.0
1001
ACAD
1000
ASC_BOUNDS
1002
{
1070
    19
1005
A376
1002
}
  0
LINE
  5
A346
330
A333
100
AcDbEntity
  8
0
100
AcDbLine
 10
11.70599999998831
 20
0.0
 30
0.0
 11
13.26299999998673
 21
0.0
 31
0.0
1001
ACAD
1000
ASC_BOUNDS
1002
{
1070
    19
1005
A376
1002
}
  0
LINE
  5
A347
330
A333
100
AcDbEntity
  8
0
100
AcDbLine
 10
22.15599999997789
 20
2.368399999997621
 30
0.0
 11
24.97599999997499
 21
2.368399999997621
 31
0.0
1001
ACAD
1000
ASC_BOUNDS
1002
{
1070
    19
1005
A378
1002
}
  0
LINE
  5
A348
330
A333
100
AcDbEntity
  8
0
100
AcDbLine
 10
19.53899999998043
 20
0.0
 30
0.0
 11
21.09599999997886
 21
0.0
 31
0.0
1001
ACAD
1000
ASC_BOUNDS
1002
{
1070
    19
1005
A378
1002
}
  0
LINE
  5
A349
330
A333
100
AcDbEntity
  8
0
100
AcDbLine
 10
21.09599999997886
 20
-0.0001000000000317
 30
0.0
 11
22.15599999997789
 21
2.368399999997621
 31
0.0
1001
ACAD
1000
ASC_BOUNDS
1002
{
1070
    19
1005
A378
1002
}
  0
LINE
  5
A34A
330
A333
100
AcDbEntity
  8
0
100
AcDbLine
 10
26.02015566812236
 20
0.0330999999912365
 30
0.0
 11
24.97599999997499
 21
2.368399999997621
 31
0.0
1001
ACAD
1000
ASC_BOUNDS
1002
{
1070
    19
1005
A378
1002
}
  0
LINE
  5
A34B
330
A333
100
AcDbEntity
  8
0
100
AcDbLine
 10
14.32399999998563
 20
3.315799999996671
 30
0.0
 11
16.46099999998353
 21
8.999899999990987
 31
0.0
1001
ACAD
1000
ASC_BOUNDS
1002
{
1070
    19
1005
A377
1002
}
  0
LINE
  5
A34C
330
A333
100
AcDbEntity
  8
0
100
AcDbLine
 10
6.432999999993513
 20
8.763099999991255
 30
0.0
 11
3.181999999996833
 21
4.668599999995308
 31
0.0
1001
ACAD
1000
ASC_BOUNDS
1002
{
1070
    19
1005
A376
1002
}
  0
LINE
  5
A34D
330
A333
100
AcDbEntity
  8
0
100
AcDbLine
 10
4.617999999995391
 20
8.763099999991255
 30
0.0
 11
1.420999999998571
 21
4.736799999995242
 31
0.0
1001
ACAD
1000
ASC_BOUNDS
1002
{
1070
    19
1005
A376
1002
}
  0
LINE
  5
A34E
330
A333
100
AcDbEntity
  8
0
100
AcDbLine
 10
0.0
 20
8.763099999991255
 30
0.0
 11
1.420999999998571
 21
8.763099999991255
 31
0.0
1001
ACAD
1000
ASC_BOUNDS
1002
{
1070
    19
1005
A37B
1002
}
  0
LINE
  5
A34F
330
A333
100
AcDbEntity
  8
0
100
AcDbLine
 10
4.617999999995391
 20
8.763099999991255
 30
0.0
 11
6.432999999993513
 21
8.763099999991255
 31
0.0
1001
ACAD
1000
ASC_BOUNDS
1002
{
1070
    19
1005
A376
1002
}
  0
LINE
  5
A350
330
A333
100
AcDbEntity
  8
0
100
AcDbLine
 10
14.32399999998563
 20
3.315799999996671
 30
0.0
 11
12.02999999998792
 21
8.763099999991255
 31
0.0
1001
ACAD
1000
ASC_BOUNDS
1002
{
1070
    19
1005
A377
1002
}
  0
LINE
  5
A351
330
A333
100
AcDbEntity
  8
0
100
AcDbLine
 10
10.06399999998996
 20
3.670999999996297
 30
0.0
 11
9.236999999990758
 21
5.5200999999945
 31
0.0
1001
ACAD
1000
ASC_BOUNDS
1002
{
1070
    19
1005
A376
1002
}
  0
LINE
  5
A352
330
A333
100
AcDbEntity
  8
0
100
AcDbLine
 10
8.409999999991555
 20
3.670999999996297
 30
0.0
 11
9.236999999990758
 21
5.5200999999945
 31
0.0
1001
ACAD
1000
ASC_BOUNDS
1002
{
1070
    19
1005
A376
1002
}
  0
LINE
  5
A353
330
A333
100
AcDbEntity
  8
0
100
AcDbLine
 10
8.409999999991555
 20
3.670999999996297
 30
0.0
 11
10.06399999998996
 21
3.670999999996297
 31
0.0
1001
ACAD
1000
ASC_BOUNDS
1002
{
1070
    19
1005
A376
1002
}
  0
LINE
  5
A354
330
A333
100
AcDbEntity
  8
0
100
AcDbLine
 10
10.53899999998941
 20
8.763099999991255
 30
0.0
 11
12.02999999998792
 21
8.763099999991255
 31
0.0
1001
ACAD
1000
ASC_BOUNDS
1002
{
1070
    19
1005
A377
1002
}
  0
LINE
  5
A355
330
A333
100
AcDbEntity
  8
0
100
AcDbLine
 10
22.7389999999773
 20
3.670999999996297
 30
0.0
 11
23.56599999997638
 21
5.5200999999945
 31
0.0
1001
ACAD
1000
ASC_BOUNDS
1002
{
1070
    19
1005
A378
1002
}
  0
LINE
  5
A356
330
A333
100
AcDbEntity
  8
0
100
AcDbLine
 10
22.7389999999773
 20
3.670999999996297
 30
0.0
 11
24.39299999997559
 21
3.670999999996297
 31
0.0
1001
ACAD
1000
ASC_BOUNDS
1002
{
1070
    19
1005
A378
1002
}
  0
LINE
  5
A357
330
A333
100
AcDbEntity
  8
0
100
AcDbLine
 10
18.59799999998143
 20
3.315799999996671
 30
0.0
 11
20.89099999997916
 21
8.763099999991255
 31
0.0
1001
ACAD
1000
ASC_BOUNDS
1002
{
1070
    19
1005
A377
1002
}
  0
LINE
  5
A358
330
A333
100
AcDbEntity
  8
0
100
AcDbLine
 10
18.59799999998143
 20
3.315799999996671
 30
0.0
 11
16.46099999998353
 21
8.999899999990987
 31
0.0
1001
ACAD
1000
ASC_BOUNDS
1002
{
1070
    19
1005
A377
1002
}
  0
LINE
  5
A359
330
A333
100
AcDbEntity
  8
0
100
AcDbLine
 10
20.89099999997916
 20
8.763099999991255
 30
0.0
 11
22.38199999997767
 21
8.763099999991255
 31
0.0
1001
ACAD
1000
ASC_BOUNDS
1002
{
1070
    19
1005
A377
1002
}
  0
LINE
  5
A35A
330
A333
100
AcDbEntity
  8
0
100
AcDbLine
 10
24.39299999997559
 20
3.670999999996297
 30
0.0
 11
23.56599999997638
 21
5.5200999999945
 31
0.0
1001
ACAD
1000
ASC_BOUNDS
1002
{
1070
    19
1005
A378
1002
}
  0
LINE
  5
A35B
330
A333
100
AcDbEntity
  8
0
100
AcDbLine
 10
44.99999999995498
 20
-0.2368999999997641
 30
0.0
 11
40.02599999995994
 21
5.341799999994635
 31
0.0
1001
ACAD
1000
ASC_BOUNDS
1002
{
1070
    19
1005
A37A
1002
}
  0
LINE
  5
A35C
330
A333
100
AcDbEntity
  8
0
100
AcDbLine
 10
40.02599999995994
 20
5.341799999994635
 30
0.0
 11
40.02599999995994
 21
0.0
 31
0.0
1001
ACAD
1000
ASC_BOUNDS
1002
{
1070
    19
1005
A37A
1002
}
  0
LINE
  5
A35D
330
A333
100
AcDbEntity
  8
0
100
AcDbLine
 10
38.60499999996136
 20
8.999999999991019
 30
0.0
 11
38.60499999996136
 21
0.0
 31
0.0
1001
ACAD
1000
ASC_BOUNDS
1002
{
1070
    19
1005
A37A
1002
}
  0
LINE
  5
A35E
330
A333
100
AcDbEntity
  8
0
100
AcDbLine
 10
44.99999999995498
 20
8.763099999991255
 30
0.0
 11
44.99999999995498
 21
-0.2368999999997641
 31
0.0
1001
ACAD
1000
ASC_BOUNDS
1002
{
1070
    19
1005
A37A
1002
}
  0
LINE
  5
A35F
330
A333
100
AcDbEntity
  8
0
100
AcDbLine
 10
38.60499999996136
 20
0.0
 30
0.0
 11
40.02599999995994
 21
0.0
 31
0.0
1001
ACAD
1000
ASC_BOUNDS
1002
{
1070
    19
1005
A37A
1002
}
  0
LINE
  5
A360
330
A333
100
AcDbEntity
  8
0
100
AcDbLine
 10
43.57899999995641
 20
3.421199999996588
 30
0.0
 11
38.60499999996136
 21
8.999899999990987
 31
0.0
1001
ACAD
1000
ASC_BOUNDS
1002
{
1070
    19
1005
A37A
1002
}
  0
LINE
  5
A361
330
A333
100
AcDbEntity
  8
0
100
AcDbLine
 10
43.57899999995641
 20
8.763099999991255
 30
0.0
 11
43.57899999995641
 21
3.421199999996588
 31
0.0
1001
ACAD
1000
ASC_BOUNDS
1002
{
1070
    19
1005
A37A
1002
}
  0
LINE
  5
A362
330
A333
100
AcDbEntity
  8
0
100
AcDbLine
 10
43.57899999995641
 20
8.763099999991255
 30
0.0
 11
44.99999999995498
 21
8.763099999991255
 31
0.0
1001
ACAD
1000
ASC_BOUNDS
1002
{
1070
    19
1005
A37A
1002
}
  0
LINE
  5
A363
330
A333
100
AcDbEntity
  8
0
100
AcDbLine
 10
37.67199999996831
 20
8.763099999991255
 30
0.0
 11
36.23199999996837
 21
8.763099999991255
 31
0.0
  0
LINE
  5
A364
330
A333
100
AcDbEntity
  8
0
100
AcDbLine
 10
31.64199999996833
 20
8.763099999991255
 30
0.0
 11
31.64199999996833
 21
2.481619422925121
 31
0.0
  0
LINE
  5
A365
330
A333
100
AcDbEntity
  8
0
100
AcDbLine
 10
37.67199999996831
 20
8.763099999991255
 30
0.0
 11
37.67199999996831
 21
2.481619422925121
 31
0.0
  0
LINE
  5
A366
330
A333
100
AcDbEntity
  8
0
100
AcDbLine
 10
36.23199999996837
 20
8.763099999991255
 30
0.0
 11
36.23199999996837
 21
2.481619422925064
 31
0.0
  0
LINE
  5
A367
330
A333
100
AcDbEntity
  8
0
100
AcDbLine
 10
33.08199999996839
 20
8.763099999991255
 30
0.0
 11
33.08199999996839
 21
2.481619422925121
 31
0.0
  0
ARC
  5
A368
330
A333
100
AcDbEntity
  8
0
100
AcDbCircle
 10
34.65699999996832
 20
3.183099999991214
 30
0.0
 40
3.420000000000007
100
AcDbArc
 50
240.0000000000255
 51
299.9999999999766
  0
ARC
  5
A369
330
A333
100
AcDbEntity
  8
0
100
AcDbCircle
 10
34.65699999996832
 20
3.183099999991214
 30
0.0
 40
1.97999999999999
100
AcDbArc
 50
240.000000000026
 51
299.9999999999703
  0
LINE
  5
A36A
330
A333
100
AcDbEntity
  8
0
100
AcDbLine
 10
33.08199999996828
 20
8.763099999991255
 30
0.0
 11
31.64199999996833
 21
8.763099999991255
 31
0.0
  0
ARC
  5
A36B
330
A333
100
AcDbEntity
  8
0
100
AcDbCircle
 10
35.06199999996829
 20
2.481619422925064
 30
0.0
 40
1.17
100
AcDbArc
 50
299.9999999999699
 51
0.0
  0
ARC
  5
A36C
330
A333
100
AcDbEntity
  8
0
100
AcDbCircle
 10
34.25199999996835
 20
2.481619422925121
 30
0.0
 40
1.17
100
AcDbArc
 50
180.0
 51
240.0000000000238
  0
ARC
  5
A36D
330
A333
100
AcDbEntity
  8
0
100
AcDbCircle
 10
35.06199999996841
 20
2.481619422925121
 30
0.0
 40
2.61
100
AcDbArc
 50
299.9999999999756
 51
0.0
  0
ARC
  5
A36E
330
A333
100
AcDbEntity
  8
0
100
AcDbCircle
 10
34.25199999996835
 20
2.481619422925121
 30
0.0
 40
2.61
100
AcDbArc
 50
180.0
 51
240.0000000000244
  0
LINE
  5
A36F
330
A333
100
AcDbEntity
  8
0
100
AcDbLine
 10
29.30199999996933
 20
8.763099999991255
 30
0.0
 11
30.74199999996927
 21
8.763099999991255
 31
0.0
1001
ACAD
1000
ASC_BOUNDS
1002
{
1070
    19
1005
A378
1002
}
  0
LINE
  5
A370
330
A333
100
AcDbEntity
  8
0
100
AcDbLine
 10
30.74199999996927
 20
8.763099999991255
 30
0.0
 11
30.74199999996927
 21
2.373099999991211
 31
0.0
1001
ACAD
1000
ASC_BOUNDS
1002
{
1070
    19
1005
A378
1002
}
  0
LINE
  5
A371
330
A333
100
AcDbEntity
  8
0
100
AcDbLine
 10
26.02015566812236
 20
0.0330999999912365
 30
0.0
 11
28.40199999996923
 21
0.0330999999912365
 31
0.0
1001
ACAD
1000
ASC_BOUNDS
1002
{
1070
    19
1005
A378
1002
}
  0
LINE
  5
A372
330
A333
100
AcDbEntity
  8
0
100
AcDbLine
 10
29.30199999996933
 20
8.763099999991255
 30
0.0
 11
29.30199999996933
 21
2.283099999991236
 31
0.0
1001
ACAD
1000
ASC_BOUNDS
1002
{
1070
    19
1005
A378
1002
}
  0
LINE
  5
A373
330
A333
100
AcDbEntity
  8
0
100
AcDbLine
 10
26.97358892824991
 20
1.383099999991202
 30
0.0
 11
28.40199999996923
 21
1.383099999991202
 31
0.0
1001
ACAD
1000
ASC_BOUNDS
1002
{
1070
    19
1005
A378
1002
}
  0
ARC
  5
A374
330
A333
100
AcDbEntity
  8
0
100
AcDbCircle
 10
28.40199999996923
 20
2.283099999991236
 30
0.0
 40
0.9
100
AcDbArc
 50
270.0
 51
0.0
1001
ACAD
1000
ASC_BOUNDS
1002
{
1070
    19
1005
A378
1002
}
  0
ARC
  5
A375
330
A333
100
AcDbEntity
  8
0
100
AcDbCircle
 10
28.40199999996923
 20
2.373099999991211
 30
0.0
 40
2.34
100
AcDbArc
 50
270.0
 51
0.0
1001
ACAD
1000
ASC_BOUNDS
1002
{
1070
    19
1005
A378
1002
}
  0
INSERT
  5
A376
330
A333
100
AcDbEntity
  8
0
100
AcDbBlockReference
  2
*X21
 10
0.0
 20
0.0
 30
0.0
1001
ACAD
1000
HATCH
1002
{
1070
    19
1000
ANSI37
1040
0.15
1040
0.0
1000
ASC_BOUNDS
1070
     2
1070
     2
1070
    12
1005
A335
1005
A336
1005
A33D
1005
A34C
1005
A34F
1005
A34D
1005
A33E
1005
A343
1005
A341
1005
A345
1005
A344
1005
A346
1070
     2
1070
     3
1005
A351
1005
A353
1005
A352
1000
ASC_SEEDPOINT
1011
3.614004224891801
1021
2.996669441146025
1031
0.0
1000
R14_HATCH_DATA
1000
A376
1011
1.0
1021
0.0
1031
0.0
1011
0.0
1021
1.0
1031
0.0
1011
0.0
1021
0.0
1031
1.0
1040
0.0
1010
0.0
1020
0.0
1030
1.0
1000
ANSI37
1070
     0
1070
     1
1071
        2
1071
        7
1070
     0
1070
     1
1071
       17
1040
13.26299999998673
1040
-0.0001000000000317
1040
9.236999999990758
1040
8.999899999990987
1040
9.236999999990758
1040
8.999999999991019
1040
5.657999999994331
1040
0.9999999999989768
1040
3.181999999996833
1040
4.668599999995308
1040
6.432999999993513
1040
8.763099999991255
1040
4.617999999995391
1040
8.763099999991255
1040
1.420999999998571
1040
4.736799999995242
1040
4.617999999995391
1040
-0.0001000000000317
1040
4.617999999995391
1040
0.0
1040
6.766999999993232
1040
0.0
1040
6.766999999993232
1040
-0.0001000000000317
1040
7.826999999992154
1040
2.368399999997621
1040
10.64699999998936
1040
2.368399999997621
1040
11.70599999998831
1040
-0.0001000000000317
1040
11.70599999998831
1040
0.0
1040
13.26299999998673
1040
0.0
1071
       12
1005
A335
1005
A336
1005
A33D
1005
A34C
1005
A34F
1005
A34D
1005
A33E
1005
A343
1005
A341
1005
A345
1005
A344
1005
A346
1071
       22
1070
     0
1070
     1
1071
        3
1040
9.236999999990758
1040
5.5200999999945
1040
10.06399999998996
1040
3.670999999996297
1040
8.409999999991555
1040
3.670999999996297
1071
        3
1005
A351
1005
A353
1005
A352
1070
     0
1070
     1
1040
0.0
1040
0.15
1070
     0
1070
     2
1040
0.7853981633974483
1040
49.29960901727088
1040
-10.17736998311392
1040
-0.3367596045400932
1040
0.3367596045400932
1070
     0
1040
2.356194490192345
1040
49.29960901727088
1040
-10.17736998311392
1040
-0.3367596045400932
1040
-0.3367596045400932
1070
     0
1040
0.0110235143455945
1071
        2
1040
3.614004224891801
1040
2.996669441146025
1040
0.0
1040
3.614004224891801
1040
2.996669441146025
1040
0.0
1002
}
  0
INSERT
  5
A377
330
A333
100
AcDbEntity
  8
0
100
AcDbBlockReference
  2
*X22
 10
0.0
 20
0.0
 30
0.0
1001
ACAD
1000
HATCH
1002
{
1070
    19
1000
ANSI37
1040
0.15
1040
0.0
1000
ASC_BOUNDS
1070
     1
1070
     2
1070
    10
1005
A337
1005
A338
1005
A359
1005
A357
1005
A358
1005
A34B
1005
A350
1005
A354
1005
A33A
1005
A339
1000
ASC_SEEDPOINT
1011
14.73245321214324
1021
2.798246178283421
1031
0.0
1000
R14_HATCH_DATA
1000
A377
1011
1.0
1021
0.0
1031
0.0
1011
0.0
1021
1.0
1031
0.0
1011
0.0
1021
0.0
1031
1.0
1040
0.0
1010
0.0
1020
0.0
1030
1.0
1000
ANSI37
1070
     0
1070
     1
1071
        1
1071
        7
1070
     0
1070
     1
1071
       10
1040
16.46099999998353
1040
5.432899999994561
1040
18.59199999998134
1040
-0.2368999999997641
1040
22.38199999997767
1040
8.763099999991255
1040
20.89099999997916
1040
8.763099999991255
1040
18.59799999998143
1040
3.315799999996671
1040
16.46099999998353
1040
8.999899999990987
1040
14.32399999998563
1040
3.315799999996671
1040
12.02999999998792
1040
8.763099999991255
1040
10.53899999998941
1040
8.763099999991255
1040
14.32899999998563
1040
-0.2368999999997641
1071
       10
1005
A337
1005
A338
1005
A359
1005
A357
1005
A358
1005
A34B
1005
A350
1005
A354
1005
A33A
1005
A339
1070
     0
1070
     1
1040
0.0
1040
0.15
1070
     0
1070
     2
1040
0.7853981633974483
1040
49.29960901727088
1040
-10.17736998311392
1040
-0.3367596045400932
1040
0.3367596045400932
1070
     0
1040
2.356194490192345
1040
49.29960901727088
1040
-10.17736998311392
1040
-0.3367596045400932
1040
-0.3367596045400932
1070
     0
1040
0.0110235143455945
1071
        1
1040
14.73245321214324
1040
2.798246178283421
1040
0.0
1002
}
  0
INSERT
  5
A378
330
A333
100
AcDbEntity
  8
0
100
AcDbBlockReference
  2
*X23
 10
0.0
 20
0.0
 30
0.0
1001
ACAD
1000
HATCH
1002
{
1070
    19
1000
ANSI37
1040
0.15
1040
0.0
1000
ASC_BOUNDS
1070
     2
1070
     2
1070
    13
1005
A33B
1005
A348
1005
A349
1005
A347
1005
A34A
1005
A371
1005
A375
1005
A370
1005
A36F
1005
A372
1005
A374
1005
A373
1005
A33C
1070
     2
1070
     3
1005
A355
1005
A35A
1005
A356
1000
ASC_SEEDPOINT
1011
21.97929957367762
1021
3.294304244259308
1031
0.0
1000
R14_HATCH_DATA
1000
A378
1011
1.0
1021
0.0
1031
0.0
1011
0.0
1021
1.0
1031
0.0
1011
0.0
1021
0.0
1031
1.0
1040
0.0
1010
0.0
1020
0.0
1030
1.0
1000
ANSI37
1070
     0
1070
     1
1071
        2
1071
        7
1070
     1
1070
     1
1071
       15
1040
23.56599999997638
1040
8.999899999990987
1040
0.0
1040
19.53899999998043
1040
-0.0001000000000317
1040
0.0
1040
19.53899999998043
1040
0.0
1040
0.0
1040
21.09599999997886
1040
0.0
1040
0.0
1040
21.09599999997886
1040
-0.0001000000000317
1040
0.0
1040
22.15599999997789
1040
2.368399999997621
1040
0.0
1040
24.97599999997499
1040
2.368399999997621
1040
0.0
1040
26.02015566812236
1040
0.0330999999912365
1040
0.0
1040
28.40199999996923
1040
0.0330999999912365
1040
0.414213562373095
1040
30.74199999996923
1040
2.373099999991211
1040
0.0
1040
30.74199999996927
1040
8.763099999991255
1040
0.0
1040
29.30199999996933
1040
8.763099999991255
1040
0.0
1040
29.30199999996933
1040
2.283099999991236
1040
-0.414213562373095
1040
28.40199999996923
1040
1.383099999991237
1040
0.0
1040
26.97358892824991
1040
1.383099999991202
1040
0.0
1071
       13
1005
A33B
1005
A348
1005
A349
1005
A347
1005
A34A
1005
A371
1005
A375
1005
A370
1005
A36F
1005
A372
1005
A374
1005
A373
1005
A33C
1071
       22
1070
     0
1070
     1
1071
        3
1040
22.7389999999773
1040
3.670999999996297
1040
23.56599999997638
1040
5.5200999999945
1040
24.39299999997559
1040
3.670999999996297
1071
        3
1005
A355
1005
A35A
1005
A356
1070
     0
1070
     1
1040
0.0
1040
0.15
1070
     0
1070
     2
1040
0.7853981633974483
1040
49.29960901727088
1040
-10.17736998311392
1040
-0.3367596045400932
1040
0.3367596045400932
1070
     0
1040
2.356194490192345
1040
49.29960901727088
1040
-10.17736998311392
1040
-0.3367596045400932
1040
-0.3367596045400932
1070
     0
1040
0.0110235143455945
1071
        2
1040
21.97929957367762
1040
3.294304244259308
1040
0.0
1040
21.97929957367762
1040
3.294304244259308
1040
0.0
1002
}
  0
INSERT
  5
A379
330
A333
100
AcDbEntity
  8
0
100
AcDbBlockReference
  2
*X24
 10
0.0
 20
0.0
 30
0.0
1001
ACAD
1000
HATCH
1002
{
1070
    19
1000
ANSI37
1040
0.15
1040
0.0
1000
R14_HATCH_DATA
1000
A379
1011
1.0
1021
0.0
1031
0.0
1011
0.0
1021
1.0
1031
0.0
1011
0.0
1021
0.0
1031
1.0
1040
0.0
1010
0.0
1020
0.0
1030
1.0
1000
ANSI37
1070
     0
1070
     1
1071
        1
1071
        7
1070
     1
1070
     1
1071
       12
1040
31.64199999996833
1040
2.481619422925121
1040
0.2679491924310942
1040
32.94699999997067
1040
0.2212931190493919
1040
0.2679491924301353
1040
36.36699999995983
1040
0.2212931190459813
1040
0.2679491924321411
1040
37.67199999996831
1040
2.481619422928361
1040
0.0
1040
37.67199999996831
1040
8.763099999991255
1040
0.0
1040
36.23199999996837
1040
8.763099999991255
1040
0.0
1040
36.23199999996837
1040
2.481619422925064
1040
-0.2679491924310291
1040
35.64699999996708
1040
1.468369700498386
1040
-0.267949192430519
1040
33.66699999997093
1040
1.468369700497703
1040
-0.267949192431809
1040
33.08199999996839
1040
2.481619422926997
1040
0.0
1040
33.08199999996839
1040
8.763099999991255
1040
0.0
1040
31.64199999996833
1040
8.763099999991255
1040
0.0
1071
        0
1070
     0
1070
     1
1040
0.0
1040
0.15
1070
     0
1070
     2
1040
0.7853981633974483
1040
49.29960901727088
1040
-10.17736998311392
1040
-0.3367596045400932
1040
0.3367596045400932
1070
     0
1040
2.356194490192345
1040
49.29960901727088
1040
-10.17736998311392
1040
-0.3367596045400932
1040
-0.3367596045400932
1070
     0
1040
0.0110235143455945
1071
        1
1040
32.30357378967278
1040
3.988785755459219
1040
0.0
1002
}
  0
INSERT
  5
A37A
330
A333
100
AcDbEntity
  8
0
100
AcDbBlockReference
  2
*X25
 10
0.0
 20
0.0
 30
0.0
1001
ACAD
1000
HATCH
1002
{
1070
    19
1000
ANSI37
1040
0.15
1040
0.0
1000
ASC_BOUNDS
1070
     1
1070
     2
1070
     8
1005
A35B
1005
A35E
1005
A362
1005
A361
1005
A360
1005
A35D
1005
A35F
1005
A35C
1000
ASC_SEEDPOINT
1011
39.74896370716704
1021
4.484843821435049
1031
0.0
1000
R14_HATCH_DATA
1000
A37A
1011
1.0
1021
0.0
1031
0.0
1011
0.0
1021
1.0
1031
0.0
1011
0.0
1021
0.0
1031
1.0
1040
0.0
1010
0.0
1020
0.0
1030
1.0
1000
ANSI37
1070
     0
1070
     1
1071
        1
1071
        7
1070
     0
1070
     1
1071
        9
1040
40.02599999995994
1040
5.341799999994635
1040
44.99999999995498
1040
-0.2368999999997641
1040
44.99999999995498
1040
8.763099999991255
1040
43.57899999995641
1040
8.763099999991255
1040
43.57899999995641
1040
3.421199999996588
1040
38.60499999996136
1040
8.999899999990987
1040
38.60499999996136
1040
8.999999999991019
1040
38.60499999996136
1040
0.0
1040
40.02599999995994
1040
0.0
1071
        8
1005
A35B
1005
A35E
1005
A362
1005
A361
1005
A360
1005
A35D
1005
A35F
1005
A35C
1070
     0
1070
     1
1040
0.0
1040
0.15
1070
     0
1070
     2
1040
0.7853981633974483
1040
49.29960901727088
1040
-10.17736998311392
1040
-0.3367596045400932
1040
0.3367596045400932
1070
     0
1040
2.356194490192345
1040
49.29960901727088
1040
-10.17736998311392
1040
-0.3367596045400932
1040
-0.3367596045400932
1070
     0
1040
0.0110235143455945
1071
        1
1040
39.74896370716704
1040
4.484843821435049
1040
0.0
1002
}
  0
INSERT
  5
A37B
330
A333
100
AcDbEntity
  8
0
100
AcDbBlockReference
  2
*X26
 10
0.0
 20
0.0
 30
0.0
1001
ACAD
1000
HATCH
1002
{
1070
    19
1000
ANSI37
1040
0.15
1040
0.0
1000
ASC_BOUNDS
1070
     1
1070
     2
1070
     4
1005
A33F
1005
A34E
1005
A340
1005
A342
1000
ASC_SEEDPOINT
1011
1.079051535452663
1021
4.148538732891836
1031
0.0
1000
R14_HATCH_DATA
1000
A37B
1011
1.0
1021
0.0
1031
0.0
1011
0.0
1021
1.0
1031
0.0
1011
0.0
1021
0.0
1031
1.0
1040
0.0
1010
0.0
1020
0.0
1030
1.0
1000
ANSI37
1070
     0
1070
     1
1071
        1
1071
        7
1070
     0
1070
     1
1071
        4
1040
1.420999999998571
1040
0.0
1040
1.420999999998571
1040
8.763099999991255
1040
0.0
1040
8.763099999991255
1040
0.0
1040
0.0
1071
        4
1005
A33F
1005
A34E
1005
A340
1005
A342
1070
     0
1070
     1
1040
0.0
1040
0.15
1070
     0
1070
     2
1040
0.7853981633974483
1040
49.29960901727088
1040
-10.17736998311392
1040
-0.3367596045400932
1040
0.3367596045400932
1070
     0
1040
2.356194490192345
1040
49.29960901727088
1040
-10.17736998311392
1040
-0.3367596045400932
1040
-0.3367596045400932
1070
     0
1040
0.0053004257112761
1071
        1
1040
1.079051535452663
1040
4.148538732891836
1040
0.0
1002
}
  0
ENDBLK
  5
AA57
330
A333
100
AcDbEntity
  8
0
100
AcDbBlockEnd
  0
BLOCK
  5
E56B
330
E3DD
100
AcDbEntity
  8
0
100
AcDbBlockBegin
  2
*X21
 70
     1
 10
0.0
 20
0.0
 30
0.0
  3
*X21
  1

  0
LINE
  5
E3DE
330
E3DD
100
AcDbEntity
  8
0
  6
CONTINUOUS
100
AcDbLine
 10
3.418023043697893
 20
7.251849696850613
 30
0.0
 11
4.929273346838536
 21
8.763099999991255
 31
0.0
  0
LINE
  5
E3DF
330
E3DD
100
AcDbEntity
  8
0
  6
CONTINUOUS
100
AcDbLine
 10
1.483656411257782
 20
4.643963855330318
 30
0.0
 11
5.60279255591872
 21
8.763099999991255
 31
0.0
  0
LINE
  5
E3E0
330
E3DD
100
AcDbEntity
  8
0
  6
CONTINUOUS
100
AcDbLine
 10
1.755053947328235
 20
4.241842182320584
 30
0.0
 11
6.276311764998907
 21
8.763099999991255
 31
0.0
  0
LINE
  5
E3E1
330
E3DD
100
AcDbEntity
  8
0
  6
CONTINUOUS
100
AcDbLine
 10
2.026451483398688
 20
3.839720509310849
 30
0.0
 11
4.441040904851878
 21
6.254309930764039
 31
0.0
  0
LINE
  5
E3E2
330
E3DD
100
AcDbEntity
  8
0
  6
CONTINUOUS
100
AcDbLine
 10
2.297849019469139
 20
3.437598836301114
 30
0.0
 11
3.321765168359338
 21
4.461514985191313
 31
0.0
  0
LINE
  5
E3E3
330
E3DD
100
AcDbEntity
  8
0
  6
CONTINUOUS
100
AcDbLine
 10
2.569246555539591
 20
3.03547716329138
 30
0.0
 11
3.593163397972743
 21
4.059394005724531
 31
0.0
  0
LINE
  5
E3E4
330
E3DD
100
AcDbEntity
  8
0
  6
CONTINUOUS
100
AcDbLine
 10
2.840644091610043
 20
2.633355490281646
 30
0.0
 11
3.864561627586149
 21
3.657273026257751
 31
0.0
  0
LINE
  5
E3E5
330
E3DD
100
AcDbEntity
  8
0
  6
CONTINUOUS
100
AcDbLine
 10
3.112041627680496
 20
2.231233817271911
 30
0.0
 11
4.135959857199554
 21
3.25515204679097
 31
0.0
  0
LINE
  5
E3E6
330
E3DD
100
AcDbEntity
  8
0
  6
CONTINUOUS
100
AcDbLine
 10
3.383439163750948
 20
1.829112144262177
 30
0.0
 11
4.40735808681296
 21
2.853031067324189
 31
0.0
  0
LINE
  5
E3E7
330
E3DD
100
AcDbEntity
  8
0
  6
CONTINUOUS
100
AcDbLine
 10
3.654836699821399
 20
1.426990471252442
 30
0.0
 11
4.678756316426365
 21
2.450910087857407
 31
0.0
  0
LINE
  5
E3E8
330
E3DD
100
AcDbEntity
  8
0
  6
CONTINUOUS
100
AcDbLine
 10
3.926234235891853
 20
1.024868798242709
 30
0.0
 11
4.95015454603977
 21
2.048789108390626
 31
0.0
  0
LINE
  5
E3E9
330
E3DD
100
AcDbEntity
  8
0
  6
CONTINUOUS
100
AcDbLine
 10
4.197631771962304
 20
0.6227471252329737
 30
0.0
 11
5.221552775653176
 21
1.646668128923846
 31
0.0
  0
LINE
  5
E3EA
330
E3DD
100
AcDbEntity
  8
0
  6
CONTINUOUS
100
AcDbLine
 10
8.715877546767851
 20
7.835069736359266
 30
0.0
 11
9.435953450375058
 21
8.555145639966472
 31
0.0
  0
LINE
  5
E3EB
330
E3DD
100
AcDbEntity
  8
0
  6
CONTINUOUS
100
AcDbLine
 10
8.170620868422267
 20
6.616293848933497
 30
0.0
 11
9.644120833743461
 21
8.08979381425469
 31
0.0
  0
LINE
  5
E3EC
330
E3DD
100
AcDbEntity
  8
0
  6
CONTINUOUS
100
AcDbLine
 10
7.625364190076684
 20
5.397517961507727
 30
0.0
 11
9.852288217111864
 21
7.624441988542907
 31
0.0
  0
LINE
  5
E3ED
330
E3DD
100
AcDbEntity
  8
0
  6
CONTINUOUS
100
AcDbLine
 10
7.080107511731101
 20
4.178742074081957
 30
0.0
 11
10.06045560048027
 21
7.159090162831124
 31
0.0
  0
LINE
  5
E3EE
330
E3DD
100
AcDbEntity
  8
0
  6
CONTINUOUS
100
AcDbLine
 10
6.534850833385518
 20
2.959966186656187
 30
0.0
 11
10.26862298384867
 21
6.693738337119342
 31
0.0
  0
LINE
  5
E3EF
330
E3DD
100
AcDbEntity
  8
0
  6
CONTINUOUS
100
AcDbLine
 10
4.469029308032756
 20
0.2206254522232385
 30
0.0
 11
5.492951005266582
 21
1.244547149457064
 31
0.0
  0
LINE
  5
E3F0
330
E3DD
100
AcDbEntity
  8
0
  6
CONTINUOUS
100
AcDbLine
 10
5.989594155039935
 20
1.741190299230417
 30
0.0
 11
8.806950407233131
 21
4.558546551423613
 31
0.0
  0
LINE
  5
E3F1
330
E3DD
100
AcDbEntity
  8
0
  6
CONTINUOUS
100
AcDbLine
 10
9.401251593263643
 20
5.152847737454126
 30
0.0
 11
10.47679036721708
 21
6.228386511407559
 31
0.0
  0
LINE
  5
E3F2
330
E3DD
100
AcDbEntity
  8
0
  6
CONTINUOUS
100
AcDbLine
 10
4.921837203428691
 20
-0.0000858614610131
 30
0.0
 11
8.592923064886001
 21
3.670999999996297
 31
0.0
  0
LINE
  5
E3F3
330
E3DD
100
AcDbEntity
  8
0
  6
CONTINUOUS
100
AcDbLine
 10
9.609390446785305
 20
4.6874673818956
 30
0.0
 11
10.68495775058548
 21
5.763034685695775
 31
0.0
  0
LINE
  5
E3F4
330
E3DD
100
AcDbEntity
  8
0
  6
CONTINUOUS
100
AcDbLine
 10
5.595387755019432
 20
-0.0000545189504582
 30
0.0
 11
7.716137258923768
 21
2.120694984953879
 31
0.0
  0
LINE
  5
E3F5
330
E3DD
100
AcDbEntity
  8
0
  6
CONTINUOUS
100
AcDbLine
 10
6.268938306610172
 20
-0.000023176439905
 30
0.0
 11
7.170485805526503
 21
0.9015243224764267
 31
0.0
  0
LINE
  5
E3F6
330
E3DD
100
AcDbEntity
  8
0
  6
CONTINUOUS
100
AcDbLine
 10
7.963842273967511
 20
2.368399999997621
 30
0.0
 11
9.266442273966188
 21
3.670999999996297
 31
0.0
  0
LINE
  5
E3F7
330
E3DD
100
AcDbEntity
  8
0
  6
CONTINUOUS
100
AcDbLine
 10
8.637361483047696
 20
2.368399999997621
 30
0.0
 11
9.939961483046375
 21
3.670999999996297
 31
0.0
  0
LINE
  5
E3F8
330
E3DD
100
AcDbEntity
  8
0
  6
CONTINUOUS
100
AcDbLine
 10
9.817529300306965
 20
4.222087026337075
 30
0.0
 11
10.89312513395388
 21
5.297682859983993
 31
0.0
  0
LINE
  5
E3F9
330
E3DD
100
AcDbEntity
  8
0
  6
CONTINUOUS
100
AcDbLine
 10
10.02566815382863
 20
3.756706670778549
 30
0.0
 11
11.10129251732229
 21
4.832331034272211
 31
0.0
  0
LINE
  5
E3FA
330
E3DD
100
AcDbEntity
  8
0
  6
CONTINUOUS
100
AcDbLine
 10
9.310880692127883
 20
2.368399999997621
 30
0.0
 11
11.30945990069069
 21
4.366979208560428
 31
0.0
  0
LINE
  5
E3FB
330
E3DD
100
AcDbEntity
  8
0
  6
CONTINUOUS
100
AcDbLine
 10
9.98439990120807
 20
2.36839999999762
 30
0.0
 11
11.5176272840591
 21
3.901627382848645
 31
0.0
  0
LINE
  5
E3FC
330
E3DD
100
AcDbEntity
  8
0
  6
CONTINUOUS
100
AcDbLine
 10
10.65037369446246
 20
2.36085458417182
 30
0.0
 11
11.7257946674275
 21
3.436275557136862
 31
0.0
  0
LINE
  5
E3FD
330
E3DD
100
AcDbEntity
  8
0
  6
CONTINUOUS
100
AcDbLine
 10
10.85847197087848
 20
1.895433651507656
 30
0.0
 11
11.9339620507959
 21
2.97092373142508
 31
0.0
  0
LINE
  5
E3FE
330
E3DD
100
AcDbEntity
  8
0
  6
CONTINUOUS
100
AcDbLine
 10
11.0665702472945
 20
1.430012718843491
 30
0.0
 11
12.14212943416431
 21
2.505571905713296
 31
0.0
  0
LINE
  5
E3FF
330
E3DD
100
AcDbEntity
  8
0
  6
CONTINUOUS
100
AcDbLine
 10
11.27466852371052
 20
0.9645917861793256
 30
0.0
 11
12.35029681753271
 21
2.040220080001513
 31
0.0
  0
LINE
  5
E400
330
E3DD
100
AcDbEntity
  8
0
  6
CONTINUOUS
100
AcDbLine
 10
11.48276680012654
 20
0.4991708535151611
 30
0.0
 11
12.55846420090111
 21
1.57486825428973
 31
0.0
  0
LINE
  5
E401
330
E3DD
100
AcDbEntity
  8
0
  6
CONTINUOUS
100
AcDbLine
 10
11.69086507654257
 20
0.0337499208509957
 30
0.0
 11
12.76663158426952
 21
1.109516428577947
 31
0.0
  0
LINE
  5
E402
330
E3DD
100
AcDbEntity
  8
0
  6
CONTINUOUS
100
AcDbLine
 10
12.33057447873954
 20
-0.0000598860322123
 30
0.0
 11
12.97479896763792
 21
0.6441646028661663
 31
0.0
  0
LINE
  5
E403
330
E3DD
100
AcDbEntity
  8
0
  6
CONTINUOUS
100
AcDbLine
 10
13.00413694809395
 20
-0.0000166257579952
 30
0.0
 11
13.18296635100632
 21
0.1788127771543824
 31
0.0
  0
LINE
  5
E404
330
E3DD
100
AcDbEntity
  8
0
  6
CONTINUOUS
100
AcDbLine
 10
4.772852165289667
 20
-0.000092794222212
 30
0.0
 11
4.296495091028902
 21
0.4762642800385528
 31
0.0
  0
LINE
  5
E405
330
E3DD
100
AcDbEntity
  8
0
  6
CONTINUOUS
100
AcDbLine
 10
5.446340034776103
 20
-0.0000614546284616
 30
0.0
 11
2.898195908335625
 21
2.548082671812017
 31
0.0
  0
LINE
  5
E406
330
E3DD
100
AcDbEntity
  8
0
  6
CONTINUOUS
100
AcDbLine
 10
6.119827904262539
 20
-0.0000301150347113
 30
0.0
 11
1.499896725642348
 21
4.61990106358548
 31
0.0
  0
LINE
  5
E407
330
E3DD
100
AcDbEntity
  8
0
  6
CONTINUOUS
100
AcDbLine
 10
6.775136745476159
 20
0.0181802528318542
 30
0.0
 11
5.699826040202669
 21
1.093490958105344
 31
0.0
  0
LINE
  5
E408
330
E3DD
100
AcDbEntity
  8
0
  6
CONTINUOUS
100
AcDbLine
 10
6.983376846288489
 20
0.4834593610997118
 30
0.0
 11
5.908008617934405
 21
1.558827589453796
 31
0.0
  0
LINE
  5
E409
330
E3DD
100
AcDbEntity
  8
0
  6
CONTINUOUS
100
AcDbLine
 10
5.377063484962296
 20
1.416253513345719
 30
0.0
 11
1.702276957014131
 21
5.091040041293883
 31
0.0
  0
LINE
  5
E40A
330
E3DD
100
AcDbEntity
  8
0
  6
CONTINUOUS
100
AcDbLine
 10
3.978745891735324
 20
3.488090315652877
 30
0.0
 11
2.000373521109399
 21
5.466462686278803
 31
0.0
  0
LINE
  5
E40B
330
E3DD
100
AcDbEntity
  8
0
  6
CONTINUOUS
100
AcDbLine
 10
7.191616947100819
 20
0.948738469367568
 30
0.0
 11
6.11619119566614
 21
2.024164220802247
 31
0.0
  0
LINE
  5
E40C
330
E3DD
100
AcDbEntity
  8
0
  6
CONTINUOUS
100
AcDbLine
 10
7.399857047913149
 20
1.414017577635424
 30
0.0
 11
6.324373773397875
 21
2.489500852150698
 31
0.0
  0
LINE
  5
E40D
330
E3DD
100
AcDbEntity
  8
0
  6
CONTINUOUS
100
AcDbLine
 10
7.608097148725479
 20
1.879296685903281
 30
0.0
 11
6.53255635112961
 21
2.95483748349915
 31
0.0
  0
LINE
  5
E40E
330
E3DD
100
AcDbEntity
  8
0
  6
CONTINUOUS
100
AcDbLine
 10
7.816337249537808
 20
2.344575794171138
 30
0.0
 11
6.740738928861345
 21
3.420174114847601
 31
0.0
  0
LINE
  5
E40F
330
E3DD
100
AcDbEntity
  8
0
  6
CONTINUOUS
100
AcDbLine
 10
3.310241080789734
 20
4.830114335678653
 30
0.0
 11
2.298470085204666
 21
5.84188533126372
 31
0.0
  0
LINE
  5
E410
330
E3DD
100
AcDbEntity
  8
0
  6
CONTINUOUS
100
AcDbLine
 10
3.60832983563551
 20
5.205544789913063
 30
0.0
 11
2.596566649299935
 21
6.217307976248638
 31
0.0
  0
LINE
  5
E411
330
E3DD
100
AcDbEntity
  8
0
  6
CONTINUOUS
100
AcDbLine
 10
3.906418590481286
 20
5.580975244147473
 30
0.0
 11
2.894663213395203
 21
6.592730621233557
 31
0.0
  0
LINE
  5
E412
330
E3DD
100
AcDbEntity
  8
0
  6
CONTINUOUS
100
AcDbLine
 10
4.204507345327062
 20
5.956405698381884
 30
0.0
 11
3.192759777490472
 21
6.968153266218474
 31
0.0
  0
LINE
  5
E413
330
E3DD
100
AcDbEntity
  8
0
  6
CONTINUOUS
100
AcDbLine
 10
8.466032252791512
 20
2.368399999997621
 30
0.0
 11
6.948921506593081
 21
3.885510746196053
 31
0.0
  0
LINE
  5
E414
330
E3DD
100
AcDbEntity
  8
0
  6
CONTINUOUS
100
AcDbLine
 10
9.139551461871699
 20
2.36839999999762
 30
0.0
 11
7.157104084324816
 21
4.350847377544504
 31
0.0
  0
LINE
  5
E415
330
E3DD
100
AcDbEntity
  8
0
  6
CONTINUOUS
100
AcDbLine
 10
4.502596100172839
 20
6.331836152616295
 30
0.0
 11
3.49085634158574
 21
7.343575911203393
 31
0.0
  0
LINE
  5
E416
330
E3DD
100
AcDbEntity
  8
0
  6
CONTINUOUS
100
AcDbLine
 10
4.800684855018615
 20
6.707266606850705
 30
0.0
 11
3.788952905681008
 21
7.718998556188312
 31
0.0
  0
LINE
  5
E417
330
E3DD
100
AcDbEntity
  8
0
  6
CONTINUOUS
100
AcDbLine
 10
12.18154012887317
 20
-0.0000694579236642
 30
0.0
 11
11.32140332908496
 21
0.8600673418645499
 31
0.0
  0
LINE
  5
E418
330
E3DD
100
AcDbEntity
  8
0
  6
CONTINUOUS
100
AcDbLine
 10
12.85501608323566
 20
-0.0000262032059659
 30
0.0
 11
10.77672456435345
 21
2.078265315676246
 31
0.0
  0
LINE
  5
E419
330
E3DD
100
AcDbEntity
  8
0
  6
CONTINUOUS
100
AcDbLine
 10
9.813070670951886
 20
2.36839999999762
 30
0.0
 11
8.51047067095321
 21
3.670999999996297
 31
0.0
  0
LINE
  5
E41A
330
E3DD
100
AcDbEntity
  8
0
  6
CONTINUOUS
100
AcDbLine
 10
10.48658988003207
 20
2.36839999999762
 30
0.0
 11
9.183989880033396
 21
3.670999999996297
 31
0.0
  0
LINE
  5
E41B
330
E3DD
100
AcDbEntity
  8
0
  6
CONTINUOUS
100
AcDbLine
 10
8.441048632286794
 20
3.740422038662712
 30
0.0
 11
7.365286662056551
 21
4.816184008892956
 31
0.0
  0
LINE
  5
E41C
330
E3DD
100
AcDbEntity
  8
0
  6
CONTINUOUS
100
AcDbLine
 10
8.649187485808454
 20
4.205802394221237
 30
0.0
 11
7.573469239788285
 21
5.281520640241407
 31
0.0
  0
LINE
  5
E41D
330
E3DD
100
AcDbEntity
  8
0
  6
CONTINUOUS
100
AcDbLine
 10
5.098773609864391
 20
7.082697061085115
 30
0.0
 11
4.087049469776277
 21
8.09442120117323
 31
0.0
  0
LINE
  5
E41E
330
E3DD
100
AcDbEntity
  8
0
  6
CONTINUOUS
100
AcDbLine
 10
5.396862364710167
 20
7.458127515319526
 30
0.0
 11
4.385146033871544
 21
8.469843846158149
 31
0.0
  0
LINE
  5
E41F
330
E3DD
100
AcDbEntity
  8
0
  6
CONTINUOUS
100
AcDbLine
 10
13.04801363231285
 20
0.4804954567970334
 30
0.0
 11
9.85750908911358
 21
3.670999999996297
 31
0.0
  0
LINE
  5
E420
330
E3DD
100
AcDbEntity
  8
0
  6
CONTINUOUS
100
AcDbLine
 10
8.857326339330116
 20
4.671182749779763
 30
0.0
 11
7.781651817520021
 21
5.746857271589858
 31
0.0
  0
LINE
  5
E421
330
E3DD
100
AcDbEntity
  8
0
  6
CONTINUOUS
100
AcDbLine
 10
5.694951119555943
 20
7.833557969553937
 30
0.0
 11
4.765409089118624
 21
8.763099999991255
 31
0.0
  0
LINE
  5
E422
330
E3DD
100
AcDbEntity
  8
0
  6
CONTINUOUS
100
AcDbLine
 10
12.50286117236978
 20
1.699167125820288
 30
0.0
 11
9.68611877250287
 21
4.515909525687196
 31
0.0
  0
LINE
  5
E423
330
E3DD
100
AcDbEntity
  8
0
  6
CONTINUOUS
100
AcDbLine
 10
9.065465192851777
 20
5.136563105338288
 30
0.0
 11
7.989834395251757
 21
6.21219390293831
 31
0.0
  0
LINE
  5
E424
330
E3DD
100
AcDbEntity
  8
0
  6
CONTINUOUS
100
AcDbLine
 10
5.993039874401719
 20
8.208988423788346
 30
0.0
 11
5.43892829819881
 21
8.763099999991255
 31
0.0
  0
LINE
  5
E425
330
E3DD
100
AcDbEntity
  8
0
  6
CONTINUOUS
100
AcDbLine
 10
11.95770871242671
 20
2.917838794843543
 30
0.0
 11
8.19801697298349
 21
6.677530534286761
 31
0.0
  0
LINE
  5
E426
330
E3DD
100
AcDbEntity
  8
0
  6
CONTINUOUS
100
AcDbLine
 10
6.291128629247495
 20
8.584418878022756
 30
0.0
 11
6.112447507278997
 21
8.763099999991255
 31
0.0
  0
LINE
  5
E427
330
E3DD
100
AcDbEntity
  8
0
  6
CONTINUOUS
100
AcDbLine
 10
11.41255625248364
 20
4.136510463866797
 30
0.0
 11
8.406199550715227
 21
7.142867165635211
 31
0.0
  0
LINE
  5
E428
330
E3DD
100
AcDbEntity
  8
0
  6
CONTINUOUS
100
AcDbLine
 10
10.86740379254057
 20
5.355182132890051
 30
0.0
 11
8.614382128446962
 21
7.608203796983664
 31
0.0
  0
LINE
  5
E429
330
E3DD
100
AcDbEntity
  8
0
  6
CONTINUOUS
100
AcDbLine
 10
10.3222513325975
 20
6.573853801913305
 30
0.0
 11
8.822564706178696
 21
8.073540428332114
 31
0.0
  0
LINE
  5
E42A
330
E3DD
100
AcDbEntity
  8
0
  6
CONTINUOUS
100
AcDbLine
 10
9.777098872654436
 20
7.792525470936562
 30
0.0
 11
9.030747283910433
 21
8.538877059680566
 31
0.0
  0
ENDBLK
  5
E56C
330
E3DD
100
AcDbEntity
  8
0
100
AcDbBlockEnd
  0
BLOCK
  5
E56D
330
E42B
100
AcDbEntity
  8
0
100
AcDbBlockBegin
  2
*X22
 70
     1
 10
0.0
 20
0.0
 30
0.0
  3
*X22
  1

  0
LINE
  5
E42C
330
E42B
100
AcDbEntity
  8
0
  6
CONTINUOUS
100
AcDbLine
 10
10.67292308101235
 20
8.445076852443387
 30
0.0
 11
10.99094622856022
 21
8.763099999991255
 31
0.0
  0
LINE
  5
E42D
330
E42B
100
AcDbEntity
  8
0
  6
CONTINUOUS
100
AcDbLine
 10
10.87250383178748
 20
7.971138394138331
 30
0.0
 11
11.6644654376404
 21
8.763099999991255
 31
0.0
  0
LINE
  5
E42E
330
E42B
100
AcDbEntity
  8
0
  6
CONTINUOUS
100
AcDbLine
 10
11.07208458256261
 20
7.497199935833273
 30
0.0
 11
12.12126590876355
 21
8.546381262034211
 31
0.0
  0
LINE
  5
E42F
330
E42B
100
AcDbEntity
  8
0
  6
CONTINUOUS
100
AcDbLine
 10
11.27166533333774
 20
7.023261477528216
 30
0.0
 11
12.32085164573666
 21
8.072447789927136
 31
0.0
  0
LINE
  5
E430
330
E42B
100
AcDbEntity
  8
0
  6
CONTINUOUS
100
AcDbLine
 10
11.47124608411287
 20
6.549323019223158
 30
0.0
 11
12.52043738270977
 21
7.59851431782006
 31
0.0
  0
LINE
  5
E431
330
E42B
100
AcDbEntity
  8
0
  6
CONTINUOUS
100
AcDbLine
 10
11.670826834888
 20
6.075384560918101
 30
0.0
 11
12.72002311968288
 21
7.124580845712984
 31
0.0
  0
LINE
  5
E432
330
E42B
100
AcDbEntity
  8
0
  6
CONTINUOUS
100
AcDbLine
 10
11.87040758566313
 20
5.601446102613043
 30
0.0
 11
12.91960885665599
 21
6.650647373605907
 31
0.0
  0
LINE
  5
E433
330
E42B
100
AcDbEntity
  8
0
  6
CONTINUOUS
100
AcDbLine
 10
12.06998833643825
 20
5.127507644307986
 30
0.0
 11
13.1191945936291
 21
6.176713901498832
 31
0.0
  0
LINE
  5
E434
330
E42B
100
AcDbEntity
  8
0
  6
CONTINUOUS
100
AcDbLine
 10
12.26956908721338
 20
4.65356918600293
 30
0.0
 11
13.31878033060221
 21
5.702780429391757
 31
0.0
  0
LINE
  5
E435
330
E42B
100
AcDbEntity
  8
0
  6
CONTINUOUS
100
AcDbLine
 10
12.46914983798851
 20
4.179630727697873
 30
0.0
 11
13.51836606757532
 21
5.228846957284683
 31
0.0
  0
LINE
  5
E436
330
E42B
100
AcDbEntity
  8
0
  6
CONTINUOUS
100
AcDbLine
 10
12.66873058876364
 20
3.705692269392816
 30
0.0
 11
13.71795180454843
 21
4.754913485177607
 31
0.0
  0
LINE
  5
E437
330
E42B
100
AcDbEntity
  8
0
  6
CONTINUOUS
100
AcDbLine
 10
12.86831133953877
 20
3.231753811087759
 30
0.0
 11
13.91753754152154
 21
4.280980013070531
 31
0.0
  0
LINE
  5
E438
330
E42B
100
AcDbEntity
  8
0
  6
CONTINUOUS
100
AcDbLine
 10
13.0678920903139
 20
2.757815352782702
 30
0.0
 11
14.11712327849465
 21
3.807046540963456
 31
0.0
  0
LINE
  5
E439
330
E42B
100
AcDbEntity
  8
0
  6
CONTINUOUS
100
AcDbLine
 10
13.26747284108903
 20
2.283876894477644
 30
0.0
 11
14.31670901546777
 21
3.333113068856379
 31
0.0
  0
LINE
  5
E43A
330
E42B
100
AcDbEntity
  8
0
  6
CONTINUOUS
100
AcDbLine
 10
16.36767838827179
 20
8.751678487061342
 30
0.0
 11
16.50332410898388
 21
8.887324207773432
 31
0.0
  0
LINE
  5
E43B
330
E42B
100
AcDbEntity
  8
0
  6
CONTINUOUS
100
AcDbLine
 10
15.96190732182191
 20
7.67238821153127
 30
0.0
 11
16.68735328004734
 21
8.397834169756699
 31
0.0
  0
LINE
  5
E43C
330
E42B
100
AcDbEntity
  8
0
  6
CONTINUOUS
100
AcDbLine
 10
15.55613625537202
 20
6.593097936001196
 30
0.0
 11
16.87138245111079
 21
7.908344131739965
 31
0.0
  0
LINE
  5
E43D
330
E42B
100
AcDbEntity
  8
0
  6
CONTINUOUS
100
AcDbLine
 10
15.15036518892213
 20
5.513807660471122
 30
0.0
 11
17.05541162217424
 21
7.418854093723231
 31
0.0
  0
LINE
  5
E43E
330
E42B
100
AcDbEntity
  8
0
  6
CONTINUOUS
100
AcDbLine
 10
14.74459412247225
 20
4.434517384941048
 30
0.0
 11
17.2394407932377
 21
6.929364055706499
 31
0.0
  0
LINE
  5
E43F
330
E42B
100
AcDbEntity
  8
0
  6
CONTINUOUS
100
AcDbLine
 10
14.33882305602236
 20
3.355227109410975
 30
0.0
 11
17.42346996430115
 21
6.439874017689766
 31
0.0
  0
LINE
  5
E440
330
E42B
100
AcDbEntity
  8
0
  6
CONTINUOUS
100
AcDbLine
 10
13.46705359186416
 20
1.809938436172586
 30
0.0
 11
16.0819338255367
 21
4.424818669845129
 31
0.0
  0
LINE
  5
E441
330
E42B
100
AcDbEntity
  8
0
  6
CONTINUOUS
100
AcDbLine
 10
16.63283254238972
 20
4.975717386698149
 30
0.0
 11
17.60749913536461
 21
5.950383979673033
 31
0.0
  0
LINE
  5
E442
330
E42B
100
AcDbEntity
  8
0
  6
CONTINUOUS
100
AcDbLine
 10
13.66663434263929
 20
1.335999977867529
 30
0.0
 11
15.67604797733754
 21
3.345413612565779
 31
0.0
  0
LINE
  5
E443
330
E42B
100
AcDbEntity
  8
0
  6
CONTINUOUS
100
AcDbLine
 10
13.86621509341442
 20
0.8620615195624723
 30
0.0
 11
15.27016212913838
 21
2.26600855528643
 31
0.0
  0
LINE
  5
E444
330
E42B
100
AcDbEntity
  8
0
  6
CONTINUOUS
100
AcDbLine
 10
16.81682257348267
 20
4.486188208710908
 30
0.0
 11
17.79152830642806
 21
5.460893941656299
 31
0.0
  0
LINE
  5
E445
330
E42B
100
AcDbEntity
  8
0
  6
CONTINUOUS
100
AcDbLine
 10
17.00081260457561
 20
3.996659030723667
 30
0.0
 11
17.97555747749151
 21
4.971403903639565
 31
0.0
  0
LINE
  5
E446
330
E42B
100
AcDbEntity
  8
0
  6
CONTINUOUS
100
AcDbLine
 10
20.74362343514722
 20
8.412989070375462
 30
0.0
 11
21.09373436476302
 21
8.763099999991256
 31
0.0
  0
LINE
  5
E447
330
E42B
100
AcDbEntity
  8
0
  6
CONTINUOUS
100
AcDbLine
 10
20.25401257174777
 20
7.249858997895826
 30
0.0
 11
21.7672535738432
 21
8.763099999991255
 31
0.0
  0
LINE
  5
E448
330
E42B
100
AcDbEntity
  8
0
  6
CONTINUOUS
100
AcDbLine
 10
14.06579584418955
 20
0.3881230612574149
 30
0.0
 11
14.86427628093921
 21
1.186603498007082
 31
0.0
  0
LINE
  5
E449
330
E42B
100
AcDbEntity
  8
0
  6
CONTINUOUS
100
AcDbLine
 10
14.26537659496467
 20
-0.0858153970476412
 30
0.0
 11
14.45839043274005
 21
0.1071984407277329
 31
0.0
  0
LINE
  5
E44A
330
E42B
100
AcDbEntity
  8
0
  6
CONTINUOUS
100
AcDbLine
 10
17.18480263566856
 20
3.507129852736426
 30
0.0
 11
18.15958664855496
 21
4.481913865622833
 31
0.0
  0
LINE
  5
E44B
330
E42B
100
AcDbEntity
  8
0
  6
CONTINUOUS
100
AcDbLine
 10
17.3687926667615
 20
3.017600674749186
 30
0.0
 11
18.34361581961842
 21
3.9924238276061
 31
0.0
  0
LINE
  5
E44C
330
E42B
100
AcDbEntity
  8
0
  6
CONTINUOUS
100
AcDbLine
 10
19.76440170834832
 20
6.086728925416191
 30
0.0
 11
22.33924590259489
 21
8.661573119662755
 31
0.0
  0
LINE
  5
E44D
330
E42B
100
AcDbEntity
  8
0
  6
CONTINUOUS
100
AcDbLine
 10
19.27479084494887
 20
4.923598852936555
 30
0.0
 11
21.84929622842713
 21
7.498104236414807
 31
0.0
  0
LINE
  5
E44E
330
E42B
100
AcDbEntity
  8
0
  6
CONTINUOUS
100
AcDbLine
 10
17.55278269785445
 20
2.528071496761945
 30
0.0
 11
18.52764499068187
 21
3.502933789589366
 31
0.0
  0
LINE
  5
E44F
330
E42B
100
AcDbEntity
  8
0
  6
CONTINUOUS
100
AcDbLine
 10
18.78517998154942
 20
3.760468780456919
 30
0.0
 11
21.35934655425936
 21
6.33463535316686
 31
0.0
  0
LINE
  5
E450
330
E42B
100
AcDbEntity
  8
0
  6
CONTINUOUS
100
AcDbLine
 10
17.73677272894739
 20
2.038542318774704
 30
0.0
 11
20.8693968800916
 21
5.171166469918914
 31
0.0
  0
LINE
  5
E451
330
E42B
100
AcDbEntity
  8
0
  6
CONTINUOUS
100
AcDbLine
 10
17.92076276004034
 20
1.549013140787464
 30
0.0
 11
20.37944720592384
 21
4.007697586670968
 31
0.0
  0
LINE
  5
E452
330
E42B
100
AcDbEntity
  8
0
  6
CONTINUOUS
100
AcDbLine
 10
18.10475279113329
 20
1.059483962800223
 30
0.0
 11
19.88949753175608
 21
2.84422870342302
 31
0.0
  0
LINE
  5
E453
330
E42B
100
AcDbEntity
  8
0
  6
CONTINUOUS
100
AcDbLine
 10
18.28874282222623
 20
0.5699547848129822
 30
0.0
 11
19.39954785758832
 21
1.680759820175074
 31
0.0
  0
LINE
  5
E454
330
E42B
100
AcDbEntity
  8
0
  6
CONTINUOUS
100
AcDbLine
 10
18.47273285331918
 20
0.0804256068257416
 30
0.0
 11
18.90959818342056
 21
0.517290936927127
 31
0.0
  0
LINE
  5
E455
330
E42B
100
AcDbEntity
  8
0
  6
CONTINUOUS
100
AcDbLine
 10
14.3590401358224
 20
-0.1570118376323384
 30
0.0
 11
14.24903296539946
 21
-0.0470046672093929
 31
0.0
  0
LINE
  5
E456
330
E42B
100
AcDbEntity
  8
0
  6
CONTINUOUS
100
AcDbLine
 10
14.54309291258661
 20
0.332454594683643
 30
0.0
 11
13.75908329123172
 21
1.116464216038529
 31
0.0
  0
LINE
  5
E457
330
E42B
100
AcDbEntity
  8
0
  6
CONTINUOUS
100
AcDbLine
 10
14.72714568935081
 20
0.8219210269996244
 30
0.0
 11
13.26913361706399
 21
2.27993309928645
 31
0.0
  0
LINE
  5
E458
330
E42B
100
AcDbEntity
  8
0
  6
CONTINUOUS
100
AcDbLine
 10
14.91119846611502
 20
1.311387459315606
 30
0.0
 11
12.77918394289625
 21
3.443401982534371
 31
0.0
  0
LINE
  5
E459
330
E42B
100
AcDbEntity
  8
0
  6
CONTINUOUS
100
AcDbLine
 10
15.09525124287922
 20
1.800853891631587
 30
0.0
 11
12.28923426872852
 21
4.606870865782293
 31
0.0
  0
LINE
  5
E45A
330
E42B
100
AcDbEntity
  8
0
  6
CONTINUOUS
100
AcDbLine
 10
15.27930401964343
 20
2.290320323947569
 30
0.0
 11
11.79928459456078
 21
5.770339749030213
 31
0.0
  0
LINE
  5
E45B
330
E42B
100
AcDbEntity
  8
0
  6
CONTINUOUS
100
AcDbLine
 10
15.46335679640763
 20
2.77978675626355
 30
0.0
 11
14.48885470994921
 21
3.754288842721972
 31
0.0
  0
LINE
  5
E45C
330
E42B
100
AcDbEntity
  8
0
  6
CONTINUOUS
100
AcDbLine
 10
13.88507249233704
 20
4.358071060334137
 30
0.0
 11
11.30933492039305
 21
6.933808632278135
 31
0.0
  0
LINE
  5
E45D
330
E42B
100
AcDbEntity
  8
0
  6
CONTINUOUS
100
AcDbLine
 10
18.75840522805855
 20
0.1582575336928151
 30
0.0
 11
18.25383727664818
 21
0.6628254851031863
 31
0.0
  0
LINE
  5
E45E
330
E42B
100
AcDbEntity
  8
0
  6
CONTINUOUS
100
AcDbLine
 10
15.64740957317184
 20
3.269253188579531
 30
0.0
 11
14.67288388101266
 21
4.243778880738705
 31
0.0
  0
LINE
  5
E45F
330
E42B
100
AcDbEntity
  8
0
  6
CONTINUOUS
100
AcDbLine
 10
13.39509276772158
 20
5.521569994029786
 30
0.0
 11
10.81938524622531
 21
8.097277515526056
 31
0.0
  0
LINE
  5
E460
330
E42B
100
AcDbEntity
  8
0
  6
CONTINUOUS
100
AcDbLine
 10
18.95798597883369
 20
0.6321959919978686
 30
0.0
 11
17.84825644852853
 21
1.741925522303024
 31
0.0
  0
LINE
  5
E461
330
E42B
100
AcDbEntity
  8
0
  6
CONTINUOUS
100
AcDbLine
 10
19.15756672960882
 20
1.106134450302922
 30
0.0
 11
17.44267562040888
 21
2.821025559502861
 31
0.0
  0
LINE
  5
E462
330
E42B
100
AcDbEntity
  8
0
  6
CONTINUOUS
100
AcDbLine
 10
15.83146234993604
 20
3.758719620895513
 30
0.0
 11
14.85691305207612
 21
4.733268918755439
 31
0.0
  0
LINE
  5
E463
330
E42B
100
AcDbEntity
  8
0
  6
CONTINUOUS
100
AcDbLine
 10
16.01551512670025
 20
4.248186053211494
 30
0.0
 11
15.04094222313957
 21
5.222758956772172
 31
0.0
  0
LINE
  5
E464
330
E42B
100
AcDbEntity
  8
0
  6
CONTINUOUS
100
AcDbLine
 10
12.90511304310612
 20
6.685068927725435
 30
0.0
 11
10.8270819708403
 21
8.763099999991255
 31
0.0
  0
LINE
  5
E465
330
E42B
100
AcDbEntity
  8
0
  6
CONTINUOUS
100
AcDbLine
 10
12.41513331849066
 20
7.848567861421083
 30
0.0
 11
11.50060117992049
 21
8.763099999991255
 31
0.0
  0
LINE
  5
E466
330
E42B
100
AcDbEntity
  8
0
  6
CONTINUOUS
100
AcDbLine
 10
19.35714748038395
 20
1.580072908607975
 30
0.0
 11
17.03709479228923
 21
3.900125596702697
 31
0.0
  0
LINE
  5
E467
330
E42B
100
AcDbEntity
  8
0
  6
CONTINUOUS
100
AcDbLine
 10
19.55672823115909
 20
2.054011366913028
 30
0.0
 11
16.63151396416958
 21
4.979225633902534
 31
0.0
  0
LINE
  5
E468
330
E42B
100
AcDbEntity
  8
0
  6
CONTINUOUS
100
AcDbLine
 10
16.19956790346445
 20
4.737652485527476
 30
0.0
 11
15.22497139420302
 21
5.712248994788904
 31
0.0
  0
LINE
  5
E469
330
E42B
100
AcDbEntity
  8
0
  6
CONTINUOUS
100
AcDbLine
 10
16.38362068022866
 20
5.227118917843457
 30
0.0
 11
15.40900056526648
 21
6.201739032805637
 31
0.0
  0
LINE
  5
E46A
330
E42B
100
AcDbEntity
  8
0
  6
CONTINUOUS
100
AcDbLine
 10
19.75630898193422
 20
2.527949825218081
 30
0.0
 11
18.70774536448286
 21
3.576513442669441
 31
0.0
  0
LINE
  5
E46B
330
E42B
100
AcDbEntity
  8
0
  6
CONTINUOUS
100
AcDbLine
 10
19.95588973270936
 20
3.001888283523134
 30
0.0
 11
18.90726987211446
 21
4.050508144118028
 31
0.0
  0
LINE
  5
E46C
330
E42B
100
AcDbEntity
  8
0
  6
CONTINUOUS
100
AcDbLine
 10
20.15547048348449
 20
3.475826741828186
 30
0.0
 11
19.10679437974606
 21
4.524502845566614
 31
0.0
  0
LINE
  5
E46D
330
E42B
100
AcDbEntity
  8
0
  6
CONTINUOUS
100
AcDbLine
 10
20.35505123425962
 20
3.94976520013324
 30
0.0
 11
19.30631888737766
 21
4.998497547015201
 31
0.0
  0
LINE
  5
E46E
330
E42B
100
AcDbEntity
  8
0
  6
CONTINUOUS
100
AcDbLine
 10
20.55463198503475
 20
4.423703658438292
 30
0.0
 11
19.50584339500926
 21
5.472492248463787
 31
0.0
  0
LINE
  5
E46F
330
E42B
100
AcDbEntity
  8
0
  6
CONTINUOUS
100
AcDbLine
 10
18.37481191085755
 20
3.909446896294752
 30
0.0
 11
15.59302973632993
 21
6.691229070822371
 31
0.0
  0
LINE
  5
E470
330
E42B
100
AcDbEntity
  8
0
  6
CONTINUOUS
100
AcDbLine
 10
17.96904084440766
 20
4.988737171824825
 30
0.0
 11
15.77705890739338
 21
7.180719108839104
 31
0.0
  0
LINE
  5
E471
330
E42B
100
AcDbEntity
  8
0
  6
CONTINUOUS
100
AcDbLine
 10
17.56326977795777
 20
6.068027447354899
 30
0.0
 11
15.96108807845684
 21
7.670209146855838
 31
0.0
  0
LINE
  5
E472
330
E42B
100
AcDbEntity
  8
0
  6
CONTINUOUS
100
AcDbLine
 10
17.15749871150789
 20
7.147317722884972
 30
0.0
 11
16.14511724952029
 21
8.15969918487257
 31
0.0
  0
LINE
  5
E473
330
E42B
100
AcDbEntity
  8
0
  6
CONTINUOUS
100
AcDbLine
 10
16.751727645058
 20
8.226607998415046
 30
0.0
 11
16.32914642058374
 21
8.649189222889303
 31
0.0
  0
LINE
  5
E474
330
E42B
100
AcDbEntity
  8
0
  6
CONTINUOUS
100
AcDbLine
 10
20.75421273580989
 20
4.897642116743345
 30
0.0
 11
19.70536790264086
 21
5.946486949912374
 31
0.0
  0
LINE
  5
E475
330
E42B
100
AcDbEntity
  8
0
  6
CONTINUOUS
100
AcDbLine
 10
20.95379348658502
 20
5.371580575048398
 30
0.0
 11
19.90489241027246
 21
6.42048165136096
 31
0.0
  0
LINE
  5
E476
330
E42B
100
AcDbEntity
  8
0
  6
CONTINUOUS
100
AcDbLine
 10
21.15337423736015
 20
5.845519033353452
 30
0.0
 11
20.10441691790406
 21
6.894476352809547
 31
0.0
  0
LINE
  5
E477
330
E42B
100
AcDbEntity
  8
0
  6
CONTINUOUS
100
AcDbLine
 10
21.35295498813529
 20
6.319457491658505
 30
0.0
 11
20.30394142553566
 21
7.368471054258134
 31
0.0
  0
LINE
  5
E478
330
E42B
100
AcDbEntity
  8
0
  6
CONTINUOUS
100
AcDbLine
 10
21.55253573891042
 20
6.793395949963558
 30
0.0
 11
20.50346593316726
 21
7.842465755706721
 31
0.0
  0
LINE
  5
E479
330
E42B
100
AcDbEntity
  8
0
  6
CONTINUOUS
100
AcDbLine
 10
21.75211648968556
 20
7.267334408268612
 30
0.0
 11
20.70299044079886
 21
8.316460457155308
 31
0.0
  0
LINE
  5
E47A
330
E42B
100
AcDbEntity
  8
0
  6
CONTINUOUS
100
AcDbLine
 10
21.95169724046069
 20
7.741272866573663
 30
0.0
 11
20.9298701070431
 21
8.763099999991256
 31
0.0
  0
LINE
  5
E47B
330
E42B
100
AcDbEntity
  8
0
  6
CONTINUOUS
100
AcDbLine
 10
22.15127799123582
 20
8.215211324878716
 30
0.0
 11
21.60338931612328
 21
8.763099999991256
 31
0.0
  0
LINE
  5
E47C
330
E42B
100
AcDbEntity
  8
0
  6
CONTINUOUS
100
AcDbLine
 10
22.35085874201096
 20
8.689149783183769
 30
0.0
 11
22.27690852520347
 21
8.763099999991255
 31
0.0
  0
ENDBLK
  5
E56E
330
E42B
100
AcDbEntity
  8
0
100
AcDbBlockEnd
  0
BLOCK
  5
E56F
330
E47D
100
AcDbEntity
  8
0
100
AcDbBlockBegin
  2
*X23
 70
     1
 10
0.0
 20
0.0
 30
0.0
  3
*X23
  1

  0
LINE
  5
E47E
330
E47D
100
AcDbEntity
  8
0
  6
CONTINUOUS
100
AcDbLine
 10
23.19462913593892
 20
8.169917934846424
 30
0.0
 11
23.70775465517246
 21
8.683043454079957
 31
0.0
  0
LINE
  5
E47F
330
E47D
100
AcDbEntity
  8
0
  6
CONTINUOUS
100
AcDbLine
 10
22.64923161835078
 20
6.951001208178088
 30
0.0
 11
23.9159364069932
 21
8.217705996820516
 31
0.0
  0
LINE
  5
E480
330
E47D
100
AcDbEntity
  8
0
  6
CONTINUOUS
100
AcDbLine
 10
22.10383410076263
 20
5.732084481509751
 30
0.0
 11
24.12411815881395
 21
7.752368539561078
 31
0.0
  0
LINE
  5
E481
330
E47D
100
AcDbEntity
  8
0
  6
CONTINUOUS
100
AcDbLine
 10
21.55843658317447
 20
4.513167754841414
 30
0.0
 11
24.3322999106347
 21
7.287031082301639
 31
0.0
  0
LINE
  5
E482
330
E47D
100
AcDbEntity
  8
0
  6
CONTINUOUS
100
AcDbLine
 10
21.01303906558632
 20
3.294251028173077
 30
0.0
 11
24.54048166245544
 21
6.821693625042199
 31
0.0
  0
LINE
  5
E483
330
E47D
100
AcDbEntity
  8
0
  6
CONTINUOUS
100
AcDbLine
 10
20.46764154799817
 20
2.075334301504738
 30
0.0
 11
23.28571549467848
 21
4.89340824818505
 31
0.0
  0
LINE
  5
E484
330
E47D
100
AcDbEntity
  8
0
  6
CONTINUOUS
100
AcDbLine
 10
19.92224403041002
 20
0.8564175748364002
 30
0.0
 11
22.74075865492779
 21
3.674932199354171
 31
0.0
  0
LINE
  5
E485
330
E47D
100
AcDbEntity
  8
0
  6
CONTINUOUS
100
AcDbLine
 10
23.67305085490148
 20
5.280743608408048
 30
0.0
 11
24.74866341427619
 21
6.356356167782759
 31
0.0
  0
LINE
  5
E486
330
E47D
100
AcDbEntity
  8
0
  6
CONTINUOUS
100
AcDbLine
 10
23.88118970842314
 20
4.815363252849522
 30
0.0
 11
24.95684516609694
 21
5.89101871052332
 31
0.0
  0
LINE
  5
E487
330
E47D
100
AcDbEntity
  8
0
  6
CONTINUOUS
100
AcDbLine
 10
19.73925852647308
 20
-0.0000871381807288
 30
0.0
 11
23.4103456646501
 21
3.670999999996297
 31
0.0
  0
LINE
  5
E488
330
E47D
100
AcDbEntity
  8
0
  6
CONTINUOUS
100
AcDbLine
 10
24.0893285619448
 20
4.349982897290997
 30
0.0
 11
25.16502691791769
 21
5.42568125326388
 31
0.0
  0
LINE
  5
E489
330
E47D
100
AcDbEntity
  8
0
  6
CONTINUOUS
100
AcDbLine
 10
20.41282099582748
 20
-0.0000438779065108
 30
0.0
 11
21.64944178675636
 21
1.236576913022366
 31
0.0
  0
LINE
  5
E48A
330
E47D
100
AcDbEntity
  8
0
  6
CONTINUOUS
100
AcDbLine
 10
22.78126487373161
 20
2.36839999999762
 30
0.0
 11
24.08386487373029
 21
3.670999999996297
 31
0.0
  0
LINE
  5
E48B
330
E47D
100
AcDbEntity
  8
0
  6
CONTINUOUS
100
AcDbLine
 10
24.29746741546646
 20
3.884602541732471
 30
0.0
 11
25.37320866973843
 21
4.960343796004441
 31
0.0
  0
LINE
  5
E48C
330
E47D
100
AcDbEntity
  8
0
  6
CONTINUOUS
100
AcDbLine
 10
21.08638346518189
 20
-0.0000006176322938
 30
0.0
 11
21.10379033335899
 21
0.0174062505448083
 31
0.0
  0
LINE
  5
E48D
330
E47D
100
AcDbEntity
  8
0
  6
CONTINUOUS
100
AcDbLine
 10
23.4547840828118
 20
2.36839999999762
 30
0.0
 11
25.58139042155918
 21
4.495006338745002
 31
0.0
  0
LINE
  5
E48E
330
E47D
100
AcDbEntity
  8
0
  6
CONTINUOUS
100
AcDbLine
 10
29.30199999996933
 20
8.215615917155148
 30
0.0
 11
29.84948408280543
 21
8.763099999991255
 31
0.0
  0
LINE
  5
E48F
330
E47D
100
AcDbEntity
  8
0
  6
CONTINUOUS
100
AcDbLine
 10
24.12830329189199
 20
2.36839999999762
 30
0.0
 11
25.78957217337993
 21
4.029668881485562
 31
0.0
  0
LINE
  5
E490
330
E47D
100
AcDbEntity
  8
0
  6
CONTINUOUS
100
AcDbLine
 10
29.30199999996933
 20
7.54209670807496
 30
0.0
 11
30.52300329188562
 21
8.763099999991255
 31
0.0
  0
LINE
  5
E491
330
E47D
100
AcDbEntity
  8
0
  6
CONTINUOUS
100
AcDbLine
 10
24.80182250097217
 20
2.36839999999762
 30
0.0
 11
25.99775392520067
 21
3.564331424226122
 31
0.0
  0
LINE
  5
E492
330
E47D
100
AcDbEntity
  8
0
  6
CONTINUOUS
100
AcDbLine
 10
29.30199999996933
 20
6.868577498994774
 30
0.0
 11
30.74199999996926
 21
8.308577498994712
 31
0.0
  0
LINE
  5
E493
330
E47D
100
AcDbEntity
  8
0
  6
CONTINUOUS
100
AcDbLine
 10
25.13028238392013
 20
2.023340673865392
 30
0.0
 11
26.20593567702142
 21
3.098993966966683
 31
0.0
  0
LINE
  5
E494
330
E47D
100
AcDbEntity
  8
0
  6
CONTINUOUS
100
AcDbLine
 10
25.33838066033617
 20
1.557919741201244
 30
0.0
 11
26.41411742884217
 21
2.633656509707244
 31
0.0
  0
LINE
  5
E495
330
E47D
100
AcDbEntity
  8
0
  6
CONTINUOUS
100
AcDbLine
 10
25.54647893675221
 20
1.092498808537098
 30
0.0
 11
26.62229918066291
 21
2.168319052447804
 31
0.0
  0
LINE
  5
E496
330
E47D
100
AcDbEntity
  8
0
  6
CONTINUOUS
100
AcDbLine
 10
25.75457721316825
 20
0.62707787587295
 30
0.0
 11
26.83048093248366
 21
1.702981595188365
 31
0.0
  0
LINE
  5
E497
330
E47D
100
AcDbEntity
  8
0
  6
CONTINUOUS
100
AcDbLine
 10
29.30199999996933
 20
6.195058289914587
 30
0.0
 11
30.74199999996926
 21
7.635058289914522
 31
0.0
  0
LINE
  5
E498
330
E47D
100
AcDbEntity
  8
0
  6
CONTINUOUS
100
AcDbLine
 10
29.30199999996933
 20
5.521539080834401
 30
0.0
 11
30.74199999996926
 21
6.961539080834331
 31
0.0
  0
LINE
  5
E499
330
E47D
100
AcDbEntity
  8
0
  6
CONTINUOUS
100
AcDbLine
 10
29.30199999996933
 20
4.848019871754214
 30
0.0
 11
30.74199999996925
 21
6.288019871754143
 31
0.0
  0
LINE
  5
E49A
330
E47D
100
AcDbEntity
  8
0
  6
CONTINUOUS
100
AcDbLine
 10
29.30199999996933
 20
4.174500662674028
 30
0.0
 11
30.74199999996925
 21
5.614500662673953
 31
0.0
  0
LINE
  5
E49B
330
E47D
100
AcDbEntity
  8
0
  6
CONTINUOUS
100
AcDbLine
 10
25.96267548958429
 20
0.1616569432088024
 30
0.0
 11
27.18411854636669
 21
1.383099999991207
 31
0.0
  0
LINE
  5
E49C
330
E47D
100
AcDbEntity
  8
0
  6
CONTINUOUS
100
AcDbLine
 10
29.30199999996933
 20
3.500981453593841
 30
0.0
 11
30.74199999996925
 21
4.940981453593762
 31
0.0
  0
LINE
  5
E49D
330
E47D
100
AcDbEntity
  8
0
  6
CONTINUOUS
100
AcDbLine
 10
26.50763775544691
 20
0.0330999999912356
 30
0.0
 11
27.85763775544689
 21
1.383099999991223
 31
0.0
  0
LINE
  5
E49E
330
E47D
100
AcDbEntity
  8
0
  6
CONTINUOUS
100
AcDbLine
 10
29.30199999996933
 20
2.827462244513656
 30
0.0
 11
30.74199999996925
 21
4.267462244513574
 31
0.0
  0
LINE
  5
E49F
330
E47D
100
AcDbEntity
  8
0
  6
CONTINUOUS
100
AcDbLine
 10
27.18115696452709
 20
0.0330999999912356
 30
0.0
 11
28.55073879889363
 21
1.402681834357775
 31
0.0
  0
LINE
  5
E4A0
330
E47D
100
AcDbEntity
  8
0
  6
CONTINUOUS
100
AcDbLine
 10
29.28241816560272
 20
2.134361201066866
 30
0.0
 11
30.74199999996924
 21
3.593943035433383
 31
0.0
  0
LINE
  5
E4A1
330
E47D
100
AcDbEntity
  8
0
  6
CONTINUOUS
100
AcDbLine
 10
27.85467617360728
 20
0.0330999999912356
 30
0.0
 11
30.74199999996924
 21
2.920423826353195
 31
0.0
  0
LINE
  5
E4A2
330
E47D
100
AcDbEntity
  8
0
  6
CONTINUOUS
100
AcDbLine
 10
28.53897559587887
 20
0.0438802131826428
 30
0.0
 11
30.73121978677781
 21
2.236124404081585
 31
0.0
  0
LINE
  5
E4A3
330
E47D
100
AcDbEntity
  8
0
  6
CONTINUOUS
100
AcDbLine
 10
29.45140055588722
 20
0.2827859641107988
 30
0.0
 11
30.49231403584965
 21
1.323699444073236
 31
0.0
  0
LINE
  5
E4A4
330
E47D
100
AcDbEntity
  8
0
  6
CONTINUOUS
100
AcDbLine
 10
19.59027867740337
 20
-0.0000967065718083
 30
0.0
 11
19.55485265190471
 21
0.035329318926844
 31
0.0
  0
LINE
  5
E4A5
330
E47D
100
AcDbEntity
  8
0
  6
CONTINUOUS
100
AcDbLine
 10
20.26375463176586
 20
-0.0000534518541091
 30
0.0
 11
19.76305575737534
 21
0.5006454225364014
 31
0.0
  0
LINE
  5
E4A6
330
E47D
100
AcDbEntity
  8
0
  6
CONTINUOUS
100
AcDbLine
 10
20.93723058612834
 20
-0.0000101971364099
 30
0.0
 11
19.97125886284597
 21
0.965961526145958
 31
0.0
  0
LINE
  5
E4A7
330
E47D
100
AcDbEntity
  8
0
  6
CONTINUOUS
100
AcDbLine
 10
21.25514828313686
 20
0.355591314935257
 30
0.0
 11
20.1794619683166
 21
1.431277629755512
 31
0.0
  0
LINE
  5
E4A8
330
E47D
100
AcDbEntity
  8
0
  6
CONTINUOUS
100
AcDbLine
 10
21.46338838394921
 20
0.8208704232030986
 30
0.0
 11
20.38766507378723
 21
1.896593733365069
 31
0.0
  0
LINE
  5
E4A9
330
E47D
100
AcDbEntity
  8
0
  6
CONTINUOUS
100
AcDbLine
 10
21.67162848476155
 20
1.28614953147094
 30
0.0
 11
20.59586817925786
 21
2.361909836974626
 31
0.0
  0
LINE
  5
E4AA
330
E47D
100
AcDbEntity
  8
0
  6
CONTINUOUS
100
AcDbLine
 10
21.8798685855739
 20
1.751428639738782
 30
0.0
 11
20.80407128472849
 21
2.827225940584183
 31
0.0
  0
LINE
  5
E4AB
330
E47D
100
AcDbEntity
  8
0
  6
CONTINUOUS
100
AcDbLine
 10
22.08810868638624
 20
2.216707748006623
 30
0.0
 11
21.01227439019912
 21
3.292542044193739
 31
0.0
  0
LINE
  5
E4AC
330
E47D
100
AcDbEntity
  8
0
  6
CONTINUOUS
100
AcDbLine
 10
22.60993564347543
 20
2.36839999999762
 30
0.0
 11
21.22047749566975
 21
3.757858147803296
 31
0.0
  0
LINE
  5
E4AD
330
E47D
100
AcDbEntity
  8
0
  6
CONTINUOUS
100
AcDbLine
 10
23.28345485255561
 20
2.36839999999762
 30
0.0
 11
21.42868060114038
 21
4.223174251412853
 31
0.0
  0
LINE
  5
E4AE
330
E47D
100
AcDbEntity
  8
0
  6
CONTINUOUS
100
AcDbLine
 10
26.29227406164219
 20
0.0330999999912356
 30
0.0
 11
25.80009199592872
 21
0.5252820657046957
 31
0.0
  0
LINE
  5
E4AF
330
E47D
100
AcDbEntity
  8
0
  6
CONTINUOUS
100
AcDbLine
 10
23.9569740616358
 20
2.36839999999762
 30
0.0
 11
21.63688370661101
 21
4.688490355022409
 31
0.0
  0
LINE
  5
E4B0
330
E47D
100
AcDbEntity
  8
0
  6
CONTINUOUS
100
AcDbLine
 10
26.96579327072237
 20
0.0330999999912356
 30
0.0
 11
25.2554132311971
 21
1.743480039516508
 31
0.0
  0
LINE
  5
E4B1
330
E47D
100
AcDbEntity
  8
0
  6
CONTINUOUS
100
AcDbLine
 10
24.63049327071599
 20
2.36839999999762
 30
0.0
 11
23.32789327071731
 21
3.670999999996297
 31
0.0
  0
LINE
  5
E4B2
330
E47D
100
AcDbEntity
  8
0
  6
CONTINUOUS
100
AcDbLine
 10
22.92098674744635
 20
4.077906523267254
 30
0.0
 11
21.84508681208164
 21
5.153806458631966
 31
0.0
  0
LINE
  5
E4B3
330
E47D
100
AcDbEntity
  8
0
  6
CONTINUOUS
100
AcDbLine
 10
27.63931247980256
 20
0.0330999999912356
 30
0.0
 11
24.0014124797975
 21
3.670999999996297
 31
0.0
  0
LINE
  5
E4B4
330
E47D
100
AcDbEntity
  8
0
  6
CONTINUOUS
100
AcDbLine
 10
23.129125600968
 20
4.5432868788258
 30
0.0
 11
22.05328991755227
 21
5.619122562241522
 31
0.0
  0
LINE
  5
E4B5
330
E47D
100
AcDbEntity
  8
0
  6
CONTINUOUS
100
AcDbLine
 10
28.31283168888275
 20
0.0330999999912356
 30
0.0
 11
24.16488385994816
 21
4.181047828925828
 31
0.0
  0
LINE
  5
E4B6
330
E47D
100
AcDbEntity
  8
0
  6
CONTINUOUS
100
AcDbLine
 10
23.33726445448964
 20
5.008667234384345
 30
0.0
 11
22.2614930230229
 21
6.084438665851079
 31
0.0
  0
LINE
  5
E4B7
330
E47D
100
AcDbEntity
  8
0
  6
CONTINUOUS
100
AcDbLine
 10
28.92085740005492
 20
0.0985934978992438
 30
0.0
 11
27.63635089796295
 21
1.383099999991217
 31
0.0
  0
LINE
  5
E4B8
330
E47D
100
AcDbEntity
  8
0
  6
CONTINUOUS
100
AcDbLine
 10
26.43704649509776
 20
2.582404402856405
 30
0.0
 11
23.61992702019732
 21
5.399523877756844
 31
0.0
  0
LINE
  5
E4B9
330
E47D
100
AcDbEntity
  8
0
  6
CONTINUOUS
100
AcDbLine
 10
23.54540330801128
 20
5.47404758994289
 30
0.0
 11
22.46969612849353
 21
6.549754769460635
 31
0.0
  0
LINE
  5
E4BA
330
E47D
100
AcDbEntity
  8
0
  6
CONTINUOUS
100
AcDbLine
 10
29.42225615078443
 20
0.2707139562499279
 30
0.0
 11
28.30987010704312
 21
1.383099999991234
 31
0.0
  0
LINE
  5
E4BB
330
E47D
100
AcDbEntity
  8
0
  6
CONTINUOUS
100
AcDbLine
 10
25.89179548232307
 20
3.801174624711282
 30
0.0
 11
22.67789923396416
 21
7.015070873070191
 31
0.0
  0
LINE
  5
E4BC
330
E47D
100
AcDbEntity
  8
0
  6
CONTINUOUS
100
AcDbLine
 10
29.83624534690007
 20
0.5302439692144705
 30
0.0
 11
28.85811781497101
 21
1.508371501143527
 31
0.0
  0
LINE
  5
E4BD
330
E47D
100
AcDbEntity
  8
0
  6
CONTINUOUS
100
AcDbLine
 10
25.34654446954838
 20
5.01994484656616
 30
0.0
 11
22.88610233943479
 21
7.480386976679748
 31
0.0
  0
LINE
  5
E4BE
330
E47D
100
AcDbEntity
  8
0
  6
CONTINUOUS
100
AcDbLine
 10
30.17865975401872
 20
0.8613487711760022
 30
0.0
 11
29.18888744090175
 21
1.851121084292977
 31
0.0
  0
LINE
  5
E4BF
330
E47D
100
AcDbEntity
  8
0
  6
CONTINUOUS
100
AcDbLine
 10
24.80129345677369
 20
6.238715068421037
 30
0.0
 11
23.09430544490542
 21
7.945703080289305
 31
0.0
  0
LINE
  5
E4C0
330
E47D
100
AcDbEntity
  8
0
  6
CONTINUOUS
100
AcDbLine
 10
30.45496647202376
 20
1.258561262251155
 30
0.0
 11
29.30199999996933
 21
2.411527734305588
 31
0.0
  0
LINE
  5
E4C1
330
E47D
100
AcDbEntity
  8
0
  6
CONTINUOUS
100
AcDbLine
 10
24.256042443999
 20
7.457485290275915
 30
0.0
 11
23.30250855037605
 21
8.411019183898862
 31
0.0
  0
LINE
  5
E4C2
330
E47D
100
AcDbEntity
  8
0
  6
CONTINUOUS
100
AcDbLine
 10
30.64868582078271
 20
1.738361122572387
 30
0.0
 11
29.30199999996933
 21
3.085046943385775
 31
0.0
  0
LINE
  5
E4C3
330
E47D
100
AcDbEntity
  8
0
  6
CONTINUOUS
100
AcDbLine
 10
23.71079143122431
 20
8.676255512130794
 30
0.0
 11
23.51071165584668
 21
8.876335287508416
 31
0.0
  0
LINE
  5
E4C4
330
E47D
100
AcDbEntity
  8
0
  6
CONTINUOUS
100
AcDbLine
 10
30.73802122914428
 20
2.322544923291007
 30
0.0
 11
29.30199999996933
 21
3.758566152465961
 31
0.0
  0
LINE
  5
E4C5
330
E47D
100
AcDbEntity
  8
0
  6
CONTINUOUS
100
AcDbLine
 10
30.74199999996924
 20
2.992085361546236
 30
0.0
 11
29.30199999996933
 21
4.432085361546148
 31
0.0
  0
LINE
  5
E4C6
330
E47D
100
AcDbEntity
  8
0
  6
CONTINUOUS
100
AcDbLine
 10
30.74199999996924
 20
3.665604570626419
 30
0.0
 11
29.30199999996933
 21
5.105604570626333
 31
0.0
  0
LINE
  5
E4C7
330
E47D
100
AcDbEntity
  8
0
  6
CONTINUOUS
100
AcDbLine
 10
30.74199999996925
 20
4.339123779706602
 30
0.0
 11
29.30199999996933
 21
5.77912377970652
 31
0.0
  0
LINE
  5
E4C8
330
E47D
100
AcDbEntity
  8
0
  6
CONTINUOUS
100
AcDbLine
 10
30.74199999996925
 20
5.012642988786785
 30
0.0
 11
29.30199999996933
 21
6.452642988786707
 31
0.0
  0
LINE
  5
E4C9
330
E47D
100
AcDbEntity
  8
0
  6
CONTINUOUS
100
AcDbLine
 10
30.74199999996925
 20
5.68616219786697
 30
0.0
 11
29.30199999996933
 21
7.126162197866894
 31
0.0
  0
LINE
  5
E4CA
330
E47D
100
AcDbEntity
  8
0
  6
CONTINUOUS
100
AcDbLine
 10
30.74199999996925
 20
6.359681406947153
 30
0.0
 11
29.30199999996933
 21
7.799681406947081
 31
0.0
  0
LINE
  5
E4CB
330
E47D
100
AcDbEntity
  8
0
  6
CONTINUOUS
100
AcDbLine
 10
30.74199999996926
 20
7.033200616027337
 30
0.0
 11
29.30199999996933
 21
8.473200616027269
 31
0.0
  0
LINE
  5
E4CC
330
E47D
100
AcDbEntity
  8
0
  6
CONTINUOUS
100
AcDbLine
 10
30.74199999996926
 20
7.706719825107518
 30
0.0
 11
29.68561982508552
 21
8.763099999991255
 31
0.0
  0
LINE
  5
E4CD
330
E47D
100
AcDbEntity
  8
0
  6
CONTINUOUS
100
AcDbLine
 10
30.74199999996926
 20
8.380239034187703
 30
0.0
 11
30.35913903416571
 21
8.763099999991255
 31
0.0
  0
ENDBLK
  5
E570
330
E47D
100
AcDbEntity
  8
0
100
AcDbBlockEnd
  0
BLOCK
  5
E571
330
E4CE
100
AcDbEntity
  8
0
100
AcDbBlockBegin
  2
*X24
 70
     1
 10
0.0
 20
0.0
 30
0.0
  3
*X24
  1

  0
LINE
  5
E4CF
330
E4CE
100
AcDbEntity
  8
0
  6
CONTINUOUS
100
AcDbLine
 10
31.64199999996833
 20
8.535058289913598
 30
0.0
 11
31.87004171004599
 21
8.763099999991255
 31
0.0
  0
LINE
  5
E4D0
330
E4CE
100
AcDbEntity
  8
0
  6
CONTINUOUS
100
AcDbLine
 10
31.64199999996833
 20
7.861539080833412
 30
0.0
 11
32.54356091912618
 21
8.763099999991255
 31
0.0
  0
LINE
  5
E4D1
330
E4CE
100
AcDbEntity
  8
0
  6
CONTINUOUS
100
AcDbLine
 10
31.64199999996833
 20
7.188019871753226
 30
0.0
 11
33.08199999996839
 21
8.628019871753281
 31
0.0
  0
LINE
  5
E4D2
330
E4CE
100
AcDbEntity
  8
0
  6
CONTINUOUS
100
AcDbLine
 10
31.64199999996833
 20
6.51450066267304
 30
0.0
 11
33.08199999996839
 21
7.954500662673095
 31
0.0
  0
LINE
  5
E4D3
330
E4CE
100
AcDbEntity
  8
0
  6
CONTINUOUS
100
AcDbLine
 10
31.64199999996833
 20
5.840981453592853
 30
0.0
 11
33.08199999996839
 21
7.280981453592908
 31
0.0
  0
LINE
  5
E4D4
330
E4CE
100
AcDbEntity
  8
0
  6
CONTINUOUS
100
AcDbLine
 10
31.64199999996833
 20
5.167462244512667
 30
0.0
 11
33.08199999996839
 21
6.607462244512721
 31
0.0
  0
LINE
  5
E4D5
330
E4CE
100
AcDbEntity
  8
0
  6
CONTINUOUS
100
AcDbLine
 10
31.64199999996833
 20
4.493943035432481
 30
0.0
 11
33.08199999996839
 21
5.933943035432535
 31
0.0
  0
LINE
  5
E4D6
330
E4CE
100
AcDbEntity
  8
0
  6
CONTINUOUS
100
AcDbLine
 10
31.64199999996833
 20
3.820423826352293
 30
0.0
 11
33.08199999996839
 21
5.260423826352348
 31
0.0
  0
LINE
  5
E4D7
330
E4CE
100
AcDbEntity
  8
0
  6
CONTINUOUS
100
AcDbLine
 10
31.64199999996833
 20
3.146904617272106
 30
0.0
 11
33.08199999996839
 21
4.586904617272161
 31
0.0
  0
LINE
  5
E4D8
330
E4CE
100
AcDbEntity
  8
0
  6
CONTINUOUS
100
AcDbLine
 10
36.23199999996837
 20
8.410423826352325
 30
0.0
 11
36.5846761736073
 21
8.763099999991255
 31
0.0
  0
LINE
  5
E4D9
330
E4CE
100
AcDbEntity
  8
0
  6
CONTINUOUS
100
AcDbLine
 10
36.23199999996837
 20
7.73690461727214
 30
0.0
 11
37.25819538268748
 21
8.763099999991255
 31
0.0
  0
LINE
  5
E4DA
330
E4CE
100
AcDbEntity
  8
0
  6
CONTINUOUS
100
AcDbLine
 10
31.64257403601376
 20
2.473959444237348
 30
0.0
 11
33.08199999996839
 21
3.913385408191974
 31
0.0
  0
LINE
  5
E4DB
330
E4CE
100
AcDbEntity
  8
0
  6
CONTINUOUS
100
AcDbLine
 10
36.23199999996837
 20
7.063385408191953
 30
0.0
 11
37.67199999996831
 21
8.503385408191894
 31
0.0
  0
LINE
  5
E4DC
330
E4CE
100
AcDbEntity
  8
0
  6
CONTINUOUS
100
AcDbLine
 10
31.72013636841932
 20
1.87800256756272
 30
0.0
 11
33.08199999996839
 21
3.239866199111788
 31
0.0
  0
LINE
  5
E4DD
330
E4CE
100
AcDbEntity
  8
0
  6
CONTINUOUS
100
AcDbLine
 10
36.23199999996837
 20
6.389866199111767
 30
0.0
 11
37.67199999996831
 21
7.829866199111708
 31
0.0
  0
LINE
  5
E4DE
330
E4CE
100
AcDbEntity
  8
0
  6
CONTINUOUS
100
AcDbLine
 10
31.89042734314753
 20
1.374774333210744
 30
0.0
 11
33.08199999996839
 21
2.566346990031601
 31
0.0
  0
LINE
  5
E4DF
330
E4CE
100
AcDbEntity
  8
0
  6
CONTINUOUS
100
AcDbLine
 10
36.23199999996837
 20
5.71634699003158
 30
0.0
 11
37.67199999996831
 21
7.156346990031521
 31
0.0
  0
LINE
  5
E4E0
330
E4CE
100
AcDbEntity
  8
0
  6
CONTINUOUS
100
AcDbLine
 10
32.14210568064475
 20
0.952933461627778
 30
0.0
 11
33.18745552475986
 21
1.998283305742888
 31
0.0
  0
LINE
  5
E4E1
330
E4CE
100
AcDbEntity
  8
0
  6
CONTINUOUS
100
AcDbLine
 10
36.23199999996837
 20
5.042827780951393
 30
0.0
 11
37.67199999996831
 21
6.482827780951334
 31
0.0
  0
LINE
  5
E4E2
330
E4CE
100
AcDbEntity
  8
0
  6
CONTINUOUS
100
AcDbLine
 10
32.45820639400955
 20
0.5955149659123915
 30
0.0
 11
33.47242681921943
 21
1.60973539112227
 31
0.0
  0
LINE
  5
E4E3
330
E4CE
100
AcDbEntity
  8
0
  6
CONTINUOUS
100
AcDbLine
 10
36.23199999996837
 20
4.369308571871207
 30
0.0
 11
37.67199999996831
 21
5.809308571871147
 31
0.0
  0
LINE
  5
E4E4
330
E4CE
100
AcDbEntity
  8
0
  6
CONTINUOUS
100
AcDbLine
 10
32.83432456621412
 20
0.2981139290367771
 30
0.0
 11
33.89722476612215
 21
1.361014128944803
 31
0.0
  0
LINE
  5
E4E5
330
E4CE
100
AcDbEntity
  8
0
  6
CONTINUOUS
100
AcDbLine
 10
36.23199999996837
 20
3.69578936279102
 30
0.0
 11
37.67199999996831
 21
5.135789362790962
 31
0.0
  0
LINE
  5
E4E6
330
E4CE
100
AcDbEntity
  8
0
  6
CONTINUOUS
100
AcDbLine
 10
33.2711633111245
 20
0.0614334648669672
 30
0.0
 11
34.43247338014423
 21
1.222743533886696
 31
0.0
  0
LINE
  5
E4E7
330
E4CE
100
AcDbEntity
  8
0
  6
CONTINUOUS
100
AcDbLine
 10
36.23199999996837
 20
3.022270153710834
 30
0.0
 11
37.67199999996831
 21
4.462270153710775
 31
0.0
  0
LINE
  5
E4E8
330
E4CE
100
AcDbEntity
  8
0
  6
CONTINUOUS
100
AcDbLine
 10
33.76515245874577
 20
-0.1180965965919523
 30
0.0
 11
35.1587445516215
 21
1.27549549628378
 31
0.0
  0
LINE
  5
E4E9
330
E4CE
100
AcDbEntity
  8
0
  6
CONTINUOUS
100
AcDbLine
 10
36.21639478609585
 20
2.333145730758136
 30
0.0
 11
37.67199999996831
 21
3.788750944630588
 31
0.0
  0
LINE
  5
E4EA
330
E4CE
100
AcDbEntity
  8
0
  6
CONTINUOUS
100
AcDbLine
 10
34.34060583368432
 20
-0.2161624307335863
 30
0.0
 11
37.67199999996831
 21
3.115231735550401
 31
0.0
  0
LINE
  5
E4EB
330
E4CE
100
AcDbEntity
  8
0
  6
CONTINUOUS
100
AcDbLine
 10
35.01698193613905
 20
-0.2133055373590427
 30
0.0
 11
37.66876712070525
 21
2.438479647207154
 31
0.0
  0
LINE
  5
E4EC
330
E4CE
100
AcDbEntity
  8
0
  6
CONTINUOUS
100
AcDbLine
 10
35.90743367693304
 20
0.0036269943547609
 30
0.0
 11
37.51723902192366
 21
1.613432339345381
 31
0.0
  0
LINE
  5
E4ED
330
E4CE
100
AcDbEntity
  8
0
  6
CONTINUOUS
100
AcDbLine
 10
32.55309425579761
 20
0.5074718966376706
 30
0.0
 11
32.27784730925847
 21
0.7827188431768102
 31
0.0
  0
LINE
  5
E4EE
330
E4CE
100
AcDbEntity
  8
0
  6
CONTINUOUS
100
AcDbLine
 10
33.87496468909684
 20
-0.1408793275813673
 30
0.0
 11
31.67993083278052
 21
2.054154528734943
 31
0.0
  0
LINE
  5
E4EF
330
E4CE
100
AcDbEntity
  8
0
  6
CONTINUOUS
100
AcDbLine
 10
34.64362813207632
 20
-0.2360235614806649
 30
0.0
 11
31.64199999996833
 21
2.765604570627322
 31
0.0
  0
LINE
  5
E4F0
330
E4CE
100
AcDbEntity
  8
0
  6
CONTINUOUS
100
AcDbLine
 10
35.25801106796118
 20
-0.1768872882853429
 30
0.0
 11
31.64199999996833
 21
3.439123779707508
 31
0.0
  0
LINE
  5
E4F1
330
E4CE
100
AcDbEntity
  8
0
  6
CONTINUOUS
100
AcDbLine
 10
35.79065650332146
 20
-0.0360135145654361
 30
0.0
 11
34.54143210838231
 21
1.213210880373721
 31
0.0
  0
LINE
  5
E4F2
330
E4CE
100
AcDbEntity
  8
0
  6
CONTINUOUS
100
AcDbLine
 10
33.08199999996839
 20
2.67264298878764
 30
0.0
 11
31.64199999996833
 21
4.112642988787695
 31
0.0
  0
LINE
  5
E4F3
330
E4CE
100
AcDbEntity
  8
0
  6
CONTINUOUS
100
AcDbLine
 10
36.25975597779143
 20
0.1684062200447833
 30
0.0
 11
35.15395110240023
 21
1.274211095435983
 31
0.0
  0
LINE
  5
E4F4
330
E4CE
100
AcDbEntity
  8
0
  6
CONTINUOUS
100
AcDbLine
 10
33.08199999996839
 20
3.346162197867826
 30
0.0
 11
31.64199999996833
 21
4.786162197867881
 31
0.0
  0
LINE
  5
E4F5
330
E4CE
100
AcDbEntity
  8
0
  6
CONTINUOUS
100
AcDbLine
 10
36.67226329638774
 20
0.4294181105286579
 30
0.0
 11
35.63766478748767
 21
1.464016619428737
 31
0.0
  0
LINE
  5
E4F6
330
E4CE
100
AcDbEntity
  8
0
  6
CONTINUOUS
100
AcDbLine
 10
33.08199999996839
 20
4.019681406948012
 30
0.0
 11
31.64199999996833
 21
5.459681406948068
 31
0.0
  0
LINE
  5
E4F7
330
E4CE
100
AcDbEntity
  8
0
  6
CONTINUOUS
100
AcDbLine
 10
37.01677749710036
 20
0.7584231188962329
 30
0.0
 11
35.99563422741351
 21
1.779566388583076
 31
0.0
  0
LINE
  5
E4F8
330
E4CE
100
AcDbEntity
  8
0
  6
CONTINUOUS
100
AcDbLine
 10
33.08199999996839
 20
4.693200616028199
 30
0.0
 11
31.64199999996833
 21
6.133200616028255
 31
0.0
  0
LINE
  5
E4F9
330
E4CE
100
AcDbEntity
  8
0
  6
CONTINUOUS
100
AcDbLine
 10
37.29859977568887
 20
1.1501200493879
 30
0.0
 11
36.20680593341555
 21
2.241913891661226
 31
0.0
  0
LINE
  5
E4FA
330
E4CE
100
AcDbEntity
  8
0
  6
CONTINUOUS
100
AcDbLine
 10
33.08199999996839
 20
5.366719825108386
 30
0.0
 11
31.64199999996833
 21
6.80671982510844
 31
0.0
  0
LINE
  5
E4FB
330
E4CE
100
AcDbEntity
  8
0
  6
CONTINUOUS
100
AcDbLine
 10
37.5148623517228
 20
1.607376682434161
 30
0.0
 11
36.23199999996837
 21
2.890239034188594
 31
0.0
  0
LINE
  5
E4FC
330
E4CE
100
AcDbEntity
  8
0
  6
CONTINUOUS
100
AcDbLine
 10
33.08199999996839
 20
6.040239034188573
 30
0.0
 11
31.64199999996833
 21
7.480239034188627
 31
0.0
  0
LINE
  5
E4FD
330
E4CE
100
AcDbEntity
  8
0
  6
CONTINUOUS
100
AcDbLine
 10
37.64705163358367
 20
2.148706609653477
 30
0.0
 11
36.23199999996837
 21
3.56375824326878
 31
0.0
  0
LINE
  5
E4FE
330
E4CE
100
AcDbEntity
  8
0
  6
CONTINUOUS
100
AcDbLine
 10
33.08199999996839
 20
6.713758243268758
 30
0.0
 11
31.64199999996833
 21
8.153758243268815
 31
0.0
  0
LINE
  5
E4FF
330
E4CE
100
AcDbEntity
  8
0
  6
CONTINUOUS
100
AcDbLine
 10
37.67199999996831
 20
2.797277452349026
 30
0.0
 11
36.23199999996837
 21
4.237277452348967
 31
0.0
  0
LINE
  5
E500
330
E4CE
100
AcDbEntity
  8
0
  6
CONTINUOUS
100
AcDbLine
 10
37.67199999996831
 20
3.470796661429213
 30
0.0
 11
36.23199999996837
 21
4.910796661429154
 31
0.0
  0
LINE
  5
E501
330
E4CE
100
AcDbEntity
  8
0
  6
CONTINUOUS
100
AcDbLine
 10
37.67199999996831
 20
4.144315870509399
 30
0.0
 11
36.23199999996837
 21
5.58431587050934
 31
0.0
  0
LINE
  5
E502
330
E4CE
100
AcDbEntity
  8
0
  6
CONTINUOUS
100
AcDbLine
 10
33.08199999996839
 20
7.387277452348945
 30
0.0
 11
31.70617745232608
 21
8.763099999991255
 31
0.0
  0
LINE
  5
E503
330
E4CE
100
AcDbEntity
  8
0
  6
CONTINUOUS
100
AcDbLine
 10
33.08199999996839
 20
8.060796661429132
 30
0.0
 11
32.37969666140626
 21
8.763099999991255
 31
0.0
  0
LINE
  5
E504
330
E4CE
100
AcDbEntity
  8
0
  6
CONTINUOUS
100
AcDbLine
 10
33.08199999996839
 20
8.734315870509318
 30
0.0
 11
33.05321587048645
 21
8.763099999991255
 31
0.0
  0
LINE
  5
E505
330
E4CE
100
AcDbEntity
  8
0
  6
CONTINUOUS
100
AcDbLine
 10
37.67199999996831
 20
4.817835079589585
 30
0.0
 11
36.23199999996837
 21
6.257835079589526
 31
0.0
  0
LINE
  5
E506
330
E4CE
100
AcDbEntity
  8
0
  6
CONTINUOUS
100
AcDbLine
 10
37.67199999996831
 20
5.491354288669771
 30
0.0
 11
36.23199999996837
 21
6.931354288669713
 31
0.0
  0
LINE
  5
E507
330
E4CE
100
AcDbEntity
  8
0
  6
CONTINUOUS
100
AcDbLine
 10
37.67199999996831
 20
6.164873497749958
 30
0.0
 11
36.23199999996837
 21
7.6048734977499
 31
0.0
  0
LINE
  5
E508
330
E4CE
100
AcDbEntity
  8
0
  6
CONTINUOUS
100
AcDbLine
 10
37.67199999996831
 20
6.838392706830144
 30
0.0
 11
36.23199999996837
 21
8.278392706830086
 31
0.0
  0
LINE
  5
E509
330
E4CE
100
AcDbEntity
  8
0
  6
CONTINUOUS
100
AcDbLine
 10
37.67199999996831
 20
7.511911915910332
 30
0.0
 11
36.42081191588738
 21
8.763099999991255
 31
0.0
  0
LINE
  5
E50A
330
E4CE
100
AcDbEntity
  8
0
  6
CONTINUOUS
100
AcDbLine
 10
37.67199999996831
 20
8.185431124990519
 30
0.0
 11
37.09433112496757
 21
8.763099999991255
 31
0.0
  0
ENDBLK
  5
E572
330
E4CE
100
AcDbEntity
  8
0
100
AcDbBlockEnd
  0
BLOCK
  5
E573
330
E50B
100
AcDbEntity
  8
0
100
AcDbBlockBegin
  2
*X25
 70
     1
 10
0.0
 20
0.0
 30
0.0
  3
*X25
  1

  0
LINE
  5
E50C
330
E50B
100
AcDbEntity
  8
0
  6
CONTINUOUS
100
AcDbLine
 10
38.60499999996136
 20
8.762866199104765
 30
0.0
 11
38.71672554182345
 21
8.874591740966855
 31
0.0
  0
LINE
  5
E50D
330
E50B
100
AcDbEntity
  8
0
  6
CONTINUOUS
100
AcDbLine
 10
38.60499999996136
 20
8.089346990024577
 30
0.0
 11
39.03418785440363
 21
8.518534844466847
 31
0.0
  0
LINE
  5
E50E
330
E50B
100
AcDbEntity
  8
0
  6
CONTINUOUS
100
AcDbLine
 10
38.60499999996136
 20
7.41582778094439
 30
0.0
 11
39.35165016698382
 21
8.16247794796684
 31
0.0
  0
LINE
  5
E50F
330
E50B
100
AcDbEntity
  8
0
  6
CONTINUOUS
100
AcDbLine
 10
38.60499999996136
 20
6.742308571864204
 30
0.0
 11
39.66911247956399
 21
7.806421051466834
 31
0.0
  0
LINE
  5
E510
330
E50B
100
AcDbEntity
  8
0
  6
CONTINUOUS
100
AcDbLine
 10
38.60499999996136
 20
6.068789362784018
 30
0.0
 11
39.98657479214418
 21
7.450364154966827
 31
0.0
  0
LINE
  5
E511
330
E50B
100
AcDbEntity
  8
0
  6
CONTINUOUS
100
AcDbLine
 10
38.60499999996136
 20
5.395270153703832
 30
0.0
 11
40.30403710472435
 21
7.09430725846682
 31
0.0
  0
LINE
  5
E512
330
E50B
100
AcDbEntity
  8
0
  6
CONTINUOUS
100
AcDbLine
 10
38.60499999996136
 20
4.721750944623645
 30
0.0
 11
40.62149941730453
 21
6.738250361966813
 31
0.0
  0
LINE
  5
E513
330
E50B
100
AcDbEntity
  8
0
  6
CONTINUOUS
100
AcDbLine
 10
38.60499999996136
 20
4.048231735543458
 30
0.0
 11
40.93896172988471
 21
6.382193465466806
 31
0.0
  0
LINE
  5
E514
330
E50B
100
AcDbEntity
  8
0
  6
CONTINUOUS
100
AcDbLine
 10
38.60499999996136
 20
3.374712526463272
 30
0.0
 11
40.02599999995994
 21
4.795712526461843
 31
0.0
  0
LINE
  5
E515
330
E50B
100
AcDbEntity
  8
0
  6
CONTINUOUS
100
AcDbLine
 10
38.60499999996136
 20
2.701193317383085
 30
0.0
 11
40.02599999995994
 21
4.122193317381657
 31
0.0
  0
LINE
  5
E516
330
E50B
100
AcDbEntity
  8
0
  6
CONTINUOUS
100
AcDbLine
 10
40.28339754687704
 20
5.053110073378947
 30
0.0
 11
41.25642404246489
 21
6.026136568966799
 31
0.0
  0
LINE
  5
E517
330
E50B
100
AcDbEntity
  8
0
  6
CONTINUOUS
100
AcDbLine
 10
40.60085985945722
 20
4.697053176878939
 30
0.0
 11
41.57388635504507
 21
5.670079672466793
 31
0.0
  0
LINE
  5
E518
330
E50B
100
AcDbEntity
  8
0
  6
CONTINUOUS
100
AcDbLine
 10
43.57899999995641
 20
8.348712526458318
 30
0.0
 11
43.99338747348935
 21
8.763099999991255
 31
0.0
  0
LINE
  5
E519
330
E50B
100
AcDbEntity
  8
0
  6
CONTINUOUS
100
AcDbLine
 10
43.57899999995641
 20
7.675193317378131
 30
0.0
 11
44.66690668256953
 21
8.763099999991255
 31
0.0
  0
LINE
  5
E51A
330
E50B
100
AcDbEntity
  8
0
  6
CONTINUOUS
100
AcDbLine
 10
38.60499999996136
 20
2.027674108302898
 30
0.0
 11
40.02599999995994
 21
3.44867410830147
 31
0.0
  0
LINE
  5
E51B
330
E50B
100
AcDbEntity
  8
0
  6
CONTINUOUS
100
AcDbLine
 10
38.60499999996136
 20
1.354154899222712
 30
0.0
 11
40.02599999995994
 21
2.775154899221284
 31
0.0
  0
LINE
  5
E51C
330
E50B
100
AcDbEntity
  8
0
  6
CONTINUOUS
100
AcDbLine
 10
38.60499999996136
 20
0.6806356901425255
 30
0.0
 11
40.02599999995994
 21
2.101635690141098
 31
0.0
  0
LINE
  5
E51D
330
E50B
100
AcDbEntity
  8
0
  6
CONTINUOUS
100
AcDbLine
 10
38.60499999996136
 20
0.0071164810623383
 30
0.0
 11
40.02599999995994
 21
1.428116481060911
 31
0.0
  0
LINE
  5
E51E
330
E50B
100
AcDbEntity
  8
0
  6
CONTINUOUS
100
AcDbLine
 10
40.9183221720374
 20
4.340996280378933
 30
0.0
 11
41.89134866762525
 21
5.314022775966786
 31
0.0
  0
LINE
  5
E51F
330
E50B
100
AcDbEntity
  8
0
  6
CONTINUOUS
100
AcDbLine
 10
41.23578448461758
 20
3.984939383878926
 30
0.0
 11
42.20881098020543
 21
4.957965879466778
 31
0.0
  0
LINE
  5
E520
330
E50B
100
AcDbEntity
  8
0
  6
CONTINUOUS
100
AcDbLine
 10
41.55324679719776
 20
3.628882487378919
 30
0.0
 11
42.52627329278561
 21
4.601908982966772
 31
0.0
  0
LINE
  5
E521
330
E50B
100
AcDbEntity
  8
0
  6
CONTINUOUS
100
AcDbLine
 10
41.87070910977793
 20
3.272825590878912
 30
0.0
 11
42.84373560536579
 21
4.245852086466765
 31
0.0
  0
LINE
  5
E522
330
E50B
100
AcDbEntity
  8
0
  6
CONTINUOUS
100
AcDbLine
 10
43.57899999995641
 20
7.001674108297943
 30
0.0
 11
44.99999999995498
 21
8.422674108296516
 31
0.0
  0
LINE
  5
E523
330
E50B
100
AcDbEntity
  8
0
  6
CONTINUOUS
100
AcDbLine
 10
43.57899999995641
 20
6.328154899217758
 30
0.0
 11
44.99999999995498
 21
7.749154899216329
 31
0.0
  0
LINE
  5
E524
330
E50B
100
AcDbEntity
  8
0
  6
CONTINUOUS
100
AcDbLine
 10
43.57899999995641
 20
5.654635690137571
 30
0.0
 11
44.99999999995498
 21
7.075635690136142
 31
0.0
  0
LINE
  5
E525
330
E50B
100
AcDbEntity
  8
0
  6
CONTINUOUS
100
AcDbLine
 10
43.57899999995641
 20
4.981116481057384
 30
0.0
 11
44.99999999995498
 21
6.402116481055955
 31
0.0
  0
LINE
  5
E526
330
E50B
100
AcDbEntity
  8
0
  6
CONTINUOUS
100
AcDbLine
 10
39.27140272797921
 20
-0.0000000000000009
 30
0.0
 11
40.02599999995994
 21
0.7545972719807246
 31
0.0
  0
LINE
  5
E527
330
E50B
100
AcDbEntity
  8
0
  6
CONTINUOUS
100
AcDbLine
 10
39.9449219370594
 20
-0.0000000000000009
 30
0.0
 11
40.02599999995994
 21
0.0810780629005379
 31
0.0
  0
LINE
  5
E528
330
E50B
100
AcDbEntity
  8
0
  6
CONTINUOUS
100
AcDbLine
 10
42.18817142235812
 20
2.916768694378905
 30
0.0
 11
43.16119791794597
 21
3.889795189966758
 31
0.0
  0
LINE
  5
E529
330
E50B
100
AcDbEntity
  8
0
  6
CONTINUOUS
100
AcDbLine
 10
42.50563373493829
 20
2.560711797878898
 30
0.0
 11
43.47866023052615
 21
3.533738293466751
 31
0.0
  0
LINE
  5
E52A
330
E50B
100
AcDbEntity
  8
0
  6
CONTINUOUS
100
AcDbLine
 10
43.57899999995641
 20
4.307597271977198
 30
0.0
 11
44.99999999995498
 21
5.728597271975769
 31
0.0
  0
LINE
  5
E52B
330
E50B
100
AcDbEntity
  8
0
  6
CONTINUOUS
100
AcDbLine
 10
43.57899999995641
 20
3.634078062897011
 30
0.0
 11
44.99999999995498
 21
5.055078062895582
 31
0.0
  0
LINE
  5
E52C
330
E50B
100
AcDbEntity
  8
0
  6
CONTINUOUS
100
AcDbLine
 10
42.82309604751848
 20
2.204654901378891
 30
0.0
 11
44.99999999995498
 21
4.381558853815395
 31
0.0
  0
LINE
  5
E52D
330
E50B
100
AcDbEntity
  8
0
  6
CONTINUOUS
100
AcDbLine
 10
43.14055836009865
 20
1.848598004878885
 30
0.0
 11
44.99999999995498
 21
3.70803964473521
 31
0.0
  0
LINE
  5
E52E
330
E50B
100
AcDbEntity
  8
0
  6
CONTINUOUS
100
AcDbLine
 10
43.45802067267883
 20
1.492541108378878
 30
0.0
 11
44.99999999995498
 21
3.034520435655023
 31
0.0
  0
LINE
  5
E52F
330
E50B
100
AcDbEntity
  8
0
  6
CONTINUOUS
100
AcDbLine
 10
43.77548298525902
 20
1.136484211878871
 30
0.0
 11
44.99999999995498
 21
2.361001226574837
 31
0.0
  0
LINE
  5
E530
330
E50B
100
AcDbEntity
  8
0
  6
CONTINUOUS
100
AcDbLine
 10
44.09294529783919
 20
0.7804273153788639
 30
0.0
 11
44.99999999995498
 21
1.687482017494649
 31
0.0
  0
LINE
  5
E531
330
E50B
100
AcDbEntity
  8
0
  6
CONTINUOUS
100
AcDbLine
 10
44.41040761041938
 20
0.4243704188788566
 30
0.0
 11
44.99999999995498
 21
1.013962808414463
 31
0.0
  0
LINE
  5
E532
330
E50B
100
AcDbEntity
  8
0
  6
CONTINUOUS
100
AcDbLine
 10
44.72786992299955
 20
0.0683135223788494
 30
0.0
 11
44.99999999995498
 21
0.340443599334276
 31
0.0
  0
LINE
  5
E533
330
E50B
100
AcDbEntity
  8
0
  6
CONTINUOUS
100
AcDbLine
 10
39.12223903415696
 20
-0.0000000000000009
 30
0.0
 11
38.60499999996136
 21
0.5172390341955961
 31
0.0
  0
LINE
  5
E534
330
E50B
100
AcDbEntity
  8
0
  6
CONTINUOUS
100
AcDbLine
 10
39.79575824323715
 20
-0.0000000000000009
 30
0.0
 11
38.60499999996136
 21
1.190758243275783
 31
0.0
  0
LINE
  5
E535
330
E50B
100
AcDbEntity
  8
0
  6
CONTINUOUS
100
AcDbLine
 10
40.02599999995994
 20
0.443277452357397
 30
0.0
 11
38.60499999996136
 21
1.864277452355969
 31
0.0
  0
LINE
  5
E536
330
E50B
100
AcDbEntity
  8
0
  6
CONTINUOUS
100
AcDbLine
 10
40.02599999995994
 20
1.116796661437583
 30
0.0
 11
38.60499999996136
 21
2.537796661436155
 31
0.0
  0
LINE
  5
E537
330
E50B
100
AcDbEntity
  8
0
  6
CONTINUOUS
100
AcDbLine
 10
40.02599999995994
 20
1.79031587051777
 30
0.0
 11
38.60499999996136
 21
3.211315870516341
 31
0.0
  0
LINE
  5
E538
330
E50B
100
AcDbEntity
  8
0
  6
CONTINUOUS
100
AcDbLine
 10
40.02599999995994
 20
2.463835079597956
 30
0.0
 11
38.60499999996136
 21
3.884835079596527
 31
0.0
  0
LINE
  5
E539
330
E50B
100
AcDbEntity
  8
0
  6
CONTINUOUS
100
AcDbLine
 10
40.02599999995994
 20
3.137354288678143
 30
0.0
 11
38.60499999996136
 21
4.558354288676714
 31
0.0
  0
LINE
  5
E53A
330
E50B
100
AcDbEntity
  8
0
  6
CONTINUOUS
100
AcDbLine
 10
40.02599999995994
 20
3.810873497758329
 30
0.0
 11
38.60499999996136
 21
5.2318734977569
 31
0.0
  0
LINE
  5
E53B
330
E50B
100
AcDbEntity
  8
0
  6
CONTINUOUS
100
AcDbLine
 10
40.02599999995994
 20
4.484392706838515
 30
0.0
 11
38.60499999996136
 21
5.905392706837086
 31
0.0
  0
LINE
  5
E53C
330
E50B
100
AcDbEntity
  8
0
  6
CONTINUOUS
100
AcDbLine
 10
44.99999999995498
 20
0.183911915923658
 30
0.0
 11
41.53858364506288
 21
3.64532827081576
 31
0.0
  0
LINE
  5
E53D
330
E50B
100
AcDbEntity
  8
0
  6
CONTINUOUS
100
AcDbLine
 10
40.02599999995994
 20
5.157911915918703
 30
0.0
 11
38.60499999996136
 21
6.578911915917274
 31
0.0
  0
LINE
  5
E53E
330
E50B
100
AcDbEntity
  8
0
  6
CONTINUOUS
100
AcDbLine
 10
44.99999999995498
 20
0.8574311250038447
 30
0.0
 11
38.60499999996136
 21
7.25243112499746
 31
0.0
  0
LINE
  5
E53F
330
E50B
100
AcDbEntity
  8
0
  6
CONTINUOUS
100
AcDbLine
 10
44.99999999995498
 20
1.530950334084031
 30
0.0
 11
38.60499999996136
 21
7.925950334077647
 31
0.0
  0
LINE
  5
E540
330
E50B
100
AcDbEntity
  8
0
  6
CONTINUOUS
100
AcDbLine
 10
44.99999999995498
 20
2.204469543164218
 30
0.0
 11
43.57899999995641
 21
3.625469543162789
 31
0.0
  0
LINE
  5
E541
330
E50B
100
AcDbEntity
  8
0
  6
CONTINUOUS
100
AcDbLine
 10
41.89876730984767
 20
5.305702233271528
 30
0.0
 11
38.60499999996136
 21
8.599469543157834
 31
0.0
  0
LINE
  5
E542
330
E50B
100
AcDbEntity
  8
0
  6
CONTINUOUS
100
AcDbLine
 10
44.99999999995498
 20
2.877988752244405
 30
0.0
 11
43.57899999995641
 21
4.298988752242975
 31
0.0
  0
LINE
  5
E543
330
E50B
100
AcDbEntity
  8
0
  6
CONTINUOUS
100
AcDbLine
 10
44.99999999995498
 20
3.551507961324591
 30
0.0
 11
43.57899999995641
 21
4.972507961323163
 31
0.0
  0
LINE
  5
E544
330
E50B
100
AcDbEntity
  8
0
  6
CONTINUOUS
100
AcDbLine
 10
44.99999999995498
 20
4.225027170404777
 30
0.0
 11
43.57899999995641
 21
5.646027170403348
 31
0.0
  0
LINE
  5
E545
330
E50B
100
AcDbEntity
  8
0
  6
CONTINUOUS
100
AcDbLine
 10
44.99999999995498
 20
4.898546379484964
 30
0.0
 11
43.57899999995641
 21
6.319546379483535
 31
0.0
  0
LINE
  5
E546
330
E50B
100
AcDbEntity
  8
0
  6
CONTINUOUS
100
AcDbLine
 10
44.99999999995498
 20
5.572065588565151
 30
0.0
 11
43.57899999995641
 21
6.993065588563722
 31
0.0
  0
LINE
  5
E547
330
E50B
100
AcDbEntity
  8
0
  6
CONTINUOUS
100
AcDbLine
 10
44.99999999995498
 20
6.245584797645336
 30
0.0
 11
43.57899999995641
 21
7.666584797643908
 31
0.0
  0
LINE
  5
E548
330
E50B
100
AcDbEntity
  8
0
  6
CONTINUOUS
100
AcDbLine
 10
44.99999999995498
 20
6.919104006725522
 30
0.0
 11
43.57899999995641
 21
8.340104006724093
 31
0.0
  0
LINE
  5
E549
330
E50B
100
AcDbEntity
  8
0
  6
CONTINUOUS
100
AcDbLine
 10
44.99999999995498
 20
7.592623215805709
 30
0.0
 11
43.82952321576943
 21
8.763099999991255
 31
0.0
  0
LINE
  5
E54A
330
E50B
100
AcDbEntity
  8
0
  6
CONTINUOUS
100
AcDbLine
 10
44.99999999995498
 20
8.266142424885896
 30
0.0
 11
44.50304242484962
 21
8.763099999991255
 31
0.0
  0
ENDBLK
  5
E574
330
E50B
100
AcDbEntity
  8
0
100
AcDbBlockEnd
  0
BLOCK
  5
E575
330
E54B
100
AcDbEntity
  8
0
100
AcDbBlockBegin
  2
*X26
 70
     1
 10
0.0
 20
0.0
 30
0.0
  3
*X26
  1

  0
LINE
  5
E54C
330
E54B
100
AcDbEntity
  8
0
  6
CONTINUOUS
100
AcDbLine
 10
0.0
 20
8.548461116714023
 30
0.0
 11
0.2146388832772324
 21
8.763099999991255
 31
0.0
  0
LINE
  5
E54D
330
E54B
100
AcDbEntity
  8
0
  6
CONTINUOUS
100
AcDbLine
 10
-0.0000000000000002
 20
7.874941907633837
 30
0.0
 11
0.8881580923574184
 21
8.763099999991255
 31
0.0
  0
LINE
  5
E54E
330
E54B
100
AcDbEntity
  8
0
  6
CONTINUOUS
100
AcDbLine
 10
0.0
 20
7.20142269855365
 30
0.0
 11
1.420999999998572
 21
8.622422698552223
 31
0.0
  0
LINE
  5
E54F
330
E54B
100
AcDbEntity
  8
0
  6
CONTINUOUS
100
AcDbLine
 10
-0.0000000000000001
 20
6.527903489473465
 30
0.0
 11
1.420999999998571
 21
7.948903489472036
 31
0.0
  0
LINE
  5
E550
330
E54B
100
AcDbEntity
  8
0
  6
CONTINUOUS
100
AcDbLine
 10
-0.0000000000000002
 20
5.854384280393278
 30
0.0
 11
1.420999999998571
 21
7.275384280391849
 31
0.0
  0
LINE
  5
E551
330
E54B
100
AcDbEntity
  8
0
  6
CONTINUOUS
100
AcDbLine
 10
-0.0000000000000002
 20
5.180865071313091
 30
0.0
 11
1.420999999998571
 21
6.601865071311663
 31
0.0
  0
LINE
  5
E552
330
E54B
100
AcDbEntity
  8
0
  6
CONTINUOUS
100
AcDbLine
 10
0.0
 20
4.507345862232905
 30
0.0
 11
1.420999999998571
 21
5.928345862231477
 31
0.0
  0
LINE
  5
E553
330
E54B
100
AcDbEntity
  8
0
  6
CONTINUOUS
100
AcDbLine
 10
-0.0000000000000003
 20
3.833826653152718
 30
0.0
 11
1.420999999998571
 21
5.25482665315129
 31
0.0
  0
LINE
  5
E554
330
E54B
100
AcDbEntity
  8
0
  6
CONTINUOUS
100
AcDbLine
 10
-0.0000000000000002
 20
3.160307444072532
 30
0.0
 11
1.420999999998571
 21
4.581307444071103
 31
0.0
  0
LINE
  5
E555
330
E54B
100
AcDbEntity
  8
0
  6
CONTINUOUS
100
AcDbLine
 10
-0.0000000000000001
 20
2.486788234992345
 30
0.0
 11
1.420999999998571
 21
3.907788234990917
 31
0.0
  0
LINE
  5
E556
330
E54B
100
AcDbEntity
  8
0
  6
CONTINUOUS
100
AcDbLine
 10
-0.0000000000000006
 20
1.813269025912159
 30
0.0
 11
1.420999999998571
 21
3.234269025910731
 31
0.0
  0
LINE
  5
E557
330
E54B
100
AcDbEntity
  8
0
  6
CONTINUOUS
100
AcDbLine
 10
0.0
 20
1.139749816831973
 30
0.0
 11
1.420999999998571
 21
2.560749816830544
 31
0.0
  0
LINE
  5
E558
330
E54B
100
AcDbEntity
  8
0
  6
CONTINUOUS
100
AcDbLine
 10
0.0000000000000002
 20
0.466230607751787
 30
0.0
 11
1.420999999998571
 21
1.887230607750358
 31
0.0
  0
LINE
  5
E559
330
E54B
100
AcDbEntity
  8
0
  6
CONTINUOUS
100
AcDbLine
 10
0.2072886013284003
 20
-0.0000000000000009
 30
0.0
 11
1.420999999998571
 21
1.213711398670171
 31
0.0
  0
LINE
  5
E55A
330
E54B
100
AcDbEntity
  8
0
  6
CONTINUOUS
100
AcDbLine
 10
0.8808078104085864
 20
-0.0000000000000009
 30
0.0
 11
1.420999999998571
 21
0.5401921895899839
 31
0.0
  0
LINE
  5
E55B
330
E54B
100
AcDbEntity
  8
0
  6
CONTINUOUS
100
AcDbLine
 10
0.0581249075061505
 20
-0.0000000000000009
 30
0.0
 11
-0.0000000000000002
 21
0.0581249075061496
 31
0.0
  0
LINE
  5
E55C
330
E54B
100
AcDbEntity
  8
0
  6
CONTINUOUS
100
AcDbLine
 10
0.7316441165863372
 20
-0.0000000000000009
 30
0.0
 11
-0.0000000000000002
 21
0.7316441165863363
 31
0.0
  0
LINE
  5
E55D
330
E54B
100
AcDbEntity
  8
0
  6
CONTINUOUS
100
AcDbLine
 10
1.405163325666523
 20
-0.0000000000000009
 30
0.0
 11
-0.0000000000000002
 21
1.405163325666523
 31
0.0
  0
LINE
  5
E55E
330
E54B
100
AcDbEntity
  8
0
  6
CONTINUOUS
100
AcDbLine
 10
1.420999999998572
 20
0.6576825347481381
 30
0.0
 11
-0.0000000000000001
 21
2.07868253474671
 31
0.0
  0
LINE
  5
E55F
330
E54B
100
AcDbEntity
  8
0
  6
CONTINUOUS
100
AcDbLine
 10
1.420999999998571
 20
1.331201743828324
 30
0.0
 11
-0.0000000000000001
 21
2.752201743826896
 31
0.0
  0
LINE
  5
E560
330
E54B
100
AcDbEntity
  8
0
  6
CONTINUOUS
100
AcDbLine
 10
1.420999999998571
 20
2.004720952908511
 30
0.0
 11
-0.0000000000000002
 21
3.425720952907082
 31
0.0
  0
LINE
  5
E561
330
E54B
100
AcDbEntity
  8
0
  6
CONTINUOUS
100
AcDbLine
 10
1.420999999998571
 20
2.678240161988697
 30
0.0
 11
-0.0000000000000001
 21
4.099240161987269
 31
0.0
  0
LINE
  5
E562
330
E54B
100
AcDbEntity
  8
0
  6
CONTINUOUS
100
AcDbLine
 10
1.420999999998572
 20
3.351759371068884
 30
0.0
 11
0.0
 21
4.772759371067455
 31
0.0
  0
LINE
  5
E563
330
E54B
100
AcDbEntity
  8
0
  6
CONTINUOUS
100
AcDbLine
 10
1.420999999998571
 20
4.02527858014907
 30
0.0
 11
-0.0000000000000003
 21
5.446278580147642
 31
0.0
  0
LINE
  5
E564
330
E54B
100
AcDbEntity
  8
0
  6
CONTINUOUS
100
AcDbLine
 10
1.420999999998571
 20
4.698797789229257
 30
0.0
 11
0.0
 21
6.119797789227828
 31
0.0
  0
LINE
  5
E565
330
E54B
100
AcDbEntity
  8
0
  6
CONTINUOUS
100
AcDbLine
 10
1.420999999998571
 20
5.372316998309444
 30
0.0
 11
-0.0000000000000001
 21
6.793316998308015
 31
0.0
  0
LINE
  5
E566
330
E54B
100
AcDbEntity
  8
0
  6
CONTINUOUS
100
AcDbLine
 10
1.420999999998572
 20
6.045836207389629
 30
0.0
 11
-0.0000000000000004
 21
7.466836207388202
 31
0.0
  0
LINE
  5
E567
330
E54B
100
AcDbEntity
  8
0
  6
CONTINUOUS
100
AcDbLine
 10
1.420999999998571
 20
6.719355416469816
 30
0.0
 11
0.0
 21
8.140355416468388
 31
0.0
  0
LINE
  5
E568
330
E54B
100
AcDbEntity
  8
0
  6
CONTINUOUS
100
AcDbLine
 10
1.420999999998571
 20
7.392874625550003
 30
0.0
 11
0.0507746255573185
 21
8.763099999991255
 31
0.0
  0
LINE
  5
E569
330
E54B
100
AcDbEntity
  8
0
  6
CONTINUOUS
100
AcDbLine
 10
1.420999999998571
 20
8.06639383463019
 30
0.0
 11
0.7242938346375052
 21
8.763099999991255
 31
0.0
  0
LINE
  5
E56A
330
E54B
100
AcDbEntity
  8
0
  6
CONTINUOUS
100
AcDbLine
 10
1.420999999998571
 20
8.739913043710375
 30
0.0
 11
1.397813043717691
 21
8.763099999991255
 31
0.0
  0
ENDBLK
  5
E576
330
E54B
100
AcDbEntity
  8
0
100
AcDbBlockEnd
  0
ENDSEC
  0
SECTION
  2
ENTITIES
  0
LINE
  5
C69F
330
18
100
AcDbEntity
  8
01
100
AcDbLine
 10
5020.859210844508
 20
1024.711822947496
 30
0.0000000001127424
 11
5034.859210844508
 21
1024.711822947496
 31
0.0000000001127424
  0
LINE
  5
C6A0
330
18
100
AcDbEntity
  8
01
100
AcDbLine
 10
5025.860095026568
 20
1236.711822946468
 30
0.0000000001127424
 11
5179.614475181601
 21
1236.711822946468
 31
0.0000000001127424
  0
LINE
  5
C6A1
330
18
100
AcDbEntity
  8
01
  6
BYBLOCK
100
AcDbLine
 10
5025.860095026568
 20
1236.711822946468
 30
0.0000000001127424
 11
5025.860095026568
 21
1196.711822946468
 31
0.0000000001127424
  0
LINE
  5
C6A5
330
18
100
AcDbEntity
  8
01
100
AcDbLine
 10
5076.859210844506
 20
1231.711822945439
 30
0.0000000001127424
 11
5076.859210844506
 21
1262.629903134688
 31
0.0000000001127424
  0
LINE
  5
C6A6
330
18
100
AcDbEntity
  8
01
100
AcDbLine
 10
5051.859210844508
 20
1236.711822946469
 30
0.0000000001127424
 11
5101.859210844508
 21
1236.711822946466
 31
0.0000000001127424
  0
LINE
  5
C6A7
330
18
100
AcDbEntity
  8
01
100
AcDbLine
 10
5052.359210844505
 20
1245.211822946469
 30
0.0000000001127424
 11
5101.359210844508
 21
1245.211822946465
 31
0.0000000001127424
  0
LINE
  5
C6A8
330
18
100
AcDbEntity
  8
01
100
AcDbLine
 10
5101.859210844508
 20
1236.711822946466
 30
0.0000000001127424
 11
5101.859210844508
 21
1244.711822946465
 31
0.0000000001127424
  0
ARC
  5
C6A9
330
18
100
AcDbEntity
  8
01
100
AcDbCircle
 10
5101.359210844508
 20
1244.711822946465
 30
0.0000000001127424
 40
0.5
100
AcDbArc
 50
0.0
 51
90.0
  0
LINE
  5
C6AA
330
18
100
AcDbEntity
  8
01
100
AcDbLine
 10
5051.859210844508
 20
1236.711822946469
 30
0.0000000001127424
 11
5051.859210844505
 21
1244.711822946468
 31
0.0000000001127424
  0
ARC
  5
C6AB
330
18
100
AcDbEntity
  8
01
100
AcDbCircle
 10
5052.359210844505
 20
1244.711822946469
 30
0.0000000001127424
 40
0.5
100
AcDbArc
 50
90.0
 51
180.0
  0
LINE
  5
C6AD
330
18
100
AcDbEntity
  8
01
  6
BYBLOCK
100
AcDbLine
 10
5027.359210844508
 20
1032.611822947496
 30
0.0000000001127424
 11
5027.359210844508
 21
902.8118229474965
 31
0.0000000001127424
  0
LINE
  5
C6AE
330
18
100
AcDbEntity
  8
01
  6
BYBLOCK
100
AcDbLine
 10
5027.359210844508
 20
903.7118229474963
 30
0.0000000001127424
 11
5029.859210844508
 21
903.7118229474963
 31
0.0000000001127424
  0
LINE
  5
C6AF
330
18
100
AcDbEntity
  8
01
  6
BYBLOCK
100
AcDbLine
 10
5029.859210844508
 20
903.7118229474963
 30
0.0000000001127424
 11
5029.859210844508
 21
920.2147666726487
 31
0.0000000001127424
  0
LINE
  5
C6B0
330
18
100
AcDbEntity
  8
01
  6
BYBLOCK
100
AcDbLine
 10
5025.859210844508
 20
1032.611822947496
 30
0.0000000001127424
 11
5025.859210844508
 21
902.8118229474965
 31
0.0000000001127424
  0
LINE
  5
C6B1
330
18
100
AcDbEntity
  8
01
  6
BYBLOCK
100
AcDbLine
 10
5025.859210844508
 20
902.8118229474965
 30
0.0000000001127424
 11
5027.359210844508
 21
902.8118229474965
 31
0.0000000001127424
  0
LINE
  5
C6B2
330
18
100
AcDbEntity
  8
01
  6
BYBLOCK
100
AcDbLine
 10
5027.359210844508
 20
1031.711822947496
 30
0.0000000001127424
 11
5029.859210844508
 21
1031.711822947496
 31
0.0000000001127424
  0
LINE
  5
C6B3
330
18
100
AcDbEntity
  8
01
  6
BYBLOCK
100
AcDbLine
 10
5025.859210844508
 20
1032.611822947496
 30
0.0000000001127424
 11
5027.359210844508
 21
1032.611822947496
 31
0.0000000001127424
  0
LINE
  5
C6B4
330
18
100
AcDbEntity
  8
01
  6
BYBLOCK
100
AcDbLine
 10
5027.359210844508
 20
1007.711822947496
 30
0.0000000001127424
 11
5028.559210844508
 21
1007.711822947496
 31
0.0000000001127424
  0
LINE
  5
C6B5
330
18
100
AcDbEntity
  8
01
  6
BYBLOCK
100
AcDbLine
 10
5028.559210844508
 20
1013.411822947497
 30
0.0000000001127424
 11
5028.559210844508
 21
922.0118229474965
 31
0.0000000001127424
  0
LINE
  5
C6B6
330
18
100
AcDbEntity
  8
01
  6
BYBLOCK
100
AcDbLine
 10
5028.659210844508
 20
903.7118229474963
 30
0.0000000001127424
 11
5028.659210844508
 21
920.3118229474965
 31
0.0000000001127424
  0
LINE
  5
C6B7
330
18
100
AcDbEntity
  8
01
  6
BYBLOCK
100
AcDbLine
 10
5028.659210844508
 20
920.3118229474965
 30
0.0000000001127424
 11
5027.710682707084
 21
921.2603510849203
 31
0.0000000001127424
  0
LINE
  5
C6B8
330
18
100
AcDbEntity
  8
01
  6
BYBLOCK
100
AcDbLine
 10
5029.507738981932
 20
921.0632948100726
 30
0.0000000001127424
 11
5028.559210844508
 21
922.0118229474965
 31
0.0000000001127424
  0
ARC
  5
C6B9
330
18
100
AcDbEntity
  8
01
  6
BYBLOCK
100
AcDbCircle
 10
5028.659210844508
 20
920.2147666726487
 30
0.0000000001127424
 40
1.2
100
AcDbArc
 50
0.0
 51
45.00000000005527
  0
ARC
  5
C6BA
330
18
100
AcDbEntity
  8
01
  6
BYBLOCK
100
AcDbCircle
 10
5028.559210844508
 20
922.1088792223443
 30
0.0000000001127424
 40
1.2
100
AcDbArc
 50
180.0
 51
225.0000000000553
  0
LINE
  5
C6BB
330
18
100
AcDbEntity
  8
01
  6
BYBLOCK
100
AcDbLine
 10
5029.859210844508
 20
1031.711822947496
 30
0.0000000001127424
 11
5029.859210844508
 21
1015.208879222344
 31
0.0000000001127424
  0
LINE
  5
C6BC
330
18
100
AcDbEntity
  8
01
  6
BYBLOCK
100
AcDbLine
 10
5028.659210844508
 20
1031.711822947496
 30
0.0000000001127424
 11
5028.659210844508
 21
1015.111822947496
 31
0.0000000001127424
  0
LINE
  5
C6BD
330
18
100
AcDbEntity
  8
01
  6
BYBLOCK
100
AcDbLine
 10
5028.659210844508
 20
1015.111822947496
 30
0.0000000001127424
 11
5027.710682707084
 21
1014.163294810073
 31
0.0000000001127424
  0
LINE
  5
C6BE
330
18
100
AcDbEntity
  8
01
  6
BYBLOCK
100
AcDbLine
 10
5029.507738981932
 20
1014.36035108492
 30
0.0000000001127424
 11
5028.559210844508
 21
1013.411822947496
 31
0.0000000001127424
  0
ARC
  5
C6BF
330
18
100
AcDbEntity
  8
01
  6
BYBLOCK
100
AcDbCircle
 10
5028.659210844508
 20
1015.208879222344
 30
0.0000000001127424
 40
1.2
100
AcDbArc
 50
314.9999999999447
 51
0.0
  0
ARC
  5
C6C0
330
18
100
AcDbEntity
  8
01
  6
BYBLOCK
100
AcDbCircle
 10
5028.559210844508
 20
1013.314766672649
 30
0.0000000001127424
 40
1.2
100
AcDbArc
 50
134.9999999999447
 51
180.0
  0
CIRCLE
  5
C6C1
330
18
100
AcDbEntity
  8
01
  6
BYBLOCK
100
AcDbCircle
 10
5076.859210844508
 20
996.7118229474963
 30
0.0000000001127424
 40
4.75
  0
LINE
  5
C6C2
330
18
100
AcDbEntity
  8
01
  6
BYBLOCK
100
AcDbLine
 10
5028.559210844508
 20
930.7118229474961
 30
0.0000000001127424
 11
5057.649838132209
 21
930.7118229474963
 31
0.0000000001127424
  0
ARC
  5
C6C3
330
18
100
AcDbEntity
  8
01
  6
BYBLOCK
100
AcDbCircle
 10
5028.960095026569
 20
1220.273073489468
 30
0.0000000001127424
 40
1.6
100
AcDbArc
 50
115.944479772022
 51
180.0
  0
ARC
  5
C6C4
330
18
100
AcDbEntity
  8
01
  6
BYBLOCK
100
AcDbCircle
 10
5028.960095026569
 20
1213.150572403468
 30
0.0000000001127424
 40
1.6
100
AcDbArc
 50
180.0
 51
244.055520227978
  0
ARC
  5
C6C5
330
18
100
AcDbEntity
  8
01
  6
BYBLOCK
100
AcDbCircle
 10
5028.260095026568
 20
1211.873073489468
 30
0.0000000001127424
 40
1.6
100
AcDbArc
 50
0.0
 51
64.05552022797804
  0
ARC
  5
C6C6
330
18
100
AcDbEntity
  8
01
  6
BYBLOCK
100
AcDbCircle
 10
5028.260095026568
 20
1221.550572403467
 30
0.0000000001127424
 40
1.6
100
AcDbArc
 50
295.944479772022
 51
0.0
  0
LINE
  5
C6C7
330
18
100
AcDbEntity
  8
01
  6
BYBLOCK
100
AcDbLine
 10
5029.860095026568
 20
1221.550572403467
 30
0.0000000001127424
 11
5029.860095026568
 21
1228.911822946468
 31
0.0000000001127424
  0
LINE
  5
C6C8
330
18
100
AcDbEntity
  8
01
  6
BYBLOCK
100
AcDbLine
 10
5028.960095026569
 20
1213.311822946468
 30
0.0000000001127424
 11
5028.960095026569
 21
1220.111822946468
 31
0.0000000001127424
  0
LINE
  5
C6C9
330
18
100
AcDbEntity
  8
01
  6
BYBLOCK
100
AcDbLine
 10
5029.860095026568
 20
1204.711822946468
 30
0.0000000001127424
 11
5029.860095026568
 21
1211.873073489468
 31
0.0000000001127424
  0
LINE
  5
C6CA
330
18
100
AcDbEntity
  8
01
  6
BYBLOCK
100
AcDbLine
 10
5028.260095026568
 20
1221.711822946468
 30
0.0000000001127424
 11
5028.260095026569
 21
1228.911822946468
 31
0.0000000001127424
  0
LINE
  5
C6CB
330
18
100
AcDbEntity
  8
01
  6
BYBLOCK
100
AcDbLine
 10
5028.260095026568
 20
1211.711822946468
 30
0.0000000001127424
 11
5028.260095026568
 21
1204.611822946468
 31
0.0000000001127424
  0
ARC
  5
C6CC
330
18
100
AcDbEntity
  8
01
  6
BYBLOCK
100
AcDbCircle
 10
5093.260095026568
 20
1224.611822946468
 30
0.0000000001127424
 40
1.6
100
AcDbArc
 50
0.0
 51
90.0
  0
LINE
  5
C6CD
330
18
100
AcDbEntity
  8
01
  6
BYBLOCK
100
AcDbLine
 10
5027.360095026568
 20
1229.111822946468
 30
0.0000000001127424
 11
5027.360095026568
 21
1204.311822946468
 31
0.0000000001127424
  0
LINE
  5
C6CE
330
18
100
AcDbEntity
  8
01
  6
BYBLOCK
100
AcDbLine
 10
5093.260095026568
 20
1226.211822946468
 30
0.0000000001127424
 11
5029.860095026568
 21
1226.211822946468
 31
0.0000000001127424
  0
LINE
  5
C6CF
330
18
100
AcDbEntity
  8
01
  6
BYBLOCK
100
AcDbLine
 10
5093.260095026568
 20
1209.011822946468
 30
0.0000000001127424
 11
5093.260095026568
 21
1226.211822946468
 31
0.0000000001127424
  0
LINE
  5
C6D0
330
18
100
AcDbEntity
  8
01
  6
BYBLOCK
100
AcDbLine
 10
5094.860095026568
 20
1207.411822946468
 30
0.0000000001127424
 11
5094.860095026568
 21
1224.611822946468
 31
0.0000000001127424
  0
LINE
  5
C6D1
330
18
100
AcDbEntity
  8
01
  6
BYBLOCK
100
AcDbLine
 10
5027.360095026568
 20
1228.911822946468
 30
0.0000000001127424
 11
5029.860095026568
 21
1228.911822946468
 31
0.0000000001127424
  0
LINE
  5
C6D2
330
18
100
AcDbEntity
  8
01
  6
BYBLOCK
100
AcDbLine
 10
5029.860095026568
 20
1204.711822946468
 30
0.0000000001127424
 11
5028.260095026568
 21
1204.711822946468
 31
0.0000000001127424
  0
LINE
  5
C6D3
330
18
100
AcDbEntity
  8
01
  6
BYBLOCK
100
AcDbLine
 10
5028.260095026568
 20
1204.611822946468
 30
0.0000000001127424
 11
5027.360095026568
 21
1204.611822946468
 31
0.0000000001127424
  0
ARC
  5
C6D4
330
18
100
AcDbEntity
  8
01
  6
BYBLOCK
100
AcDbCircle
 10
5024.560689953967
 20
1211.011822946468
 30
0.0000000001127424
 40
0.3000000000000051
100
AcDbArc
 50
232.8678058729389
 51
270.0
  0
LINE
  5
C6D5
330
18
100
AcDbEntity
  8
01
  6
BYBLOCK
100
AcDbLine
 10
5025.360095026568
 20
1210.711822946469
 30
0.0000000001127424
 11
5024.560689953967
 21
1210.711822946469
 31
0.0000000001127424
  0
LINE
  5
C6D6
330
18
100
AcDbEntity
  8
01
  6
BYBLOCK
100
AcDbLine
 10
5014.960095026569
 20
1220.384811812673
 30
0.0000000001127424
 11
5014.960095026569
 21
1220.214189757124
 31
0.0000000001127424
  0
ARC
  5
C6D7
330
18
100
AcDbEntity
  8
01
  6
BYBLOCK
100
AcDbCircle
 10
5015.260095026568
 20
1220.214189757124
 30
0.0000000001127424
 40
0.3
100
AcDbArc
 50
180.0
 51
217.7405295629614
  0
ARC
  5
C6D8
330
18
100
AcDbEntity
  8
01
  6
BYBLOCK
100
AcDbCircle
 10
5054.562395625852
 20
1250.634892701064
 30
0.0000000001127424
 40
50.00000000000002
100
AcDbArc
 50
217.7405295629665
 51
232.8678058730001
  0
LINE
  5
C6D9
330
18
100
AcDbEntity
  8
01
  6
BYBLOCK
100
AcDbLine
 10
5014.760095026568
 20
1221.511822946468
 30
0.0000000001127424
 11
5014.760095026568
 21
1222.211822946468
 31
0.0000000001127424
  0
ARC
  5
C6DA
330
18
100
AcDbEntity
  8
01
  6
BYBLOCK
100
AcDbCircle
 10
5015.260095026568
 20
1222.211822946468
 30
0.0000000001127424
 40
0.5000000000000142
100
AcDbArc
 50
90.0
 51
180.0
  0
LINE
  5
C6DB
330
18
100
AcDbEntity
  8
01
  6
BYBLOCK
100
AcDbLine
 10
5025.360095026568
 20
1222.711822946468
 30
0.0000000001127424
 11
5015.260095026568
 21
1222.711822946468
 31
0.0000000001127424
  0
LINE
  5
C6DC
330
18
100
AcDbEntity
  8
01
  6
BYBLOCK
100
AcDbLine
 10
5014.760095026568
 20
1221.133143290027
 30
0.0000000001127424
 11
5014.760095026568
 21
1221.511822946468
 31
0.0000000001127424
  0
SPLINE
  5
C6DD
330
18
100
AcDbEntity
  8
01
  6
BYBLOCK
100
AcDbSpline
210
0.0
220
0.0
230
1.0
 70
     8
 71
     3
 72
     8
 73
     4
 74
     0
 42
0.0000000001
 43
0.0000000001
 40
0.0
 40
0.0
 40
0.0
 40
0.0
 40
1.0
 40
1.0
 40
1.0
 40
1.0
 10
5014.785827567833
 20
1220.856492860578
 30
0.0000000001127424
 10
5014.768359681721
 20
1220.949579056459
 30
0.0000000001127424
 10
5014.760095026568
 20
1221.04284506735
 30
0.0000000001127424
 10
5014.760095026568
 20
1221.133143290028
 30
0.0000000001127424
  0
ARC
  5
C6DE
330
18
100
AcDbEntity
  8
01
  6
BYBLOCK
100
AcDbCircle
 10
5016.260095026568
 20
1221.133143290027
 30
0.0000000001127424
 40
1.499999999999998
100
AcDbArc
 50
190.628112987605
 51
225.0000000000553
  0
LINE
  5
C6DF
330
18
100
AcDbEntity
  8
01
  6
BYBLOCK
100
AcDbLine
 10
5025.860095026568
 20
1223.561822946468
 30
0.0000000001127424
 11
5025.360095026568
 21
1223.561822946468
 31
0.0000000001127424
  0
LINE
  5
C6E0
330
18
100
AcDbEntity
  8
01
  6
BYBLOCK
100
AcDbLine
 10
5025.360095026568
 20
1209.861822946468
 30
0.0000000001127424
 11
5025.860095026568
 21
1209.861822946468
 31
0.0000000001127424
  0
LINE
  5
C6E1
330
18
100
AcDbEntity
  8
01
  6
BYBLOCK
100
AcDbLine
 10
5025.360095026568
 20
1209.861822946468
 30
0.0000000001127424
 11
5025.360095026568
 21
1223.561822946468
 31
0.0000000001127424
  0
LINE
  5
C6E2
330
18
100
AcDbEntity
  8
01
  6
BYBLOCK
100
AcDbLine
 10
5025.860095026568
 20
1229.111822946468
 30
0.0000000001127424
 11
5027.360095026568
 21
1229.111822946468
 31
0.0000000001127424
  0
LINE
  5
C6E3
330
18
100
AcDbEntity
  8
01
  6
BYBLOCK
100
AcDbLine
 10
5025.860095026568
 20
1204.311822946468
 30
0.0000000001127424
 11
5027.360095026568
 21
1204.311822946468
 31
0.0000000001127424
  0
LINE
  5
C6E4
330
18
100
AcDbEntity
  8
01
  6
BYBLOCK
100
AcDbLine
 10
5025.860095026568
 20
1204.311822946468
 30
0.0000000001127424
 11
5025.860095026568
 21
1229.111822946468
 31
0.0000000001127424
  0
LINE
  5
C6E5
330
18
100
AcDbEntity
  8
01
  6
BYBLOCK
100
AcDbLine
 10
5094.860095026568
 20
1209.011822946468
 30
0.0000000001127424
 11
5029.860095026568
 21
1209.011822946468
 31
0.0000000001127424
  0
LINE
  5
C6E6
330
18
100
AcDbEntity
  8
01
  6
BYBLOCK
100
AcDbLine
 10
5094.860095026568
 20
1207.411822946468
 30
0.0000000001127424
 11
5044.460095026569
 21
1207.411822946468
 31
0.0000000001127424
  0
LINE
  5
C6E7
330
18
100
AcDbEntity
  8
01
  6
BYBLOCK
100
AcDbLine
 10
5047.297353326771
 20
1207.411822946468
 30
0.0000000001127424
 11
5029.860095026568
 21
1207.411822946468
 31
0.0000000001127424
  0
LINE
  5
C6E8
330
18
100
AcDbEntity
  8
01
  6
BYBLOCK
100
AcDbLine
 10
5024.413648417161
 20
1210.858269555874
 30
0.0000000001127424
 11
5015.199434854788
 21
1220.072483118247
 31
0.0000000001127424
  0
ARC
  5
C6E9
330
18
100
AcDbEntity
  8
01
  6
BYBLOCK
100
AcDbCircle
 10
5024.767201807755
 20
1211.211822946468
 30
0.0000000001127424
 40
0.5
100
AcDbArc
 50
224.9999999999908
 51
270.0
  0
LINE
  5
C6EA
330
18
100
AcDbEntity
  8
01
  6
BYBLOCK
100
AcDbLine
 10
5025.360095026568
 20
1210.711822946468
 30
0.0000000001127424
 11
5024.767201807755
 21
1210.711822946468
 31
0.0000000001127424
  0
LINE
  5
C6EC
330
18
100
AcDbEntity
  8
01
  6
BYBLOCK
100
AcDbLine
 10
5073.252966260457
 20
996.7118229474963
 30
0.0000000001127424
 11
5076.859210844508
 21
1000.318067531548
 31
0.0000000001127424
  0
LINE
  5
C6ED
330
18
100
AcDbEntity
  8
01
  6
BYBLOCK
100
AcDbLine
 10
5080.46545542856
 20
996.7118229474963
 30
0.0000000001127424
 11
5076.859210844508
 21
1000.318067531548
 31
0.0000000001127424
  0
LINE
  5
C6EE
330
18
100
AcDbEntity
  8
01
  6
BYBLOCK
100
AcDbLine
 10
5073.252966260457
 20
996.7118229474963
 30
0.0000000001127424
 11
5076.859210844508
 21
993.1055783634451
 31
0.0000000001127424
  0
LINE
  5
C6EF
330
18
100
AcDbEntity
  8
01
  6
BYBLOCK
100
AcDbLine
 10
5080.46545542856
 20
996.7118229474963
 30
0.0000000001127424
 11
5076.859210844508
 21
993.1055783634451
 31
0.0000000001127424
  0
LINE
  5
C6F0
330
18
100
AcDbEntity
  8
01
  6
BYBLOCK
100
AcDbLine
 10
5014.859210844508
 20
977.7434932145125
 30
0.0000000001127424
 11
5014.859210844508
 21
959.6801526805066
 31
0.0000000001127424
  0
LINE
  5
C6F1
330
18
100
AcDbEntity
  8
01
  6
BYBLOCK
100
AcDbLine
 10
5019.152104063322
 20
978.7118229475095
 30
0.0000000001127424
 11
5025.859210844508
 21
978.7118229475095
 31
0.0000000001127424
  0
LINE
  5
C6F2
330
18
100
AcDbEntity
  8
01
  6
BYBLOCK
100
AcDbLine
 10
5019.152104063322
 20
958.7118229475095
 30
0.0000000001127424
 11
5025.859210844508
 21
958.7118229475095
 31
0.0000000001127424
  0
LINE
  5
C6F3
330
18
100
AcDbEntity
  8
01
  6
BYBLOCK
100
AcDbLine
 10
5024.652104063322
 20
973.9618229475095
 30
0.0000000001127424
 11
5024.652104063322
 21
963.4618229475095
 31
0.0000000001127424
  0
ARC
  5
C6F4
330
18
100
AcDbEntity
  8
01
  6
BYBLOCK
100
AcDbCircle
 10
5019.152104063322
 20
968.7118229475095
 30
0.0000000001127424
 40
10.00000000000009
100
AcDbArc
 50
53.13010235413383
 51
115.4224671781395
  0
ARC
  5
C6F5
330
18
100
AcDbEntity
  8
01
  6
BYBLOCK
100
AcDbCircle
 10
5019.152104063322
 20
968.7118229475097
 30
0.0000000001127424
 40
10.00000000000009
100
AcDbArc
 50
244.5775328218606
 51
306.8698976458662
  0
LINE
  5
C6F6
330
18
100
AcDbEntity
  8
01
  6
BYBLOCK
100
AcDbLine
 10
5025.152104063322
 20
976.7118229475095
 30
0.0000000001127424
 11
5025.152104063322
 21
960.7118229475095
 31
0.0000000001127424
  0
LINE
  5
C6F7
330
18
100
AcDbEntity
  8
01
  6
BYBLOCK
100
AcDbLine
 10
5014.859210844508
 20
973.9618229475095
 30
0.0000000001127424
 11
5024.652104063322
 21
973.9618229475095
 31
0.0000000001127424
  0
LINE
  5
C6F8
330
18
100
AcDbEntity
  8
01
  6
BYBLOCK
100
AcDbLine
 10
5014.859210844508
 20
963.4618229475095
 30
0.0000000001127424
 11
5024.652104063322
 21
963.4618229475095
 31
0.0000000001127424
  0
LINE
  5
C6F9
330
18
100
AcDbEntity
  8
01
  6
BYBLOCK
100
AcDbLine
 10
4900.459327184253
 20
1032.611822947496
 30
0.0000000001127424
 11
4913.259327184252
 21
1032.611822947496
 31
0.0000000001127424
  0
LINE
  5
C6FA
330
18
100
AcDbEntity
  8
01
  6
BYBLOCK
100
AcDbLine
 10
4900.459327184253
 20
902.8118229474958
 30
0.0000000001127424
 11
4913.259327184252
 21
902.8118229474958
 31
0.0000000001127424
  0
LINE
  5
C6FB
330
18
100
AcDbEntity
  8
01
  6
BYBLOCK
100
AcDbLine
 10
4894.459327184253
 20
1026.611822947496
 30
0.0000000001127424
 11
4894.459327184253
 21
908.8118229474958
 31
0.0000000001127424
  0
LINE
  5
C6FC
330
18
100
AcDbEntity
  8
01
  6
BYBLOCK
100
AcDbLine
 10
4919.259327184252
 20
1026.611822947496
 30
0.0000000001127424
 11
4919.259327184252
 21
908.8118229474958
 31
0.0000000001127424
  0
ARC
  5
C6FD
330
18
100
AcDbEntity
  8
01
  6
BYBLOCK
100
AcDbCircle
 10
4900.459327184253
 20
908.8118229474958
 30
0.0000000001127424
 40
6.0
100
AcDbArc
 50
180.0
 51
270.0
  0
ARC
  5
C6FE
330
18
100
AcDbEntity
  8
01
  6
BYBLOCK
100
AcDbCircle
 10
4913.259327184252
 20
908.8118229474958
 30
0.0000000001127424
 40
6.0
100
AcDbArc
 50
270.0
 51
0.0
  0
ARC
  5
C6FF
330
18
100
AcDbEntity
  8
01
  6
BYBLOCK
100
AcDbCircle
 10
4900.459327184253
 20
1026.611822947496
 30
0.0000000001127424
 40
6.0
100
AcDbArc
 50
90.0
 51
180.0
  0
ARC
  5
C700
330
18
100
AcDbEntity
  8
01
  6
BYBLOCK
100
AcDbCircle
 10
4913.259327184252
 20
1026.611822947496
 30
0.0000000001127424
 40
6.0
100
AcDbArc
 50
0.0
 51
90.0
  0
CIRCLE
  5
C701
330
18
100
AcDbEntity
  8
01
  6
BYBLOCK
100
AcDbCircle
 10
4906.859327184253
 20
910.7118229474959
 30
0.0000000001127424
 40
2.75
  0
CIRCLE
  5
C702
330
18
100
AcDbEntity
  8
01
  6
BYBLOCK
100
AcDbCircle
 10
4906.859327184253
 20
910.7118229474959
 30
0.0000000001127424
 40
4.25
  0
CIRCLE
  5
C703
330
18
100
AcDbEntity
  8
01
  6
BYBLOCK
100
AcDbCircle
 10
4906.859327184253
 20
1024.711822947496
 30
0.0000000001127424
 40
2.75
  0
CIRCLE
  5
C704
330
18
100
AcDbEntity
  8
01
  6
BYBLOCK
100
AcDbCircle
 10
4906.859327184253
 20
1024.711822947496
 30
0.0000000001127424
 40
4.25
  0
LINE
  5
C705
330
18
100
AcDbEntity
  8
1CENTER
100
AcDbLine
 10
4912.734352592159
 20
910.7118229474956
 30
0.0000000001127424
 11
4900.984301776347
 21
910.7118229474956
 31
0.0000000001127424
  0
LINE
  5
C706
330
18
100
AcDbEntity
  8
1CENTER
100
AcDbLine
 10
4906.859327184253
 20
916.586848355402
 30
0.0000000001127424
 11
4906.859327184253
 21
904.8367975395895
 31
0.0000000001127424
  0
LINE
  5
C707
330
18
100
AcDbEntity
  8
1CENTER
100
AcDbLine
 10
4912.734352592159
 20
1024.711822947496
 30
0.0000000001127424
 11
4900.984301776347
 21
1024.711822947496
 31
0.0000000001127424
  0
LINE
  5
C708
330
18
100
AcDbEntity
  8
1CENTER
100
AcDbLine
 10
4906.859327184253
 20
1030.586848355402
 30
0.0000000001127424
 11
4906.859327184253
 21
1018.836797539589
 31
0.0000000001127424
  0
ARC
  5
C709
330
18
100
AcDbEntity
  8
01
  6
BYBLOCK
100
AcDbCircle
 10
4906.859327184253
 20
968.7118229474959
 30
0.0000000001127424
 40
10.15
100
AcDbArc
 50
231.9925780701392
 51
308.0074219298607
  0
LINE
  5
C70A
330
18
100
AcDbEntity
  8
01
  6
BYBLOCK
100
AcDbLine
 10
4900.609327184253
 20
976.7093225567487
 30
0.0000000001127424
 11
4900.609327184253
 21
960.714323338243
 31
0.0000000001127424
  0
LINE
  5
C70B
330
18
100
AcDbEntity
  8
01
  6
BYBLOCK
100
AcDbLine
 10
4913.109327184253
 20
976.7093225567487
 30
0.0000000001127424
 11
4913.109327184253
 21
960.714323338243
 31
0.0000000001127424
  0
ARC
  5
C70C
330
18
100
AcDbEntity
  8
01
  6
BYBLOCK
100
AcDbCircle
 10
4906.859327184253
 20
968.7118229474959
 30
0.0000000001127424
 40
10.15
100
AcDbArc
 50
51.99257807013929
 51
128.0074219298607
  0
LINE
  5
C70D
330
18
100
AcDbEntity
  8
01
  6
BYBLOCK
100
AcDbLine
 10
4902.359327184253
 20
973.9618229474959
 30
0.0000000001127424
 11
4902.359327184253
 21
963.4618229474959
 31
0.0000000001127424
  0
LINE
  5
C70E
330
18
100
AcDbEntity
  8
01
  6
BYBLOCK
100
AcDbLine
 10
4912.359327184253
 20
973.9618229474959
 30
0.0000000001127424
 11
4912.359327184253
 21
963.4618229474959
 31
0.0000000001127424
  0
LINE
  5
C70F
330
18
100
AcDbEntity
  8
01
  6
BYBLOCK
100
AcDbLine
 10
4902.859327184253
 20
978.0404080492142
 30
0.0000000001127424
 11
4902.859327184253
 21
973.9618229474956
 31
0.0000000001127424
  0
LINE
  5
C710
330
18
100
AcDbEntity
  8
01
  6
BYBLOCK
100
AcDbLine
 10
4901.359327184253
 20
973.9618229474956
 30
0.0000000001127424
 11
4901.359327184253
 21
963.4618229474959
 31
0.0000000001127424
  0
LINE
  5
C711
330
18
100
AcDbEntity
  8
01
  6
BYBLOCK
100
AcDbLine
 10
4902.859327184253
 20
963.4618229474959
 30
0.0000000001127424
 11
4902.859327184253
 21
959.3832378457776
 31
0.0000000001127424
  0
LINE
  5
C712
330
18
100
AcDbEntity
  8
01
  6
BYBLOCK
100
AcDbLine
 10
4901.359327184253
 20
973.9618229474959
 30
0.0000000001127424
 11
4912.359327184253
 21
973.9618229474959
 31
0.0000000001127424
  0
LINE
  5
C713
330
18
100
AcDbEntity
  8
01
  6
BYBLOCK
100
AcDbLine
 10
4901.359327184253
 20
963.4618229474959
 30
0.0000000001127424
 11
4912.359327184253
 21
963.4618229474959
 31
0.0000000001127424
  0
LINE
  5
C715
330
18
100
AcDbEntity
  8
01
100
AcDbLine
 10
4886.859443523996
 20
1066.711822947496
 30
0.0000000001127424
 11
4886.859443523996
 21
876.7118229474959
 31
0.0000000001127424
  0
LINE
  5
C716
330
18
100
AcDbEntity
  8
01
100
AcDbLine
 10
4886.859443523996
 20
971.7118229474959
 30
0.0000000001127424
 11
4886.859443523996
 21
921.7118229474959
 31
0.0000000001127424
  0
LINE
  5
C717
330
18
100
AcDbEntity
  8
01
100
AcDbLine
 10
4878.359443523996
 20
922.7118229474959
 30
0.0000000001127424
 11
4878.359443523996
 21
970.7118229474959
 31
0.0000000001127424
  0
LINE
  5
C718
330
18
100
AcDbEntity
  8
01
100
AcDbLine
 10
4886.859443523996
 20
921.7118229474959
 30
0.0000000001127424
 11
4879.359443523996
 21
921.7118229474959
 31
0.0000000001127424
  0
ARC
  5
C719
330
18
100
AcDbEntity
  8
01
100
AcDbCircle
 10
4879.359443523996
 20
922.7118229474959
 30
0.0000000001127424
 40
1.0
100
AcDbArc
 50
180.0
 51
270.0
  0
LINE
  5
C71A
330
18
100
AcDbEntity
  8
01
100
AcDbLine
 10
4886.859443523996
 20
971.7118229474959
 30
0.0000000001127424
 11
4879.359443523996
 21
971.7118229474959
 31
0.0000000001127424
  0
ARC
  5
C71B
330
18
100
AcDbEntity
  8
01
100
AcDbCircle
 10
4879.359443523996
 20
970.7118229474959
 30
0.0000000001127424
 40
1.0
100
AcDbArc
 50
90.0
 51
180.0
  0
LINE
  5
C71C
330
18
100
AcDbEntity
  8
01
100
AcDbLine
 10
4888.987728906428
 20
946.7118229474959
 30
0.0000000001127424
 11
4866.359443523996
 21
946.7118229474959
 31
0.0000000001127424
  0
POINT
  5
C71D
330
18
100
AcDbEntity
  8
01
100
AcDbPoint
 10
4872.359327184253
 20
946.7118229474959
 30
0.0000000001127424
 50
180.0
  0
CIRCLE
  5
C71E
330
18
100
AcDbEntity
  8
01
100
AcDbCircle
 10
4872.359327184253
 20
946.7118229474959
 30
0.0000000001127424
 40
2.5
  0
CIRCLE
  5
C71F
330
18
100
AcDbEntity
  8
01
100
AcDbCircle
 10
4872.359327184253
 20
946.7118229474959
 30
0.0000000001127424
 40
3.0
  0
LINE
  5
C721
330
18
100
AcDbEntity
  8
1CENTER
100
AcDbLine
 10
4872.359327184253
 20
940.7118229474959
 30
0.0000000001127424
 11
4872.359327184253
 21
952.7118229474959
 31
0.0000000001127424
  0
LINE
  5
C722
330
18
100
AcDbEntity
  8
01
100
AcDbLine
 10
5020.859210844796
 20
910.7118229477851
 30
0.0000000001127424
 11
5034.859210844796
 21
910.7118229477851
 31
0.0000000001127424
  0
LINE
  5
C723
330
18
100
AcDbEntity
  8
01
100
AcDbLine
 10
5088.171099112049
 20
996.7118229474963
 30
0.0000000001127424
 11
5065.547322576966
 21
996.7118229474963
 31
0.0000000001127424
  0
LINE
  5
C724
330
18
100
AcDbEntity
  8
01
100
AcDbLine
 10
5076.859210844508
 20
1008.023711215038
 30
0.0000000001127424
 11
5076.859210844508
 21
985.3999346799546
 31
0.0000000001127424
  0
LINE
  5
C725
330
18
100
AcDbEntity
  8
01
  6
BYBLOCK
100
AcDbLine
 10
4798.859443523999
 20
977.7434932145125
 30
0.0000000001127424
 11
4798.859443523999
 21
959.6801526805066
 31
0.0000000001127424
  0
LINE
  5
C726
330
18
100
AcDbEntity
  8
01
  6
BYBLOCK
100
AcDbLine
 10
4794.566550305186
 20
978.7118229475095
 30
0.0000000001127424
 11
4787.859443523999
 21
978.7118229475095
 31
0.0000000001127424
  0
LINE
  5
C727
330
18
100
AcDbEntity
  8
01
  6
BYBLOCK
100
AcDbLine
 10
4794.566550305186
 20
958.7118229475095
 30
0.0000000001127424
 11
4787.859443523999
 21
958.7118229475095
 31
0.0000000001127424
  0
ARC
  5
C728
330
18
100
AcDbEntity
  8
01
  6
BYBLOCK
100
AcDbCircle
 10
4794.566550305186
 20
968.7118229475095
 30
0.0000000001127424
 40
10.00000000000009
100
AcDbArc
 50
64.57753282186054
 51
90.0
  0
LINE
  5
C729
330
18
100
AcDbEntity
  8
01
  6
CONTINUOUS
100
AcDbLine
 10
4798.359443523999
 20
960.3970287546788
 30
0.0000000001127424
 11
4787.859443523999
 21
960.3970287546788
 31
0.0000000001127424
  0
ARC
  5
C72A
330
18
100
AcDbEntity
  8
01
  6
CONTINUOUS
100
AcDbCircle
 10
4798.398023770913
 20
960.8591679854856
 30
0.0000000001127424
 40
0.4637468103423796
100
AcDbArc
 50
265.2279066161988
 51
354.2577450626242
  0
LINE
  5
C72B
330
18
100
AcDbEntity
  8
01
  6
CONTINUOUS
100
AcDbLine
 10
4798.859443523999
 20
976.1951377210576
 30
0.0000000001127424
 11
4798.859443523999
 21
961.2285081739617
 31
0.0000000001127424
  0
ARC
  5
C72C
330
18
100
AcDbEntity
  8
01
  6
CONTINUOUS
100
AcDbCircle
 10
4798.398023770913
 20
976.5644779095339
 30
0.0000000001127424
 40
0.4637468103423387
100
AcDbArc
 50
5.742254937375811
 51
94.77209338380122
  0
ARC
  5
C72D
330
18
100
AcDbEntity
  8
01
  6
BYBLOCK
100
AcDbCircle
 10
4794.566550305186
 20
968.7118229475097
 30
0.0000000001127424
 40
10.00000000000009
100
AcDbArc
 50
270.0
 51
295.4224671781395
  0
LINE
  5
C72E
330
18
100
AcDbEntity
  8
01
  6
CONTINUOUS
100
AcDbLine
 10
4787.859443523999
 20
977.0266171403407
 30
0.0000000001127424
 11
4798.359443523999
 21
977.0266171403407
 31
0.0000000001127424
  0
LINE
  5
C72F
330
18
100
AcDbEntity
  8
01
100
AcDbLine
 10
5094.859210844508
 20
964.0611745203935
 30
0.0000000001127424
 11
5094.859210844508
 21
931.9118229474964
 31
0.0000000001127424
  0
ARC
  5
C730
330
18
100
AcDbEntity
  8
01
100
AcDbCircle
 10
5093.859210844508
 20
931.7118229474963
 30
0.0000000001127424
 40
1.0
100
AcDbArc
 50
270.0
 51
0.0
  0
LINE
  5
C731
330
18
100
AcDbEntity
  8
01
100
AcDbLine
 10
5057.64983813221
 20
930.7118229474963
 30
0.0000000001127424
 11
5093.859210844508
 21
930.7118229474966
 31
0.0000000001127424
  0
LINE
  5
C733
330
18
100
AcDbEntity
  8
01
100
AcDbLine
 10
4766.859443523999
 20
946.7118229474963
 30
0.0000000001127424
 11
4706.859443523999
 21
946.7118229474963
 31
0.0000000001127424
  0
LINE
  5
C734
330
18
100
AcDbEntity
  8
01
100
AcDbLine
 10
4736.859443523999
 20
976.7118229474963
 30
0.0000000001127424
 11
4736.859443523999
 21
916.7118229474963
 31
0.0000000001127424
  0
LINE
  5
C73B
330
18
100
AcDbEntity
  8
01
  6
BYBLOCK
100
AcDbLine
 10
5094.859210844508
 20
993.4939419150746
 30
0.0000000001128561
 11
5094.859210844508
 21
964.0611745203935
 31
0.0000000001127424
  0
LINE
  5
C73C
330
18
100
AcDbEntity
  8
01
  6
BYBLOCK
100
AcDbLine
 10
5028.559210844508
 20
1004.711822947496
 30
0.0000000001127424
 11
5057.016107766525
 21
1004.711822947496
 31
0.0000000001128561
  0
ARC
  5
C73D
330
18
100
AcDbEntity
  8
01
  6
BYBLOCK
100
AcDbCircle
 10
5093.859210844508
 20
1003.711822947496
 30
0.0000000001127424
 40
1.0
100
AcDbArc
 50
0.0
 51
90.0
  0
LINE
  5
C73E
330
18
100
AcDbEntity
  8
01
  6
BYBLOCK
100
AcDbLine
 10
5057.016107766525
 20
1004.711822947496
 30
0.0000000001128561
 11
5093.859210844508
 21
1004.711822947496
 31
0.0000000001127424
  0
LINE
  5
C73F
330
18
100
AcDbEntity
  8
01
  6
BYBLOCK
100
AcDbLine
 10
5094.859210844508
 20
1003.711822947496
 30
0.0000000001127424
 11
5094.859210844508
 21
993.4939419150746
 31
0.0000000001128561
  0
LINE
  5
C740
330
18
100
AcDbEntity
  8
01
100
AcDbLine
 10
4792.859443523999
 20
1024.711822947496
 30
0.0000000001127424
 11
4778.859443523999
 21
1024.711822947496
 31
0.0000000001127424
  0
LINE
  5
C741
330
18
100
AcDbEntity
  8
01
  6
BYBLOCK
100
AcDbLine
 10
4786.359443523999
 20
1032.611822947496
 30
0.0000000001127424
 11
4786.359443523999
 21
902.8118229474965
 31
0.0000000001127424
  0
LINE
  5
C742
330
18
100
AcDbEntity
  8
01
  6
BYBLOCK
100
AcDbLine
 10
4786.359443523999
 20
903.7118229474963
 30
0.0000000001127424
 11
4783.859443523999
 21
903.7118229474963
 31
0.0000000001127424
  0
LINE
  5
C743
330
18
100
AcDbEntity
  8
01
  6
BYBLOCK
100
AcDbLine
 10
4783.859443523999
 20
903.7118229474963
 30
0.0000000001127424
 11
4783.859443523999
 21
920.2147666726487
 31
0.0000000001127424
  0
LINE
  5
C744
330
18
100
AcDbEntity
  8
01
  6
BYBLOCK
100
AcDbLine
 10
4787.859443523999
 20
1032.611822947496
 30
0.0000000001127424
 11
4787.859443523999
 21
902.8118229474965
 31
0.0000000001127424
  0
LINE
  5
C745
330
18
100
AcDbEntity
  8
01
  6
BYBLOCK
100
AcDbLine
 10
4787.859443523999
 20
902.8118229474965
 30
0.0000000001127424
 11
4786.359443523999
 21
902.8118229474965
 31
0.0000000001127424
  0
LINE
  5
C746
330
18
100
AcDbEntity
  8
01
  6
BYBLOCK
100
AcDbLine
 10
4786.359443523999
 20
1031.711822947496
 30
0.0000000001127424
 11
4783.859443523999
 21
1031.711822947496
 31
0.0000000001127424
  0
LINE
  5
C747
330
18
100
AcDbEntity
  8
01
  6
BYBLOCK
100
AcDbLine
 10
4787.859443523999
 20
1032.611822947496
 30
0.0000000001127424
 11
4786.359443523999
 21
1032.611822947496
 31
0.0000000001127424
  0
LINE
  5
C748
330
18
100
AcDbEntity
  8
01
  6
BYBLOCK
100
AcDbLine
 10
4786.359443523999
 20
1007.711822947496
 30
0.0000000001127424
 11
4785.159443523999
 21
1007.711822947496
 31
0.0000000001127424
  0
LINE
  5
C749
330
18
100
AcDbEntity
  8
01
  6
BYBLOCK
100
AcDbLine
 10
4785.159443523999
 20
1013.411822947497
 30
0.0000000001127424
 11
4785.159443523999
 21
922.0118229474965
 31
0.0000000001127424
  0
LINE
  5
C74A
330
18
100
AcDbEntity
  8
01
  6
BYBLOCK
100
AcDbLine
 10
4785.059443523999
 20
903.7118229474963
 30
0.0000000001127424
 11
4785.059443523999
 21
920.3118229474965
 31
0.0000000001127424
  0
LINE
  5
C74B
330
18
100
AcDbEntity
  8
01
  6
BYBLOCK
100
AcDbLine
 10
4785.059443523999
 20
920.3118229474965
 30
0.0000000001127424
 11
4786.007971661424
 21
921.2603510849203
 31
0.0000000001127424
  0
LINE
  5
C74C
330
18
100
AcDbEntity
  8
01
  6
BYBLOCK
100
AcDbLine
 10
4784.210915386576
 20
921.0632948100726
 30
0.0000000001127424
 11
4785.159443523999
 21
922.0118229474965
 31
0.0000000001127424
  0
ARC
  5
C74D
330
18
100
AcDbEntity
  8
01
  6
BYBLOCK
100
AcDbCircle
 10
4785.059443523999
 20
920.2147666726487
 30
0.0000000001127424
 40
1.2
100
AcDbArc
 50
134.9999999999447
 51
180.0
  0
ARC
  5
C74E
330
18
100
AcDbEntity
  8
01
  6
BYBLOCK
100
AcDbCircle
 10
4785.159443523999
 20
922.1088792223443
 30
0.0000000001127424
 40
1.2
100
AcDbArc
 50
314.9999999999447
 51
0.0
  0
LINE
  5
C74F
330
18
100
AcDbEntity
  8
01
  6
BYBLOCK
100
AcDbLine
 10
4783.859443523999
 20
1031.711822947496
 30
0.0000000001127424
 11
4783.859443523999
 21
1015.208879222344
 31
0.0000000001127424
  0
LINE
  5
C750
330
18
100
AcDbEntity
  8
01
  6
BYBLOCK
100
AcDbLine
 10
4785.059443523999
 20
1031.711822947496
 30
0.0000000001127424
 11
4785.059443523999
 21
1015.111822947496
 31
0.0000000001127424
  0
LINE
  5
C751
330
18
100
AcDbEntity
  8
01
  6
BYBLOCK
100
AcDbLine
 10
4785.059443523999
 20
1015.111822947496
 30
0.0000000001127424
 11
4786.007971661424
 21
1014.163294810073
 31
0.0000000001127424
  0
LINE
  5
C752
330
18
100
AcDbEntity
  8
01
  6
BYBLOCK
100
AcDbLine
 10
4784.210915386576
 20
1014.36035108492
 30
0.0000000001127424
 11
4785.159443523999
 21
1013.411822947496
 31
0.0000000001127424
  0
ARC
  5
C753
330
18
100
AcDbEntity
  8
01
  6
BYBLOCK
100
AcDbCircle
 10
4785.059443523999
 20
1015.208879222344
 30
0.0000000001127424
 40
1.2
100
AcDbArc
 50
180.0
 51
225.0000000000553
  0
ARC
  5
C754
330
18
100
AcDbEntity
  8
01
  6
BYBLOCK
100
AcDbCircle
 10
4785.159443523999
 20
1013.314766672649
 30
0.0000000001127424
 40
1.2
100
AcDbArc
 50
0.0
 51
45.00000000005527
  0
CIRCLE
  5
C755
330
18
100
AcDbEntity
  8
01
  6
BYBLOCK
100
AcDbCircle
 10
4736.859443523999
 20
996.7118229474963
 30
0.0000000001127424
 40
4.749999999999998
  0
LINE
  5
C756
330
18
100
AcDbEntity
  8
01
  6
BYBLOCK
100
AcDbLine
 10
4785.159443523999
 20
930.7118229474961
 30
0.0000000001127424
 11
4756.068816236299
 21
930.7118229474963
 31
0.0000000001127424
  0
LINE
  5
C757
330
18
100
AcDbEntity
  8
01
  6
BYBLOCK
100
AcDbLine
 10
4740.465688108051
 20
996.7118229474963
 30
0.0000000001127424
 11
4736.859443523999
 21
1000.318067531548
 31
0.0000000001127424
  0
LINE
  5
C758
330
18
100
AcDbEntity
  8
01
  6
BYBLOCK
100
AcDbLine
 10
4733.253198939948
 20
996.7118229474963
 30
0.0000000001127424
 11
4736.859443523999
 21
1000.318067531548
 31
0.0000000001127424
  0
LINE
  5
C759
330
18
100
AcDbEntity
  8
01
  6
BYBLOCK
100
AcDbLine
 10
4740.465688108051
 20
996.7118229474963
 30
0.0000000001127424
 11
4736.859443523999
 21
993.1055783634451
 31
0.0000000001127424
  0
LINE
  5
C75A
330
18
100
AcDbEntity
  8
01
  6
BYBLOCK
100
AcDbLine
 10
4733.253198939948
 20
996.7118229474963
 30
0.0000000001127424
 11
4736.859443523999
 21
993.1055783634451
 31
0.0000000001127424
  0
LINE
  5
C75B
330
18
100
AcDbEntity
  8
01
  6
BYBLOCK
100
AcDbLine
 10
4794.566550305186
 20
978.7118229475095
 30
0.0000000001127424
 11
4787.859443523999
 21
978.7118229475095
 31
0.0000000001127424
  0
LINE
  5
C75C
330
18
100
AcDbEntity
  8
01
  6
BYBLOCK
100
AcDbLine
 10
4794.566550305186
 20
958.7118229475095
 30
0.0000000001127424
 11
4787.859443523999
 21
958.7118229475095
 31
0.0000000001127424
  0
LINE
  5
C75D
330
18
100
AcDbEntity
  8
01
100
AcDbLine
 10
4792.859443523712
 20
910.7118229477851
 30
0.0000000001127424
 11
4778.859443523712
 21
910.7118229477851
 31
0.0000000001127424
  0
LINE
  5
C75E
330
18
100
AcDbEntity
  8
01
  6
BYBLOCK
100
AcDbLine
 10
4718.859443523999
 20
993.4939419150746
 30
0.0000000001128561
 11
4718.859443523999
 21
964.0611745203935
 31
0.0000000001127424
  0
LINE
  5
C75F
330
18
100
AcDbEntity
  8
01
  6
BYBLOCK
100
AcDbLine
 10
4785.159443523999
 20
1004.711822947496
 30
0.0000000001127424
 11
4756.702546601982
 21
1004.711822947496
 31
0.0000000001128561
  0
ARC
  5
C760
330
18
100
AcDbEntity
  8
01
  6
BYBLOCK
100
AcDbCircle
 10
4719.859443523999
 20
1003.711822947496
 30
0.0000000001127424
 40
0.9999999999999996
100
AcDbArc
 50
90.0
 51
180.0
  0
LINE
  5
C761
330
18
100
AcDbEntity
  8
01
  6
BYBLOCK
100
AcDbLine
 10
4756.702546601982
 20
1004.711822947496
 30
0.0000000001128561
 11
4719.859443523999
 21
1004.711822947496
 31
0.0000000001127424
  0
LINE
  5
C762
330
18
100
AcDbEntity
  8
01
  6
BYBLOCK
100
AcDbLine
 10
4718.859443523999
 20
1003.711822947496
 30
0.0000000001127424
 11
4718.859443523999
 21
993.4939419150746
 31
0.0000000001128561
  0
TEXT
  5
C765
330
18
100
AcDbEntity
  8
1TEXT
100
AcDbText
 10
4718.859343184253
 20
1228.211822947496
 30
0.0000000001127424
 40
20.0
  1
1-V1C-X-LJ
100
AcDbText
  0
TEXT
  5
C76B
330
18
100
AcDbEntity
  8
1TEXT
100
AcDbText
 10
4731.059343184254
 20
1189.961822947496
 30
0.0000000001127424
 40
6.0
  1
表面処理
 72
     1
 11
4744.959343184253
 21
1189.961822947496
 31
0.0000000001127424
100
AcDbText
  0
TEXT
  5
C76C
330
18
100
AcDbEntity
  8
1TEXT
100
AcDbText
 10
4730.759343184253
 20
1179.70888995821
 30
0.0000000001127424
 40
6.0
  1
クローム
 72
     1
 11
4744.959343184253
 21
1179.70888995821
 31
0.0000000001127424
100
AcDbText
  0
LINE
  5
C76D
330
18
100
AcDbEntity
  8
1DIM
100
AcDbLine
 10
4718.859343184253
 20
1198.211822947496
 30
0.0000000001127424
 11
4823.859343184253
 21
1198.211822947496
 31
0.0000000001127424
  0
LINE
  5
C76E
330
18
100
AcDbEntity
  8
1DIM
100
AcDbLine
 10
4718.859343184253
 20
1187.711822947496
 30
0.0000000001127424
 11
4823.859343184253
 21
1187.711822947496
 31
0.0000000001127424
  0
LINE
  5
C76F
330
18
100
AcDbEntity
  8
1DIM
100
AcDbLine
 10
4718.859343184253
 20
1177.211822947496
 30
0.0000000001127424
 11
4823.859343184253
 21
1177.211822947496
 31
0.0000000001127424
  0
LINE
  5
C770
330
18
100
AcDbEntity
  8
1DIM
100
AcDbLine
 10
4718.859343184253
 20
1177.211822947496
 30
0.0000000001127424
 11
4823.859343184253
 21
1177.211822947496
 31
0.0000000001127424
  0
LINE
  5
C771
330
18
100
AcDbEntity
  8
1DIM
100
AcDbLine
 10
4771.359343184253
 20
1198.211822947496
 30
0.0000000001127424
 11
4771.359343184253
 21
1177.211822947496
 31
0.0000000001127424
  0
TEXT
  5
C772
330
18
100
AcDbEntity
  8
1TEXT
100
AcDbText
 10
4777.859343184253
 20
1179.140287472022
 30
0.0000000001127424
 40
6.0
  1
1-V1C-C-LJ
 41
0.6999999999999998
 72
     1
 11
4797.459343184253
 21
1179.140287472022
 31
0.0000000001127424
100
AcDbText
  0
TEXT
  5
C773
330
18
100
AcDbEntity
  8
1TEXT
100
AcDbText
 10
4787.159343184253
 20
1189.961822947496
 30
0.0000000001127424
 40
6.0
  1
コード
 72
     1
 11
4797.459343184253
 21
1189.961822947496
 31
0.0000000001127424
100
AcDbText
  0
LINE
  5
C774
330
18
100
AcDbEntity
  8
1DIM
100
AcDbLine
 10
4823.859343184253
 20
1177.211822947496
 30
0.0000000001127424
 11
4823.859343184253
 21
1198.211822947496
 31
0.0000000001127424
  0
LINE
  5
C775
330
18
100
AcDbEntity
  8
1DIM
100
AcDbLine
 10
4718.859343184253
 20
1177.211822947496
 30
0.0000000001127424
 11
4823.859343184253
 21
1177.211822947496
 31
0.0000000001127424
  0
LINE
  5
C776
330
18
100
AcDbEntity
  8
1DIM
100
AcDbLine
 10
4771.359343184253
 20
1177.211822947496
 30
0.0000000001127424
 11
4771.359343184253
 21
1166.711822947496
 31
0.0000000001127424
  0
LINE
  5
C777
330
18
100
AcDbEntity
  8
1DIM
100
AcDbLine
 10
4718.859343184253
 20
1166.711822947496
 30
0.0000000001127424
 11
4823.859343184253
 21
1166.711822947496
 31
0.0000000001127424
  0
TEXT
  5
C778
330
18
100
AcDbEntity
  8
1TEXT
100
AcDbText
 10
4720.159343184253
 20
1169.24545253014
 30
0.0000000001127424
 40
6.0
  1
サテンニッケル
 72
     1
 11
4744.959343184253
 21
1169.24545253014
 31
0.0000000001127424
100
AcDbText
  0
LINE
  5
C779
330
18
100
AcDbEntity
  8
1DIM
100
AcDbLine
 10
4718.859343184253
 20
1166.711822947496
 30
0.0000000001127424
 11
4718.859343184253
 21
1177.211822947496
 31
0.0000000001127424
  0
LINE
  5
C77A
330
18
100
AcDbEntity
  8
1DIM
100
AcDbLine
 10
4823.859343184253
 20
1166.711822947496
 30
0.0000000001127424
 11
4823.859343184253
 21
1177.211822947496
 31
0.0000000001127424
  0
TEXT
  5
C77B
330
18
100
AcDbEntity
  8
1TEXT
100
AcDbText
 10
4777.859343184253
 20
1168.640287472022
 30
0.0000000001127424
 40
6.0
  1
1-V1C-N-LJ
 41
0.6999999999999998
 72
     1
 11
4797.459343184253
 21
1168.640287472022
 31
0.0000000001127424
100
AcDbText
  0
LINE
  5
C77C
330
18
100
AcDbEntity
  8
1DIM
100
AcDbLine
 10
4718.859343184253
 20
1177.211822947496
 30
0.0000000001127424
 11
4718.859343184253
 21
1198.211822947496
 31
0.0000000001127424
  0
LINE
  5
CAA6
330
18
100
AcDbEntity
  8
01
100
AcDbLine
 10
5052.859210844508
 20
1188.211822947496
 30
0.0000000001127424
 11
5100.859210844508
 21
1188.211822947496
 31
0.0000000001127424
  0
LINE
  5
CAA7
330
18
100
AcDbEntity
  8
01
100
AcDbLine
 10
5051.859210844508
 20
1196.711822947496
 30
0.0000000001127424
 11
5051.859210844508
 21
1189.211822947496
 31
0.0000000001127424
  0
ARC
  5
CAA8
330
18
100
AcDbEntity
  8
01
100
AcDbCircle
 10
5052.859210844508
 20
1189.211822947496
 30
0.0000000001127424
 40
1.0
100
AcDbArc
 50
180.0
 51
270.0
  0
LINE
  5
CAA9
330
18
100
AcDbEntity
  8
01
100
AcDbLine
 10
5101.859210844508
 20
1196.711822947496
 30
0.0000000001127424
 11
5101.859210844508
 21
1189.211822947496
 31
0.0000000001127424
  0
ARC
  5
CAAA
330
18
100
AcDbEntity
  8
01
100
AcDbCircle
 10
5100.859210844508
 20
1189.211822947496
 30
0.0000000001127424
 40
1.0
100
AcDbArc
 50
270.0
 51
0.0
  0
ARC
  5
CAAB
330
18
100
AcDbEntity
  8
01
100
AcDbCircle
 10
5076.859210844508
 20
946.7131412605991
 30
0.0000000001127424
 40
25.0
100
AcDbArc
 50
22.33368265780555
 51
337.6663173421945
  0
LINE
  5
CAAD
330
18
100
AcDbEntity
  8
01
100
AcDbLine
 10
4926.859210844508
 20
971.7131412605991
 30
0.0000000001127424
 11
4926.859210844508
 21
921.7131412605991
 31
0.0000000001127424
  0
LINE
  5
CAAE
330
18
100
AcDbEntity
  8
01
100
AcDbLine
 10
4935.359210844508
 20
922.7131412605991
 30
0.0000000001127424
 11
4935.359210844508
 21
970.7131412605991
 31
0.0000000001127424
  0
LINE
  5
CAAF
330
18
100
AcDbEntity
  8
01
100
AcDbLine
 10
4926.859210844508
 20
921.7131412605991
 30
0.0000000001127424
 11
4934.359210844508
 21
921.7131412605991
 31
0.0000000001127424
  0
ARC
  5
CAB0
330
18
100
AcDbEntity
  8
01
100
AcDbCircle
 10
4934.359210844508
 20
922.7131412605991
 30
0.0000000001127424
 40
1.0
100
AcDbArc
 50
270.0
 51
0.0
  0
LINE
  5
CAB1
330
18
100
AcDbEntity
  8
01
100
AcDbLine
 10
4926.859210844508
 20
971.7131412605991
 30
0.0000000001127424
 11
4934.359210844508
 21
971.7131412605991
 31
0.0000000001127424
  0
ARC
  5
CAB2
330
18
100
AcDbEntity
  8
01
100
AcDbCircle
 10
4934.359210844508
 20
970.7131412605991
 30
0.0000000001127424
 40
1.0
100
AcDbArc
 50
0.0
 51
90.0
  0
POINT
  5
CAB3
330
18
100
AcDbEntity
  8
01
100
AcDbPoint
 10
4941.359210844508
 20
946.7131412605991
 30
0.0000000001127424
  0
LINE
  5
CAB4
330
18
100
AcDbEntity
  8
01
100
AcDbLine
 10
4940.95921083451
 20
944.9631412605991
 30
0.0000000001127424
 11
4940.95921083451
 21
945.8131412805992
 31
0.0000000001127424
  0
LINE
  5
CAB5
330
18
100
AcDbEntity
  8
01
100
AcDbLine
 10
4941.75921085451
 20
944.9631412605991
 30
0.0000000001127424
 11
4941.75921085451
 21
945.8131412805992
 31
0.0000000001127424
  0
LINE
  5
CAB6
330
18
100
AcDbEntity
  8
01
100
AcDbLine
 10
4940.459210864508
 20
946.3131412505986
 30
0.0000000001127424
 11
4939.609210844508
 21
946.3131412505986
 31
0.0000000001127424
  0
LINE
  5
CAB7
330
18
100
AcDbEntity
  8
01
100
AcDbLine
 10
4940.459210864508
 20
947.1131412705986
 30
0.0000000001127424
 11
4939.609210844508
 21
947.1131412705986
 31
0.0000000001127424
  0
LINE
  5
CAB8
330
18
100
AcDbEntity
  8
01
100
AcDbLine
 10
4939.609210844508
 20
946.3131412505986
 30
0.0000000001127424
 11
4939.609210844508
 21
947.1131412705986
 31
0.0000000001127424
  0
LINE
  5
CAB9
330
18
100
AcDbEntity
  8
01
100
AcDbLine
 10
4941.75921085451
 20
944.9631412605991
 30
0.0000000001127424
 11
4940.95921083451
 21
944.9631412605991
 31
0.0000000001127424
  0
LINE
  5
CABA
330
18
100
AcDbEntity
  8
01
100
AcDbLine
 10
4941.75921085451
 20
948.4631412605991
 30
0.0000000001127424
 11
4941.75921085451
 21
947.6131412405989
 31
0.0000000001127424
  0
LINE
  5
CABB
330
18
100
AcDbEntity
  8
01
100
AcDbLine
 10
4940.95921083451
 20
948.4631412605991
 30
0.0000000001127424
 11
4940.95921083451
 21
947.6131412405989
 31
0.0000000001127424
  0
LINE
  5
CABC
330
18
100
AcDbEntity
  8
01
100
AcDbLine
 10
4942.259210824508
 20
947.1131412705986
 30
0.0000000001127424
 11
4943.109210844508
 21
947.1131412705986
 31
0.0000000001127424
  0
LINE
  5
CABD
330
18
100
AcDbEntity
  8
01
100
AcDbLine
 10
4942.259210824508
 20
946.3131412505986
 30
0.0000000001127424
 11
4943.109210844508
 21
946.3131412505986
 31
0.0000000001127424
  0
LINE
  5
CABE
330
18
100
AcDbEntity
  8
01
100
AcDbLine
 10
4943.109210844508
 20
947.1131412705986
 30
0.0000000001127424
 11
4943.109210844508
 21
946.3131412505986
 31
0.0000000001127424
  0
LINE
  5
CABF
330
18
100
AcDbEntity
  8
01
100
AcDbLine
 10
4940.95921083451
 20
948.4631412605991
 30
0.0000000001127424
 11
4941.75921085451
 21
948.4631412605991
 31
0.0000000001127424
  0
CIRCLE
  5
CAC0
330
18
100
AcDbEntity
  8
01
100
AcDbCircle
 10
4941.359210844508
 20
946.7131412605991
 30
0.0000000001127424
 40
2.5
  0
ARC
  5
CAC1
330
18
100
AcDbEntity
  8
01
100
AcDbCircle
 10
4942.259210824508
 20
947.6131412405989
 30
0.0000000001127424
 40
0.5
100
AcDbArc
 50
179.999989999999
 51
270.0
  0
ARC
  5
CAC2
330
18
100
AcDbEntity
  8
01
100
AcDbCircle
 10
4942.259210824508
 20
945.8131412805992
 30
0.0000000001127424
 40
0.5
100
AcDbArc
 50
90.00000299998466
 51
180.000010000001
  0
ARC
  5
CAC3
330
18
100
AcDbEntity
  8
01
100
AcDbCircle
 10
4940.459210864508
 20
945.8131412805992
 30
0.0000000001127424
 40
0.5
100
AcDbArc
 50
0.0
 51
90.00000299998466
  0
ARC
  5
CAC4
330
18
100
AcDbEntity
  8
01
100
AcDbCircle
 10
4940.459210864508
 20
947.6131412405989
 30
0.0000000001127424
 40
0.5
100
AcDbArc
 50
270.0
 51
0.0
  0
LINE
  5
CAC6
330
18
100
AcDbEntity
  8
1CENTER
100
AcDbLine
 10
4941.359210844508
 20
940.7131412605991
 30
0.0000000001127424
 11
4941.359210844508
 21
952.7131412605991
 31
0.0000000001127424
  0
LINE
  5
CAC7
330
18
100
AcDbEntity
  8
01
100
AcDbLine
 10
4924.730925462078
 20
946.7131412605991
 30
0.0000000001127424
 11
4947.359210844508
 21
946.7131412605991
 31
0.0000000001127424
  0
LINE
  5
CAC8
330
18
100
AcDbEntity
  8
01
100
AcDbLine
 10
5051.859210844508
 20
1196.711822947496
 30
0.0000000001127424
 11
5101.859210844508
 21
1196.711822947496
 31
0.0000000001127424
  0
LINE
  5
CAC9
330
18
100
AcDbEntity
  8
1CENTER
100
AcDbLine
 10
5060.775536080568
 20
1182.211830980749
 30
0.0000000001127424
 11
5068.909208442416
 21
1182.211822947499
 31
0.0000000001127424
  0
LINE
  5
CACA
330
18
100
AcDbEntity
  8
01
100
AcDbLine
 10
5076.859210844508
 20
1201.711822947496
 30
0.0000000001127424
 11
5076.859210844508
 21
1175.211822947496
 31
0.0000000001127424
  0
LINE
  5
CAD0
330
18
100
AcDbEntity
  8
01
100
AcDbLine
 10
5046.859210844508
 20
946.7131412605991
 30
0.0000000001127424
 11
5106.859210844508
 21
946.7131412605991
 31
0.0000000001127424
  0
LINE
  5
CAD1
330
18
100
AcDbEntity
  8
01
100
AcDbLine
 10
5076.859210844508
 20
976.7131412605991
 30
0.0000000001127424
 11
5076.859210844508
 21
916.7131412605991
 31
0.0000000001127424
  0
LINE
  5
CAD2
330
18
100
AcDbEntity
  8
01
100
AcDbLine
 10
5087.497455300596
 20
1159.211822947496
 30
0.0000000001127424
 11
5181.859210844509
 21
1159.211822947496
 31
0.0000000001127424
  0
LINE
  5
CAD3
330
18
100
AcDbEntity
  8
01
100
AcDbLine
 10
5068.471139511121
 20
1140.211822947496
 30
0.0000000001127424
 11
5181.859210844509
 21
1140.211822947496
 31
0.0000000001127424
  0
ARC
  5
CAD4
330
18
100
AcDbEntity
  8
01
100
AcDbCircle
 10
5068.471139511121
 20
1141.211822947496
 30
0.0000000001127424
 40
1.0
100
AcDbArc
 50
180.7538483330612
 51
270.0
  0
LINE
  5
CAD5
330
18
100
AcDbEntity
  8
01
100
AcDbLine
 10
5086.484210844508
 20
1159.211822947496
 30
0.0000000001127424
 11
5067.770598601296
 21
1140.498210704285
 31
0.0000000001127424
  0
LINE
  5
CAD6
330
18
100
AcDbEntity
  8
01
100
AcDbLine
 10
5067.471226064979
 20
1141.198666191626
 30
0.0000000001127424
 11
5066.859210844507
 21
1187.711822947496
 31
0.0000000001127424
  0
LINE
  5
CAD7
330
18
100
AcDbEntity
  8
01
100
AcDbLine
 10
5086.497541854455
 20
1160.224979703367
 30
0.0000000001127424
 11
5086.859210844508
 21
1187.711822947496
 31
0.0000000001127424
  0
LINE
  5
CAD8
330
18
100
AcDbEntity
  8
01
100
AcDbLine
 10
5086.859210844508
 20
1187.711822947496
 30
0.0000000001127424
 11
5066.859210844507
 21
1187.711822947496
 31
0.0000000001127424
  0
ARC
  5
CAD9
330
18
100
AcDbEntity
  8
01
100
AcDbCircle
 10
5087.497455300596
 20
1160.211822947496
 30
0.0000000001127424
 40
1.0
100
AcDbArc
 50
179.2461516669388
 51
270.0
  0
ARC
  5
CADA
330
18
100
AcDbEntity
  8
01
100
AcDbCircle
 10
5181.859210844509
 20
1141.211822947496
 30
0.0000000001127424
 40
1.0
100
AcDbArc
 50
270.0
 51
0.0
  0
LINE
  5
CADB
330
18
100
AcDbEntity
  8
01
100
AcDbLine
 10
5182.859210844509
 20
1158.211822947496
 30
0.0000000001127424
 11
5182.859210844509
 21
1141.211822947496
 31
0.0000000001127424
  0
ARC
  5
CADC
330
18
100
AcDbEntity
  8
01
100
AcDbCircle
 10
5181.859210844509
 20
1158.211822947496
 30
0.0000000001127424
 40
1.0
100
AcDbArc
 50
0.0
 51
90.0
  0
ARC
  5
CADD
330
18
100
AcDbEntity
  8
01
100
AcDbCircle
 10
5101.359210844508
 20
1188.811823690591
 30
0.0000000001127424
 40
0.5
100
AcDbArc
 50
270.0
 51
0.0
  0
LINE
  5
CADE
330
18
100
AcDbEntity
  8
1CENTER
100
AcDbLine
 10
5076.859210844508
 20
940.7131412605991
 30
0.0000000001127424
 11
5076.859210844508
 21
952.7131412605991
 31
0.0000000001127424
  0
LINE
  5
CADF
330
18
100
AcDbEntity
  8
1CENTER
100
AcDbLine
 10
5070.859210844508
 20
946.7131412605991
 30
0.0000000001127424
 11
5082.859210844508
 21
946.7131412605991
 31
0.0000000001127424
  0
LINE
  5
CAE0
330
18
100
AcDbEntity
  8
01
100
AcDbLine
 10
5076.859210844509
 20
956.2131412605991
 30
0.0000000001127424
 11
5181.859210844509
 21
956.2131412605991
 31
0.0000000001127424
  0
LINE
  5
CAE1
330
18
100
AcDbEntity
  8
01
100
AcDbLine
 10
5076.859210844508
 20
937.2131412605991
 30
0.0000000001127424
 11
5181.859210844508
 21
937.2131412605991
 31
0.0000000001127424
  0
ELLIPSE
  5
CAE2
330
18
100
AcDbEntity
  8
01
100
AcDbEllipse
 10
5076.859210844508
 20
946.7131412605991
 30
0.0000000001127424
 11
-9.626666666667004
 21
0.0
 31
0.0
210
0.0
220
0.0
230
1.0
 40
0.9868421052631231
 41
4.71238898038469
 42
7.853981633974483
  0
LINE
  5
CAE3
330
18
100
AcDbEntity
  8
01
100
AcDbLine
 10
5182.859210844509
 20
955.2131412605991
 30
0.0000000001127424
 11
5182.859210844508
 21
938.2131412605991
 31
0.0000000001127424
  0
ARC
  5
CAE4
330
18
100
AcDbEntity
  8
01
100
AcDbCircle
 10
5181.859210844508
 20
938.2131412605991
 30
0.0000000001127424
 40
1.0
100
AcDbArc
 50
270.0
 51
0.0
  0
ARC
  5
CAE5
330
18
100
AcDbEntity
  8
01
100
AcDbCircle
 10
5181.859210844509
 20
955.2131412605991
 30
0.0000000001127424
 40
1.0
100
AcDbArc
 50
0.0
 51
90.0
  0
ARC
  5
CAE6
330
18
100
AcDbEntity
  8
01
100
AcDbCircle
 10
4973.959211587603
 20
946.7131412605991
 30
0.0000000001127424
 40
9.5
100
AcDbArc
 50
270.0
 51
90.0
  0
LINE
  5
CAE7
330
18
100
AcDbEntity
  8
01
100
AcDbLine
 10
4935.859210844508
 20
936.7131412605991
 30
0.0000000001127424
 11
4935.859210844507
 21
956.7131412606
 31
0.0000000001127424
  0
LINE
  5
CAE8
330
18
100
AcDbEntity
  8
01
100
AcDbLine
 10
4973.959211587603
 20
956.2131412605991
 30
0.0000000001127424
 11
4935.959211587603
 21
956.7131412606
 31
0.0000000001127424
  0
LINE
  5
CAE9
330
18
100
AcDbEntity
  8
01
100
AcDbLine
 10
4973.959211587602
 20
937.2131412605991
 30
0.0000000001127424
 11
4935.959211587603
 21
936.7131412606
 31
0.0000000001127424
  0
ARC
  5
CAEA
330
18
100
AcDbEntity
  8
01
100
AcDbCircle
 10
4736.859443523997
 20
946.7131412605991
 30
0.0000000001127424
 40
25.0
100
AcDbArc
 50
202.3336826577935
 51
157.6663173422065
  0
LINE
  5
CAEB
330
18
100
AcDbEntity
  8
01
100
AcDbLine
 10
4766.859443523997
 20
946.7131412605991
 30
0.0000000001127424
 11
4706.859443523997
 21
946.7131412605991
 31
0.0000000001127424
  0
LINE
  5
CAEC
330
18
100
AcDbEntity
  8
01
100
AcDbLine
 10
4736.859443523997
 20
976.7131412605991
 30
0.0000000001127424
 11
4736.859443523997
 21
916.7131412605991
 31
0.0000000001127424
  0
LINE
  5
CAED
330
18
100
AcDbEntity
  8
1CENTER
100
AcDbLine
 10
4736.859443523997
 20
940.7131412605991
 30
0.0000000001127424
 11
4736.859443523997
 21
952.7131412605991
 31
0.0000000001127424
  0
LINE
  5
CAEE
330
18
100
AcDbEntity
  8
1CENTER
100
AcDbLine
 10
4742.859443523997
 20
946.7131412605991
 30
0.0000000001127424
 11
4730.859443523997
 21
946.7131412605991
 31
0.0000000001127424
  0
LINE
  5
CAEF
330
18
100
AcDbEntity
  8
01
100
AcDbLine
 10
4736.859443523997
 20
956.2131412605991
 30
0.0000000001127424
 11
4631.859443523997
 21
956.2131412605991
 31
0.0000000001127424
  0
LINE
  5
CAF0
330
18
100
AcDbEntity
  8
01
100
AcDbLine
 10
4736.859443523997
 20
937.2131412605991
 30
0.0000000001127424
 11
4631.859443523997
 21
937.2131412605991
 31
0.0000000001127424
  0
ELLIPSE
  5
CAF1
330
18
100
AcDbEntity
  8
01
100
AcDbEllipse
 10
4736.859443523997
 20
946.7131412605991
 30
0.0000000001127424
 11
9.626666666667004
 21
0.0
 31
0.0
210
0.0
220
0.0
230
-1.0
 40
0.9868421052631231
 41
4.71238898038469
 42
7.853981633974483
  0
LINE
  5
CAF2
330
18
100
AcDbEntity
  8
01
100
AcDbLine
 10
4630.859443523997
 20
955.2131412605991
 30
0.0000000001127424
 11
4630.859443523997
 21
938.2131412605991
 31
0.0000000001127424
  0
ARC
  5
CAF3
330
18
100
AcDbEntity
  8
01
100
AcDbCircle
 10
4631.859443523997
 20
938.2131412605991
 30
0.0000000001127424
 40
1.0
100
AcDbArc
 50
180.0
 51
270.0
  0
ARC
  5
CAF4
330
18
100
AcDbEntity
  8
01
100
AcDbCircle
 10
4631.859443523997
 20
955.2131412605991
 30
0.0000000001127424
 40
1.0
100
AcDbArc
 50
90.0
 51
180.0
  0
ARC
  5
CAF5
330
18
100
AcDbEntity
  8
01
100
AcDbCircle
 10
4839.759442780903
 20
946.7131412605991
 30
0.0000000001127424
 40
9.5
100
AcDbArc
 50
90.0
 51
270.0
  0
LINE
  5
CAF6
330
18
100
AcDbEntity
  8
01
100
AcDbLine
 10
4877.859443523997
 20
936.7131412605991
 30
0.0000000001127424
 11
4877.859443523998
 21
956.7131412606
 31
0.0000000001127424
  0
LINE
  5
CAF7
330
18
100
AcDbEntity
  8
01
100
AcDbLine
 10
4839.759442780903
 20
956.2131412605991
 30
0.0000000001127424
 11
4877.759442780903
 21
956.7131412606
 31
0.0000000001127424
  0
LINE
  5
CAF8
330
18
100
AcDbEntity
  8
01
100
AcDbLine
 10
4839.759442780904
 20
937.2131412605991
 30
0.0000000001127424
 11
4877.759442780903
 21
936.7131412606
 31
0.0000000001127424
  0
LINE
  5
CAF9
330
18
100
AcDbEntity
  8
01
100
AcDbLine
 10
4926.85921084451
 20
1066.711822947496
 30
0.0000000001127424
 11
4926.85921084451
 21
876.7118229474959
 31
0.0000000001127424
  0
LINE
  5
CAFA
330
18
100
AcDbEntity
  8
01
100
AcDbLine
 10
5025.860095026568
 20
1196.711822946468
 30
0.0000000001127424
 11
5179.614475181601
 21
1196.711822946468
 31
0.0000000001127424
  0
LINE
  5
CAFB
330
18
100
AcDbEntity
  8
1CENTER
100
AcDbLine
 10
5060.775536080568
 20
1251.211814912186
 30
0.0000000001127424
 11
5068.909208442416
 21
1251.211822945436
 31
0.0000000001127424
  0
LINE
  5
CAFC
330
18
100
AcDbEntity
  8
01
100
AcDbLine
 10
5087.497455300596
 20
1274.211822945439
 30
0.0000000001127424
 11
5181.859210844509
 21
1274.211822945439
 31
0.0000000001127424
  0
LINE
  5
CAFD
330
18
100
AcDbEntity
  8
01
100
AcDbLine
 10
5068.471139511121
 20
1293.211822945439
 30
0.0000000001127424
 11
5181.859210844509
 21
1293.211822945439
 31
0.0000000001127424
  0
ARC
  5
CAFE
330
18
100
AcDbEntity
  8
01
100
AcDbCircle
 10
5068.471139511121
 20
1292.211822945439
 30
0.0000000001127424
 40
1.0
100
AcDbArc
 50
90.0
 51
179.2461516669388
  0
LINE
  5
CAFF
330
18
100
AcDbEntity
  8
01
100
AcDbLine
 10
5086.484210844508
 20
1274.211822945439
 30
0.0000000001127424
 11
5067.770598601296
 21
1292.92543518865
 31
0.0000000001127424
  0
LINE
  5
CB00
330
18
100
AcDbEntity
  8
01
100
AcDbLine
 10
5067.471226064979
 20
1292.224979701309
 30
0.0000000001127424
 11
5066.859210844507
 21
1245.711822945439
 31
0.0000000001127424
  0
LINE
  5
CB01
330
18
100
AcDbEntity
  8
01
100
AcDbLine
 10
5086.497541854455
 20
1273.198666189568
 30
0.0000000001127424
 11
5086.859210844508
 21
1245.711822945439
 31
0.0000000001127424
  0
LINE
  5
CB02
330
18
100
AcDbEntity
  8
01
100
AcDbLine
 10
5086.859210844508
 20
1245.711822945439
 30
0.0000000001127424
 11
5066.859210844507
 21
1245.711822945439
 31
0.0000000001127424
  0
ARC
  5
CB03
330
18
100
AcDbEntity
  8
01
100
AcDbCircle
 10
5087.497455300596
 20
1273.211822945439
 30
0.0000000001127424
 40
1.0
100
AcDbArc
 50
90.0
 51
180.7538483330612
  0
ARC
  5
CB04
330
18
100
AcDbEntity
  8
01
100
AcDbCircle
 10
5181.859210844509
 20
1292.211822945439
 30
0.0000000001127424
 40
1.0
100
AcDbArc
 50
0.0
 51
90.0
  0
LINE
  5
CB05
330
18
100
AcDbEntity
  8
01
100
AcDbLine
 10
5182.859210844509
 20
1275.211822945439
 30
0.0000000001127424
 11
5182.859210844509
 21
1292.211822945439
 31
0.0000000001127424
  0
ARC
  5
CB06
330
18
100
AcDbEntity
  8
01
100
AcDbCircle
 10
5181.859210844509
 20
1275.211822945439
 30
0.0000000001127424
 40
1.0
100
AcDbArc
 50
270.0
 51
0.0
  0
TEXT
  5
E318
330
18
100
AcDbEntity
  8
01
  6
CONTINUOUS
100
AcDbText
 10
4987.862371937526
 20
1159.295156279801
 30
0.0000000001127424
 40
4.55
  1
材質：亜鉛ダイキャスト
100
AcDbText
  0
TEXT
  5
E319
330
18
100
AcDbEntity
  8
01
  6
CONTINUOUS
100
AcDbText
 10
4998.17570527086
 20
1151.711822946468
 30
0.0000000001127424
 40
4.55
  1
仕上げ：各種メッキ
100
AcDbText
  0
LINE
  5
E31A
330
18
100
AcDbEntity
  8
01
100
AcDbLine
 10
5014.859210844508
 20
974.711822249365
 30
0.0000000001127424
 11
5014.859210844508
 21
1077.433315032184
 31
0.0000000001127424
1001
ACAD
1000
DSTYLE
1002
{
1070
    40
1040
1.3
1070
    45
1040
0.5
1002
}
  0
LINE
  5
E31B
330
18
100
AcDbEntity
  8
01
100
AcDbLine
 10
5025.859210844508
 20
1032.583140298654
 30
0.0000000001127424
 11
5025.859210844508
 21
1077.433315032184
 31
0.0000000001127424
1001
ACAD
1000
DSTYLE
1002
{
1070
    40
1040
1.3
1070
    45
1040
0.5
1002
}
  0
LINE
  5
E31C
330
18
100
AcDbEntity
  8
01
100
AcDbLine
 10
5017.459210844509
 20
1076.133315032184
 30
0.0000000001127424
 11
5023.259210844508
 21
1076.133315032184
 31
0.0000000001127424
1001
ACAD
1000
DSTYLE
1002
{
1070
    40
1040
1.3
1070
    45
1040
0.5
1002
}
  0
LINE
  5
E320
330
18
100
AcDbEntity
  8
01
100
AcDbLine
 10
5094.859210844508
 20
1004.711822947496
 30
0.0000000001127424
 11
5123.159210844508
 21
1004.711822947496
 31
0.0000000001127424
1001
ACAD
1000
DSTYLE
1002
{
1070
    40
1040
1.3
1070
    45
1040
0.5
1002
}
  0
LINE
  5
E321
330
18
100
AcDbEntity
  8
01
100
AcDbLine
 10
5094.859210844508
 20
930.7118229474959
 30
0.0000000001127424
 11
5123.159210844508
 21
930.7118229474959
 31
0.0000000001127424
1001
ACAD
1000
DSTYLE
1002
{
1070
    40
1040
1.3
1070
    45
1040
0.5
1002
}
  0
LINE
  5
E322
330
18
100
AcDbEntity
  8
01
100
AcDbLine
 10
5121.859210844508
 20
1002.111822947496
 30
0.0000000001127424
 11
5121.859210844508
 21
933.3118229474959
 31
0.0000000001127424
1001
ACAD
1000
DSTYLE
1002
{
1070
    40
1040
1.3
1070
    45
1040
0.5
1002
}
  0
LINE
  5
E326
330
18
100
AcDbEntity
  8
01
100
AcDbLine
 10
5094.859210844508
 20
1004.711822947496
 30
0.0000000001127424
 11
5094.859210844508
 21
1087.513182500232
 31
0.0000000001127424
1001
ACAD
1000
DSTYLE
1002
{
1070
    40
1040
1.3
1070
    45
1040
0.5
1002
}
  0
LINE
  5
E327
330
18
100
AcDbEntity
  8
01
100
AcDbLine
 10
5025.859210844508
 20
1032.583140298654
 30
0.0000000001127424
 11
5025.859210844508
 21
1087.513182500232
 31
0.0000000001127424
1001
ACAD
1000
DSTYLE
1002
{
1070
    40
1040
1.3
1070
    45
1040
0.5
1002
}
  0
LINE
  5
E328
330
18
100
AcDbEntity
  8
01
100
AcDbLine
 10
5092.259210844508
 20
1086.213182500233
 30
0.0000000001127424
 11
5028.459210844509
 21
1086.213182500233
 31
0.0000000001127424
1001
ACAD
1000
DSTYLE
1002
{
1070
    40
1040
1.3
1070
    45
1040
0.5
1002
}
  0
LINE
  5
E32C
330
18
100
AcDbEntity
  8
01
100
AcDbLine
 10
5025.859210844508
 20
1032.583140298654
 30
0.0000000001127424
 11
5025.859210844508
 21
1077.433315032184
 31
0.0000000001127424
1001
ACAD
1000
DSTYLE
1002
{
1070
    40
1040
1.3
1070
    45
1040
0.5
1002
}
  0
LINE
  5
E32D
330
18
100
AcDbEntity
  8
01
100
AcDbLine
 10
5076.859210844508
 20
996.7118229474963
 30
0.0000000001127424
 11
5076.859210844508
 21
1077.433315032184
 31
0.0000000001127424
1001
ACAD
1000
DSTYLE
1002
{
1070
    40
1040
1.3
1070
    45
1040
0.5
1002
}
  0
LINE
  5
E32E
330
18
100
AcDbEntity
  8
01
100
AcDbLine
 10
5028.459210844509
 20
1076.133315032184
 30
0.0000000001127424
 11
5074.259210844508
 21
1076.133315032184
 31
0.0000000001127424
1001
ACAD
1000
DSTYLE
1002
{
1070
    40
1040
1.3
1070
    45
1040
0.5
1002
}
  0
LINE
  5
E332
330
18
100
AcDbEntity
  8
01
100
AcDbLine
 10
4894.359327184253
 20
1026.711822947496
 30
0.0000000001127424
 11
4894.359327184253
 21
1077.433315032184
 31
0.0000000001127424
1001
ACAD
1000
DSTYLE
1002
{
1070
    40
1040
1.3
1070
    45
1040
0.5
1002
}
  0
LINE
  5
E333
330
18
100
AcDbEntity
  8
01
100
AcDbLine
 10
4919.359327184253
 20
1026.711822947496
 30
0.0000000001127424
 11
4919.359327184253
 21
1077.433315032184
 31
0.0000000001127424
1001
ACAD
1000
DSTYLE
1002
{
1070
    40
1040
1.3
1070
    45
1040
0.5
1002
}
  0
LINE
  5
E334
330
18
100
AcDbEntity
  8
01
100
AcDbLine
 10
4896.959327184253
 20
1076.133315032184
 30
0.0000000001127424
 11
4916.759327184252
 21
1076.133315032184
 31
0.0000000001127424
1001
ACAD
1000
DSTYLE
1002
{
1070
    40
1040
1.3
1070
    45
1040
0.5
1002
}
  0
LINE
  5
E338
330
18
100
AcDbEntity
  8
01
100
AcDbLine
 10
4873.65836528993
 20
947.4618229474959
 30
0.0
 11
4872.359327184253
 21
948.2118229474959
 31
0.0
  0
LINE
  5
E339
330
18
100
AcDbEntity
  8
01
100
AcDbLine
 10
4872.359327184253
 20
948.2118229474959
 30
0.0
 11
4871.060289078576
 21
947.4618229474959
 31
0.0
  0
LINE
  5
E33A
330
18
100
AcDbEntity
  8
01
100
AcDbLine
 10
4871.060289078576
 20
947.4618229474959
 30
0.0
 11
4871.060289078576
 21
945.9618229474959
 31
0.0
  0
LINE
  5
E33B
330
18
100
AcDbEntity
  8
01
100
AcDbLine
 10
4871.060289078576
 20
945.9618229474959
 30
0.0
 11
4872.359327184253
 21
945.2118229474959
 31
0.0
  0
LINE
  5
E33C
330
18
100
AcDbEntity
  8
01
100
AcDbLine
 10
4872.359327184253
 20
945.2118229474959
 30
0.0
 11
4873.65836528993
 21
945.9618229474959
 31
0.0
  0
LINE
  5
E33D
330
18
100
AcDbEntity
  8
01
100
AcDbLine
 10
4873.65836528993
 20
945.9618229474959
 30
0.0
 11
4873.65836528993
 21
947.4618229474959
 31
0.0
  0
LINE
  5
E33E
330
18
100
AcDbEntity
  8
01
100
AcDbLine
 10
4912.661266787489
 20
1024.712268091912
 30
0.0000000001691137
 11
4992.947397955697
 21
1024.712268091912
 31
0.0000000001691137
1001
ACAD
1000
DSTYLE
1002
{
1070
    40
1040
1.3
1070
    45
1040
0.5
1002
}
  0
LINE
  5
E33F
330
18
100
AcDbEntity
  8
01
100
AcDbLine
 10
4912.661266787489
 20
910.7122680919122
 30
0.0000000001691137
 11
4992.947397955697
 21
910.7122680919122
 31
0.0000000001691137
1001
ACAD
1000
DSTYLE
1002
{
1070
    40
1040
1.3
1070
    45
1040
0.5
1002
}
  0
LINE
  5
E340
330
18
100
AcDbEntity
  8
01
100
AcDbLine
 10
4991.647397955697
 20
1022.112268091912
 30
0.0000000001691137
 11
4991.647397955697
 21
913.3122680919122
 31
0.0000000001691137
1001
ACAD
1000
DSTYLE
1002
{
1070
    40
1040
1.3
1070
    45
1040
0.5
1002
}
  0
LINE
  5
E344
330
18
100
AcDbEntity
  8
01
100
AcDbLine
 10
4913.259327184252
 20
1032.611822947496
 30
0.0000000001691137
 11
5002.311732121922
 21
1032.611822947496
 31
0.0000000001691137
1001
ACAD
1000
DSTYLE
1002
{
1070
    40
1040
1.3
1070
    45
1040
0.5
1002
}
  0
LINE
  5
E345
330
18
100
AcDbEntity
  8
01
100
AcDbLine
 10
4913.186241379582
 20
902.8122680919123
 30
0.0000000001691137
 11
5002.311732121922
 21
902.8122680919123
 31
0.0000000001691137
1001
ACAD
1000
DSTYLE
1002
{
1070
    40
1040
1.3
1070
    45
1040
0.5
1002
}
  0
LINE
  5
E346
330
18
100
AcDbEntity
  8
01
100
AcDbLine
 10
5001.011732121921
 20
1030.011822947496
 30
0.0000000001691137
 11
5001.011732121921
 21
905.4122680919123
 31
0.0000000001691137
1001
ACAD
1000
DSTYLE
1002
{
1070
    40
1040
1.3
1070
    45
1040
0.5
1002
}
  0
LINE
  5
E34A
330
18
100
AcDbEntity
  8
01
100
AcDbLine
 10
5076.859210844508
 20
971.7131412605991
 30
0.0000000001127424
 11
5040.559210844508
 21
971.7131412605991
 31
0.0000000001127424
1001
ACAD
1000
DSTYLE
1002
{
1070
     3
1000
φ<>
1070
    40
1040
1.3
1070
    45
1040
0.5
1002
}
  0
LINE
  5
E34B
330
18
100
AcDbEntity
  8
01
100
AcDbLine
 10
5076.859210844508
 20
921.7131412606
 30
0.0000000001127424
 11
5040.559210844508
 21
921.7131412606
 31
0.0000000001127424
1001
ACAD
1000
DSTYLE
1002
{
1070
     3
1000
φ<>
1070
    40
1040
1.3
1070
    45
1040
0.5
1002
}
  0
LINE
  5
E34C
330
18
100
AcDbEntity
  8
01
100
AcDbLine
 10
5041.859210844508
 20
969.113141260599
 30
0.0000000001127424
 11
5041.859210844508
 21
924.3131412606
 31
0.0000000001127424
1001
ACAD
1000
DSTYLE
1002
{
1070
     3
1000
φ<>
1070
    40
1040
1.3
1070
    45
1040
0.5
1002
}
  0
CIRCLE
  5
E350
330
18
100
AcDbEntity
  8
01
100
AcDbCircle
 10
4941.359210844508
 20
946.7131412605991
 30
0.0000000001127424
 40
3.0
  0
LINE
  5
E351
330
18
100
AcDbEntity
  8
01
  6
BYBLOCK
100
AcDbLine
 10
5017.459210844509
 20
1075.436647138184
 30
0.0000000001127424
 11
5014.859210844508
 21
1076.133315032184
 31
0.0000000001127424
  0
LINE
  5
E352
330
18
100
AcDbEntity
  8
01
  6
BYBLOCK
100
AcDbLine
 10
5014.859210844508
 20
1076.133315032184
 30
0.0000000001127424
 11
5017.459210844509
 21
1076.829982926184
 31
0.0000000001127424
  0
LINE
  5
E353
330
18
100
AcDbEntity
  8
01
  6
BYBLOCK
100
AcDbLine
 10
5014.859210844508
 20
1076.133315032184
 30
0.0000000001127424
 11
5017.459210844509
 21
1076.133315032184
 31
0.0000000001127424
  0
LINE
  5
E354
330
18
100
AcDbEntity
  8
01
  6
BYBLOCK
100
AcDbLine
 10
5023.259210844508
 20
1076.829982926184
 30
0.0000000001127424
 11
5025.859210844508
 21
1076.133315032184
 31
0.0000000001127424
  0
LINE
  5
E355
330
18
100
AcDbEntity
  8
01
  6
BYBLOCK
100
AcDbLine
 10
5025.859210844508
 20
1076.133315032184
 30
0.0000000001127424
 11
5023.259210844508
 21
1075.436647138184
 31
0.0000000001127424
  0
LINE
  5
E356
330
18
100
AcDbEntity
  8
01
  6
BYBLOCK
100
AcDbLine
 10
5025.859210844508
 20
1076.133315032184
 30
0.0000000001127424
 11
5023.259210844508
 21
1076.133315032184
 31
0.0000000001127424
  0
TEXT
  5
E357
330
18
100
AcDbEntity
  8
01
  6
CONTINUOUS
100
AcDbText
 10
5018.084210844509
 20
1077.043315032184
 30
0.0000000001127424
 40
4.55
  1
11
100
AcDbText
1001
ACAD
1000
DSTYLE
1002
{
1070
    40
1040
1.3
1070
    45
1040
0.5
1002
}
  0
LINE
  5
E358
330
18
100
AcDbEntity
  8
01
  6
BYBLOCK
100
AcDbLine
 10
5121.162542950508
 20
1002.111822947496
 30
0.0000000001127424
 11
5121.859210844508
 21
1004.711822947496
 31
0.0000000001127424
  0
LINE
  5
E359
330
18
100
AcDbEntity
  8
01
  6
BYBLOCK
100
AcDbLine
 10
5121.859210844508
 20
1004.711822947496
 30
0.0000000001127424
 11
5122.555878738508
 21
1002.111822947496
 31
0.0000000001127424
  0
LINE
  5
E35A
330
18
100
AcDbEntity
  8
01
  6
BYBLOCK
100
AcDbLine
 10
5121.859210844508
 20
1004.711822947496
 30
0.0000000001127424
 11
5121.859210844508
 21
1002.111822947496
 31
0.0000000001127424
  0
LINE
  5
E35B
330
18
100
AcDbEntity
  8
01
  6
BYBLOCK
100
AcDbLine
 10
5122.555878738508
 20
933.3118229474959
 30
0.0000000001127424
 11
5121.859210844508
 21
930.7118229474959
 31
0.0000000001127424
  0
LINE
  5
E35C
330
18
100
AcDbEntity
  8
01
  6
BYBLOCK
100
AcDbLine
 10
5121.859210844508
 20
930.7118229474959
 30
0.0000000001127424
 11
5121.162542950508
 21
933.3118229474959
 31
0.0000000001127424
  0
LINE
  5
E35D
330
18
100
AcDbEntity
  8
01
  6
BYBLOCK
100
AcDbLine
 10
5121.859210844508
 20
930.7118229474959
 30
0.0000000001127424
 11
5121.859210844508
 21
933.3118229474959
 31
0.0000000001127424
  0
TEXT
  5
E35E
330
18
100
AcDbEntity
  8
01
  6
CONTINUOUS
100
AcDbText
 10
5120.949210844507
 20
985.6831670335141
 30
0.0000000001127424
 40
4.55
  1
74
 50
90.0
100
AcDbText
1001
ACAD
1000
DSTYLE
1002
{
1070
    40
1040
1.3
1070
    45
1040
0.5
1002
}
  0
LINE
  5
E35F
330
18
100
AcDbEntity
  8
01
  6
BYBLOCK
100
AcDbLine
 10
5092.259210844508
 20
1086.909850394233
 30
0.0000000001127424
 11
5094.859210844508
 21
1086.213182500233
 31
0.0000000001127424
  0
LINE
  5
E360
330
18
100
AcDbEntity
  8
01
  6
BYBLOCK
100
AcDbLine
 10
5094.859210844508
 20
1086.213182500233
 30
0.0000000001127424
 11
5092.259210844508
 21
1085.516514606232
 31
0.0000000001127424
  0
LINE
  5
E361
330
18
100
AcDbEntity
  8
01
  6
BYBLOCK
100
AcDbLine
 10
5094.859210844508
 20
1086.213182500233
 30
0.0000000001127424
 11
5092.259210844508
 21
1086.213182500233
 31
0.0000000001127424
  0
LINE
  5
E362
330
18
100
AcDbEntity
  8
01
  6
BYBLOCK
100
AcDbLine
 10
5028.459210844509
 20
1085.516514606232
 30
0.0000000001127424
 11
5025.859210844508
 21
1086.213182500233
 31
0.0000000001127424
  0
LINE
  5
E363
330
18
100
AcDbEntity
  8
01
  6
BYBLOCK
100
AcDbLine
 10
5025.859210844508
 20
1086.213182500233
 30
0.0000000001127424
 11
5028.459210844509
 21
1086.909850394233
 31
0.0000000001127424
  0
LINE
  5
E364
330
18
100
AcDbEntity
  8
01
  6
BYBLOCK
100
AcDbLine
 10
5025.859210844508
 20
1086.213182500233
 30
0.0000000001127424
 11
5028.459210844509
 21
1086.213182500233
 31
0.0000000001127424
  0
TEXT
  5
E365
330
18
100
AcDbEntity
  8
01
  6
CONTINUOUS
100
AcDbText
 10
5056.55069232599
 20
1087.123182500233
 30
0.0000000001127424
 40
4.55
  1
69
100
AcDbText
1001
ACAD
1000
DSTYLE
1002
{
1070
    40
1040
1.3
1070
    45
1040
0.5
1002
}
  0
LINE
  5
E366
330
18
100
AcDbEntity
  8
01
  6
BYBLOCK
100
AcDbLine
 10
5028.459210844509
 20
1075.436647138184
 30
0.0000000001127424
 11
5025.859210844508
 21
1076.133315032184
 31
0.0000000001127424
  0
LINE
  5
E367
330
18
100
AcDbEntity
  8
01
  6
BYBLOCK
100
AcDbLine
 10
5025.859210844508
 20
1076.133315032184
 30
0.0000000001127424
 11
5028.459210844509
 21
1076.829982926184
 31
0.0000000001127424
  0
LINE
  5
E368
330
18
100
AcDbEntity
  8
01
  6
BYBLOCK
100
AcDbLine
 10
5025.859210844508
 20
1076.133315032184
 30
0.0000000001127424
 11
5028.459210844509
 21
1076.133315032184
 31
0.0000000001127424
  0
LINE
  5
E369
330
18
100
AcDbEntity
  8
01
  6
BYBLOCK
100
AcDbLine
 10
5074.259210844508
 20
1076.829982926184
 30
0.0000000001127424
 11
5076.859210844508
 21
1076.133315032184
 31
0.0000000001127424
  0
LINE
  5
E36A
330
18
100
AcDbEntity
  8
01
  6
BYBLOCK
100
AcDbLine
 10
5076.859210844508
 20
1076.133315032184
 30
0.0000000001127424
 11
5074.259210844508
 21
1075.436647138184
 31
0.0000000001127424
  0
LINE
  5
E36B
330
18
100
AcDbEntity
  8
01
  6
BYBLOCK
100
AcDbLine
 10
5076.859210844508
 20
1076.133315032184
 30
0.0000000001127424
 11
5074.259210844508
 21
1076.133315032184
 31
0.0000000001127424
  0
TEXT
  5
E36C
330
18
100
AcDbEntity
  8
01
  6
CONTINUOUS
100
AcDbText
 10
5048.310078900064
 20
1077.043315032184
 30
0.0000000001127424
 40
4.55
  1
51
100
AcDbText
1001
ACAD
1000
DSTYLE
1002
{
1070
    40
1040
1.3
1070
    45
1040
0.5
1002
}
  0
LINE
  5
E36D
330
18
100
AcDbEntity
  8
01
  6
BYBLOCK
100
AcDbLine
 10
4896.959327184253
 20
1075.436647138184
 30
0.0000000001127424
 11
4894.359327184253
 21
1076.133315032184
 31
0.0000000001127424
  0
LINE
  5
E36E
330
18
100
AcDbEntity
  8
01
  6
BYBLOCK
100
AcDbLine
 10
4894.359327184253
 20
1076.133315032184
 30
0.0000000001127424
 11
4896.959327184253
 21
1076.829982926184
 31
0.0000000001127424
  0
LINE
  5
E36F
330
18
100
AcDbEntity
  8
01
  6
BYBLOCK
100
AcDbLine
 10
4894.359327184253
 20
1076.133315032184
 30
0.0000000001127424
 11
4896.959327184253
 21
1076.133315032184
 31
0.0000000001127424
  0
LINE
  5
E370
330
18
100
AcDbEntity
  8
01
  6
BYBLOCK
100
AcDbLine
 10
4916.759327184252
 20
1076.829982926184
 30
0.0000000001127424
 11
4919.359327184253
 21
1076.133315032184
 31
0.0000000001127424
  0
LINE
  5
E371
330
18
100
AcDbEntity
  8
01
  6
BYBLOCK
100
AcDbLine
 10
4919.359327184253
 20
1076.133315032184
 30
0.0000000001127424
 11
4916.759327184252
 21
1075.436647138184
 31
0.0000000001127424
  0
LINE
  5
E372
330
18
100
AcDbEntity
  8
01
  6
BYBLOCK
100
AcDbLine
 10
4919.359327184253
 20
1076.133315032184
 30
0.0000000001127424
 11
4916.759327184252
 21
1076.133315032184
 31
0.0000000001127424
  0
TEXT
  5
E373
330
18
100
AcDbEntity
  8
01
  6
CONTINUOUS
100
AcDbText
 10
4903.067660517586
 20
1077.043315032184
 30
0.0000000001127424
 40
4.55
  1
25
100
AcDbText
1001
ACAD
1000
DSTYLE
1002
{
1070
    40
1040
1.3
1070
    45
1040
0.5
1002
}
  0
LINE
  5
E374
330
18
100
AcDbEntity
  8
01
  6
BYBLOCK
100
AcDbLine
 10
4990.950730061697
 20
1022.112268091912
 30
0.0000000001691137
 11
4991.647397955697
 21
1024.712268091912
 31
0.0000000001691137
  0
LINE
  5
E375
330
18
100
AcDbEntity
  8
01
  6
BYBLOCK
100
AcDbLine
 10
4991.647397955697
 20
1024.712268091912
 30
0.0000000001691137
 11
4992.344065849697
 21
1022.112268091912
 31
0.0000000001691137
  0
LINE
  5
E376
330
18
100
AcDbEntity
  8
01
  6
BYBLOCK
100
AcDbLine
 10
4991.647397955697
 20
1024.712268091912
 30
0.0000000001691137
 11
4991.647397955697
 21
1022.112268091912
 31
0.0000000001691137
  0
LINE
  5
E377
330
18
100
AcDbEntity
  8
01
  6
BYBLOCK
100
AcDbLine
 10
4992.344065849697
 20
913.3122680919122
 30
0.0000000001691137
 11
4991.647397955697
 21
910.7122680919122
 31
0.0000000001691137
  0
LINE
  5
E378
330
18
100
AcDbEntity
  8
01
  6
BYBLOCK
100
AcDbLine
 10
4991.647397955697
 20
910.7122680919122
 30
0.0000000001691137
 11
4990.950730061697
 21
913.3122680919122
 31
0.0000000001691137
  0
LINE
  5
E379
330
18
100
AcDbEntity
  8
01
  6
BYBLOCK
100
AcDbLine
 10
4991.647397955697
 20
910.7122680919122
 30
0.0000000001691137
 11
4991.647397955697
 21
913.3122680919122
 31
0.0000000001691137
  0
TEXT
  5
E37A
330
18
100
AcDbEntity
  8
01
  6
CONTINUOUS
100
AcDbText
 10
4990.737397955696
 20
992.2952904398335
 30
0.0000000001691137
 40
4.55
  1
114
 50
90.0
100
AcDbText
1001
ACAD
1000
DSTYLE
1002
{
1070
    40
1040
1.3
1070
    45
1040
0.5
1002
}
  0
LINE
  5
E37B
330
18
100
AcDbEntity
  8
01
  6
BYBLOCK
100
AcDbLine
 10
5000.315064227922
 20
1030.011822947496
 30
0.0000000001691137
 11
5001.011732121921
 21
1032.611822947496
 31
0.0000000001691137
  0
LINE
  5
E37C
330
18
100
AcDbEntity
  8
01
  6
BYBLOCK
100
AcDbLine
 10
5001.011732121921
 20
1032.611822947496
 30
0.0000000001691137
 11
5001.708400015921
 21
1030.011822947496
 31
0.0000000001691137
  0
LINE
  5
E37D
330
18
100
AcDbEntity
  8
01
  6
BYBLOCK
100
AcDbLine
 10
5001.011732121921
 20
1032.611822947496
 30
0.0000000001691137
 11
5001.011732121921
 21
1030.011822947496
 31
0.0000000001691137
  0
LINE
  5
E37E
330
18
100
AcDbEntity
  8
01
  6
BYBLOCK
100
AcDbLine
 10
5001.708400015921
 20
905.4122680919123
 30
0.0000000001691137
 11
5001.011732121921
 21
902.8122680919123
 31
0.0000000001691137
  0
LINE
  5
E37F
330
18
100
AcDbEntity
  8
01
  6
BYBLOCK
100
AcDbLine
 10
5001.011732121921
 20
902.8122680919123
 30
0.0000000001691137
 11
5000.315064227922
 21
905.4122680919123
 31
0.0000000001691137
  0
LINE
  5
E380
330
18
100
AcDbEntity
  8
01
  6
BYBLOCK
100
AcDbLine
 10
5001.011732121921
 20
902.8122680919123
 30
0.0000000001691137
 11
5001.011732121921
 21
905.4122680919123
 31
0.0000000001691137
  0
TEXT
  5
E381
330
18
100
AcDbEntity
  8
01
  6
CONTINUOUS
100
AcDbText
 10
5000.101732121921
 20
991.5107264370263
 30
0.0000000001691137
 40
4.55
  1
130
 50
90.0
100
AcDbText
1001
ACAD
1000
DSTYLE
1002
{
1070
    40
1040
1.3
1070
    45
1040
0.5
1002
}
  0
LINE
  5
E382
330
18
100
AcDbEntity
  8
01
  6
BYBLOCK
100
AcDbLine
 10
5041.162542950508
 20
969.113141260599
 30
0.0000000001127424
 11
5041.859210844508
 21
971.7131412605991
 31
0.0000000001127424
  0
LINE
  5
E383
330
18
100
AcDbEntity
  8
01
  6
BYBLOCK
100
AcDbLine
 10
5041.859210844508
 20
971.7131412605991
 30
0.0000000001127424
 11
5042.555878738508
 21
969.113141260599
 31
0.0000000001127424
  0
LINE
  5
E384
330
18
100
AcDbEntity
  8
01
  6
BYBLOCK
100
AcDbLine
 10
5041.859210844508
 20
971.7131412605991
 30
0.0000000001127424
 11
5041.859210844508
 21
969.113141260599
 31
0.0000000001127424
  0
LINE
  5
E385
330
18
100
AcDbEntity
  8
01
  6
BYBLOCK
100
AcDbLine
 10
5042.555878738508
 20
924.3131412606
 30
0.0000000001127424
 11
5041.859210844508
 21
921.7131412606
 31
0.0000000001127424
  0
LINE
  5
E386
330
18
100
AcDbEntity
  8
01
  6
BYBLOCK
100
AcDbLine
 10
5041.859210844508
 20
921.7131412606
 30
0.0000000001127424
 11
5041.162542950508
 21
924.3131412606
 31
0.0000000001127424
  0
LINE
  5
E387
330
18
100
AcDbEntity
  8
01
  6
BYBLOCK
100
AcDbLine
 10
5041.859210844508
 20
921.7131412606
 30
0.0000000001127424
 11
5041.859210844508
 21
924.3131412606
 31
0.0000000001127424
  0
TEXT
  5
E388
330
18
100
AcDbEntity
  8
01
  6
CONTINUOUS
100
AcDbText
 10
5040.949210844507
 20
938.5136383539998
 30
0.0000000001127424
 40
4.55
  1
φ50
 50
90.0
100
AcDbText
1001
ACAD
1000
DSTYLE
1002
{
1070
     3
1000
φ<>
1070
    40
1040
1.3
1070
    45
1040
0.5
1002
}
  0
SOLID
  5
E389
330
18
100
AcDbEntity
  8
1DIM
100
AcDbTrace
 10
5074.229060199254
 20
1170.661065892552
 30
0.0000000001127424
 11
5076.599812084569
 21
1171.813156720593
 31
0.0000000001127424
 12
5074.730860029176
 22
1169.954448569101
 32
0.0000000001127424
 13
5074.730860029176
 23
1169.954448569101
 33
0.0000000001127424
1001
ACAD
1000
DSTYLE
1002
{
1070
    40
1040
1.3
1070
    45
1040
0.5
1002
}
  0
LINE
  5
E38A
330
18
100
AcDbEntity
  8
1DIM
100
AcDbLine
 10
5074.479960114215
 20
1170.307757230827
 30
0.0000000001127424
 11
5047.012371937526
 21
1150.801822946468
 31
0.0000000001127424
1001
ACAD
1000
DSTYLE
1002
{
1070
    40
1040
1.3
1070
    45
1040
0.5
1002
}
  0
LINE
  5
E38B
330
18
100
AcDbEntity
  8
1DIM
100
AcDbLine
 10
5093.260095026568
 20
1226.211822946468
 30
0.0000000001127424
 11
5113.820485786281
 21
1226.211822946468
 31
0.0000000001127424
1001
ACAD
1000
DSTYLE
1002
{
1070
    45
1040
0.5
1070
    40
1040
1.3
1002
}
  0
LINE
  5
E38C
330
18
100
AcDbEntity
  8
1DIM
100
AcDbLine
 10
5094.860095026568
 20
1207.411822946468
 30
0.0000000001127424
 11
5113.820485786281
 21
1207.411822946468
 31
0.0000000001127424
1001
ACAD
1000
DSTYLE
1002
{
1070
    45
1040
0.5
1070
    40
1040
1.3
1002
}
  0
LINE
  5
E38D
330
18
100
AcDbEntity
  8
1DIM
100
AcDbLine
 10
5112.520485786281
 20
1223.611822946468
 30
0.0000000001127424
 11
5112.520485786281
 21
1210.011822946467
 31
0.0000000001127424
1001
ACAD
1000
DSTYLE
1002
{
1070
    45
1040
0.5
1070
    40
1040
1.3
1002
}
  0
LINE
  5
E391
330
18
100
AcDbEntity
  8
1DIM
100
AcDbLine
 10
5076.859210844508
 20
1175.211822947496
 30
0.0000000001127424
 11
5076.859210844508
 21
1110.411822947496
 31
0.0000000001127424
1001
ACAD
1000
DSTYLE
1002
{
1070
    40
1040
1.3
1070
    45
1040
0.5
1002
}
  0
LINE
  5
E392
330
18
100
AcDbEntity
  8
1DIM
100
AcDbLine
 10
5182.859210844509
 20
1141.211822947496
 30
0.0000000001127424
 11
5182.859210844509
 21
1110.411822947496
 31
0.0000000001127424
1001
ACAD
1000
DSTYLE
1002
{
1070
    40
1040
1.3
1070
    45
1040
0.5
1002
}
  0
LINE
  5
E393
330
18
100
AcDbEntity
  8
1DIM
100
AcDbLine
 10
5079.459210844509
 20
1111.711822947496
 30
0.0000000001127424
 11
5180.259210844509
 21
1111.711822947496
 31
0.0000000001127424
1001
ACAD
1000
DSTYLE
1002
{
1070
    40
1040
1.3
1070
    45
1040
0.5
1002
}
  0
LINE
  5
E397
330
18
100
AcDbEntity
  8
1DIM
100
AcDbLine
 10
5066.859210844507
 20
1187.711822947496
 30
0.0000000001127424
 11
5066.859210844507
 21
1100.411822947496
 31
0.0000000001127424
1001
ACAD
1000
DSTYLE
1002
{
1070
    40
1040
1.3
1070
    45
1040
0.5
1002
}
  0
LINE
  5
E398
330
18
100
AcDbEntity
  8
1DIM
100
AcDbLine
 10
5182.859210844509
 20
1141.211822947496
 30
0.0000000001127424
 11
5182.859210844509
 21
1100.411822947496
 31
0.0000000001127424
1001
ACAD
1000
DSTYLE
1002
{
1070
    40
1040
1.3
1070
    45
1040
0.5
1002
}
  0
LINE
  5
E399
330
18
100
AcDbEntity
  8
1DIM
100
AcDbLine
 10
5069.459210844508
 20
1101.711822947496
 30
0.0000000001127424
 11
5180.259210844509
 21
1101.711822947496
 31
0.0000000001127424
1001
ACAD
1000
DSTYLE
1002
{
1070
    40
1040
1.3
1070
    45
1040
0.5
1002
}
  0
LINE
  5
E39D
330
18
100
AcDbEntity
  8
1DIM
100
AcDbLine
 10
5181.859210844509
 20
1159.211822947496
 30
0.0000000001127424
 11
5233.159210844508
 21
1159.211822947496
 31
0.0000000001127424
1001
ACAD
1000
DSTYLE
1002
{
1070
    40
1040
1.3
1070
    45
1040
0.5
1002
}
  0
LINE
  5
E39E
330
18
100
AcDbEntity
  8
1DIM
100
AcDbLine
 10
5179.614358841856
 20
1196.711822947496
 30
0.0000000001127424
 11
5233.159210844508
 21
1196.711822947496
 31
0.0000000001127424
1001
ACAD
1000
DSTYLE
1002
{
1070
    40
1040
1.3
1070
    45
1040
0.5
1002
}
  0
LINE
  5
E39F
330
18
100
AcDbEntity
  8
1DIM
100
AcDbLine
 10
5231.859210844508
 20
1161.811822947496
 30
0.0000000001127424
 11
5231.859210844508
 21
1194.111822947496
 31
0.0000000001127424
1001
ACAD
1000
DSTYLE
1002
{
1070
    40
1040
1.3
1070
    45
1040
0.5
1002
}
  0
LINE
  5
E3A3
330
18
100
AcDbEntity
  8
1DIM
100
AcDbLine
 10
5181.859210844509
 20
1140.211822947496
 30
0.0000000001127424
 11
5243.159210844508
 21
1140.211822947496
 31
0.0000000001127424
1001
ACAD
1000
DSTYLE
1002
{
1070
    40
1040
1.3
1070
    45
1040
0.5
1002
}
  0
LINE
  5
E3A4
330
18
100
AcDbEntity
  8
1DIM
100
AcDbLine
 10
5179.614358841856
 20
1196.711822947496
 30
0.0000000001127424
 11
5243.159210844508
 21
1196.711822947496
 31
0.0000000001127424
1001
ACAD
1000
DSTYLE
1002
{
1070
    40
1040
1.3
1070
    45
1040
0.5
1002
}
  0
LINE
  5
E3A5
330
18
100
AcDbEntity
  8
1DIM
100
AcDbLine
 10
5241.859210844508
 20
1142.811822947496
 30
0.0000000001127424
 11
5241.859210844508
 21
1194.111822947496
 31
0.0000000001127424
1001
ACAD
1000
DSTYLE
1002
{
1070
    40
1040
1.3
1070
    45
1040
0.5
1002
}
  0
LINE
  5
E3A9
330
18
100
AcDbEntity
  8
1DIM
100
AcDbLine
 10
5181.859210844508
 20
937.2131412605991
 30
0.0000000001127424
 11
5233.159210844508
 21
937.2131412605991
 31
0.0000000001127424
1001
ACAD
1000
DSTYLE
1002
{
1070
     3
1000
φ<>
1070
    40
1040
1.3
1070
    45
1040
0.5
1002
}
  0
LINE
  5
E3AA
330
18
100
AcDbEntity
  8
1DIM
100
AcDbLine
 10
5181.859210844509
 20
956.2131412605991
 30
0.0000000001127424
 11
5233.159210844508
 21
956.2131412605991
 31
0.0000000001127424
1001
ACAD
1000
DSTYLE
1002
{
1070
     3
1000
φ<>
1070
    40
1040
1.3
1070
    45
1040
0.5
1002
}
  0
LINE
  5
E3AB
330
18
100
AcDbEntity
  8
1DIM
100
AcDbLine
 10
5231.859210844508
 20
939.8131412605991
 30
0.0000000001127424
 11
5231.859210844508
 21
953.613141260599
 31
0.0000000001127424
1001
ACAD
1000
DSTYLE
1002
{
1070
     3
1000
φ<>
1070
    40
1040
1.3
1070
    45
1040
0.5
1002
}
  0
LINE
  5
E3AF
330
18
100
AcDbEntity
  8
0
  6
BYBLOCK
100
AcDbLine
 10
5111.823817892281
 20
1223.611822946468
 30
0.0000000001127424
 11
5112.520485786281
 21
1226.211822946468
 31
0.0000000001127424
  0
LINE
  5
E3B0
330
18
100
AcDbEntity
  8
0
  6
BYBLOCK
100
AcDbLine
 10
5112.520485786281
 20
1226.211822946468
 30
0.0000000001127424
 11
5113.217153680281
 21
1223.611822946468
 31
0.0000000001127424
  0
LINE
  5
E3B1
330
18
100
AcDbEntity
  8
0
  6
BYBLOCK
100
AcDbLine
 10
5112.520485786281
 20
1226.211822946468
 30
0.0000000001127424
 11
5112.520485786281
 21
1223.611822946468
 31
0.0000000001127424
  0
LINE
  5
E3B2
330
18
100
AcDbEntity
  8
0
  6
BYBLOCK
100
AcDbLine
 10
5113.217153680281
 20
1210.011822946467
 30
0.0000000001127424
 11
5112.520485786281
 21
1207.411822946468
 31
0.0000000001127424
  0
LINE
  5
E3B3
330
18
100
AcDbEntity
  8
0
  6
BYBLOCK
100
AcDbLine
 10
5112.520485786281
 20
1207.411822946468
 30
0.0000000001127424
 11
5111.823817892281
 21
1210.011822946467
 31
0.0000000001127424
  0
LINE
  5
E3B4
330
18
100
AcDbEntity
  8
0
  6
BYBLOCK
100
AcDbLine
 10
5112.520485786281
 20
1207.411822946468
 30
0.0000000001127424
 11
5112.520485786281
 21
1210.011822946467
 31
0.0000000001127424
  0
TEXT
  5
E3B5
330
18
100
AcDbEntity
  8
1DIM
  6
CONTINUOUS
100
AcDbText
 10
5111.61048578628
 20
1213.777436372393
 30
0.0000000001127424
 40
4.55
  1
19
 50
90.0
100
AcDbText
1001
ACAD
1000
DSTYLE
1002
{
1070
    45
1040
0.5
1070
    40
1040
1.3
1002
}
  0
LINE
  5
E3B6
330
18
100
AcDbEntity
  8
0
  6
BYBLOCK
100
AcDbLine
 10
5079.459210844509
 20
1111.015155053496
 30
0.0000000001127424
 11
5076.859210844508
 21
1111.711822947496
 31
0.0000000001127424
  0
LINE
  5
E3B7
330
18
100
AcDbEntity
  8
0
  6
BYBLOCK
100
AcDbLine
 10
5076.859210844508
 20
1111.711822947496
 30
0.0000000001127424
 11
5079.459210844509
 21
1112.408490841496
 31
0.0000000001127424
  0
LINE
  5
E3B8
330
18
100
AcDbEntity
  8
0
  6
BYBLOCK
100
AcDbLine
 10
5076.859210844508
 20
1111.711822947496
 30
0.0000000001127424
 11
5079.459210844509
 21
1111.711822947496
 31
0.0000000001127424
  0
LINE
  5
E3B9
330
18
100
AcDbEntity
  8
0
  6
BYBLOCK
100
AcDbLine
 10
5180.259210844509
 20
1112.408490841496
 30
0.0000000001127424
 11
5182.859210844509
 21
1111.711822947496
 31
0.0000000001127424
  0
LINE
  5
E3BA
330
18
100
AcDbEntity
  8
0
  6
BYBLOCK
100
AcDbLine
 10
5182.859210844509
 20
1111.711822947496
 30
0.0000000001127424
 11
5180.259210844509
 21
1111.015155053496
 31
0.0000000001127424
  0
LINE
  5
E3BB
330
18
100
AcDbEntity
  8
0
  6
BYBLOCK
100
AcDbLine
 10
5182.859210844509
 20
1111.711822947496
 30
0.0000000001127424
 11
5180.259210844509
 21
1111.711822947496
 31
0.0000000001127424
  0
TEXT
  5
E3BC
330
18
100
AcDbEntity
  8
1DIM
  6
CONTINUOUS
100
AcDbText
 10
5124.930044177841
 20
1112.621822947496
 30
0.0000000001127424
 40
4.55
  1
106
100
AcDbText
1001
ACAD
1000
DSTYLE
1002
{
1070
    40
1040
1.3
1070
    45
1040
0.5
1002
}
  0
LINE
  5
E3BD
330
18
100
AcDbEntity
  8
0
  6
BYBLOCK
100
AcDbLine
 10
5069.459210844508
 20
1101.015155053496
 30
0.0000000001127424
 11
5066.859210844507
 21
1101.711822947496
 31
0.0000000001127424
  0
LINE
  5
E3BE
330
18
100
AcDbEntity
  8
0
  6
BYBLOCK
100
AcDbLine
 10
5066.859210844507
 20
1101.711822947496
 30
0.0000000001127424
 11
5069.459210844508
 21
1102.408490841496
 31
0.0000000001127424
  0
LINE
  5
E3BF
330
18
100
AcDbEntity
  8
0
  6
BYBLOCK
100
AcDbLine
 10
5066.859210844507
 20
1101.711822947496
 30
0.0000000001127424
 11
5069.459210844508
 21
1101.711822947496
 31
0.0000000001127424
  0
LINE
  5
E3C0
330
18
100
AcDbEntity
  8
0
  6
BYBLOCK
100
AcDbLine
 10
5180.259210844509
 20
1102.408490841496
 30
0.0000000001127424
 11
5182.859210844509
 21
1101.711822947496
 31
0.0000000001127424
  0
LINE
  5
E3C1
330
18
100
AcDbEntity
  8
0
  6
BYBLOCK
100
AcDbLine
 10
5182.859210844509
 20
1101.711822947496
 30
0.0000000001127424
 11
5180.259210844509
 21
1101.015155053496
 31
0.0000000001127424
  0
LINE
  5
E3C2
330
18
100
AcDbEntity
  8
0
  6
BYBLOCK
100
AcDbLine
 10
5182.859210844509
 20
1101.711822947496
 30
0.0000000001127424
 11
5180.259210844509
 21
1101.711822947496
 31
0.0000000001127424
  0
TEXT
  5
E3C3
330
18
100
AcDbEntity
  8
1DIM
  6
CONTINUOUS
100
AcDbText
 10
5120.309210844508
 20
1102.621822947496
 30
0.0000000001127424
 40
4.55
  1
116
100
AcDbText
1001
ACAD
1000
DSTYLE
1002
{
1070
    40
1040
1.3
1070
    45
1040
0.5
1002
}
  0
LINE
  5
E3C4
330
18
100
AcDbEntity
  8
0
  6
BYBLOCK
100
AcDbLine
 10
5232.555878738508
 20
1161.811822947496
 30
0.0000000001127424
 11
5231.859210844508
 21
1159.211822947496
 31
0.0000000001127424
  0
LINE
  5
E3C5
330
18
100
AcDbEntity
  8
0
  6
BYBLOCK
100
AcDbLine
 10
5231.859210844508
 20
1159.211822947496
 30
0.0000000001127424
 11
5231.162542950508
 21
1161.811822947496
 31
0.0000000001127424
  0
LINE
  5
E3C6
330
18
100
AcDbEntity
  8
0
  6
BYBLOCK
100
AcDbLine
 10
5231.859210844508
 20
1159.211822947496
 30
0.0000000001127424
 11
5231.859210844508
 21
1161.811822947496
 31
0.0000000001127424
  0
LINE
  5
E3C7
330
18
100
AcDbEntity
  8
0
  6
BYBLOCK
100
AcDbLine
 10
5231.162542950508
 20
1194.111822947496
 30
0.0000000001127424
 11
5231.859210844508
 21
1196.711822947496
 31
0.0000000001127424
  0
LINE
  5
E3C8
330
18
100
AcDbEntity
  8
0
  6
BYBLOCK
100
AcDbLine
 10
5231.859210844508
 20
1196.711822947496
 30
0.0000000001127424
 11
5232.555878738508
 21
1194.111822947496
 31
0.0000000001127424
  0
LINE
  5
E3C9
330
18
100
AcDbEntity
  8
0
  6
BYBLOCK
100
AcDbLine
 10
5231.859210844508
 20
1196.711822947496
 30
0.0000000001127424
 11
5231.859210844508
 21
1194.111822947496
 31
0.0000000001127424
  0
TEXT
  5
E3CA
330
18
100
AcDbEntity
  8
1DIM
  6
CONTINUOUS
100
AcDbText
 10
5230.949210844508
 20
1171.136822947497
 30
0.0000000001127424
 40
4.55
  1
37.5
 50
90.0
100
AcDbText
1001
ACAD
1000
DSTYLE
1002
{
1070
    40
1040
1.3
1070
    45
1040
0.5
1002
}
  0
LINE
  5
E3CB
330
18
100
AcDbEntity
  8
0
  6
BYBLOCK
100
AcDbLine
 10
5242.555878738508
 20
1142.811822947496
 30
0.0000000001127424
 11
5241.859210844508
 21
1140.211822947496
 31
0.0000000001127424
  0
LINE
  5
E3CC
330
18
100
AcDbEntity
  8
0
  6
BYBLOCK
100
AcDbLine
 10
5241.859210844508
 20
1140.211822947496
 30
0.0000000001127424
 11
5241.162542950508
 21
1142.811822947496
 31
0.0000000001127424
  0
LINE
  5
E3CD
330
18
100
AcDbEntity
  8
0
  6
BYBLOCK
100
AcDbLine
 10
5241.859210844508
 20
1140.211822947496
 30
0.0000000001127424
 11
5241.859210844508
 21
1142.811822947496
 31
0.0000000001127424
  0
LINE
  5
E3CE
330
18
100
AcDbEntity
  8
0
  6
BYBLOCK
100
AcDbLine
 10
5241.162542950508
 20
1194.111822947496
 30
0.0000000001127424
 11
5241.859210844508
 21
1196.711822947496
 31
0.0000000001127424
  0
LINE
  5
E3CF
330
18
100
AcDbEntity
  8
0
  6
BYBLOCK
100
AcDbLine
 10
5241.859210844508
 20
1196.711822947496
 30
0.0000000001127424
 11
5242.555878738508
 21
1194.111822947496
 31
0.0000000001127424
  0
LINE
  5
E3D0
330
18
100
AcDbEntity
  8
0
  6
BYBLOCK
100
AcDbLine
 10
5241.859210844508
 20
1196.711822947496
 30
0.0000000001127424
 11
5241.859210844508
 21
1194.111822947496
 31
0.0000000001127424
  0
TEXT
  5
E3D1
330
18
100
AcDbEntity
  8
1DIM
  6
CONTINUOUS
100
AcDbText
 10
5240.949210844508
 20
1161.605225725275
 30
0.0000000001127424
 40
4.55
  1
56.5
 50
90.0
100
AcDbText
1001
ACAD
1000
DSTYLE
1002
{
1070
    40
1040
1.3
1070
    45
1040
0.5
1002
}
  0
LINE
  5
E3D2
330
18
100
AcDbEntity
  8
0
  6
BYBLOCK
100
AcDbLine
 10
5232.555878738508
 20
939.8131412605991
 30
0.0000000001127424
 11
5231.859210844508
 21
937.2131412605991
 31
0.0000000001127424
  0
LINE
  5
E3D3
330
18
100
AcDbEntity
  8
0
  6
BYBLOCK
100
AcDbLine
 10
5231.859210844508
 20
937.2131412605991
 30
0.0000000001127424
 11
5231.162542950508
 21
939.8131412605991
 31
0.0000000001127424
  0
LINE
  5
E3D4
330
18
100
AcDbEntity
  8
0
  6
BYBLOCK
100
AcDbLine
 10
5231.859210844508
 20
937.2131412605991
 30
0.0000000001127424
 11
5231.859210844508
 21
939.8131412605991
 31
0.0000000001127424
  0
LINE
  5
E3D5
330
18
100
AcDbEntity
  8
0
  6
BYBLOCK
100
AcDbLine
 10
5231.162542950508
 20
953.613141260599
 30
0.0000000001127424
 11
5231.859210844508
 21
956.2131412605991
 31
0.0000000001127424
  0
LINE
  5
E3D6
330
18
100
AcDbEntity
  8
0
  6
BYBLOCK
100
AcDbLine
 10
5231.859210844508
 20
956.2131412605991
 30
0.0000000001127424
 11
5232.555878738508
 21
953.613141260599
 31
0.0000000001127424
  0
LINE
  5
E3D7
330
18
100
AcDbEntity
  8
0
  6
BYBLOCK
100
AcDbLine
 10
5231.859210844508
 20
956.2131412605991
 30
0.0000000001127424
 11
5231.859210844508
 21
953.613141260599
 31
0.0000000001127424
  0
TEXT
  5
E3D8
330
18
100
AcDbEntity
  8
1DIM
  6
CONTINUOUS
100
AcDbText
 10
5230.949210844507
 20
940.3420880198591
 30
0.0000000001127424
 40
4.55
  1
φ19
 50
90.0
100
AcDbText
1001
ACAD
1000
DSTYLE
1002
{
1070
     3
1000
φ<>
1070
    40
1040
1.3
1070
    45
1040
0.5
1002
}
  0
VIEWPORT
  5
57
330
15
100
AcDbEntity
 67
     1
  8
0
100
AcDbViewport
 68
     1
 10
0.0
 20
0.0
 30
0.0
 40
535.5106132075471
 41
296.9999999999999
 68
     1
 69
     1
1001
ACAD
1000
MVIEW
1002
{
1070
    16
1010
0.0
1020
0.0
1030
0.0
1010
0.0
1020
0.0
1030
1.0
1040
0.0
1040
296.9999999999999
1040
5.728000000000009
1040
25.339
1040
50.0
1040
0.0
1040
0.0
1070
    16
1070
   100
1070
     0
1070
     1
1070
     0
1070
     0
1070
     0
1070
     0
1040
0.0
1040
0.0
1040
0.0
1040
10.0
1040
10.0
1040
10.0
1040
10.0
1070
     0
1002
{
1002
}
1002
}
  0
ENDSEC
  0
SECTION
  2
OBJECTS
  0
DICTIONARY
  5
C
330
0
100
AcDbDictionary
  3
ACAD_CIP_PREVIOUS_PRODUCT_INFO
350
AEA8
  3
ACAD_COLOR
350
18D
  3
ACAD_GROUP
350
D
  3
ACAD_LAYOUT
350
18E
  3
ACAD_MATERIAL
350
18C
  3
ACAD_MLEADERSTYLE
350
9583
  3
ACAD_MLINESTYLE
350
1B
  3
ACAD_PLOTSETTINGS
350
18F
  3
ACAD_SCALELIST
350
9561
  3
ACAD_VISUALSTYLE
350
9550
  3
ACDBHEADERROUNDTRIPXREC
350
E3D9
  3
ACDBVARIABLEDICTIONARY
350
37
  3
CONTENTDICTIONARY
350
D8
  3
DRAWINGVARIABLESDICT
350
20
  3
DWGPROPS
350
E3DC
1001
ACAD
1000
TREAT_AS_HARD
1070
     0
  0
DICTIONARY
  5
96D9
330
2
100
AcDbDictionary
  3
ACAD_LAYERSTATES
360
96DA
1001
ACAD
1000
TREAT_AS_HARD
1070
     1
  0
DICTIONARY
  5
9593
330
E
100
AcDbDictionary
  3
ADSK_XREC_LAYER_RECONCILED
360
9594
1001
ACAD
1000
TREAT_AS_HARD
1070
     1
  0
DICTIONARY
  5
9595
330
29
100
AcDbDictionary
  3
ADSK_XREC_LAYER_RECONCILED
360
9596
1001
ACAD
1000
TREAT_AS_HARD
1070
     1
  0
DICTIONARY
  5
9597
330
31
100
AcDbDictionary
  3
ADSK_XREC_LAYER_RECONCILED
360
9598
1001
ACAD
1000
TREAT_AS_HARD
1070
     1
  0
DICTIONARY
  5
959D
330
243
100
AcDbDictionary
  3
ADSK_XREC_LAYER_RECONCILED
360
959E
1001
ACAD
1000
TREAT_AS_HARD
1070
     1
  0
DICTIONARY
  5
95A3
330
24E
100
AcDbDictionary
  3
ADSK_XREC_LAYER_RECONCILED
360
95A4
1001
ACAD
1000
TREAT_AS_HARD
1070
     1
  0
DICTIONARY
  5
88F
330
18
100
AcDbDictionary
  3
ACAD_SORTENTS
360
890
1001
ACAD
1000
TREAT_AS_HARD
1070
     1
  0
XRECORD
  5
AEA8
102
{ACAD_REACTORS
330
C
102
}
330
C
100
AcDbXrecord
300
ACDLT
300
2012
300
ACDLT_F_S
  0
DICTIONARY
  5
18D
102
{ACAD_REACTORS
330
C
102
}
330
C
100
AcDbDictionary
1001
ACAD
1000
TREAT_AS_HARD
1070
     0
  0
DICTIONARY
  5
D
102
{ACAD_REACTORS
330
C
102
}
330
C
100
AcDbDictionary
1001
ACAD
1000
TREAT_AS_HARD
1070
     0
  0
DICTIONARY
  5
18E
102
{ACAD_REACTORS
330
C
102
}
330
C
100
AcDbDictionary
1001
ACAD
1000
TREAT_AS_HARD
1070
     0
  0
DICTIONARY
  5
18C
102
{ACAD_REACTORS
330
C
102
}
330
C
100
AcDbDictionary
  3
BYBLOCK
350
9540
  3
BYLAYER
350
9538
  3
GLOBAL
350
9548
1001
ACAD
1000
TREAT_AS_HARD
1070
     0
  0
DICTIONARY
  5
9583
102
{ACAD_REACTORS
330
C
102
}
330
C
100
AcDbDictionary
  3
STANDARD
350
9584
1001
ACAD
1000
TREAT_AS_HARD
1070
     0
  0
DICTIONARY
  5
1B
102
{ACAD_REACTORS
330
C
102
}
330
C
100
AcDbDictionary
  3
STANDARD
350
1C
1001
ACAD
1000
TREAT_AS_HARD
1070
     0
  0
DICTIONARY
  5
18F
102
{ACAD_REACTORS
330
C
102
}
330
C
100
AcDbDictionary
1001
ACAD
1000
TREAT_AS_HARD
1070
     0
  0
DICTIONARY
  5
9561
102
{ACAD_REACTORS
330
C
102
}
330
C
100
AcDbDictionary
  3
A0
350
9562
  3
A1
350
9563
  3
A2
350
9564
  3
A3
350
9565
  3
A4
350
9566
  3
A5
350
9567
  3
A6
350
9568
  3
A7
350
9569
  3
A8
350
956A
  3
A9
350
956B
  3
B0
350
956C
  3
B1
350
956D
  3
B2
350
956E
  3
B3
350
956F
  3
B4
350
9570
  3
B5
350
9571
  3
B6
350
9572
  3
B7
350
9573
  3
B8
350
9574
  3
B9
350
9575
  3
C0
350
9576
  3
C1
350
9577
  3
C2
350
9578
  3
C3
350
9579
  3
C4
350
957A
  3
C5
350
957B
  3
C6
350
957C
  3
C7
350
957D
  3
C8
350
957E
  3
C9
350
957F
  3
D0
350
9580
  3
D1
350
9581
  3
D2
350
9582
1001
ACAD
1000
TREAT_AS_HARD
1070
     0
  0
DICTIONARY
  5
9550
102
{ACAD_REACTORS
330
C
102
}
330
C
100
AcDbDictionary
  3
2DWIREFRAME
350
9556
  3
3D_HIDDEN
350
9558
  3
3DWIREFRAME
350
9557
  3
BASIC
350
9555
  3
BRIGHTEN
350
955C
  3
COLORCHANGE
350
9560
  3
CONCEPTUAL
350
9559
  3
DIM
350
955B
  3
EDGECOLOROFF
350
A211
  3
FACEPATTERN
350
955F
  3
FLAT
350
9551
  3
FLATWITHEDGES
350
9552
  3
GOURAUD
350
9553
  3
GOURAUDWITHEDGES
350
9554
  3
HIDDEN
350
A260
  3
JITTEROFF
350
A20F
  3
LINEPATTERN
350
955E
  3
MODELING
350
A266
  3
OVERHANGOFF
350
A210
  3
REALISTIC
350
955A
  3
SHADED
350
A265
  3
SHADED_WITH_EDGES
350
A264
  3
SHADES_OF_GRAY
350
A261
  3
SKETCHY
350
A262
  3
THICKEN
350
955D
  3
WIREFRAME
350
A25F
  3
X-RAY
350
A263
1001
ACAD
1000
TREAT_AS_HARD
1070
     0
  0
DICTIONARY
  5
E3D9
102
{ACAD_REACTORS
330
C
102
}
330
C
100
AcDbDictionary
  3
COLORDICT
350
E3DA
  3
MATERIALDICT
350
E3DB
1001
ACAD
1000
TREAT_AS_HARD
1070
     0
  0
DICTIONARY
  5
37
102
{ACAD_REACTORS
330
C
102
}
330
C
100
AcDbDictionary
  3
CANNOSCALE
350
AAE0
  3
CMLEADERSTYLE
350
9627
  3
CTABLESTYLE
350
29E
  3
DIMADEC
350
38
  3
DIMASSOC
350
1CE
  3
HIDETEXT
350
704E
  3
INDEXCTL
350
962A
  3
INTERSECTIONCOLOR
350
7052
  3
INTERSECTIONDISPLAY
350
7051
  3
MSLTSCALE
350
AB30
  3
OBSCOLOR
350
704F
  3
OBSLTYPE
350
7050
  3
PROJECTNAME
350
1CF
  3
SORTENTS
350
9629
  3
XCLIPFRAME
350
E208
1001
ACAD
1000
TREAT_AS_HARD
1070
     0
  0
DICTIONARY
  5
D8
102
{ACAD_REACTORS
330
C
102
}
330
C
100
AcDbDictionary
1001
ACAD
1000
TREAT_AS_HARD
1070
     0
  0
DICTIONARY
  5
20
102
{ACAD_REACTORS
330
C
102
}
330
C
100
AcDbDictionary
1001
DRAWINGVARIABLESXDATA
1000
POLARANG
1000
0.261799387799149410000000
1000
POLARMODE
1000
1
1000
POLARSTYLE
1000
1
1001
ACAD
1000
TREAT_AS_HARD
1070
     0
  0
XRECORD
  5
E3DC
102
{ACAD_REACTORS
330
C
102
}
330
C
100
AcDbXrecord
  1
DWGPROPS COOKIE
  2

  3

  4

  6

  7

  8
3684
  9

300
=
301
=
302
=
303
=
304
=
305
=
306
=
307
=
308
=
309
=
 40
0.0
 41
2451318.246352917
 42
2458967.202853681
  1

 90
        0
  0
DICTIONARY
  5
96DA
102
{ACAD_REACTORS
330
96D9
102
}
330
96D9
100
AcDbDictionary
1001
ACAD
1000
TREAT_AS_HARD
1070
     0
  0
ACAD_PROXY_OBJECT
  5
9594
102
{ACAD_REACTORS
330
9593
102
}
330
9593
100
AcDbZombieObject
 90
      499
 91
      514
 93
       34
310
40C8804040
  0
ACAD_PROXY_OBJECT
  5
9596
102
{ACAD_REACTORS
330
9595
102
}
330
9595
100
AcDbZombieObject
 90
      499
 91
      514
 93
       34
310
40C8804040
  0
ACAD_PROXY_OBJECT
  5
9598
102
{ACAD_REACTORS
330
9597
102
}
330
9597
100
AcDbZombieObject
 90
      499
 91
      514
 93
       34
310
40C8804040
  0
ACAD_PROXY_OBJECT
  5
959E
102
{ACAD_REACTORS
330
959D
102
}
330
959D
100
AcDbZombieObject
 90
      499
 91
      514
 93
       34
310
40C8804040
  0
ACAD_PROXY_OBJECT
  5
95A4
102
{ACAD_REACTORS
330
95A3
102
}
330
95A3
100
AcDbZombieObject
 90
      499
 91
      514
 93
       34
310
40C8804040
  0
SORTENTSTABLE
  5
890
102
{ACAD_REACTORS
330
88F
102
}
330
88F
100
AcDbSortentsTable
330
18
331
0
  5
C6A0
331
C69F
  5
C6BA
331
C6A0
  5
C6BB
331
C6A1
  5
C6BC
331
C6A5
  5
C6DE
331
C6A6
  5
C6DF
331
C6A7
  5
C6E0
331
C6A8
  5
C6E1
331
C6A9
  5
C6E2
331
C6AA
  5
C6E3
331
C6AB
  5
C6E4
331
C6AD
  5
C6E5
331
C6AE
  5
C6E6
331
C6AF
  5
C6E7
331
C6B0
  5
C6E8
331
C6B1
  5
C6E9
331
C6B2
  5
C6EA
331
C6B3
  5
C6EB
331
C6B4
  5
C6EC
331
C6B5
  5
C6ED
331
C6B6
  5
C6EE
331
C6B7
  5
C6EF
331
C6B8
  5
C6F0
331
C6B9
  5
C6F1
331
C6BA
  5
C6F2
331
C6BB
  5
C6F3
331
C6BC
  5
C6F4
331
C6BD
  5
C6F5
331
C6BE
  5
C6F6
331
C6BF
  5
C6F7
331
C6C0
  5
C6F8
331
C6C1
  5
C6F9
331
C6C2
  5
C6FA
331
C6C3
  5
C6FB
331
C6C4
  5
C6FC
331
C6C5
  5
C6FD
331
C6C6
  5
C6FE
331
C6C7
  5
C6FF
331
C6C8
  5
C700
331
C6C9
  5
C701
331
C6CA
  5
C702
331
C6CB
  5
C703
331
C6CC
  5
C704
331
C6CD
  5
C705
331
C6CE
  5
C706
331
C6CF
  5
C707
331
C6D0
  5
C708
331
C6D1
  5
C709
331
C6D2
  5
C70A
331
C6D3
  5
C70B
331
C6D4
  5
C70C
331
C6D5
  5
C70D
331
C6D6
  5
C70E
331
C6D7
  5
C70F
331
C6D8
  5
C710
331
C6D9
  5
C711
331
C6DA
  5
C712
331
C6DB
  5
C713
331
C6DC
  5
C715
331
C6DD
  5
C716
331
C6DE
  5
C717
331
C6DF
  5
C718
331
C6E0
  5
C719
331
C6E1
  5
C71A
331
C6E2
  5
C71B
331
C6E3
  5
C71C
331
C6E4
  5
C71D
331
C6E5
  5
C71E
331
C6E6
  5
C71F
331
C6E7
  5
C721
331
C6E8
  5
C722
331
C6E9
  5
C724
331
C6EA
  5
C725
331
0
  5
C723
331
C6EC
  5
C73D
331
C6ED
  5
C73E
331
C6EE
  5
C73F
331
C6EF
  5
C740
331
C6F0
  5
C741
331
C6F1
  5
C742
331
C6F2
  5
C743
331
C6F3
  5
C744
331
C6F4
  5
C745
331
C6F5
  5
C746
331
C6F6
  5
C747
331
C6F7
  5
C748
331
C6F8
  5
C749
331
C6F9
  5
C74A
331
C6FA
  5
C74B
331
C6FB
  5
C74C
331
C6FC
  5
C74D
331
C6FD
  5
C74E
331
C6FE
  5
C74F
331
C6FF
  5
C750
331
C700
  5
C751
331
C701
  5
C752
331
C702
  5
C753
331
C703
  5
C754
331
C704
  5
C755
331
C705
  5
C756
331
C706
  5
C757
331
C707
  5
C758
331
C708
  5
C759
331
C709
  5
C75A
331
C70A
  5
C75B
331
C70B
  5
C75C
331
C70C
  5
C75D
331
C70D
  5
C75E
331
C70E
  5
C75F
331
C70F
  5
C760
331
C710
  5
C761
331
C711
  5
C762
331
C712
  5
C765
331
C713
  5
C76B
331
C715
  5
C776
331
C716
  5
C777
331
C717
  5
C778
331
C718
  5
C779
331
C719
  5
C77A
331
C71A
  5
C77B
331
C71B
  5
C77C
331
C71C
  5
CAA6
331
C71D
  5
CAA7
331
C71E
  5
CAA8
331
C71F
  5
CAA9
331
C721
  5
CAB1
331
C722
  5
CAB2
331
C723
  5
CAB3
331
C724
  5
CAB4
331
C725
  5
CAB5
331
C726
  5
CAB6
331
C727
  5
CAB7
331
C728
  5
CAB8
331
C729
  5
CAB9
331
C72A
  5
CABA
331
C72B
  5
CABB
331
C72C
  5
CABC
331
C72D
  5
CAC0
331
C72E
  5
CAC1
331
C72F
  5
CAC2
331
C730
  5
CAC7
331
C731
  5
CAC8
331
C733
  5
CAC9
331
C734
  5
CACA
331
C73B
  5
CACB
331
C73C
  5
CACC
331
C73D
  5
CACD
331
C73E
  5
CACE
331
C73F
  5
CACF
331
C740
  5
CAD0
331
C741
  5
CAD1
331
C742
  5
CAD2
331
C743
  5
CAD3
331
C744
  5
CAD4
331
C745
  5
CAD5
331
C746
  5
CAD6
331
C747
  5
CAD7
331
C748
  5
CAD8
331
C749
  5
CAD9
331
C74A
  5
CADA
331
C74B
  5
CADB
331
C74C
  5
CADC
331
C74D
  5
CADD
331
C74E
  5
CADE
331
C74F
  5
CADF
331
C750
  5
CAE0
331
C751
  5
CAE1
331
C752
  5
CAE2
331
C753
  5
CAE6
331
C754
  5
CAE7
331
C755
  5
CAE8
331
C756
  5
CAE9
331
C757
  5
CAEA
331
C758
  5
CAEB
331
C759
  5
CAEC
331
C75A
  5
CAED
331
C75B
  5
CAEE
331
C75C
  5
CAEF
331
C75D
  5
CAF0
331
C75E
  5
CAF1
331
C75F
  5
CAF2
331
C760
  5
CAF3
331
C761
  5
CAF4
331
C762
  5
CAF5
331
C765
  5
E31B
331
C76B
  5
E31C
331
C76C
  5
E31D
331
C76D
  5
E31E
331
C76E
  5
E31F
331
C76F
  5
E320
331
C770
  5
E321
331
C771
  5
E322
331
C772
  5
E323
331
C773
  5
E324
331
C774
  5
E325
331
C775
  5
E326
331
C776
  5
E327
331
C777
  5
E328
331
C778
  5
E329
331
C779
  5
E32A
331
C77A
  5
E32B
331
C77B
  5
E32C
331
C77C
  5
E32D
331
CAA6
  5
E32E
331
CAA7
  5
E32F
331
CAA8
  5
E330
331
CAA9
  5
E331
331
CAAA
  5
E332
331
CAAB
  5
E333
331
CAAD
  5
E33E
331
CAAE
  5
E33F
331
CAAF
  5
E340
331
CAB0
  5
E341
331
CAB1
  5
E342
331
CAB2
  5
E343
331
CAB3
  5
E344
331
CAB4
  5
E345
331
CAB5
  5
E346
331
CAB6
  5
E347
331
CAB7
  5
E348
331
CAB8
  5
E349
331
CAB9
  5
E34A
331
CABA
  5
E34B
331
CABB
  5
E34C
331
CABC
  5
E352
331
CABD
  5
E353
331
CABE
  5
E354
331
CABF
  5
E355
331
CAC0
  5
E356
331
CAC1
  5
E357
331
CAC2
  5
E358
331
CAC3
  5
E359
331
CAC4
  5
E35A
331
CAC6
  5
E35C
331
CAC7
  5
E360
331
CAC8
  5
E361
331
CAC9
  5
E362
331
CACA
  5
E366
331
0
  5
E34D
331
0
  5
E34E
331
0
  5
E34F
331
0
  5
E350
331
0
  5
E351
331
CAD0
  5
E3A2
331
CAD1
  5
E3A3
331
CAD2
  5
E3A4
331
CAD3
  5
E3A5
331
CAD4
  5
E3A6
331
CAD5
  5
E3A7
331
CAD6
  5
E3A8
331
CAD7
  5
E3A9
331
CAD8
  5
E3AA
331
CAD9
  5
E3AB
331
CADA
  5
E3AC
331
CADB
  5
E3AD
331
CADC
  5
E3AE
331
CADD
  5
E3AF
331
CADE
  5
E3B0
331
CADF
  5
E3B1
331
CAE0
  5
E3B2
331
CAE1
  5
E3B3
331
CAE2
  5
E3B4
331
CAE3
  5
E3B5
331
CAE4
  5
E3B6
331
CAE5
  5
E3B7
331
CAE6
  5
E3B8
331
CAE7
  5
E3B9
331
CAE8
  5
E3BA
331
CAE9
  5
E3BB
331
CAEA
  5
E3BC
331
CAEB
  5
E3BD
331
CAEC
  5
E3BE
331
CAED
  5
E3BF
331
CAEE
  5
E3C0
331
CAEF
  5
E3C1
331
CAF0
  5
E3C2
331
CAF1
  5
E3C3
331
CAF2
  5
E3C4
331
CAF3
  5
E3C5
331
CAF4
  5
E3C6
331
CAF5
  5
E3C7
331
CAF6
  5
E3C8
331
CAF7
  5
E3C9
331
CAF8
  5
E3CA
331
CAF9
  5
E3CB
331
CAFA
  5
E3CC
331
CAFB
  5
E3CD
331
CAFC
  5
E3CE
331
CAFD
  5
E3CF
331
CAFE
  5
E3D0
331
CAFF
  5
E3D1
331
CB00
  5
E3D2
331
CB01
  5
E3D3
331
CB02
  5
E3D4
331
CB03
  5
E3D5
331
CB04
  5
E3D6
331
CB05
  5
E3D7
331
CB06
  5
E3D8
331
E318
  5
C565
331
E319
  5
C69F
331
E31A
  5
C6A6
331
E31B
  5
C6AA
331
E31C
  5
C6AB
331
0
  5
C6A7
331
0
  5
C6A8
331
0
  5
C6A9
331
E320
  5
C6C0
331
E321
  5
C6C1
331
E322
  5
C6C2
331
0
  5
C6B1
331
0
  5
C6B2
331
0
  5
C6B3
331
E326
  5
C6CA
331
E327
  5
C6CB
331
E328
  5
C6CC
331
0
  5
C6B7
331
0
  5
C6B8
331
0
  5
C6B9
331
E32C
  5
C6D4
331
E32D
  5
C6D5
331
E32E
  5
C6D6
331
0
  5
C6BD
331
0
  5
C6BE
331
0
  5
C6BF
331
E332
  5
C76C
331
E333
  5
C76D
331
E334
  5
C76E
331
0
  5
C734
331
0
  5
C73B
331
0
  5
C73C
331
E338
  5
CAAA
331
E339
  5
CAAB
331
E33A
  5
CAAD
331
E33B
  5
CAAE
331
E33C
  5
CAAF
331
E33D
  5
CAB0
331
E33E
  5
CAF6
331
E33F
  5
CAF7
331
E340
  5
CAF8
331
0
  5
CABD
331
0
  5
CABE
331
0
  5
CABF
331
E344
  5
CB00
331
E345
  5
CB01
331
E346
  5
CB02
331
0
  5
CAC3
331
0
  5
CAC4
331
0
  5
CAC6
331
E34A
  5
E334
331
E34B
  5
E335
331
E34C
  5
E336
331
0
  5
CAE3
331
0
  5
CAE4
331
0
  5
CAE5
331
E350
  5
E35B
331
E351
  5
C6AD
331
E352
  5
C6AE
331
E353
  5
C6AF
331
E354
  5
C6B0
331
E355
  5
C6B4
331
E356
  5
C6B5
331
E357
  5
C6B6
331
E358
  5
C6C3
331
E359
  5
C6C4
331
E35A
  5
C6C5
331
E35B
  5
C6C6
331
E35C
  5
C6C7
331
E35D
  5
C6C8
331
E35E
  5
C6C9
331
E35F
  5
C6CD
331
E360
  5
C6CE
331
E361
  5
C6CF
331
E362
  5
C6D0
331
E363
  5
C6D1
331
E364
  5
C6D2
331
E365
  5
C6D3
331
E366
  5
C6D7
331
E367
  5
C6D8
331
E368
  5
C6D9
331
E369
  5
C6DA
331
E36A
  5
C6DB
331
E36B
  5
C6DC
331
E36C
  5
C6DD
331
E36D
  5
C76F
331
E36E
  5
C770
331
E36F
  5
C771
331
E370
  5
C772
331
E371
  5
C773
331
E372
  5
C774
331
E373
  5
C775
331
E374
  5
CAF9
331
E375
  5
CAFA
331
E376
  5
CAFB
331
E377
  5
CAFC
331
E378
  5
CAFD
331
E379
  5
CAFE
331
E37A
  5
CAFF
331
E37B
  5
CB03
331
E37C
  5
CB04
331
E37D
  5
CB05
331
E37E
  5
CB06
331
E37F
  5
E318
331
E380
  5
E319
331
E381
  5
E31A
331
E382
  5
E337
331
E383
  5
E338
331
E384
  5
E339
331
E385
  5
E33A
331
E386
  5
E33B
331
E387
  5
E33C
331
E388
  5
E33D
331
E389
  5
C6A1
331
E38A
  5
C6A5
331
E38B
  5
C726
331
E38C
  5
C727
331
E38D
  5
C728
331
0
  5
C729
331
0
  5
C72A
331
0
  5
C72B
331
E391
  5
E367
331
E392
  5
E368
331
E393
  5
E36C
331
0
  5
E35D
331
0
  5
E35E
331
0
  5
E35F
331
E397
  5
E37A
331
E398
  5
E37B
331
E399
  5
E37C
331
0
  5
E363
331
0
  5
E364
331
0
  5
E365
331
E39D
  5
E384
331
E39E
  5
E385
331
E39F
  5
E386
331
0
  5
E369
331
0
  5
E36A
331
0
  5
E36B
331
E3A3
  5
E38E
331
E3A4
  5
E38F
331
E3A5
  5
E390
331
0
  5
E36F
331
0
  5
E370
331
0
  5
E371
331
E3A9
  5
E398
331
E3AA
  5
E399
331
E3AB
  5
E39A
331
0
  5
E375
331
0
  5
E376
331
0
  5
E377
331
E3AF
  5
C72C
331
E3B0
  5
C72D
331
E3B1
  5
C72E
331
E3B2
  5
C72F
331
E3B3
  5
C730
331
E3B4
  5
C731
331
E3B5
  5
C733
331
E3B6
  5
E36D
331
E3B7
  5
E36E
331
E3B8
  5
E372
331
E3B9
  5
E373
331
E3BA
  5
E374
331
E3BB
  5
E378
331
E3BC
  5
E379
331
E3BD
  5
E37D
331
E3BE
  5
E37E
331
E3BF
  5
E37F
331
E3C0
  5
E380
331
E3C1
  5
E381
331
E3C2
  5
E382
331
E3C3
  5
E383
331
E3C4
  5
E387
331
E3C5
  5
E388
331
E3C6
  5
E389
331
E3C7
  5
E38A
331
E3C8
  5
E38B
331
E3C9
  5
E38C
331
E3CA
  5
E38D
331
E3CB
  5
E391
331
E3CC
  5
E392
331
E3CD
  5
E393
331
E3CE
  5
E394
331
E3CF
  5
E395
331
E3D0
  5
E396
331
E3D1
  5
E397
331
E3D2
  5
E39B
331
E3D3
  5
E39C
331
E3D4
  5
E39D
331
E3D5
  5
E39E
331
E3D6
  5
E39F
331
E3D7
  5
E3A0
331
E3D8
  5
E3A1
  0
MATERIAL
  5
9540
102
{ACAD_REACTORS
330
18C
102
}
102
{ACAD_XDICTIONARY
360
E577
102
}
330
18C
100
AcDbMaterial
  1
BYBLOCK
 72
     0
 73
     2
 43
0.0208333333333333
 43
0.0
 43
0.0
 43
0.0
 43
0.0
 43
0.0208333333333333
 43
0.0
 43
0.0
 43
0.0
 43
0.0
 43
1.0
 43
0.0
 43
0.0
 43
0.0
 43
0.0
 43
1.0
 77
     0
 78
     2
 47
0.0208333333333333
 47
0.0
 47
0.0
 47
0.0
 47
0.0
 47
0.0208333333333333
 47
0.0
 47
0.0
 47
0.0
 47
0.0
 47
1.0
 47
0.0
 47
0.0
 47
0.0
 47
0.0
 47
1.0
171
     0
172
     2
 49
0.0208333333333333
 49
0.0
 49
0.0
 49
0.0
 49
0.0
 49
0.0208333333333333
 49
0.0
 49
0.0
 49
0.0
 49
0.0
 49
1.0
 49
0.0
 49
0.0
 49
0.0
 49
0.0
 49
1.0
175
     0
176
     2
142
0.0208333333333333
142
0.0
142
0.0
142
0.0
142
0.0
142
0.0208333333333333
142
0.0
142
0.0
142
0.0
142
0.0
142
1.0
142
0.0
142
0.0
142
0.0
142
0.0
142
1.0
179
     0
270
     2
144
0.0208333333333333
144
0.0
144
0.0
144
0.0
144
0.0
144
0.0208333333333333
144
0.0
144
0.0
144
0.0
144
0.0
144
1.0
144
0.0
144
0.0
144
0.0
144
0.0
144
1.0
274
     2
147
0.0208333333333333
147
0.0
147
0.0
147
0.0
147
0.0
147
0.0208333333333333
147
0.0
147
0.0
147
0.0
147
0.0
147
1.0
147
0.0
147
0.0
147
0.0
147
0.0
147
1.0
  0
MATERIAL
  5
9538
102
{ACAD_REACTORS
330
18C
102
}
102
{ACAD_XDICTIONARY
360
E579
102
}
330
18C
100
AcDbMaterial
  1
BYLAYER
 72
     0
 73
     2
 43
0.0208333333333333
 43
0.0
 43
0.0
 43
0.0
 43
0.0
 43
0.0208333333333333
 43
0.0
 43
0.0
 43
0.0
 43
0.0
 43
1.0
 43
0.0
 43
0.0
 43
0.0
 43
0.0
 43
1.0
 77
     0
 78
     2
 47
0.0208333333333333
 47
0.0
 47
0.0
 47
0.0
 47
0.0
 47
0.0208333333333333
 47
0.0
 47
0.0
 47
0.0
 47
0.0
 47
1.0
 47
0.0
 47
0.0
 47
0.0
 47
0.0
 47
1.0
171
     0
172
     2
 49
0.0208333333333333
 49
0.0
 49
0.0
 49
0.0
 49
0.0
 49
0.0208333333333333
 49
0.0
 49
0.0
 49
0.0
 49
0.0
 49
1.0
 49
0.0
 49
0.0
 49
0.0
 49
0.0
 49
1.0
175
     0
176
     2
142
0.0208333333333333
142
0.0
142
0.0
142
0.0
142
0.0
142
0.0208333333333333
142
0.0
142
0.0
142
0.0
142
0.0
142
1.0
142
0.0
142
0.0
142
0.0
142
0.0
142
1.0
179
     0
270
     2
144
0.0208333333333333
144
0.0
144
0.0
144
0.0
144
0.0
144
0.0208333333333333
144
0.0
144
0.0
144
0.0
144
0.0
144
1.0
144
0.0
144
0.0
144
0.0
144
0.0
144
1.0
274
     2
147
0.0208333333333333
147
0.0
147
0.0
147
0.0
147
0.0
147
0.0208333333333333
147
0.0
147
0.0
147
0.0
147
0.0
147
1.0
147
0.0
147
0.0
147
0.0
147
0.0
147
1.0
  0
MATERIAL
  5
9548
102
{ACAD_REACTORS
330
18C
102
}
102
{ACAD_XDICTIONARY
360
E57B
102
}
330
18C
100
AcDbMaterial
  1
GLOBAL
 72
     0
 73
     2
 43
0.0208333333333333
 43
0.0
 43
0.0
 43
0.0
 43
0.0
 43
0.0208333333333333
 43
0.0
 43
0.0
 43
0.0
 43
0.0
 43
1.0
 43
0.0
 43
0.0
 43
0.0
 43
0.0
 43
1.0
 77
     0
 78
     2
 47
0.0208333333333333
 47
0.0
 47
0.0
 47
0.0
 47
0.0
 47
0.0208333333333333
 47
0.0
 47
0.0
 47
0.0
 47
0.0
 47
1.0
 47
0.0
 47
0.0
 47
0.0
 47
0.0
 47
1.0
171
     0
172
     2
 49
0.0208333333333333
 49
0.0
 49
0.0
 49
0.0
 49
0.0
 49
0.0208333333333333
 49
0.0
 49
0.0
 49
0.0
 49
0.0
 49
1.0
 49
0.0
 49
0.0
 49
0.0
 49
0.0
 49
1.0
175
     0
176
     2
142
0.0208333333333333
142
0.0
142
0.0
142
0.0
142
0.0
142
0.0208333333333333
142
0.0
142
0.0
142
0.0
142
0.0
142
1.0
142
0.0
142
0.0
142
0.0
142
0.0
142
1.0
179
     0
270
     2
144
0.0208333333333333
144
0.0
144
0.0
144
0.0
144
0.0
144
0.0208333333333333
144
0.0
144
0.0
144
0.0
144
0.0
144
1.0
144
0.0
144
0.0
144
0.0
144
0.0
144
1.0
274
     2
147
0.0208333333333333
147
0.0
147
0.0
147
0.0
147
0.0
147
0.0208333333333333
147
0.0
147
0.0
147
0.0
147
0.0
147
1.0
147
0.0
147
0.0
147
0.0
147
0.0
147
1.0
  0
ACAD_PROXY_OBJECT
  5
9584
102
{ACAD_REACTORS
330
9583
102
}
330
9583
100
AcDbZombieObject
 90
      499
 91
      511
 93
      610
310
40901902A4063FBFFFFFE000000000000002040AD7A3703D0AD73F4214DD185B99185C990000000000000104090141901A00000000000004100000000000000041025764000000000000300FC0
340
12
340
0
340
F
340
0
 94
        0
1001
ACAD_MLEADERVER
1070
     2
  0
MLINESTYLE
  5
1C
102
{ACAD_REACTORS
330
1B
102
}
330
1B
100
AcDbMlineStyle
  2
STANDARD
 70
     0
  3

 62
   256
 51
90.0
 52
90.0
 71
     2
 49
0.5
 62
   256
  6
BYLAYER
 49
-0.5
 62
   256
  6
BYLAYER
  0
ACAD_PROXY_OBJECT
  5
9562
102
{ACAD_REACTORS
330
9561
102
}
330
9561
100
AcDbZombieObject
 90
      499
 91
      510
 93
       41
310
903313A31580
  0
ACAD_PROXY_OBJECT
  5
9563
102
{ACAD_REACTORS
330
9561
102
}
330
9561
100
AcDbZombieObject
 90
      499
 91
      510
 93
      105
310
903313A324000000000000004000
  0
ACAD_PROXY_OBJECT
  5
9564
102
{ACAD_REACTORS
330
9561
102
}
330
9561
100
AcDbZombieObject
 90
      499
 91
      510
 93
      105
310
903313A344000000000000104000
  0
ACAD_PROXY_OBJECT
  5
9565
102
{ACAD_REACTORS
330
9561
102
}
330
9561
100
AcDbZombieObject
 90
      499
 91
      510
 93
      105
310
903313A354000000000000144000
  0
ACAD_PROXY_OBJECT
  5
9566
102
{ACAD_REACTORS
330
9561
102
}
330
9561
100
AcDbZombieObject
 90
      499
 91
      510
 93
      105
310
903313A384000000000000204000
  0
ACAD_PROXY_OBJECT
  5
9567
102
{ACAD_REACTORS
330
9561
102
}
330
9561
100
AcDbZombieObject
 90
      499
 91
      510
 93
      113
310
904313A31304000000000000244000
  0
ACAD_PROXY_OBJECT
  5
9568
102
{ACAD_REACTORS
330
9561
102
}
330
9561
100
AcDbZombieObject
 90
      499
 91
      510
 93
      113
310
904313A31364000000000000304000
  0
ACAD_PROXY_OBJECT
  5
9569
102
{ACAD_REACTORS
330
9561
102
}
330
9561
100
AcDbZombieObject
 90
      499
 91
      510
 93
      113
310
904313A32304000000000000344000
  0
ACAD_PROXY_OBJECT
  5
956A
102
{ACAD_REACTORS
330
9561
102
}
330
9561
100
AcDbZombieObject
 90
      499
 91
      510
 93
      113
310
904313A333040000000000003E4000
  0
ACAD_PROXY_OBJECT
  5
956B
102
{ACAD_REACTORS
330
9561
102
}
330
9561
100
AcDbZombieObject
 90
      499
 91
      510
 93
      113
310
904313A34304000000000000444000
  0
ACAD_PROXY_OBJECT
  5
956C
102
{ACAD_REACTORS
330
9561
102
}
330
9561
100
AcDbZombieObject
 90
      499
 91
      510
 93
      113
310
904313A35304000000000000494000
  0
ACAD_PROXY_OBJECT
  5
956D
102
{ACAD_REACTORS
330
9561
102
}
330
9561
100
AcDbZombieObject
 90
      499
 91
      510
 93
      121
310
905313A3130304000000000000594000
  0
ACAD_PROXY_OBJECT
  5
956E
102
{ACAD_REACTORS
330
9561
102
}
330
9561
100
AcDbZombieObject
 90
      499
 91
      510
 93
      105
310
903323A310000000000000010100
  0
ACAD_PROXY_OBJECT
  5
956F
102
{ACAD_REACTORS
330
9561
102
}
330
9561
100
AcDbZombieObject
 90
      499
 91
      510
 93
      105
310
903343A310000000000000410100
  0
ACAD_PROXY_OBJECT
  5
9570
102
{ACAD_REACTORS
330
9561
102
}
330
9561
100
AcDbZombieObject
 90
      499
 91
      510
 93
      105
310
903383A310000000000000810100
  0
ACAD_PROXY_OBJECT
  5
9571
102
{ACAD_REACTORS
330
9561
102
}
330
9561
100
AcDbZombieObject
 90
      499
 91
      510
 93
      113
310
90431303A310000000000000910100
  0
ACAD_PROXY_OBJECT
  5
9572
102
{ACAD_REACTORS
330
9561
102
}
330
9561
100
AcDbZombieObject
 90
      499
 91
      510
 93
      121
310
9053130303A310000000000001650100
  0
ACAD_PROXY_OBJECT
  5
9573
102
{ACAD_REACTORS
330
9561
102
}
330
9561
100
AcDbZombieObject
 90
      499
 91
      510
 93
      257
310
90E312F31323822203D2031272D3022000000000000200FC000000000000284000
  0
ACAD_PROXY_OBJECT
  5
9574
102
{ACAD_REACTORS
330
9561
102
}
330
9561
100
AcDbZombieObject
 90
      499
 91
      510
 93
      249
310
90D312F363422203D2031272D3022000000000000240FC000000000000284000
  0
ACAD_PROXY_OBJECT
  5
9575
102
{ACAD_REACTORS
330
9561
102
}
330
9561
100
AcDbZombieObject
 90
      499
 91
      510
 93
      249
310
90D312F333222203D2031272D3022000000000000280FC000000000000284000
  0
ACAD_PROXY_OBJECT
  5
9576
102
{ACAD_REACTORS
330
9561
102
}
330
9561
100
AcDbZombieObject
 90
      499
 91
      510
 93
      249
310
90D312F313622203D2031272D30220000000000002C0FC000000000000284000
  0
ACAD_PROXY_OBJECT
  5
9577
102
{ACAD_REACTORS
330
9561
102
}
330
9561
100
AcDbZombieObject
 90
      499
 91
      510
 93
      249
310
90D332F333222203D2031272D30220000000000002E0FC000000000000284000
  0
ACAD_PROXY_OBJECT
  5
9578
102
{ACAD_REACTORS
330
9561
102
}
330
9561
100
AcDbZombieObject
 90
      499
 91
      510
 93
      241
310
90C312F3822203D2031272D3022000000000000300FC000000000000284000
  0
ACAD_PROXY_OBJECT
  5
9579
102
{ACAD_REACTORS
330
9561
102
}
330
9561
100
AcDbZombieObject
 90
      499
 91
      510
 93
      249
310
90D332F313622203D2031272D3022000000000000320FC000000000000284000
  0
ACAD_PROXY_OBJECT
  5
957A
102
{ACAD_REACTORS
330
9561
102
}
330
9561
100
AcDbZombieObject
 90
      499
 91
      510
 93
      241
310
90C312F3422203D2031272D3022000000000000340FC000000000000284000
  0
ACAD_PROXY_OBJECT
  5
957B
102
{ACAD_REACTORS
330
9561
102
}
330
9561
100
AcDbZombieObject
 90
      499
 91
      510
 93
      241
310
90C332F3822203D2031272D3022000000000000360FC000000000000284000
  0
ACAD_PROXY_OBJECT
  5
957C
102
{ACAD_REACTORS
330
9561
102
}
330
9561
100
AcDbZombieObject
 90
      499
 91
      510
 93
      241
310
90C312F3222203D2031272D3022000000000000380FC000000000000284000
  0
ACAD_PROXY_OBJECT
  5
957D
102
{ACAD_REACTORS
330
9561
102
}
330
9561
100
AcDbZombieObject
 90
      499
 91
      510
 93
      241
310
90C332F3422203D2031272D30220000000000003A0FC000000000000284000
  0
ACAD_PROXY_OBJECT
  5
957E
102
{ACAD_REACTORS
330
9561
102
}
330
9561
100
AcDbZombieObject
 90
      499
 91
      510
 93
      161
310
90A3122203D2031272D30224000000000000284000
  0
ACAD_PROXY_OBJECT
  5
957F
102
{ACAD_REACTORS
330
9561
102
}
330
9561
100
AcDbZombieObject
 90
      499
 91
      510
 93
      257
310
90E312D312F3222203D2031272D30220000000000003E0FC000000000000284000
  0
ACAD_PROXY_OBJECT
  5
9580
102
{ACAD_REACTORS
330
9561
102
}
330
9561
100
AcDbZombieObject
 90
      499
 91
      510
 93
      225
310
90A3322203D2031272D302200000000000002100000000000000284000
  0
ACAD_PROXY_OBJECT
  5
9581
102
{ACAD_REACTORS
330
9561
102
}
330
9561
100
AcDbZombieObject
 90
      499
 91
      510
 93
      225
310
90A3622203D2031272D302200000000000006100000000000000284000
  0
ACAD_PROXY_OBJECT
  5
9582
102
{ACAD_REACTORS
330
9561
102
}
330
9561
100
AcDbZombieObject
 90
      499
 91
      510
 93
      249
310
90D31272D3022203D2031272D30220000000000000A100000000000000284000
  0
ACAD_PROXY_OBJECT
  5
9556
102
{ACAD_REACTORS
330
9550
102
}
330
9550
100
AcDbZombieObject
 90
      499
 91
      509
 93
      436
310
42CC9915DA5C99599C985B595049028333333333333E3BF0000000000000FB0107901411070040501600405405064090741402480A0340
1001
ACAD
1000
AcDbSavedByObjectVersion
1070
     0
  0
ACAD_PROXY_OBJECT
  5
9558
102
{ACAD_REACTORS
330
9550
102
}
330
9550
100
AcDbZombieObject
 90
      499
 91
      509
 93
      500
310
424CD108121A5919195B90640502408333333333333E3BF0000000000000FB01079024090700405020000000000001110200405405064090740C02480A0340
1001
ACAD
1000
AcDbSavedByObjectVersion
1070
     0
  0
ACAD_PROXY_OBJECT
  5
9557
102
{ACAD_REACTORS
330
9550
102
}
330
9550
100
AcDbZombieObject
 90
      499
 91
      509
 93
      436
310
42CCD915DA5C99599C985B595059028333333333333E3BF0000000000000FB0107901411070040501600405405064090741402480A0340
1001
ACAD
1000
AcDbSavedByObjectVersion
1070
     0
  0
ACAD_PROXY_OBJECT
  5
9555
102
{ACAD_REACTORS
330
9550
102
}
330
9550
100
AcDbZombieObject
 90
      499
 91
      509
 93
      388
310
4150985CDA58D07406404333333333333E3BF0000000000000FB0107A41107004050150841D405064090741402480A0350
1001
ACAD
1000
AcDbSavedByObjectVersion
1070
     0
  0
ACAD_PROXY_OBJECT
  5
955C
102
{ACAD_REACTORS
330
9550
102
}
330
9550
100
AcDbZombieObject
 90
      499
 91
      509
 93
      428
310
42109C9A59DA1D195B90C409028333333333333E3BF0000000000000FB010790141107004050150841D405064090741402480A029950
1001
ACAD
1000
AcDbSavedByObjectVersion
1070
     0
  0
ACAD_PROXY_OBJECT
  5
9560
102
{ACAD_REACTORS
330
9550
102
}
330
9550
100
AcDbZombieObject
 90
      499
 91
      509
 93
      452
310
42D0DBDB1BDC90DA185B99D95104090240C333333333333E3BF0000000000000FB0108901411070040501508421405064090741402480A0350
1001
ACAD
1000
AcDbSavedByObjectVersion
1070
     0
  0
ACAD_PROXY_OBJECT
  5
9559
102
{ACAD_REACTORS
330
9550
102
}
330
9550
100
AcDbZombieObject
 90
      499
 91
      509
 93
      500
310
4290DBDB98D95C1D1D585B10940D028333333333333E3BF0000000000000FB0107902409070040501000000000000111010841D405064090740C02480A0340
1001
ACAD
1000
AcDbSavedByObjectVersion
1070
     0
  0
ACAD_PROXY_OBJECT
  5
955B
102
{ACAD_REACTORS
330
9550
102
}
330
9550
100
AcDbZombieObject
 90
      499
 91
      509
 93
      412
310
40D11A5B50B409028333333333333E3BF0000000000000FB010790141107004050150841D405064090741402480A02677FFFFFD0
1001
ACAD
1000
AcDbSavedByObjectVersion
1070
     0
  0
ACAD_PROXY_OBJECT
  5
A211
102
{ACAD_REACTORS
330
9550
102
}
330
9550
100
AcDbZombieObject
 90
      499
 91
      509
 93
      452
310
43115919D950DBDB1BDC93D999916409028333333333333E3BF0000000000000FB010790141107004050150841D405064090741402480A0350
1001
ACAD
1000
AcDbSavedByObjectVersion
1070
     0
  0
ACAD_PROXY_OBJECT
  5
955F
102
{ACAD_REACTORS
330
9550
102
}
330
9550
100
AcDbZombieObject
 90
      499
 91
      509
 93
      444
310
42D19858D95C185D1D195C9B90F409028333333333333E3BF0000000000000FB010790141107004050150841D405064090741402480A0350
1001
ACAD
1000
AcDbSavedByObjectVersion
1070
     0
  0
ACAD_PROXY_OBJECT
  5
9551
102
{ACAD_REACTORS
330
9550
102
}
330
9550
100
AcDbZombieObject
 90
      499
 91
      509
 93
      388
310
41119B185D240901404333333333333E3BF0000000000000F9010740A41107004050150841D405064090741402480A1B50
1001
ACAD
1000
AcDbSavedByObjectVersion
1070
     0
  0
ACAD_PROXY_OBJECT
  5
9552
102
{ACAD_REACTORS
330
9550
102
}
330
9550
100
AcDbZombieObject
 90
      499
 91
      509
 93
      476
310
43519B185D15DA5D1A115919D95CD0140901404333333333333E3BF0000000000000F9010740901411070040501600405405064090741402480A1B50
1001
ACAD
1000
AcDbSavedByObjectVersion
1070
     0
  0
ACAD_PROXY_OBJECT
  5
9553
102
{ACAD_REACTORS
330
9550
102
}
330
9550
100
AcDbZombieObject
 90
      499
 91
      509
 93
      412
310
41D1DBDD5C985D5910240902404333333333333E3BF0000000000000F9010740A411070040501641D405064090741402480A1B50
1001
ACAD
1000
AcDbSavedByObjectVersion
1070
     0
  0
ACAD_PROXY_OBJECT
  5
9554
102
{ACAD_REACTORS
330
9550
102
}
330
9550
100
AcDbZombieObject
 90
      499
 91
      509
 93
      500
310
4411DBDD5C985D5915DA5D1A115919D95CD0340902404333333333333E3BF0000000000000F9010740901411070040501600405405064090741402480A1B50
1001
ACAD
1000
AcDbSavedByObjectVersion
1070
     0
  0
ACAD_PROXY_OBJECT
  5
A260
102
{ACAD_REACTORS
330
9550
102
}
330
9550
100
AcDbZombieObject
 90
      499
 91
      509
 93
      476
310
41921A5919195B90640502408333333333333E3BF0000000000000FB01079024090700405020000000000001110200405405064090740C02480A0340
1001
ACAD
1000
AcDbSavedByObjectVersion
1070
     0
  0
ACAD_PROXY_OBJECT
  5
A20F
102
{ACAD_REACTORS
330
9550
102
}
330
9550
100
AcDbZombieObject
 90
      499
 91
      509
 93
      428
310
42529A5D1D195C93D999914409028333333333333E3BF0000000000000FB010790141107004050150A41D405064090741402480A0350
1001
ACAD
1000
AcDbSavedByObjectVersion
1070
     0
  0
ACAD_PROXY_OBJECT
  5
955E
102
{ACAD_REACTORS
330
9550
102
}
330
9550
100
AcDbZombieObject
 90
      499
 91
      509
 93
      444
310
42D31A5B995C185D1D195C9B90E409028333333333333E3BF0000000000000FB010790141107004050750841D405064090741402483A0350
1001
ACAD
1000
AcDbSavedByObjectVersion
1070
     0
  0
ACAD_PROXY_OBJECT
  5
A266
102
{ACAD_REACTORS
330
9550
102
}
330
9550
100
AcDbZombieObject
 90
      499
 91
      509
 93
      484
310
42135BD9195B1A5B99D0A409028333333333333E3BF0000000000000F901074090290700405010000000000201990108421405064090741402480A1B40
1001
ACAD
1000
AcDbSavedByObjectVersion
1070
     0
  0
ACAD_PROXY_OBJECT
  5
A210
102
{ACAD_REACTORS
330
9550
102
}
330
9550
100
AcDbZombieObject
 90
      499
 91
      509
 93
      444
310
42D3DD995C9A185B99D3D999915409028333333333333E3BF0000000000000FB010790141107004050150941D405064090741402480A0350
1001
ACAD
1000
AcDbSavedByObjectVersion
1070
     0
  0
ACAD_PROXY_OBJECT
  5
955A
102
{ACAD_REACTORS
330
9550
102
}
330
9550
100
AcDbZombieObject
 90
      499
 91
      509
 93
      420
310
425499585B1A5CDD1A58D08409028333333333333E3BF0000000000000FB01079019070040501508421405064090741402480A1B40
1001
ACAD
1000
AcDbSavedByObjectVersion
1070
     0
  0
ACAD_PROXY_OBJECT
  5
A265
102
{ACAD_REACTORS
330
9550
102
}
330
9550
100
AcDbZombieObject
 90
      499
 91
      509
 93
      420
310
4194DA1859195911B40902404333333333333E3BF0000000000000F9010740A41107004050150800405405064090840C02480A0B40
1001
ACAD
1000
AcDbSavedByObjectVersion
1070
     0
  0
ACAD_PROXY_OBJECT
  5
A264
102
{ACAD_REACTORS
330
9550
102
}
330
9550
100
AcDbZombieObject
 90
      499
 91
      509
 93
      516
310
4454DA18591959081DDA5D1A08195919D95CD1A40902404333333333333E3BF0000000000000F901074090142907004050250800405405064090740C02480A0B40
1001
ACAD
1000
AcDbSavedByObjectVersion
1070
     0
  0
ACAD_PROXY_OBJECT
  5
A261
102
{ACAD_REACTORS
330
9550
102
}
330
9550
100
AcDbZombieObject
 90
      499
 91
      509
 93
      532
310
4394DA1859195CC81BD98811DC985E5174090240C333333333333E3BF0000000000000FB01079024090741D01000000000000111010841D405064090740C02480A0340
1001
ACAD
1000
AcDbSavedByObjectVersion
1070
     0
  0
ACAD_PROXY_OBJECT
  5
A262
102
{ACAD_REACTORS
330
9550
102
}
330
9550
100
AcDbZombieObject
 90
      499
 91
      509
 93
      476
310
41D4DAD95D18DA1E51840502408333333333333E3BF0000000000000FB01079024090741D01000000000000111010B41D405064090741802480A0340
1001
ACAD
1000
AcDbSavedByObjectVersion
1070
     0
  0
ACAD_PROXY_OBJECT
  5
955D
102
{ACAD_REACTORS
330
9550
102
}
330
9550
100
AcDbZombieObject
 90
      499
 91
      509
 93
      412
310
41D51A1A58DAD95B90D409028333333333333E3BF0000000000000FB010790141107004050150C41D405064090741402480A0350
1001
ACAD
1000
AcDbSavedByObjectVersion
1070
     0
  0
ACAD_PROXY_OBJECT
  5
A25F
102
{ACAD_REACTORS
330
9550
102
}
330
9550
100
AcDbZombieObject
 90
      499
 91
      509
 93
      420
310
4255DA5C99599C985B595059028333333333333E3BF0000000000000FB0107901411070040501600405405064090740C02480A0340
1001
ACAD
1000
AcDbSavedByObjectVersion
1070
     0
  0
ACAD_PROXY_OBJECT
  5
A263
102
{ACAD_REACTORS
330
9550
102
}
330
9550
100
AcDbZombieObject
 90
      499
 91
      509
 93
      404
310
41560B54985E51940902404000000000000E03F0000000000000FB010740501907004050150841D405064090740C02480A1B40
1001
ACAD
1000
AcDbSavedByObjectVersion
1070
     0
  0
XRECORD
  5
E3DA
102
{ACAD_REACTORS
330
E3D9
102
}
330
E3D9
100
AcDbXrecord
340
18D
  0
XRECORD
  5
E3DB
102
{ACAD_REACTORS
330
E3D9
102
}
330
E3D9
100
AcDbXrecord
340
18C
  0
DICTIONARYVAR
  5
AAE0
102
{ACAD_REACTORS
330
37
102
}
330
37
100
DictionaryVariables
280
     0
  1
1:1
  0
DICTIONARYVAR
  5
9627
102
{ACAD_REACTORS
330
37
102
}
330
37
100
DictionaryVariables
280
     0
  1
Standard
  0
DICTIONARYVAR
  5
29E
102
{ACAD_REACTORS
330
37
102
}
330
37
100
DictionaryVariables
280
     0
  1
Standard
  0
DICTIONARYVAR
  5
38
102
{ACAD_REACTORS
330
37
102
}
330
37
100
DictionaryVariables
280
     0
  1
-1
  0
DICTIONARYVAR
  5
1CE
102
{ACAD_REACTORS
330
37
102
}
330
37
100
DictionaryVariables
280
     0
  1
2
  0
DICTIONARYVAR
  5
704E
102
{ACAD_REACTORS
330
37
102
}
330
37
100
DictionaryVariables
280
     0
  1
1
  0
DICTIONARYVAR
  5
962A
102
{ACAD_REACTORS
330
37
102
}
330
37
100
DictionaryVariables
280
     0
  1
0
  0
DICTIONARYVAR
  5
7052
102
{ACAD_REACTORS
330
37
102
}
330
37
100
DictionaryVariables
280
     0
  1
8
  0
DICTIONARYVAR
  5
7051
102
{ACAD_REACTORS
330
37
102
}
330
37
100
DictionaryVariables
280
     0
  1
1
  0
DICTIONARYVAR
  5
AB30
102
{ACAD_REACTORS
330
37
102
}
330
37
100
DictionaryVariables
280
     0
  1
0
  0
DICTIONARYVAR
  5
704F
102
{ACAD_REACTORS
330
37
102
}
330
37
100
DictionaryVariables
280
     0
  1
8
  0
DICTIONARYVAR
  5
7050
102
{ACAD_REACTORS
330
37
102
}
330
37
100
DictionaryVariables
280
     0
  1
2
  0
DICTIONARYVAR
  5
1CF
102
{ACAD_REACTORS
330
37
102
}
330
37
100
DictionaryVariables
280
     0
  1

  0
DICTIONARYVAR
  5
9629
102
{ACAD_REACTORS
330
37
102
}
330
37
100
DictionaryVariables
280
     0
  1
127
  0
DICTIONARYVAR
  5
E208
102
{ACAD_REACTORS
330
37
102
}
330
37
100
DictionaryVariables
280
     0
  1
2
  0
DICTIONARY
  5
E577
330
9540
100
AcDbDictionary
  3
ACAD_XREC_ROUNDTRIP
360
E578
1001
ACAD
1000
TREAT_AS_HARD
1070
     1
  0
DICTIONARY
  5
E579
330
9538
100
AcDbDictionary
  3
ACAD_XREC_ROUNDTRIP
360
E57A
1001
ACAD
1000
TREAT_AS_HARD
1070
     1
  0
DICTIONARY
  5
E57B
330
9548
100
AcDbDictionary
  3
ACAD_XREC_ROUNDTRIP
360
E57C
1001
ACAD
1000
TREAT_AS_HARD
1070
     1
  0
XRECORD
  5
E578
102
{ACAD_REACTORS
330
E577
102
}
330
E577
100
AcDbXrecord
102
MATERIAL
148
0.0
149
0.0
149
0.0
 93
        0
 94
      127
282
     0
 72
     0
 77
     0
171
     0
175
     0
179
     0
273
     0
  0
XRECORD
  5
E57A
102
{ACAD_REACTORS
330
E579
102
}
330
E579
100
AcDbXrecord
102
MATERIAL
148
0.0
149
0.0
149
0.0
 93
        0
 94
      127
282
     0
 72
     0
 77
     0
171
     0
175
     0
179
     0
273
     0
  0
XRECORD
  5
E57C
102
{ACAD_REACTORS
330
E57B
102
}
330
E57B
100
AcDbXrecord
102
MATERIAL
148
0.0
149
0.0
149
0.0
 93
        0
 94
      127
282
     0
 72
     0
 77
     0
171
     0
175
     0
179
     0
273
     0
  0
ENDSEC
  0
EOF
