  0
SECTION
  2
HEADER
  9
$ACADVER
  1
AC1012
  9
$DWGCODEPAGE
  3
ansi_932
  9
$INSBASE
 10
0.0
 20
0.0
 30
0.0
  9
$EXTMIN
 10
2154.00507590708
 20
35.00943088063332
 30
0.0
  9
$EXTMAX
 10
2774.95354308686
 20
462.3892568621104
 30
0.0000000001691137
  9
$LIMMIN
 10
0.0
 20
0.0
  9
$LIMMAX
 10
420.0
 20
297.0
  9
$ORTHOMODE
 70
     0
  9
$REGENMODE
 70
     1
  9
$FILLMODE
 70
     1
  9
$QTEXTMODE
 70
     0
  9
$MIRRTEXT
 70
     0
  9
$DRAGMODE
 70
     2
  9
$LTSCALE
 40
0.5
  9
$OSMODE
 70
 12415
  9
$ATTMODE
 70
     1
  9
$TEXTSIZE
 40
4.0
  9
$TRACEWID
 40
1.0
  9
$TEXTSTYLE
  7
STANDARD
  9
$CLAYER
  8
1TEXT
  9
$CELTYPE
  6
BYLAYER
  9
$CECOLOR
 62
   256
  9
$CELTSCALE
 40
1.0
  9
$DELOBJ
 70
     1
  9
$DISPSILH
 70
     0
  9
$DIMSCALE
 40
1.0
  9
$DIMASZ
 40
2.0
  9
$DIMEXO
 40
0.0
  9
$DIMDLI
 40
7.0
  9
$DIMRND
 40
0.0
  9
$DIMDLE
 40
0.0
  9
$DIMEXE
 40
1.0
  9
$DIMTP
 40
0.0
  9
$DIMTM
 40
0.0
  9
$DIMTXT
 40
3.5
  9
$DIMCEN
 40
0.0
  9
$DIMTSZ
 40
0.0
  9
$DIMTOL
 70
     0
  9
$DIMLIM
 70
     0
  9
$DIMTIH
 70
     0
  9
$DIMTOH
 70
     0
  9
$DIMSE1
 70
     0
  9
$DIMSE2
 70
     0
  9
$DIMTAD
 70
     1
  9
$DIMZIN
 70
     8
  9
$DIMBLK
  1

  9
$DIMASO
 70
     1
  9
$DIMSHO
 70
     1
  9
$DIMPOST
  1
 
  9
$DIMAPOST
  1

  9
$DIMALT
 70
     0
  9
$DIMALTD
 70
     2
  9
$DIMALTF
 40
25.4
  9
$DIMLFAC
 40
1.0
  9
$DIMTOFL
 70
     1
  9
$DIMTVP
 40
0.0
  9
$DIMTIX
 70
     0
  9
$DIMSOXD
 70
     0
  9
$DIMSAH
 70
     1
  9
$DIMBLK1
  1
OPEN30
  9
$DIMBLK2
  1
OPEN30
  9
$DIMSTYLE
  2
NEWX10
  9
$DIMCLRD
 70
     0
  9
$DIMCLRE
 70
     0
  9
$DIMCLRT
 70
   201
  9
$DIMTFAC
 40
0.7
  9
$DIMGAP
 40
0.7
  9
$DIMJUST
 70
     0
  9
$DIMSD1
 70
     0
  9
$DIMSD2
 70
     0
  9
$DIMTOLJ
 70
     1
  9
$DIMTZIN
 70
     8
  9
$DIMALTZ
 70
     0
  9
$DIMALTTZ
 70
     0
  9
$DIMFIT
 70
     3
  9
$DIMUPT
 70
     0
  9
$DIMUNIT
 70
     2
  9
$DIMDEC
 70
     2
  9
$DIMTDEC
 70
     4
  9
$DIMALTU
 70
     2
  9
$DIMALTTD
 70
     2
  9
$DIMTXSTY
  7
STANDARD
  9
$DIMAUNIT
 70
     0
  9
$LUNITS
 70
     2
  9
$LUPREC
 70
     4
  9
$SKETCHINC
 40
1.0
  9
$FILLETRAD
 40
0.0
  9
$AUNITS
 70
     0
  9
$AUPREC
 70
     2
  9
$MENU
  1
acad
  9
$ELEVATION
 40
0.0
  9
$PELEVATION
 40
0.0
  9
$THICKNESS
 40
0.0
  9
$LIMCHECK
 70
     0
  9
$CHAMFERA
 40
10.0
  9
$CHAMFERB
 40
10.0
  9
$CHAMFERC
 40
20.0
  9
$CHAMFERD
 40
0.0
  9
$SKPOLY
 70
     0
  9
$TDCREATE
 40
2451318.621352917
  9
$TDUPDATE
 40
2459373.581446701
  9
$TDINDWG
 40
1.6709176852
  9
$TDUSRTIMER
 40
1.6709176852
  9
$USRTIMER
 70
     1
  9
$ANGBASE
 50
0.0
  9
$ANGDIR
 70
     0
  9
$PDMODE
 70
     0
  9
$PDSIZE
 40
0.0
  9
$PLINEWID
 40
0.0
  9
$COORDS
 70
     2
  9
$SPLFRAME
 70
     0
  9
$SPLINETYPE
 70
     6
  9
$SPLINESEGS
 70
     8
  9
$ATTDIA
 70
     0
  9
$ATTREQ
 70
     1
  9
$HANDLING
 70
     1
  9
$HANDSEED
  5
1D1E9
  9
$SURFTAB1
 70
     6
  9
$SURFTAB2
 70
     6
  9
$SURFTYPE
 70
     6
  9
$SURFU
 70
     6
  9
$SURFV
 70
     6
  9
$UCSNAME
  2

  9
$UCSORG
 10
0.0
 20
0.0
 30
0.0
  9
$UCSXDIR
 10
1.0
 20
0.0
 30
0.0
  9
$UCSYDIR
 10
0.0
 20
1.0
 30
0.0
  9
$PUCSNAME
  2

  9
$PUCSORG
 10
0.0
 20
0.0
 30
0.0
  9
$PUCSXDIR
 10
1.0
 20
0.0
 30
0.0
  9
$PUCSYDIR
 10
0.0
 20
1.0
 30
0.0
  9
$USERI1
 70
     0
  9
$USERI2
 70
     0
  9
$USERI3
 70
     0
  9
$USERI4
 70
     0
  9
$USERI5
 70
     0
  9
$USERR1
 40
0.0
  9
$USERR2
 40
0.0
  9
$USERR3
 40
0.0
  9
$USERR4
 40
0.0
  9
$USERR5
 40
0.0
  9
$WORLDVIEW
 70
     1
  9
$SHADEDGE
 70
     3
  9
$SHADEDIF
 70
    70
  9
$TILEMODE
 70
     1
  9
$MAXACTVP
 70
    48
  9
$PINSBASE
 10
0.0
 20
0.0
 30
0.0
  9
$PLIMCHECK
 70
     0
  9
$PEXTMIN
 10
1.000000000000000E+20
 20
1.000000000000000E+20
 30
1.000000000000000E+20
  9
$PEXTMAX
 10
-1.000000000000000E+20
 20
-1.000000000000000E+20
 30
-1.000000000000000E+20
  9
$PLIMMIN
 10
0.0
 20
0.0
  9
$PLIMMAX
 10
420.0
 20
297.0
  9
$UNITMODE
 70
     0
  9
$VISRETAIN
 70
     1
  9
$PLINEGEN
 70
     0
  9
$PSLTSCALE
 70
     1
  9
$TREEDEPTH
 70
  3020
  9
$PICKSTYLE
 70
     0
  9
$CMLSTYLE
  2
STANDARD
  9
$CMLJUST
 70
     0
  9
$CMLSCALE
 40
20.0
  9
$SAVEIMAGES
 70
     1
  0
ENDSEC
  0
SECTION
  2
CLASSES
  0
CLASS
  1
DICTIONARYVAR
  2
AcDbDictionaryVar
  3
ObjectDBX Classes
 90
        0
280
     0
281
     0
  0
CLASS
  1
IDBUFFER
  2
AcDbIdBuffer
  3
ObjectDBX Classes
 90
    32768
280
     0
281
     0
  0
CLASS
  1
LWPOLYLINE
  2
AcDbPolyline
  3
ObjectDBX Classes
 90
    32768
280
     0
281
     1
  0
CLASS
  1
ACDBDICTIONARYWDFLT
  2
AcDbDictionaryWithDefault
  3
ObjectDBX Classes
 90
    32768
280
     0
281
     0
  0
CLASS
  1
ACDBPLACEHOLDER
  2
AcDbPlaceHolder
  3
ObjectDBX Classes
 90
        0
280
     0
281
     0
  0
CLASS
  1
LAYOUT
  2
AcDbLayout
  3
ObjectDBX Classes
 90
        0
280
     0
281
     0
  0
CLASS
  1
TABLESTYLE
  2
AcDbTableStyle
  3
ObjectDBX Classes
 90
     4095
280
     0
281
     0
  0
CLASS
  1
SORTENTSTABLE
  2
AcDbSortentsTable
  3
ObjectDBX Classes
 90
    32768
280
     0
281
     0
  0
CLASS
  1
MATERIAL
  2
AcDbMaterial
  3
ObjectDBX Classes
 90
     1153
280
     0
281
     0
  0
CLASS
  1
VISUALSTYLE
  2
AcDbVisualStyle
  3
ObjectDBX Classes
 90
     4095
280
     0
281
     0
  0
CLASS
  1
SCALE
  2
AcDbScale
  3
ObjectDBX Classes
 90
     1153
280
     0
281
     0
  0
CLASS
  1
MLEADERSTYLE
  2
AcDbMLeaderStyle
  3
ACDB_MLEADERSTYLE_CLASS
 90
     4095
280
     0
281
     0
  0
CLASS
  1
CELLSTYLEMAP
  2
AcDbCellStyleMap
  3
ObjectDBX Classes
 90
     1152
280
     0
281
     0
  0
CLASS
  1
SUN
  2
AcDbSun
  3
SCENEOE
 90
     1153
280
     0
281
     0
  0
CLASS
  1
XRECORD
  2
AcDbXrecord
  3
ObjectDBX Classes
 90
    32768
280
     0
281
     0
  0
CLASS
  1
HATCH
  2
AcDbHatch
  3
ObjectDBX Classes
 90
    32768
280
     0
281
     1
  0
ENDSEC
  0
SECTION
  2
TABLES
  0
TABLE
  2
VPORT
  5
8
330
0
100
AcDbSymbolTable
 70
     1
  0
VPORT
  5
D991
330
8
100
AcDbSymbolTableRecord
100
AcDbViewportTableRecord
  2
*ACTIVE
 70
     0
 10
0.0
 20
0.0
 11
1.0
 21
1.0
 12
2464.47930949697
 22
248.6993438713719
 13
0.0
 23
0.0
 14
10.0
 24
10.0
 15
10.0
 25
10.0
 16
0.0
 26
0.0
 36
1.0
 17
0.0
 27
0.0
 37
0.0
 40
458.8709710537965
 41
1.858156028368794
 42
50.0
 43
0.0
 44
0.0
 50
0.0
 51
0.0
 71
    16
 72
  1000
 73
     1
 74
     1
 75
     0
 76
     0
 77
     0
 78
     0
1001
ACAD_NAV_VCDISPLAY
1070
     3
  0
ENDTAB
  0
TABLE
  2
LTYPE
  5
5
330
0
100
AcDbSymbolTable
 70
     2
  0
LTYPE
  5
12
330
5
100
AcDbSymbolTableRecord
100
AcDbLinetypeTableRecord
  2
BYBLOCK
 70
     0
  3

 72
    65
 73
     0
 40
0.0
  0
LTYPE
  5
13
330
5
100
AcDbSymbolTableRecord
100
AcDbLinetypeTableRecord
  2
BYLAYER
 70
     0
  3

 72
    65
 73
     0
 40
0.0
  0
LTYPE
  5
14
330
5
100
AcDbSymbolTableRecord
100
AcDbLinetypeTableRecord
  2
CONTINUOUS
 70
     0
  3
Solid line
 72
    65
 73
     0
 40
0.0
  0
LTYPE
  5
13839
330
5
100
AcDbSymbolTableRecord
100
AcDbLinetypeTableRecord
  2
CENTER2
 70
     0
  3
Center (.5x) ___ _ ___ _ ___ _ ___ _ ___ _ ___
 72
    65
 73
     4
 40
28.575
 49
19.05
 74
     0
 49
-3.175
 74
     0
 49
3.175
 74
     0
 49
-3.175
 74
     0
  0
ENDTAB
  0
TABLE
  2
LAYER
  5
2
102
{ACAD_XDICTIONARY
360
E6A6
102
}
330
0
100
AcDbSymbolTable
 70
     5
  0
LAYER
  5
E
102
{ACAD_XDICTIONARY
360
DA05
102
}
330
2
100
AcDbSymbolTableRecord
100
AcDbLayerTableRecord
  2
0
 70
     0
 62
     7
  6
CONTINUOUS
  0
LAYER
  5
29
102
{ACAD_XDICTIONARY
360
DA07
102
}
330
2
100
AcDbSymbolTableRecord
100
AcDbLayerTableRecord
  2
1CENTER
 70
     0
 62
     7
  6
CENTER2
  0
LAYER
  5
31
102
{ACAD_XDICTIONARY
360
DA09
102
}
330
2
100
AcDbSymbolTableRecord
100
AcDbLayerTableRecord
  2
1TEXT
 70
     0
 62
     7
  6
CONTINUOUS
  0
LAYER
  5
243
102
{ACAD_XDICTIONARY
360
DA0F
102
}
330
2
100
AcDbSymbolTableRecord
100
AcDbLayerTableRecord
  2
01
 70
     0
 62
     1
  6
CONTINUOUS
  0
LAYER
  5
24E
102
{ACAD_XDICTIONARY
360
DA15
102
}
330
2
100
AcDbSymbolTableRecord
100
AcDbLayerTableRecord
  2
1DIM
 70
     0
 62
     7
  6
CONTINUOUS
  0
ENDTAB
  0
TABLE
  2
STYLE
  5
3
330
0
100
AcDbSymbolTable
 70
     1
  0
STYLE
  5
F
330
3
100
AcDbSymbolTableRecord
100
AcDbTextStyleTableRecord
  2
STANDARD
 70
     0
 40
0.0
 41
1.0
 50
0.0
 71
     0
 42
4.0
  3
txt.shx
  4
extfont.shx
  0
ENDTAB
  0
TABLE
  2
VIEW
  5
6
330
0
100
AcDbSymbolTable
 70
     0
  0
ENDTAB
  0
TABLE
  2
UCS
  5
7
330
0
100
AcDbSymbolTable
 70
     5
  0
UCS
  5
1C4DD
330
7
100
AcDbSymbolTableRecord
100
AcDbUCSTableRecord
  2
U
 70
     0
 10
0.0
 20
0.0
 30
0.0
 11
1.0
 21
0.0
 31
0.0
 12
0.0
 22
2.220446049250313E-16
 32
1.0
 79
     0
146
0.0
  0
UCS
  5
1C4DE
330
7
100
AcDbSymbolTableRecord
100
AcDbUCSTableRecord
  2
L
 70
     0
 10
0.0
 20
0.0
 30
0.0
 11
-2.220446049250313E-16
 21
-1.0
 31
2.220446049250313E-16
 12
0.0
 22
2.220446049250313E-16
 32
1.0
 79
     0
146
0.0
  0
UCS
  5
1C4DF
330
7
100
AcDbSymbolTableRecord
100
AcDbUCSTableRecord
  2
R
 70
     0
 10
0.0
 20
0.0
 30
0.0
 11
3.445092848397667E-16
 21
1.0
 31
-2.220446049250313E-16
 12
0.0
 22
2.220446049250313E-16
 32
1.0
 79
     0
146
0.0
  0
UCS
  5
1C4E0
330
7
100
AcDbSymbolTableRecord
100
AcDbUCSTableRecord
  2
ISOME
 70
     0
 10
0.0
 20
0.0
 30
0.0
 11
0.7071450863198265
 21
-0.7070684729403536
 31
-3.830824619466267E-5
 12
0.4082704059428734
 22
0.4082704077401151
 32
0.8164744636514736
 79
     0
146
0.0
  0
UCS
  5
1C4E1
330
7
100
AcDbSymbolTableRecord
100
AcDbUCSTableRecord
  2
PERSPECTIVE
 70
     0
 10
0.0
 20
0.0
 30
0.0
 11
0.8191477691768964
 21
-0.5735823260466403
 31
-0.0004974931557765462
 12
0.1584844715982971
 22
0.225502028986108
 32
0.961265575782966
 79
     0
146
0.0
  0
ENDTAB
  0
TABLE
  2
APPID
  5
9
330
0
100
AcDbSymbolTable
 70
    20
  0
APPID
  5
10
330
9
100
AcDbSymbolTableRecord
100
AcDbRegAppTableRecord
  2
ACAD
 70
     0
  0
APPID
  5
21
330
9
100
AcDbSymbolTableRecord
100
AcDbRegAppTableRecord
  2
DRAWINGVARIABLESXDATA
 70
     0
  0
APPID
  5
64
330
9
100
AcDbSymbolTableRecord
100
AcDbRegAppTableRecord
  2
CONTENTTABDATA
 70
     0
  0
APPID
  5
65
330
9
100
AcDbSymbolTableRecord
100
AcDbRegAppTableRecord
  2
CONTENTCURRENTTAB
 70
     0
  0
APPID
  5
66
330
9
100
AcDbSymbolTableRecord
100
AcDbRegAppTableRecord
  2
CONTENTBLOCKDESCRIPTION
 70
     0
  0
APPID
  5
67
330
9
100
AcDbSymbolTableRecord
100
AcDbRegAppTableRecord
  2
CONTENTBLOCKICON
 70
     0
  0
APPID
  5
68
330
9
100
AcDbSymbolTableRecord
100
AcDbRegAppTableRecord
  2
CONTENTLONGBLOCKNAME
 70
     0
  0
APPID
  5
2AE
330
9
100
AcDbSymbolTableRecord
100
AcDbRegAppTableRecord
  2
ACAD_PSEXT
 70
     0
  0
APPID
  5
D9E9
330
9
100
AcDbSymbolTableRecord
100
AcDbRegAppTableRecord
  2
ACAD_MLEADERVER
 70
     0
  0
APPID
  5
19CF0
330
9
100
AcDbSymbolTableRecord
100
AcDbRegAppTableRecord
  2
ACADANNOTATIVE
 70
     0
  0
APPID
  5
19CF1
330
9
100
AcDbSymbolTableRecord
100
AcDbRegAppTableRecord
  2
ACDBBLOCKREPETAG
 70
     0
  0
APPID
  5
19CF2
330
9
100
AcDbSymbolTableRecord
100
AcDbRegAppTableRecord
  2
ACLAYERTOOLS
 70
     0
  0
APPID
  5
19CF3
330
9
100
AcDbSymbolTableRecord
100
AcDbRegAppTableRecord
  2
ACAD_NAV_VCDISPLAY
 70
     0
  0
APPID
  5
1A86C
330
9
100
AcDbSymbolTableRecord
100
AcDbRegAppTableRecord
  2
ACAD_OBJECT_CHANGE_GUID
 70
     0
  0
APPID
  5
1AD45
330
9
100
AcDbSymbolTableRecord
100
AcDbRegAppTableRecord
  2
ACAECLAYERSTANDARD
 70
     0
  0
APPID
  5
1C5A1
330
9
100
AcDbSymbolTableRecord
100
AcDbRegAppTableRecord
  2
ACAD_EXEMPT_FROM_CAD_STAND
 70
     0
  0
APPID
  5
1CB04
330
9
100
AcDbSymbolTableRecord
100
AcDbRegAppTableRecord
  2
ACAD_DSTYLE_DIMJOGGED_JOGA
 70
     0
  0
APPID
  5
1CB05
330
9
100
AcDbSymbolTableRecord
100
AcDbRegAppTableRecord
  2
ACAD_DSTYLE_DIM_LINETYPE
 70
     0
  0
APPID
  5
1CB06
330
9
100
AcDbSymbolTableRecord
100
AcDbRegAppTableRecord
  2
ACAD_DSTYLE_DIM_EXT1_LINET
 70
     0
  0
APPID
  5
1CB07
330
9
100
AcDbSymbolTableRecord
100
AcDbRegAppTableRecord
  2
ACAD_DSTYLE_DIM_EXT2_LINET
 70
     0
  0
ENDTAB
  0
TABLE
  2
DIMSTYLE
  5
A
330
0
100
AcDbSymbolTable
 70
     2
  0
DIMSTYLE
105
48
102
{ACAD_REACTORS
102
}
330
A
100
AcDbSymbolTableRecord
100
AcDbDimStyleTableRecord
  2
NEWX10
 70
     0
  3
 
  4

  5

  6
OPEN30
  7
OPEN30
 40
1.0
 41
2.0
 42
0.0
 43
7.0
 44
1.0
 45
0.0
 46
0.0
 47
0.0
 48
0.0
140
3.5
141
0.0
142
0.0
143
25.4
144
1.0
145
0.0
146
0.7
147
0.7
 71
     0
 72
     0
 73
     0
 74
     0
 75
     0
 76
     0
 77
     1
 78
     8
170
     0
171
     2
172
     1
173
     1
174
     0
175
     0
176
     0
177
     0
178
   201
179
     1
270
     2
271
     2
272
     4
273
     2
274
     2
340
F
275
     0
280
     0
281
     0
282
     0
283
     1
284
     8
285
     0
286
     0
287
     3
288
     0
1001
ACADANNOTATIVE
1000
AnnotativeData
1002
{
1070
     1
1070
     0
1002
}
  0
DIMSTYLE
105
1C82C
330
A
100
AcDbSymbolTableRecord
100
AcDbDimStyleTableRecord
  2
ISO-25
 70
     0
  3

  4

  5

  6

  7

 40
1.0
 41
20.0
 42
3.0
 43
3.75
 44
2.0
 45
0.0
 46
0.0
 47
0.0
 48
0.0
140
30.0
141
5.0
142
0.0
143
0.03937
144
1.0
145
0.0
146
1.0
147
8.0
 71
     0
 72
     0
 73
     0
 74
     0
 75
     0
 76
     0
 77
     1
 78
     8
170
     0
171
     3
172
     1
173
     0
174
     0
175
     0
176
     1
177
     1
178
     1
179
     2
270
     2
271
     2
272
     2
273
     2
274
     3
340
F
275
     0
280
     0
281
     0
282
     0
283
     0
284
     8
285
     0
286
     0
287
     3
288
     0
  0
ENDTAB
  0
TABLE
  2
BLOCK_RECORD
  5
1
330
0
100
AcDbSymbolTable
 70
     8
  0
BLOCK_RECORD
  5
18
102
{ACAD_XDICTIONARY
360
88F
102
}
330
1
100
AcDbSymbolTableRecord
100
AcDbBlockTableRecord
  2
*MODEL_SPACE
  0
BLOCK_RECORD
  5
15
330
1
100
AcDbSymbolTableRecord
100
AcDbBlockTableRecord
  2
*PAPER_SPACE
  0
BLOCK_RECORD
  5
42
330
1
100
AcDbSymbolTableRecord
100
AcDbBlockTableRecord
  2
_OPEN30
  0
BLOCK_RECORD
  5
19D42
330
1
100
AcDbSymbolTableRecord
100
AcDbBlockTableRecord
  2
A3WAKUKAWAJUN2017_HYOUDAI_
  0
BLOCK_RECORD
  5
1D049
330
1
100
AcDbSymbolTableRecord
100
AcDbBlockTableRecord
  2
*X127
  0
BLOCK_RECORD
  5
1D097
330
1
100
AcDbSymbolTableRecord
100
AcDbBlockTableRecord
  2
*X128
  0
BLOCK_RECORD
  5
1D0E9
330
1
100
AcDbSymbolTableRecord
100
AcDbBlockTableRecord
  2
*X129
  0
BLOCK_RECORD
  5
1D13A
330
1
100
AcDbSymbolTableRecord
100
AcDbBlockTableRecord
  2
*X130
  0
BLOCK_RECORD
  5
1D177
330
1
100
AcDbSymbolTableRecord
100
AcDbBlockTableRecord
  2
*X131
  0
BLOCK_RECORD
  5
1D1B7
330
1
100
AcDbSymbolTableRecord
100
AcDbBlockTableRecord
  2
*X132
  0
ENDTAB
  0
ENDSEC
  0
SECTION
  2
BLOCKS
  0
BLOCK
  5
19
330
18
100
AcDbEntity
  8
0
100
AcDbBlockBegin
  2
*MODEL_SPACE
 70
     0
 10
0.0
 20
0.0
 30
0.0
  3
*MODEL_SPACE
  1

  0
ENDBLK
  5
1A
330
18
100
AcDbEntity
  8
0
100
AcDbBlockEnd
  0
BLOCK
  5
16
330
15
100
AcDbEntity
 67
     1
  8
0
100
AcDbBlockBegin
  2
*PAPER_SPACE
 70
     0
 10
0.0
 20
0.0
 30
0.0
  3
*PAPER_SPACE
  1

  0
ENDBLK
  5
17
330
15
100
AcDbEntity
 67
     1
  8
0
100
AcDbBlockEnd
  0
BLOCK
  5
43
330
42
100
AcDbEntity
  8
0
100
AcDbBlockBegin
  2
_OPEN30
 70
     0
 10
0.0
 20
0.0
 30
0.0
  3
_OPEN30
  1

  0
LINE
  5
44
330
42
100
AcDbEntity
  8
0
  6
BYBLOCK
 62
     0
100
AcDbLine
 10
-1.0
 20
0.26794919
 30
0.0
 11
0.0
 21
0.0
 31
0.0
  0
LINE
  5
45
330
42
100
AcDbEntity
  8
0
  6
BYBLOCK
 62
     0
100
AcDbLine
 10
0.0
 20
0.0
 30
0.0
 11
-1.0
 21
-0.26794919
 31
0.0
  0
LINE
  5
46
330
42
100
AcDbEntity
  8
0
  6
BYBLOCK
 62
     0
100
AcDbLine
 10
0.0
 20
0.0
 30
0.0
 11
-1.0
 21
0.0
 31
0.0
  0
ENDBLK
  5
47
330
42
100
AcDbEntity
  8
0
100
AcDbBlockEnd
  0
BLOCK
  5
1A550
330
19D42
100
AcDbEntity
  8
0
100
AcDbBlockBegin
  2
A3WAKUKAWAJUN2017_HYOUDAI_
 70
     0
 10
0.0
 20
0.0
 30
0.0
  3
A3WAKUKAWAJUN2017_HYOUDAI_
  1

  0
LINE
  5
19D44
330
19D42
100
AcDbEntity
  8
0
100
AcDbLine
 10
13.26299999998673
 20
-0.0001000000000317
 30
0.0
 11
9.236999999990758
 21
8.999899999990987
 31
0.0
1001
ACAD
1000
ASC_BOUNDS
1002
{
1070
    19
1005
19D85
1002
}
  0
LINE
  5
19D45
330
19D42
100
AcDbEntity
  8
0
100
AcDbLine
 10
5.657999999994331
 20
0.9999999999989768
 30
0.0
 11
9.236999999990758
 21
8.999999999991019
 31
0.0
1001
ACAD
1000
ASC_BOUNDS
1002
{
1070
    19
1005
19D85
1002
}
  0
LINE
  5
19D46
330
19D42
100
AcDbEntity
  8
0
100
AcDbLine
 10
18.59199999998134
 20
-0.2368999999997641
 30
0.0
 11
16.46099999998353
 21
5.432899999994561
 31
0.0
1001
ACAD
1000
ASC_BOUNDS
1002
{
1070
    19
1005
19D86
1002
}
  0
LINE
  5
19D47
330
19D42
100
AcDbEntity
  8
0
100
AcDbLine
 10
18.59199999998134
 20
-0.2368999999997641
 30
0.0
 11
22.38199999997767
 21
8.763099999991255
 31
0.0
1001
ACAD
1000
ASC_BOUNDS
1002
{
1070
    19
1005
19D86
1002
}
  0
LINE
  5
19D48
330
19D42
100
AcDbEntity
  8
0
100
AcDbLine
 10
14.32899999998563
 20
-0.2368999999997641
 30
0.0
 11
16.46099999998353
 21
5.432899999994561
 31
0.0
1001
ACAD
1000
ASC_BOUNDS
1002
{
1070
    19
1005
19D86
1002
}
  0
LINE
  5
19D49
330
19D42
100
AcDbEntity
  8
0
100
AcDbLine
 10
14.32899999998563
 20
-0.2368999999997641
 30
0.0
 11
10.53899999998941
 21
8.763099999991255
 31
0.0
1001
ACAD
1000
ASC_BOUNDS
1002
{
1070
    19
1005
19D86
1002
}
  0
LINE
  5
19D4A
330
19D42
100
AcDbEntity
  8
0
100
AcDbLine
 10
19.53899999998043
 20
-0.0001000000000317
 30
0.0
 11
23.56599999997638
 21
8.999899999990987
 31
0.0
1001
ACAD
1000
ASC_BOUNDS
1002
{
1070
    19
1005
19D87
1002
}
  0
LINE
  5
19D4B
330
19D42
100
AcDbEntity
  8
0
100
AcDbLine
 10
26.97358892824991
 20
1.383099999991202
 30
0.0
 11
23.56599999997638
 21
8.999899999990987
 31
0.0
1001
ACAD
1000
ASC_BOUNDS
1002
{
1070
    19
1005
19D87
1002
}
  0
LINE
  5
19D4C
330
19D42
100
AcDbEntity
  8
0
100
AcDbLine
 10
5.657999999994331
 20
0.9999999999989768
 30
0.0
 11
3.181999999996833
 21
4.668599999995308
 31
0.0
1001
ACAD
1000
ASC_BOUNDS
1002
{
1070
    19
1005
19D85
1002
}
  0
LINE
  5
19D4D
330
19D42
100
AcDbEntity
  8
0
100
AcDbLine
 10
4.617999999995391
 20
-0.0001000000000317
 30
0.0
 11
1.420999999998571
 21
4.736799999995242
 31
0.0
1001
ACAD
1000
ASC_BOUNDS
1002
{
1070
    19
1005
19D85
1002
}
  0
LINE
  5
19D4E
330
19D42
100
AcDbEntity
  8
0
100
AcDbLine
 10
1.420999999998571
 20
8.763099999991255
 30
0.0
 11
1.420999999998571
 21
0.0
 31
0.0
1001
ACAD
1000
ASC_BOUNDS
1002
{
1070
    19
1005
19D8A
1002
}
  0
LINE
  5
19D4F
330
19D42
100
AcDbEntity
  8
0
100
AcDbLine
 10
0.0
 20
8.763099999991255
 30
0.0
 11
0.0
 21
0.0
 31
0.0
1001
ACAD
1000
ASC_BOUNDS
1002
{
1070
    19
1005
19D8A
1002
}
  0
LINE
  5
19D50
330
19D42
100
AcDbEntity
  8
0
100
AcDbLine
 10
6.766999999993232
 20
-0.0001000000000317
 30
0.0
 11
7.826999999992154
 21
2.368399999997621
 31
0.0
1001
ACAD
1000
ASC_BOUNDS
1002
{
1070
    19
1005
19D85
1002
}
  0
LINE
  5
19D51
330
19D42
100
AcDbEntity
  8
0
100
AcDbLine
 10
0.0
 20
0.0
 30
0.0
 11
1.420999999998571
 21
0.0
 31
0.0
1001
ACAD
1000
ASC_BOUNDS
1002
{
1070
    19
1005
19D8A
1002
}
  0
LINE
  5
19D52
330
19D42
100
AcDbEntity
  8
0
100
AcDbLine
 10
4.617999999995391
 20
0.0
 30
0.0
 11
6.766999999993232
 21
0.0
 31
0.0
1001
ACAD
1000
ASC_BOUNDS
1002
{
1070
    19
1005
19D85
1002
}
  0
LINE
  5
19D53
330
19D42
100
AcDbEntity
  8
0
100
AcDbLine
 10
11.70599999998831
 20
-0.0001000000000317
 30
0.0
 11
10.64699999998936
 21
2.368399999997621
 31
0.0
1001
ACAD
1000
ASC_BOUNDS
1002
{
1070
    19
1005
19D85
1002
}
  0
LINE
  5
19D54
330
19D42
100
AcDbEntity
  8
0
100
AcDbLine
 10
7.826999999992154
 20
2.368399999997621
 30
0.0
 11
10.64699999998936
 21
2.368399999997621
 31
0.0
1001
ACAD
1000
ASC_BOUNDS
1002
{
1070
    19
1005
19D85
1002
}
  0
LINE
  5
19D55
330
19D42
100
AcDbEntity
  8
0
100
AcDbLine
 10
11.70599999998831
 20
0.0
 30
0.0
 11
13.26299999998673
 21
0.0
 31
0.0
1001
ACAD
1000
ASC_BOUNDS
1002
{
1070
    19
1005
19D85
1002
}
  0
LINE
  5
19D56
330
19D42
100
AcDbEntity
  8
0
100
AcDbLine
 10
22.15599999997789
 20
2.368399999997621
 30
0.0
 11
24.97599999997499
 21
2.368399999997621
 31
0.0
1001
ACAD
1000
ASC_BOUNDS
1002
{
1070
    19
1005
19D87
1002
}
  0
LINE
  5
19D57
330
19D42
100
AcDbEntity
  8
0
100
AcDbLine
 10
19.53899999998043
 20
0.0
 30
0.0
 11
21.09599999997886
 21
0.0
 31
0.0
1001
ACAD
1000
ASC_BOUNDS
1002
{
1070
    19
1005
19D87
1002
}
  0
LINE
  5
19D58
330
19D42
100
AcDbEntity
  8
0
100
AcDbLine
 10
21.09599999997886
 20
-0.0001000000000317
 30
0.0
 11
22.15599999997789
 21
2.368399999997621
 31
0.0
1001
ACAD
1000
ASC_BOUNDS
1002
{
1070
    19
1005
19D87
1002
}
  0
LINE
  5
19D59
330
19D42
100
AcDbEntity
  8
0
100
AcDbLine
 10
26.02015566812236
 20
0.0330999999912365
 30
0.0
 11
24.97599999997499
 21
2.368399999997621
 31
0.0
1001
ACAD
1000
ASC_BOUNDS
1002
{
1070
    19
1005
19D87
1002
}
  0
LINE
  5
19D5A
330
19D42
100
AcDbEntity
  8
0
100
AcDbLine
 10
14.32399999998563
 20
3.315799999996671
 30
0.0
 11
16.46099999998353
 21
8.999899999990987
 31
0.0
1001
ACAD
1000
ASC_BOUNDS
1002
{
1070
    19
1005
19D86
1002
}
  0
LINE
  5
19D5B
330
19D42
100
AcDbEntity
  8
0
100
AcDbLine
 10
6.432999999993513
 20
8.763099999991255
 30
0.0
 11
3.181999999996833
 21
4.668599999995308
 31
0.0
1001
ACAD
1000
ASC_BOUNDS
1002
{
1070
    19
1005
19D85
1002
}
  0
LINE
  5
19D5C
330
19D42
100
AcDbEntity
  8
0
100
AcDbLine
 10
4.617999999995391
 20
8.763099999991255
 30
0.0
 11
1.420999999998571
 21
4.736799999995242
 31
0.0
1001
ACAD
1000
ASC_BOUNDS
1002
{
1070
    19
1005
19D85
1002
}
  0
LINE
  5
19D5D
330
19D42
100
AcDbEntity
  8
0
100
AcDbLine
 10
0.0
 20
8.763099999991255
 30
0.0
 11
1.420999999998571
 21
8.763099999991255
 31
0.0
1001
ACAD
1000
ASC_BOUNDS
1002
{
1070
    19
1005
19D8A
1002
}
  0
LINE
  5
19D5E
330
19D42
100
AcDbEntity
  8
0
100
AcDbLine
 10
4.617999999995391
 20
8.763099999991255
 30
0.0
 11
6.432999999993513
 21
8.763099999991255
 31
0.0
1001
ACAD
1000
ASC_BOUNDS
1002
{
1070
    19
1005
19D85
1002
}
  0
LINE
  5
19D5F
330
19D42
100
AcDbEntity
  8
0
100
AcDbLine
 10
14.32399999998563
 20
3.315799999996671
 30
0.0
 11
12.02999999998792
 21
8.763099999991255
 31
0.0
1001
ACAD
1000
ASC_BOUNDS
1002
{
1070
    19
1005
19D86
1002
}
  0
LINE
  5
19D60
330
19D42
100
AcDbEntity
  8
0
100
AcDbLine
 10
10.06399999998996
 20
3.670999999996297
 30
0.0
 11
9.236999999990758
 21
5.5200999999945
 31
0.0
1001
ACAD
1000
ASC_BOUNDS
1002
{
1070
    19
1005
19D85
1002
}
  0
LINE
  5
19D61
330
19D42
100
AcDbEntity
  8
0
100
AcDbLine
 10
8.409999999991555
 20
3.670999999996297
 30
0.0
 11
9.236999999990758
 21
5.5200999999945
 31
0.0
1001
ACAD
1000
ASC_BOUNDS
1002
{
1070
    19
1005
19D85
1002
}
  0
LINE
  5
19D62
330
19D42
100
AcDbEntity
  8
0
100
AcDbLine
 10
8.409999999991555
 20
3.670999999996297
 30
0.0
 11
10.06399999998996
 21
3.670999999996297
 31
0.0
1001
ACAD
1000
ASC_BOUNDS
1002
{
1070
    19
1005
19D85
1002
}
  0
LINE
  5
19D63
330
19D42
100
AcDbEntity
  8
0
100
AcDbLine
 10
10.53899999998941
 20
8.763099999991255
 30
0.0
 11
12.02999999998792
 21
8.763099999991255
 31
0.0
1001
ACAD
1000
ASC_BOUNDS
1002
{
1070
    19
1005
19D86
1002
}
  0
LINE
  5
19D64
330
19D42
100
AcDbEntity
  8
0
100
AcDbLine
 10
22.7389999999773
 20
3.670999999996297
 30
0.0
 11
23.56599999997638
 21
5.5200999999945
 31
0.0
1001
ACAD
1000
ASC_BOUNDS
1002
{
1070
    19
1005
19D87
1002
}
  0
LINE
  5
19D65
330
19D42
100
AcDbEntity
  8
0
100
AcDbLine
 10
22.7389999999773
 20
3.670999999996297
 30
0.0
 11
24.39299999997559
 21
3.670999999996297
 31
0.0
1001
ACAD
1000
ASC_BOUNDS
1002
{
1070
    19
1005
19D87
1002
}
  0
LINE
  5
19D66
330
19D42
100
AcDbEntity
  8
0
100
AcDbLine
 10
18.59799999998143
 20
3.315799999996671
 30
0.0
 11
20.89099999997916
 21
8.763099999991255
 31
0.0
1001
ACAD
1000
ASC_BOUNDS
1002
{
1070
    19
1005
19D86
1002
}
  0
LINE
  5
19D67
330
19D42
100
AcDbEntity
  8
0
100
AcDbLine
 10
18.59799999998143
 20
3.315799999996671
 30
0.0
 11
16.46099999998353
 21
8.999899999990987
 31
0.0
1001
ACAD
1000
ASC_BOUNDS
1002
{
1070
    19
1005
19D86
1002
}
  0
LINE
  5
19D68
330
19D42
100
AcDbEntity
  8
0
100
AcDbLine
 10
20.89099999997916
 20
8.763099999991255
 30
0.0
 11
22.38199999997767
 21
8.763099999991255
 31
0.0
1001
ACAD
1000
ASC_BOUNDS
1002
{
1070
    19
1005
19D86
1002
}
  0
LINE
  5
19D69
330
19D42
100
AcDbEntity
  8
0
100
AcDbLine
 10
24.39299999997559
 20
3.670999999996297
 30
0.0
 11
23.56599999997638
 21
5.5200999999945
 31
0.0
1001
ACAD
1000
ASC_BOUNDS
1002
{
1070
    19
1005
19D87
1002
}
  0
LINE
  5
19D6A
330
19D42
100
AcDbEntity
  8
0
100
AcDbLine
 10
44.99999999995498
 20
-0.2368999999997641
 30
0.0
 11
40.02599999995994
 21
5.341799999994635
 31
0.0
1001
ACAD
1000
ASC_BOUNDS
1002
{
1070
    19
1005
19D89
1002
}
  0
LINE
  5
19D6B
330
19D42
100
AcDbEntity
  8
0
100
AcDbLine
 10
40.02599999995994
 20
5.341799999994635
 30
0.0
 11
40.02599999995994
 21
0.0
 31
0.0
1001
ACAD
1000
ASC_BOUNDS
1002
{
1070
    19
1005
19D89
1002
}
  0
LINE
  5
19D6C
330
19D42
100
AcDbEntity
  8
0
100
AcDbLine
 10
38.60499999996136
 20
8.999999999991019
 30
0.0
 11
38.60499999996136
 21
0.0
 31
0.0
1001
ACAD
1000
ASC_BOUNDS
1002
{
1070
    19
1005
19D89
1002
}
  0
LINE
  5
19D6D
330
19D42
100
AcDbEntity
  8
0
100
AcDbLine
 10
44.99999999995498
 20
8.763099999991255
 30
0.0
 11
44.99999999995498
 21
-0.2368999999997641
 31
0.0
1001
ACAD
1000
ASC_BOUNDS
1002
{
1070
    19
1005
19D89
1002
}
  0
LINE
  5
19D6E
330
19D42
100
AcDbEntity
  8
0
100
AcDbLine
 10
38.60499999996136
 20
0.0
 30
0.0
 11
40.02599999995994
 21
0.0
 31
0.0
1001
ACAD
1000
ASC_BOUNDS
1002
{
1070
    19
1005
19D89
1002
}
  0
LINE
  5
19D6F
330
19D42
100
AcDbEntity
  8
0
100
AcDbLine
 10
43.57899999995641
 20
3.421199999996588
 30
0.0
 11
38.60499999996136
 21
8.999899999990987
 31
0.0
1001
ACAD
1000
ASC_BOUNDS
1002
{
1070
    19
1005
19D89
1002
}
  0
LINE
  5
19D70
330
19D42
100
AcDbEntity
  8
0
100
AcDbLine
 10
43.57899999995641
 20
8.763099999991255
 30
0.0
 11
43.57899999995641
 21
3.421199999996588
 31
0.0
1001
ACAD
1000
ASC_BOUNDS
1002
{
1070
    19
1005
19D89
1002
}
  0
LINE
  5
19D71
330
19D42
100
AcDbEntity
  8
0
100
AcDbLine
 10
43.57899999995641
 20
8.763099999991255
 30
0.0
 11
44.99999999995498
 21
8.763099999991255
 31
0.0
1001
ACAD
1000
ASC_BOUNDS
1002
{
1070
    19
1005
19D89
1002
}
  0
LINE
  5
19D72
330
19D42
100
AcDbEntity
  8
0
100
AcDbLine
 10
37.67199999996831
 20
8.763099999991255
 30
0.0
 11
36.23199999996837
 21
8.763099999991255
 31
0.0
  0
LINE
  5
19D73
330
19D42
100
AcDbEntity
  8
0
100
AcDbLine
 10
31.64199999996833
 20
8.763099999991255
 30
0.0
 11
31.64199999996833
 21
2.481619422925121
 31
0.0
  0
LINE
  5
19D74
330
19D42
100
AcDbEntity
  8
0
100
AcDbLine
 10
37.67199999996831
 20
8.763099999991255
 30
0.0
 11
37.67199999996831
 21
2.481619422925121
 31
0.0
  0
LINE
  5
19D75
330
19D42
100
AcDbEntity
  8
0
100
AcDbLine
 10
36.23199999996837
 20
8.763099999991255
 30
0.0
 11
36.23199999996837
 21
2.481619422925064
 31
0.0
  0
LINE
  5
19D76
330
19D42
100
AcDbEntity
  8
0
100
AcDbLine
 10
33.08199999996839
 20
8.763099999991255
 30
0.0
 11
33.08199999996839
 21
2.481619422925121
 31
0.0
  0
ARC
  5
19D77
330
19D42
100
AcDbEntity
  8
0
100
AcDbCircle
 10
34.65699999996832
 20
3.183099999991214
 30
0.0
 40
3.420000000000007
100
AcDbArc
 50
240.0000000000255
 51
299.9999999999766
  0
ARC
  5
19D78
330
19D42
100
AcDbEntity
  8
0
100
AcDbCircle
 10
34.65699999996832
 20
3.183099999991214
 30
0.0
 40
1.97999999999999
100
AcDbArc
 50
240.000000000026
 51
299.9999999999703
  0
LINE
  5
19D79
330
19D42
100
AcDbEntity
  8
0
100
AcDbLine
 10
33.08199999996828
 20
8.763099999991255
 30
0.0
 11
31.64199999996833
 21
8.763099999991255
 31
0.0
  0
ARC
  5
19D7A
330
19D42
100
AcDbEntity
  8
0
100
AcDbCircle
 10
35.06199999996829
 20
2.481619422925064
 30
0.0
 40
1.17
100
AcDbArc
 50
299.9999999999699
 51
0.0
  0
ARC
  5
19D7B
330
19D42
100
AcDbEntity
  8
0
100
AcDbCircle
 10
34.25199999996835
 20
2.481619422925121
 30
0.0
 40
1.17
100
AcDbArc
 50
180.0
 51
240.0000000000238
  0
ARC
  5
19D7C
330
19D42
100
AcDbEntity
  8
0
100
AcDbCircle
 10
35.06199999996841
 20
2.481619422925121
 30
0.0
 40
2.61
100
AcDbArc
 50
299.9999999999756
 51
0.0
  0
ARC
  5
19D7D
330
19D42
100
AcDbEntity
  8
0
100
AcDbCircle
 10
34.25199999996835
 20
2.481619422925121
 30
0.0
 40
2.61
100
AcDbArc
 50
180.0
 51
240.0000000000244
  0
LINE
  5
19D7E
330
19D42
100
AcDbEntity
  8
0
100
AcDbLine
 10
29.30199999996933
 20
8.763099999991255
 30
0.0
 11
30.74199999996927
 21
8.763099999991255
 31
0.0
1001
ACAD
1000
ASC_BOUNDS
1002
{
1070
    19
1005
19D87
1002
}
  0
LINE
  5
19D7F
330
19D42
100
AcDbEntity
  8
0
100
AcDbLine
 10
30.74199999996927
 20
8.763099999991255
 30
0.0
 11
30.74199999996927
 21
2.373099999991211
 31
0.0
1001
ACAD
1000
ASC_BOUNDS
1002
{
1070
    19
1005
19D87
1002
}
  0
LINE
  5
19D80
330
19D42
100
AcDbEntity
  8
0
100
AcDbLine
 10
26.02015566812236
 20
0.0330999999912365
 30
0.0
 11
28.40199999996923
 21
0.0330999999912365
 31
0.0
1001
ACAD
1000
ASC_BOUNDS
1002
{
1070
    19
1005
19D87
1002
}
  0
LINE
  5
19D81
330
19D42
100
AcDbEntity
  8
0
100
AcDbLine
 10
29.30199999996933
 20
8.763099999991255
 30
0.0
 11
29.30199999996933
 21
2.283099999991236
 31
0.0
1001
ACAD
1000
ASC_BOUNDS
1002
{
1070
    19
1005
19D87
1002
}
  0
LINE
  5
19D82
330
19D42
100
AcDbEntity
  8
0
100
AcDbLine
 10
26.97358892824991
 20
1.383099999991202
 30
0.0
 11
28.40199999996923
 21
1.383099999991202
 31
0.0
1001
ACAD
1000
ASC_BOUNDS
1002
{
1070
    19
1005
19D87
1002
}
  0
ARC
  5
19D83
330
19D42
100
AcDbEntity
  8
0
100
AcDbCircle
 10
28.40199999996923
 20
2.283099999991236
 30
0.0
 40
0.9
100
AcDbArc
 50
270.0
 51
0.0
1001
ACAD
1000
ASC_BOUNDS
1002
{
1070
    19
1005
19D87
1002
}
  0
ARC
  5
19D84
330
19D42
100
AcDbEntity
  8
0
100
AcDbCircle
 10
28.40199999996923
 20
2.373099999991211
 30
0.0
 40
2.34
100
AcDbArc
 50
270.0
 51
0.0
1001
ACAD
1000
ASC_BOUNDS
1002
{
1070
    19
1005
19D87
1002
}
  0
INSERT
  5
19D85
330
19D42
100
AcDbEntity
  8
0
100
AcDbBlockReference
  2
*X127
 10
0.0
 20
0.0
 30
0.0
1001
ACAD
1000
HATCH
1002
{
1070
    19
1000
ANSI37
1040
0.15
1040
0.0
1000
ASC_BOUNDS
1070
     2
1070
     2
1070
    12
1005
19D44
1005
19D45
1005
19D4C
1005
19D5B
1005
19D5E
1005
19D5C
1005
19D4D
1005
19D52
1005
19D50
1005
19D54
1005
19D53
1005
19D55
1070
     2
1070
     3
1005
19D60
1005
19D62
1005
19D61
1000
ASC_SEEDPOINT
1011
3.614004224891801
1021
2.996669441146025
1031
0.0
1000
R14_HATCH_DATA
1000
19D85
1011
1.0
1021
0.0
1031
0.0
1011
0.0
1021
1.0
1031
0.0
1011
0.0
1021
0.0
1031
1.0
1040
0.0
1010
0.0
1020
0.0
1030
1.0
1000
ANSI37
1070
     0
1070
     1
1071
        2
1071
        7
1070
     0
1070
     1
1071
       17
1040
13.26299999998673
1040
-0.0001000000000317
1040
9.236999999990758
1040
8.999899999990987
1040
9.236999999990758
1040
8.999999999991019
1040
5.657999999994331
1040
0.9999999999989768
1040
3.181999999996833
1040
4.668599999995308
1040
6.432999999993513
1040
8.763099999991255
1040
4.617999999995391
1040
8.763099999991255
1040
1.420999999998571
1040
4.736799999995242
1040
4.617999999995391
1040
-0.0001000000000317
1040
4.617999999995391
1040
0.0
1040
6.766999999993232
1040
0.0
1040
6.766999999993232
1040
-0.0001000000000317
1040
7.826999999992154
1040
2.368399999997621
1040
10.64699999998936
1040
2.368399999997621
1040
11.70599999998831
1040
-0.0001000000000317
1040
11.70599999998831
1040
0.0
1040
13.26299999998673
1040
0.0
1071
       12
1005
19D44
1005
19D45
1005
19D4C
1005
19D5B
1005
19D5E
1005
19D5C
1005
19D4D
1005
19D52
1005
19D50
1005
19D54
1005
19D53
1005
19D55
1071
       22
1070
     0
1070
     1
1071
        3
1040
9.236999999990758
1040
5.5200999999945
1040
10.06399999998996
1040
3.670999999996297
1040
8.409999999991555
1040
3.670999999996297
1071
        3
1005
19D60
1005
19D62
1005
19D61
1070
     0
1070
     1
1040
0.0
1040
0.15
1070
     0
1070
     2
1040
0.7853981633974483
1040
49.29960901727088
1040
-10.17736998311392
1040
-0.3367596045400932
1040
0.3367596045400932
1070
     0
1040
2.356194490192345
1040
49.29960901727088
1040
-10.17736998311392
1040
-0.3367596045400932
1040
-0.3367596045400932
1070
     0
1040
0.0110235143455945
1071
        2
1040
3.614004224891801
1040
2.996669441146025
1040
0.0
1040
3.614004224891801
1040
2.996669441146025
1040
0.0
1002
}
  0
INSERT
  5
19D86
330
19D42
100
AcDbEntity
  8
0
100
AcDbBlockReference
  2
*X128
 10
0.0
 20
0.0
 30
0.0
1001
ACAD
1000
HATCH
1002
{
1070
    19
1000
ANSI37
1040
0.15
1040
0.0
1000
ASC_BOUNDS
1070
     1
1070
     2
1070
    10
1005
19D46
1005
19D47
1005
19D68
1005
19D66
1005
19D67
1005
19D5A
1005
19D5F
1005
19D63
1005
19D49
1005
19D48
1000
ASC_SEEDPOINT
1011
14.73245321214324
1021
2.798246178283421
1031
0.0
1000
R14_HATCH_DATA
1000
19D86
1011
1.0
1021
0.0
1031
0.0
1011
0.0
1021
1.0
1031
0.0
1011
0.0
1021
0.0
1031
1.0
1040
0.0
1010
0.0
1020
0.0
1030
1.0
1000
ANSI37
1070
     0
1070
     1
1071
        1
1071
        7
1070
     0
1070
     1
1071
       10
1040
16.46099999998353
1040
5.432899999994561
1040
18.59199999998134
1040
-0.2368999999997641
1040
22.38199999997767
1040
8.763099999991255
1040
20.89099999997916
1040
8.763099999991255
1040
18.59799999998143
1040
3.315799999996671
1040
16.46099999998353
1040
8.999899999990987
1040
14.32399999998563
1040
3.315799999996671
1040
12.02999999998792
1040
8.763099999991255
1040
10.53899999998941
1040
8.763099999991255
1040
14.32899999998563
1040
-0.2368999999997641
1071
       10
1005
19D46
1005
19D47
1005
19D68
1005
19D66
1005
19D67
1005
19D5A
1005
19D5F
1005
19D63
1005
19D49
1005
19D48
1070
     0
1070
     1
1040
0.0
1040
0.15
1070
     0
1070
     2
1040
0.7853981633974483
1040
49.29960901727088
1040
-10.17736998311392
1040
-0.3367596045400932
1040
0.3367596045400932
1070
     0
1040
2.356194490192345
1040
49.29960901727088
1040
-10.17736998311392
1040
-0.3367596045400932
1040
-0.3367596045400932
1070
     0
1040
0.0110235143455945
1071
        1
1040
14.73245321214324
1040
2.798246178283421
1040
0.0
1002
}
  0
INSERT
  5
19D87
330
19D42
100
AcDbEntity
  8
0
100
AcDbBlockReference
  2
*X129
 10
0.0
 20
0.0
 30
0.0
1001
ACAD
1000
HATCH
1002
{
1070
    19
1000
ANSI37
1040
0.15
1040
0.0
1000
ASC_BOUNDS
1070
     2
1070
     2
1070
    13
1005
19D4A
1005
19D57
1005
19D58
1005
19D56
1005
19D59
1005
19D80
1005
19D84
1005
19D7F
1005
19D7E
1005
19D81
1005
19D83
1005
19D82
1005
19D4B
1070
     2
1070
     3
1005
19D64
1005
19D69
1005
19D65
1000
ASC_SEEDPOINT
1011
21.97929957367762
1021
3.294304244259308
1031
0.0
1000
R14_HATCH_DATA
1000
19D87
1011
1.0
1021
0.0
1031
0.0
1011
0.0
1021
1.0
1031
0.0
1011
0.0
1021
0.0
1031
1.0
1040
0.0
1010
0.0
1020
0.0
1030
1.0
1000
ANSI37
1070
     0
1070
     1
1071
        2
1071
        7
1070
     1
1070
     1
1071
       15
1040
23.56599999997638
1040
8.999899999990987
1040
0.0
1040
19.53899999998043
1040
-0.0001000000000317
1040
0.0
1040
19.53899999998043
1040
0.0
1040
0.0
1040
21.09599999997886
1040
0.0
1040
0.0
1040
21.09599999997886
1040
-0.0001000000000317
1040
0.0
1040
22.15599999997789
1040
2.368399999997621
1040
0.0
1040
24.97599999997499
1040
2.368399999997621
1040
0.0
1040
26.02015566812236
1040
0.0330999999912365
1040
0.0
1040
28.40199999996923
1040
0.0330999999912365
1040
0.414213562373095
1040
30.74199999996923
1040
2.373099999991211
1040
0.0
1040
30.74199999996927
1040
8.763099999991255
1040
0.0
1040
29.30199999996933
1040
8.763099999991255
1040
0.0
1040
29.30199999996933
1040
2.283099999991236
1040
-0.414213562373095
1040
28.40199999996923
1040
1.383099999991237
1040
0.0
1040
26.97358892824991
1040
1.383099999991202
1040
0.0
1071
       13
1005
19D4A
1005
19D57
1005
19D58
1005
19D56
1005
19D59
1005
19D80
1005
19D84
1005
19D7F
1005
19D7E
1005
19D81
1005
19D83
1005
19D82
1005
19D4B
1071
       22
1070
     0
1070
     1
1071
        3
1040
22.7389999999773
1040
3.670999999996297
1040
23.56599999997638
1040
5.5200999999945
1040
24.39299999997559
1040
3.670999999996297
1071
        3
1005
19D64
1005
19D69
1005
19D65
1070
     0
1070
     1
1040
0.0
1040
0.15
1070
     0
1070
     2
1040
0.7853981633974483
1040
49.29960901727088
1040
-10.17736998311392
1040
-0.3367596045400932
1040
0.3367596045400932
1070
     0
1040
2.356194490192345
1040
49.29960901727088
1040
-10.17736998311392
1040
-0.3367596045400932
1040
-0.3367596045400932
1070
     0
1040
0.0110235143455945
1071
        2
1040
21.97929957367762
1040
3.294304244259308
1040
0.0
1040
21.97929957367762
1040
3.294304244259308
1040
0.0
1002
}
  0
INSERT
  5
19D88
330
19D42
100
AcDbEntity
  8
0
100
AcDbBlockReference
  2
*X130
 10
0.0
 20
0.0
 30
0.0
1001
ACAD
1000
HATCH
1002
{
1070
    19
1000
ANSI37
1040
0.15
1040
0.0
1000
R14_HATCH_DATA
1000
19D88
1011
1.0
1021
0.0
1031
0.0
1011
0.0
1021
1.0
1031
0.0
1011
0.0
1021
0.0
1031
1.0
1040
0.0
1010
0.0
1020
0.0
1030
1.0
1000
ANSI37
1070
     0
1070
     1
1071
        1
1071
        7
1070
     1
1070
     1
1071
       12
1040
31.64199999996833
1040
2.481619422925121
1040
0.2679491924310942
1040
32.94699999997067
1040
0.2212931190493919
1040
0.2679491924301353
1040
36.36699999995983
1040
0.2212931190459813
1040
0.2679491924321411
1040
37.67199999996831
1040
2.481619422928361
1040
0.0
1040
37.67199999996831
1040
8.763099999991255
1040
0.0
1040
36.23199999996837
1040
8.763099999991255
1040
0.0
1040
36.23199999996837
1040
2.481619422925064
1040
-0.2679491924310291
1040
35.64699999996708
1040
1.468369700498386
1040
-0.267949192430519
1040
33.66699999997093
1040
1.468369700497703
1040
-0.267949192431809
1040
33.08199999996839
1040
2.481619422926997
1040
0.0
1040
33.08199999996839
1040
8.763099999991255
1040
0.0
1040
31.64199999996833
1040
8.763099999991255
1040
0.0
1071
        0
1070
     0
1070
     1
1040
0.0
1040
0.15
1070
     0
1070
     2
1040
0.7853981633974483
1040
49.29960901727088
1040
-10.17736998311392
1040
-0.3367596045400932
1040
0.3367596045400932
1070
     0
1040
2.356194490192345
1040
49.29960901727088
1040
-10.17736998311392
1040
-0.3367596045400932
1040
-0.3367596045400932
1070
     0
1040
0.0110235143455945
1071
        1
1040
32.30357378967278
1040
3.988785755459219
1040
0.0
1002
}
  0
INSERT
  5
19D89
330
19D42
100
AcDbEntity
  8
0
100
AcDbBlockReference
  2
*X131
 10
0.0
 20
0.0
 30
0.0
1001
ACAD
1000
HATCH
1002
{
1070
    19
1000
ANSI37
1040
0.15
1040
0.0
1000
ASC_BOUNDS
1070
     1
1070
     2
1070
     8
1005
19D6A
1005
19D6D
1005
19D71
1005
19D70
1005
19D6F
1005
19D6C
1005
19D6E
1005
19D6B
1000
ASC_SEEDPOINT
1011
39.74896370716704
1021
4.484843821435049
1031
0.0
1000
R14_HATCH_DATA
1000
19D89
1011
1.0
1021
0.0
1031
0.0
1011
0.0
1021
1.0
1031
0.0
1011
0.0
1021
0.0
1031
1.0
1040
0.0
1010
0.0
1020
0.0
1030
1.0
1000
ANSI37
1070
     0
1070
     1
1071
        1
1071
        7
1070
     0
1070
     1
1071
        9
1040
40.02599999995994
1040
5.341799999994635
1040
44.99999999995498
1040
-0.2368999999997641
1040
44.99999999995498
1040
8.763099999991255
1040
43.57899999995641
1040
8.763099999991255
1040
43.57899999995641
1040
3.421199999996588
1040
38.60499999996136
1040
8.999899999990987
1040
38.60499999996136
1040
8.999999999991019
1040
38.60499999996136
1040
0.0
1040
40.02599999995994
1040
0.0
1071
        8
1005
19D6A
1005
19D6D
1005
19D71
1005
19D70
1005
19D6F
1005
19D6C
1005
19D6E
1005
19D6B
1070
     0
1070
     1
1040
0.0
1040
0.15
1070
     0
1070
     2
1040
0.7853981633974483
1040
49.29960901727088
1040
-10.17736998311392
1040
-0.3367596045400932
1040
0.3367596045400932
1070
     0
1040
2.356194490192345
1040
49.29960901727088
1040
-10.17736998311392
1040
-0.3367596045400932
1040
-0.3367596045400932
1070
     0
1040
0.0110235143455945
1071
        1
1040
39.74896370716704
1040
4.484843821435049
1040
0.0
1002
}
  0
INSERT
  5
19D8A
330
19D42
100
AcDbEntity
  8
0
100
AcDbBlockReference
  2
*X132
 10
0.0
 20
0.0
 30
0.0
1001
ACAD
1000
HATCH
1002
{
1070
    19
1000
ANSI37
1040
0.15
1040
0.0
1000
ASC_BOUNDS
1070
     1
1070
     2
1070
     4
1005
19D4E
1005
19D5D
1005
19D4F
1005
19D51
1000
ASC_SEEDPOINT
1011
1.079051535452663
1021
4.148538732891836
1031
0.0
1000
R14_HATCH_DATA
1000
19D8A
1011
1.0
1021
0.0
1031
0.0
1011
0.0
1021
1.0
1031
0.0
1011
0.0
1021
0.0
1031
1.0
1040
0.0
1010
0.0
1020
0.0
1030
1.0
1000
ANSI37
1070
     0
1070
     1
1071
        1
1071
        7
1070
     0
1070
     1
1071
        4
1040
1.420999999998571
1040
0.0
1040
1.420999999998571
1040
8.763099999991255
1040
0.0
1040
8.763099999991255
1040
0.0
1040
0.0
1071
        4
1005
19D4E
1005
19D5D
1005
19D4F
1005
19D51
1070
     0
1070
     1
1040
0.0
1040
0.15
1070
     0
1070
     2
1040
0.7853981633974483
1040
49.29960901727088
1040
-10.17736998311392
1040
-0.3367596045400932
1040
0.3367596045400932
1070
     0
1040
2.356194490192345
1040
49.29960901727088
1040
-10.17736998311392
1040
-0.3367596045400932
1040
-0.3367596045400932
1070
     0
1040
0.0053004257112761
1071
        1
1040
1.079051535452663
1040
4.148538732891836
1040
0.0
1002
}
  0
ENDBLK
  5
1A551
330
19D42
100
AcDbEntity
  8
0
100
AcDbBlockEnd
  0
BLOCK
  5
1D1D7
330
1D049
100
AcDbEntity
  8
0
100
AcDbBlockBegin
  2
*X127
 70
     1
 10
0.0
 20
0.0
 30
0.0
  3
*X127
  1

  0
LINE
  5
1D04A
330
1D049
100
AcDbEntity
  8
0
  6
CONTINUOUS
100
AcDbLine
 10
3.418023043697893
 20
7.251849696850613
 30
0.0
 11
4.929273346838536
 21
8.763099999991255
 31
0.0
  0
LINE
  5
1D04B
330
1D049
100
AcDbEntity
  8
0
  6
CONTINUOUS
100
AcDbLine
 10
1.483656411257782
 20
4.643963855330318
 30
0.0
 11
5.60279255591872
 21
8.763099999991255
 31
0.0
  0
LINE
  5
1D04C
330
1D049
100
AcDbEntity
  8
0
  6
CONTINUOUS
100
AcDbLine
 10
1.755053947328235
 20
4.241842182320584
 30
0.0
 11
6.276311764998907
 21
8.763099999991255
 31
0.0
  0
LINE
  5
1D04D
330
1D049
100
AcDbEntity
  8
0
  6
CONTINUOUS
100
AcDbLine
 10
2.026451483398688
 20
3.839720509310849
 30
0.0
 11
4.441040904851878
 21
6.254309930764039
 31
0.0
  0
LINE
  5
1D04E
330
1D049
100
AcDbEntity
  8
0
  6
CONTINUOUS
100
AcDbLine
 10
2.297849019469139
 20
3.437598836301114
 30
0.0
 11
3.321765168359338
 21
4.461514985191313
 31
0.0
  0
LINE
  5
1D04F
330
1D049
100
AcDbEntity
  8
0
  6
CONTINUOUS
100
AcDbLine
 10
2.569246555539591
 20
3.03547716329138
 30
0.0
 11
3.593163397972743
 21
4.059394005724531
 31
0.0
  0
LINE
  5
1D050
330
1D049
100
AcDbEntity
  8
0
  6
CONTINUOUS
100
AcDbLine
 10
2.840644091610043
 20
2.633355490281646
 30
0.0
 11
3.864561627586149
 21
3.657273026257751
 31
0.0
  0
LINE
  5
1D051
330
1D049
100
AcDbEntity
  8
0
  6
CONTINUOUS
100
AcDbLine
 10
3.112041627680496
 20
2.231233817271911
 30
0.0
 11
4.135959857199554
 21
3.25515204679097
 31
0.0
  0
LINE
  5
1D052
330
1D049
100
AcDbEntity
  8
0
  6
CONTINUOUS
100
AcDbLine
 10
3.383439163750948
 20
1.829112144262177
 30
0.0
 11
4.40735808681296
 21
2.853031067324189
 31
0.0
  0
LINE
  5
1D053
330
1D049
100
AcDbEntity
  8
0
  6
CONTINUOUS
100
AcDbLine
 10
3.654836699821399
 20
1.426990471252442
 30
0.0
 11
4.678756316426365
 21
2.450910087857407
 31
0.0
  0
LINE
  5
1D054
330
1D049
100
AcDbEntity
  8
0
  6
CONTINUOUS
100
AcDbLine
 10
3.926234235891853
 20
1.024868798242709
 30
0.0
 11
4.95015454603977
 21
2.048789108390626
 31
0.0
  0
LINE
  5
1D055
330
1D049
100
AcDbEntity
  8
0
  6
CONTINUOUS
100
AcDbLine
 10
4.197631771962304
 20
0.6227471252329737
 30
0.0
 11
5.221552775653176
 21
1.646668128923846
 31
0.0
  0
LINE
  5
1D056
330
1D049
100
AcDbEntity
  8
0
  6
CONTINUOUS
100
AcDbLine
 10
8.715877546767851
 20
7.835069736359266
 30
0.0
 11
9.435953450375058
 21
8.555145639966472
 31
0.0
  0
LINE
  5
1D057
330
1D049
100
AcDbEntity
  8
0
  6
CONTINUOUS
100
AcDbLine
 10
8.170620868422267
 20
6.616293848933497
 30
0.0
 11
9.644120833743461
 21
8.08979381425469
 31
0.0
  0
LINE
  5
1D058
330
1D049
100
AcDbEntity
  8
0
  6
CONTINUOUS
100
AcDbLine
 10
7.625364190076684
 20
5.397517961507727
 30
0.0
 11
9.852288217111864
 21
7.624441988542907
 31
0.0
  0
LINE
  5
1D059
330
1D049
100
AcDbEntity
  8
0
  6
CONTINUOUS
100
AcDbLine
 10
7.080107511731101
 20
4.178742074081957
 30
0.0
 11
10.06045560048027
 21
7.159090162831124
 31
0.0
  0
LINE
  5
1D05A
330
1D049
100
AcDbEntity
  8
0
  6
CONTINUOUS
100
AcDbLine
 10
6.534850833385518
 20
2.959966186656187
 30
0.0
 11
10.26862298384867
 21
6.693738337119342
 31
0.0
  0
LINE
  5
1D05B
330
1D049
100
AcDbEntity
  8
0
  6
CONTINUOUS
100
AcDbLine
 10
4.469029308032756
 20
0.2206254522232385
 30
0.0
 11
5.492951005266582
 21
1.244547149457064
 31
0.0
  0
LINE
  5
1D05C
330
1D049
100
AcDbEntity
  8
0
  6
CONTINUOUS
100
AcDbLine
 10
5.989594155039935
 20
1.741190299230417
 30
0.0
 11
8.806950407233131
 21
4.558546551423613
 31
0.0
  0
LINE
  5
1D05D
330
1D049
100
AcDbEntity
  8
0
  6
CONTINUOUS
100
AcDbLine
 10
9.401251593263643
 20
5.152847737454126
 30
0.0
 11
10.47679036721708
 21
6.228386511407559
 31
0.0
  0
LINE
  5
1D05E
330
1D049
100
AcDbEntity
  8
0
  6
CONTINUOUS
100
AcDbLine
 10
4.921837203428691
 20
-0.0000858614610131
 30
0.0
 11
8.592923064886001
 21
3.670999999996297
 31
0.0
  0
LINE
  5
1D05F
330
1D049
100
AcDbEntity
  8
0
  6
CONTINUOUS
100
AcDbLine
 10
9.609390446785305
 20
4.6874673818956
 30
0.0
 11
10.68495775058548
 21
5.763034685695775
 31
0.0
  0
LINE
  5
1D060
330
1D049
100
AcDbEntity
  8
0
  6
CONTINUOUS
100
AcDbLine
 10
5.595387755019432
 20
-0.0000545189504582
 30
0.0
 11
7.716137258923768
 21
2.120694984953879
 31
0.0
  0
LINE
  5
1D061
330
1D049
100
AcDbEntity
  8
0
  6
CONTINUOUS
100
AcDbLine
 10
6.268938306610172
 20
-0.000023176439905
 30
0.0
 11
7.170485805526503
 21
0.9015243224764267
 31
0.0
  0
LINE
  5
1D062
330
1D049
100
AcDbEntity
  8
0
  6
CONTINUOUS
100
AcDbLine
 10
7.963842273967511
 20
2.368399999997621
 30
0.0
 11
9.266442273966188
 21
3.670999999996297
 31
0.0
  0
LINE
  5
1D063
330
1D049
100
AcDbEntity
  8
0
  6
CONTINUOUS
100
AcDbLine
 10
8.637361483047696
 20
2.368399999997621
 30
0.0
 11
9.939961483046375
 21
3.670999999996297
 31
0.0
  0
LINE
  5
1D064
330
1D049
100
AcDbEntity
  8
0
  6
CONTINUOUS
100
AcDbLine
 10
9.817529300306965
 20
4.222087026337075
 30
0.0
 11
10.89312513395388
 21
5.297682859983993
 31
0.0
  0
LINE
  5
1D065
330
1D049
100
AcDbEntity
  8
0
  6
CONTINUOUS
100
AcDbLine
 10
10.02566815382863
 20
3.756706670778549
 30
0.0
 11
11.10129251732229
 21
4.832331034272211
 31
0.0
  0
LINE
  5
1D066
330
1D049
100
AcDbEntity
  8
0
  6
CONTINUOUS
100
AcDbLine
 10
9.310880692127883
 20
2.368399999997621
 30
0.0
 11
11.30945990069069
 21
4.366979208560428
 31
0.0
  0
LINE
  5
1D067
330
1D049
100
AcDbEntity
  8
0
  6
CONTINUOUS
100
AcDbLine
 10
9.98439990120807
 20
2.36839999999762
 30
0.0
 11
11.5176272840591
 21
3.901627382848645
 31
0.0
  0
LINE
  5
1D068
330
1D049
100
AcDbEntity
  8
0
  6
CONTINUOUS
100
AcDbLine
 10
10.65037369446246
 20
2.36085458417182
 30
0.0
 11
11.7257946674275
 21
3.436275557136862
 31
0.0
  0
LINE
  5
1D069
330
1D049
100
AcDbEntity
  8
0
  6
CONTINUOUS
100
AcDbLine
 10
10.85847197087848
 20
1.895433651507656
 30
0.0
 11
11.9339620507959
 21
2.97092373142508
 31
0.0
  0
LINE
  5
1D06A
330
1D049
100
AcDbEntity
  8
0
  6
CONTINUOUS
100
AcDbLine
 10
11.0665702472945
 20
1.430012718843491
 30
0.0
 11
12.14212943416431
 21
2.505571905713296
 31
0.0
  0
LINE
  5
1D06B
330
1D049
100
AcDbEntity
  8
0
  6
CONTINUOUS
100
AcDbLine
 10
11.27466852371052
 20
0.9645917861793256
 30
0.0
 11
12.35029681753271
 21
2.040220080001513
 31
0.0
  0
LINE
  5
1D06C
330
1D049
100
AcDbEntity
  8
0
  6
CONTINUOUS
100
AcDbLine
 10
11.48276680012654
 20
0.4991708535151611
 30
0.0
 11
12.55846420090111
 21
1.57486825428973
 31
0.0
  0
LINE
  5
1D06D
330
1D049
100
AcDbEntity
  8
0
  6
CONTINUOUS
100
AcDbLine
 10
11.69086507654257
 20
0.0337499208509957
 30
0.0
 11
12.76663158426952
 21
1.109516428577947
 31
0.0
  0
LINE
  5
1D06E
330
1D049
100
AcDbEntity
  8
0
  6
CONTINUOUS
100
AcDbLine
 10
12.33057447873954
 20
-0.0000598860322123
 30
0.0
 11
12.97479896763792
 21
0.6441646028661663
 31
0.0
  0
LINE
  5
1D06F
330
1D049
100
AcDbEntity
  8
0
  6
CONTINUOUS
100
AcDbLine
 10
13.00413694809395
 20
-0.0000166257579952
 30
0.0
 11
13.18296635100632
 21
0.1788127771543824
 31
0.0
  0
LINE
  5
1D070
330
1D049
100
AcDbEntity
  8
0
  6
CONTINUOUS
100
AcDbLine
 10
4.772852165289667
 20
-0.000092794222212
 30
0.0
 11
4.296495091028902
 21
0.4762642800385528
 31
0.0
  0
LINE
  5
1D071
330
1D049
100
AcDbEntity
  8
0
  6
CONTINUOUS
100
AcDbLine
 10
5.446340034776103
 20
-0.0000614546284616
 30
0.0
 11
2.898195908335625
 21
2.548082671812017
 31
0.0
  0
LINE
  5
1D072
330
1D049
100
AcDbEntity
  8
0
  6
CONTINUOUS
100
AcDbLine
 10
6.119827904262539
 20
-0.0000301150347113
 30
0.0
 11
1.499896725642348
 21
4.61990106358548
 31
0.0
  0
LINE
  5
1D073
330
1D049
100
AcDbEntity
  8
0
  6
CONTINUOUS
100
AcDbLine
 10
6.775136745476159
 20
0.0181802528318542
 30
0.0
 11
5.699826040202669
 21
1.093490958105344
 31
0.0
  0
LINE
  5
1D074
330
1D049
100
AcDbEntity
  8
0
  6
CONTINUOUS
100
AcDbLine
 10
6.983376846288489
 20
0.4834593610997118
 30
0.0
 11
5.908008617934405
 21
1.558827589453796
 31
0.0
  0
LINE
  5
1D075
330
1D049
100
AcDbEntity
  8
0
  6
CONTINUOUS
100
AcDbLine
 10
5.377063484962296
 20
1.416253513345719
 30
0.0
 11
1.702276957014131
 21
5.091040041293883
 31
0.0
  0
LINE
  5
1D076
330
1D049
100
AcDbEntity
  8
0
  6
CONTINUOUS
100
AcDbLine
 10
3.978745891735324
 20
3.488090315652877
 30
0.0
 11
2.000373521109399
 21
5.466462686278803
 31
0.0
  0
LINE
  5
1D077
330
1D049
100
AcDbEntity
  8
0
  6
CONTINUOUS
100
AcDbLine
 10
7.191616947100819
 20
0.948738469367568
 30
0.0
 11
6.11619119566614
 21
2.024164220802247
 31
0.0
  0
LINE
  5
1D078
330
1D049
100
AcDbEntity
  8
0
  6
CONTINUOUS
100
AcDbLine
 10
7.399857047913149
 20
1.414017577635424
 30
0.0
 11
6.324373773397875
 21
2.489500852150698
 31
0.0
  0
LINE
  5
1D079
330
1D049
100
AcDbEntity
  8
0
  6
CONTINUOUS
100
AcDbLine
 10
7.608097148725479
 20
1.879296685903281
 30
0.0
 11
6.53255635112961
 21
2.95483748349915
 31
0.0
  0
LINE
  5
1D07A
330
1D049
100
AcDbEntity
  8
0
  6
CONTINUOUS
100
AcDbLine
 10
7.816337249537808
 20
2.344575794171138
 30
0.0
 11
6.740738928861345
 21
3.420174114847601
 31
0.0
  0
LINE
  5
1D07B
330
1D049
100
AcDbEntity
  8
0
  6
CONTINUOUS
100
AcDbLine
 10
3.310241080789734
 20
4.830114335678653
 30
0.0
 11
2.298470085204666
 21
5.84188533126372
 31
0.0
  0
LINE
  5
1D07C
330
1D049
100
AcDbEntity
  8
0
  6
CONTINUOUS
100
AcDbLine
 10
3.60832983563551
 20
5.205544789913063
 30
0.0
 11
2.596566649299935
 21
6.217307976248638
 31
0.0
  0
LINE
  5
1D07D
330
1D049
100
AcDbEntity
  8
0
  6
CONTINUOUS
100
AcDbLine
 10
3.906418590481286
 20
5.580975244147473
 30
0.0
 11
2.894663213395203
 21
6.592730621233557
 31
0.0
  0
LINE
  5
1D07E
330
1D049
100
AcDbEntity
  8
0
  6
CONTINUOUS
100
AcDbLine
 10
4.204507345327062
 20
5.956405698381884
 30
0.0
 11
3.192759777490472
 21
6.968153266218474
 31
0.0
  0
LINE
  5
1D07F
330
1D049
100
AcDbEntity
  8
0
  6
CONTINUOUS
100
AcDbLine
 10
8.466032252791512
 20
2.368399999997621
 30
0.0
 11
6.948921506593081
 21
3.885510746196053
 31
0.0
  0
LINE
  5
1D080
330
1D049
100
AcDbEntity
  8
0
  6
CONTINUOUS
100
AcDbLine
 10
9.139551461871699
 20
2.36839999999762
 30
0.0
 11
7.157104084324816
 21
4.350847377544504
 31
0.0
  0
LINE
  5
1D081
330
1D049
100
AcDbEntity
  8
0
  6
CONTINUOUS
100
AcDbLine
 10
4.502596100172839
 20
6.331836152616295
 30
0.0
 11
3.49085634158574
 21
7.343575911203393
 31
0.0
  0
LINE
  5
1D082
330
1D049
100
AcDbEntity
  8
0
  6
CONTINUOUS
100
AcDbLine
 10
4.800684855018615
 20
6.707266606850705
 30
0.0
 11
3.788952905681008
 21
7.718998556188312
 31
0.0
  0
LINE
  5
1D083
330
1D049
100
AcDbEntity
  8
0
  6
CONTINUOUS
100
AcDbLine
 10
12.18154012887317
 20
-0.0000694579236642
 30
0.0
 11
11.32140332908496
 21
0.8600673418645499
 31
0.0
  0
LINE
  5
1D084
330
1D049
100
AcDbEntity
  8
0
  6
CONTINUOUS
100
AcDbLine
 10
12.85501608323566
 20
-0.0000262032059659
 30
0.0
 11
10.77672456435345
 21
2.078265315676246
 31
0.0
  0
LINE
  5
1D085
330
1D049
100
AcDbEntity
  8
0
  6
CONTINUOUS
100
AcDbLine
 10
9.813070670951886
 20
2.36839999999762
 30
0.0
 11
8.51047067095321
 21
3.670999999996297
 31
0.0
  0
LINE
  5
1D086
330
1D049
100
AcDbEntity
  8
0
  6
CONTINUOUS
100
AcDbLine
 10
10.48658988003207
 20
2.36839999999762
 30
0.0
 11
9.183989880033396
 21
3.670999999996297
 31
0.0
  0
LINE
  5
1D087
330
1D049
100
AcDbEntity
  8
0
  6
CONTINUOUS
100
AcDbLine
 10
8.441048632286794
 20
3.740422038662712
 30
0.0
 11
7.365286662056551
 21
4.816184008892956
 31
0.0
  0
LINE
  5
1D088
330
1D049
100
AcDbEntity
  8
0
  6
CONTINUOUS
100
AcDbLine
 10
8.649187485808454
 20
4.205802394221237
 30
0.0
 11
7.573469239788285
 21
5.281520640241407
 31
0.0
  0
LINE
  5
1D089
330
1D049
100
AcDbEntity
  8
0
  6
CONTINUOUS
100
AcDbLine
 10
5.098773609864391
 20
7.082697061085115
 30
0.0
 11
4.087049469776277
 21
8.09442120117323
 31
0.0
  0
LINE
  5
1D08A
330
1D049
100
AcDbEntity
  8
0
  6
CONTINUOUS
100
AcDbLine
 10
5.396862364710167
 20
7.458127515319526
 30
0.0
 11
4.385146033871544
 21
8.469843846158149
 31
0.0
  0
LINE
  5
1D08B
330
1D049
100
AcDbEntity
  8
0
  6
CONTINUOUS
100
AcDbLine
 10
13.04801363231285
 20
0.4804954567970334
 30
0.0
 11
9.85750908911358
 21
3.670999999996297
 31
0.0
  0
LINE
  5
1D08C
330
1D049
100
AcDbEntity
  8
0
  6
CONTINUOUS
100
AcDbLine
 10
8.857326339330116
 20
4.671182749779763
 30
0.0
 11
7.781651817520021
 21
5.746857271589858
 31
0.0
  0
LINE
  5
1D08D
330
1D049
100
AcDbEntity
  8
0
  6
CONTINUOUS
100
AcDbLine
 10
5.694951119555943
 20
7.833557969553937
 30
0.0
 11
4.765409089118624
 21
8.763099999991255
 31
0.0
  0
LINE
  5
1D08E
330
1D049
100
AcDbEntity
  8
0
  6
CONTINUOUS
100
AcDbLine
 10
12.50286117236978
 20
1.699167125820288
 30
0.0
 11
9.68611877250287
 21
4.515909525687196
 31
0.0
  0
LINE
  5
1D08F
330
1D049
100
AcDbEntity
  8
0
  6
CONTINUOUS
100
AcDbLine
 10
9.065465192851777
 20
5.136563105338288
 30
0.0
 11
7.989834395251757
 21
6.21219390293831
 31
0.0
  0
LINE
  5
1D090
330
1D049
100
AcDbEntity
  8
0
  6
CONTINUOUS
100
AcDbLine
 10
5.993039874401719
 20
8.208988423788346
 30
0.0
 11
5.43892829819881
 21
8.763099999991255
 31
0.0
  0
LINE
  5
1D091
330
1D049
100
AcDbEntity
  8
0
  6
CONTINUOUS
100
AcDbLine
 10
11.95770871242671
 20
2.917838794843543
 30
0.0
 11
8.19801697298349
 21
6.677530534286761
 31
0.0
  0
LINE
  5
1D092
330
1D049
100
AcDbEntity
  8
0
  6
CONTINUOUS
100
AcDbLine
 10
6.291128629247495
 20
8.584418878022756
 30
0.0
 11
6.112447507278997
 21
8.763099999991255
 31
0.0
  0
LINE
  5
1D093
330
1D049
100
AcDbEntity
  8
0
  6
CONTINUOUS
100
AcDbLine
 10
11.41255625248364
 20
4.136510463866797
 30
0.0
 11
8.406199550715227
 21
7.142867165635211
 31
0.0
  0
LINE
  5
1D094
330
1D049
100
AcDbEntity
  8
0
  6
CONTINUOUS
100
AcDbLine
 10
10.86740379254057
 20
5.355182132890051
 30
0.0
 11
8.614382128446962
 21
7.608203796983664
 31
0.0
  0
LINE
  5
1D095
330
1D049
100
AcDbEntity
  8
0
  6
CONTINUOUS
100
AcDbLine
 10
10.3222513325975
 20
6.573853801913305
 30
0.0
 11
8.822564706178696
 21
8.073540428332114
 31
0.0
  0
LINE
  5
1D096
330
1D049
100
AcDbEntity
  8
0
  6
CONTINUOUS
100
AcDbLine
 10
9.777098872654436
 20
7.792525470936562
 30
0.0
 11
9.030747283910433
 21
8.538877059680566
 31
0.0
  0
ENDBLK
  5
1D1D8
330
1D049
100
AcDbEntity
  8
0
100
AcDbBlockEnd
  0
BLOCK
  5
1D1D9
330
1D097
100
AcDbEntity
  8
0
100
AcDbBlockBegin
  2
*X128
 70
     1
 10
0.0
 20
0.0
 30
0.0
  3
*X128
  1

  0
LINE
  5
1D098
330
1D097
100
AcDbEntity
  8
0
  6
CONTINUOUS
100
AcDbLine
 10
10.67292308101235
 20
8.445076852443387
 30
0.0
 11
10.99094622856022
 21
8.763099999991255
 31
0.0
  0
LINE
  5
1D099
330
1D097
100
AcDbEntity
  8
0
  6
CONTINUOUS
100
AcDbLine
 10
10.87250383178748
 20
7.971138394138331
 30
0.0
 11
11.6644654376404
 21
8.763099999991255
 31
0.0
  0
LINE
  5
1D09A
330
1D097
100
AcDbEntity
  8
0
  6
CONTINUOUS
100
AcDbLine
 10
11.07208458256261
 20
7.497199935833273
 30
0.0
 11
12.12126590876355
 21
8.546381262034211
 31
0.0
  0
LINE
  5
1D09B
330
1D097
100
AcDbEntity
  8
0
  6
CONTINUOUS
100
AcDbLine
 10
11.27166533333774
 20
7.023261477528216
 30
0.0
 11
12.32085164573666
 21
8.072447789927136
 31
0.0
  0
LINE
  5
1D09C
330
1D097
100
AcDbEntity
  8
0
  6
CONTINUOUS
100
AcDbLine
 10
11.47124608411287
 20
6.549323019223158
 30
0.0
 11
12.52043738270977
 21
7.59851431782006
 31
0.0
  0
LINE
  5
1D09D
330
1D097
100
AcDbEntity
  8
0
  6
CONTINUOUS
100
AcDbLine
 10
11.670826834888
 20
6.075384560918101
 30
0.0
 11
12.72002311968288
 21
7.124580845712984
 31
0.0
  0
LINE
  5
1D09E
330
1D097
100
AcDbEntity
  8
0
  6
CONTINUOUS
100
AcDbLine
 10
11.87040758566313
 20
5.601446102613043
 30
0.0
 11
12.91960885665599
 21
6.650647373605907
 31
0.0
  0
LINE
  5
1D09F
330
1D097
100
AcDbEntity
  8
0
  6
CONTINUOUS
100
AcDbLine
 10
12.06998833643825
 20
5.127507644307986
 30
0.0
 11
13.1191945936291
 21
6.176713901498832
 31
0.0
  0
LINE
  5
1D0A0
330
1D097
100
AcDbEntity
  8
0
  6
CONTINUOUS
100
AcDbLine
 10
12.26956908721338
 20
4.65356918600293
 30
0.0
 11
13.31878033060221
 21
5.702780429391757
 31
0.0
  0
LINE
  5
1D0A1
330
1D097
100
AcDbEntity
  8
0
  6
CONTINUOUS
100
AcDbLine
 10
12.46914983798851
 20
4.179630727697873
 30
0.0
 11
13.51836606757532
 21
5.228846957284683
 31
0.0
  0
LINE
  5
1D0A2
330
1D097
100
AcDbEntity
  8
0
  6
CONTINUOUS
100
AcDbLine
 10
12.66873058876364
 20
3.705692269392816
 30
0.0
 11
13.71795180454843
 21
4.754913485177607
 31
0.0
  0
LINE
  5
1D0A3
330
1D097
100
AcDbEntity
  8
0
  6
CONTINUOUS
100
AcDbLine
 10
12.86831133953877
 20
3.231753811087759
 30
0.0
 11
13.91753754152154
 21
4.280980013070531
 31
0.0
  0
LINE
  5
1D0A4
330
1D097
100
AcDbEntity
  8
0
  6
CONTINUOUS
100
AcDbLine
 10
13.0678920903139
 20
2.757815352782702
 30
0.0
 11
14.11712327849465
 21
3.807046540963456
 31
0.0
  0
LINE
  5
1D0A5
330
1D097
100
AcDbEntity
  8
0
  6
CONTINUOUS
100
AcDbLine
 10
13.26747284108903
 20
2.283876894477644
 30
0.0
 11
14.31670901546777
 21
3.333113068856379
 31
0.0
  0
LINE
  5
1D0A6
330
1D097
100
AcDbEntity
  8
0
  6
CONTINUOUS
100
AcDbLine
 10
16.36767838827179
 20
8.751678487061342
 30
0.0
 11
16.50332410898388
 21
8.887324207773432
 31
0.0
  0
LINE
  5
1D0A7
330
1D097
100
AcDbEntity
  8
0
  6
CONTINUOUS
100
AcDbLine
 10
15.96190732182191
 20
7.67238821153127
 30
0.0
 11
16.68735328004734
 21
8.397834169756699
 31
0.0
  0
LINE
  5
1D0A8
330
1D097
100
AcDbEntity
  8
0
  6
CONTINUOUS
100
AcDbLine
 10
15.55613625537202
 20
6.593097936001196
 30
0.0
 11
16.87138245111079
 21
7.908344131739965
 31
0.0
  0
LINE
  5
1D0A9
330
1D097
100
AcDbEntity
  8
0
  6
CONTINUOUS
100
AcDbLine
 10
15.15036518892213
 20
5.513807660471122
 30
0.0
 11
17.05541162217424
 21
7.418854093723231
 31
0.0
  0
LINE
  5
1D0AA
330
1D097
100
AcDbEntity
  8
0
  6
CONTINUOUS
100
AcDbLine
 10
14.74459412247225
 20
4.434517384941048
 30
0.0
 11
17.2394407932377
 21
6.929364055706499
 31
0.0
  0
LINE
  5
1D0AB
330
1D097
100
AcDbEntity
  8
0
  6
CONTINUOUS
100
AcDbLine
 10
14.33882305602236
 20
3.355227109410975
 30
0.0
 11
17.42346996430115
 21
6.439874017689766
 31
0.0
  0
LINE
  5
1D0AC
330
1D097
100
AcDbEntity
  8
0
  6
CONTINUOUS
100
AcDbLine
 10
13.46705359186416
 20
1.809938436172586
 30
0.0
 11
16.0819338255367
 21
4.424818669845129
 31
0.0
  0
LINE
  5
1D0AD
330
1D097
100
AcDbEntity
  8
0
  6
CONTINUOUS
100
AcDbLine
 10
16.63283254238972
 20
4.975717386698149
 30
0.0
 11
17.60749913536461
 21
5.950383979673033
 31
0.0
  0
LINE
  5
1D0AE
330
1D097
100
AcDbEntity
  8
0
  6
CONTINUOUS
100
AcDbLine
 10
13.66663434263929
 20
1.335999977867529
 30
0.0
 11
15.67604797733754
 21
3.345413612565779
 31
0.0
  0
LINE
  5
1D0AF
330
1D097
100
AcDbEntity
  8
0
  6
CONTINUOUS
100
AcDbLine
 10
13.86621509341442
 20
0.8620615195624723
 30
0.0
 11
15.27016212913838
 21
2.26600855528643
 31
0.0
  0
LINE
  5
1D0B0
330
1D097
100
AcDbEntity
  8
0
  6
CONTINUOUS
100
AcDbLine
 10
16.81682257348267
 20
4.486188208710908
 30
0.0
 11
17.79152830642806
 21
5.460893941656299
 31
0.0
  0
LINE
  5
1D0B1
330
1D097
100
AcDbEntity
  8
0
  6
CONTINUOUS
100
AcDbLine
 10
17.00081260457561
 20
3.996659030723667
 30
0.0
 11
17.97555747749151
 21
4.971403903639565
 31
0.0
  0
LINE
  5
1D0B2
330
1D097
100
AcDbEntity
  8
0
  6
CONTINUOUS
100
AcDbLine
 10
20.74362343514722
 20
8.412989070375462
 30
0.0
 11
21.09373436476302
 21
8.763099999991256
 31
0.0
  0
LINE
  5
1D0B3
330
1D097
100
AcDbEntity
  8
0
  6
CONTINUOUS
100
AcDbLine
 10
20.25401257174777
 20
7.249858997895826
 30
0.0
 11
21.7672535738432
 21
8.763099999991255
 31
0.0
  0
LINE
  5
1D0B4
330
1D097
100
AcDbEntity
  8
0
  6
CONTINUOUS
100
AcDbLine
 10
14.06579584418955
 20
0.3881230612574149
 30
0.0
 11
14.86427628093921
 21
1.186603498007082
 31
0.0
  0
LINE
  5
1D0B5
330
1D097
100
AcDbEntity
  8
0
  6
CONTINUOUS
100
AcDbLine
 10
14.26537659496467
 20
-0.0858153970476412
 30
0.0
 11
14.45839043274005
 21
0.1071984407277329
 31
0.0
  0
LINE
  5
1D0B6
330
1D097
100
AcDbEntity
  8
0
  6
CONTINUOUS
100
AcDbLine
 10
17.18480263566856
 20
3.507129852736426
 30
0.0
 11
18.15958664855496
 21
4.481913865622833
 31
0.0
  0
LINE
  5
1D0B7
330
1D097
100
AcDbEntity
  8
0
  6
CONTINUOUS
100
AcDbLine
 10
17.3687926667615
 20
3.017600674749186
 30
0.0
 11
18.34361581961842
 21
3.9924238276061
 31
0.0
  0
LINE
  5
1D0B8
330
1D097
100
AcDbEntity
  8
0
  6
CONTINUOUS
100
AcDbLine
 10
19.76440170834832
 20
6.086728925416191
 30
0.0
 11
22.33924590259489
 21
8.661573119662755
 31
0.0
  0
LINE
  5
1D0B9
330
1D097
100
AcDbEntity
  8
0
  6
CONTINUOUS
100
AcDbLine
 10
19.27479084494887
 20
4.923598852936555
 30
0.0
 11
21.84929622842713
 21
7.498104236414807
 31
0.0
  0
LINE
  5
1D0BA
330
1D097
100
AcDbEntity
  8
0
  6
CONTINUOUS
100
AcDbLine
 10
17.55278269785445
 20
2.528071496761945
 30
0.0
 11
18.52764499068187
 21
3.502933789589366
 31
0.0
  0
LINE
  5
1D0BB
330
1D097
100
AcDbEntity
  8
0
  6
CONTINUOUS
100
AcDbLine
 10
18.78517998154942
 20
3.760468780456919
 30
0.0
 11
21.35934655425936
 21
6.33463535316686
 31
0.0
  0
LINE
  5
1D0BC
330
1D097
100
AcDbEntity
  8
0
  6
CONTINUOUS
100
AcDbLine
 10
17.73677272894739
 20
2.038542318774704
 30
0.0
 11
20.8693968800916
 21
5.171166469918914
 31
0.0
  0
LINE
  5
1D0BD
330
1D097
100
AcDbEntity
  8
0
  6
CONTINUOUS
100
AcDbLine
 10
17.92076276004034
 20
1.549013140787464
 30
0.0
 11
20.37944720592384
 21
4.007697586670968
 31
0.0
  0
LINE
  5
1D0BE
330
1D097
100
AcDbEntity
  8
0
  6
CONTINUOUS
100
AcDbLine
 10
18.10475279113329
 20
1.059483962800223
 30
0.0
 11
19.88949753175608
 21
2.84422870342302
 31
0.0
  0
LINE
  5
1D0BF
330
1D097
100
AcDbEntity
  8
0
  6
CONTINUOUS
100
AcDbLine
 10
18.28874282222623
 20
0.5699547848129822
 30
0.0
 11
19.39954785758832
 21
1.680759820175074
 31
0.0
  0
LINE
  5
1D0C0
330
1D097
100
AcDbEntity
  8
0
  6
CONTINUOUS
100
AcDbLine
 10
18.47273285331918
 20
0.0804256068257416
 30
0.0
 11
18.90959818342056
 21
0.517290936927127
 31
0.0
  0
LINE
  5
1D0C1
330
1D097
100
AcDbEntity
  8
0
  6
CONTINUOUS
100
AcDbLine
 10
14.3590401358224
 20
-0.1570118376323384
 30
0.0
 11
14.24903296539946
 21
-0.0470046672093929
 31
0.0
  0
LINE
  5
1D0C2
330
1D097
100
AcDbEntity
  8
0
  6
CONTINUOUS
100
AcDbLine
 10
14.54309291258661
 20
0.332454594683643
 30
0.0
 11
13.75908329123172
 21
1.116464216038529
 31
0.0
  0
LINE
  5
1D0C3
330
1D097
100
AcDbEntity
  8
0
  6
CONTINUOUS
100
AcDbLine
 10
14.72714568935081
 20
0.8219210269996244
 30
0.0
 11
13.26913361706399
 21
2.27993309928645
 31
0.0
  0
LINE
  5
1D0C4
330
1D097
100
AcDbEntity
  8
0
  6
CONTINUOUS
100
AcDbLine
 10
14.91119846611502
 20
1.311387459315606
 30
0.0
 11
12.77918394289625
 21
3.443401982534371
 31
0.0
  0
LINE
  5
1D0C5
330
1D097
100
AcDbEntity
  8
0
  6
CONTINUOUS
100
AcDbLine
 10
15.09525124287922
 20
1.800853891631587
 30
0.0
 11
12.28923426872852
 21
4.606870865782293
 31
0.0
  0
LINE
  5
1D0C6
330
1D097
100
AcDbEntity
  8
0
  6
CONTINUOUS
100
AcDbLine
 10
15.27930401964343
 20
2.290320323947569
 30
0.0
 11
11.79928459456078
 21
5.770339749030213
 31
0.0
  0
LINE
  5
1D0C7
330
1D097
100
AcDbEntity
  8
0
  6
CONTINUOUS
100
AcDbLine
 10
15.46335679640763
 20
2.77978675626355
 30
0.0
 11
14.48885470994921
 21
3.754288842721972
 31
0.0
  0
LINE
  5
1D0C8
330
1D097
100
AcDbEntity
  8
0
  6
CONTINUOUS
100
AcDbLine
 10
13.88507249233704
 20
4.358071060334137
 30
0.0
 11
11.30933492039305
 21
6.933808632278135
 31
0.0
  0
LINE
  5
1D0C9
330
1D097
100
AcDbEntity
  8
0
  6
CONTINUOUS
100
AcDbLine
 10
18.75840522805855
 20
0.1582575336928151
 30
0.0
 11
18.25383727664818
 21
0.6628254851031863
 31
0.0
  0
LINE
  5
1D0CA
330
1D097
100
AcDbEntity
  8
0
  6
CONTINUOUS
100
AcDbLine
 10
15.64740957317184
 20
3.269253188579531
 30
0.0
 11
14.67288388101266
 21
4.243778880738705
 31
0.0
  0
LINE
  5
1D0CB
330
1D097
100
AcDbEntity
  8
0
  6
CONTINUOUS
100
AcDbLine
 10
13.39509276772158
 20
5.521569994029786
 30
0.0
 11
10.81938524622531
 21
8.097277515526056
 31
0.0
  0
LINE
  5
1D0CC
330
1D097
100
AcDbEntity
  8
0
  6
CONTINUOUS
100
AcDbLine
 10
18.95798597883369
 20
0.6321959919978686
 30
0.0
 11
17.84825644852853
 21
1.741925522303024
 31
0.0
  0
LINE
  5
1D0CD
330
1D097
100
AcDbEntity
  8
0
  6
CONTINUOUS
100
AcDbLine
 10
19.15756672960882
 20
1.106134450302922
 30
0.0
 11
17.44267562040888
 21
2.821025559502861
 31
0.0
  0
LINE
  5
1D0CE
330
1D097
100
AcDbEntity
  8
0
  6
CONTINUOUS
100
AcDbLine
 10
15.83146234993604
 20
3.758719620895513
 30
0.0
 11
14.85691305207612
 21
4.733268918755439
 31
0.0
  0
LINE
  5
1D0CF
330
1D097
100
AcDbEntity
  8
0
  6
CONTINUOUS
100
AcDbLine
 10
16.01551512670025
 20
4.248186053211494
 30
0.0
 11
15.04094222313957
 21
5.222758956772172
 31
0.0
  0
LINE
  5
1D0D0
330
1D097
100
AcDbEntity
  8
0
  6
CONTINUOUS
100
AcDbLine
 10
12.90511304310612
 20
6.685068927725435
 30
0.0
 11
10.8270819708403
 21
8.763099999991255
 31
0.0
  0
LINE
  5
1D0D1
330
1D097
100
AcDbEntity
  8
0
  6
CONTINUOUS
100
AcDbLine
 10
12.41513331849066
 20
7.848567861421083
 30
0.0
 11
11.50060117992049
 21
8.763099999991255
 31
0.0
  0
LINE
  5
1D0D2
330
1D097
100
AcDbEntity
  8
0
  6
CONTINUOUS
100
AcDbLine
 10
19.35714748038395
 20
1.580072908607975
 30
0.0
 11
17.03709479228923
 21
3.900125596702697
 31
0.0
  0
LINE
  5
1D0D3
330
1D097
100
AcDbEntity
  8
0
  6
CONTINUOUS
100
AcDbLine
 10
19.55672823115909
 20
2.054011366913028
 30
0.0
 11
16.63151396416958
 21
4.979225633902534
 31
0.0
  0
LINE
  5
1D0D4
330
1D097
100
AcDbEntity
  8
0
  6
CONTINUOUS
100
AcDbLine
 10
16.19956790346445
 20
4.737652485527476
 30
0.0
 11
15.22497139420302
 21
5.712248994788904
 31
0.0
  0
LINE
  5
1D0D5
330
1D097
100
AcDbEntity
  8
0
  6
CONTINUOUS
100
AcDbLine
 10
16.38362068022866
 20
5.227118917843457
 30
0.0
 11
15.40900056526648
 21
6.201739032805637
 31
0.0
  0
LINE
  5
1D0D6
330
1D097
100
AcDbEntity
  8
0
  6
CONTINUOUS
100
AcDbLine
 10
19.75630898193422
 20
2.527949825218081
 30
0.0
 11
18.70774536448286
 21
3.576513442669441
 31
0.0
  0
LINE
  5
1D0D7
330
1D097
100
AcDbEntity
  8
0
  6
CONTINUOUS
100
AcDbLine
 10
19.95588973270936
 20
3.001888283523134
 30
0.0
 11
18.90726987211446
 21
4.050508144118028
 31
0.0
  0
LINE
  5
1D0D8
330
1D097
100
AcDbEntity
  8
0
  6
CONTINUOUS
100
AcDbLine
 10
20.15547048348449
 20
3.475826741828186
 30
0.0
 11
19.10679437974606
 21
4.524502845566614
 31
0.0
  0
LINE
  5
1D0D9
330
1D097
100
AcDbEntity
  8
0
  6
CONTINUOUS
100
AcDbLine
 10
20.35505123425962
 20
3.94976520013324
 30
0.0
 11
19.30631888737766
 21
4.998497547015201
 31
0.0
  0
LINE
  5
1D0DA
330
1D097
100
AcDbEntity
  8
0
  6
CONTINUOUS
100
AcDbLine
 10
20.55463198503475
 20
4.423703658438292
 30
0.0
 11
19.50584339500926
 21
5.472492248463787
 31
0.0
  0
LINE
  5
1D0DB
330
1D097
100
AcDbEntity
  8
0
  6
CONTINUOUS
100
AcDbLine
 10
18.37481191085755
 20
3.909446896294752
 30
0.0
 11
15.59302973632993
 21
6.691229070822371
 31
0.0
  0
LINE
  5
1D0DC
330
1D097
100
AcDbEntity
  8
0
  6
CONTINUOUS
100
AcDbLine
 10
17.96904084440766
 20
4.988737171824825
 30
0.0
 11
15.77705890739338
 21
7.180719108839104
 31
0.0
  0
LINE
  5
1D0DD
330
1D097
100
AcDbEntity
  8
0
  6
CONTINUOUS
100
AcDbLine
 10
17.56326977795777
 20
6.068027447354899
 30
0.0
 11
15.96108807845684
 21
7.670209146855838
 31
0.0
  0
LINE
  5
1D0DE
330
1D097
100
AcDbEntity
  8
0
  6
CONTINUOUS
100
AcDbLine
 10
17.15749871150789
 20
7.147317722884972
 30
0.0
 11
16.14511724952029
 21
8.15969918487257
 31
0.0
  0
LINE
  5
1D0DF
330
1D097
100
AcDbEntity
  8
0
  6
CONTINUOUS
100
AcDbLine
 10
16.751727645058
 20
8.226607998415046
 30
0.0
 11
16.32914642058374
 21
8.649189222889303
 31
0.0
  0
LINE
  5
1D0E0
330
1D097
100
AcDbEntity
  8
0
  6
CONTINUOUS
100
AcDbLine
 10
20.75421273580989
 20
4.897642116743345
 30
0.0
 11
19.70536790264086
 21
5.946486949912374
 31
0.0
  0
LINE
  5
1D0E1
330
1D097
100
AcDbEntity
  8
0
  6
CONTINUOUS
100
AcDbLine
 10
20.95379348658502
 20
5.371580575048398
 30
0.0
 11
19.90489241027246
 21
6.42048165136096
 31
0.0
  0
LINE
  5
1D0E2
330
1D097
100
AcDbEntity
  8
0
  6
CONTINUOUS
100
AcDbLine
 10
21.15337423736015
 20
5.845519033353452
 30
0.0
 11
20.10441691790406
 21
6.894476352809547
 31
0.0
  0
LINE
  5
1D0E3
330
1D097
100
AcDbEntity
  8
0
  6
CONTINUOUS
100
AcDbLine
 10
21.35295498813529
 20
6.319457491658505
 30
0.0
 11
20.30394142553566
 21
7.368471054258134
 31
0.0
  0
LINE
  5
1D0E4
330
1D097
100
AcDbEntity
  8
0
  6
CONTINUOUS
100
AcDbLine
 10
21.55253573891042
 20
6.793395949963558
 30
0.0
 11
20.50346593316726
 21
7.842465755706721
 31
0.0
  0
LINE
  5
1D0E5
330
1D097
100
AcDbEntity
  8
0
  6
CONTINUOUS
100
AcDbLine
 10
21.75211648968556
 20
7.267334408268612
 30
0.0
 11
20.70299044079886
 21
8.316460457155308
 31
0.0
  0
LINE
  5
1D0E6
330
1D097
100
AcDbEntity
  8
0
  6
CONTINUOUS
100
AcDbLine
 10
21.95169724046069
 20
7.741272866573663
 30
0.0
 11
20.9298701070431
 21
8.763099999991256
 31
0.0
  0
LINE
  5
1D0E7
330
1D097
100
AcDbEntity
  8
0
  6
CONTINUOUS
100
AcDbLine
 10
22.15127799123582
 20
8.215211324878716
 30
0.0
 11
21.60338931612328
 21
8.763099999991256
 31
0.0
  0
LINE
  5
1D0E8
330
1D097
100
AcDbEntity
  8
0
  6
CONTINUOUS
100
AcDbLine
 10
22.35085874201096
 20
8.689149783183769
 30
0.0
 11
22.27690852520347
 21
8.763099999991255
 31
0.0
  0
ENDBLK
  5
1D1DA
330
1D097
100
AcDbEntity
  8
0
100
AcDbBlockEnd
  0
BLOCK
  5
1D1DB
330
1D0E9
100
AcDbEntity
  8
0
100
AcDbBlockBegin
  2
*X129
 70
     1
 10
0.0
 20
0.0
 30
0.0
  3
*X129
  1

  0
LINE
  5
1D0EA
330
1D0E9
100
AcDbEntity
  8
0
  6
CONTINUOUS
100
AcDbLine
 10
23.19462913593892
 20
8.169917934846424
 30
0.0
 11
23.70775465517246
 21
8.683043454079957
 31
0.0
  0
LINE
  5
1D0EB
330
1D0E9
100
AcDbEntity
  8
0
  6
CONTINUOUS
100
AcDbLine
 10
22.64923161835078
 20
6.951001208178088
 30
0.0
 11
23.9159364069932
 21
8.217705996820516
 31
0.0
  0
LINE
  5
1D0EC
330
1D0E9
100
AcDbEntity
  8
0
  6
CONTINUOUS
100
AcDbLine
 10
22.10383410076263
 20
5.732084481509751
 30
0.0
 11
24.12411815881395
 21
7.752368539561078
 31
0.0
  0
LINE
  5
1D0ED
330
1D0E9
100
AcDbEntity
  8
0
  6
CONTINUOUS
100
AcDbLine
 10
21.55843658317447
 20
4.513167754841414
 30
0.0
 11
24.3322999106347
 21
7.287031082301639
 31
0.0
  0
LINE
  5
1D0EE
330
1D0E9
100
AcDbEntity
  8
0
  6
CONTINUOUS
100
AcDbLine
 10
21.01303906558632
 20
3.294251028173077
 30
0.0
 11
24.54048166245544
 21
6.821693625042199
 31
0.0
  0
LINE
  5
1D0EF
330
1D0E9
100
AcDbEntity
  8
0
  6
CONTINUOUS
100
AcDbLine
 10
20.46764154799817
 20
2.075334301504738
 30
0.0
 11
23.28571549467848
 21
4.89340824818505
 31
0.0
  0
LINE
  5
1D0F0
330
1D0E9
100
AcDbEntity
  8
0
  6
CONTINUOUS
100
AcDbLine
 10
19.92224403041002
 20
0.8564175748364002
 30
0.0
 11
22.74075865492779
 21
3.674932199354171
 31
0.0
  0
LINE
  5
1D0F1
330
1D0E9
100
AcDbEntity
  8
0
  6
CONTINUOUS
100
AcDbLine
 10
23.67305085490148
 20
5.280743608408048
 30
0.0
 11
24.74866341427619
 21
6.356356167782759
 31
0.0
  0
LINE
  5
1D0F2
330
1D0E9
100
AcDbEntity
  8
0
  6
CONTINUOUS
100
AcDbLine
 10
23.88118970842314
 20
4.815363252849522
 30
0.0
 11
24.95684516609694
 21
5.89101871052332
 31
0.0
  0
LINE
  5
1D0F3
330
1D0E9
100
AcDbEntity
  8
0
  6
CONTINUOUS
100
AcDbLine
 10
19.73925852647308
 20
-0.0000871381807288
 30
0.0
 11
23.4103456646501
 21
3.670999999996297
 31
0.0
  0
LINE
  5
1D0F4
330
1D0E9
100
AcDbEntity
  8
0
  6
CONTINUOUS
100
AcDbLine
 10
24.0893285619448
 20
4.349982897290997
 30
0.0
 11
25.16502691791769
 21
5.42568125326388
 31
0.0
  0
LINE
  5
1D0F5
330
1D0E9
100
AcDbEntity
  8
0
  6
CONTINUOUS
100
AcDbLine
 10
20.41282099582748
 20
-0.0000438779065108
 30
0.0
 11
21.64944178675636
 21
1.236576913022366
 31
0.0
  0
LINE
  5
1D0F6
330
1D0E9
100
AcDbEntity
  8
0
  6
CONTINUOUS
100
AcDbLine
 10
22.78126487373161
 20
2.36839999999762
 30
0.0
 11
24.08386487373029
 21
3.670999999996297
 31
0.0
  0
LINE
  5
1D0F7
330
1D0E9
100
AcDbEntity
  8
0
  6
CONTINUOUS
100
AcDbLine
 10
24.29746741546646
 20
3.884602541732471
 30
0.0
 11
25.37320866973843
 21
4.960343796004441
 31
0.0
  0
LINE
  5
1D0F8
330
1D0E9
100
AcDbEntity
  8
0
  6
CONTINUOUS
100
AcDbLine
 10
21.08638346518189
 20
-0.0000006176322938
 30
0.0
 11
21.10379033335899
 21
0.0174062505448083
 31
0.0
  0
LINE
  5
1D0F9
330
1D0E9
100
AcDbEntity
  8
0
  6
CONTINUOUS
100
AcDbLine
 10
23.4547840828118
 20
2.36839999999762
 30
0.0
 11
25.58139042155918
 21
4.495006338745002
 31
0.0
  0
LINE
  5
1D0FA
330
1D0E9
100
AcDbEntity
  8
0
  6
CONTINUOUS
100
AcDbLine
 10
29.30199999996933
 20
8.215615917155148
 30
0.0
 11
29.84948408280543
 21
8.763099999991255
 31
0.0
  0
LINE
  5
1D0FB
330
1D0E9
100
AcDbEntity
  8
0
  6
CONTINUOUS
100
AcDbLine
 10
24.12830329189199
 20
2.36839999999762
 30
0.0
 11
25.78957217337993
 21
4.029668881485562
 31
0.0
  0
LINE
  5
1D0FC
330
1D0E9
100
AcDbEntity
  8
0
  6
CONTINUOUS
100
AcDbLine
 10
29.30199999996933
 20
7.54209670807496
 30
0.0
 11
30.52300329188562
 21
8.763099999991255
 31
0.0
  0
LINE
  5
1D0FD
330
1D0E9
100
AcDbEntity
  8
0
  6
CONTINUOUS
100
AcDbLine
 10
24.80182250097217
 20
2.36839999999762
 30
0.0
 11
25.99775392520067
 21
3.564331424226122
 31
0.0
  0
LINE
  5
1D0FE
330
1D0E9
100
AcDbEntity
  8
0
  6
CONTINUOUS
100
AcDbLine
 10
29.30199999996933
 20
6.868577498994774
 30
0.0
 11
30.74199999996926
 21
8.308577498994712
 31
0.0
  0
LINE
  5
1D0FF
330
1D0E9
100
AcDbEntity
  8
0
  6
CONTINUOUS
100
AcDbLine
 10
25.13028238392013
 20
2.023340673865392
 30
0.0
 11
26.20593567702142
 21
3.098993966966683
 31
0.0
  0
LINE
  5
1D100
330
1D0E9
100
AcDbEntity
  8
0
  6
CONTINUOUS
100
AcDbLine
 10
25.33838066033617
 20
1.557919741201244
 30
0.0
 11
26.41411742884217
 21
2.633656509707244
 31
0.0
  0
LINE
  5
1D101
330
1D0E9
100
AcDbEntity
  8
0
  6
CONTINUOUS
100
AcDbLine
 10
25.54647893675221
 20
1.092498808537098
 30
0.0
 11
26.62229918066291
 21
2.168319052447804
 31
0.0
  0
LINE
  5
1D102
330
1D0E9
100
AcDbEntity
  8
0
  6
CONTINUOUS
100
AcDbLine
 10
25.75457721316825
 20
0.62707787587295
 30
0.0
 11
26.83048093248366
 21
1.702981595188365
 31
0.0
  0
LINE
  5
1D103
330
1D0E9
100
AcDbEntity
  8
0
  6
CONTINUOUS
100
AcDbLine
 10
29.30199999996933
 20
6.195058289914587
 30
0.0
 11
30.74199999996926
 21
7.635058289914522
 31
0.0
  0
LINE
  5
1D104
330
1D0E9
100
AcDbEntity
  8
0
  6
CONTINUOUS
100
AcDbLine
 10
29.30199999996933
 20
5.521539080834401
 30
0.0
 11
30.74199999996926
 21
6.961539080834331
 31
0.0
  0
LINE
  5
1D105
330
1D0E9
100
AcDbEntity
  8
0
  6
CONTINUOUS
100
AcDbLine
 10
29.30199999996933
 20
4.848019871754214
 30
0.0
 11
30.74199999996925
 21
6.288019871754143
 31
0.0
  0
LINE
  5
1D106
330
1D0E9
100
AcDbEntity
  8
0
  6
CONTINUOUS
100
AcDbLine
 10
29.30199999996933
 20
4.174500662674028
 30
0.0
 11
30.74199999996925
 21
5.614500662673953
 31
0.0
  0
LINE
  5
1D107
330
1D0E9
100
AcDbEntity
  8
0
  6
CONTINUOUS
100
AcDbLine
 10
25.96267548958429
 20
0.1616569432088024
 30
0.0
 11
27.18411854636669
 21
1.383099999991207
 31
0.0
  0
LINE
  5
1D108
330
1D0E9
100
AcDbEntity
  8
0
  6
CONTINUOUS
100
AcDbLine
 10
29.30199999996933
 20
3.500981453593841
 30
0.0
 11
30.74199999996925
 21
4.940981453593762
 31
0.0
  0
LINE
  5
1D109
330
1D0E9
100
AcDbEntity
  8
0
  6
CONTINUOUS
100
AcDbLine
 10
26.50763775544691
 20
0.0330999999912356
 30
0.0
 11
27.85763775544689
 21
1.383099999991223
 31
0.0
  0
LINE
  5
1D10A
330
1D0E9
100
AcDbEntity
  8
0
  6
CONTINUOUS
100
AcDbLine
 10
29.30199999996933
 20
2.827462244513656
 30
0.0
 11
30.74199999996925
 21
4.267462244513574
 31
0.0
  0
LINE
  5
1D10B
330
1D0E9
100
AcDbEntity
  8
0
  6
CONTINUOUS
100
AcDbLine
 10
27.18115696452709
 20
0.0330999999912356
 30
0.0
 11
28.6224847300034
 21
1.474427765467545
 31
0.0
  0
LINE
  5
1D10C
330
1D0E9
100
AcDbEntity
  8
0
  6
CONTINUOUS
100
AcDbLine
 10
29.21067223449293
 20
2.062615269957069
 30
0.0
 11
30.74199999996924
 21
3.593943035433383
 31
0.0
  0
LINE
  5
1D10D
330
1D0E9
100
AcDbEntity
  8
0
  6
CONTINUOUS
100
AcDbLine
 10
27.85467617360728
 20
0.0330999999912356
 30
0.0
 11
30.74199999996924
 21
2.920423826353195
 31
0.0
  0
LINE
  5
1D10E
330
1D0E9
100
AcDbEntity
  8
0
  6
CONTINUOUS
100
AcDbLine
 10
28.57438609860264
 20
0.0792907159064073
 30
0.0
 11
30.69580928405405
 21
2.200713901357819
 31
0.0
  0
LINE
  5
1D10F
330
1D0E9
100
AcDbEntity
  8
0
  6
CONTINUOUS
100
AcDbLine
 10
29.49443044814297
 20
0.3258158563665496
 30
0.0
 11
30.44928414359389
 21
1.280669551817477
 31
0.0
  0
LINE
  5
1D110
330
1D0E9
100
AcDbEntity
  8
0
  6
CONTINUOUS
100
AcDbLine
 10
19.59027867740337
 20
-0.0000967065718083
 30
0.0
 11
19.55485265190471
 21
0.035329318926844
 31
0.0
  0
LINE
  5
1D111
330
1D0E9
100
AcDbEntity
  8
0
  6
CONTINUOUS
100
AcDbLine
 10
20.26375463176586
 20
-0.0000534518541091
 30
0.0
 11
19.76305575737534
 21
0.5006454225364014
 31
0.0
  0
LINE
  5
1D112
330
1D0E9
100
AcDbEntity
  8
0
  6
CONTINUOUS
100
AcDbLine
 10
20.93723058612834
 20
-0.0000101971364099
 30
0.0
 11
19.97125886284597
 21
0.965961526145958
 31
0.0
  0
LINE
  5
1D113
330
1D0E9
100
AcDbEntity
  8
0
  6
CONTINUOUS
100
AcDbLine
 10
21.25514828313686
 20
0.355591314935257
 30
0.0
 11
20.1794619683166
 21
1.431277629755512
 31
0.0
  0
LINE
  5
1D114
330
1D0E9
100
AcDbEntity
  8
0
  6
CONTINUOUS
100
AcDbLine
 10
21.46338838394921
 20
0.8208704232030986
 30
0.0
 11
20.38766507378723
 21
1.896593733365069
 31
0.0
  0
LINE
  5
1D115
330
1D0E9
100
AcDbEntity
  8
0
  6
CONTINUOUS
100
AcDbLine
 10
21.67162848476155
 20
1.28614953147094
 30
0.0
 11
20.59586817925786
 21
2.361909836974626
 31
0.0
  0
LINE
  5
1D116
330
1D0E9
100
AcDbEntity
  8
0
  6
CONTINUOUS
100
AcDbLine
 10
21.8798685855739
 20
1.751428639738782
 30
0.0
 11
20.80407128472849
 21
2.827225940584183
 31
0.0
  0
LINE
  5
1D117
330
1D0E9
100
AcDbEntity
  8
0
  6
CONTINUOUS
100
AcDbLine
 10
22.08810868638624
 20
2.216707748006623
 30
0.0
 11
21.01227439019912
 21
3.292542044193739
 31
0.0
  0
LINE
  5
1D118
330
1D0E9
100
AcDbEntity
  8
0
  6
CONTINUOUS
100
AcDbLine
 10
22.60993564347543
 20
2.36839999999762
 30
0.0
 11
21.22047749566975
 21
3.757858147803296
 31
0.0
  0
LINE
  5
1D119
330
1D0E9
100
AcDbEntity
  8
0
  6
CONTINUOUS
100
AcDbLine
 10
23.28345485255561
 20
2.36839999999762
 30
0.0
 11
21.42868060114038
 21
4.223174251412853
 31
0.0
  0
LINE
  5
1D11A
330
1D0E9
100
AcDbEntity
  8
0
  6
CONTINUOUS
100
AcDbLine
 10
26.29227406164219
 20
0.0330999999912356
 30
0.0
 11
25.80009199592872
 21
0.5252820657046957
 31
0.0
  0
LINE
  5
1D11B
330
1D0E9
100
AcDbEntity
  8
0
  6
CONTINUOUS
100
AcDbLine
 10
23.9569740616358
 20
2.36839999999762
 30
0.0
 11
21.63688370661101
 21
4.688490355022409
 31
0.0
  0
LINE
  5
1D11C
330
1D0E9
100
AcDbEntity
  8
0
  6
CONTINUOUS
100
AcDbLine
 10
26.96579327072237
 20
0.0330999999912356
 30
0.0
 11
25.2554132311971
 21
1.743480039516508
 31
0.0
  0
LINE
  5
1D11D
330
1D0E9
100
AcDbEntity
  8
0
  6
CONTINUOUS
100
AcDbLine
 10
24.63049327071599
 20
2.36839999999762
 30
0.0
 11
23.32789327071731
 21
3.670999999996297
 31
0.0
  0
LINE
  5
1D11E
330
1D0E9
100
AcDbEntity
  8
0
  6
CONTINUOUS
100
AcDbLine
 10
22.92098674744635
 20
4.077906523267254
 30
0.0
 11
21.84508681208164
 21
5.153806458631966
 31
0.0
  0
LINE
  5
1D11F
330
1D0E9
100
AcDbEntity
  8
0
  6
CONTINUOUS
100
AcDbLine
 10
27.63931247980256
 20
0.0330999999912356
 30
0.0
 11
24.0014124797975
 21
3.670999999996297
 31
0.0
  0
LINE
  5
1D120
330
1D0E9
100
AcDbEntity
  8
0
  6
CONTINUOUS
100
AcDbLine
 10
23.129125600968
 20
4.5432868788258
 30
0.0
 11
22.05328991755227
 21
5.619122562241522
 31
0.0
  0
LINE
  5
1D121
330
1D0E9
100
AcDbEntity
  8
0
  6
CONTINUOUS
100
AcDbLine
 10
28.31283168888275
 20
0.0330999999912356
 30
0.0
 11
24.16488385994816
 21
4.181047828925828
 31
0.0
  0
LINE
  5
1D122
330
1D0E9
100
AcDbEntity
  8
0
  6
CONTINUOUS
100
AcDbLine
 10
23.33726445448964
 20
5.008667234384345
 30
0.0
 11
22.2614930230229
 21
6.084438665851079
 31
0.0
  0
LINE
  5
1D123
330
1D0E9
100
AcDbEntity
  8
0
  6
CONTINUOUS
100
AcDbLine
 10
28.86286302309502
 20
0.1565878748591523
 30
0.0
 11
27.63635089796295
 21
1.383099999991217
 31
0.0
  0
LINE
  5
1D124
330
1D0E9
100
AcDbEntity
  8
0
  6
CONTINUOUS
100
AcDbLine
 10
26.43704649509776
 20
2.582404402856405
 30
0.0
 11
23.61992702019732
 21
5.399523877756844
 31
0.0
  0
LINE
  5
1D125
330
1D0E9
100
AcDbEntity
  8
0
  6
CONTINUOUS
100
AcDbLine
 10
23.54540330801128
 20
5.47404758994289
 30
0.0
 11
22.46969612849353
 21
6.549754769460635
 31
0.0
  0
LINE
  5
1D126
330
1D0E9
100
AcDbEntity
  8
0
  6
CONTINUOUS
100
AcDbLine
 10
29.39405087596853
 20
0.2989192310658284
 30
0.0
 11
28.30987010704312
 21
1.383099999991234
 31
0.0
  0
LINE
  5
1D127
330
1D0E9
100
AcDbEntity
  8
0
  6
CONTINUOUS
100
AcDbLine
 10
25.89179548232307
 20
3.801174624711282
 30
0.0
 11
22.67789923396416
 21
7.015070873070191
 31
0.0
  0
LINE
  5
1D128
330
1D0E9
100
AcDbEntity
  8
0
  6
CONTINUOUS
100
AcDbLine
 10
29.79594438047407
 20
0.570544935640473
 30
0.0
 11
28.81310432793121
 21
1.553384988183336
 31
0.0
  0
LINE
  5
1D129
330
1D0E9
100
AcDbEntity
  8
0
  6
CONTINUOUS
100
AcDbLine
 10
25.34654446954838
 20
5.01994484656616
 30
0.0
 11
22.88610233943479
 21
7.480386976679748
 31
0.0
  0
LINE
  5
1D12A
330
1D0E9
100
AcDbEntity
  8
0
  6
CONTINUOUS
100
AcDbLine
 10
30.13270398501416
 20
0.9073045401805646
 30
0.0
 11
29.14234640337737
 21
1.897662121817355
 31
0.0
  0
LINE
  5
1D12B
330
1D0E9
100
AcDbEntity
  8
0
  6
CONTINUOUS
100
AcDbLine
 10
24.80129345677369
 20
6.238715068421037
 30
0.0
 11
23.09430544490542
 21
7.945703080289305
 31
0.0
  0
LINE
  5
1D12C
330
1D0E9
100
AcDbEntity
  8
0
  6
CONTINUOUS
100
AcDbLine
 10
30.44581292956759
 20
1.26771480470732
 30
0.0
 11
29.30199999996933
 21
2.411527734305588
 31
0.0
  0
LINE
  5
1D12D
330
1D0E9
100
AcDbEntity
  8
0
  6
CONTINUOUS
100
AcDbLine
 10
30.58814428577427
 20
1.798902657580827
 30
0.0
 11
29.30199999996933
 21
3.085046943385775
 31
0.0
  0
LINE
  5
1D12E
330
1D0E9
100
AcDbEntity
  8
0
  6
CONTINUOUS
100
AcDbLine
 10
24.256042443999
 20
7.457485290275915
 30
0.0
 11
23.30250855037605
 21
8.411019183898862
 31
0.0
  0
LINE
  5
1D12F
330
1D0E9
100
AcDbEntity
  8
0
  6
CONTINUOUS
100
AcDbLine
 10
23.71079143122431
 20
8.676255512130794
 30
0.0
 11
23.51071165584668
 21
8.876335287508418
 31
0.0
  0
LINE
  5
1D130
330
1D0E9
100
AcDbEntity
  8
0
  6
CONTINUOUS
100
AcDbLine
 10
30.73047564198095
 20
2.330090510454333
 30
0.0
 11
29.30199999996933
 21
3.758566152465961
 31
0.0
  0
LINE
  5
1D131
330
1D0E9
100
AcDbEntity
  8
0
  6
CONTINUOUS
100
AcDbLine
 10
30.74199999996924
 20
2.992085361546236
 30
0.0
 11
29.30199999996933
 21
4.432085361546148
 31
0.0
  0
LINE
  5
1D132
330
1D0E9
100
AcDbEntity
  8
0
  6
CONTINUOUS
100
AcDbLine
 10
30.74199999996924
 20
3.665604570626419
 30
0.0
 11
29.30199999996933
 21
5.105604570626333
 31
0.0
  0
LINE
  5
1D133
330
1D0E9
100
AcDbEntity
  8
0
  6
CONTINUOUS
100
AcDbLine
 10
30.74199999996925
 20
4.339123779706602
 30
0.0
 11
29.30199999996933
 21
5.77912377970652
 31
0.0
  0
LINE
  5
1D134
330
1D0E9
100
AcDbEntity
  8
0
  6
CONTINUOUS
100
AcDbLine
 10
30.74199999996925
 20
5.012642988786785
 30
0.0
 11
29.30199999996933
 21
6.452642988786707
 31
0.0
  0
LINE
  5
1D135
330
1D0E9
100
AcDbEntity
  8
0
  6
CONTINUOUS
100
AcDbLine
 10
30.74199999996925
 20
5.68616219786697
 30
0.0
 11
29.30199999996933
 21
7.126162197866894
 31
0.0
  0
LINE
  5
1D136
330
1D0E9
100
AcDbEntity
  8
0
  6
CONTINUOUS
100
AcDbLine
 10
30.74199999996925
 20
6.359681406947153
 30
0.0
 11
29.30199999996933
 21
7.799681406947081
 31
0.0
  0
LINE
  5
1D137
330
1D0E9
100
AcDbEntity
  8
0
  6
CONTINUOUS
100
AcDbLine
 10
30.74199999996926
 20
7.033200616027337
 30
0.0
 11
29.30199999996933
 21
8.473200616027269
 31
0.0
  0
LINE
  5
1D138
330
1D0E9
100
AcDbEntity
  8
0
  6
CONTINUOUS
100
AcDbLine
 10
30.74199999996926
 20
7.706719825107518
 30
0.0
 11
29.68561982508552
 21
8.763099999991255
 31
0.0
  0
LINE
  5
1D139
330
1D0E9
100
AcDbEntity
  8
0
  6
CONTINUOUS
100
AcDbLine
 10
30.74199999996926
 20
8.380239034187703
 30
0.0
 11
30.35913903416571
 21
8.763099999991255
 31
0.0
  0
ENDBLK
  5
1D1DC
330
1D0E9
100
AcDbEntity
  8
0
100
AcDbBlockEnd
  0
BLOCK
  5
1D1DD
330
1D13A
100
AcDbEntity
  8
0
100
AcDbBlockBegin
  2
*X130
 70
     1
 10
0.0
 20
0.0
 30
0.0
  3
*X130
  1

  0
LINE
  5
1D13B
330
1D13A
100
AcDbEntity
  8
0
  6
CONTINUOUS
100
AcDbLine
 10
31.64199999996833
 20
8.5350582899136
 30
0.0
 11
31.87004171004599
 21
8.763099999991255
 31
0.0
  0
LINE
  5
1D13C
330
1D13A
100
AcDbEntity
  8
0
  6
CONTINUOUS
100
AcDbLine
 10
31.64199999996833
 20
7.861539080833413
 30
0.0
 11
32.54356091912618
 21
8.763099999991255
 31
0.0
  0
LINE
  5
1D13D
330
1D13A
100
AcDbEntity
  8
0
  6
CONTINUOUS
100
AcDbLine
 10
31.64199999996833
 20
7.188019871753227
 30
0.0
 11
33.08199999996839
 21
8.628019871753281
 31
0.0
  0
LINE
  5
1D13E
330
1D13A
100
AcDbEntity
  8
0
  6
CONTINUOUS
100
AcDbLine
 10
31.64199999996833
 20
6.514500662673041
 30
0.0
 11
33.08199999996839
 21
7.954500662673095
 31
0.0
  0
LINE
  5
1D13F
330
1D13A
100
AcDbEntity
  8
0
  6
CONTINUOUS
100
AcDbLine
 10
31.64199999996833
 20
5.840981453592855
 30
0.0
 11
33.08199999996839
 21
7.28098145359291
 31
0.0
  0
LINE
  5
1D140
330
1D13A
100
AcDbEntity
  8
0
  6
CONTINUOUS
100
AcDbLine
 10
31.64199999996833
 20
5.167462244512668
 30
0.0
 11
33.08199999996839
 21
6.607462244512723
 31
0.0
  0
LINE
  5
1D141
330
1D13A
100
AcDbEntity
  8
0
  6
CONTINUOUS
100
AcDbLine
 10
31.64199999996833
 20
4.493943035432482
 30
0.0
 11
33.08199999996839
 21
5.933943035432536
 31
0.0
  0
LINE
  5
1D142
330
1D13A
100
AcDbEntity
  8
0
  6
CONTINUOUS
100
AcDbLine
 10
31.64199999996833
 20
3.820423826352294
 30
0.0
 11
33.08199999996839
 21
5.260423826352349
 31
0.0
  0
LINE
  5
1D143
330
1D13A
100
AcDbEntity
  8
0
  6
CONTINUOUS
100
AcDbLine
 10
31.64199999996833
 20
3.146904617272108
 30
0.0
 11
33.08199999996839
 21
4.586904617272163
 31
0.0
  0
LINE
  5
1D144
330
1D13A
100
AcDbEntity
  8
0
  6
CONTINUOUS
100
AcDbLine
 10
36.23199999996837
 20
8.410423826352327
 30
0.0
 11
36.58467617360729
 21
8.763099999991255
 31
0.0
  0
LINE
  5
1D145
330
1D13A
100
AcDbEntity
  8
0
  6
CONTINUOUS
100
AcDbLine
 10
36.23199999996837
 20
7.73690461727214
 30
0.0
 11
37.25819538268748
 21
8.763099999991255
 31
0.0
  0
LINE
  5
1D146
330
1D13A
100
AcDbEntity
  8
0
  6
CONTINUOUS
100
AcDbLine
 10
31.64323424774199
 20
2.474619655965573
 30
0.0
 11
33.08199999996839
 21
3.913385408191976
 31
0.0
  0
LINE
  5
1D147
330
1D13A
100
AcDbEntity
  8
0
  6
CONTINUOUS
100
AcDbLine
 10
31.74419223861915
 20
1.902058437762552
 30
0.0
 11
33.08199999996839
 21
3.239866199111789
 31
0.0
  0
LINE
  5
1D148
330
1D13A
100
AcDbEntity
  8
0
  6
CONTINUOUS
100
AcDbLine
 10
36.23199999996837
 20
7.063385408191953
 30
0.0
 11
37.67199999996831
 21
8.503385408191894
 31
0.0
  0
LINE
  5
1D149
330
1D13A
100
AcDbEntity
  8
0
  6
CONTINUOUS
100
AcDbLine
 10
36.23199999996837
 20
6.389866199111767
 30
0.0
 11
37.67199999996831
 21
7.829866199111708
 31
0.0
  0
LINE
  5
1D14A
330
1D13A
100
AcDbEntity
  8
0
  6
CONTINUOUS
100
AcDbLine
 10
31.91111233414976
 20
1.39545932421297
 30
0.0
 11
33.08199999996839
 21
2.566346990031603
 31
0.0
  0
LINE
  5
1D14B
330
1D13A
100
AcDbEntity
  8
0
  6
CONTINUOUS
100
AcDbLine
 10
36.23199999996837
 20
5.71634699003158
 30
0.0
 11
37.67199999996831
 21
7.156346990031522
 31
0.0
  0
LINE
  5
1D14C
330
1D13A
100
AcDbEntity
  8
0
  6
CONTINUOUS
100
AcDbLine
 10
32.1576374746103
 20
0.9684652555933289
 30
0.0
 11
33.20642631446081
 21
2.017254095443838
 31
0.0
  0
LINE
  5
1D14D
330
1D13A
100
AcDbEntity
  8
0
  6
CONTINUOUS
100
AcDbLine
 10
36.23199999996837
 20
5.042827780951393
 30
0.0
 11
37.67199999996831
 21
6.482827780951334
 31
0.0
  0
LINE
  5
1D14E
330
1D13A
100
AcDbEntity
  8
0
  6
CONTINUOUS
100
AcDbLine
 10
32.47774023927325
 20
0.6150488111760914
 30
0.0
 11
33.49903056428258
 21
1.636339136185419
 31
0.0
  0
LINE
  5
1D14F
330
1D13A
100
AcDbEntity
  8
0
  6
CONTINUOUS
100
AcDbLine
 10
36.23199999996837
 20
4.369308571871207
 30
0.0
 11
37.67199999996831
 21
5.809308571871148
 31
0.0
  0
LINE
  5
1D150
330
1D13A
100
AcDbEntity
  8
0
  6
CONTINUOUS
100
AcDbLine
 10
32.84396249154443
 20
0.3077518543670883
 30
0.0
 11
33.93324121824649
 21
1.397030581069146
 31
0.0
  0
LINE
  5
1D151
330
1D13A
100
AcDbEntity
  8
0
  6
CONTINUOUS
100
AcDbLine
 10
36.23199999996837
 20
3.695789362791021
 30
0.0
 11
37.67199999996831
 21
5.135789362790963
 31
0.0
  0
LINE
  5
1D152
330
1D13A
100
AcDbEntity
  8
0
  6
CONTINUOUS
100
AcDbLine
 10
33.30186329036846
 20
0.0921334441109263
 30
0.0
 11
34.46442907112041
 21
1.254699224862875
 31
0.0
  0
LINE
  5
1D153
330
1D13A
100
AcDbEntity
  8
0
  6
CONTINUOUS
100
AcDbLine
 10
36.23199999996837
 20
3.022270153710834
 30
0.0
 11
37.67199999996831
 21
4.462270153710776
 31
0.0
  0
LINE
  5
1D154
330
1D13A
100
AcDbEntity
  8
0
  6
CONTINUOUS
100
AcDbLine
 10
33.79565647746294
 20
-0.0875925778747773
 30
0.0
 11
35.24350171668284
 21
1.360252661345124
 31
0.0
  0
LINE
  5
1D155
330
1D13A
100
AcDbEntity
  8
0
  6
CONTINUOUS
100
AcDbLine
 10
36.18336676155003
 20
2.300117706212308
 30
0.0
 11
37.67199999996831
 21
3.788750944630589
 31
0.0
  0
LINE
  5
1D156
330
1D13A
100
AcDbEntity
  8
0
  6
CONTINUOUS
100
AcDbLine
 10
34.37182574910968
 20
-0.184942515308224
 30
0.0
 11
37.67199999996831
 21
3.115231735550402
 31
0.0
  0
LINE
  5
1D157
330
1D13A
100
AcDbEntity
  8
0
  6
CONTINUOUS
100
AcDbLine
 10
35.0453449581892
 20
-0.1849425153088955
 30
0.0
 11
37.66345697088136
 21
2.433169497383271
 31
0.0
  0
LINE
  5
1D158
330
1D13A
100
AcDbEntity
  8
0
  6
CONTINUOUS
100
AcDbLine
 10
35.98667157609191
 20
0.0828648935136398
 30
0.0
 11
37.51927401744566
 21
1.615467334867382
 31
0.0
  0
LINE
  5
1D159
330
1D13A
100
AcDbEntity
  8
0
  6
CONTINUOUS
100
AcDbLine
 10
32.27747408544484
 20
0.7830920669904482
 30
0.0
 11
32.24716210471949
 21
0.8134040477157893
 31
0.0
  0
LINE
  5
1D15A
330
1D13A
100
AcDbEntity
  8
0
  6
CONTINUOUS
100
AcDbLine
 10
33.83656881101902
 20
-0.1024834495035494
 30
0.0
 11
31.72538911593758
 21
2.008696245577891
 31
0.0
  0
LINE
  5
1D15B
330
1D13A
100
AcDbEntity
  8
0
  6
CONTINUOUS
100
AcDbLine
 10
34.5925470859041
 20
-0.1849425153084434
 30
0.0
 11
31.64199999996833
 21
2.765604570627322
 31
0.0
  0
LINE
  5
1D15C
330
1D13A
100
AcDbEntity
  8
0
  6
CONTINUOUS
100
AcDbLine
 10
35.26201302775981
 20
-0.1808892480839752
 30
0.0
 11
31.64199999996833
 21
3.439123779707508
 31
0.0
  0
LINE
  5
1D15D
330
1D13A
100
AcDbEntity
  8
0
  6
CONTINUOUS
100
AcDbLine
 10
35.75580621485512
 20
-0.0011632260990879
 30
0.0
 11
34.51294304365551
 21
1.241699945100514
 31
0.0
  0
LINE
  5
1D15E
330
1D13A
100
AcDbEntity
  8
0
  6
CONTINUOUS
100
AcDbLine
 10
33.08199999996839
 20
2.672642988787641
 30
0.0
 11
31.64199999996833
 21
4.112642988787695
 31
0.0
  0
LINE
  5
1D15F
330
1D13A
100
AcDbEntity
  8
0
  6
CONTINUOUS
100
AcDbLine
 10
36.24959940195042
 20
0.1785627958857976
 30
0.0
 11
35.10501653033629
 21
1.323145667499924
 31
0.0
  0
LINE
  5
1D160
330
1D13A
100
AcDbEntity
  8
0
  6
CONTINUOUS
100
AcDbLine
 10
33.08199999996839
 20
3.346162197867827
 30
0.0
 11
31.64199999996833
 21
4.786162197867881
 31
0.0
  0
LINE
  5
1D161
330
1D13A
100
AcDbEntity
  8
0
  6
CONTINUOUS
100
AcDbLine
 10
36.64615197150552
 20
0.4555294354108876
 30
0.0
 11
35.6362043832099
 21
1.465477023706505
 31
0.0
  0
LINE
  5
1D162
330
1D13A
100
AcDbEntity
  8
0
  6
CONTINUOUS
100
AcDbLine
 10
33.08199999996839
 20
4.019681406948013
 30
0.0
 11
31.64199999996833
 21
5.459681406948068
 31
0.0
  0
LINE
  5
1D163
330
1D13A
100
AcDbEntity
  8
0
  6
CONTINUOUS
100
AcDbLine
 10
37.0123742237774
 20
0.7628263922191891
 30
0.0
 11
35.97691545773309
 21
1.798285158263504
 31
0.0
  0
LINE
  5
1D164
330
1D13A
100
AcDbEntity
  8
0
  6
CONTINUOUS
100
AcDbLine
 10
33.08199999996839
 20
4.6932006160282
 30
0.0
 11
31.64199999996833
 21
6.133200616028255
 31
0.0
  0
LINE
  5
1D165
330
1D13A
100
AcDbEntity
  8
0
  6
CONTINUOUS
100
AcDbLine
 10
37.27491524157143
 20
1.173804583505349
 30
0.0
 11
36.17602012811361
 21
2.272699696963169
 31
0.0
  0
LINE
  5
1D166
330
1D13A
100
AcDbEntity
  8
0
  6
CONTINUOUS
100
AcDbLine
 10
33.08199999996839
 20
5.366719825108387
 30
0.0
 11
31.64199999996833
 21
6.806719825108441
 31
0.0
  0
LINE
  5
1D167
330
1D13A
100
AcDbEntity
  8
0
  6
CONTINUOUS
100
AcDbLine
 10
37.51739996707661
 20
1.604839067080355
 30
0.0
 11
36.23199999996837
 21
2.890239034188595
 31
0.0
  0
LINE
  5
1D168
330
1D13A
100
AcDbEntity
  8
0
  6
CONTINUOUS
100
AcDbLine
 10
37.6183579579535
 20
2.177400285283649
 30
0.0
 11
36.23199999996837
 21
3.563758243268782
 31
0.0
  0
LINE
  5
1D169
330
1D13A
100
AcDbEntity
  8
0
  6
CONTINUOUS
100
AcDbLine
 10
33.08199999996839
 20
6.040239034188573
 30
0.0
 11
31.64199999996833
 21
7.480239034188628
 31
0.0
  0
LINE
  5
1D16A
330
1D13A
100
AcDbEntity
  8
0
  6
CONTINUOUS
100
AcDbLine
 10
33.08199999996839
 20
6.713758243268759
 30
0.0
 11
31.64199999996833
 21
8.153758243268815
 31
0.0
  0
LINE
  5
1D16B
330
1D13A
100
AcDbEntity
  8
0
  6
CONTINUOUS
100
AcDbLine
 10
37.67199999996831
 20
2.797277452349027
 30
0.0
 11
36.23199999996837
 21
4.237277452348969
 31
0.0
  0
LINE
  5
1D16C
330
1D13A
100
AcDbEntity
  8
0
  6
CONTINUOUS
100
AcDbLine
 10
37.67199999996831
 20
3.470796661429214
 30
0.0
 11
36.23199999996837
 21
4.910796661429155
 31
0.0
  0
LINE
  5
1D16D
330
1D13A
100
AcDbEntity
  8
0
  6
CONTINUOUS
100
AcDbLine
 10
37.67199999996831
 20
4.1443158705094
 30
0.0
 11
36.23199999996837
 21
5.584315870509341
 31
0.0
  0
LINE
  5
1D16E
330
1D13A
100
AcDbEntity
  8
0
  6
CONTINUOUS
100
AcDbLine
 10
33.08199999996839
 20
7.387277452348946
 30
0.0
 11
31.70617745232608
 21
8.763099999991255
 31
0.0
  0
LINE
  5
1D16F
330
1D13A
100
AcDbEntity
  8
0
  6
CONTINUOUS
100
AcDbLine
 10
33.08199999996839
 20
8.060796661429134
 30
0.0
 11
32.37969666140626
 21
8.763099999991255
 31
0.0
  0
LINE
  5
1D170
330
1D13A
100
AcDbEntity
  8
0
  6
CONTINUOUS
100
AcDbLine
 10
33.08199999996839
 20
8.734315870509318
 30
0.0
 11
33.05321587048645
 21
8.763099999991255
 31
0.0
  0
LINE
  5
1D171
330
1D13A
100
AcDbEntity
  8
0
  6
CONTINUOUS
100
AcDbLine
 10
37.67199999996831
 20
4.817835079589586
 30
0.0
 11
36.23199999996837
 21
6.257835079589528
 31
0.0
  0
LINE
  5
1D172
330
1D13A
100
AcDbEntity
  8
0
  6
CONTINUOUS
100
AcDbLine
 10
37.67199999996831
 20
5.491354288669772
 30
0.0
 11
36.23199999996837
 21
6.931354288669715
 31
0.0
  0
LINE
  5
1D173
330
1D13A
100
AcDbEntity
  8
0
  6
CONTINUOUS
100
AcDbLine
 10
37.67199999996831
 20
6.164873497749959
 30
0.0
 11
36.23199999996837
 21
7.6048734977499
 31
0.0
  0
LINE
  5
1D174
330
1D13A
100
AcDbEntity
  8
0
  6
CONTINUOUS
100
AcDbLine
 10
37.67199999996831
 20
6.838392706830145
 30
0.0
 11
36.23199999996837
 21
8.278392706830086
 31
0.0
  0
LINE
  5
1D175
330
1D13A
100
AcDbEntity
  8
0
  6
CONTINUOUS
100
AcDbLine
 10
37.67199999996831
 20
7.511911915910333
 30
0.0
 11
36.42081191588738
 21
8.763099999991255
 31
0.0
  0
LINE
  5
1D176
330
1D13A
100
AcDbEntity
  8
0
  6
CONTINUOUS
100
AcDbLine
 10
37.67199999996831
 20
8.185431124990519
 30
0.0
 11
37.09433112496757
 21
8.763099999991255
 31
0.0
  0
ENDBLK
  5
1D1DE
330
1D13A
100
AcDbEntity
  8
0
100
AcDbBlockEnd
  0
BLOCK
  5
1D1DF
330
1D177
100
AcDbEntity
  8
0
100
AcDbBlockBegin
  2
*X131
 70
     1
 10
0.0
 20
0.0
 30
0.0
  3
*X131
  1

  0
LINE
  5
1D178
330
1D177
100
AcDbEntity
  8
0
  6
CONTINUOUS
100
AcDbLine
 10
38.60499999996136
 20
8.762866199104765
 30
0.0
 11
38.71672554182345
 21
8.874591740966855
 31
0.0
  0
LINE
  5
1D179
330
1D177
100
AcDbEntity
  8
0
  6
CONTINUOUS
100
AcDbLine
 10
38.60499999996136
 20
8.089346990024577
 30
0.0
 11
39.03418785440363
 21
8.518534844466847
 31
0.0
  0
LINE
  5
1D17A
330
1D177
100
AcDbEntity
  8
0
  6
CONTINUOUS
100
AcDbLine
 10
38.60499999996136
 20
7.41582778094439
 30
0.0
 11
39.35165016698382
 21
8.16247794796684
 31
0.0
  0
LINE
  5
1D17B
330
1D177
100
AcDbEntity
  8
0
  6
CONTINUOUS
100
AcDbLine
 10
38.60499999996136
 20
6.742308571864204
 30
0.0
 11
39.66911247956399
 21
7.806421051466834
 31
0.0
  0
LINE
  5
1D17C
330
1D177
100
AcDbEntity
  8
0
  6
CONTINUOUS
100
AcDbLine
 10
38.60499999996136
 20
6.068789362784018
 30
0.0
 11
39.98657479214418
 21
7.450364154966827
 31
0.0
  0
LINE
  5
1D17D
330
1D177
100
AcDbEntity
  8
0
  6
CONTINUOUS
100
AcDbLine
 10
38.60499999996136
 20
5.395270153703832
 30
0.0
 11
40.30403710472435
 21
7.09430725846682
 31
0.0
  0
LINE
  5
1D17E
330
1D177
100
AcDbEntity
  8
0
  6
CONTINUOUS
100
AcDbLine
 10
38.60499999996136
 20
4.721750944623645
 30
0.0
 11
40.62149941730453
 21
6.738250361966813
 31
0.0
  0
LINE
  5
1D17F
330
1D177
100
AcDbEntity
  8
0
  6
CONTINUOUS
100
AcDbLine
 10
38.60499999996136
 20
4.048231735543458
 30
0.0
 11
40.93896172988471
 21
6.382193465466806
 31
0.0
  0
LINE
  5
1D180
330
1D177
100
AcDbEntity
  8
0
  6
CONTINUOUS
100
AcDbLine
 10
38.60499999996136
 20
3.374712526463272
 30
0.0
 11
40.02599999995994
 21
4.795712526461843
 31
0.0
  0
LINE
  5
1D181
330
1D177
100
AcDbEntity
  8
0
  6
CONTINUOUS
100
AcDbLine
 10
38.60499999996136
 20
2.701193317383085
 30
0.0
 11
40.02599999995994
 21
4.122193317381657
 31
0.0
  0
LINE
  5
1D182
330
1D177
100
AcDbEntity
  8
0
  6
CONTINUOUS
100
AcDbLine
 10
40.28339754687704
 20
5.053110073378947
 30
0.0
 11
41.25642404246489
 21
6.026136568966799
 31
0.0
  0
LINE
  5
1D183
330
1D177
100
AcDbEntity
  8
0
  6
CONTINUOUS
100
AcDbLine
 10
40.60085985945722
 20
4.697053176878939
 30
0.0
 11
41.57388635504507
 21
5.670079672466793
 31
0.0
  0
LINE
  5
1D184
330
1D177
100
AcDbEntity
  8
0
  6
CONTINUOUS
100
AcDbLine
 10
43.57899999995641
 20
8.348712526458318
 30
0.0
 11
43.99338747348935
 21
8.763099999991255
 31
0.0
  0
LINE
  5
1D185
330
1D177
100
AcDbEntity
  8
0
  6
CONTINUOUS
100
AcDbLine
 10
43.57899999995641
 20
7.675193317378131
 30
0.0
 11
44.66690668256953
 21
8.763099999991255
 31
0.0
  0
LINE
  5
1D186
330
1D177
100
AcDbEntity
  8
0
  6
CONTINUOUS
100
AcDbLine
 10
38.60499999996136
 20
2.027674108302898
 30
0.0
 11
40.02599999995994
 21
3.44867410830147
 31
0.0
  0
LINE
  5
1D187
330
1D177
100
AcDbEntity
  8
0
  6
CONTINUOUS
100
AcDbLine
 10
38.60499999996136
 20
1.354154899222712
 30
0.0
 11
40.02599999995994
 21
2.775154899221284
 31
0.0
  0
LINE
  5
1D188
330
1D177
100
AcDbEntity
  8
0
  6
CONTINUOUS
100
AcDbLine
 10
38.60499999996136
 20
0.6806356901425255
 30
0.0
 11
40.02599999995994
 21
2.101635690141098
 31
0.0
  0
LINE
  5
1D189
330
1D177
100
AcDbEntity
  8
0
  6
CONTINUOUS
100
AcDbLine
 10
38.60499999996136
 20
0.0071164810623383
 30
0.0
 11
40.02599999995994
 21
1.428116481060911
 31
0.0
  0
LINE
  5
1D18A
330
1D177
100
AcDbEntity
  8
0
  6
CONTINUOUS
100
AcDbLine
 10
40.9183221720374
 20
4.340996280378933
 30
0.0
 11
41.89134866762525
 21
5.314022775966786
 31
0.0
  0
LINE
  5
1D18B
330
1D177
100
AcDbEntity
  8
0
  6
CONTINUOUS
100
AcDbLine
 10
41.23578448461758
 20
3.984939383878926
 30
0.0
 11
42.20881098020543
 21
4.957965879466778
 31
0.0
  0
LINE
  5
1D18C
330
1D177
100
AcDbEntity
  8
0
  6
CONTINUOUS
100
AcDbLine
 10
41.55324679719776
 20
3.628882487378919
 30
0.0
 11
42.52627329278561
 21
4.601908982966772
 31
0.0
  0
LINE
  5
1D18D
330
1D177
100
AcDbEntity
  8
0
  6
CONTINUOUS
100
AcDbLine
 10
41.87070910977793
 20
3.272825590878912
 30
0.0
 11
42.84373560536579
 21
4.245852086466765
 31
0.0
  0
LINE
  5
1D18E
330
1D177
100
AcDbEntity
  8
0
  6
CONTINUOUS
100
AcDbLine
 10
43.57899999995641
 20
7.001674108297943
 30
0.0
 11
44.99999999995498
 21
8.422674108296516
 31
0.0
  0
LINE
  5
1D18F
330
1D177
100
AcDbEntity
  8
0
  6
CONTINUOUS
100
AcDbLine
 10
43.57899999995641
 20
6.328154899217758
 30
0.0
 11
44.99999999995498
 21
7.749154899216329
 31
0.0
  0
LINE
  5
1D190
330
1D177
100
AcDbEntity
  8
0
  6
CONTINUOUS
100
AcDbLine
 10
43.57899999995641
 20
5.654635690137571
 30
0.0
 11
44.99999999995498
 21
7.075635690136142
 31
0.0
  0
LINE
  5
1D191
330
1D177
100
AcDbEntity
  8
0
  6
CONTINUOUS
100
AcDbLine
 10
43.57899999995641
 20
4.981116481057384
 30
0.0
 11
44.99999999995498
 21
6.402116481055955
 31
0.0
  0
LINE
  5
1D192
330
1D177
100
AcDbEntity
  8
0
  6
CONTINUOUS
100
AcDbLine
 10
39.27140272797921
 20
-0.0000000000000009
 30
0.0
 11
40.02599999995994
 21
0.7545972719807246
 31
0.0
  0
LINE
  5
1D193
330
1D177
100
AcDbEntity
  8
0
  6
CONTINUOUS
100
AcDbLine
 10
39.9449219370594
 20
-0.0000000000000009
 30
0.0
 11
40.02599999995994
 21
0.0810780629005379
 31
0.0
  0
LINE
  5
1D194
330
1D177
100
AcDbEntity
  8
0
  6
CONTINUOUS
100
AcDbLine
 10
42.18817142235812
 20
2.916768694378905
 30
0.0
 11
43.16119791794597
 21
3.889795189966758
 31
0.0
  0
LINE
  5
1D195
330
1D177
100
AcDbEntity
  8
0
  6
CONTINUOUS
100
AcDbLine
 10
42.50563373493829
 20
2.560711797878898
 30
0.0
 11
43.47866023052615
 21
3.533738293466751
 31
0.0
  0
LINE
  5
1D196
330
1D177
100
AcDbEntity
  8
0
  6
CONTINUOUS
100
AcDbLine
 10
43.57899999995641
 20
4.307597271977198
 30
0.0
 11
44.99999999995498
 21
5.728597271975769
 31
0.0
  0
LINE
  5
1D197
330
1D177
100
AcDbEntity
  8
0
  6
CONTINUOUS
100
AcDbLine
 10
43.57899999995641
 20
3.634078062897011
 30
0.0
 11
44.99999999995498
 21
5.055078062895582
 31
0.0
  0
LINE
  5
1D198
330
1D177
100
AcDbEntity
  8
0
  6
CONTINUOUS
100
AcDbLine
 10
42.82309604751848
 20
2.204654901378891
 30
0.0
 11
44.99999999995498
 21
4.381558853815395
 31
0.0
  0
LINE
  5
1D199
330
1D177
100
AcDbEntity
  8
0
  6
CONTINUOUS
100
AcDbLine
 10
43.14055836009865
 20
1.848598004878885
 30
0.0
 11
44.99999999995498
 21
3.70803964473521
 31
0.0
  0
LINE
  5
1D19A
330
1D177
100
AcDbEntity
  8
0
  6
CONTINUOUS
100
AcDbLine
 10
43.45802067267883
 20
1.492541108378878
 30
0.0
 11
44.99999999995498
 21
3.034520435655023
 31
0.0
  0
LINE
  5
1D19B
330
1D177
100
AcDbEntity
  8
0
  6
CONTINUOUS
100
AcDbLine
 10
43.77548298525902
 20
1.136484211878871
 30
0.0
 11
44.99999999995498
 21
2.361001226574837
 31
0.0
  0
LINE
  5
1D19C
330
1D177
100
AcDbEntity
  8
0
  6
CONTINUOUS
100
AcDbLine
 10
44.09294529783919
 20
0.7804273153788639
 30
0.0
 11
44.99999999995498
 21
1.687482017494649
 31
0.0
  0
LINE
  5
1D19D
330
1D177
100
AcDbEntity
  8
0
  6
CONTINUOUS
100
AcDbLine
 10
44.41040761041938
 20
0.4243704188788566
 30
0.0
 11
44.99999999995498
 21
1.013962808414463
 31
0.0
  0
LINE
  5
1D19E
330
1D177
100
AcDbEntity
  8
0
  6
CONTINUOUS
100
AcDbLine
 10
44.72786992299955
 20
0.0683135223788494
 30
0.0
 11
44.99999999995498
 21
0.340443599334276
 31
0.0
  0
LINE
  5
1D19F
330
1D177
100
AcDbEntity
  8
0
  6
CONTINUOUS
100
AcDbLine
 10
39.12223903415696
 20
-0.0000000000000009
 30
0.0
 11
38.60499999996136
 21
0.5172390341955961
 31
0.0
  0
LINE
  5
1D1A0
330
1D177
100
AcDbEntity
  8
0
  6
CONTINUOUS
100
AcDbLine
 10
39.79575824323715
 20
-0.0000000000000009
 30
0.0
 11
38.60499999996136
 21
1.190758243275783
 31
0.0
  0
LINE
  5
1D1A1
330
1D177
100
AcDbEntity
  8
0
  6
CONTINUOUS
100
AcDbLine
 10
40.02599999995994
 20
0.443277452357397
 30
0.0
 11
38.60499999996136
 21
1.864277452355969
 31
0.0
  0
LINE
  5
1D1A2
330
1D177
100
AcDbEntity
  8
0
  6
CONTINUOUS
100
AcDbLine
 10
40.02599999995994
 20
1.116796661437583
 30
0.0
 11
38.60499999996136
 21
2.537796661436155
 31
0.0
  0
LINE
  5
1D1A3
330
1D177
100
AcDbEntity
  8
0
  6
CONTINUOUS
100
AcDbLine
 10
40.02599999995994
 20
1.79031587051777
 30
0.0
 11
38.60499999996136
 21
3.211315870516341
 31
0.0
  0
LINE
  5
1D1A4
330
1D177
100
AcDbEntity
  8
0
  6
CONTINUOUS
100
AcDbLine
 10
40.02599999995994
 20
2.463835079597956
 30
0.0
 11
38.60499999996136
 21
3.884835079596527
 31
0.0
  0
LINE
  5
1D1A5
330
1D177
100
AcDbEntity
  8
0
  6
CONTINUOUS
100
AcDbLine
 10
40.02599999995994
 20
3.137354288678143
 30
0.0
 11
38.60499999996136
 21
4.558354288676714
 31
0.0
  0
LINE
  5
1D1A6
330
1D177
100
AcDbEntity
  8
0
  6
CONTINUOUS
100
AcDbLine
 10
40.02599999995994
 20
3.810873497758329
 30
0.0
 11
38.60499999996136
 21
5.2318734977569
 31
0.0
  0
LINE
  5
1D1A7
330
1D177
100
AcDbEntity
  8
0
  6
CONTINUOUS
100
AcDbLine
 10
40.02599999995994
 20
4.484392706838515
 30
0.0
 11
38.60499999996136
 21
5.905392706837086
 31
0.0
  0
LINE
  5
1D1A8
330
1D177
100
AcDbEntity
  8
0
  6
CONTINUOUS
100
AcDbLine
 10
44.99999999995498
 20
0.183911915923658
 30
0.0
 11
41.53858364506288
 21
3.64532827081576
 31
0.0
  0
LINE
  5
1D1A9
330
1D177
100
AcDbEntity
  8
0
  6
CONTINUOUS
100
AcDbLine
 10
40.02599999995994
 20
5.157911915918703
 30
0.0
 11
38.60499999996136
 21
6.578911915917274
 31
0.0
  0
LINE
  5
1D1AA
330
1D177
100
AcDbEntity
  8
0
  6
CONTINUOUS
100
AcDbLine
 10
44.99999999995498
 20
0.8574311250038447
 30
0.0
 11
38.60499999996136
 21
7.25243112499746
 31
0.0
  0
LINE
  5
1D1AB
330
1D177
100
AcDbEntity
  8
0
  6
CONTINUOUS
100
AcDbLine
 10
44.99999999995498
 20
1.530950334084031
 30
0.0
 11
38.60499999996136
 21
7.925950334077647
 31
0.0
  0
LINE
  5
1D1AC
330
1D177
100
AcDbEntity
  8
0
  6
CONTINUOUS
100
AcDbLine
 10
44.99999999995498
 20
2.204469543164218
 30
0.0
 11
43.57899999995641
 21
3.625469543162789
 31
0.0
  0
LINE
  5
1D1AD
330
1D177
100
AcDbEntity
  8
0
  6
CONTINUOUS
100
AcDbLine
 10
41.89876730984767
 20
5.305702233271528
 30
0.0
 11
38.60499999996136
 21
8.599469543157834
 31
0.0
  0
LINE
  5
1D1AE
330
1D177
100
AcDbEntity
  8
0
  6
CONTINUOUS
100
AcDbLine
 10
44.99999999995498
 20
2.877988752244405
 30
0.0
 11
43.57899999995641
 21
4.298988752242975
 31
0.0
  0
LINE
  5
1D1AF
330
1D177
100
AcDbEntity
  8
0
  6
CONTINUOUS
100
AcDbLine
 10
44.99999999995498
 20
3.551507961324591
 30
0.0
 11
43.57899999995641
 21
4.972507961323163
 31
0.0
  0
LINE
  5
1D1B0
330
1D177
100
AcDbEntity
  8
0
  6
CONTINUOUS
100
AcDbLine
 10
44.99999999995498
 20
4.225027170404777
 30
0.0
 11
43.57899999995641
 21
5.646027170403348
 31
0.0
  0
LINE
  5
1D1B1
330
1D177
100
AcDbEntity
  8
0
  6
CONTINUOUS
100
AcDbLine
 10
44.99999999995498
 20
4.898546379484964
 30
0.0
 11
43.57899999995641
 21
6.319546379483535
 31
0.0
  0
LINE
  5
1D1B2
330
1D177
100
AcDbEntity
  8
0
  6
CONTINUOUS
100
AcDbLine
 10
44.99999999995498
 20
5.572065588565151
 30
0.0
 11
43.57899999995641
 21
6.993065588563722
 31
0.0
  0
LINE
  5
1D1B3
330
1D177
100
AcDbEntity
  8
0
  6
CONTINUOUS
100
AcDbLine
 10
44.99999999995498
 20
6.245584797645336
 30
0.0
 11
43.57899999995641
 21
7.666584797643908
 31
0.0
  0
LINE
  5
1D1B4
330
1D177
100
AcDbEntity
  8
0
  6
CONTINUOUS
100
AcDbLine
 10
44.99999999995498
 20
6.919104006725522
 30
0.0
 11
43.57899999995641
 21
8.340104006724093
 31
0.0
  0
LINE
  5
1D1B5
330
1D177
100
AcDbEntity
  8
0
  6
CONTINUOUS
100
AcDbLine
 10
44.99999999995498
 20
7.592623215805709
 30
0.0
 11
43.82952321576943
 21
8.763099999991255
 31
0.0
  0
LINE
  5
1D1B6
330
1D177
100
AcDbEntity
  8
0
  6
CONTINUOUS
100
AcDbLine
 10
44.99999999995498
 20
8.266142424885896
 30
0.0
 11
44.50304242484962
 21
8.763099999991255
 31
0.0
  0
ENDBLK
  5
1D1E0
330
1D177
100
AcDbEntity
  8
0
100
AcDbBlockEnd
  0
BLOCK
  5
1D1E1
330
1D1B7
100
AcDbEntity
  8
0
100
AcDbBlockBegin
  2
*X132
 70
     1
 10
0.0
 20
0.0
 30
0.0
  3
*X132
  1

  0
LINE
  5
1D1B8
330
1D1B7
100
AcDbEntity
  8
0
  6
CONTINUOUS
100
AcDbLine
 10
0.0
 20
8.548461116714023
 30
0.0
 11
0.2146388832772324
 21
8.763099999991255
 31
0.0
  0
LINE
  5
1D1B9
330
1D1B7
100
AcDbEntity
  8
0
  6
CONTINUOUS
100
AcDbLine
 10
-0.0000000000000002
 20
7.874941907633837
 30
0.0
 11
0.8881580923574184
 21
8.763099999991255
 31
0.0
  0
LINE
  5
1D1BA
330
1D1B7
100
AcDbEntity
  8
0
  6
CONTINUOUS
100
AcDbLine
 10
0.0
 20
7.20142269855365
 30
0.0
 11
1.420999999998572
 21
8.622422698552223
 31
0.0
  0
LINE
  5
1D1BB
330
1D1B7
100
AcDbEntity
  8
0
  6
CONTINUOUS
100
AcDbLine
 10
-0.0000000000000001
 20
6.527903489473465
 30
0.0
 11
1.420999999998571
 21
7.948903489472036
 31
0.0
  0
LINE
  5
1D1BC
330
1D1B7
100
AcDbEntity
  8
0
  6
CONTINUOUS
100
AcDbLine
 10
-0.0000000000000002
 20
5.854384280393278
 30
0.0
 11
1.420999999998571
 21
7.275384280391849
 31
0.0
  0
LINE
  5
1D1BD
330
1D1B7
100
AcDbEntity
  8
0
  6
CONTINUOUS
100
AcDbLine
 10
-0.0000000000000002
 20
5.180865071313091
 30
0.0
 11
1.420999999998571
 21
6.601865071311663
 31
0.0
  0
LINE
  5
1D1BE
330
1D1B7
100
AcDbEntity
  8
0
  6
CONTINUOUS
100
AcDbLine
 10
0.0
 20
4.507345862232905
 30
0.0
 11
1.420999999998571
 21
5.928345862231477
 31
0.0
  0
LINE
  5
1D1BF
330
1D1B7
100
AcDbEntity
  8
0
  6
CONTINUOUS
100
AcDbLine
 10
-0.0000000000000003
 20
3.833826653152718
 30
0.0
 11
1.420999999998571
 21
5.25482665315129
 31
0.0
  0
LINE
  5
1D1C0
330
1D1B7
100
AcDbEntity
  8
0
  6
CONTINUOUS
100
AcDbLine
 10
-0.0000000000000002
 20
3.160307444072532
 30
0.0
 11
1.420999999998571
 21
4.581307444071103
 31
0.0
  0
LINE
  5
1D1C1
330
1D1B7
100
AcDbEntity
  8
0
  6
CONTINUOUS
100
AcDbLine
 10
-0.0000000000000001
 20
2.486788234992345
 30
0.0
 11
1.420999999998571
 21
3.907788234990917
 31
0.0
  0
LINE
  5
1D1C2
330
1D1B7
100
AcDbEntity
  8
0
  6
CONTINUOUS
100
AcDbLine
 10
-0.0000000000000006
 20
1.813269025912159
 30
0.0
 11
1.420999999998571
 21
3.234269025910731
 31
0.0
  0
LINE
  5
1D1C3
330
1D1B7
100
AcDbEntity
  8
0
  6
CONTINUOUS
100
AcDbLine
 10
0.0
 20
1.139749816831973
 30
0.0
 11
1.420999999998571
 21
2.560749816830544
 31
0.0
  0
LINE
  5
1D1C4
330
1D1B7
100
AcDbEntity
  8
0
  6
CONTINUOUS
100
AcDbLine
 10
0.0000000000000002
 20
0.466230607751787
 30
0.0
 11
1.420999999998571
 21
1.887230607750358
 31
0.0
  0
LINE
  5
1D1C5
330
1D1B7
100
AcDbEntity
  8
0
  6
CONTINUOUS
100
AcDbLine
 10
0.2072886013284003
 20
-0.0000000000000009
 30
0.0
 11
1.420999999998571
 21
1.213711398670171
 31
0.0
  0
LINE
  5
1D1C6
330
1D1B7
100
AcDbEntity
  8
0
  6
CONTINUOUS
100
AcDbLine
 10
0.8808078104085864
 20
-0.0000000000000009
 30
0.0
 11
1.420999999998571
 21
0.5401921895899839
 31
0.0
  0
LINE
  5
1D1C7
330
1D1B7
100
AcDbEntity
  8
0
  6
CONTINUOUS
100
AcDbLine
 10
0.0581249075061505
 20
-0.0000000000000009
 30
0.0
 11
-0.0000000000000002
 21
0.0581249075061496
 31
0.0
  0
LINE
  5
1D1C8
330
1D1B7
100
AcDbEntity
  8
0
  6
CONTINUOUS
100
AcDbLine
 10
0.7316441165863372
 20
-0.0000000000000009
 30
0.0
 11
-0.0000000000000002
 21
0.7316441165863363
 31
0.0
  0
LINE
  5
1D1C9
330
1D1B7
100
AcDbEntity
  8
0
  6
CONTINUOUS
100
AcDbLine
 10
1.405163325666523
 20
-0.0000000000000009
 30
0.0
 11
-0.0000000000000002
 21
1.405163325666523
 31
0.0
  0
LINE
  5
1D1CA
330
1D1B7
100
AcDbEntity
  8
0
  6
CONTINUOUS
100
AcDbLine
 10
1.420999999998572
 20
0.6576825347481381
 30
0.0
 11
-0.0000000000000001
 21
2.07868253474671
 31
0.0
  0
LINE
  5
1D1CB
330
1D1B7
100
AcDbEntity
  8
0
  6
CONTINUOUS
100
AcDbLine
 10
1.420999999998571
 20
1.331201743828324
 30
0.0
 11
-0.0000000000000001
 21
2.752201743826896
 31
0.0
  0
LINE
  5
1D1CC
330
1D1B7
100
AcDbEntity
  8
0
  6
CONTINUOUS
100
AcDbLine
 10
1.420999999998571
 20
2.004720952908511
 30
0.0
 11
-0.0000000000000002
 21
3.425720952907082
 31
0.0
  0
LINE
  5
1D1CD
330
1D1B7
100
AcDbEntity
  8
0
  6
CONTINUOUS
100
AcDbLine
 10
1.420999999998571
 20
2.678240161988697
 30
0.0
 11
-0.0000000000000001
 21
4.099240161987269
 31
0.0
  0
LINE
  5
1D1CE
330
1D1B7
100
AcDbEntity
  8
0
  6
CONTINUOUS
100
AcDbLine
 10
1.420999999998572
 20
3.351759371068884
 30
0.0
 11
0.0
 21
4.772759371067455
 31
0.0
  0
LINE
  5
1D1CF
330
1D1B7
100
AcDbEntity
  8
0
  6
CONTINUOUS
100
AcDbLine
 10
1.420999999998571
 20
4.02527858014907
 30
0.0
 11
-0.0000000000000003
 21
5.446278580147642
 31
0.0
  0
LINE
  5
1D1D0
330
1D1B7
100
AcDbEntity
  8
0
  6
CONTINUOUS
100
AcDbLine
 10
1.420999999998571
 20
4.698797789229257
 30
0.0
 11
0.0
 21
6.119797789227828
 31
0.0
  0
LINE
  5
1D1D1
330
1D1B7
100
AcDbEntity
  8
0
  6
CONTINUOUS
100
AcDbLine
 10
1.420999999998571
 20
5.372316998309444
 30
0.0
 11
-0.0000000000000001
 21
6.793316998308015
 31
0.0
  0
LINE
  5
1D1D2
330
1D1B7
100
AcDbEntity
  8
0
  6
CONTINUOUS
100
AcDbLine
 10
1.420999999998572
 20
6.045836207389629
 30
0.0
 11
-0.0000000000000004
 21
7.466836207388202
 31
0.0
  0
LINE
  5
1D1D3
330
1D1B7
100
AcDbEntity
  8
0
  6
CONTINUOUS
100
AcDbLine
 10
1.420999999998571
 20
6.719355416469816
 30
0.0
 11
0.0
 21
8.140355416468388
 31
0.0
  0
LINE
  5
1D1D4
330
1D1B7
100
AcDbEntity
  8
0
  6
CONTINUOUS
100
AcDbLine
 10
1.420999999998571
 20
7.392874625550003
 30
0.0
 11
0.0507746255573185
 21
8.763099999991255
 31
0.0
  0
LINE
  5
1D1D5
330
1D1B7
100
AcDbEntity
  8
0
  6
CONTINUOUS
100
AcDbLine
 10
1.420999999998571
 20
8.06639383463019
 30
0.0
 11
0.7242938346375052
 21
8.763099999991255
 31
0.0
  0
LINE
  5
1D1D6
330
1D1B7
100
AcDbEntity
  8
0
  6
CONTINUOUS
100
AcDbLine
 10
1.420999999998571
 20
8.739913043710375
 30
0.0
 11
1.397813043717691
 21
8.763099999991255
 31
0.0
  0
ENDBLK
  5
1D1E2
330
1D1B7
100
AcDbEntity
  8
0
100
AcDbBlockEnd
  0
ENDSEC
  0
SECTION
  2
ENTITIES
  0
LINE
  5
1B6DB
330
18
100
AcDbEntity
  8
01
100
AcDbLine
 10
2552.653426747117
 20
183.0094308806338
 30
0.0000000001127424
 11
2566.653426747117
 21
183.0094308806338
 31
0.0000000001127424
  0
LINE
  5
1B6DC
330
18
100
AcDbEntity
  8
01
100
AcDbLine
 10
2557.654310929177
 20
395.0094308796051
 30
0.0000000001127424
 11
2711.40869108421
 21
395.0094308796051
 31
0.0000000001127424
  0
LINE
  5
1B6DD
330
18
100
AcDbEntity
  8
01
  6
BYBLOCK
100
AcDbLine
 10
2557.654310929177
 20
395.0094308796051
 30
0.0000000001127424
 11
2557.654310929177
 21
355.0094308796051
 31
0.0000000001127424
  0
LINE
  5
1B6E1
330
18
100
AcDbEntity
  8
01
100
AcDbLine
 10
2608.653426747115
 20
390.0094308785765
 30
0.0000000001127424
 11
2608.653426747115
 21
420.9275110678254
 31
0.0000000001127424
  0
LINE
  5
1B6E2
330
18
100
AcDbEntity
  8
01
100
AcDbLine
 10
2583.653426747117
 20
395.009430879606
 30
0.0000000001127424
 11
2633.653426747117
 21
395.0094308796038
 31
0.0000000001127424
  0
LINE
  5
1B6E3
330
18
100
AcDbEntity
  8
01
100
AcDbLine
 10
2584.653426747113
 20
403.509430879606
 30
0.0000000001127424
 11
2632.653426747117
 21
403.5094308796024
 31
0.0000000001127424
  0
ARC
  5
1B6E4
330
18
100
AcDbEntity
  8
01
100
AcDbCircle
 10
2584.653426747113
 20
402.509430879606
 30
0.0000000001127424
 40
1.0
100
AcDbArc
 50
90.0
 51
180.0000000000261
  0
LINE
  5
1B6E5
330
18
100
AcDbEntity
  8
01
100
AcDbLine
 10
2633.653426747117
 20
395.0094308796038
 30
0.0000000001127424
 11
2633.653426747117
 21
402.5094308796024
 31
0.0000000001127424
  0
ARC
  5
1B6E6
330
18
100
AcDbEntity
  8
01
100
AcDbCircle
 10
2632.653426747117
 20
402.5094308796024
 30
0.0000000001127424
 40
1.0
100
AcDbArc
 50
0.0
 51
90.0
  0
LINE
  5
1B6E7
330
18
100
AcDbEntity
  8
01
100
AcDbLine
 10
2583.653426747117
 20
395.009430879606
 30
0.0000000001127424
 11
2583.653426747113
 21
402.5094308796056
 31
0.0000000001127424
  0
LINE
  5
1B6E9
330
18
100
AcDbEntity
  8
01
  6
BYBLOCK
100
AcDbLine
 10
2559.153426747117
 20
190.9094308806339
 30
0.0000000001127424
 11
2559.153426747117
 21
61.10943088063391
 31
0.0000000001127424
  0
LINE
  5
1B6EA
330
18
100
AcDbEntity
  8
01
  6
BYBLOCK
100
AcDbLine
 10
2559.153426747117
 20
62.00943088063377
 30
0.0000000001127424
 11
2561.653426747117
 21
62.00943088063377
 31
0.0000000001127424
  0
LINE
  5
1B6EB
330
18
100
AcDbEntity
  8
01
  6
BYBLOCK
100
AcDbLine
 10
2561.653426747117
 20
62.00943088063377
 30
0.0000000001127424
 11
2561.653426747117
 21
78.51237460578614
 31
0.0000000001127424
  0
LINE
  5
1B6EC
330
18
100
AcDbEntity
  8
01
  6
BYBLOCK
100
AcDbLine
 10
2557.653426747117
 20
190.9094308806339
 30
0.0000000001127424
 11
2557.653426747117
 21
61.10943088063391
 31
0.0000000001127424
  0
LINE
  5
1B6ED
330
18
100
AcDbEntity
  8
01
  6
BYBLOCK
100
AcDbLine
 10
2557.653426747117
 20
61.10943088063391
 30
0.0000000001127424
 11
2559.153426747117
 21
61.10943088063391
 31
0.0000000001127424
  0
LINE
  5
1B6EE
330
18
100
AcDbEntity
  8
01
  6
BYBLOCK
100
AcDbLine
 10
2559.153426747117
 20
190.0094308806338
 30
0.0000000001127424
 11
2561.653426747117
 21
190.0094308806338
 31
0.0000000001127424
  0
LINE
  5
1B6EF
330
18
100
AcDbEntity
  8
01
  6
BYBLOCK
100
AcDbLine
 10
2557.653426747117
 20
190.9094308806339
 30
0.0000000001127424
 11
2559.153426747117
 21
190.9094308806339
 31
0.0000000001127424
  0
LINE
  5
1B6F0
330
18
100
AcDbEntity
  8
01
  6
BYBLOCK
100
AcDbLine
 10
2559.153426747117
 20
166.0094308806338
 30
0.0000000001127424
 11
2560.353426747117
 21
166.0094308806338
 31
0.0000000001127424
  0
LINE
  5
1B6F1
330
18
100
AcDbEntity
  8
01
  6
BYBLOCK
100
AcDbLine
 10
2560.353426747117
 20
171.709430880634
 30
0.0000000001127424
 11
2560.353426747117
 21
80.30943088063395
 31
0.0000000001127424
  0
LINE
  5
1B6F2
330
18
100
AcDbEntity
  8
01
  6
BYBLOCK
100
AcDbLine
 10
2560.453426747117
 20
62.00943088063377
 30
0.0000000001127424
 11
2560.453426747117
 21
78.60943088063391
 31
0.0000000001127424
  0
LINE
  5
1B6F3
330
18
100
AcDbEntity
  8
01
  6
BYBLOCK
100
AcDbLine
 10
2560.453426747117
 20
78.60943088063391
 30
0.0000000001127424
 11
2559.504898609693
 21
79.55795901805777
 31
0.0000000001127424
  0
LINE
  5
1B6F4
330
18
100
AcDbEntity
  8
01
  6
BYBLOCK
100
AcDbLine
 10
2561.30195488454
 20
79.36090274321009
 30
0.0000000001127424
 11
2560.353426747117
 21
80.30943088063395
 31
0.0000000001127424
  0
ARC
  5
1B6F5
330
18
100
AcDbEntity
  8
01
  6
BYBLOCK
100
AcDbCircle
 10
2560.453426747117
 20
78.51237460578614
 30
0.0000000001127424
 40
1.2
100
AcDbArc
 50
0.0
 51
45.00000000004606
  0
ARC
  5
1B6F6
330
18
100
AcDbEntity
  8
01
  6
BYBLOCK
100
AcDbCircle
 10
2560.353426747117
 20
80.40648715548173
 30
0.0000000001127424
 40
1.2
100
AcDbArc
 50
180.0
 51
225.000000000046
  0
LINE
  5
1B6F7
330
18
100
AcDbEntity
  8
01
  6
BYBLOCK
100
AcDbLine
 10
2561.653426747117
 20
190.0094308806338
 30
0.0000000001127424
 11
2561.653426747117
 21
173.5064871554816
 31
0.0000000001127424
  0
LINE
  5
1B6F8
330
18
100
AcDbEntity
  8
01
  6
BYBLOCK
100
AcDbLine
 10
2560.453426747117
 20
190.0094308806338
 30
0.0000000001127424
 11
2560.453426747117
 21
173.4094308806339
 31
0.0000000001127424
  0
LINE
  5
1B6F9
330
18
100
AcDbEntity
  8
01
  6
BYBLOCK
100
AcDbLine
 10
2560.453426747117
 20
173.4094308806339
 30
0.0000000001127424
 11
2559.504898609693
 21
172.46090274321
 31
0.0000000001127424
  0
LINE
  5
1B6FA
330
18
100
AcDbEntity
  8
01
  6
BYBLOCK
100
AcDbLine
 10
2561.30195488454
 20
172.6579590180577
 30
0.0000000001127424
 11
2560.353426747117
 21
171.7094308806338
 31
0.0000000001127424
  0
ARC
  5
1B6FB
330
18
100
AcDbEntity
  8
01
  6
BYBLOCK
100
AcDbCircle
 10
2560.453426747117
 20
173.5064871554816
 30
0.0000000001127424
 40
1.2
100
AcDbArc
 50
314.999999999954
 51
0.0
  0
ARC
  5
1B6FC
330
18
100
AcDbEntity
  8
01
  6
BYBLOCK
100
AcDbCircle
 10
2560.353426747117
 20
171.612374605786
 30
0.0000000001127424
 40
1.2
100
AcDbArc
 50
134.9999999999539
 51
180.0
  0
CIRCLE
  5
1B6FD
330
18
100
AcDbEntity
  8
01
  6
BYBLOCK
100
AcDbCircle
 10
2608.653426747117
 20
155.0094308806338
 30
0.0000000001127424
 40
4.75
  0
LINE
  5
1B6FE
330
18
100
AcDbEntity
  8
01
  6
BYBLOCK
100
AcDbLine
 10
2560.353426747117
 20
89.00943088063354
 30
0.0000000001127424
 11
2589.444054034818
 21
89.00943088063377
 31
0.0000000001127424
  0
ARC
  5
1B6FF
330
18
100
AcDbEntity
  8
01
  6
BYBLOCK
100
AcDbCircle
 10
2560.754310929177
 20
378.570681422605
 30
0.0000000001127424
 40
1.6
100
AcDbArc
 50
115.9444797720191
 51
180.0
  0
ARC
  5
1B700
330
18
100
AcDbEntity
  8
01
  6
BYBLOCK
100
AcDbCircle
 10
2560.754310929177
 20
371.4481803366052
 30
0.0000000001127424
 40
1.6
100
AcDbArc
 50
180.0
 51
244.0555202279809
  0
ARC
  5
1B701
330
18
100
AcDbEntity
  8
01
  6
BYBLOCK
100
AcDbCircle
 10
2560.054310929177
 20
370.1706814226054
 30
0.0000000001127424
 40
1.6
100
AcDbArc
 50
0.0
 51
64.05552022798086
  0
ARC
  5
1B702
330
18
100
AcDbEntity
  8
01
  6
BYBLOCK
100
AcDbCircle
 10
2560.054310929177
 20
379.8481803366049
 30
0.0000000001127424
 40
1.6
100
AcDbArc
 50
295.9444797720191
 51
0.0
  0
LINE
  5
1B703
330
18
100
AcDbEntity
  8
01
  6
BYBLOCK
100
AcDbLine
 10
2561.654310929177
 20
379.8481803366049
 30
0.0000000001127424
 11
2561.654310929177
 21
387.209430879605
 31
0.0000000001127424
  0
LINE
  5
1B704
330
18
100
AcDbEntity
  8
01
  6
BYBLOCK
100
AcDbLine
 10
2560.754310929177
 20
371.609430879605
 30
0.0000000001127424
 11
2560.754310929177
 21
378.4094308796052
 31
0.0000000001127424
  0
LINE
  5
1B705
330
18
100
AcDbEntity
  8
01
  6
BYBLOCK
100
AcDbLine
 10
2561.654310929177
 20
363.0094308796051
 30
0.0000000001127424
 11
2561.654310929177
 21
370.1706814226054
 31
0.0000000001127424
  0
LINE
  5
1B706
330
18
100
AcDbEntity
  8
01
  6
BYBLOCK
100
AcDbLine
 10
2560.054310929177
 20
380.0094308796051
 30
0.0000000001127424
 11
2560.054310929178
 21
387.209430879605
 31
0.0000000001127424
  0
LINE
  5
1B707
330
18
100
AcDbEntity
  8
01
  6
BYBLOCK
100
AcDbLine
 10
2560.054310929177
 20
370.0094308796051
 30
0.0000000001127424
 11
2560.054310929177
 21
362.9094308796052
 31
0.0000000001127424
  0
ARC
  5
1B708
330
18
100
AcDbEntity
  8
01
  6
BYBLOCK
100
AcDbCircle
 10
2625.054310929177
 20
382.9094308796052
 30
0.0000000001127424
 40
1.6
100
AcDbArc
 50
0.0
 51
90.0
  0
LINE
  5
1B709
330
18
100
AcDbEntity
  8
01
  6
BYBLOCK
100
AcDbLine
 10
2559.154310929177
 20
387.4094308796052
 30
0.0000000001127424
 11
2559.154310929177
 21
362.6094308796055
 31
0.0000000001127424
  0
LINE
  5
1B70A
330
18
100
AcDbEntity
  8
01
  6
BYBLOCK
100
AcDbLine
 10
2625.054310929177
 20
384.5094308796051
 30
0.0000000001127424
 11
2561.654310929177
 21
384.5094308796051
 31
0.0000000001127424
  0
LINE
  5
1B70B
330
18
100
AcDbEntity
  8
01
  6
BYBLOCK
100
AcDbLine
 10
2625.054310929177
 20
367.3094308796053
 30
0.0000000001127424
 11
2625.054310929177
 21
384.5094308796051
 31
0.0000000001127424
  0
LINE
  5
1B70C
330
18
100
AcDbEntity
  8
01
  6
BYBLOCK
100
AcDbLine
 10
2626.654310929177
 20
365.709430879605
 30
0.0000000001127424
 11
2626.654310929177
 21
382.9094308796052
 31
0.0000000001127424
  0
LINE
  5
1B70D
330
18
100
AcDbEntity
  8
01
  6
BYBLOCK
100
AcDbLine
 10
2559.154310929177
 20
387.209430879605
 30
0.0000000001127424
 11
2561.654310929177
 21
387.209430879605
 31
0.0000000001127424
  0
LINE
  5
1B70E
330
18
100
AcDbEntity
  8
01
  6
BYBLOCK
100
AcDbLine
 10
2561.654310929177
 20
363.0094308796051
 30
0.0000000001127424
 11
2560.054310929177
 21
363.0094308796051
 31
0.0000000001127424
  0
LINE
  5
1B70F
330
18
100
AcDbEntity
  8
01
  6
BYBLOCK
100
AcDbLine
 10
2560.054310929177
 20
362.9094308796052
 30
0.0000000001127424
 11
2559.154310929177
 21
362.9094308796052
 31
0.0000000001127424
  0
ARC
  5
1B710
330
18
100
AcDbEntity
  8
01
  6
BYBLOCK
100
AcDbCircle
 10
2556.354905856576
 20
369.3094308796058
 30
0.0000000001127424
 40
0.3000000000000051
100
AcDbArc
 50
232.8678058729389
 51
270.0
  0
LINE
  5
1B711
330
18
100
AcDbEntity
  8
01
  6
BYBLOCK
100
AcDbLine
 10
2557.154310929177
 20
369.009430879606
 30
0.0000000001127424
 11
2556.354905856576
 21
369.009430879606
 31
0.0000000001127424
  0
LINE
  5
1B712
330
18
100
AcDbEntity
  8
01
  6
BYBLOCK
100
AcDbLine
 10
2546.754310929177
 20
378.68241974581
 30
0.0000000001127424
 11
2546.754310929177
 21
378.5117976902611
 31
0.0000000001127424
  0
ARC
  5
1B713
330
18
100
AcDbEntity
  8
01
  6
BYBLOCK
100
AcDbCircle
 10
2547.054310929177
 20
378.5117976902611
 30
0.0000000001127424
 40
0.3
100
AcDbArc
 50
180.0
 51
217.7405295629562
  0
ARC
  5
1B714
330
18
100
AcDbEntity
  8
01
  6
BYBLOCK
100
AcDbCircle
 10
2586.356611528461
 20
408.9325006342015
 30
0.0000000001127424
 40
50.00000000000002
100
AcDbArc
 50
217.7405295629745
 51
232.8678058729936
  0
LINE
  5
1B715
330
18
100
AcDbEntity
  8
01
  6
BYBLOCK
100
AcDbLine
 10
2546.554310929177
 20
379.8094308796053
 30
0.0000000001127424
 11
2546.554310929177
 21
380.5094308796051
 31
0.0000000001127424
  0
ARC
  5
1B716
330
18
100
AcDbEntity
  8
01
  6
BYBLOCK
100
AcDbCircle
 10
2547.054310929177
 20
380.5094308796051
 30
0.0000000001127424
 40
0.5000000000000142
100
AcDbArc
 50
90.0
 51
180.0
  0
LINE
  5
1B717
330
18
100
AcDbEntity
  8
01
  6
BYBLOCK
100
AcDbLine
 10
2557.154310929177
 20
381.0094308796051
 30
0.0000000001127424
 11
2547.054310929177
 21
381.0094308796051
 31
0.0000000001127424
  0
LINE
  5
1B718
330
18
100
AcDbEntity
  8
01
  6
BYBLOCK
100
AcDbLine
 10
2546.554310929177
 20
379.4307512231649
 30
0.0000000001127424
 11
2546.554310929177
 21
379.8094308796053
 31
0.0000000001127424
  0
SPLINE
  5
1B719
330
18
100
AcDbEntity
  8
01
  6
BYBLOCK
100
AcDbSpline
210
0.0
220
0.0
230
1.0
 70
     8
 71
     3
 72
     8
 73
     4
 74
     0
 42
0.0000000001
 43
0.0000000001
 40
0.0
 40
0.0
 40
0.0
 40
0.0
 40
1.0
 40
1.0
 40
1.0
 40
1.0
 10
2546.580043470442
 20
379.1541007937158
 30
0.0000000001127424
 10
2546.56257558433
 20
379.2471869895962
 30
0.0000000001127424
 10
2546.554310929177
 20
379.3404530004877
 30
0.0000000001127424
 10
2546.554310929177
 20
379.4307512231653
 30
0.0000000001127424
  0
ARC
  5
1B71A
330
18
100
AcDbEntity
  8
01
  6
BYBLOCK
100
AcDbCircle
 10
2548.054310929177
 20
379.4307512231649
 30
0.0000000001127424
 40
1.499999999999998
100
AcDbArc
 50
190.628112987605
 51
225.000000000046
  0
LINE
  5
1B71B
330
18
100
AcDbEntity
  8
01
  6
BYBLOCK
100
AcDbLine
 10
2557.654310929177
 20
381.8594308796055
 30
0.0000000001127424
 11
2557.154310929177
 21
381.8594308796055
 31
0.0000000001127424
  0
LINE
  5
1B71C
330
18
100
AcDbEntity
  8
01
  6
BYBLOCK
100
AcDbLine
 10
2557.154310929177
 20
368.1594308796052
 30
0.0000000001127424
 11
2557.654310929177
 21
368.1594308796052
 31
0.0000000001127424
  0
LINE
  5
1B71D
330
18
100
AcDbEntity
  8
01
  6
BYBLOCK
100
AcDbLine
 10
2557.154310929177
 20
368.1594308796052
 30
0.0000000001127424
 11
2557.154310929177
 21
381.8594308796055
 31
0.0000000001127424
  0
LINE
  5
1B71E
330
18
100
AcDbEntity
  8
01
  6
BYBLOCK
100
AcDbLine
 10
2557.654310929177
 20
387.4094308796052
 30
0.0000000001127424
 11
2559.154310929177
 21
387.4094308796052
 31
0.0000000001127424
  0
LINE
  5
1B71F
330
18
100
AcDbEntity
  8
01
  6
BYBLOCK
100
AcDbLine
 10
2557.654310929177
 20
362.6094308796055
 30
0.0000000001127424
 11
2559.154310929177
 21
362.6094308796055
 31
0.0000000001127424
  0
LINE
  5
1B720
330
18
100
AcDbEntity
  8
01
  6
BYBLOCK
100
AcDbLine
 10
2557.654310929177
 20
362.6094308796055
 30
0.0000000001127424
 11
2557.654310929177
 21
387.4094308796052
 31
0.0000000001127424
  0
LINE
  5
1B721
330
18
100
AcDbEntity
  8
01
  6
BYBLOCK
100
AcDbLine
 10
2626.654310929177
 20
367.3094308796053
 30
0.0000000001127424
 11
2561.654310929177
 21
367.3094308796053
 31
0.0000000001127424
  0
LINE
  5
1B722
330
18
100
AcDbEntity
  8
01
  6
BYBLOCK
100
AcDbLine
 10
2626.654310929177
 20
365.709430879605
 30
0.0000000001127424
 11
2576.254310929177
 21
365.709430879605
 31
0.0000000001127424
  0
LINE
  5
1B723
330
18
100
AcDbEntity
  8
01
  6
BYBLOCK
100
AcDbLine
 10
2579.09156922938
 20
365.709430879605
 30
0.0000000001127424
 11
2561.654310929177
 21
365.709430879605
 31
0.0000000001127424
  0
LINE
  5
1B724
330
18
100
AcDbEntity
  8
01
  6
BYBLOCK
100
AcDbLine
 10
2556.20786431977
 20
369.1558774890118
 30
0.0000000001127424
 11
2546.993650757397
 21
378.3700910513849
 31
0.0000000001127424
  0
ARC
  5
1B725
330
18
100
AcDbEntity
  8
01
  6
BYBLOCK
100
AcDbCircle
 10
2556.561417710363
 20
369.5094308796051
 30
0.0000000001127424
 40
0.5
100
AcDbArc
 50
224.9999999999908
 51
270.0
  0
LINE
  5
1B726
330
18
100
AcDbEntity
  8
01
  6
BYBLOCK
100
AcDbLine
 10
2557.154310929177
 20
369.0094308796051
 30
0.0000000001127424
 11
2556.561417710363
 21
369.0094308796051
 31
0.0000000001127424
  0
LINE
  5
1B728
330
18
100
AcDbEntity
  8
01
  6
BYBLOCK
100
AcDbLine
 10
2605.047182163065
 20
155.0094308806338
 30
0.0000000001127424
 11
2608.653426747117
 21
158.6156754646852
 31
0.0000000001127424
  0
LINE
  5
1B729
330
18
100
AcDbEntity
  8
01
  6
BYBLOCK
100
AcDbLine
 10
2612.259671331169
 20
155.0094308806338
 30
0.0000000001127424
 11
2608.653426747117
 21
158.6156754646852
 31
0.0000000001127424
  0
LINE
  5
1B72A
330
18
100
AcDbEntity
  8
01
  6
BYBLOCK
100
AcDbLine
 10
2605.047182163065
 20
155.0094308806338
 30
0.0000000001127424
 11
2608.653426747117
 21
151.4031862965826
 31
0.0000000001127424
  0
LINE
  5
1B72B
330
18
100
AcDbEntity
  8
01
  6
BYBLOCK
100
AcDbLine
 10
2612.259671331169
 20
155.0094308806338
 30
0.0000000001127424
 11
2608.653426747117
 21
151.4031862965826
 31
0.0000000001127424
  0
LINE
  5
1B72C
330
18
100
AcDbEntity
  8
01
  6
BYBLOCK
100
AcDbLine
 10
2546.653426747117
 20
136.0411011476499
 30
0.0000000001127424
 11
2546.653426747117
 21
117.977760613644
 31
0.0000000001127424
  0
LINE
  5
1B72D
330
18
100
AcDbEntity
  8
01
  6
BYBLOCK
100
AcDbLine
 10
2550.94631996593
 20
137.009430880647
 30
0.0000000001127424
 11
2557.653426747117
 21
137.009430880647
 31
0.0000000001127424
  0
LINE
  5
1B72E
330
18
100
AcDbEntity
  8
01
  6
BYBLOCK
100
AcDbLine
 10
2550.94631996593
 20
117.009430880647
 30
0.0000000001127424
 11
2557.653426747117
 21
117.009430880647
 31
0.0000000001127424
  0
LINE
  5
1B72F
330
18
100
AcDbEntity
  8
01
  6
BYBLOCK
100
AcDbLine
 10
2556.446319965931
 20
132.259430880647
 30
0.0000000001127424
 11
2556.44631996593
 21
121.759430880647
 31
0.0000000001127424
  0
ARC
  5
1B730
330
18
100
AcDbEntity
  8
01
  6
BYBLOCK
100
AcDbCircle
 10
2550.94631996593
 20
127.009430880647
 30
0.0000000001127424
 40
10.00000000000009
100
AcDbArc
 50
53.13010235412992
 51
115.4224671781395
  0
ARC
  5
1B731
330
18
100
AcDbEntity
  8
01
  6
BYBLOCK
100
AcDbCircle
 10
2550.94631996593
 20
127.0094308806472
 30
0.0000000001127424
 40
10.00000000000009
100
AcDbArc
 50
244.5775328218606
 51
306.8698976458701
  0
LINE
  5
1B732
330
18
100
AcDbEntity
  8
01
  6
BYBLOCK
100
AcDbLine
 10
2556.946319965931
 20
135.009430880647
 30
0.0000000001127424
 11
2556.946319965931
 21
119.009430880647
 31
0.0000000001127424
  0
LINE
  5
1B733
330
18
100
AcDbEntity
  8
01
  6
BYBLOCK
100
AcDbLine
 10
2546.653426747117
 20
132.259430880647
 30
0.0000000001127424
 11
2556.446319965931
 21
132.259430880647
 31
0.0000000001127424
  0
LINE
  5
1B734
330
18
100
AcDbEntity
  8
01
  6
BYBLOCK
100
AcDbLine
 10
2546.653426747117
 20
121.759430880647
 30
0.0000000001127424
 11
2556.446319965931
 21
121.759430880647
 31
0.0000000001127424
  0
LINE
  5
1B735
330
18
100
AcDbEntity
  8
01
  6
BYBLOCK
100
AcDbLine
 10
2432.253543086862
 20
190.9094308806332
 30
0.0000000001127424
 11
2445.053543086861
 21
190.9094308806332
 31
0.0000000001127424
  0
LINE
  5
1B736
330
18
100
AcDbEntity
  8
01
  6
BYBLOCK
100
AcDbLine
 10
2432.253543086862
 20
61.10943088063323
 30
0.0000000001127424
 11
2445.053543086861
 21
61.10943088063323
 31
0.0000000001127424
  0
LINE
  5
1B737
330
18
100
AcDbEntity
  8
01
  6
BYBLOCK
100
AcDbLine
 10
2426.253543086862
 20
184.9094308806332
 30
0.0000000001127424
 11
2426.253543086862
 21
67.10943088063323
 31
0.0000000001127424
  0
LINE
  5
1B738
330
18
100
AcDbEntity
  8
01
  6
BYBLOCK
100
AcDbLine
 10
2451.053543086861
 20
184.9094308806332
 30
0.0000000001127424
 11
2451.053543086861
 21
67.10943088063323
 31
0.0000000001127424
  0
ARC
  5
1B739
330
18
100
AcDbEntity
  8
01
  6
BYBLOCK
100
AcDbCircle
 10
2432.253543086862
 20
67.10943088063323
 30
0.0000000001127424
 40
6.0
100
AcDbArc
 50
180.0
 51
270.0
  0
ARC
  5
1B73A
330
18
100
AcDbEntity
  8
01
  6
BYBLOCK
100
AcDbCircle
 10
2445.053543086861
 20
67.10943088063323
 30
0.0000000001127424
 40
6.0
100
AcDbArc
 50
270.0
 51
0.0
  0
ARC
  5
1B73B
330
18
100
AcDbEntity
  8
01
  6
BYBLOCK
100
AcDbCircle
 10
2432.253543086862
 20
184.9094308806332
 30
0.0000000001127424
 40
6.0
100
AcDbArc
 50
90.0
 51
180.0
  0
ARC
  5
1B73C
330
18
100
AcDbEntity
  8
01
  6
BYBLOCK
100
AcDbCircle
 10
2445.053543086861
 20
184.9094308806332
 30
0.0000000001127424
 40
6.0
100
AcDbArc
 50
0.0
 51
90.0
  0
CIRCLE
  5
1B73D
330
18
100
AcDbEntity
  8
01
  6
BYBLOCK
100
AcDbCircle
 10
2438.653543086862
 20
69.00943088063332
 30
0.0000000001127424
 40
2.75
  0
CIRCLE
  5
1B73E
330
18
100
AcDbEntity
  8
01
  6
BYBLOCK
100
AcDbCircle
 10
2438.653543086862
 20
69.00943088063332
 30
0.0000000001127424
 40
4.25
  0
CIRCLE
  5
1B73F
330
18
100
AcDbEntity
  8
01
  6
BYBLOCK
100
AcDbCircle
 10
2438.653543086862
 20
183.0094308806331
 30
0.0000000001127424
 40
2.75
  0
CIRCLE
  5
1B740
330
18
100
AcDbEntity
  8
01
  6
BYBLOCK
100
AcDbCircle
 10
2438.653543086862
 20
183.0094308806331
 30
0.0000000001127424
 40
4.25
  0
LINE
  5
1B741
330
18
100
AcDbEntity
  8
1CENTER
100
AcDbLine
 10
2444.528568494768
 20
69.00943088063309
 30
0.0000000001127424
 11
2432.778517678956
 21
69.00943088063309
 31
0.0000000001127424
  0
LINE
  5
1B742
330
18
100
AcDbEntity
  8
1CENTER
100
AcDbLine
 10
2438.653543086862
 20
74.88445628853947
 30
0.0000000001127424
 11
2438.653543086862
 21
63.13440547272694
 31
0.0000000001127424
  0
LINE
  5
1B743
330
18
100
AcDbEntity
  8
1CENTER
100
AcDbLine
 10
2444.528568494768
 20
183.0094308806331
 30
0.0000000001127424
 11
2432.778517678956
 21
183.0094308806331
 31
0.0000000001127424
  0
LINE
  5
1B744
330
18
100
AcDbEntity
  8
1CENTER
100
AcDbLine
 10
2438.653543086862
 20
188.8844562885395
 30
0.0000000001127424
 11
2438.653543086862
 21
177.1344054727269
 31
0.0000000001127424
  0
ARC
  5
1B745
330
18
100
AcDbEntity
  8
01
  6
BYBLOCK
100
AcDbCircle
 10
2438.653543086862
 20
127.0094308806333
 30
0.0000000001127424
 40
10.15
100
AcDbArc
 50
231.9925780701392
 51
308.0074219298607
  0
LINE
  5
1B746
330
18
100
AcDbEntity
  8
01
  6
BYBLOCK
100
AcDbLine
 10
2432.403543086862
 20
135.0069304898861
 30
0.0000000001127424
 11
2432.403543086862
 21
119.0119312713805
 31
0.0000000001127424
  0
LINE
  5
1B747
330
18
100
AcDbEntity
  8
01
  6
BYBLOCK
100
AcDbLine
 10
2444.903543086862
 20
135.0069304898861
 30
0.0000000001127424
 11
2444.903543086862
 21
119.0119312713805
 31
0.0000000001127424
  0
ARC
  5
1B748
330
18
100
AcDbEntity
  8
01
  6
BYBLOCK
100
AcDbCircle
 10
2438.653543086862
 20
127.0094308806333
 30
0.0000000001127424
 40
10.15
100
AcDbArc
 50
51.99257807013929
 51
128.0074219298607
  0
LINE
  5
1B749
330
18
100
AcDbEntity
  8
01
  6
BYBLOCK
100
AcDbLine
 10
2434.153543086862
 20
132.2594308806333
 30
0.0000000001127424
 11
2434.153543086862
 21
121.7594308806333
 31
0.0000000001127424
  0
LINE
  5
1B74A
330
18
100
AcDbEntity
  8
01
  6
BYBLOCK
100
AcDbLine
 10
2444.153543086862
 20
132.2594308806333
 30
0.0000000001127424
 11
2444.153543086862
 21
121.7594308806333
 31
0.0000000001127424
  0
LINE
  5
1B74B
330
18
100
AcDbEntity
  8
01
  6
BYBLOCK
100
AcDbLine
 10
2434.653543086862
 20
136.3380159823516
 30
0.0000000001127424
 11
2434.653543086862
 21
132.2594308806331
 31
0.0000000001127424
  0
LINE
  5
1B74C
330
18
100
AcDbEntity
  8
01
  6
BYBLOCK
100
AcDbLine
 10
2433.153543086862
 20
132.2594308806331
 30
0.0000000001127424
 11
2433.153543086862
 21
121.7594308806333
 31
0.0000000001127424
  0
LINE
  5
1B74D
330
18
100
AcDbEntity
  8
01
  6
BYBLOCK
100
AcDbLine
 10
2434.653543086862
 20
121.7594308806333
 30
0.0000000001127424
 11
2434.653543086862
 21
117.680845778915
 31
0.0000000001127424
  0
LINE
  5
1B74E
330
18
100
AcDbEntity
  8
01
  6
BYBLOCK
100
AcDbLine
 10
2433.153543086862
 20
132.2594308806333
 30
0.0000000001127424
 11
2444.153543086862
 21
132.2594308806333
 31
0.0000000001127424
  0
LINE
  5
1B74F
330
18
100
AcDbEntity
  8
01
  6
BYBLOCK
100
AcDbLine
 10
2433.153543086862
 20
121.7594308806333
 30
0.0000000001127424
 11
2444.153543086862
 21
121.7594308806333
 31
0.0000000001127424
  0
LINE
  5
1B751
330
18
100
AcDbEntity
  8
01
100
AcDbLine
 10
2418.653659426604
 20
225.0094308806338
 30
0.0000000001127424
 11
2418.653659426604
 21
35.00943088063332
 31
0.0000000001127424
  0
LINE
  5
1B752
330
18
100
AcDbEntity
  8
01
100
AcDbLine
 10
2418.653659426604
 20
130.0094308806333
 30
0.0000000001127424
 11
2418.653659426604
 21
80.00943088063332
 31
0.0000000001127424
  0
LINE
  5
1B753
330
18
100
AcDbEntity
  8
01
100
AcDbLine
 10
2410.153659426604
 20
81.00943088063332
 30
0.0000000001127424
 11
2410.153659426604
 21
129.0094308806333
 31
0.0000000001127424
  0
LINE
  5
1B754
330
18
100
AcDbEntity
  8
01
100
AcDbLine
 10
2418.653659426604
 20
80.00943088063332
 30
0.0000000001127424
 11
2411.153659426604
 21
80.00943088063332
 31
0.0000000001127424
  0
ARC
  5
1B755
330
18
100
AcDbEntity
  8
01
100
AcDbCircle
 10
2411.153659426604
 20
81.00943088063332
 30
0.0000000001127424
 40
1.0
100
AcDbArc
 50
180.0
 51
270.0
  0
LINE
  5
1B756
330
18
100
AcDbEntity
  8
01
100
AcDbLine
 10
2418.653659426604
 20
130.0094308806333
 30
0.0000000001127424
 11
2411.153659426604
 21
130.0094308806333
 31
0.0000000001127424
  0
ARC
  5
1B757
330
18
100
AcDbEntity
  8
01
100
AcDbCircle
 10
2411.153659426604
 20
129.0094308806333
 30
0.0000000001127424
 40
1.0
100
AcDbArc
 50
90.0
 51
180.0
  0
LINE
  5
1B758
330
18
100
AcDbEntity
  8
01
100
AcDbLine
 10
2420.781944809037
 20
105.0094308806333
 30
0.0000000001127424
 11
2398.153659426604
 21
105.0094308806333
 31
0.0000000001127424
  0
POINT
  5
1B759
330
18
100
AcDbEntity
  8
01
100
AcDbPoint
 10
2404.153543086862
 20
105.0094308806333
 30
0.0000000001127424
 50
180.0
  0
CIRCLE
  5
1B75A
330
18
100
AcDbEntity
  8
01
100
AcDbCircle
 10
2404.153543086862
 20
105.0094308806333
 30
0.0000000001127424
 40
2.5
  0
CIRCLE
  5
1B75B
330
18
100
AcDbEntity
  8
01
100
AcDbCircle
 10
2404.153543086862
 20
105.0094308806333
 30
0.0000000001127424
 40
3.0
  0
LINE
  5
1B75D
330
18
100
AcDbEntity
  8
1CENTER
100
AcDbLine
 10
2404.153543086862
 20
99.00943088063332
 30
0.0000000001127424
 11
2404.153543086862
 21
111.0094308806333
 31
0.0000000001127424
  0
LINE
  5
1B75E
330
18
100
AcDbEntity
  8
01
100
AcDbLine
 10
2552.653426747404
 20
69.00943088092254
 30
0.0000000001127424
 11
2566.653426747404
 21
69.00943088092254
 31
0.0000000001127424
  0
LINE
  5
1B75F
330
18
100
AcDbEntity
  8
01
100
AcDbLine
 10
2619.965315014658
 20
155.0094308806338
 30
0.0000000001127424
 11
2597.341538479574
 21
155.0094308806338
 31
0.0000000001127424
  0
LINE
  5
1B760
330
18
100
AcDbEntity
  8
01
100
AcDbLine
 10
2608.653426747117
 20
166.3213191481755
 30
0.0000000001127424
 11
2608.653426747117
 21
143.6975426130921
 31
0.0000000001127424
  0
LINE
  5
1B761
330
18
100
AcDbEntity
  8
01
  6
BYBLOCK
100
AcDbLine
 10
2330.653659426608
 20
136.0411011476499
 30
0.0000000001127424
 11
2330.653659426608
 21
117.977760613644
 31
0.0000000001127424
  0
LINE
  5
1B762
330
18
100
AcDbEntity
  8
01
  6
BYBLOCK
100
AcDbLine
 10
2326.360766207795
 20
137.009430880647
 30
0.0000000001127424
 11
2319.653659426608
 21
137.009430880647
 31
0.0000000001127424
  0
LINE
  5
1B763
330
18
100
AcDbEntity
  8
01
  6
BYBLOCK
100
AcDbLine
 10
2326.360766207795
 20
117.009430880647
 30
0.0000000001127424
 11
2319.653659426608
 21
117.009430880647
 31
0.0000000001127424
  0
ARC
  5
1B764
330
18
100
AcDbEntity
  8
01
  6
BYBLOCK
100
AcDbCircle
 10
2326.360766207795
 20
127.009430880647
 30
0.0000000001127424
 40
10.00000000000009
100
AcDbArc
 50
64.57753282186054
 51
90.0
  0
LINE
  5
1B765
330
18
100
AcDbEntity
  8
01
  6
CONTINUOUS
100
AcDbLine
 10
2330.153659426608
 20
118.6946366878162
 30
0.0000000001127424
 11
2319.653659426608
 21
118.6946366878162
 31
0.0000000001127424
  0
ARC
  5
1B766
330
18
100
AcDbEntity
  8
01
  6
CONTINUOUS
100
AcDbCircle
 10
2330.192239673522
 20
119.156775918623
 30
0.0000000001127424
 40
0.4637468103423796
100
AcDbArc
 50
265.2279066161988
 51
354.2577450626191
  0
LINE
  5
1B767
330
18
100
AcDbEntity
  8
01
  6
CONTINUOUS
100
AcDbLine
 10
2330.653659426608
 20
134.492745654195
 30
0.0000000001127424
 11
2330.653659426608
 21
119.5261161070991
 31
0.0000000001127424
  0
ARC
  5
1B768
330
18
100
AcDbEntity
  8
01
  6
CONTINUOUS
100
AcDbCircle
 10
2330.192239673522
 20
134.8620858426714
 30
0.0000000001127424
 40
0.4637468103423387
100
AcDbArc
 50
5.742254937380988
 51
94.77209338380122
  0
ARC
  5
1B769
330
18
100
AcDbEntity
  8
01
  6
BYBLOCK
100
AcDbCircle
 10
2326.360766207795
 20
127.0094308806472
 30
0.0000000001127424
 40
10.00000000000009
100
AcDbArc
 50
270.0
 51
295.4224671781395
  0
LINE
  5
1B76A
330
18
100
AcDbEntity
  8
01
  6
CONTINUOUS
100
AcDbLine
 10
2319.653659426608
 20
135.3242250734781
 30
0.0000000001127424
 11
2330.153659426608
 21
135.3242250734781
 31
0.0000000001127424
  0
LINE
  5
1B76B
330
18
100
AcDbEntity
  8
01
100
AcDbLine
 10
2626.653426747117
 20
122.3587824535309
 30
0.0000000001127424
 11
2626.653426747117
 21
90.20943088063382
 31
0.0000000001127424
  0
ARC
  5
1B76C
330
18
100
AcDbEntity
  8
01
100
AcDbCircle
 10
2625.653426747117
 20
90.00943088063377
 30
0.0000000001127424
 40
1.0
100
AcDbArc
 50
270.0
 51
0.0
  0
LINE
  5
1B76D
330
18
100
AcDbEntity
  8
01
100
AcDbLine
 10
2589.444054034819
 20
89.00943088063377
 30
0.0000000001127424
 11
2625.653426747117
 21
89.009430880634
 31
0.0000000001127424
  0
LINE
  5
1B76F
330
18
100
AcDbEntity
  8
01
100
AcDbLine
 10
2298.653659426608
 20
105.0094308806338
 30
0.0000000001127424
 11
2238.653659426608
 21
105.0094308806338
 31
0.0000000001127424
  0
LINE
  5
1B770
330
18
100
AcDbEntity
  8
01
100
AcDbLine
 10
2268.653659426608
 20
135.0094308806338
 30
0.0000000001127424
 11
2268.653659426608
 21
75.00943088063377
 31
0.0000000001127424
  0
LINE
  5
1B777
330
18
100
AcDbEntity
  8
01
  6
BYBLOCK
100
AcDbLine
 10
2626.653426747117
 20
151.7915498482121
 30
0.0000000001128561
 11
2626.653426747117
 21
122.3587824535309
 31
0.0000000001127424
  0
LINE
  5
1B778
330
18
100
AcDbEntity
  8
01
  6
BYBLOCK
100
AcDbLine
 10
2560.353426747117
 20
163.0094308806338
 30
0.0000000001127424
 11
2588.810323669134
 21
163.0094308806338
 31
0.0000000001128561
  0
ARC
  5
1B779
330
18
100
AcDbEntity
  8
01
  6
BYBLOCK
100
AcDbCircle
 10
2625.653426747117
 20
162.0094308806338
 30
0.0000000001127424
 40
1.0
100
AcDbArc
 50
0.0
 51
90.0
  0
LINE
  5
1B77A
330
18
100
AcDbEntity
  8
01
  6
BYBLOCK
100
AcDbLine
 10
2588.810323669134
 20
163.0094308806338
 30
0.0000000001128561
 11
2625.653426747117
 21
163.0094308806338
 31
0.0000000001127424
  0
LINE
  5
1B77B
330
18
100
AcDbEntity
  8
01
  6
BYBLOCK
100
AcDbLine
 10
2626.653426747117
 20
162.0094308806338
 30
0.0000000001127424
 11
2626.653426747117
 21
151.7915498482121
 31
0.0000000001128561
  0
LINE
  5
1B77C
330
18
100
AcDbEntity
  8
01
100
AcDbLine
 10
2324.653659426608
 20
183.0094308806338
 30
0.0000000001127424
 11
2310.653659426608
 21
183.0094308806338
 31
0.0000000001127424
  0
LINE
  5
1B77D
330
18
100
AcDbEntity
  8
01
  6
BYBLOCK
100
AcDbLine
 10
2318.153659426608
 20
190.9094308806339
 30
0.0000000001127424
 11
2318.153659426608
 21
61.10943088063391
 31
0.0000000001127424
  0
LINE
  5
1B77E
330
18
100
AcDbEntity
  8
01
  6
BYBLOCK
100
AcDbLine
 10
2318.153659426608
 20
62.00943088063377
 30
0.0000000001127424
 11
2315.653659426608
 21
62.00943088063377
 31
0.0000000001127424
  0
LINE
  5
1B77F
330
18
100
AcDbEntity
  8
01
  6
BYBLOCK
100
AcDbLine
 10
2315.653659426608
 20
62.00943088063377
 30
0.0000000001127424
 11
2315.653659426608
 21
78.51237460578614
 31
0.0000000001127424
  0
LINE
  5
1B780
330
18
100
AcDbEntity
  8
01
  6
BYBLOCK
100
AcDbLine
 10
2319.653659426608
 20
190.9094308806339
 30
0.0000000001127424
 11
2319.653659426608
 21
61.10943088063391
 31
0.0000000001127424
  0
LINE
  5
1B781
330
18
100
AcDbEntity
  8
01
  6
BYBLOCK
100
AcDbLine
 10
2319.653659426608
 20
61.10943088063391
 30
0.0000000001127424
 11
2318.153659426608
 21
61.10943088063391
 31
0.0000000001127424
  0
LINE
  5
1B782
330
18
100
AcDbEntity
  8
01
  6
BYBLOCK
100
AcDbLine
 10
2318.153659426608
 20
190.0094308806338
 30
0.0000000001127424
 11
2315.653659426608
 21
190.0094308806338
 31
0.0000000001127424
  0
LINE
  5
1B783
330
18
100
AcDbEntity
  8
01
  6
BYBLOCK
100
AcDbLine
 10
2319.653659426608
 20
190.9094308806339
 30
0.0000000001127424
 11
2318.153659426608
 21
190.9094308806339
 31
0.0000000001127424
  0
LINE
  5
1B784
330
18
100
AcDbEntity
  8
01
  6
BYBLOCK
100
AcDbLine
 10
2318.153659426608
 20
166.0094308806338
 30
0.0000000001127424
 11
2316.953659426608
 21
166.0094308806338
 31
0.0000000001127424
  0
LINE
  5
1B785
330
18
100
AcDbEntity
  8
01
  6
BYBLOCK
100
AcDbLine
 10
2316.953659426608
 20
171.709430880634
 30
0.0000000001127424
 11
2316.953659426608
 21
80.30943088063395
 31
0.0000000001127424
  0
LINE
  5
1B786
330
18
100
AcDbEntity
  8
01
  6
BYBLOCK
100
AcDbLine
 10
2316.853659426608
 20
62.00943088063377
 30
0.0000000001127424
 11
2316.853659426608
 21
78.60943088063391
 31
0.0000000001127424
  0
LINE
  5
1B787
330
18
100
AcDbEntity
  8
01
  6
BYBLOCK
100
AcDbLine
 10
2316.853659426608
 20
78.60943088063391
 30
0.0000000001127424
 11
2317.802187564032
 21
79.55795901805777
 31
0.0000000001127424
  0
LINE
  5
1B788
330
18
100
AcDbEntity
  8
01
  6
BYBLOCK
100
AcDbLine
 10
2316.005131289185
 20
79.36090274321009
 30
0.0000000001127424
 11
2316.953659426608
 21
80.30943088063395
 31
0.0000000001127424
  0
ARC
  5
1B789
330
18
100
AcDbEntity
  8
01
  6
BYBLOCK
100
AcDbCircle
 10
2316.853659426608
 20
78.51237460578614
 30
0.0000000001127424
 40
1.2
100
AcDbArc
 50
134.9999999999539
 51
180.0
  0
ARC
  5
1B78A
330
18
100
AcDbEntity
  8
01
  6
BYBLOCK
100
AcDbCircle
 10
2316.953659426608
 20
80.40648715548173
 30
0.0000000001127424
 40
1.2
100
AcDbArc
 50
314.999999999954
 51
0.0
  0
LINE
  5
1B78B
330
18
100
AcDbEntity
  8
01
  6
BYBLOCK
100
AcDbLine
 10
2315.653659426608
 20
190.0094308806338
 30
0.0000000001127424
 11
2315.653659426608
 21
173.5064871554816
 31
0.0000000001127424
  0
LINE
  5
1B78C
330
18
100
AcDbEntity
  8
01
  6
BYBLOCK
100
AcDbLine
 10
2316.853659426608
 20
190.0094308806338
 30
0.0000000001127424
 11
2316.853659426608
 21
173.4094308806339
 31
0.0000000001127424
  0
LINE
  5
1B78D
330
18
100
AcDbEntity
  8
01
  6
BYBLOCK
100
AcDbLine
 10
2316.853659426608
 20
173.4094308806339
 30
0.0000000001127424
 11
2317.802187564032
 21
172.46090274321
 31
0.0000000001127424
  0
LINE
  5
1B78E
330
18
100
AcDbEntity
  8
01
  6
BYBLOCK
100
AcDbLine
 10
2316.005131289185
 20
172.6579590180577
 30
0.0000000001127424
 11
2316.953659426608
 21
171.7094308806338
 31
0.0000000001127424
  0
ARC
  5
1B78F
330
18
100
AcDbEntity
  8
01
  6
BYBLOCK
100
AcDbCircle
 10
2316.853659426608
 20
173.5064871554816
 30
0.0000000001127424
 40
1.2
100
AcDbArc
 50
180.0
 51
225.000000000046
  0
ARC
  5
1B790
330
18
100
AcDbEntity
  8
01
  6
BYBLOCK
100
AcDbCircle
 10
2316.953659426608
 20
171.612374605786
 30
0.0000000001127424
 40
1.2
100
AcDbArc
 50
0.0
 51
45.00000000004606
  0
CIRCLE
  5
1B791
330
18
100
AcDbEntity
  8
01
  6
BYBLOCK
100
AcDbCircle
 10
2268.653659426608
 20
155.0094308806338
 30
0.0000000001127424
 40
4.749999999999998
  0
LINE
  5
1B792
330
18
100
AcDbEntity
  8
01
  6
BYBLOCK
100
AcDbLine
 10
2316.953659426608
 20
89.00943088063354
 30
0.0000000001127424
 11
2287.861934004058
 21
89.00943088063377
 31
0.0000000001127424
  0
LINE
  5
1B793
330
18
100
AcDbEntity
  8
01
  6
BYBLOCK
100
AcDbLine
 10
2272.25990401066
 20
155.0094308806338
 30
0.0000000001127424
 11
2268.653659426608
 21
158.6156754646852
 31
0.0000000001127424
  0
LINE
  5
1B794
330
18
100
AcDbEntity
  8
01
  6
BYBLOCK
100
AcDbLine
 10
2265.047414842556
 20
155.0094308806338
 30
0.0000000001127424
 11
2268.653659426608
 21
158.6156754646852
 31
0.0000000001127424
  0
LINE
  5
1B795
330
18
100
AcDbEntity
  8
01
  6
BYBLOCK
100
AcDbLine
 10
2272.25990401066
 20
155.0094308806338
 30
0.0000000001127424
 11
2268.653659426608
 21
151.4031862965826
 31
0.0000000001127424
  0
LINE
  5
1B796
330
18
100
AcDbEntity
  8
01
  6
BYBLOCK
100
AcDbLine
 10
2265.047414842556
 20
155.0094308806338
 30
0.0000000001127424
 11
2268.653659426608
 21
151.4031862965826
 31
0.0000000001127424
  0
LINE
  5
1B797
330
18
100
AcDbEntity
  8
01
  6
BYBLOCK
100
AcDbLine
 10
2326.360766207795
 20
137.009430880647
 30
0.0000000001127424
 11
2319.653659426608
 21
137.009430880647
 31
0.0000000001127424
  0
LINE
  5
1B798
330
18
100
AcDbEntity
  8
01
  6
BYBLOCK
100
AcDbLine
 10
2326.360766207795
 20
117.009430880647
 30
0.0000000001127424
 11
2319.653659426608
 21
117.009430880647
 31
0.0000000001127424
  0
LINE
  5
1B799
330
18
100
AcDbEntity
  8
01
100
AcDbLine
 10
2324.653659426321
 20
69.00943088092254
 30
0.0000000001127424
 11
2310.653659426321
 21
69.00943088092254
 31
0.0000000001127424
  0
LINE
  5
1B79A
330
18
100
AcDbEntity
  8
01
  6
BYBLOCK
100
AcDbLine
 10
2250.653659426608
 20
151.7915498482121
 30
0.0000000001128561
 11
2250.653659426607
 21
122.3601007666352
 31
0.0000000001127425
  0
LINE
  5
1B79B
330
18
100
AcDbEntity
  8
01
  6
BYBLOCK
100
AcDbLine
 10
2316.953659426608
 20
163.0094308806338
 30
0.0000000001127424
 11
2288.496762504591
 21
163.0094308806338
 31
0.0000000001128561
  0
ARC
  5
1B79C
330
18
100
AcDbEntity
  8
01
  6
BYBLOCK
100
AcDbCircle
 10
2251.653659426608
 20
162.0094308806338
 30
0.0000000001127424
 40
0.9999999999999996
100
AcDbArc
 50
90.0
 51
180.0
  0
LINE
  5
1B79D
330
18
100
AcDbEntity
  8
01
  6
BYBLOCK
100
AcDbLine
 10
2288.496762504591
 20
163.0094308806338
 30
0.0000000001128561
 11
2251.653659426608
 21
163.0094308806338
 31
0.0000000001127424
  0
LINE
  5
1B79E
330
18
100
AcDbEntity
  8
01
  6
BYBLOCK
100
AcDbLine
 10
2250.653659426608
 20
162.0094308806338
 30
0.0000000001127424
 11
2250.653659426608
 21
151.7915498482121
 31
0.0000000001128561
  0
TEXT
  5
1B7A1
330
18
100
AcDbEntity
  8
1TEXT
100
AcDbText
 10
2154.00507590708
 20
386.5094308806338
 30
0.0000000001127424
 40
20.0
  1
1-V6C-X-LJ-X106
100
AcDbText
  0
TEXT
  5
1B7A3
330
18
100
AcDbEntity
  8
1TEXT
100
AcDbText
 10
2262.853559086862
 20
348.2594308806338
 30
0.0000000001127424
 40
6.0
  1
表面処理
 72
     1
 11
2276.753559086862
 21
348.2594308806338
 31
0.0000000001127424
100
AcDbText
  0
TEXT
  5
1B7A4
330
18
100
AcDbEntity
  8
1TEXT
100
AcDbText
 10
2262.553559086862
 20
338.006497891347
 30
0.0000000001127424
 40
6.0
  1
クローム
 72
     1
 11
2276.753559086862
 21
338.006497891347
 31
0.0000000001127424
100
AcDbText
  0
LINE
  5
1B7A5
330
18
100
AcDbEntity
  8
1DIM
100
AcDbLine
 10
2250.653559086862
 20
356.5094308806338
 30
0.0000000001127424
 11
2370.653559086862
 21
356.5094308806338
 31
0.0000000001127424
  0
LINE
  5
1B7A6
330
18
100
AcDbEntity
  8
1DIM
100
AcDbLine
 10
2250.653559086862
 20
346.0094308806338
 30
0.0000000001127424
 11
2370.653559086862
 21
346.0094308806338
 31
0.0000000001127424
  0
LINE
  5
1B7A7
330
18
100
AcDbEntity
  8
1DIM
100
AcDbLine
 10
2250.653559086862
 20
335.5094308806338
 30
0.0000000001127424
 11
2355.653559086862
 21
335.5094308806338
 31
0.0000000001127424
  0
LINE
  5
1B7A8
330
18
100
AcDbEntity
  8
1DIM
100
AcDbLine
 10
2250.653559086862
 20
335.5094308806338
 30
0.0000000001127424
 11
2355.653559086862
 21
335.5094308806338
 31
0.0000000001127424
  0
LINE
  5
1B7A9
330
18
100
AcDbEntity
  8
1DIM
100
AcDbLine
 10
2303.153559086862
 20
356.5094308806338
 30
0.0000000001127424
 11
2303.153559086862
 21
335.5094308806338
 31
0.0000000001127424
  0
TEXT
  5
1B7AA
330
18
100
AcDbEntity
  8
1TEXT
100
AcDbText
 10
2308.023831087725
 20
337.4378954051599
 30
0.0000000001127424
 40
6.0
  1
1-V6C-C-LJ-X106
 41
0.6999999999999998
 72
     1
 11
2337.788414421058
 21
337.4378954051599
 31
0.0000000001127424
100
AcDbText
  0
TEXT
  5
1B7AB
330
18
100
AcDbEntity
  8
1TEXT
100
AcDbText
 10
2327.951437428292
 20
348.2594308806338
 30
0.0000000001127424
 40
6.0
  1
コード
 72
     1
 11
2338.251437428292
 21
348.2594308806338
 31
0.0000000001127424
100
AcDbText
  0
LINE
  5
1B7C1
330
18
100
AcDbEntity
  8
1DIM
100
AcDbLine
 10
2250.653559086862
 20
335.5094308806338
 30
0.0000000001127424
 11
2370.653559086862
 21
335.5094308806338
 31
0.0000000001127424
  0
LINE
  5
1B7C2
330
18
100
AcDbEntity
  8
1DIM
100
AcDbLine
 10
2303.153559086862
 20
335.5094308806338
 30
0.0000000001127424
 11
2303.153559086862
 21
325.0094308806338
 31
0.0000000001127424
  0
LINE
  5
1B7C3
330
18
100
AcDbEntity
  8
1DIM
100
AcDbLine
 10
2250.653559086862
 20
325.0094308806338
 30
0.0000000001127424
 11
2370.653559086862
 21
325.0094308806338
 31
0.0000000001127424
  0
TEXT
  5
1B7C4
330
18
100
AcDbEntity
  8
1TEXT
100
AcDbText
 10
2251.953559086862
 20
327.5430604632775
 30
0.0000000001127424
 40
6.0
  1
サテンニッケル
 72
     1
 11
2276.753559086862
 21
327.5430604632775
 31
0.0000000001127424
100
AcDbText
  0
LINE
  5
1B7C5
330
18
100
AcDbEntity
  8
1DIM
100
AcDbLine
 10
2250.653559086862
 20
325.0094308806338
 30
0.0000000001127424
 11
2250.653559086862
 21
335.5094308806338
 31
0.0000000001127424
  0
TEXT
  5
1B7C7
330
18
100
AcDbEntity
  8
1TEXT
100
AcDbText
 10
2308.023831087725
 20
326.9378954051599
 30
0.0000000001127424
 40
6.0
  1
1-V6C-N-LJ-X106
 41
0.6999999999999998
 72
     1
 11
2337.788414421058
 21
326.9378954051599
 31
0.0000000001127424
100
AcDbText
  0
LINE
  5
1B7C8
330
18
100
AcDbEntity
  8
1DIM
100
AcDbLine
 10
2250.653559086862
 20
335.5094308806338
 30
0.0000000001127424
 11
2250.653559086862
 21
356.5094308806338
 31
0.0000000001127424
  0
LINE
  5
1B80D
330
18
100
AcDbEntity
  8
01
100
AcDbLine
 10
2584.65354308686
 20
346.5094308796051
 30
0.0000000001127424
 11
2632.65354308686
 21
346.5094308796051
 31
0.0000000001127424
  0
LINE
  5
1B80E
330
18
100
AcDbEntity
  8
01
100
AcDbLine
 10
2583.65354308686
 20
355.0094308796051
 30
0.0000000001127424
 11
2583.65354308686
 21
347.5094308796051
 31
0.0000000001127424
  0
ARC
  5
1B80F
330
18
100
AcDbEntity
  8
01
100
AcDbCircle
 10
2584.65354308686
 20
347.5094308796051
 30
0.0000000001127424
 40
1.0
100
AcDbArc
 50
180.0
 51
270.0
  0
LINE
  5
1B810
330
18
100
AcDbEntity
  8
01
100
AcDbLine
 10
2633.65354308686
 20
355.0094308796051
 30
0.0000000001127424
 11
2633.65354308686
 21
347.5094308796051
 31
0.0000000001127424
  0
ARC
  5
1B811
330
18
100
AcDbEntity
  8
01
100
AcDbCircle
 10
2632.65354308686
 20
347.5094308796051
 30
0.0000000001127424
 40
1.0
100
AcDbArc
 50
270.0
 51
0.0
  0
ARC
  5
1B812
330
18
100
AcDbEntity
  8
01
100
AcDbCircle
 10
2608.653426747117
 20
105.0107491937365
 30
0.0000000001127424
 40
25.0
100
AcDbArc
 50
17.2175114318013
 51
342.7824885682009
  0
LINE
  5
1B814
330
18
100
AcDbEntity
  8
01
100
AcDbLine
 10
2458.653426747117
 20
130.0107491937365
 30
0.0000000001127424
 11
2458.653426747117
 21
80.0107491937365
 31
0.0000000001127424
  0
LINE
  5
1B815
330
18
100
AcDbEntity
  8
01
100
AcDbLine
 10
2467.153426747117
 20
81.0107491937365
 30
0.0000000001127424
 11
2467.153426747117
 21
129.0107491937365
 31
0.0000000001127424
  0
LINE
  5
1B816
330
18
100
AcDbEntity
  8
01
100
AcDbLine
 10
2458.653426747117
 20
80.0107491937365
 30
0.0000000001127424
 11
2466.153426747117
 21
80.0107491937365
 31
0.0000000001127424
  0
ARC
  5
1B817
330
18
100
AcDbEntity
  8
01
100
AcDbCircle
 10
2466.153426747117
 20
81.0107491937365
 30
0.0000000001127424
 40
1.0
100
AcDbArc
 50
270.0
 51
0.0
  0
LINE
  5
1B818
330
18
100
AcDbEntity
  8
01
100
AcDbLine
 10
2458.653426747117
 20
130.0107491937365
 30
0.0000000001127424
 11
2466.153426747117
 21
130.0107491937365
 31
0.0000000001127424
  0
ARC
  5
1B819
330
18
100
AcDbEntity
  8
01
100
AcDbCircle
 10
2466.153426747117
 20
129.0107491937365
 30
0.0000000001127424
 40
1.0
100
AcDbArc
 50
0.0
 51
90.0
  0
POINT
  5
1B81A
330
18
100
AcDbEntity
  8
01
100
AcDbPoint
 10
2473.153426747117
 20
105.0107491937365
 30
0.0000000001127424
  0
LINE
  5
1B81B
330
18
100
AcDbEntity
  8
01
100
AcDbLine
 10
2472.753426737118
 20
103.2607491937365
 30
0.0000000001127424
 11
2472.753426737118
 21
104.1107492137367
 31
0.0000000001127424
  0
LINE
  5
1B81C
330
18
100
AcDbEntity
  8
01
100
AcDbLine
 10
2473.553426757119
 20
103.2607491937365
 30
0.0000000001127424
 11
2473.553426757119
 21
104.1107492137367
 31
0.0000000001127424
  0
LINE
  5
1B81D
330
18
100
AcDbEntity
  8
01
100
AcDbLine
 10
2472.253426767117
 20
104.6107491837361
 30
0.0000000001127424
 11
2471.403426747117
 21
104.6107491837361
 31
0.0000000001127424
  0
LINE
  5
1B81E
330
18
100
AcDbEntity
  8
01
100
AcDbLine
 10
2472.253426767117
 20
105.410749203736
 30
0.0000000001127424
 11
2471.403426747117
 21
105.410749203736
 31
0.0000000001127424
  0
LINE
  5
1B81F
330
18
100
AcDbEntity
  8
01
100
AcDbLine
 10
2471.403426747117
 20
104.6107491837361
 30
0.0000000001127424
 11
2471.403426747117
 21
105.410749203736
 31
0.0000000001127424
  0
LINE
  5
1B820
330
18
100
AcDbEntity
  8
01
100
AcDbLine
 10
2473.553426757119
 20
103.2607491937365
 30
0.0000000001127424
 11
2472.753426737118
 21
103.2607491937365
 31
0.0000000001127424
  0
LINE
  5
1B821
330
18
100
AcDbEntity
  8
01
100
AcDbLine
 10
2473.553426757119
 20
106.7607491937365
 30
0.0000000001127424
 11
2473.553426757119
 21
105.9107491737363
 31
0.0000000001127424
  0
LINE
  5
1B822
330
18
100
AcDbEntity
  8
01
100
AcDbLine
 10
2472.753426737118
 20
106.7607491937365
 30
0.0000000001127424
 11
2472.753426737118
 21
105.9107491737363
 31
0.0000000001127424
  0
LINE
  5
1B823
330
18
100
AcDbEntity
  8
01
100
AcDbLine
 10
2474.053426727117
 20
105.410749203736
 30
0.0000000001127424
 11
2474.903426747117
 21
105.410749203736
 31
0.0000000001127424
  0
LINE
  5
1B824
330
18
100
AcDbEntity
  8
01
100
AcDbLine
 10
2474.053426727117
 20
104.6107491837361
 30
0.0000000001127424
 11
2474.903426747117
 21
104.6107491837361
 31
0.0000000001127424
  0
LINE
  5
1B825
330
18
100
AcDbEntity
  8
01
100
AcDbLine
 10
2474.903426747117
 20
105.410749203736
 30
0.0000000001127424
 11
2474.903426747117
 21
104.6107491837361
 31
0.0000000001127424
  0
LINE
  5
1B826
330
18
100
AcDbEntity
  8
01
100
AcDbLine
 10
2472.753426737118
 20
106.7607491937365
 30
0.0000000001127424
 11
2473.553426757119
 21
106.7607491937365
 31
0.0000000001127424
  0
CIRCLE
  5
1B827
330
18
100
AcDbEntity
  8
01
100
AcDbCircle
 10
2473.153426747117
 20
105.0107491937365
 30
0.0000000001127424
 40
2.5
  0
ARC
  5
1B828
330
18
100
AcDbEntity
  8
01
100
AcDbCircle
 10
2474.053426727117
 20
105.9107491737363
 30
0.0000000001127424
 40
0.5
100
AcDbArc
 50
179.999989999999
 51
270.0
  0
ARC
  5
1B829
330
18
100
AcDbEntity
  8
01
100
AcDbCircle
 10
2474.053426727117
 20
104.1107492137367
 30
0.0000000001127424
 40
0.5
100
AcDbArc
 50
90.00000299998466
 51
180.000010000001
  0
ARC
  5
1B82A
330
18
100
AcDbEntity
  8
01
100
AcDbCircle
 10
2472.253426767117
 20
104.1107492137367
 30
0.0000000001127424
 40
0.5
100
AcDbArc
 50
0.0
 51
90.00000299998466
  0
ARC
  5
1B82B
330
18
100
AcDbEntity
  8
01
100
AcDbCircle
 10
2472.253426767117
 20
105.9107491737363
 30
0.0000000001127424
 40
0.5
100
AcDbArc
 50
270.0
 51
0.0
  0
LINE
  5
1B82D
330
18
100
AcDbEntity
  8
1CENTER
100
AcDbLine
 10
2473.153426747117
 20
99.0107491937365
 30
0.0000000001127424
 11
2473.153426747117
 21
111.0107491937365
 31
0.0000000001127424
  0
LINE
  5
1B82E
330
18
100
AcDbEntity
  8
01
100
AcDbLine
 10
2456.525141364687
 20
105.0107491937365
 30
0.0000000001127424
 11
2479.153426747117
 21
105.0107491937365
 31
0.0000000001127424
  0
LINE
  5
1B82F
330
18
100
AcDbEntity
  8
01
100
AcDbLine
 10
2583.65354308686
 20
355.0094308796051
 30
0.0000000001127424
 11
2633.65354308686
 21
355.0094308796051
 31
0.0000000001127424
  0
LINE
  5
1B830
330
18
100
AcDbEntity
  8
01
  6
BYBLOCK
100
AcDbLine
 10
2557.654310929177
 20
355.0094308796051
 30
0.0000000001127424
 11
2711.408691084208
 21
355.0094308796051
 31
0.0000000001127424
  0
LINE
  5
1B831
330
18
100
AcDbEntity
  8
1CENTER
100
AcDbLine
 10
2592.569868322919
 20
340.5094389128581
 30
0.0000000001127424
 11
2600.703540684767
 21
340.5094308796079
 31
0.0000000001127424
  0
LINE
  5
1B832
330
18
100
AcDbEntity
  8
01
100
AcDbLine
 10
2608.65354308686
 20
360.0094308796051
 30
0.0000000001127424
 11
2608.65354308686
 21
333.5094308796051
 31
0.0000000001127424
  0
LINE
  5
1B838
330
18
100
AcDbEntity
  8
01
100
AcDbLine
 10
2458.653426747117
 20
225.0107491937365
 30
0.0000000001127424
 11
2458.653426747117
 21
35.0107491937365
 31
0.0000000001127424
  0
LINE
  5
1B839
330
18
100
AcDbEntity
  8
01
100
AcDbLine
 10
2578.653426747117
 20
105.0107491937365
 30
0.0000000001127424
 11
2638.653426747117
 21
105.0107491937365
 31
0.0000000001127424
  0
LINE
  5
1B83A
330
18
100
AcDbEntity
  8
01
100
AcDbLine
 10
2608.653426747117
 20
135.0107491937365
 30
0.0000000001127424
 11
2608.653426747117
 21
75.0107491937365
 31
0.0000000001127424
  0
LINE
  5
1B83B
330
18
100
AcDbEntity
  8
01
100
AcDbLine
 10
2629.65354308686
 20
311.5094308796051
 30
0.0000000001127424
 11
2619.629078107621
 21
311.5094308796051
 31
0.0000000001127424
  0
LINE
  5
1B83C
330
18
100
AcDbEntity
  8
01
100
AcDbLine
 10
2629.65354308686
 20
291.009430879605
 30
0.0000000001127424
 11
2599.65354308686
 21
291.0094308796051
 31
0.0000000001127424
  0
LINE
  5
1B83D
330
18
100
AcDbEntity
  8
01
100
AcDbLine
 10
2598.618953503327
 20
293.0094308796056
 30
0.0000000001127424
 11
2598.618953503327
 21
319.0094308796047
 31
0.0000000001127424
  0
LINE
  5
1B83E
330
18
100
AcDbEntity
  8
01
100
AcDbLine
 10
2597.653543086862
 20
346.0094308796051
 30
0.0000000001127424
 11
2597.653543086862
 21
293.0094308796056
 31
0.0000000001127424
  0
ARC
  5
1B83F
330
18
100
AcDbEntity
  8
01
100
AcDbCircle
 10
2600.618953503329
 20
293.0094308796056
 30
0.0000000001127424
 40
2.0
100
AcDbArc
 50
180.0
 51
269.9999999999479
  0
ARC
  5
1B840
330
18
100
AcDbEntity
  8
01
100
AcDbCircle
 10
2599.65354308686
 20
293.0094308796051
 30
0.0000000001127424
 40
2.0
100
AcDbArc
 50
180.0
 51
270.0
  0
LINE
  5
1B841
330
18
100
AcDbEntity
  8
01
100
AcDbLine
 10
2619.65354308686
 20
346.0094308796051
 30
0.0000000001127424
 11
2619.653543086862
 21
312.5094308796051
 31
0.0000000001127424
  0
ARC
  5
1B842
330
18
100
AcDbEntity
  8
01
100
AcDbCircle
 10
2617.629078107621
 20
319.0094308796047
 30
0.0000000001127424
 40
1.0
100
AcDbArc
 50
0.0
 51
90.0
  0
ARC
  5
1B843
330
18
100
AcDbEntity
  8
01
100
AcDbCircle
 10
2619.629078107621
 20
312.5094308796047
 30
0.0000000001127424
 40
1.0
100
AcDbArc
 50
180.0
 51
270.0
  0
ARC
  5
1B844
330
18
100
AcDbEntity
  8
01
100
AcDbCircle
 10
2599.618953503327
 20
319.0094308796056
 30
0.0000000001127424
 40
1.0
100
AcDbArc
 50
89.99999999994789
 51
180.0000000000261
  0
LINE
  5
1B845
330
18
100
AcDbEntity
  8
01
100
AcDbLine
 10
2617.629078107621
 20
320.0094308796047
 30
0.0000000001127424
 11
2599.618953503327
 21
320.0094308796047
 31
0.0000000001127424
  0
ARC
  5
1B846
330
18
100
AcDbEntity
  8
01
100
AcDbCircle
 10
2620.653543086862
 20
312.5094308796051
 30
0.0000000001127424
 40
1.0
100
AcDbArc
 50
180.0
 51
270.0
  0
LINE
  5
1B847
330
18
100
AcDbEntity
  8
01
100
AcDbLine
 10
2618.629078107621
 20
312.5094308796051
 30
0.0000000001127424
 11
2618.629078107621
 21
319.0094308796047
 31
0.0000000001127424
  0
LINE
  5
1B848
330
18
100
AcDbEntity
  8
01
100
AcDbLine
 10
2597.653543086862
 20
346.0094308796051
 30
0.0000000001127424
 11
2619.65354308686
 21
346.0094308796051
 31
0.0000000001127424
  0
LINE
  5
1B84C
330
18
100
AcDbEntity
  8
01
100
AcDbLine
 10
2467.653426747118
 20
115.0107491937365
 30
0.0000000001127424
 11
2492.653426747118
 21
115.010749193736
 31
0.0000000001127424
  0
LINE
  5
1B84D
330
18
100
AcDbEntity
  8
01
100
AcDbLine
 10
2467.653426747117
 20
95.01074919373741
 30
0.0000000001127424
 11
2492.653426747118
 21
95.0107491937365
 31
0.0000000001127424
  0
LINE
  5
1B84E
330
18
100
AcDbEntity
  8
01
100
AcDbLine
 10
2467.653426747117
 20
95.01074919373741
 30
0.0000000001127424
 11
2467.653426747118
 21
115.0107491937365
 31
0.0000000001127424
  0
LINE
  5
1B84F
330
18
100
AcDbEntity
  8
01
100
AcDbLine
 10
2494.653426747118
 20
100.510749193737
 30
0.0000000001127424
 11
2521.653426747117
 21
100.5107491937374
 31
0.0000000001127424
  0
LINE
  5
1B850
330
18
100
AcDbEntity
  8
01
100
AcDbLine
 10
2494.653426747118
 20
109.5107491937379
 30
0.0000000001127424
 11
2521.653426747117
 21
109.510749193737
 31
0.0000000001127424
  0
ARC
  5
1B851
330
18
100
AcDbEntity
  8
01
100
AcDbCircle
 10
2494.653426747118
 20
110.5107491937374
 30
0.0000000001127424
 40
1.0
100
AcDbArc
 50
180.0
 51
270.0
  0
ARC
  5
1B852
330
18
100
AcDbEntity
  8
01
100
AcDbCircle
 10
2494.653426747118
 20
99.5107491937365
 30
0.0000000001127424
 40
1.0
100
AcDbArc
 50
90.0
 51
180.0
  0
LINE
  5
1B853
330
18
100
AcDbEntity
  8
01
100
AcDbLine
 10
2493.653426747118
 20
110.5107491937379
 30
0.0000000001127424
 11
2493.653426747118
 21
114.010749193736
 31
0.0000000001127424
  0
ARC
  5
1B854
330
18
100
AcDbEntity
  8
01
100
AcDbCircle
 10
2492.653426747118
 20
114.0107491937365
 30
0.0000000001127424
 40
1.0
100
AcDbArc
 50
359.9999999999479
 51
90.0
  0
ARC
  5
1B855
330
18
100
AcDbEntity
  8
01
100
AcDbCircle
 10
2492.653426747118
 20
96.0107491937365
 30
0.0000000001127424
 40
1.0
100
AcDbArc
 50
269.9999999999479
 51
359.999999999974
  0
LINE
  5
1B856
330
18
100
AcDbEntity
  8
01
100
AcDbLine
 10
2493.653426747118
 20
96.0107491937365
 30
0.0000000001127424
 11
2493.653426747118
 21
99.51074919373696
 31
0.0000000001127424
  0
ARC
  5
1B857
330
18
100
AcDbEntity
  8
01
100
AcDbCircle
 10
2521.653426747117
 20
108.5107491937365
 30
0.0000000001127424
 40
1.0
100
AcDbArc
 50
0.0
 51
90.0
  0
ARC
  5
1B858
330
18
100
AcDbEntity
  8
01
100
AcDbCircle
 10
2521.653426747117
 20
101.510749193737
 30
0.0000000001127424
 40
1.0
100
AcDbArc
 50
270.0
 51
0.0
  0
LINE
  5
1B859
330
18
100
AcDbEntity
  8
01
100
AcDbLine
 10
2522.653426747117
 20
108.510749193737
 30
0.0000000001127424
 11
2522.653426747117
 21
101.5107491937374
 31
0.0000000001127424
  0
LINE
  5
1B85A
330
18
100
AcDbEntity
  8
01
100
AcDbLine
 10
2629.653426747118
 20
100.5107491937366
 30
0.0000000001127424
 11
2599.28592974952
 21
100.5107491937365
 31
0.0000000001127424
  0
LINE
  5
1B85B
330
18
100
AcDbEntity
  8
01
100
AcDbLine
 10
2629.653426747118
 20
109.5107491937366
 30
0.0000000001127424
 11
2599.28592974952
 21
109.5107491937365
 31
0.0000000001127424
  0
ARC
  5
1B85C
330
18
100
AcDbEntity
  8
01
100
AcDbCircle
 10
2608.653426747117
 20
105.0107491937365
 30
0.0000000001127424
 40
11.00000000000227
100
AcDbArc
 50
24.1477399170122
 51
335.8522600829996
  0
ARC
  5
1B85D
330
18
100
AcDbEntity
  8
01
100
AcDbCircle
 10
2599.28592974952
 20
101.5107491937365
 30
0.0000000001127424
 40
1.0
100
AcDbArc
 50
200.4873151146894
 51
270.0
  0
ARC
  5
1B85E
330
18
100
AcDbEntity
  8
01
100
AcDbCircle
 10
2599.28592974952
 20
108.5107491937365
 30
0.0000000001127424
 40
1.0
100
AcDbArc
 50
90.0
 51
159.5126848853106
  0
LINE
  5
1B862
330
18
100
AcDbEntity
  8
1CENTER
100
AcDbLine
 10
2592.569868322919
 20
409.5094228463522
 30
0.0000000001127424
 11
2600.703540684767
 21
409.5094308796024
 31
0.0000000001127424
  0
LINE
  5
1B863
330
18
100
AcDbEntity
  8
01
100
AcDbLine
 10
2629.65354308686
 20
438.5094308796052
 30
0.0000000001127424
 11
2619.629078107621
 21
438.5094308796051
 31
0.0000000001127424
  0
LINE
  5
1B864
330
18
100
AcDbEntity
  8
01
100
AcDbLine
 10
2629.65354308686
 20
459.0094308796052
 30
0.0000000001127424
 11
2599.65354308686
 21
459.0094308796051
 31
0.0000000001127424
  0
LINE
  5
1B865
330
18
100
AcDbEntity
  8
01
100
AcDbLine
 10
2598.618953503327
 20
457.0094308796047
 30
0.0000000001127424
 11
2598.618953503327
 21
431.0094308796056
 31
0.0000000001127424
  0
LINE
  5
1B866
330
18
100
AcDbEntity
  8
01
100
AcDbLine
 10
2597.653543086862
 20
404.0094308796051
 30
0.0000000001127424
 11
2597.653543086862
 21
457.0094308796047
 31
0.0000000001127424
  0
ARC
  5
1B867
330
18
100
AcDbEntity
  8
01
100
AcDbCircle
 10
2600.618953503329
 20
457.0094308796047
 30
0.0000000001127424
 40
2.0
100
AcDbArc
 50
90.00000000005213
 51
180.0
  0
ARC
  5
1B868
330
18
100
AcDbEntity
  8
01
100
AcDbCircle
 10
2599.65354308686
 20
457.0094308796051
 30
0.0000000001127424
 40
2.0
100
AcDbArc
 50
90.0
 51
180.0
  0
LINE
  5
1B869
330
18
100
AcDbEntity
  8
01
100
AcDbLine
 10
2619.65354308686
 20
404.0094308796051
 30
0.0000000001127424
 11
2619.653543086862
 21
437.5094308796051
 31
0.0000000001127424
  0
ARC
  5
1B86A
330
18
100
AcDbEntity
  8
01
100
AcDbCircle
 10
2617.629078107621
 20
431.0094308796056
 30
0.0000000001127424
 40
1.0
100
AcDbArc
 50
270.0
 51
0.0
  0
ARC
  5
1B86B
330
18
100
AcDbEntity
  8
01
100
AcDbCircle
 10
2619.629078107621
 20
437.5094308796056
 30
0.0000000001127424
 40
1.0
100
AcDbArc
 50
90.0
 51
180.0
  0
ARC
  5
1B86C
330
18
100
AcDbEntity
  8
01
100
AcDbCircle
 10
2599.618953503327
 20
431.0094308796047
 30
0.0000000001127424
 40
1.0
100
AcDbArc
 50
179.9999999999739
 51
270.0000000000521
  0
LINE
  5
1B86D
330
18
100
AcDbEntity
  8
01
100
AcDbLine
 10
2617.629078107621
 20
430.0094308796056
 30
0.0000000001127424
 11
2599.618953503327
 21
430.0094308796056
 31
0.0000000001127424
  0
ARC
  5
1B86E
330
18
100
AcDbEntity
  8
01
100
AcDbCircle
 10
2620.653543086862
 20
437.5094308796051
 30
0.0000000001127424
 40
1.0
100
AcDbArc
 50
90.0
 51
180.0
  0
LINE
  5
1B86F
330
18
100
AcDbEntity
  8
01
100
AcDbLine
 10
2618.629078107621
 20
437.5094308796051
 30
0.0000000001127424
 11
2618.629078107621
 21
431.0094308796056
 31
0.0000000001127424
  0
LINE
  5
1B870
330
18
100
AcDbEntity
  8
01
100
AcDbLine
 10
2597.653543086862
 20
404.0094308796051
 30
0.0000000001127424
 11
2619.65354308686
 21
404.0094308796051
 31
0.0000000001127424
  0
LINE
  5
1B874
330
18
100
AcDbEntity
  8
01
100
AcDbLine
 10
2409.653659426605
 20
115.0107491937365
 30
0.0000000001127424
 11
2384.653659426605
 21
115.010749193736
 31
0.0000000001127424
  0
LINE
  5
1B875
330
18
100
AcDbEntity
  8
01
100
AcDbLine
 10
2409.653659426606
 20
95.01074919373741
 30
0.0000000001127424
 11
2384.653659426605
 21
95.0107491937365
 31
0.0000000001127424
  0
LINE
  5
1B876
330
18
100
AcDbEntity
  8
01
100
AcDbLine
 10
2409.653659426606
 20
95.01074919373741
 30
0.0000000001127424
 11
2409.653659426605
 21
115.0107491937365
 31
0.0000000001127424
  0
LINE
  5
1B877
330
18
100
AcDbEntity
  8
01
100
AcDbLine
 10
2382.653659426605
 20
100.510749193737
 30
0.0000000001127424
 11
2355.653659426606
 21
100.5107491937374
 31
0.0000000001127424
  0
LINE
  5
1B878
330
18
100
AcDbEntity
  8
01
100
AcDbLine
 10
2382.653659426605
 20
109.5107491937379
 30
0.0000000001127424
 11
2355.653659426606
 21
109.510749193737
 31
0.0000000001127424
  0
ARC
  5
1B879
330
18
100
AcDbEntity
  8
01
100
AcDbCircle
 10
2382.653659426605
 20
110.5107491937374
 30
0.0000000001127424
 40
1.0
100
AcDbArc
 50
270.0
 51
0.0
  0
ARC
  5
1B87A
330
18
100
AcDbEntity
  8
01
100
AcDbCircle
 10
2382.653659426605
 20
99.5107491937365
 30
0.0000000001127424
 40
1.0
100
AcDbArc
 50
0.0
 51
90.0
  0
LINE
  5
1B87B
330
18
100
AcDbEntity
  8
01
100
AcDbLine
 10
2383.653659426605
 20
110.5107491937379
 30
0.0000000001127424
 11
2383.653659426605
 21
114.010749193736
 31
0.0000000001127424
  0
ARC
  5
1B87C
330
18
100
AcDbEntity
  8
01
100
AcDbCircle
 10
2384.653659426605
 20
114.0107491937365
 30
0.0000000001127424
 40
1.0
100
AcDbArc
 50
90.0
 51
180.0000000000521
  0
ARC
  5
1B87D
330
18
100
AcDbEntity
  8
01
100
AcDbCircle
 10
2384.653659426605
 20
96.0107491937365
 30
0.0000000001127424
 40
1.0
100
AcDbArc
 50
180.0000000000261
 51
270.0000000001043
  0
LINE
  5
1B87E
330
18
100
AcDbEntity
  8
01
100
AcDbLine
 10
2383.653659426605
 20
96.0107491937365
 30
0.0000000001127424
 11
2383.653659426605
 21
99.51074919373696
 31
0.0000000001127424
  0
ARC
  5
1B87F
330
18
100
AcDbEntity
  8
01
100
AcDbCircle
 10
2355.653659426606
 20
108.5107491937365
 30
0.0000000001127424
 40
1.0
100
AcDbArc
 50
90.0
 51
180.0
  0
ARC
  5
1B880
330
18
100
AcDbEntity
  8
01
100
AcDbCircle
 10
2355.653659426606
 20
101.510749193737
 30
0.0000000001127424
 40
1.0
100
AcDbArc
 50
180.0
 51
270.0
  0
LINE
  5
1B881
330
18
100
AcDbEntity
  8
01
100
AcDbLine
 10
2354.653659426606
 20
108.510749193737
 30
0.0000000001127424
 11
2354.653659426606
 21
101.5107491937374
 31
0.0000000001127424
  0
LINE
  5
1B882
330
18
100
AcDbEntity
  8
01
100
AcDbLine
 10
2247.653426747116
 20
100.5107491937366
 30
0.0000000001127424
 11
2278.021156424204
 21
100.5107491937365
 31
0.0000000001127424
  0
LINE
  5
1B883
330
18
100
AcDbEntity
  8
01
100
AcDbLine
 10
2247.653426747116
 20
109.5107491937366
 30
0.0000000001127424
 11
2278.021156424204
 21
109.5107491937365
 31
0.0000000001127424
  0
ARC
  5
1B884
330
18
100
AcDbEntity
  8
01
100
AcDbCircle
 10
2268.653659426606
 20
105.0107491937365
 30
0.0000000001127424
 40
11.00000000000227
100
AcDbArc
 50
204.1477399170003
 51
155.8522600829878
  0
ARC
  5
1B885
330
18
100
AcDbEntity
  8
01
100
AcDbCircle
 10
2278.021156424204
 20
101.5107491937365
 30
0.0000000001127424
 40
1.0
100
AcDbArc
 50
270.0
 51
339.5126848853106
  0
ARC
  5
1B886
330
18
100
AcDbEntity
  8
01
100
AcDbCircle
 10
2278.021156424204
 20
108.5107491937365
 30
0.0000000001127424
 40
1.0
100
AcDbArc
 50
20.48731511468941
 51
90.0
  0
ARC
  5
1B88A
330
18
100
AcDbEntity
  8
01
100
AcDbCircle
 10
2268.653659426606
 20
105.0107491937365
 30
0.0000000001127424
 40
25.0
100
AcDbArc
 50
197.2175114317991
 51
162.7824885681987
  0
ELLIPSE
  5
1C9B5
330
18
100
AcDbEntity
  8
01
  6
CONTINUOUS
100
AcDbEllipse
 10
2715.45354308686
 20
314.6876100469116
 30
0.0000000001141035
 11
2.943185851874405E-16
 21
-1.201646815197478
 31
0.0
210
0.0
220
0.0
230
-1.0
 40
0.9986295347545635
 41
3.141592653589793
 42
4.712388980384704
  0
LINE
  5
1C9B6
330
18
100
AcDbEntity
  8
01
  6
CONTINUOUS
100
AcDbLine
 10
2715.45354308686
 20
315.8892568621091
 30
0.0000000001141035
 11
2630.15354308686
 21
315.8892568621091
 31
0.0000000001136993
  0
ELLIPSE
  5
1C9B7
330
18
100
AcDbEntity
  8
01
  6
CONTINUOUS
100
AcDbEllipse
 10
2715.45354308686
 20
288.8312517122973
 30
0.0000000001141035
 11
2.943185851874405E-16
 21
-1.201646815197478
 31
0.0
210
0.0
220
0.0
230
-1.0
 40
0.9986295347545635
 41
4.712388980384704
 42
6.283185307179586
  0
LINE
  5
1C9B8
330
18
100
AcDbEntity
  8
01
  6
CONTINUOUS
100
AcDbLine
 10
2630.15354308686
 20
287.6296048970999
 30
0.0000000001141035
 11
2715.45354308686
 21
287.6296048970999
 31
0.0000000001141035
  0
LINE
  5
1C9B9
330
18
100
AcDbEntity
  8
01
  6
CONTINUOUS
100
AcDbLine
 10
2716.65354308686
 20
288.8312517122972
 30
0.0000000001141035
 11
2716.65354308686
 21
314.6876100469115
 31
0.0000000001141035
  0
LINE
  5
1C9BA
330
18
100
AcDbEntity
  8
01
  6
CONTINUOUS
100
AcDbLine
 10
2629.65354308686
 20
315.3892568621091
 30
0.0000000001141035
 11
2629.65354308686
 21
288.1296048970999
 31
0.0000000001141035
  0
ARC
  5
1C9BB
330
18
100
AcDbEntity
  8
01
  6
CONTINUOUS
100
AcDbCircle
 10
2630.15354308686
 20
315.3892568621091
 30
0.0000000001141035
 40
0.5
100
AcDbArc
 50
90.00000000187596
 51
180.0000001206769
  0
ARC
  5
1C9BC
330
18
100
AcDbEntity
  8
01
  6
CONTINUOUS
100
AcDbCircle
 10
2630.15354308686
 20
288.1296048970999
 30
0.0000000001141035
 40
0.5
100
AcDbArc
 50
180.0
 51
270.0
  0
LINE
  5
1C9BD
330
18
100
AcDbEntity
  8
01
100
AcDbLine
 10
2716.653426747118
 20
98.81074919373708
 30
0.0000000001127424
 11
2716.653426747118
 21
111.2107491937369
 31
0.0000000001127424
  0
LINE
  5
1C9BE
330
18
100
AcDbEntity
  8
01
100
AcDbLine
 10
2715.453426747118
 20
112.4107491937369
 30
0.0000000001127424
 11
2630.153426747118
 21
112.4107491937369
 31
0.0000000001141035
  0
LINE
  5
1C9BF
330
18
100
AcDbEntity
  8
01
100
AcDbLine
 10
2715.453426747118
 20
97.61074919373709
 30
0.0000000001127424
 11
2630.153426747118
 21
97.61074919373709
 31
0.0000000001141035
  0
LINE
  5
1C9C0
330
18
100
AcDbEntity
  8
01
100
AcDbLine
 10
2629.653426747118
 20
98.11074919373709
 30
0.0000000001141035
 11
2629.653426747118
 21
111.9107491937369
 31
0.0000000001141035
  0
ARC
  5
1C9C1
330
18
100
AcDbEntity
  8
01
100
AcDbCircle
 10
2715.453426747118
 20
98.81074919373708
 30
0.0000000001127424
 40
1.2
100
AcDbArc
 50
270.0
 51
0.0
  0
ARC
  5
1C9C2
330
18
100
AcDbEntity
  8
01
100
AcDbCircle
 10
2715.453426747118
 20
111.2107491937369
 30
0.0000000001127424
 40
1.2
100
AcDbArc
 50
0.0
 51
90.0
  0
ARC
  5
1C9C3
330
18
100
AcDbEntity
  8
01
100
AcDbCircle
 10
2630.153426747118
 20
111.9107491937369
 30
0.0000000001141035
 40
0.5
100
AcDbArc
 50
90.0
 51
180.0
  0
ARC
  5
1C9C4
330
18
100
AcDbEntity
  8
01
100
AcDbCircle
 10
2630.153426747118
 20
98.11074919373709
 30
0.0000000001141035
 40
0.5
100
AcDbArc
 50
180.0
 51
270.0
  0
ARC
  5
1C9C5
330
18
100
AcDbEntity
  8
01
  6
CONTINUOUS
100
AcDbCircle
 10
2523.753472681692
 20
99.724370726183
 30
0.0000000001127424
 40
1.999999999999992
100
AcDbArc
 50
271.0987031458957
 51
357.0000000000011
  0
LINE
  5
1C9C6
330
18
100
AcDbEntity
  8
01
  6
CONTINUOUS
100
AcDbLine
 10
2498.009447771386
 20
100.510749193737
 30
0.0000000001127424
 11
2498.056145743034
 21
99.61969881369725
 31
0.0000000001127424
  0
ARC
  5
1C9C7
330
18
100
AcDbEntity
  8
01
  6
CONTINUOUS
100
AcDbCircle
 10
2500.053404812543
 20
110.2971276612913
 30
0.0000000001127424
 40
1.999999999999965
100
AcDbArc
 50
91.09870314589574
 51
177.0000000000004
  0
ARC
  5
1C9C8
330
18
100
AcDbEntity
  8
01
  6
CONTINUOUS
100
AcDbCircle
 10
2500.053404812543
 20
99.72437072618311
 30
0.0000000001127424
 40
2.000000000000075
100
AcDbArc
 50
182.9999999999997
 51
268.9012968541043
  0
ARC
  5
1C9C9
330
18
100
AcDbEntity
  8
01
  6
CONTINUOUS
100
AcDbCircle
 10
2523.753472681692
 20
110.2971276612913
 30
0.0000000001127424
 40
1.999999999999964
100
AcDbArc
 50
2.999999999999601
 51
88.90129685410426
  0
LINE
  5
1C9CA
330
18
100
AcDbEntity
  8
01
  6
CONTINUOUS
100
AcDbLine
 10
2526.033264729622
 20
105.0107491937372
 30
0.0000000001127424
 11
2525.750731751202
 21
110.4017995737771
 31
0.0000000001127424
  0
ARC
  5
1C9CB
330
18
100
AcDbEntity
  8
01
  6
CONTINUOUS
100
AcDbCircle
 10
2511.903438747117
 20
-507.589250806263
 30
0.0000000001127424
 40
619.9999999999999
100
AcDbArc
 50
88.90129685411058
 51
91.09870314588952
  0
LINE
  5
1C9CC
330
18
100
AcDbEntity
  8
01
  6
CONTINUOUS
100
AcDbLine
 10
2498.056145743034
 20
110.4017995737771
 30
0.0000000001127424
 11
2498.009447771386
 21
109.5107491937378
 31
0.0000000001127424
  0
ARC
  5
1C9CD
330
18
100
AcDbEntity
  8
01
  6
CONTINUOUS
100
AcDbCircle
 10
2511.903438747117
 20
717.6107491937366
 30
0.0000000001127424
 40
619.9999999999998
100
AcDbArc
 50
268.9012968541106
 51
271.0987031458894
  0
LINE
  5
1C9CE
330
18
100
AcDbEntity
  8
01
  6
CONTINUOUS
100
AcDbLine
 10
2525.750731751202
 20
99.61969881369714
 30
0.0000000001127424
 11
2526.033264729622
 21
105.0107491937372
 31
0.0000000001127424
  0
ELLIPSE
  5
1CA27
330
18
100
AcDbEntity
  8
01
  6
CONTINUOUS
100
AcDbEllipse
 10
2715.45354308686
 20
435.3312517122987
 30
0.0000000001141035
 11
2.943185851874405E-16
 21
1.201646815197478
 31
0.0
210
0.0
220
0.0
230
1.0
 40
0.9986295347545635
 41
3.141592653589793
 42
4.712388980384704
  0
LINE
  5
1CA28
330
18
100
AcDbEntity
  8
01
  6
CONTINUOUS
100
AcDbLine
 10
2715.45354308686
 20
434.1296048971012
 30
0.0000000001141035
 11
2630.15354308686
 21
434.1296048971012
 31
0.0000000001136993
  0
ELLIPSE
  5
1CA29
330
18
100
AcDbEntity
  8
01
  6
CONTINUOUS
100
AcDbEllipse
 10
2715.45354308686
 20
461.1876100469129
 30
0.0000000001141035
 11
2.943185851874405E-16
 21
1.201646815197478
 31
0.0
210
0.0
220
0.0
230
1.0
 40
0.9986295347545635
 41
4.712388980384704
 42
6.283185307179586
  0
LINE
  5
1CA2A
330
18
100
AcDbEntity
  8
01
  6
CONTINUOUS
100
AcDbLine
 10
2630.15354308686
 20
462.3892568621104
 30
0.0000000001141035
 11
2715.45354308686
 21
462.3892568621104
 31
0.0000000001141035
  0
LINE
  5
1CA2B
330
18
100
AcDbEntity
  8
01
  6
CONTINUOUS
100
AcDbLine
 10
2716.65354308686
 20
461.1876100469131
 30
0.0000000001141035
 11
2716.65354308686
 21
435.3312517122988
 31
0.0000000001141035
  0
LINE
  5
1CA2C
330
18
100
AcDbEntity
  8
01
  6
CONTINUOUS
100
AcDbLine
 10
2629.65354308686
 20
434.6296048971012
 30
0.0000000001141035
 11
2629.65354308686
 21
461.8892568621104
 31
0.0000000001141035
  0
ARC
  5
1CA2D
330
18
100
AcDbEntity
  8
01
  6
CONTINUOUS
100
AcDbCircle
 10
2630.15354308686
 20
434.6296048971012
 30
0.0000000001141035
 40
0.5
100
AcDbArc
 50
179.9999998607503
 51
269.999999998124
  0
ARC
  5
1CA2E
330
18
100
AcDbEntity
  8
01
  6
CONTINUOUS
100
AcDbCircle
 10
2630.15354308686
 20
461.8892568621104
 30
0.0000000001141035
 40
0.5
100
AcDbArc
 50
90.0
 51
180.0
  0
LINE
  5
1CA53
330
18
100
AcDbEntity
  8
01
100
AcDbLine
 10
2160.653426747116
 20
98.81074919373708
 30
0.0000000001127424
 11
2160.653426747116
 21
111.2107491937369
 31
0.0000000001127424
  0
LINE
  5
1CA54
330
18
100
AcDbEntity
  8
01
100
AcDbLine
 10
2161.853426747116
 20
112.4107491937369
 30
0.0000000001127424
 11
2247.153426747116
 21
112.4107491937369
 31
0.0000000001141035
  0
LINE
  5
1CA55
330
18
100
AcDbEntity
  8
01
100
AcDbLine
 10
2161.853426747116
 20
97.61074919373709
 30
0.0000000001127424
 11
2247.153426747116
 21
97.61074919373709
 31
0.0000000001141035
  0
LINE
  5
1CA56
330
18
100
AcDbEntity
  8
01
100
AcDbLine
 10
2247.653426747116
 20
98.11074919373709
 30
0.0000000001141035
 11
2247.653426747116
 21
111.9107491937369
 31
0.0000000001141035
  0
ARC
  5
1CA57
330
18
100
AcDbEntity
  8
01
100
AcDbCircle
 10
2161.853426747116
 20
98.81074919373708
 30
0.0000000001127424
 40
1.2
100
AcDbArc
 50
180.0
 51
270.0
  0
ARC
  5
1CA58
330
18
100
AcDbEntity
  8
01
100
AcDbCircle
 10
2161.853426747116
 20
111.2107491937369
 30
0.0000000001127424
 40
1.2
100
AcDbArc
 50
90.0
 51
180.0
  0
ARC
  5
1CA59
330
18
100
AcDbEntity
  8
01
100
AcDbCircle
 10
2247.153426747116
 20
111.9107491937369
 30
0.0000000001141035
 40
0.5
100
AcDbArc
 50
0.0
 51
90.0
  0
ARC
  5
1CA5A
330
18
100
AcDbEntity
  8
01
100
AcDbCircle
 10
2247.153426747116
 20
98.11074919373709
 30
0.0000000001141035
 40
0.5
100
AcDbArc
 50
270.0
 51
0.0
  0
ARC
  5
1CA5B
330
18
100
AcDbEntity
  8
01
  6
CONTINUOUS
100
AcDbCircle
 10
2353.553380812542
 20
99.724370726183
 30
0.0000000001127424
 40
1.999999999999992
100
AcDbArc
 50
182.9999999999989
 51
268.9012968541043
  0
LINE
  5
1CA5C
330
18
100
AcDbEntity
  8
01
  6
CONTINUOUS
100
AcDbLine
 10
2379.297405722848
 20
100.510749193737
 30
0.0000000001127424
 11
2379.2507077512
 21
99.61969881369725
 31
0.0000000001127424
  0
ARC
  5
1CA5D
330
18
100
AcDbEntity
  8
01
  6
CONTINUOUS
100
AcDbCircle
 10
2377.253448681691
 20
110.2971276612913
 30
0.0000000001127424
 40
1.999999999999965
100
AcDbArc
 50
2.999999999999326
 51
88.90129685410426
  0
ARC
  5
1CA5E
330
18
100
AcDbEntity
  8
01
  6
CONTINUOUS
100
AcDbCircle
 10
2377.253448681691
 20
99.72437072618311
 30
0.0000000001127424
 40
2.000000000000075
100
AcDbArc
 50
271.0987031458957
 51
357.0000000000003
  0
ARC
  5
1CA5F
330
18
100
AcDbEntity
  8
01
  6
CONTINUOUS
100
AcDbCircle
 10
2353.553380812542
 20
110.2971276612913
 30
0.0000000001127424
 40
1.999999999999964
100
AcDbArc
 50
91.09870314589574
 51
177.0000000000007
  0
LINE
  5
1CA60
330
18
100
AcDbEntity
  8
01
  6
CONTINUOUS
100
AcDbLine
 10
2351.273588764612
 20
105.0107491937372
 30
0.0000000001127424
 11
2351.556121743032
 21
110.4017995737771
 31
0.0000000001127424
  0
ARC
  5
1CA61
330
18
100
AcDbEntity
  8
01
  6
CONTINUOUS
100
AcDbCircle
 10
2365.403414747117
 20
-507.589250806263
 30
0.0000000001127424
 40
619.9999999999999
100
AcDbArc
 50
88.9012968541105
 51
91.09870314588943
  0
LINE
  5
1CA62
330
18
100
AcDbEntity
  8
01
  6
CONTINUOUS
100
AcDbLine
 10
2379.2507077512
 20
110.4017995737771
 30
0.0000000001127424
 11
2379.297405722848
 21
109.5107491937378
 31
0.0000000001127424
  0
ARC
  5
1CA63
330
18
100
AcDbEntity
  8
01
  6
CONTINUOUS
100
AcDbCircle
 10
2365.403414747117
 20
717.6107491937366
 30
0.0000000001127424
 40
619.9999999999998
100
AcDbArc
 50
268.9012968541106
 51
271.0987031458894
  0
LINE
  5
1CA64
330
18
100
AcDbEntity
  8
01
  6
CONTINUOUS
100
AcDbLine
 10
2351.556121743032
 20
99.61969881369714
 30
0.0000000001127424
 11
2351.273588764612
 21
105.0107491937372
 31
0.0000000001127424
  0
LINE
  5
1CB5B
330
18
100
AcDbEntity
  8
1DIM
100
AcDbLine
 10
2370.653559086862
 20
325.0094308806338
 30
0.0000000001127424
 11
2370.653559086862
 21
356.5094308806338
 31
0.0000000001127424
  0
TEXT
  5
1CF6D
330
18
100
AcDbEntity
  8
01
  6
CONTINUOUS
100
AcDbText
 10
2519.656587840135
 20
317.5927642129385
 30
0.0000000001127424
 40
4.55
  1
材質：亜鉛ダイキャスト
100
AcDbText
  0
TEXT
  5
1CF6E
330
18
100
AcDbEntity
  8
01
  6
CONTINUOUS
100
AcDbText
 10
2529.969921173468
 20
310.0094308796052
 30
0.0000000001127424
 40
4.55
  1
仕上げ：各種メッキ
100
AcDbText
  0
LINE
  5
1CF6F
330
18
100
AcDbEntity
  8
01
100
AcDbLine
 10
2546.653426747117
 20
133.0094301825025
 30
0.0000000001127424
 11
2546.653426747117
 21
235.7309229653218
 31
0.0000000001127424
1001
ACAD
1000
DSTYLE
1002
{
1070
    40
1040
1.3
1070
    45
1040
0.5
1002
}
  0
LINE
  5
1CF70
330
18
100
AcDbEntity
  8
01
100
AcDbLine
 10
2557.653426747117
 20
190.8807482317914
 30
0.0000000001127424
 11
2557.653426747117
 21
235.7309229653218
 31
0.0000000001127424
1001
ACAD
1000
DSTYLE
1002
{
1070
    40
1040
1.3
1070
    45
1040
0.5
1002
}
  0
LINE
  5
1CF71
330
18
100
AcDbEntity
  8
01
100
AcDbLine
 10
2549.253426747117
 20
234.4309229653218
 30
0.0000000001127424
 11
2555.053426747117
 21
234.4309229653218
 31
0.0000000001127424
1001
ACAD
1000
DSTYLE
1002
{
1070
    40
1040
1.3
1070
    45
1040
0.5
1002
}
  0
LINE
  5
1CF75
330
18
100
AcDbEntity
  8
01
100
AcDbLine
 10
2626.653426747117
 20
163.0094308806338
 30
0.0000000001127424
 11
2654.953426747117
 21
163.0094308806338
 31
0.0000000001127424
1001
ACAD
1000
DSTYLE
1002
{
1070
    40
1040
1.3
1070
    45
1040
0.5
1002
}
  0
LINE
  5
1CF76
330
18
100
AcDbEntity
  8
01
100
AcDbLine
 10
2626.653426747117
 20
89.00943088063332
 30
0.0000000001127424
 11
2654.953426747117
 21
89.00943088063332
 31
0.0000000001127424
1001
ACAD
1000
DSTYLE
1002
{
1070
    40
1040
1.3
1070
    45
1040
0.5
1002
}
  0
LINE
  5
1CF77
330
18
100
AcDbEntity
  8
01
100
AcDbLine
 10
2653.653426747117
 20
160.4094308806338
 30
0.0000000001127424
 11
2653.653426747117
 21
91.60943088063331
 31
0.0000000001127424
1001
ACAD
1000
DSTYLE
1002
{
1070
    40
1040
1.3
1070
    45
1040
0.5
1002
}
  0
LINE
  5
1CF7B
330
18
100
AcDbEntity
  8
01
100
AcDbLine
 10
2626.653426747117
 20
163.0094308806338
 30
0.0000000001127424
 11
2626.653426747117
 21
245.81079043337
 31
0.0000000001127424
1001
ACAD
1000
DSTYLE
1002
{
1070
    40
1040
1.3
1070
    45
1040
0.5
1002
}
  0
LINE
  5
1CF7C
330
18
100
AcDbEntity
  8
01
100
AcDbLine
 10
2557.653426747117
 20
190.8807482317914
 30
0.0000000001127424
 11
2557.653426747117
 21
245.81079043337
 31
0.0000000001127424
1001
ACAD
1000
DSTYLE
1002
{
1070
    40
1040
1.3
1070
    45
1040
0.5
1002
}
  0
LINE
  5
1CF7D
330
18
100
AcDbEntity
  8
01
100
AcDbLine
 10
2624.053426747117
 20
244.5107904333699
 30
0.0000000001127424
 11
2560.253426747117
 21
244.5107904333699
 31
0.0000000001127424
1001
ACAD
1000
DSTYLE
1002
{
1070
    40
1040
1.3
1070
    45
1040
0.5
1002
}
  0
LINE
  5
1CF81
330
18
100
AcDbEntity
  8
01
100
AcDbLine
 10
2557.653426747117
 20
190.8807482317914
 30
0.0000000001127424
 11
2557.653426747117
 21
235.7309229653218
 31
0.0000000001127424
1001
ACAD
1000
DSTYLE
1002
{
1070
    40
1040
1.3
1070
    45
1040
0.5
1002
}
  0
LINE
  5
1CF82
330
18
100
AcDbEntity
  8
01
100
AcDbLine
 10
2608.653426747117
 20
155.0094308806338
 30
0.0000000001127424
 11
2608.653426747117
 21
235.7309229653218
 31
0.0000000001127424
1001
ACAD
1000
DSTYLE
1002
{
1070
    40
1040
1.3
1070
    45
1040
0.5
1002
}
  0
LINE
  5
1CF83
330
18
100
AcDbEntity
  8
01
100
AcDbLine
 10
2560.253426747117
 20
234.4309229653218
 30
0.0000000001127424
 11
2606.053426747117
 21
234.4309229653218
 31
0.0000000001127424
1001
ACAD
1000
DSTYLE
1002
{
1070
    40
1040
1.3
1070
    45
1040
0.5
1002
}
  0
LINE
  5
1CF87
330
18
100
AcDbEntity
  8
01
100
AcDbLine
 10
2426.153543086862
 20
185.0094308806333
 30
0.0000000001127424
 11
2426.153543086862
 21
235.7309229653218
 31
0.0000000001127424
1001
ACAD
1000
DSTYLE
1002
{
1070
    40
1040
1.3
1070
    45
1040
0.5
1002
}
  0
LINE
  5
1CF88
330
18
100
AcDbEntity
  8
01
100
AcDbLine
 10
2451.153543086862
 20
185.0094308806333
 30
0.0000000001127424
 11
2451.153543086862
 21
235.7309229653218
 31
0.0000000001127424
1001
ACAD
1000
DSTYLE
1002
{
1070
    40
1040
1.3
1070
    45
1040
0.5
1002
}
  0
LINE
  5
1CF89
330
18
100
AcDbEntity
  8
01
100
AcDbLine
 10
2428.753543086862
 20
234.4309229653218
 30
0.0000000001127424
 11
2448.553543086862
 21
234.4309229653218
 31
0.0000000001127424
1001
ACAD
1000
DSTYLE
1002
{
1070
    40
1040
1.3
1070
    45
1040
0.5
1002
}
  0
LINE
  5
1CF8D
330
18
100
AcDbEntity
  8
01
100
AcDbLine
 10
2405.452581192539
 20
105.7594308806333
 30
0.0
 11
2404.153543086862
 21
106.5094308806333
 31
0.0
  0
LINE
  5
1CF8E
330
18
100
AcDbEntity
  8
01
100
AcDbLine
 10
2404.153543086862
 20
106.5094308806333
 30
0.0
 11
2402.854504981185
 21
105.7594308806333
 31
0.0
  0
LINE
  5
1CF8F
330
18
100
AcDbEntity
  8
01
100
AcDbLine
 10
2402.854504981185
 20
105.7594308806333
 30
0.0
 11
2402.854504981185
 21
104.2594308806333
 31
0.0
  0
LINE
  5
1CF90
330
18
100
AcDbEntity
  8
01
100
AcDbLine
 10
2402.854504981185
 20
104.2594308806333
 30
0.0
 11
2404.153543086862
 21
103.5094308806333
 31
0.0
  0
LINE
  5
1CF91
330
18
100
AcDbEntity
  8
01
100
AcDbLine
 10
2404.153543086862
 20
103.5094308806333
 30
0.0
 11
2405.452581192539
 21
104.2594308806333
 31
0.0
  0
LINE
  5
1CF92
330
18
100
AcDbEntity
  8
01
100
AcDbLine
 10
2405.452581192539
 20
104.2594308806333
 30
0.0
 11
2405.452581192539
 21
105.7594308806333
 31
0.0
  0
LINE
  5
1CF93
330
18
100
AcDbEntity
  8
01
100
AcDbLine
 10
2444.455482690098
 20
183.0098760250496
 30
0.0000000001691137
 11
2524.741613858306
 21
183.0098760250496
 31
0.0000000001691137
1001
ACAD
1000
DSTYLE
1002
{
1070
    40
1040
1.3
1070
    45
1040
0.5
1002
}
  0
LINE
  5
1CF94
330
18
100
AcDbEntity
  8
01
100
AcDbLine
 10
2444.455482690098
 20
69.0098760250496
 30
0.0000000001691137
 11
2524.741613858306
 21
69.0098760250496
 31
0.0000000001691137
1001
ACAD
1000
DSTYLE
1002
{
1070
    40
1040
1.3
1070
    45
1040
0.5
1002
}
  0
LINE
  5
1CF95
330
18
100
AcDbEntity
  8
01
100
AcDbLine
 10
2523.441613858306
 20
180.4098760250496
 30
0.0000000001691137
 11
2523.441613858306
 21
71.6098760250496
 31
0.0000000001691137
1001
ACAD
1000
DSTYLE
1002
{
1070
    40
1040
1.3
1070
    45
1040
0.5
1002
}
  0
LINE
  5
1CF99
330
18
100
AcDbEntity
  8
01
100
AcDbLine
 10
2445.053543086861
 20
190.9094308806332
 30
0.0000000001691137
 11
2534.10594802453
 21
190.9094308806332
 31
0.0000000001691137
1001
ACAD
1000
DSTYLE
1002
{
1070
    40
1040
1.3
1070
    45
1040
0.5
1002
}
  0
LINE
  5
1CF9A
330
18
100
AcDbEntity
  8
01
100
AcDbLine
 10
2444.980457282191
 20
61.10987602504974
 30
0.0000000001691137
 11
2534.10594802453
 21
61.10987602504974
 31
0.0000000001691137
1001
ACAD
1000
DSTYLE
1002
{
1070
    40
1040
1.3
1070
    45
1040
0.5
1002
}
  0
LINE
  5
1CF9B
330
18
100
AcDbEntity
  8
01
100
AcDbLine
 10
2532.80594802453
 20
188.3094308806332
 30
0.0000000001691137
 11
2532.80594802453
 21
63.70987602504974
 31
0.0000000001691137
1001
ACAD
1000
DSTYLE
1002
{
1070
    40
1040
1.3
1070
    45
1040
0.5
1002
}
  0
LINE
  5
1CF9F
330
18
100
AcDbEntity
  8
01
100
AcDbLine
 10
2608.653426747117
 20
130.0107491937365
 30
0.0000000001127424
 11
2572.353426747117
 21
130.0107491937365
 31
0.0000000001127424
1001
ACAD
1000
DSTYLE
1002
{
1070
     3
1000
φ<>
1070
    40
1040
1.3
1070
    45
1040
0.5
1002
}
  0
LINE
  5
1CFA0
330
18
100
AcDbEntity
  8
01
100
AcDbLine
 10
2608.653426747117
 20
80.01074919373741
 30
0.0000000001127424
 11
2572.353426747117
 21
80.01074919373741
 31
0.0000000001127424
1001
ACAD
1000
DSTYLE
1002
{
1070
     3
1000
φ<>
1070
    40
1040
1.3
1070
    45
1040
0.5
1002
}
  0
LINE
  5
1CFA1
330
18
100
AcDbEntity
  8
01
100
AcDbLine
 10
2573.653426747117
 20
127.4107491937365
 30
0.0000000001127424
 11
2573.653426747117
 21
82.6107491937374
 31
0.0000000001127424
1001
ACAD
1000
DSTYLE
1002
{
1070
     3
1000
φ<>
1070
    40
1040
1.3
1070
    45
1040
0.5
1002
}
  0
CIRCLE
  5
1CFA5
330
18
100
AcDbEntity
  8
01
100
AcDbCircle
 10
2473.153426747117
 20
105.0107491937365
 30
0.0000000001127424
 40
3.0
  0
TEXT
  5
1CFA6
330
18
100
AcDbEntity
  8
01
  6
CONTINUOUS
100
AcDbText
 10
2650.250419771844
 20
335.0522575911269
 30
0.0
 40
4.55
  1
材質：ポリプロピレン（銅粉入り）
100
AcDbText
1001
ACADANNOTATIVE
1000
AnnotativeData
1002
{
1070
     1
1070
     0
1002
}
  0
TEXT
  5
1CFA7
330
18
100
AcDbEntity
  8
01
  6
CONTINUOUS
100
AcDbText
 10
2650.402086438511
 20
327.4689242577936
 30
0.0
 40
4.55
  1
仕上げ：ブラック
100
AcDbText
1001
ACADANNOTATIVE
1000
AnnotativeData
1002
{
1070
     1
1070
     0
1002
}
  0
LINE
  5
1CFA8
330
18
100
AcDbEntity
  8
01
  6
BYBLOCK
100
AcDbLine
 10
2549.253426747117
 20
233.7342550713218
 30
0.0000000001127424
 11
2546.653426747117
 21
234.4309229653218
 31
0.0000000001127424
  0
LINE
  5
1CFA9
330
18
100
AcDbEntity
  8
01
  6
BYBLOCK
100
AcDbLine
 10
2546.653426747117
 20
234.4309229653218
 30
0.0000000001127424
 11
2549.253426747117
 21
235.1275908593218
 31
0.0000000001127424
  0
LINE
  5
1CFAA
330
18
100
AcDbEntity
  8
01
  6
BYBLOCK
100
AcDbLine
 10
2546.653426747117
 20
234.4309229653218
 30
0.0000000001127424
 11
2549.253426747117
 21
234.4309229653218
 31
0.0000000001127424
  0
LINE
  5
1CFAB
330
18
100
AcDbEntity
  8
01
  6
BYBLOCK
100
AcDbLine
 10
2555.053426747117
 20
235.1275908593218
 30
0.0000000001127424
 11
2557.653426747117
 21
234.4309229653218
 31
0.0000000001127424
  0
LINE
  5
1CFAC
330
18
100
AcDbEntity
  8
01
  6
BYBLOCK
100
AcDbLine
 10
2557.653426747117
 20
234.4309229653218
 30
0.0000000001127424
 11
2555.053426747117
 21
233.7342550713218
 31
0.0000000001127424
  0
LINE
  5
1CFAD
330
18
100
AcDbEntity
  8
01
  6
BYBLOCK
100
AcDbLine
 10
2557.653426747117
 20
234.4309229653218
 30
0.0000000001127424
 11
2555.053426747117
 21
234.4309229653218
 31
0.0000000001127424
  0
TEXT
  5
1CFAE
330
18
100
AcDbEntity
  8
01
  6
CONTINUOUS
100
AcDbText
 10
2549.878426747117
 20
235.3409229653218
 30
0.0000000001127424
 40
4.55
  1
11
100
AcDbText
1001
ACAD
1000
DSTYLE
1002
{
1070
    40
1040
1.3
1070
    45
1040
0.5
1002
}
  0
LINE
  5
1CFAF
330
18
100
AcDbEntity
  8
01
  6
BYBLOCK
100
AcDbLine
 10
2652.956758853117
 20
160.4094308806338
 30
0.0000000001127424
 11
2653.653426747117
 21
163.0094308806338
 31
0.0000000001127424
  0
LINE
  5
1CFB0
330
18
100
AcDbEntity
  8
01
  6
BYBLOCK
100
AcDbLine
 10
2653.653426747117
 20
163.0094308806338
 30
0.0000000001127424
 11
2654.350094641117
 21
160.4094308806338
 31
0.0000000001127424
  0
LINE
  5
1CFB1
330
18
100
AcDbEntity
  8
01
  6
BYBLOCK
100
AcDbLine
 10
2653.653426747117
 20
163.0094308806338
 30
0.0000000001127424
 11
2653.653426747117
 21
160.4094308806338
 31
0.0000000001127424
  0
LINE
  5
1CFB2
330
18
100
AcDbEntity
  8
01
  6
BYBLOCK
100
AcDbLine
 10
2654.350094641117
 20
91.60943088063331
 30
0.0000000001127424
 11
2653.653426747117
 21
89.00943088063332
 31
0.0000000001127424
  0
LINE
  5
1CFB3
330
18
100
AcDbEntity
  8
01
  6
BYBLOCK
100
AcDbLine
 10
2653.653426747117
 20
89.00943088063332
 30
0.0000000001127424
 11
2652.956758853117
 21
91.60943088063331
 31
0.0000000001127424
  0
LINE
  5
1CFB4
330
18
100
AcDbEntity
  8
01
  6
BYBLOCK
100
AcDbLine
 10
2653.653426747117
 20
89.00943088063332
 30
0.0000000001127424
 11
2653.653426747117
 21
91.60943088063331
 31
0.0000000001127424
  0
TEXT
  5
1CFB5
330
18
100
AcDbEntity
  8
01
  6
CONTINUOUS
100
AcDbText
 10
2652.743426747117
 20
143.9807749666525
 30
0.0000000001127424
 40
4.55
  1
74
 50
90.0
100
AcDbText
1001
ACAD
1000
DSTYLE
1002
{
1070
    40
1040
1.3
1070
    45
1040
0.5
1002
}
  0
LINE
  5
1CFB6
330
18
100
AcDbEntity
  8
01
  6
BYBLOCK
100
AcDbLine
 10
2624.053426747117
 20
245.2074583273699
 30
0.0000000001127424
 11
2626.653426747117
 21
244.5107904333699
 31
0.0000000001127424
  0
LINE
  5
1CFB7
330
18
100
AcDbEntity
  8
01
  6
BYBLOCK
100
AcDbLine
 10
2626.653426747117
 20
244.5107904333699
 30
0.0000000001127424
 11
2624.053426747117
 21
243.8141225393699
 31
0.0000000001127424
  0
LINE
  5
1CFB8
330
18
100
AcDbEntity
  8
01
  6
BYBLOCK
100
AcDbLine
 10
2626.653426747117
 20
244.5107904333699
 30
0.0000000001127424
 11
2624.053426747117
 21
244.5107904333699
 31
0.0000000001127424
  0
LINE
  5
1CFB9
330
18
100
AcDbEntity
  8
01
  6
BYBLOCK
100
AcDbLine
 10
2560.253426747117
 20
243.8141225393699
 30
0.0000000001127424
 11
2557.653426747117
 21
244.5107904333699
 31
0.0000000001127424
  0
LINE
  5
1CFBA
330
18
100
AcDbEntity
  8
01
  6
BYBLOCK
100
AcDbLine
 10
2557.653426747117
 20
244.5107904333699
 30
0.0000000001127424
 11
2560.253426747117
 21
245.2074583273699
 31
0.0000000001127424
  0
LINE
  5
1CFBB
330
18
100
AcDbEntity
  8
01
  6
BYBLOCK
100
AcDbLine
 10
2557.653426747117
 20
244.5107904333699
 30
0.0000000001127424
 11
2560.253426747117
 21
244.5107904333699
 31
0.0000000001127424
  0
TEXT
  5
1CFBC
330
18
100
AcDbEntity
  8
01
  6
CONTINUOUS
100
AcDbText
 10
2588.344908228598
 20
245.4207904333699
 30
0.0000000001127424
 40
4.55
  1
69
100
AcDbText
1001
ACAD
1000
DSTYLE
1002
{
1070
    40
1040
1.3
1070
    45
1040
0.5
1002
}
  0
LINE
  5
1CFBD
330
18
100
AcDbEntity
  8
01
  6
BYBLOCK
100
AcDbLine
 10
2560.253426747117
 20
233.7342550713218
 30
0.0000000001127424
 11
2557.653426747117
 21
234.4309229653218
 31
0.0000000001127424
  0
LINE
  5
1CFBE
330
18
100
AcDbEntity
  8
01
  6
BYBLOCK
100
AcDbLine
 10
2557.653426747117
 20
234.4309229653218
 30
0.0000000001127424
 11
2560.253426747117
 21
235.1275908593218
 31
0.0000000001127424
  0
LINE
  5
1CFBF
330
18
100
AcDbEntity
  8
01
  6
BYBLOCK
100
AcDbLine
 10
2557.653426747117
 20
234.4309229653218
 30
0.0000000001127424
 11
2560.253426747117
 21
234.4309229653218
 31
0.0000000001127424
  0
LINE
  5
1CFC0
330
18
100
AcDbEntity
  8
01
  6
BYBLOCK
100
AcDbLine
 10
2606.053426747117
 20
235.1275908593218
 30
0.0000000001127424
 11
2608.653426747117
 21
234.4309229653218
 31
0.0000000001127424
  0
LINE
  5
1CFC1
330
18
100
AcDbEntity
  8
01
  6
BYBLOCK
100
AcDbLine
 10
2608.653426747117
 20
234.4309229653218
 30
0.0000000001127424
 11
2606.053426747117
 21
233.7342550713218
 31
0.0000000001127424
  0
LINE
  5
1CFC2
330
18
100
AcDbEntity
  8
01
  6
BYBLOCK
100
AcDbLine
 10
2608.653426747117
 20
234.4309229653218
 30
0.0000000001127424
 11
2606.053426747117
 21
234.4309229653218
 31
0.0000000001127424
  0
TEXT
  5
1CFC3
330
18
100
AcDbEntity
  8
01
  6
CONTINUOUS
100
AcDbText
 10
2580.104294802672
 20
235.3409229653218
 30
0.0000000001127424
 40
4.55
  1
51
100
AcDbText
1001
ACAD
1000
DSTYLE
1002
{
1070
    40
1040
1.3
1070
    45
1040
0.5
1002
}
  0
LINE
  5
1CFC4
330
18
100
AcDbEntity
  8
01
  6
BYBLOCK
100
AcDbLine
 10
2428.753543086862
 20
233.7342550713218
 30
0.0000000001127424
 11
2426.153543086862
 21
234.4309229653218
 31
0.0000000001127424
  0
LINE
  5
1CFC5
330
18
100
AcDbEntity
  8
01
  6
BYBLOCK
100
AcDbLine
 10
2426.153543086862
 20
234.4309229653218
 30
0.0000000001127424
 11
2428.753543086862
 21
235.1275908593218
 31
0.0000000001127424
  0
LINE
  5
1CFC6
330
18
100
AcDbEntity
  8
01
  6
BYBLOCK
100
AcDbLine
 10
2426.153543086862
 20
234.4309229653218
 30
0.0000000001127424
 11
2428.753543086862
 21
234.4309229653218
 31
0.0000000001127424
  0
LINE
  5
1CFC7
330
18
100
AcDbEntity
  8
01
  6
BYBLOCK
100
AcDbLine
 10
2448.553543086862
 20
235.1275908593218
 30
0.0000000001127424
 11
2451.153543086862
 21
234.4309229653218
 31
0.0000000001127424
  0
LINE
  5
1CFC8
330
18
100
AcDbEntity
  8
01
  6
BYBLOCK
100
AcDbLine
 10
2451.153543086862
 20
234.4309229653218
 30
0.0000000001127424
 11
2448.553543086862
 21
233.7342550713218
 31
0.0000000001127424
  0
LINE
  5
1CFC9
330
18
100
AcDbEntity
  8
01
  6
BYBLOCK
100
AcDbLine
 10
2451.153543086862
 20
234.4309229653218
 30
0.0000000001127424
 11
2448.553543086862
 21
234.4309229653218
 31
0.0000000001127424
  0
TEXT
  5
1CFCA
330
18
100
AcDbEntity
  8
01
  6
CONTINUOUS
100
AcDbText
 10
2434.861876420195
 20
235.3409229653218
 30
0.0000000001127424
 40
4.55
  1
25
100
AcDbText
1001
ACAD
1000
DSTYLE
1002
{
1070
    40
1040
1.3
1070
    45
1040
0.5
1002
}
  0
LINE
  5
1CFCB
330
18
100
AcDbEntity
  8
01
  6
BYBLOCK
100
AcDbLine
 10
2522.744945964306
 20
180.4098760250496
 30
0.0000000001691137
 11
2523.441613858306
 21
183.0098760250496
 31
0.0000000001691137
  0
LINE
  5
1CFCC
330
18
100
AcDbEntity
  8
01
  6
BYBLOCK
100
AcDbLine
 10
2523.441613858306
 20
183.0098760250496
 30
0.0000000001691137
 11
2524.138281752305
 21
180.4098760250496
 31
0.0000000001691137
  0
LINE
  5
1CFCD
330
18
100
AcDbEntity
  8
01
  6
BYBLOCK
100
AcDbLine
 10
2523.441613858306
 20
183.0098760250496
 30
0.0000000001691137
 11
2523.441613858306
 21
180.4098760250496
 31
0.0000000001691137
  0
LINE
  5
1CFCE
330
18
100
AcDbEntity
  8
01
  6
BYBLOCK
100
AcDbLine
 10
2524.138281752305
 20
71.6098760250496
 30
0.0000000001691137
 11
2523.441613858306
 21
69.0098760250496
 31
0.0000000001691137
  0
LINE
  5
1CFCF
330
18
100
AcDbEntity
  8
01
  6
BYBLOCK
100
AcDbLine
 10
2523.441613858306
 20
69.0098760250496
 30
0.0000000001691137
 11
2522.744945964306
 21
71.6098760250496
 31
0.0000000001691137
  0
LINE
  5
1CFD0
330
18
100
AcDbEntity
  8
01
  6
BYBLOCK
100
AcDbLine
 10
2523.441613858306
 20
69.0098760250496
 30
0.0000000001691137
 11
2523.441613858306
 21
71.6098760250496
 31
0.0000000001691137
  0
TEXT
  5
1CFD1
330
18
100
AcDbEntity
  8
01
  6
CONTINUOUS
100
AcDbText
 10
2522.531613858306
 20
150.5928983729714
 30
0.0000000001691137
 40
4.55
  1
114
 50
90.0
100
AcDbText
1001
ACAD
1000
DSTYLE
1002
{
1070
    40
1040
1.3
1070
    45
1040
0.5
1002
}
  0
LINE
  5
1CFD2
330
18
100
AcDbEntity
  8
01
  6
BYBLOCK
100
AcDbLine
 10
2532.10928013053
 20
188.3094308806332
 30
0.0000000001691137
 11
2532.80594802453
 21
190.9094308806332
 31
0.0000000001691137
  0
LINE
  5
1CFD3
330
18
100
AcDbEntity
  8
01
  6
BYBLOCK
100
AcDbLine
 10
2532.80594802453
 20
190.9094308806332
 30
0.0000000001691137
 11
2533.50261591853
 21
188.3094308806332
 31
0.0000000001691137
  0
LINE
  5
1CFD4
330
18
100
AcDbEntity
  8
01
  6
BYBLOCK
100
AcDbLine
 10
2532.80594802453
 20
190.9094308806332
 30
0.0000000001691137
 11
2532.80594802453
 21
188.3094308806332
 31
0.0000000001691137
  0
LINE
  5
1CFD5
330
18
100
AcDbEntity
  8
01
  6
BYBLOCK
100
AcDbLine
 10
2533.50261591853
 20
63.70987602504974
 30
0.0000000001691137
 11
2532.80594802453
 21
61.10987602504974
 31
0.0000000001691137
  0
LINE
  5
1CFD6
330
18
100
AcDbEntity
  8
01
  6
BYBLOCK
100
AcDbLine
 10
2532.80594802453
 20
61.10987602504974
 30
0.0000000001691137
 11
2532.10928013053
 21
63.70987602504974
 31
0.0000000001691137
  0
LINE
  5
1CFD7
330
18
100
AcDbEntity
  8
01
  6
BYBLOCK
100
AcDbLine
 10
2532.80594802453
 20
61.10987602504974
 30
0.0000000001691137
 11
2532.80594802453
 21
63.70987602504974
 31
0.0000000001691137
  0
TEXT
  5
1CFD8
330
18
100
AcDbEntity
  8
01
  6
CONTINUOUS
100
AcDbText
 10
2531.89594802453
 20
149.8083343701633
 30
0.0000000001691137
 40
4.55
  1
130
 50
90.0
100
AcDbText
1001
ACAD
1000
DSTYLE
1002
{
1070
    40
1040
1.3
1070
    45
1040
0.5
1002
}
  0
LINE
  5
1CFD9
330
18
100
AcDbEntity
  8
01
  6
BYBLOCK
100
AcDbLine
 10
2572.956758853117
 20
127.4107491937365
 30
0.0000000001127424
 11
2573.653426747117
 21
130.0107491937365
 31
0.0000000001127424
  0
LINE
  5
1CFDA
330
18
100
AcDbEntity
  8
01
  6
BYBLOCK
100
AcDbLine
 10
2573.653426747117
 20
130.0107491937365
 30
0.0000000001127424
 11
2574.350094641117
 21
127.4107491937365
 31
0.0000000001127424
  0
LINE
  5
1CFDB
330
18
100
AcDbEntity
  8
01
  6
BYBLOCK
100
AcDbLine
 10
2573.653426747117
 20
130.0107491937365
 30
0.0000000001127424
 11
2573.653426747117
 21
127.4107491937365
 31
0.0000000001127424
  0
LINE
  5
1CFDC
330
18
100
AcDbEntity
  8
01
  6
BYBLOCK
100
AcDbLine
 10
2574.350094641117
 20
82.6107491937374
 30
0.0000000001127424
 11
2573.653426747117
 21
80.01074919373741
 31
0.0000000001127424
  0
LINE
  5
1CFDD
330
18
100
AcDbEntity
  8
01
  6
BYBLOCK
100
AcDbLine
 10
2573.653426747117
 20
80.01074919373741
 30
0.0000000001127424
 11
2572.956758853117
 21
82.6107491937374
 31
0.0000000001127424
  0
LINE
  5
1CFDE
330
18
100
AcDbEntity
  8
01
  6
BYBLOCK
100
AcDbLine
 10
2573.653426747117
 20
80.01074919373741
 30
0.0000000001127424
 11
2573.653426747117
 21
82.6107491937374
 31
0.0000000001127424
  0
TEXT
  5
1CFDF
330
18
100
AcDbEntity
  8
01
  6
CONTINUOUS
100
AcDbText
 10
2572.743426747117
 20
96.81124628713769
 30
0.0000000001127424
 40
4.55
  1
φ50
 50
90.0
100
AcDbText
1001
ACAD
1000
DSTYLE
1002
{
1070
     3
1000
φ<>
1070
    40
1040
1.3
1070
    45
1040
0.5
1002
}
  0
LINE
  5
1CFE1
330
18
100
AcDbEntity
  8
1DIM
100
AcDbLine
 10
2606.274176016824
 20
328.6053651639643
 30
0.0000000001127424
 11
2578.806587840135
 21
309.0994308796051
 31
0.0000000001127424
1001
ACAD
1000
DSTYLE
1002
{
1070
    40
1040
1.3
1070
    45
1040
0.5
1002
}
  0
LINE
  5
1CFE2
330
18
100
AcDbEntity
  8
1DIM
100
AcDbLine
 10
2625.054310929177
 20
384.5094308796051
 30
0.0000000001127424
 11
2645.61470168889
 21
384.5094308796051
 31
0.0000000001127424
1001
ACAD
1000
DSTYLE
1002
{
1070
    45
1040
0.5
1070
    40
1040
1.3
1002
}
  0
LINE
  5
1CFE3
330
18
100
AcDbEntity
  8
1DIM
100
AcDbLine
 10
2626.654310929177
 20
365.709430879605
 30
0.0000000001127424
 11
2645.61470168889
 21
365.709430879605
 31
0.0000000001127424
1001
ACAD
1000
DSTYLE
1002
{
1070
    45
1040
0.5
1070
    40
1040
1.3
1002
}
  0
LINE
  5
1CFE4
330
18
100
AcDbEntity
  8
1DIM
100
AcDbLine
 10
2644.31470168889
 20
381.9094308796051
 30
0.0000000001127424
 11
2644.31470168889
 21
368.309430879605
 31
0.0000000001127424
1001
ACAD
1000
DSTYLE
1002
{
1070
    45
1040
0.5
1070
    40
1040
1.3
1002
}
  0
LINE
  5
1CFE8
330
18
100
AcDbEntity
  8
1DIM
100
AcDbLine
 10
2608.65354308686
 20
333.5094308796051
 30
0.0000000001127424
 11
2608.65354308686
 21
268.7094308796051
 31
0.0000000001127424
1001
ACAD
1000
DSTYLE
1002
{
1070
    40
1040
1.3
1070
    45
1040
0.5
1002
}
  0
LINE
  5
1CFE9
330
18
100
AcDbEntity
  8
1DIM
100
AcDbLine
 10
2716.65354308686
 20
288.8312517122972
 30
0.0000000001127424
 11
2716.65354308686
 21
268.7094308796051
 31
0.0000000001127424
1001
ACAD
1000
DSTYLE
1002
{
1070
    40
1040
1.3
1070
    45
1040
0.5
1002
}
  0
LINE
  5
1CFEA
330
18
100
AcDbEntity
  8
1DIM
100
AcDbLine
 10
2611.25354308686
 20
270.0094308796051
 30
0.0000000001127424
 11
2714.05354308686
 21
270.0094308796051
 31
0.0000000001127424
1001
ACAD
1000
DSTYLE
1002
{
1070
    40
1040
1.3
1070
    45
1040
0.5
1002
}
  0
LINE
  5
1CFEE
330
18
100
AcDbEntity
  8
1DIM
100
AcDbLine
 10
2597.65354308686
 20
293.0094308796051
 30
0.0000000001127424
 11
2597.65354308686
 21
258.7094308796051
 31
0.0000000001127424
1001
ACAD
1000
DSTYLE
1002
{
1070
    40
1040
1.3
1070
    45
1040
0.5
1002
}
  0
LINE
  5
1CFEF
330
18
100
AcDbEntity
  8
1DIM
100
AcDbLine
 10
2716.65354308686
 20
288.8312517122972
 30
0.0000000001127424
 11
2716.65354308686
 21
258.7094308796051
 31
0.0000000001127424
1001
ACAD
1000
DSTYLE
1002
{
1070
    40
1040
1.3
1070
    45
1040
0.5
1002
}
  0
LINE
  5
1CFF0
330
18
100
AcDbEntity
  8
1DIM
100
AcDbLine
 10
2600.25354308686
 20
260.0094308796051
 30
0.0000000001127424
 11
2714.05354308686
 21
260.0094308796051
 31
0.0000000001127424
1001
ACAD
1000
DSTYLE
1002
{
1070
    40
1040
1.3
1070
    45
1040
0.5
1002
}
  0
LINE
  5
1CFF4
330
18
100
AcDbEntity
  8
1DIM
100
AcDbLine
 10
2715.45354308686
 20
315.8892568621091
 30
0.0000000001127424
 11
2764.95354308686
 21
315.8892568621091
 31
0.0000000001127424
1001
ACAD
1000
DSTYLE
1002
{
1070
    40
1040
1.3
1070
    45
1040
0.5
1002
}
  0
LINE
  5
1CFF5
330
18
100
AcDbEntity
  8
1DIM
100
AcDbLine
 10
2711.408691084208
 20
355.0094308796051
 30
0.0000000001127424
 11
2764.95354308686
 21
355.0094308796051
 31
0.0000000001127424
1001
ACAD
1000
DSTYLE
1002
{
1070
    40
1040
1.3
1070
    45
1040
0.5
1002
}
  0
LINE
  5
1CFF6
330
18
100
AcDbEntity
  8
1DIM
100
AcDbLine
 10
2763.65354308686
 20
318.4892568621091
 30
0.0000000001127424
 11
2763.65354308686
 21
352.4094308796051
 31
0.0000000001127424
1001
ACAD
1000
DSTYLE
1002
{
1070
    40
1040
1.3
1070
    45
1040
0.5
1002
}
  0
LINE
  5
1CFFA
330
18
100
AcDbEntity
  8
1DIM
100
AcDbLine
 10
2715.45354308686
 20
287.6296048970999
 30
0.0000000001127424
 11
2774.95354308686
 21
287.6296048970999
 31
0.0000000001127424
1001
ACAD
1000
DSTYLE
1002
{
1070
    40
1040
1.3
1070
    45
1040
0.5
1002
}
  0
LINE
  5
1CFFB
330
18
100
AcDbEntity
  8
1DIM
100
AcDbLine
 10
2711.408691084208
 20
355.0094308796051
 30
0.0000000001127424
 11
2774.95354308686
 21
355.0094308796051
 31
0.0000000001127424
1001
ACAD
1000
DSTYLE
1002
{
1070
    40
1040
1.3
1070
    45
1040
0.5
1002
}
  0
LINE
  5
1CFFC
330
18
100
AcDbEntity
  8
1DIM
100
AcDbLine
 10
2773.65354308686
 20
290.2296048970999
 30
0.0000000001127424
 11
2773.65354308686
 21
352.4094308796051
 31
0.0000000001127424
1001
ACAD
1000
DSTYLE
1002
{
1070
    40
1040
1.3
1070
    45
1040
0.5
1002
}
  0
LINE
  5
1D000
330
18
100
AcDbEntity
  8
1DIM
100
AcDbLine
 10
2715.453426747118
 20
97.61074919373709
 30
0.0000000001127424
 11
2764.953426747117
 21
97.61074919373709
 31
0.0000000001127424
1001
ACAD
1000
DSTYLE
1002
{
1070
    40
1040
1.3
1070
    45
1040
0.5
1002
}
  0
LINE
  5
1D001
330
18
100
AcDbEntity
  8
1DIM
100
AcDbLine
 10
2715.453426747118
 20
112.4107491937369
 30
0.0000000001127424
 11
2764.953426747117
 21
112.4107491937369
 31
0.0000000001127424
1001
ACAD
1000
DSTYLE
1002
{
1070
    40
1040
1.3
1070
    45
1040
0.5
1002
}
  0
LINE
  5
1D002
330
18
100
AcDbEntity
  8
1DIM
100
AcDbLine
 10
2763.653426747117
 20
100.2107491937371
 30
0.0000000001127424
 11
2763.653426747117
 21
109.8107491937369
 31
0.0000000001127424
1001
ACAD
1000
DSTYLE
1002
{
1070
    40
1040
1.3
1070
    45
1040
0.5
1002
}
  0
LINE
  5
1D006
330
18
100
AcDbEntity
  8
1DIM
100
AcDbLine
 10
2629.65354308686
 20
288.1296048970999
 30
0.0000000001141035
 11
2629.65354308686
 21
277.7681272993961
 31
0.0000000001141035
1001
ACAD
1000
DSTYLE
1002
{
1070
    40
1040
1.3
1070
    45
1040
0.5
1002
}
  0
LINE
  5
1D007
330
18
100
AcDbEntity
  8
1DIM
100
AcDbLine
 10
2716.65354308686
 20
288.8312517122972
 30
0.0000000001141035
 11
2716.65354308686
 21
277.7681272993961
 31
0.0000000001141035
1001
ACAD
1000
DSTYLE
1002
{
1070
    40
1040
1.3
1070
    45
1040
0.5
1002
}
  0
LINE
  5
1D008
330
18
100
AcDbEntity
  8
1DIM
100
AcDbLine
 10
2632.25354308686
 20
279.0681272993961
 30
0.0000000001141035
 11
2714.05354308686
 21
279.0681272993961
 31
0.0000000001141035
1001
ACAD
1000
DSTYLE
1002
{
1070
    40
1040
1.3
1070
    45
1040
0.5
1002
}
  0
LINE
  5
1D00D
330
18
100
AcDbEntity
  8
1DIM
100
AcDbLine
 10
2643.093388825902
 20
318.2153196272591
 30
0.0
 11
2649.643753105177
 21
326.5589242577935
 31
0.0
1001
ACAD
1000
DSTYLE
1002
{
1070
    40
1040
1.3
1070
    45
1040
0.5
1002
}
  0
LINE
  5
1D00E
330
18
100
AcDbEntity
  8
0
  6
BYBLOCK
100
AcDbLine
 10
2605.870805442915
 20
329.1733777823405
 30
0.0000000001127424
 11
2608.394027987178
 21
330.1107646537303
 31
0.0000000001127424
  0
LINE
  5
1D00F
330
18
100
AcDbEntity
  8
0
  6
BYBLOCK
100
AcDbLine
 10
2608.394027987178
 20
330.1107646537303
 30
0.0000000001127424
 11
2606.677546590733
 21
328.0373525455881
 31
0.0000000001127424
  0
LINE
  5
1D010
330
18
100
AcDbEntity
  8
0
  6
BYBLOCK
100
AcDbLine
 10
2608.394027987178
 20
330.1107646537303
 30
0.0000000001127424
 11
2606.274176016824
 21
328.6053651639643
 31
0.0000000001127424
  0
LINE
  5
1D011
330
18
100
AcDbEntity
  8
0
  6
BYBLOCK
100
AcDbLine
 10
2643.61803379489
 20
381.9094308796051
 30
0.0000000001127424
 11
2644.31470168889
 21
384.5094308796051
 31
0.0000000001127424
  0
LINE
  5
1D012
330
18
100
AcDbEntity
  8
0
  6
BYBLOCK
100
AcDbLine
 10
2644.31470168889
 20
384.5094308796051
 30
0.0000000001127424
 11
2645.01136958289
 21
381.9094308796051
 31
0.0000000001127424
  0
LINE
  5
1D013
330
18
100
AcDbEntity
  8
0
  6
BYBLOCK
100
AcDbLine
 10
2644.31470168889
 20
384.5094308796051
 30
0.0000000001127424
 11
2644.31470168889
 21
381.9094308796051
 31
0.0000000001127424
  0
LINE
  5
1D014
330
18
100
AcDbEntity
  8
0
  6
BYBLOCK
100
AcDbLine
 10
2645.01136958289
 20
368.309430879605
 30
0.0000000001127424
 11
2644.31470168889
 21
365.709430879605
 31
0.0000000001127424
  0
LINE
  5
1D015
330
18
100
AcDbEntity
  8
0
  6
BYBLOCK
100
AcDbLine
 10
2644.31470168889
 20
365.709430879605
 30
0.0000000001127424
 11
2643.61803379489
 21
368.309430879605
 31
0.0000000001127424
  0
LINE
  5
1D016
330
18
100
AcDbEntity
  8
0
  6
BYBLOCK
100
AcDbLine
 10
2644.31470168889
 20
365.709430879605
 30
0.0000000001127424
 11
2644.31470168889
 21
368.309430879605
 31
0.0000000001127424
  0
TEXT
  5
1D017
330
18
100
AcDbEntity
  8
1DIM
  6
CONTINUOUS
100
AcDbText
 10
2643.40470168889
 20
372.0750443055308
 30
0.0000000001127424
 40
4.55
  1
19
 50
90.0
100
AcDbText
1001
ACAD
1000
DSTYLE
1002
{
1070
    45
1040
0.5
1070
    40
1040
1.3
1002
}
  0
LINE
  5
1D018
330
18
100
AcDbEntity
  8
0
  6
BYBLOCK
100
AcDbLine
 10
2611.25354308686
 20
269.3127629856052
 30
0.0000000001127424
 11
2608.65354308686
 21
270.0094308796051
 31
0.0000000001127424
  0
LINE
  5
1D019
330
18
100
AcDbEntity
  8
0
  6
BYBLOCK
100
AcDbLine
 10
2608.65354308686
 20
270.0094308796051
 30
0.0000000001127424
 11
2611.25354308686
 21
270.7060987736051
 31
0.0000000001127424
  0
LINE
  5
1D01A
330
18
100
AcDbEntity
  8
0
  6
BYBLOCK
100
AcDbLine
 10
2608.65354308686
 20
270.0094308796051
 30
0.0000000001127424
 11
2611.25354308686
 21
270.0094308796051
 31
0.0000000001127424
  0
LINE
  5
1D01B
330
18
100
AcDbEntity
  8
0
  6
BYBLOCK
100
AcDbLine
 10
2714.05354308686
 20
270.7060987736051
 30
0.0000000001127424
 11
2716.65354308686
 21
270.0094308796051
 31
0.0000000001127424
  0
LINE
  5
1D01C
330
18
100
AcDbEntity
  8
0
  6
BYBLOCK
100
AcDbLine
 10
2716.65354308686
 20
270.0094308796051
 30
0.0000000001127424
 11
2714.05354308686
 21
269.3127629856052
 31
0.0000000001127424
  0
LINE
  5
1D01D
330
18
100
AcDbEntity
  8
0
  6
BYBLOCK
100
AcDbLine
 10
2716.65354308686
 20
270.0094308796051
 30
0.0000000001127424
 11
2714.05354308686
 21
270.0094308796051
 31
0.0000000001127424
  0
TEXT
  5
1D01E
330
18
100
AcDbEntity
  8
1DIM
  6
CONTINUOUS
100
AcDbText
 10
2657.724376420193
 20
270.9194308796051
 30
0.0000000001127424
 40
4.55
  1
108
100
AcDbText
1001
ACAD
1000
DSTYLE
1002
{
1070
    40
1040
1.3
1070
    45
1040
0.5
1002
}
  0
LINE
  5
1D01F
330
18
100
AcDbEntity
  8
0
  6
BYBLOCK
100
AcDbLine
 10
2600.25354308686
 20
259.3127629856052
 30
0.0000000001127424
 11
2597.65354308686
 21
260.0094308796051
 31
0.0000000001127424
  0
LINE
  5
1D020
330
18
100
AcDbEntity
  8
0
  6
BYBLOCK
100
AcDbLine
 10
2597.65354308686
 20
260.0094308796051
 30
0.0000000001127424
 11
2600.25354308686
 21
260.7060987736051
 31
0.0000000001127424
  0
LINE
  5
1D021
330
18
100
AcDbEntity
  8
0
  6
BYBLOCK
100
AcDbLine
 10
2597.65354308686
 20
260.0094308796051
 30
0.0000000001127424
 11
2600.25354308686
 21
260.0094308796051
 31
0.0000000001127424
  0
LINE
  5
1D022
330
18
100
AcDbEntity
  8
0
  6
BYBLOCK
100
AcDbLine
 10
2714.05354308686
 20
260.7060987736051
 30
0.0000000001127424
 11
2716.65354308686
 21
260.0094308796051
 31
0.0000000001127424
  0
LINE
  5
1D023
330
18
100
AcDbEntity
  8
0
  6
BYBLOCK
100
AcDbLine
 10
2716.65354308686
 20
260.0094308796051
 30
0.0000000001127424
 11
2714.05354308686
 21
259.3127629856052
 31
0.0000000001127424
  0
LINE
  5
1D024
330
18
100
AcDbEntity
  8
0
  6
BYBLOCK
100
AcDbLine
 10
2716.65354308686
 20
260.0094308796051
 30
0.0000000001127424
 11
2714.05354308686
 21
260.0094308796051
 31
0.0000000001127424
  0
TEXT
  5
1D025
330
18
100
AcDbEntity
  8
1DIM
  6
CONTINUOUS
100
AcDbText
 10
2652.602489846119
 20
260.9194308796051
 30
0.0000000001127424
 40
4.55
  1
119
100
AcDbText
1001
ACAD
1000
DSTYLE
1002
{
1070
    40
1040
1.3
1070
    45
1040
0.5
1002
}
  0
LINE
  5
1D026
330
18
100
AcDbEntity
  8
0
  6
BYBLOCK
100
AcDbLine
 10
2764.35021098086
 20
318.4892568621091
 30
0.0000000001127424
 11
2763.65354308686
 21
315.8892568621091
 31
0.0000000001127424
  0
LINE
  5
1D027
330
18
100
AcDbEntity
  8
0
  6
BYBLOCK
100
AcDbLine
 10
2763.65354308686
 20
315.8892568621091
 30
0.0000000001127424
 11
2762.95687519286
 21
318.4892568621091
 31
0.0000000001127424
  0
LINE
  5
1D028
330
18
100
AcDbEntity
  8
0
  6
BYBLOCK
100
AcDbLine
 10
2763.65354308686
 20
315.8892568621091
 30
0.0000000001127424
 11
2763.65354308686
 21
318.4892568621091
 31
0.0000000001127424
  0
LINE
  5
1D029
330
18
100
AcDbEntity
  8
0
  6
BYBLOCK
100
AcDbLine
 10
2762.95687519286
 20
352.4094308796051
 30
0.0000000001127424
 11
2763.65354308686
 21
355.0094308796051
 31
0.0000000001127424
  0
LINE
  5
1D02A
330
18
100
AcDbEntity
  8
0
  6
BYBLOCK
100
AcDbLine
 10
2763.65354308686
 20
355.0094308796051
 30
0.0000000001127424
 11
2764.35021098086
 21
352.4094308796051
 31
0.0000000001127424
  0
LINE
  5
1D02B
330
18
100
AcDbEntity
  8
0
  6
BYBLOCK
100
AcDbLine
 10
2763.65354308686
 20
355.0094308796051
 30
0.0000000001127424
 11
2763.65354308686
 21
352.4094308796051
 31
0.0000000001127424
  0
TEXT
  5
1D02C
330
18
100
AcDbEntity
  8
1DIM
  6
CONTINUOUS
100
AcDbText
 10
2762.74354308686
 20
331.6566239634499
 30
0.0000000001127424
 40
4.55
  1
39
 50
90.0
100
AcDbText
1001
ACAD
1000
DSTYLE
1002
{
1070
    40
1040
1.3
1070
    45
1040
0.5
1002
}
  0
LINE
  5
1D02D
330
18
100
AcDbEntity
  8
0
  6
BYBLOCK
100
AcDbLine
 10
2774.35021098086
 20
290.2296048970999
 30
0.0000000001127424
 11
2773.65354308686
 21
287.6296048970999
 31
0.0000000001127424
  0
LINE
  5
1D02E
330
18
100
AcDbEntity
  8
0
  6
BYBLOCK
100
AcDbLine
 10
2773.65354308686
 20
287.6296048970999
 30
0.0000000001127424
 11
2772.95687519286
 21
290.2296048970999
 31
0.0000000001127424
  0
LINE
  5
1D02F
330
18
100
AcDbEntity
  8
0
  6
BYBLOCK
100
AcDbLine
 10
2773.65354308686
 20
287.6296048970999
 30
0.0000000001127424
 11
2773.65354308686
 21
290.2296048970999
 31
0.0000000001127424
  0
LINE
  5
1D030
330
18
100
AcDbEntity
  8
0
  6
BYBLOCK
100
AcDbLine
 10
2772.95687519286
 20
352.4094308796051
 30
0.0000000001127424
 11
2773.65354308686
 21
355.0094308796051
 31
0.0000000001127424
  0
LINE
  5
1D031
330
18
100
AcDbEntity
  8
0
  6
BYBLOCK
100
AcDbLine
 10
2773.65354308686
 20
355.0094308796051
 30
0.0000000001127424
 11
2774.35021098086
 21
352.4094308796051
 31
0.0000000001127424
  0
LINE
  5
1D032
330
18
100
AcDbEntity
  8
0
  6
BYBLOCK
100
AcDbLine
 10
2773.65354308686
 20
355.0094308796051
 30
0.0000000001127424
 11
2773.65354308686
 21
352.4094308796051
 31
0.0000000001127424
  0
TEXT
  5
1D033
330
18
100
AcDbEntity
  8
1DIM
  6
CONTINUOUS
100
AcDbText
 10
2772.74354308686
 20
314.4787192772415
 30
0.0000000001127424
 40
4.55
  1
67.5
 50
90.0
100
AcDbText
1001
ACAD
1000
DSTYLE
1002
{
1070
    40
1040
1.3
1070
    45
1040
0.5
1002
}
  0
LINE
  5
1D034
330
18
100
AcDbEntity
  8
0
  6
BYBLOCK
100
AcDbLine
 10
2764.350094641117
 20
100.2107491937371
 30
0.0000000001127424
 11
2763.653426747117
 21
97.61074919373709
 31
0.0000000001127424
  0
LINE
  5
1D035
330
18
100
AcDbEntity
  8
0
  6
BYBLOCK
100
AcDbLine
 10
2763.653426747117
 20
97.61074919373709
 30
0.0000000001127424
 11
2762.956758853117
 21
100.2107491937371
 31
0.0000000001127424
  0
LINE
  5
1D036
330
18
100
AcDbEntity
  8
0
  6
BYBLOCK
100
AcDbLine
 10
2763.653426747117
 20
97.61074919373709
 30
0.0000000001127424
 11
2763.653426747117
 21
100.2107491937371
 31
0.0000000001127424
  0
LINE
  5
1D037
330
18
100
AcDbEntity
  8
0
  6
BYBLOCK
100
AcDbLine
 10
2762.956758853117
 20
109.8107491937369
 30
0.0000000001127424
 11
2763.653426747117
 21
112.4107491937369
 31
0.0000000001127424
  0
LINE
  5
1D038
330
18
100
AcDbEntity
  8
0
  6
BYBLOCK
100
AcDbLine
 10
2763.653426747117
 20
112.4107491937369
 30
0.0000000001127424
 11
2764.350094641117
 21
109.8107491937369
 31
0.0000000001127424
  0
LINE
  5
1D039
330
18
100
AcDbEntity
  8
0
  6
BYBLOCK
100
AcDbLine
 10
2763.653426747117
 20
112.4107491937369
 30
0.0000000001127424
 11
2763.653426747117
 21
109.8107491937369
 31
0.0000000001127424
  0
TEXT
  5
1D03A
330
18
100
AcDbEntity
  8
1DIM
  6
CONTINUOUS
100
AcDbText
 10
2762.743426747117
 20
101.9774158604037
 30
0.0000000001127424
 40
4.55
  1
15
 50
90.0
100
AcDbText
1001
ACAD
1000
DSTYLE
1002
{
1070
    40
1040
1.3
1070
    45
1040
0.5
1002
}
  0
LINE
  5
1D03B
330
18
100
AcDbEntity
  8
0
  6
BYBLOCK
100
AcDbLine
 10
2632.25354308686
 20
278.3714594053961
 30
0.0000000001141035
 11
2629.65354308686
 21
279.0681272993961
 31
0.0000000001141035
  0
LINE
  5
1D03C
330
18
100
AcDbEntity
  8
0
  6
BYBLOCK
100
AcDbLine
 10
2629.65354308686
 20
279.0681272993961
 30
0.0000000001141035
 11
2632.25354308686
 21
279.7647951933961
 31
0.0000000001141035
  0
LINE
  5
1D03D
330
18
100
AcDbEntity
  8
0
  6
BYBLOCK
100
AcDbLine
 10
2629.65354308686
 20
279.0681272993961
 30
0.0000000001141035
 11
2632.25354308686
 21
279.0681272993961
 31
0.0000000001141035
  0
LINE
  5
1D03E
330
18
100
AcDbEntity
  8
0
  6
BYBLOCK
100
AcDbLine
 10
2714.05354308686
 20
279.7647951933961
 30
0.0000000001141035
 11
2716.65354308686
 21
279.0681272993961
 31
0.0000000001141035
  0
LINE
  5
1D03F
330
18
100
AcDbEntity
  8
0
  6
BYBLOCK
100
AcDbLine
 10
2716.65354308686
 20
279.0681272993961
 30
0.0000000001141035
 11
2714.05354308686
 21
278.3714594053961
 31
0.0000000001141035
  0
LINE
  5
1D040
330
18
100
AcDbEntity
  8
0
  6
BYBLOCK
100
AcDbLine
 10
2716.65354308686
 20
279.0681272993961
 30
0.0000000001141035
 11
2714.05354308686
 21
279.0681272993961
 31
0.0000000001141035
  0
TEXT
  5
1D041
330
18
100
AcDbEntity
  8
1DIM
  6
CONTINUOUS
100
AcDbText
 10
2669.361876420193
 20
279.9781272993961
 30
0.0000000001141035
 40
4.55
  1
87
100
AcDbText
1001
ACAD
1000
DSTYLE
1002
{
1070
    40
1040
1.3
1070
    45
1040
0.5
1002
}
  0
LINE
  5
1D042
330
18
100
AcDbEntity
  8
0
  6
BYBLOCK
100
AcDbLine
 10
2643.641361423874
 20
317.7851194571026
 30
0.0
 11
2641.487859918886
 21
316.1702580319187
 31
0.0
  0
LINE
  5
1D043
330
18
100
AcDbEntity
  8
0
  6
BYBLOCK
100
AcDbLine
 10
2641.487859918886
 20
316.1702580319187
 30
0.0
 11
2642.545416227931
 21
318.6455197974156
 31
0.0
  0
LINE
  5
1D044
330
18
100
AcDbEntity
  8
0
  6
BYBLOCK
100
AcDbLine
 10
2641.487859918886
 20
316.1702580319187
 30
0.0
 11
2643.093388825902
 21
318.2153196272591
 31
0.0
  0
VIEWPORT
  5
57
330
15
100
AcDbEntity
 67
     1
  8
0
100
AcDbViewport
 68
     1
 10
0.0
 20
0.0
 30
0.0
 40
551.8723404255319
 41
297.0
 68
     1
 69
     1
1001
ACAD
1000
MVIEW
1002
{
1070
    16
1010
0.0
1020
0.0
1030
0.0
1010
0.0
1020
0.0
1030
1.0
1040
0.0
1040
297.0
1040
-4.171999999925333
1040
12.83903210976956
1040
50.0
1040
0.0
1040
0.0
1070
    16
1070
    20
1070
     0
1070
     1
1070
     0
1070
     0
1070
     0
1070
     0
1040
0.0
1040
0.0
1040
0.0
1040
10.0
1040
10.0
1040
10.0
1040
10.0
1070
     0
1002
{
1002
}
1002
}
  0
ENDSEC
  0
SECTION
  2
OBJECTS
  0
DICTIONARY
  5
C
330
0
100
AcDbDictionary
  3
ACAD_CIP_PREVIOUS_PRODUCT_INFO
350
1A953
  3
ACAD_COLOR
350
18D
  3
ACAD_GROUP
350
D
  3
ACAD_LAYOUT
350
18E
  3
ACAD_MATERIAL
350
18C
  3
ACAD_MLEADERSTYLE
350
D9E7
  3
ACAD_MLINESTYLE
350
1B
  3
ACAD_PLOTSETTINGS
350
18F
  3
ACAD_SCALELIST
350
D9C5
  3
ACAD_VISUALSTYLE
350
D9B4
  3
ACDBHEADERROUNDTRIPXREC
350
1D045
  3
ACDBVARIABLEDICTIONARY
350
37
  3
AEC_PROPERTY_SET_DEFS
350
1B557
  3
CONTENTDICTIONARY
350
D8
  3
DRAWINGVARIABLESDICT
350
20
  3
DWGPROPS
350
1D048
1001
ACAD
1000
TREAT_AS_HARD
1070
     0
  0
DICTIONARY
  5
E6A6
330
2
100
AcDbDictionary
  3
ACAD_LAYERSTATES
360
E6A7
1001
ACAD
1000
TREAT_AS_HARD
1070
     1
  0
DICTIONARY
  5
DA05
330
E
100
AcDbDictionary
  3
ADSK_XREC_LAYER_RECONCILED
360
DA06
1001
ACAD
1000
TREAT_AS_HARD
1070
     1
  0
DICTIONARY
  5
DA07
330
29
100
AcDbDictionary
  3
ADSK_XREC_LAYER_RECONCILED
360
DA08
1001
ACAD
1000
TREAT_AS_HARD
1070
     1
  0
DICTIONARY
  5
DA09
330
31
100
AcDbDictionary
  3
ADSK_XREC_LAYER_RECONCILED
360
DA0A
1001
ACAD
1000
TREAT_AS_HARD
1070
     1
  0
DICTIONARY
  5
DA0F
330
243
100
AcDbDictionary
  3
ADSK_XREC_LAYER_RECONCILED
360
DA10
1001
ACAD
1000
TREAT_AS_HARD
1070
     1
  0
DICTIONARY
  5
DA15
330
24E
100
AcDbDictionary
  3
ADSK_XREC_LAYER_RECONCILED
360
DA16
1001
ACAD
1000
TREAT_AS_HARD
1070
     1
  0
DICTIONARY
  5
88F
330
18
100
AcDbDictionary
  3
ACAD_SORTENTS
360
890
1001
ACAD
1000
TREAT_AS_HARD
1070
     1
  0
XRECORD
  5
1A953
102
{ACAD_REACTORS
330
C
102
}
330
C
100
AcDbXrecord
300
ACDLT
300
2012
300
ACDLT_F_S
  0
DICTIONARY
  5
18D
102
{ACAD_REACTORS
330
C
102
}
330
C
100
AcDbDictionary
1001
ACAD
1000
TREAT_AS_HARD
1070
     0
  0
DICTIONARY
  5
D
102
{ACAD_REACTORS
330
C
102
}
330
C
100
AcDbDictionary
1001
ACAD
1000
TREAT_AS_HARD
1070
     0
  0
DICTIONARY
  5
18E
102
{ACAD_REACTORS
330
C
102
}
330
C
100
AcDbDictionary
1001
ACAD
1000
TREAT_AS_HARD
1070
     0
  0
DICTIONARY
  5
18C
102
{ACAD_REACTORS
330
C
102
}
330
C
100
AcDbDictionary
  3
BYBLOCK
350
D9A4
  3
BYLAYER
350
D99C
  3
GLOBAL
350
D9AC
1001
ACAD
1000
TREAT_AS_HARD
1070
     0
  0
DICTIONARY
  5
D9E7
102
{ACAD_REACTORS
330
C
102
}
330
C
100
AcDbDictionary
  3
STANDARD
350
D9E8
1001
ACAD
1000
TREAT_AS_HARD
1070
     0
  0
DICTIONARY
  5
1B
102
{ACAD_REACTORS
330
C
102
}
330
C
100
AcDbDictionary
  3
STANDARD
350
1C
1001
ACAD
1000
TREAT_AS_HARD
1070
     0
  0
DICTIONARY
  5
18F
102
{ACAD_REACTORS
330
C
102
}
330
C
100
AcDbDictionary
1001
ACAD
1000
TREAT_AS_HARD
1070
     0
  0
DICTIONARY
  5
D9C5
102
{ACAD_REACTORS
330
C
102
}
330
C
100
AcDbDictionary
  3
A0
350
D9C6
  3
A1
350
D9C7
  3
A2
350
D9C8
  3
A3
350
D9C9
  3
A4
350
D9CA
  3
A5
350
D9CB
  3
A6
350
D9CC
  3
A7
350
D9CD
  3
A8
350
D9CE
  3
A9
350
D9CF
  3
B0
350
D9D0
  3
B1
350
D9D1
  3
B2
350
D9D2
  3
B3
350
D9D3
  3
B4
350
D9D4
  3
B5
350
D9D5
  3
B6
350
D9D6
  3
B7
350
D9D7
  3
B8
350
D9D8
  3
B9
350
D9D9
  3
C0
350
D9DA
  3
C1
350
D9DB
  3
C2
350
D9DC
  3
C3
350
D9DD
  3
C4
350
D9DE
  3
C5
350
D9DF
  3
C6
350
D9E0
  3
C7
350
D9E1
  3
C8
350
D9E2
  3
C9
350
D9E3
  3
D0
350
D9E4
  3
D1
350
D9E5
  3
D2
350
D9E6
1001
ACAD
1000
TREAT_AS_HARD
1070
     0
  0
DICTIONARY
  5
D9B4
102
{ACAD_REACTORS
330
C
102
}
330
C
100
AcDbDictionary
  3
2DWIREFRAME
350
D9BA
  3
3D_HIDDEN
350
D9BC
  3
3DWIREFRAME
350
D9BB
  3
BASIC
350
D9B9
  3
BRIGHTEN
350
D9C0
  3
COLORCHANGE
350
D9C4
  3
CONCEPTUAL
350
D9BD
  3
DIM
350
D9BF
  3
EDGECOLOROFF
350
19C2F
  3
FACEPATTERN
350
D9C3
  3
FLAT
350
D9B5
  3
FLATWITHEDGES
350
D9B6
  3
GOURAUD
350
D9B7
  3
GOURAUDWITHEDGES
350
D9B8
  3
HIDDEN
350
19C7E
  3
JITTEROFF
350
19C2D
  3
LINEPATTERN
350
D9C2
  3
MODELING
350
1C63C
  3
OVERHANGOFF
350
19C2E
  3
REALISTIC
350
D9BE
  3
SHADED
350
19C83
  3
SHADED_WITH_EDGES
350
19C82
  3
SHADES_OF_GRAY
350
19C7F
  3
SKETCHY
350
19C80
  3
THICKEN
350
D9C1
  3
WIREFRAME
350
19C7D
  3
X-RAY
350
19C81
1001
ACAD
1000
TREAT_AS_HARD
1070
     0
  0
DICTIONARY
  5
1D045
102
{ACAD_REACTORS
330
C
102
}
330
C
100
AcDbDictionary
  3
COLORDICT
350
1D046
  3
MATERIALDICT
350
1D047
1001
ACAD
1000
TREAT_AS_HARD
1070
     0
  0
DICTIONARY
  5
37
102
{ACAD_REACTORS
330
C
102
}
330
C
100
AcDbDictionary
  3
CANNOSCALE
350
1C661
  3
CMLEADERSTYLE
350
DA6A
  3
CTABLESTYLE
350
29E
  3
DIMADEC
350
38
  3
DIMASSOC
350
1CE
  3
HIDETEXT
350
704E
  3
INDEXCTL
350
DA6D
  3
INTERSECTIONCOLOR
350
7052
  3
INTERSECTIONDISPLAY
350
7051
  3
LAYEREVAL
350
1C639
  3
LAYERNOTIFY
350
1C63A
  3
MSLTSCALE
350
1A6DD
  3
OBSCOLOR
350
704F
  3
OBSLTYPE
350
7050
  3
PROJECTNAME
350
1CF
  3
SORTENTS
350
DA6C
  3
XCLIPFRAME
350
1C63B
1001
ACAD
1000
TREAT_AS_HARD
1070
     0
  0
DICTIONARY
  5
1B557
102
{ACAD_REACTORS
330
C
102
}
330
C
100
AcDbDictionary
1001
ACAD
1000
TREAT_AS_HARD
1070
     0
  0
DICTIONARY
  5
D8
102
{ACAD_REACTORS
330
C
102
}
330
C
100
AcDbDictionary
1001
ACAD
1000
TREAT_AS_HARD
1070
     0
  0
DICTIONARY
  5
20
102
{ACAD_REACTORS
330
C
102
}
330
C
100
AcDbDictionary
1001
DRAWINGVARIABLESXDATA
1000
POLARANG
1000
0.261799387799149410000000
1000
POLARMODE
1000
1
1000
POLARSTYLE
1000
1
1001
ACAD
1000
TREAT_AS_HARD
1070
     0
  0
XRECORD
  5
1D048
102
{ACAD_REACTORS
330
C
102
}
330
C
100
AcDbXrecord
  1
DWGPROPS COOKIE
  2

  3

  4

  6

  7

  8
3684
  9

300
=
301
=
302
=
303
=
304
=
305
=
306
=
307
=
308
=
309
=
 40
0.0
 41
2451318.246352917
 42
2459373.206446701
  1

 90
        0
  0
DICTIONARY
  5
E6A7
102
{ACAD_REACTORS
330
E6A6
102
}
330
E6A6
100
AcDbDictionary
1001
ACAD
1000
TREAT_AS_HARD
1070
     0
  0
ACAD_PROXY_OBJECT
  5
DA06
102
{ACAD_REACTORS
330
DA05
102
}
330
DA05
100
AcDbZombieObject
 90
      499
 91
      514
 93
       34
310
40C8804040
  0
ACAD_PROXY_OBJECT
  5
DA08
102
{ACAD_REACTORS
330
DA07
102
}
330
DA07
100
AcDbZombieObject
 90
      499
 91
      514
 93
       34
310
40C8804040
  0
ACAD_PROXY_OBJECT
  5
DA0A
102
{ACAD_REACTORS
330
DA09
102
}
330
DA09
100
AcDbZombieObject
 90
      499
 91
      514
 93
       34
310
40C8804040
  0
ACAD_PROXY_OBJECT
  5
DA10
102
{ACAD_REACTORS
330
DA0F
102
}
330
DA0F
100
AcDbZombieObject
 90
      499
 91
      514
 93
       34
310
40C8804040
  0
ACAD_PROXY_OBJECT
  5
DA16
102
{ACAD_REACTORS
330
DA15
102
}
330
DA15
100
AcDbZombieObject
 90
      499
 91
      514
 93
       34
310
40C8804040
  0
SORTENTSTABLE
  5
890
102
{ACAD_REACTORS
330
88F
102
}
330
88F
100
AcDbSortentsTable
330
18
331
0
  5
1B6DC
331
1B6DB
  5
1B6FC
331
1B6DC
  5
1B6FD
331
1B6DD
  5
1B6FE
331
1B6E1
  5
1B71D
331
1B6E2
  5
1B71E
331
1B6E3
  5
1B71F
331
1B6E4
  5
1B720
331
1B6E5
  5
1B721
331
1B6E6
  5
1B722
331
1B6E7
  5
1B723
331
1B6E9
  5
1B724
331
1B6EA
  5
1B725
331
1B6EB
  5
1B726
331
1B6EC
  5
1B727
331
1B6ED
  5
1B728
331
1B6EE
  5
1B729
331
1B6EF
  5
1B72A
331
1B6F0
  5
1B72B
331
1B6F1
  5
1B72C
331
1B6F2
  5
1B72D
331
1B6F3
  5
1B72E
331
1B6F4
  5
1B72F
331
1B6F5
  5
1B730
331
1B6F6
  5
1B731
331
1B6F7
  5
1B732
331
1B6F8
  5
1B733
331
1B6F9
  5
1B734
331
1B6FA
  5
1B735
331
1B6FB
  5
1B736
331
1B6FC
  5
1B737
331
1B6FD
  5
1B738
331
1B6FE
  5
1B739
331
1B6FF
  5
1B73A
331
1B700
  5
1B73B
331
1B701
  5
1B73C
331
1B702
  5
1B73D
331
1B703
  5
1B73E
331
1B704
  5
1B73F
331
1B705
  5
1B740
331
1B706
  5
1B741
331
1B707
  5
1B742
331
1B708
  5
1B743
331
1B709
  5
1B744
331
1B70A
  5
1B745
331
1B70B
  5
1B746
331
1B70C
  5
1B747
331
1B70D
  5
1B748
331
1B70E
  5
1B749
331
1B70F
  5
1B74A
331
1B710
  5
1B74B
331
1B711
  5
1B74C
331
1B712
  5
1B74D
331
1B713
  5
1B74E
331
1B714
  5
1B74F
331
1B715
  5
1B751
331
1B716
  5
1B752
331
1B717
  5
1B753
331
1B718
  5
1B754
331
1B719
  5
1B755
331
1B71A
  5
1B756
331
1B71B
  5
1B757
331
1B71C
  5
1B758
331
1B71D
  5
1B759
331
1B71E
  5
1B75A
331
1B71F
  5
1B75B
331
1B720
  5
1B75D
331
1B721
  5
1B75E
331
1B722
  5
1B760
331
1B723
  5
1B761
331
1B724
  5
1B762
331
1B725
  5
1B763
331
1B726
  5
1B764
331
0
  5
1B75F
331
1B728
  5
1B77C
331
1B729
  5
1B77D
331
1B72A
  5
1B77E
331
1B72B
  5
1B77F
331
1B72C
  5
1B780
331
1B72D
  5
1B781
331
1B72E
  5
1B782
331
1B72F
  5
1B783
331
1B730
  5
1B784
331
1B731
  5
1B785
331
1B732
  5
1B786
331
1B733
  5
1B787
331
1B734
  5
1B788
331
1B735
  5
1B789
331
1B736
  5
1B78A
331
1B737
  5
1B78B
331
1B738
  5
1B78C
331
1B739
  5
1B78D
331
1B73A
  5
1B78E
331
1B73B
  5
1B78F
331
1B73C
  5
1B790
331
1B73D
  5
1B791
331
1B73E
  5
1B792
331
1B73F
  5
1B793
331
1B740
  5
1B794
331
1B741
  5
1B795
331
1B742
  5
1B796
331
1B743
  5
1B797
331
1B744
  5
1B798
331
1B745
  5
1B799
331
1B746
  5
1B79A
331
1B747
  5
1B79B
331
1B748
  5
1B79C
331
1B749
  5
1B79D
331
1B74A
  5
1B79E
331
1B74B
  5
1B7A1
331
1B74C
  5
1B7A3
331
1B74D
  5
1B7A4
331
1B74E
  5
1B7A5
331
1B74F
  5
1B7A6
331
1B751
  5
1B7C7
331
1B752
  5
1B7C8
331
1B753
  5
1B80D
331
1B754
  5
1B80E
331
1B755
  5
1B80F
331
1B756
  5
1B810
331
1B757
  5
1B811
331
1B758
  5
1B812
331
1B759
  5
1B814
331
1B75A
  5
1B815
331
1B75B
  5
1B816
331
1B75D
  5
1B81D
331
1B75E
  5
1B81E
331
1B75F
  5
1B81F
331
1B760
  5
1B820
331
1B761
  5
1B821
331
1B762
  5
1B822
331
1B763
  5
1B823
331
1B764
  5
1B824
331
1B765
  5
1B825
331
1B766
  5
1B829
331
1B767
  5
1B82A
331
1B768
  5
1B82B
331
1B769
  5
1B830
331
1B76A
  5
1B831
331
1B76B
  5
1B832
331
1B76C
  5
1B838
331
1B76D
  5
1B839
331
1B76F
  5
1B83A
331
1B770
  5
1B83B
331
1B777
  5
1B83C
331
1B778
  5
1B83D
331
1B779
  5
1B83E
331
1B77A
  5
1B83F
331
1B77B
  5
1B840
331
1B77C
  5
1B841
331
1B77D
  5
1B842
331
1B77E
  5
1B843
331
1B77F
  5
1B844
331
1B780
  5
1B845
331
1B781
  5
1B846
331
1B782
  5
1B847
331
1B783
  5
1B848
331
1B784
  5
1B84C
331
1B785
  5
1B84D
331
1B786
  5
1B84E
331
1B787
  5
1B84F
331
1B788
  5
1B850
331
1B789
  5
1B851
331
1B78A
  5
1B855
331
1B78B
  5
1B856
331
1B78C
  5
1B857
331
1B78D
  5
1B858
331
1B78E
  5
1B859
331
1B78F
  5
1B85A
331
1B790
  5
1B85B
331
1B791
  5
1B85C
331
1B792
  5
1B85D
331
1B793
  5
1B85E
331
1B794
  5
1B862
331
1B795
  5
1B863
331
1B796
  5
1B864
331
1B797
  5
1B865
331
1B798
  5
1B866
331
1B799
  5
1B867
331
1B79A
  5
1B868
331
1B79B
  5
1B869
331
1B79C
  5
1B86A
331
1B79D
  5
1B86B
331
1B79E
  5
1B86C
331
1B7A1
  5
1B884
331
1B7A3
  5
1B885
331
1B7A4
  5
1B886
331
1B7A5
  5
1B88A
331
1B7A6
  5
1C968
331
1B7A7
  5
1C969
331
1B7A8
  5
1C96A
331
1B7A9
  5
1C96B
331
1B7AA
  5
1C96C
331
1B7AB
  5
1C9B5
331
1B7C1
  5
1C9B6
331
1B7C2
  5
1C9B7
331
1B7C3
  5
1C9B8
331
1B7C4
  5
1C9B9
331
1B7C5
  5
1C9BA
331
1B7C7
  5
1C9BB
331
1B7C8
  5
1C9BC
331
1B80D
  5
1C9BD
331
1B80E
  5
1C9BE
331
1B80F
  5
1C9BF
331
1B810
  5
1C9C0
331
1B811
  5
1C9C1
331
1B812
  5
1C9C2
331
1B814
  5
1C9CD
331
1B815
  5
1C9CE
331
1B816
  5
1C9CF
331
1B817
  5
1CA27
331
1B818
  5
1CA28
331
1B819
  5
1CA29
331
1B81A
  5
1CA2A
331
1B81B
  5
1CA2B
331
1B81C
  5
1CA2C
331
1B81D
  5
1CA2D
331
1B81E
  5
1CA2E
331
1B81F
  5
1CA53
331
1B820
  5
1CA54
331
1B821
  5
1CA55
331
1B822
  5
1CA56
331
1B823
  5
1CA57
331
1B824
  5
1CA58
331
1B825
  5
1CA59
331
1B826
  5
1CA5A
331
1B827
  5
1CA5B
331
1B828
  5
1CA5C
331
1B829
  5
1CA5D
331
1B82A
  5
1CA5E
331
1B82B
  5
1CA5F
331
1B82D
  5
1CA61
331
1B82E
  5
1CA62
331
1B82F
  5
1CA63
331
1B830
  5
1CA64
331
1B831
  5
1CB5B
331
1B832
  5
1CBD2
331
1B838
  5
1CF6D
331
1B839
  5
1CF6E
331
1B83A
  5
1CF6F
331
1B83B
  5
1CF70
331
1B83C
  5
1CF71
331
1B83D
  5
1CF72
331
1B83E
  5
1CF73
331
1B83F
  5
1CF74
331
1B840
  5
1CF75
331
1B841
  5
1CF76
331
1B842
  5
1CF77
331
1B843
  5
1CF78
331
1B844
  5
1CF79
331
1B845
  5
1CF7A
331
1B846
  5
1CF7B
331
1B847
  5
1CF7C
331
1B848
  5
1CF7D
331
1B84C
  5
1CF7E
331
1B84D
  5
1CF7F
331
1B84E
  5
1CF80
331
1B84F
  5
1CF81
331
1B850
  5
1CF82
331
1B851
  5
1CF83
331
1B852
  5
1CF84
331
1B853
  5
1CF85
331
1B854
  5
1CF86
331
1B855
  5
1CF87
331
1B856
  5
1CF88
331
1B857
  5
1CF89
331
1B858
  5
1CF8A
331
1B859
  5
1CF8B
331
1B85A
  5
1CF8C
331
1B85B
  5
1CF8D
331
1B85C
  5
1CF8E
331
1B85D
  5
1CF8F
331
1B85E
  5
1CF90
331
1B862
  5
1CF91
331
1B863
  5
1CF92
331
1B864
  5
1CF93
331
1B865
  5
1CF94
331
1B866
  5
1CF95
331
1B867
  5
1CF96
331
1B868
  5
1CF97
331
1B869
  5
1CF98
331
1B86A
  5
1CF99
331
1B86B
  5
1CF9A
331
1B86C
  5
1CF9B
331
1B86D
  5
1CF9C
331
1B86E
  5
1CF9D
331
1B86F
  5
1CF9E
331
1B870
  5
1CF9F
331
1B874
  5
1CFA0
331
1B875
  5
1CFA1
331
1B876
  5
1CFA7
331
1B877
  5
1CFA8
331
1B878
  5
1CFA9
331
1B879
  5
1CFAA
331
1B87A
  5
1CFAB
331
1B87B
  5
1CFAC
331
1B87C
  5
1CFAD
331
1B87D
  5
1CFAE
331
1B87E
  5
1CFAF
331
1B87F
  5
1CFB0
331
1B880
  5
1CFB1
331
1B881
  5
1CFB5
331
1B882
  5
1CFB6
331
1B883
  5
1CFB7
331
1B884
  5
1CFBB
331
1B885
  5
1CFBC
331
1B886
  5
1CFBD
331
1B88A
  5
1CFC2
331
0
  5
1CFA2
331
0
  5
1CFA3
331
0
  5
1CFA4
331
0
  5
1CFA5
331
0
  5
1CFA6
331
1C9B5
  5
1CFFF
331
1C9B6
  5
1D000
331
1C9B7
  5
1D001
331
1C9B8
  5
1D002
331
1C9B9
  5
1D003
331
1C9BA
  5
1D004
331
1C9BB
  5
1D005
331
1C9BC
  5
1D006
331
1C9BD
  5
1D007
331
1C9BE
  5
1D008
331
1C9BF
  5
1D009
331
1C9C0
  5
1D00A
331
1C9C1
  5
1D00B
331
1C9C2
  5
1D00D
331
1C9C3
  5
1D00E
331
1C9C4
  5
1D00F
331
1C9C5
  5
1D010
331
1C9C6
  5
1D011
331
1C9C7
  5
1D012
331
1C9C8
  5
1D013
331
1C9C9
  5
1D014
331
1C9CA
  5
1D015
331
1C9CB
  5
1D016
331
1C9CC
  5
1D017
331
1C9CD
  5
1D018
331
1C9CE
  5
1D019
331
0
  5
1CFC1
331
1CA27
  5
1D024
331
1CA28
  5
1D025
331
1CA29
  5
1D026
331
1CA2A
  5
1D027
331
1CA2B
  5
1D028
331
1CA2C
  5
1D029
331
1CA2D
  5
1D02A
331
1CA2E
  5
1D02B
331
1CA53
  5
1D02C
331
1CA54
  5
1D02D
331
1CA55
  5
1D02E
331
1CA56
  5
1D02F
331
1CA57
  5
1D030
331
1CA58
  5
1D031
331
1CA59
  5
1D032
331
1CA5A
  5
1D033
331
1CA5B
  5
1D034
331
1CA5C
  5
1D035
331
1CA5D
  5
1D036
331
1CA5E
  5
1D037
331
1CA5F
  5
1D038
331
1CA60
  5
1D039
331
1CA61
  5
1D03A
331
1CA62
  5
1D03B
331
1CA63
  5
1D03C
331
1CA64
  5
1D03D
331
1CB5B
  5
1D03E
331
0
  5
1CFDF
331
1CF6D
  5
1B59A
331
1CF6E
  5
1B6DB
331
1CF6F
  5
1B6E9
331
1CF70
  5
1B6EA
331
1CF71
  5
1B6EB
331
0
  5
1B6E3
331
0
  5
1B6E4
331
0
  5
1B6E5
331
1CF75
  5
1B6FF
331
1CF76
  5
1B700
331
1CF77
  5
1B701
331
0
  5
1B6ED
331
0
  5
1B6EE
331
0
  5
1B6EF
331
1CF7B
  5
1B709
331
1CF7C
  5
1B70A
331
1CF7D
  5
1B70B
331
0
  5
1B6F3
331
0
  5
1B6F4
331
0
  5
1B6F5
331
1CF81
  5
1B713
331
1CF82
  5
1B714
331
1CF83
  5
1B715
331
0
  5
1B6F9
331
0
  5
1B6FA
331
0
  5
1B6FB
331
1CF87
  5
1B7A7
331
1CF88
  5
1B7A8
331
1CF89
  5
1B7A9
331
0
  5
1B770
331
0
  5
1B777
331
0
  5
1B778
331
1CF8D
  5
1B817
331
1CF8E
  5
1B818
331
1CF8F
  5
1B819
331
1CF90
  5
1B81A
331
1CF91
  5
1B81B
331
1CF92
  5
1B81C
331
1CF93
  5
1B86D
331
1CF94
  5
1B86E
331
1CF95
  5
1B86F
331
0
  5
1B826
331
0
  5
1B827
331
0
  5
1B828
331
1CF99
  5
1B87A
331
1CF9A
  5
1B87B
331
1CF9B
  5
1B87C
331
0
  5
1B82D
331
0
  5
1B82E
331
0
  5
1B82F
331
1CF9F
  5
1C9C3
331
1CFA0
  5
1C9C4
331
1CFA1
  5
1C9C5
331
0
  5
1B852
331
0
  5
1B853
331
0
  5
1B854
331
1CFA5
  5
1CA60
331
1CFA6
  5
1D03F
331
1CFA7
  5
1D040
331
1CFA8
  5
1B6EC
331
1CFA9
  5
1B6F0
331
1CFAA
  5
1B6F1
331
1CFAB
  5
1B6F2
331
1CFAC
  5
1B6F6
331
1CFAD
  5
1B6F7
331
1CFAE
  5
1B6F8
331
1CFAF
  5
1B702
331
1CFB0
  5
1B703
331
1CFB1
  5
1B704
331
1CFB2
  5
1B705
331
1CFB3
  5
1B706
331
1CFB4
  5
1B707
331
1CFB5
  5
1B708
331
1CFB6
  5
1B70C
331
1CFB7
  5
1B70D
331
1CFB8
  5
1B70E
331
1CFB9
  5
1B70F
331
1CFBA
  5
1B710
331
1CFBB
  5
1B711
331
1CFBC
  5
1B712
331
1CFBD
  5
1B716
331
1CFBE
  5
1B717
331
1CFBF
  5
1B718
331
1CFC0
  5
1B719
331
1CFC1
  5
1B71A
331
1CFC2
  5
1B71B
331
1CFC3
  5
1B71C
331
1CFC4
  5
1B7AA
331
1CFC5
  5
1B7AB
331
1CFC6
  5
1B7C1
331
1CFC7
  5
1B7C2
331
1CFC8
  5
1B7C3
331
1CFC9
  5
1B7C4
331
1CFCA
  5
1B7C5
331
1CFCB
  5
1B870
331
1CFCC
  5
1B874
331
1CFCD
  5
1B875
331
1CFCE
  5
1B876
331
1CFCF
  5
1B877
331
1CFD0
  5
1B878
331
1CFD1
  5
1B879
331
1CFD2
  5
1B87D
331
1CFD3
  5
1B87E
331
1CFD4
  5
1B87F
331
1CFD5
  5
1B880
331
1CFD6
  5
1B881
331
1CFD7
  5
1B882
331
1CFD8
  5
1B883
331
1CFD9
  5
1C9C6
331
1CFDA
  5
1C9C7
331
1CFDB
  5
1C9C8
331
1CFDC
  5
1C9C9
331
1CFDD
  5
1C9CA
331
1CFDE
  5
1C9CB
331
1CFDF
  5
1C9CC
331
0
  5
1B6DD
331
1CFE1
  5
1B6E7
331
1CFE2
  5
1B768
331
1CFE3
  5
1B769
331
1CFE4
  5
1B76A
331
0
  5
1B765
331
0
  5
1B766
331
0
  5
1B767
331
1CFE8
  5
1CFC3
331
1CFE9
  5
1CFC4
331
1CFEA
  5
1CFC8
331
0
  5
1CFB2
331
0
  5
1CFB3
331
0
  5
1CFB4
331
1CFEE
  5
1CFD3
331
1CFEF
  5
1CFD4
331
1CFF0
  5
1CFD5
331
0
  5
1CFB8
331
0
  5
1CFB9
331
0
  5
1CFBA
331
1CFF4
  5
1CFDD
331
1CFF5
  5
1CFDE
331
1CFF6
  5
1CFE0
331
0
  5
1CFBE
331
0
  5
1CFBF
331
0
  5
1CFC0
331
1CFFA
  5
1CFE8
331
1CFFB
  5
1CFE9
331
1CFFC
  5
1CFEA
331
0
  5
1CFC5
331
0
  5
1CFC6
331
0
  5
1CFC7
331
1D000
  5
1CFF5
331
1D001
  5
1CFF6
331
1D002
  5
1CFF7
331
0
  5
1CFCB
331
0
  5
1CFCC
331
0
  5
1CFCD
331
1D006
  5
1D01A
331
1D007
  5
1D01B
331
1D008
  5
1D01C
331
0
  5
1CFEC
331
0
  5
1CFED
331
0
  5
1CFEE
331
1D00D
  5
1D044
331
1D00E
  5
1B6E1
331
1D00F
  5
1B6E2
331
1D010
  5
1B6E6
331
1D011
  5
1B76B
331
1D012
  5
1B76C
331
1D013
  5
1B76D
331
1D014
  5
1B76F
331
1D015
  5
1B779
331
1D016
  5
1B77A
331
1D017
  5
1B77B
331
1D018
  5
1CFC9
331
1D019
  5
1CFCA
331
1D01A
  5
1CFCE
331
1D01B
  5
1CFCF
331
1D01C
  5
1CFD0
331
1D01D
  5
1CFD1
331
1D01E
  5
1CFD2
331
1D01F
  5
1CFD6
331
1D020
  5
1CFD7
331
1D021
  5
1CFD8
331
1D022
  5
1CFD9
331
1D023
  5
1CFDA
331
1D024
  5
1CFDB
331
1D025
  5
1CFDC
331
1D026
  5
1CFE1
331
1D027
  5
1CFE2
331
1D028
  5
1CFE3
331
1D029
  5
1CFE4
331
1D02A
  5
1CFE5
331
1D02B
  5
1CFE6
331
1D02C
  5
1CFE7
331
1D02D
  5
1CFEB
331
1D02E
  5
1CFEF
331
1D02F
  5
1CFF0
331
1D030
  5
1CFF1
331
1D031
  5
1CFF2
331
1D032
  5
1CFF3
331
1D033
  5
1CFF4
331
1D034
  5
1CFF8
331
1D035
  5
1CFF9
331
1D036
  5
1CFFA
331
1D037
  5
1CFFB
331
1D038
  5
1CFFC
331
1D039
  5
1CFFD
331
1D03A
  5
1CFFE
331
1D03B
  5
1D01D
331
1D03C
  5
1D01E
331
1D03D
  5
1D01F
331
1D03E
  5
1D020
331
1D03F
  5
1D021
331
1D040
  5
1D022
331
1D041
  5
1D023
331
1D042
  5
1D041
331
1D043
  5
1D042
331
1D044
  5
1D043
  0
MATERIAL
  5
D9A4
102
{ACAD_REACTORS
330
18C
102
}
102
{ACAD_XDICTIONARY
360
1D1E3
102
}
330
18C
100
AcDbMaterial
  1
BYBLOCK
 72
     0
 73
     2
 43
0.0208333333333333
 43
0.0
 43
0.0
 43
0.0
 43
0.0
 43
0.0208333333333333
 43
0.0
 43
0.0
 43
0.0
 43
0.0
 43
1.0
 43
0.0
 43
0.0
 43
0.0
 43
0.0
 43
1.0
 77
     0
 78
     2
 47
0.0208333333333333
 47
0.0
 47
0.0
 47
0.0
 47
0.0
 47
0.0208333333333333
 47
0.0
 47
0.0
 47
0.0
 47
0.0
 47
1.0
 47
0.0
 47
0.0
 47
0.0
 47
0.0
 47
1.0
171
     0
172
     2
 49
0.0208333333333333
 49
0.0
 49
0.0
 49
0.0
 49
0.0
 49
0.0208333333333333
 49
0.0
 49
0.0
 49
0.0
 49
0.0
 49
1.0
 49
0.0
 49
0.0
 49
0.0
 49
0.0
 49
1.0
175
     0
176
     2
142
0.0208333333333333
142
0.0
142
0.0
142
0.0
142
0.0
142
0.0208333333333333
142
0.0
142
0.0
142
0.0
142
0.0
142
1.0
142
0.0
142
0.0
142
0.0
142
0.0
142
1.0
179
     0
270
     2
144
0.0208333333333333
144
0.0
144
0.0
144
0.0
144
0.0
144
0.0208333333333333
144
0.0
144
0.0
144
0.0
144
0.0
144
1.0
144
0.0
144
0.0
144
0.0
144
0.0
144
1.0
274
     2
147
0.0208333333333333
147
0.0
147
0.0
147
0.0
147
0.0
147
0.0208333333333333
147
0.0
147
0.0
147
0.0
147
0.0
147
1.0
147
0.0
147
0.0
147
0.0
147
0.0
147
1.0
  0
MATERIAL
  5
D99C
102
{ACAD_REACTORS
330
18C
102
}
102
{ACAD_XDICTIONARY
360
1D1E5
102
}
330
18C
100
AcDbMaterial
  1
BYLAYER
 72
     0
 73
     2
 43
0.0208333333333333
 43
0.0
 43
0.0
 43
0.0
 43
0.0
 43
0.0208333333333333
 43
0.0
 43
0.0
 43
0.0
 43
0.0
 43
1.0
 43
0.0
 43
0.0
 43
0.0
 43
0.0
 43
1.0
 77
     0
 78
     2
 47
0.0208333333333333
 47
0.0
 47
0.0
 47
0.0
 47
0.0
 47
0.0208333333333333
 47
0.0
 47
0.0
 47
0.0
 47
0.0
 47
1.0
 47
0.0
 47
0.0
 47
0.0
 47
0.0
 47
1.0
171
     0
172
     2
 49
0.0208333333333333
 49
0.0
 49
0.0
 49
0.0
 49
0.0
 49
0.0208333333333333
 49
0.0
 49
0.0
 49
0.0
 49
0.0
 49
1.0
 49
0.0
 49
0.0
 49
0.0
 49
0.0
 49
1.0
175
     0
176
     2
142
0.0208333333333333
142
0.0
142
0.0
142
0.0
142
0.0
142
0.0208333333333333
142
0.0
142
0.0
142
0.0
142
0.0
142
1.0
142
0.0
142
0.0
142
0.0
142
0.0
142
1.0
179
     0
270
     2
144
0.0208333333333333
144
0.0
144
0.0
144
0.0
144
0.0
144
0.0208333333333333
144
0.0
144
0.0
144
0.0
144
0.0
144
1.0
144
0.0
144
0.0
144
0.0
144
0.0
144
1.0
274
     2
147
0.0208333333333333
147
0.0
147
0.0
147
0.0
147
0.0
147
0.0208333333333333
147
0.0
147
0.0
147
0.0
147
0.0
147
1.0
147
0.0
147
0.0
147
0.0
147
0.0
147
1.0
  0
MATERIAL
  5
D9AC
102
{ACAD_REACTORS
330
18C
102
}
102
{ACAD_XDICTIONARY
360
1D1E7
102
}
330
18C
100
AcDbMaterial
  1
GLOBAL
 72
     0
 73
     2
 43
0.0208333333333333
 43
0.0
 43
0.0
 43
0.0
 43
0.0
 43
0.0208333333333333
 43
0.0
 43
0.0
 43
0.0
 43
0.0
 43
1.0
 43
0.0
 43
0.0
 43
0.0
 43
0.0
 43
1.0
 77
     0
 78
     2
 47
0.0208333333333333
 47
0.0
 47
0.0
 47
0.0
 47
0.0
 47
0.0208333333333333
 47
0.0
 47
0.0
 47
0.0
 47
0.0
 47
1.0
 47
0.0
 47
0.0
 47
0.0
 47
0.0
 47
1.0
171
     0
172
     2
 49
0.0208333333333333
 49
0.0
 49
0.0
 49
0.0
 49
0.0
 49
0.0208333333333333
 49
0.0
 49
0.0
 49
0.0
 49
0.0
 49
1.0
 49
0.0
 49
0.0
 49
0.0
 49
0.0
 49
1.0
175
     0
176
     2
142
0.0208333333333333
142
0.0
142
0.0
142
0.0
142
0.0
142
0.0208333333333333
142
0.0
142
0.0
142
0.0
142
0.0
142
1.0
142
0.0
142
0.0
142
0.0
142
0.0
142
1.0
179
     0
270
     2
144
0.0208333333333333
144
0.0
144
0.0
144
0.0
144
0.0
144
0.0208333333333333
144
0.0
144
0.0
144
0.0
144
0.0
144
1.0
144
0.0
144
0.0
144
0.0
144
0.0
144
1.0
274
     2
147
0.0208333333333333
147
0.0
147
0.0
147
0.0
147
0.0
147
0.0208333333333333
147
0.0
147
0.0
147
0.0
147
0.0
147
1.0
147
0.0
147
0.0
147
0.0
147
0.0
147
1.0
  0
ACAD_PROXY_OBJECT
  5
D9E8
102
{ACAD_REACTORS
330
D9E7
102
}
330
D9E7
100
AcDbZombieObject
 90
      499
 91
      511
 93
      610
310
40901902A4063FBFFFFFE000000000000002040AD7A3703D0AD73F4214DD185B99185C990000000000000104090141901A00000000000004100000000000000041025764000000000000300FC0
340
12
340
0
340
F
340
0
 94
        0
1001
ACAD_MLEADERVER
1070
     2
  0
MLINESTYLE
  5
1C
102
{ACAD_REACTORS
330
1B
102
}
330
1B
100
AcDbMlineStyle
  2
STANDARD
 70
     0
  3

 62
   256
 51
90.0
 52
90.0
 71
     2
 49
0.5
 62
   256
  6
BYLAYER
 49
-0.5
 62
   256
  6
BYLAYER
  0
ACAD_PROXY_OBJECT
  5
D9C6
102
{ACAD_REACTORS
330
D9C5
102
}
330
D9C5
100
AcDbZombieObject
 90
      499
 91
      510
 93
       41
310
903313A31580
  0
ACAD_PROXY_OBJECT
  5
D9C7
102
{ACAD_REACTORS
330
D9C5
102
}
330
D9C5
100
AcDbZombieObject
 90
      499
 91
      510
 93
      105
310
903313A324000000000000004000
  0
ACAD_PROXY_OBJECT
  5
D9C8
102
{ACAD_REACTORS
330
D9C5
102
}
330
D9C5
100
AcDbZombieObject
 90
      499
 91
      510
 93
      105
310
903313A344000000000000104000
  0
ACAD_PROXY_OBJECT
  5
D9C9
102
{ACAD_REACTORS
330
D9C5
102
}
330
D9C5
100
AcDbZombieObject
 90
      499
 91
      510
 93
      105
310
903313A354000000000000144000
  0
ACAD_PROXY_OBJECT
  5
D9CA
102
{ACAD_REACTORS
330
D9C5
102
}
330
D9C5
100
AcDbZombieObject
 90
      499
 91
      510
 93
      105
310
903313A384000000000000204000
  0
ACAD_PROXY_OBJECT
  5
D9CB
102
{ACAD_REACTORS
330
D9C5
102
}
330
D9C5
100
AcDbZombieObject
 90
      499
 91
      510
 93
      113
310
904313A31304000000000000244000
  0
ACAD_PROXY_OBJECT
  5
D9CC
102
{ACAD_REACTORS
330
D9C5
102
}
330
D9C5
100
AcDbZombieObject
 90
      499
 91
      510
 93
      113
310
904313A31364000000000000304000
  0
ACAD_PROXY_OBJECT
  5
D9CD
102
{ACAD_REACTORS
330
D9C5
102
}
330
D9C5
100
AcDbZombieObject
 90
      499
 91
      510
 93
      113
310
904313A32304000000000000344000
  0
ACAD_PROXY_OBJECT
  5
D9CE
102
{ACAD_REACTORS
330
D9C5
102
}
330
D9C5
100
AcDbZombieObject
 90
      499
 91
      510
 93
      113
310
904313A333040000000000003E4000
  0
ACAD_PROXY_OBJECT
  5
D9CF
102
{ACAD_REACTORS
330
D9C5
102
}
330
D9C5
100
AcDbZombieObject
 90
      499
 91
      510
 93
      113
310
904313A34304000000000000444000
  0
ACAD_PROXY_OBJECT
  5
D9D0
102
{ACAD_REACTORS
330
D9C5
102
}
330
D9C5
100
AcDbZombieObject
 90
      499
 91
      510
 93
      113
310
904313A35304000000000000494000
  0
ACAD_PROXY_OBJECT
  5
D9D1
102
{ACAD_REACTORS
330
D9C5
102
}
330
D9C5
100
AcDbZombieObject
 90
      499
 91
      510
 93
      121
310
905313A3130304000000000000594000
  0
ACAD_PROXY_OBJECT
  5
D9D2
102
{ACAD_REACTORS
330
D9C5
102
}
330
D9C5
100
AcDbZombieObject
 90
      499
 91
      510
 93
      105
310
903323A310000000000000010100
  0
ACAD_PROXY_OBJECT
  5
D9D3
102
{ACAD_REACTORS
330
D9C5
102
}
330
D9C5
100
AcDbZombieObject
 90
      499
 91
      510
 93
      105
310
903343A310000000000000410100
  0
ACAD_PROXY_OBJECT
  5
D9D4
102
{ACAD_REACTORS
330
D9C5
102
}
330
D9C5
100
AcDbZombieObject
 90
      499
 91
      510
 93
      105
310
903383A310000000000000810100
  0
ACAD_PROXY_OBJECT
  5
D9D5
102
{ACAD_REACTORS
330
D9C5
102
}
330
D9C5
100
AcDbZombieObject
 90
      499
 91
      510
 93
      113
310
90431303A310000000000000910100
  0
ACAD_PROXY_OBJECT
  5
D9D6
102
{ACAD_REACTORS
330
D9C5
102
}
330
D9C5
100
AcDbZombieObject
 90
      499
 91
      510
 93
      121
310
9053130303A310000000000001650100
  0
ACAD_PROXY_OBJECT
  5
D9D7
102
{ACAD_REACTORS
330
D9C5
102
}
330
D9C5
100
AcDbZombieObject
 90
      499
 91
      510
 93
      257
310
90E312F31323822203D2031272D3022000000000000200FC000000000000284000
  0
ACAD_PROXY_OBJECT
  5
D9D8
102
{ACAD_REACTORS
330
D9C5
102
}
330
D9C5
100
AcDbZombieObject
 90
      499
 91
      510
 93
      249
310
90D312F363422203D2031272D3022000000000000240FC000000000000284000
  0
ACAD_PROXY_OBJECT
  5
D9D9
102
{ACAD_REACTORS
330
D9C5
102
}
330
D9C5
100
AcDbZombieObject
 90
      499
 91
      510
 93
      249
310
90D312F333222203D2031272D3022000000000000280FC000000000000284000
  0
ACAD_PROXY_OBJECT
  5
D9DA
102
{ACAD_REACTORS
330
D9C5
102
}
330
D9C5
100
AcDbZombieObject
 90
      499
 91
      510
 93
      249
310
90D312F313622203D2031272D30220000000000002C0FC000000000000284000
  0
ACAD_PROXY_OBJECT
  5
D9DB
102
{ACAD_REACTORS
330
D9C5
102
}
330
D9C5
100
AcDbZombieObject
 90
      499
 91
      510
 93
      249
310
90D332F333222203D2031272D30220000000000002E0FC000000000000284000
  0
ACAD_PROXY_OBJECT
  5
D9DC
102
{ACAD_REACTORS
330
D9C5
102
}
330
D9C5
100
AcDbZombieObject
 90
      499
 91
      510
 93
      241
310
90C312F3822203D2031272D3022000000000000300FC000000000000284000
  0
ACAD_PROXY_OBJECT
  5
D9DD
102
{ACAD_REACTORS
330
D9C5
102
}
330
D9C5
100
AcDbZombieObject
 90
      499
 91
      510
 93
      249
310
90D332F313622203D2031272D3022000000000000320FC000000000000284000
  0
ACAD_PROXY_OBJECT
  5
D9DE
102
{ACAD_REACTORS
330
D9C5
102
}
330
D9C5
100
AcDbZombieObject
 90
      499
 91
      510
 93
      241
310
90C312F3422203D2031272D3022000000000000340FC000000000000284000
  0
ACAD_PROXY_OBJECT
  5
D9DF
102
{ACAD_REACTORS
330
D9C5
102
}
330
D9C5
100
AcDbZombieObject
 90
      499
 91
      510
 93
      241
310
90C332F3822203D2031272D3022000000000000360FC000000000000284000
  0
ACAD_PROXY_OBJECT
  5
D9E0
102
{ACAD_REACTORS
330
D9C5
102
}
330
D9C5
100
AcDbZombieObject
 90
      499
 91
      510
 93
      241
310
90C312F3222203D2031272D3022000000000000380FC000000000000284000
  0
ACAD_PROXY_OBJECT
  5
D9E1
102
{ACAD_REACTORS
330
D9C5
102
}
330
D9C5
100
AcDbZombieObject
 90
      499
 91
      510
 93
      241
310
90C332F3422203D2031272D30220000000000003A0FC000000000000284000
  0
ACAD_PROXY_OBJECT
  5
D9E2
102
{ACAD_REACTORS
330
D9C5
102
}
330
D9C5
100
AcDbZombieObject
 90
      499
 91
      510
 93
      161
310
90A3122203D2031272D30224000000000000284000
  0
ACAD_PROXY_OBJECT
  5
D9E3
102
{ACAD_REACTORS
330
D9C5
102
}
330
D9C5
100
AcDbZombieObject
 90
      499
 91
      510
 93
      257
310
90E312D312F3222203D2031272D30220000000000003E0FC000000000000284000
  0
ACAD_PROXY_OBJECT
  5
D9E4
102
{ACAD_REACTORS
330
D9C5
102
}
330
D9C5
100
AcDbZombieObject
 90
      499
 91
      510
 93
      225
310
90A3322203D2031272D302200000000000002100000000000000284000
  0
ACAD_PROXY_OBJECT
  5
D9E5
102
{ACAD_REACTORS
330
D9C5
102
}
330
D9C5
100
AcDbZombieObject
 90
      499
 91
      510
 93
      225
310
90A3622203D2031272D302200000000000006100000000000000284000
  0
ACAD_PROXY_OBJECT
  5
D9E6
102
{ACAD_REACTORS
330
D9C5
102
}
330
D9C5
100
AcDbZombieObject
 90
      499
 91
      510
 93
      249
310
90D31272D3022203D2031272D30220000000000000A100000000000000284000
  0
ACAD_PROXY_OBJECT
  5
D9BA
102
{ACAD_REACTORS
330
D9B4
102
}
330
D9B4
100
AcDbZombieObject
 90
      499
 91
      509
 93
      436
310
42CC9915DA5C99599C985B595049028333333333333E3BF0000000000000FB0107901411070040501600405405064090741402480A0340
1001
ACAD
1000
AcDbSavedByObjectVersion
1070
     0
  0
ACAD_PROXY_OBJECT
  5
D9BC
102
{ACAD_REACTORS
330
D9B4
102
}
330
D9B4
100
AcDbZombieObject
 90
      499
 91
      509
 93
      500
310
424CD108121A5919195B90640502408333333333333E3BF0000000000000FB01079024090700405020000000000001110200405405064090740C02480A0340
1001
ACAD
1000
AcDbSavedByObjectVersion
1070
     0
  0
ACAD_PROXY_OBJECT
  5
D9BB
102
{ACAD_REACTORS
330
D9B4
102
}
330
D9B4
100
AcDbZombieObject
 90
      499
 91
      509
 93
      436
310
42CCD915DA5C99599C985B595059028333333333333E3BF0000000000000FB0107901411070040501600405405064090741402480A0340
1001
ACAD
1000
AcDbSavedByObjectVersion
1070
     0
  0
ACAD_PROXY_OBJECT
  5
D9B9
102
{ACAD_REACTORS
330
D9B4
102
}
330
D9B4
100
AcDbZombieObject
 90
      499
 91
      509
 93
      388
310
4150985CDA58D07406404333333333333E3BF0000000000000FB0107A41107004050150841D405064090741402480A0350
1001
ACAD
1000
AcDbSavedByObjectVersion
1070
     0
  0
ACAD_PROXY_OBJECT
  5
D9C0
102
{ACAD_REACTORS
330
D9B4
102
}
330
D9B4
100
AcDbZombieObject
 90
      499
 91
      509
 93
      428
310
42109C9A59DA1D195B90C409028333333333333E3BF0000000000000FB010790141107004050150841D405064090741402480A029950
1001
ACAD
1000
AcDbSavedByObjectVersion
1070
     0
  0
ACAD_PROXY_OBJECT
  5
D9C4
102
{ACAD_REACTORS
330
D9B4
102
}
330
D9B4
100
AcDbZombieObject
 90
      499
 91
      509
 93
      452
310
42D0DBDB1BDC90DA185B99D95104090240C333333333333E3BF0000000000000FB0108901411070040501508421405064090741402480A0350
1001
ACAD
1000
AcDbSavedByObjectVersion
1070
     0
  0
ACAD_PROXY_OBJECT
  5
D9BD
102
{ACAD_REACTORS
330
D9B4
102
}
330
D9B4
100
AcDbZombieObject
 90
      499
 91
      509
 93
      500
310
4290DBDB98D95C1D1D585B10940D028333333333333E3BF0000000000000FB0107902409070040501000000000000111010841D405064090740C02480A0340
1001
ACAD
1000
AcDbSavedByObjectVersion
1070
     0
  0
ACAD_PROXY_OBJECT
  5
D9BF
102
{ACAD_REACTORS
330
D9B4
102
}
330
D9B4
100
AcDbZombieObject
 90
      499
 91
      509
 93
      412
310
40D11A5B50B409028333333333333E3BF0000000000000FB010790141107004050150841D405064090741402480A02677FFFFFD0
1001
ACAD
1000
AcDbSavedByObjectVersion
1070
     0
  0
ACAD_PROXY_OBJECT
  5
19C2F
102
{ACAD_REACTORS
330
D9B4
102
}
330
D9B4
100
AcDbZombieObject
 90
      499
 91
      509
 93
      452
310
43115919D950DBDB1BDC93D999916409028333333333333E3BF0000000000000FB010790141107004050150841D405064090741402480A0350
1001
ACAD
1000
AcDbSavedByObjectVersion
1070
     0
  0
ACAD_PROXY_OBJECT
  5
D9C3
102
{ACAD_REACTORS
330
D9B4
102
}
330
D9B4
100
AcDbZombieObject
 90
      499
 91
      509
 93
      444
310
42D19858D95C185D1D195C9B90F409028333333333333E3BF0000000000000FB010790141107004050150841D405064090741402480A0350
1001
ACAD
1000
AcDbSavedByObjectVersion
1070
     0
  0
ACAD_PROXY_OBJECT
  5
D9B5
102
{ACAD_REACTORS
330
D9B4
102
}
330
D9B4
100
AcDbZombieObject
 90
      499
 91
      509
 93
      388
310
41119B185D240901404333333333333E3BF0000000000000F9010740A41107004050150841D405064090741402480A1B50
1001
ACAD
1000
AcDbSavedByObjectVersion
1070
     0
  0
ACAD_PROXY_OBJECT
  5
D9B6
102
{ACAD_REACTORS
330
D9B4
102
}
330
D9B4
100
AcDbZombieObject
 90
      499
 91
      509
 93
      476
310
43519B185D15DA5D1A115919D95CD0140901404333333333333E3BF0000000000000F9010740901411070040501600405405064090741402480A1B50
1001
ACAD
1000
AcDbSavedByObjectVersion
1070
     0
  0
ACAD_PROXY_OBJECT
  5
D9B7
102
{ACAD_REACTORS
330
D9B4
102
}
330
D9B4
100
AcDbZombieObject
 90
      499
 91
      509
 93
      412
310
41D1DBDD5C985D5910240902404333333333333E3BF0000000000000F9010740A411070040501641D405064090741402480A1B50
1001
ACAD
1000
AcDbSavedByObjectVersion
1070
     0
  0
ACAD_PROXY_OBJECT
  5
D9B8
102
{ACAD_REACTORS
330
D9B4
102
}
330
D9B4
100
AcDbZombieObject
 90
      499
 91
      509
 93
      500
310
4411DBDD5C985D5915DA5D1A115919D95CD0340902404333333333333E3BF0000000000000F9010740901411070040501600405405064090741402480A1B50
1001
ACAD
1000
AcDbSavedByObjectVersion
1070
     0
  0
ACAD_PROXY_OBJECT
  5
19C7E
102
{ACAD_REACTORS
330
D9B4
102
}
330
D9B4
100
AcDbZombieObject
 90
      499
 91
      509
 93
      476
310
41921A5919195B90640502408333333333333E3BF0000000000000FB01079024090700405020000000000001110200405405064090740C02480A0340
1001
ACAD
1000
AcDbSavedByObjectVersion
1070
     0
  0
ACAD_PROXY_OBJECT
  5
19C2D
102
{ACAD_REACTORS
330
D9B4
102
}
330
D9B4
100
AcDbZombieObject
 90
      499
 91
      509
 93
      428
310
42529A5D1D195C93D999914409028333333333333E3BF0000000000000FB010790141107004050150A41D405064090741402480A0350
1001
ACAD
1000
AcDbSavedByObjectVersion
1070
     0
  0
ACAD_PROXY_OBJECT
  5
D9C2
102
{ACAD_REACTORS
330
D9B4
102
}
330
D9B4
100
AcDbZombieObject
 90
      499
 91
      509
 93
      444
310
42D31A5B995C185D1D195C9B90E409028333333333333E3BF0000000000000FB010790141107004050750841D405064090741402483A0350
1001
ACAD
1000
AcDbSavedByObjectVersion
1070
     0
  0
ACAD_PROXY_OBJECT
  5
1C63C
102
{ACAD_REACTORS
330
D9B4
102
}
330
D9B4
100
AcDbZombieObject
 90
      499
 91
      509
 93
      484
310
42135BD9195B1A5B99D0A409038333333333333E33F0000000000000F901074090290700405010000000000201990108421405064090741402480A1B40
1001
ACAD
1000
AcDbSavedByObjectVersion
1070
     0
  0
ACAD_PROXY_OBJECT
  5
19C2E
102
{ACAD_REACTORS
330
D9B4
102
}
330
D9B4
100
AcDbZombieObject
 90
      499
 91
      509
 93
      444
310
42D3DD995C9A185B99D3D999915409028333333333333E3BF0000000000000FB010790141107004050150941D405064090741402480A0350
1001
ACAD
1000
AcDbSavedByObjectVersion
1070
     0
  0
ACAD_PROXY_OBJECT
  5
D9BE
102
{ACAD_REACTORS
330
D9B4
102
}
330
D9B4
100
AcDbZombieObject
 90
      499
 91
      509
 93
      420
310
425499585B1A5CDD1A58D08409028333333333333E3BF0000000000000FB01079019070040501508421405064090741402480A1B40
1001
ACAD
1000
AcDbSavedByObjectVersion
1070
     0
  0
ACAD_PROXY_OBJECT
  5
19C83
102
{ACAD_REACTORS
330
D9B4
102
}
330
D9B4
100
AcDbZombieObject
 90
      499
 91
      509
 93
      420
310
4194DA1859195911B40902404333333333333E3BF0000000000000F9010740A41107004050150800405405064090840C02480A0B40
1001
ACAD
1000
AcDbSavedByObjectVersion
1070
     0
  0
ACAD_PROXY_OBJECT
  5
19C82
102
{ACAD_REACTORS
330
D9B4
102
}
330
D9B4
100
AcDbZombieObject
 90
      499
 91
      509
 93
      516
310
4454DA18591959081DDA5D1A08195919D95CD1A40902404333333333333E3BF0000000000000F901074090142907004050250800405405064090740C02480A0B40
1001
ACAD
1000
AcDbSavedByObjectVersion
1070
     0
  0
ACAD_PROXY_OBJECT
  5
19C7F
102
{ACAD_REACTORS
330
D9B4
102
}
330
D9B4
100
AcDbZombieObject
 90
      499
 91
      509
 93
      532
310
4394DA1859195CC81BD98811DC985E5174090240C333333333333E3BF0000000000000FB01079024090741D01000000000000111010841D405064090740C02480A0340
1001
ACAD
1000
AcDbSavedByObjectVersion
1070
     0
  0
ACAD_PROXY_OBJECT
  5
19C80
102
{ACAD_REACTORS
330
D9B4
102
}
330
D9B4
100
AcDbZombieObject
 90
      499
 91
      509
 93
      476
310
41D4DAD95D18DA1E51840502408333333333333E3BF0000000000000FB01079024090741D01000000000000111010B41D405064090741802480A0340
1001
ACAD
1000
AcDbSavedByObjectVersion
1070
     0
  0
ACAD_PROXY_OBJECT
  5
D9C1
102
{ACAD_REACTORS
330
D9B4
102
}
330
D9B4
100
AcDbZombieObject
 90
      499
 91
      509
 93
      412
310
41D51A1A58DAD95B90D409028333333333333E3BF0000000000000FB010790141107004050150C41D405064090741402480A0350
1001
ACAD
1000
AcDbSavedByObjectVersion
1070
     0
  0
ACAD_PROXY_OBJECT
  5
19C7D
102
{ACAD_REACTORS
330
D9B4
102
}
330
D9B4
100
AcDbZombieObject
 90
      499
 91
      509
 93
      420
310
4255DA5C99599C985B595059028333333333333E3BF0000000000000FB0107901411070040501600405405064090740C02480A0340
1001
ACAD
1000
AcDbSavedByObjectVersion
1070
     0
  0
ACAD_PROXY_OBJECT
  5
19C81
102
{ACAD_REACTORS
330
D9B4
102
}
330
D9B4
100
AcDbZombieObject
 90
      499
 91
      509
 93
      404
310
41560B54985E51940902404000000000000E03F0000000000000FB010740501907004050150841D405064090740C02480A1B40
1001
ACAD
1000
AcDbSavedByObjectVersion
1070
     0
  0
XRECORD
  5
1D046
102
{ACAD_REACTORS
330
1D045
102
}
330
1D045
100
AcDbXrecord
340
18D
  0
XRECORD
  5
1D047
102
{ACAD_REACTORS
330
1D045
102
}
330
1D045
100
AcDbXrecord
340
18C
  0
DICTIONARYVAR
  5
1C661
102
{ACAD_REACTORS
330
37
102
}
330
37
100
DictionaryVariables
280
     0
  1
1:1
  0
DICTIONARYVAR
  5
DA6A
102
{ACAD_REACTORS
330
37
102
}
330
37
100
DictionaryVariables
280
     0
  1
Standard
  0
DICTIONARYVAR
  5
29E
102
{ACAD_REACTORS
330
37
102
}
330
37
100
DictionaryVariables
280
     0
  1
Standard
  0
DICTIONARYVAR
  5
38
102
{ACAD_REACTORS
330
37
102
}
330
37
100
DictionaryVariables
280
     0
  1
-1
  0
DICTIONARYVAR
  5
1CE
102
{ACAD_REACTORS
330
37
102
}
330
37
100
DictionaryVariables
280
     0
  1
2
  0
DICTIONARYVAR
  5
704E
102
{ACAD_REACTORS
330
37
102
}
330
37
100
DictionaryVariables
280
     0
  1
1
  0
DICTIONARYVAR
  5
DA6D
102
{ACAD_REACTORS
330
37
102
}
330
37
100
DictionaryVariables
280
     0
  1
0
  0
DICTIONARYVAR
  5
7052
102
{ACAD_REACTORS
330
37
102
}
330
37
100
DictionaryVariables
280
     0
  1
8
  0
DICTIONARYVAR
  5
7051
102
{ACAD_REACTORS
330
37
102
}
330
37
100
DictionaryVariables
280
     0
  1
1
  0
DICTIONARYVAR
  5
1C639
102
{ACAD_REACTORS
330
37
102
}
330
37
100
DictionaryVariables
280
     0
  1
0
  0
DICTIONARYVAR
  5
1C63A
102
{ACAD_REACTORS
330
37
102
}
330
37
100
DictionaryVariables
280
     0
  1
0
  0
DICTIONARYVAR
  5
1A6DD
102
{ACAD_REACTORS
330
37
102
}
330
37
100
DictionaryVariables
280
     0
  1
0
  0
DICTIONARYVAR
  5
704F
102
{ACAD_REACTORS
330
37
102
}
330
37
100
DictionaryVariables
280
     0
  1
120
  0
DICTIONARYVAR
  5
7050
102
{ACAD_REACTORS
330
37
102
}
330
37
100
DictionaryVariables
280
     0
  1
0
  0
DICTIONARYVAR
  5
1CF
102
{ACAD_REACTORS
330
37
102
}
330
37
100
DictionaryVariables
280
     0
  1

  0
DICTIONARYVAR
  5
DA6C
102
{ACAD_REACTORS
330
37
102
}
330
37
100
DictionaryVariables
280
     0
  1
127
  0
DICTIONARYVAR
  5
1C63B
102
{ACAD_REACTORS
330
37
102
}
330
37
100
DictionaryVariables
280
     0
  1
2
  0
DICTIONARY
  5
1D1E3
330
D9A4
100
AcDbDictionary
  3
ACAD_XREC_ROUNDTRIP
360
1D1E4
1001
ACAD
1000
TREAT_AS_HARD
1070
     1
  0
DICTIONARY
  5
1D1E5
330
D99C
100
AcDbDictionary
  3
ACAD_XREC_ROUNDTRIP
360
1D1E6
1001
ACAD
1000
TREAT_AS_HARD
1070
     1
  0
DICTIONARY
  5
1D1E7
330
D9AC
100
AcDbDictionary
  3
ACAD_XREC_ROUNDTRIP
360
1D1E8
1001
ACAD
1000
TREAT_AS_HARD
1070
     1
  0
XRECORD
  5
1D1E4
102
{ACAD_REACTORS
330
1D1E3
102
}
330
1D1E3
100
AcDbXrecord
102
MATERIAL
148
0.0
149
0.0
149
0.0
 93
        0
 94
      127
282
     0
 72
     0
 77
     0
171
     0
175
     0
179
     0
273
     0
  0
XRECORD
  5
1D1E6
102
{ACAD_REACTORS
330
1D1E5
102
}
330
1D1E5
100
AcDbXrecord
102
MATERIAL
148
0.0
149
0.0
149
0.0
 93
        0
 94
      127
282
     0
 72
     0
 77
     0
171
     0
175
     0
179
     0
273
     0
  0
XRECORD
  5
1D1E8
102
{ACAD_REACTORS
330
1D1E7
102
}
330
1D1E7
100
AcDbXrecord
102
MATERIAL
148
0.0
149
0.0
149
0.0
 93
        0
 94
      127
282
     0
 72
     0
 77
     0
171
     0
175
     0
179
     0
273
     0
  0
ENDSEC
  0
EOF
