  0
SECTION
  2
HEADER
  9
$ACADVER
  1
AC1012
  9
$DWGCODEPAGE
  3
ansi_932
  9
$INSBASE
 10
0.0
 20
0.0
 30
0.0
  9
$EXTMIN
 10
4708.505816214484
 20
-372.9022699669281
 30
-0.0000000000001455
  9
$EXTMAX
 10
5357.993783295421
 20
44.73847319549282
 30
0.0000000000563712
  9
$LIMMIN
 10
0.0
 20
0.0
  9
$LIMMAX
 10
420.0
 20
297.0
  9
$ORTHOMODE
 70
     0
  9
$REGENMODE
 70
     1
  9
$FILLMODE
 70
     1
  9
$QTEXTMODE
 70
     0
  9
$MIRRTEXT
 70
     0
  9
$DRAGMODE
 70
     2
  9
$LTSCALE
 40
0.5
  9
$OSMODE
 70
 12383
  9
$ATTMODE
 70
     1
  9
$TEXTSIZE
 40
4.0
  9
$TRACEWID
 40
1.0
  9
$TEXTSTYLE
  7
STANDARD
  9
$CLAYER
  8
1TEXT
  9
$CELTYPE
  6
BYLAYER
  9
$CECOLOR
 62
   256
  9
$CELTSCALE
 40
1.0
  9
$DELOBJ
 70
     1
  9
$DISPSILH
 70
     0
  9
$DIMSCALE
 40
1.3
  9
$DIMASZ
 40
2.0
  9
$DIMEXO
 40
0.0
  9
$DIMDLI
 40
7.0
  9
$DIMRND
 40
0.0
  9
$DIMDLE
 40
0.0
  9
$DIMEXE
 40
1.0
  9
$DIMTP
 40
0.0
  9
$DIMTM
 40
0.0
  9
$DIMTXT
 40
3.5
  9
$DIMCEN
 40
0.0
  9
$DIMTSZ
 40
0.0
  9
$DIMTOL
 70
     0
  9
$DIMLIM
 70
     0
  9
$DIMTIH
 70
     0
  9
$DIMTOH
 70
     0
  9
$DIMSE1
 70
     0
  9
$DIMSE2
 70
     0
  9
$DIMTAD
 70
     1
  9
$DIMZIN
 70
     8
  9
$DIMBLK
  1

  9
$DIMASO
 70
     1
  9
$DIMSHO
 70
     1
  9
$DIMPOST
  1
 
  9
$DIMAPOST
  1

  9
$DIMALT
 70
     0
  9
$DIMALTD
 70
     2
  9
$DIMALTF
 40
25.4
  9
$DIMLFAC
 40
1.0
  9
$DIMTOFL
 70
     1
  9
$DIMTVP
 40
0.0
  9
$DIMTIX
 70
     0
  9
$DIMSOXD
 70
     0
  9
$DIMSAH
 70
     1
  9
$DIMBLK1
  1
OPEN30
  9
$DIMBLK2
  1
OPEN30
  9
$DIMSTYLE
  2
NEWX10
  9
$DIMCLRD
 70
   256
  9
$DIMCLRE
 70
   256
  9
$DIMCLRT
 70
   201
  9
$DIMTFAC
 40
0.7
  9
$DIMGAP
 40
0.7
  9
$DIMJUST
 70
     0
  9
$DIMSD1
 70
     0
  9
$DIMSD2
 70
     0
  9
$DIMTOLJ
 70
     1
  9
$DIMTZIN
 70
     8
  9
$DIMALTZ
 70
     0
  9
$DIMALTTZ
 70
     0
  9
$DIMFIT
 70
     2
  9
$DIMUPT
 70
     0
  9
$DIMUNIT
 70
     2
  9
$DIMDEC
 70
     2
  9
$DIMTDEC
 70
     4
  9
$DIMALTU
 70
     2
  9
$DIMALTTD
 70
     2
  9
$DIMTXSTY
  7
STANDARD
  9
$DIMAUNIT
 70
     0
  9
$LUNITS
 70
     2
  9
$LUPREC
 70
     4
  9
$SKETCHINC
 40
1.0
  9
$FILLETRAD
 40
0.0
  9
$AUNITS
 70
     0
  9
$AUPREC
 70
     2
  9
$MENU
  1
acad
  9
$ELEVATION
 40
0.0
  9
$PELEVATION
 40
0.0
  9
$THICKNESS
 40
0.0
  9
$LIMCHECK
 70
     0
  9
$CHAMFERA
 40
10.0
  9
$CHAMFERB
 40
10.0
  9
$CHAMFERC
 40
20.0
  9
$CHAMFERD
 40
0.0
  9
$SKPOLY
 70
     0
  9
$TDCREATE
 40
2451318.621352917
  9
$TDUPDATE
 40
2459359.40763228
  9
$TDINDWG
 40
1.5891743287
  9
$TDUSRTIMER
 40
1.5891743287
  9
$USRTIMER
 70
     1
  9
$ANGBASE
 50
0.0
  9
$ANGDIR
 70
     0
  9
$PDMODE
 70
     0
  9
$PDSIZE
 40
0.0
  9
$PLINEWID
 40
0.0
  9
$COORDS
 70
     2
  9
$SPLFRAME
 70
     0
  9
$SPLINETYPE
 70
     6
  9
$SPLINESEGS
 70
     8
  9
$ATTDIA
 70
     0
  9
$ATTREQ
 70
     1
  9
$HANDLING
 70
     1
  9
$HANDSEED
  5
D47C
  9
$SURFTAB1
 70
     6
  9
$SURFTAB2
 70
     6
  9
$SURFTYPE
 70
     6
  9
$SURFU
 70
     6
  9
$SURFV
 70
     6
  9
$UCSNAME
  2

  9
$UCSORG
 10
0.0
 20
0.0
 30
0.0
  9
$UCSXDIR
 10
1.0
 20
0.0
 30
0.0
  9
$UCSYDIR
 10
0.0
 20
1.0
 30
0.0
  9
$PUCSNAME
  2

  9
$PUCSORG
 10
0.0
 20
0.0
 30
0.0
  9
$PUCSXDIR
 10
1.0
 20
0.0
 30
0.0
  9
$PUCSYDIR
 10
0.0
 20
1.0
 30
0.0
  9
$USERI1
 70
     0
  9
$USERI2
 70
     0
  9
$USERI3
 70
     0
  9
$USERI4
 70
     0
  9
$USERI5
 70
     0
  9
$USERR1
 40
0.0
  9
$USERR2
 40
0.0
  9
$USERR3
 40
0.0
  9
$USERR4
 40
0.0
  9
$USERR5
 40
0.0
  9
$WORLDVIEW
 70
     1
  9
$SHADEDGE
 70
     3
  9
$SHADEDIF
 70
    70
  9
$TILEMODE
 70
     1
  9
$MAXACTVP
 70
    48
  9
$PINSBASE
 10
0.0
 20
0.0
 30
0.0
  9
$PLIMCHECK
 70
     0
  9
$PEXTMIN
 10
1.000000000000000E+20
 20
1.000000000000000E+20
 30
1.000000000000000E+20
  9
$PEXTMAX
 10
-1.000000000000000E+20
 20
-1.000000000000000E+20
 30
-1.000000000000000E+20
  9
$PLIMMIN
 10
0.0
 20
0.0
  9
$PLIMMAX
 10
420.0
 20
297.0
  9
$UNITMODE
 70
     0
  9
$VISRETAIN
 70
     1
  9
$PLINEGEN
 70
     0
  9
$PSLTSCALE
 70
     1
  9
$TREEDEPTH
 70
  3020
  9
$PICKSTYLE
 70
     1
  9
$CMLSTYLE
  2
STANDARD
  9
$CMLJUST
 70
     0
  9
$CMLSCALE
 40
20.0
  9
$SAVEIMAGES
 70
     1
  0
ENDSEC
  0
SECTION
  2
CLASSES
  0
CLASS
  1
DICTIONARYVAR
  2
AcDbDictionaryVar
  3
ObjectDBX Classes
 90
        0
280
     0
281
     0
  0
CLASS
  1
IDBUFFER
  2
AcDbIdBuffer
  3
ObjectDBX Classes
 90
    32768
280
     0
281
     0
  0
CLASS
  1
LWPOLYLINE
  2
AcDbPolyline
  3
ObjectDBX Classes
 90
    32768
280
     0
281
     1
  0
CLASS
  1
ACDBDICTIONARYWDFLT
  2
AcDbDictionaryWithDefault
  3
ObjectDBX Classes
 90
    32768
280
     0
281
     0
  0
CLASS
  1
ACDBPLACEHOLDER
  2
AcDbPlaceHolder
  3
ObjectDBX Classes
 90
        0
280
     0
281
     0
  0
CLASS
  1
LAYOUT
  2
AcDbLayout
  3
ObjectDBX Classes
 90
        0
280
     0
281
     0
  0
CLASS
  1
TABLESTYLE
  2
AcDbTableStyle
  3
ObjectDBX Classes
 90
     4095
280
     0
281
     0
  0
CLASS
  1
SORTENTSTABLE
  2
AcDbSortentsTable
  3
ObjectDBX Classes
 90
    32768
280
     0
281
     0
  0
CLASS
  1
MATERIAL
  2
AcDbMaterial
  3
ObjectDBX Classes
 90
     1153
280
     0
281
     0
  0
CLASS
  1
VISUALSTYLE
  2
AcDbVisualStyle
  3
ObjectDBX Classes
 90
     4095
280
     0
281
     0
  0
CLASS
  1
SCALE
  2
AcDbScale
  3
ObjectDBX Classes
 90
     1153
280
     0
281
     0
  0
CLASS
  1
MLEADERSTYLE
  2
AcDbMLeaderStyle
  3
ACDB_MLEADERSTYLE_CLASS
 90
     4095
280
     0
281
     0
  0
CLASS
  1
CELLSTYLEMAP
  2
AcDbCellStyleMap
  3
ObjectDBX Classes
 90
     1152
280
     0
281
     0
  0
CLASS
  1
SUN
  2
AcDbSun
  3
SCENEOE
 90
     1153
280
     0
281
     0
  0
CLASS
  1
XRECORD
  2
AcDbXrecord
  3
ObjectDBX Classes
 90
    32768
280
     0
281
     0
  0
CLASS
  1
HATCH
  2
AcDbHatch
  3
ObjectDBX Classes
 90
    32768
280
     0
281
     1
  0
ENDSEC
  0
SECTION
  2
TABLES
  0
TABLE
  2
VPORT
  5
8
330
0
100
AcDbSymbolTable
 70
     1
  0
VPORT
  5
952D
330
8
100
AcDbSymbolTableRecord
100
AcDbViewportTableRecord
  2
*ACTIVE
 70
     0
 10
0.0
 20
0.0
 11
1.0
 21
1.0
 12
5033.249799754953
 22
-164.0818983857176
 13
0.0
 23
0.0
 14
10.0
 24
10.0
 15
10.0
 25
10.0
 16
0.0
 26
0.0
 36
1.0
 17
0.0
 27
0.0
 37
0.0
 40
448.4142716059677
 41
1.858156028368794
 42
50.0
 43
0.0
 44
0.0
 50
0.0
 51
0.0
 71
    16
 72
   100
 73
     1
 74
     1
 75
     0
 76
     0
 77
     0
 78
     0
1001
ACAD_NAV_VCDISPLAY
1070
     3
  0
ENDTAB
  0
TABLE
  2
LTYPE
  5
5
330
0
100
AcDbSymbolTable
 70
     3
  0
LTYPE
  5
12
330
5
100
AcDbSymbolTableRecord
100
AcDbLinetypeTableRecord
  2
BYBLOCK
 70
     0
  3

 72
    65
 73
     0
 40
0.0
  0
LTYPE
  5
13
330
5
100
AcDbSymbolTableRecord
100
AcDbLinetypeTableRecord
  2
BYLAYER
 70
     0
  3

 72
    65
 73
     0
 40
0.0
  0
LTYPE
  5
14
330
5
100
AcDbSymbolTableRecord
100
AcDbLinetypeTableRecord
  2
CONTINUOUS
 70
     0
  3
Solid line
 72
    65
 73
     0
 40
0.0
  0
LTYPE
  5
2C03
330
5
100
AcDbSymbolTableRecord
100
AcDbLinetypeTableRecord
  2
HIDDEN
 70
     0
  3
Hidden __ __ __ __ __ __ __ __ __ __ __ __ __ _
 72
    65
 73
     2
 40
9.524999999999999
 49
6.35
 74
     0
 49
-3.175
 74
     0
  0
LTYPE
  5
9837
330
5
100
AcDbSymbolTableRecord
100
AcDbLinetypeTableRecord
  2
CENTER2
 70
     0
  3
Center (.5x) ___ _ ___ _ ___ _ ___ _ ___ _ ___
 72
    65
 73
     4
 40
28.575
 49
19.05
 74
     0
 49
-3.175
 74
     0
 49
3.175
 74
     0
 49
-3.175
 74
     0
  0
ENDTAB
  0
TABLE
  2
LAYER
  5
2
102
{ACAD_XDICTIONARY
360
96D9
102
}
330
0
100
AcDbSymbolTable
 70
     6
  0
LAYER
  5
E
102
{ACAD_XDICTIONARY
360
9593
102
}
330
2
100
AcDbSymbolTableRecord
100
AcDbLayerTableRecord
  2
0
 70
     0
 62
     7
  6
CONTINUOUS
  0
LAYER
  5
29
102
{ACAD_XDICTIONARY
360
9595
102
}
330
2
100
AcDbSymbolTableRecord
100
AcDbLayerTableRecord
  2
1CENTER
 70
     0
 62
     7
  6
CENTER2
  0
LAYER
  5
31
102
{ACAD_XDICTIONARY
360
9597
102
}
330
2
100
AcDbSymbolTableRecord
100
AcDbLayerTableRecord
  2
1TEXT
 70
     0
 62
     7
  6
CONTINUOUS
  0
LAYER
  5
243
102
{ACAD_XDICTIONARY
360
959D
102
}
330
2
100
AcDbSymbolTableRecord
100
AcDbLayerTableRecord
  2
01
 70
     0
 62
     1
  6
CONTINUOUS
  0
LAYER
  5
24E
102
{ACAD_XDICTIONARY
360
95A3
102
}
330
2
100
AcDbSymbolTableRecord
100
AcDbLayerTableRecord
  2
1DIM
 70
     0
 62
     7
  6
CONTINUOUS
  0
LAYER
  5
2C05
102
{ACAD_XDICTIONARY
360
95AF
102
}
330
2
100
AcDbSymbolTableRecord
100
AcDbLayerTableRecord
  2
1HIDDEN
 70
     0
 62
     7
  6
HIDDEN
  0
ENDTAB
  0
TABLE
  2
STYLE
  5
3
330
0
100
AcDbSymbolTable
 70
     1
  0
STYLE
  5
F
330
3
100
AcDbSymbolTableRecord
100
AcDbTextStyleTableRecord
  2
STANDARD
 70
     0
 40
0.0
 41
1.0
 50
0.0
 71
     0
 42
4.0
  3
txt.shx
  4
extfont.shx
  0
ENDTAB
  0
TABLE
  2
VIEW
  5
6
330
0
100
AcDbSymbolTable
 70
     0
  0
ENDTAB
  0
TABLE
  2
UCS
  5
7
330
0
100
AcDbSymbolTable
 70
     0
  0
ENDTAB
  0
TABLE
  2
APPID
  5
9
330
0
100
AcDbSymbolTable
 70
    23
  0
APPID
  5
10
330
9
100
AcDbSymbolTableRecord
100
AcDbRegAppTableRecord
  2
ACAD
 70
     0
  0
APPID
  5
21
330
9
100
AcDbSymbolTableRecord
100
AcDbRegAppTableRecord
  2
DRAWINGVARIABLESXDATA
 70
     0
  0
APPID
  5
64
330
9
100
AcDbSymbolTableRecord
100
AcDbRegAppTableRecord
  2
CONTENTTABDATA
 70
     0
  0
APPID
  5
65
330
9
100
AcDbSymbolTableRecord
100
AcDbRegAppTableRecord
  2
CONTENTCURRENTTAB
 70
     0
  0
APPID
  5
66
330
9
100
AcDbSymbolTableRecord
100
AcDbRegAppTableRecord
  2
CONTENTBLOCKDESCRIPTION
 70
     0
  0
APPID
  5
67
330
9
100
AcDbSymbolTableRecord
100
AcDbRegAppTableRecord
  2
CONTENTBLOCKICON
 70
     0
  0
APPID
  5
68
330
9
100
AcDbSymbolTableRecord
100
AcDbRegAppTableRecord
  2
CONTENTLONGBLOCKNAME
 70
     0
  0
APPID
  5
2AE
330
9
100
AcDbSymbolTableRecord
100
AcDbRegAppTableRecord
  2
ACAD_PSEXT
 70
     0
  0
APPID
  5
9585
330
9
100
AcDbSymbolTableRecord
100
AcDbRegAppTableRecord
  2
ACAD_MLEADERVER
 70
     0
  0
APPID
  5
A2E3
330
9
100
AcDbSymbolTableRecord
100
AcDbRegAppTableRecord
  2
ACADANNOTATIVE
 70
     0
  0
APPID
  5
A2E4
330
9
100
AcDbSymbolTableRecord
100
AcDbRegAppTableRecord
  2
ACDBBLOCKREPETAG
 70
     0
  0
APPID
  5
AD6E
330
9
100
AcDbSymbolTableRecord
100
AcDbRegAppTableRecord
  2
ACAD_EXEMPT_FROM_CAD_STAND
 70
     0
  0
APPID
  5
AD77
330
9
100
AcDbSymbolTableRecord
100
AcDbRegAppTableRecord
  2
ACAD_NAV_VCDISPLAY
 70
     0
  0
APPID
  5
ADC3
330
9
100
AcDbSymbolTableRecord
100
AcDbRegAppTableRecord
  2
ACAECLAYERSTANDARD
 70
     0
  0
APPID
  5
C36C
330
9
100
AcDbSymbolTableRecord
100
AcDbRegAppTableRecord
  2
ACAD_DSTYLE_DIMJAG
 70
     0
  0
APPID
  5
C36D
330
9
100
AcDbSymbolTableRecord
100
AcDbRegAppTableRecord
  2
ACAD_DSTYLE_DIMTALN
 70
     0
  0
APPID
  5
C5F4
330
9
100
AcDbSymbolTableRecord
100
AcDbRegAppTableRecord
  2
ACAD_OBJECT_CHANGE_GUID
 70
     0
  0
APPID
  5
C932
330
9
100
AcDbSymbolTableRecord
100
AcDbRegAppTableRecord
  2
ACAD_DSTYLE_DIMRADIAL_EXTE
 70
     0
  0
APPID
  5
CB2C
330
9
100
AcDbSymbolTableRecord
100
AcDbRegAppTableRecord
  2
ACLAYERTOOLS
 70
     0
  0
APPID
  5
CB2D
330
9
100
AcDbSymbolTableRecord
100
AcDbRegAppTableRecord
  2
ACAD_DSTYLE_DIMJOGGED_JOGA
 70
     0
  0
APPID
  5
D0C9
330
9
100
AcDbSymbolTableRecord
100
AcDbRegAppTableRecord
  2
ACAD_DSTYLE_DIM_LINETYPE
 70
     0
  0
APPID
  5
D0CA
330
9
100
AcDbSymbolTableRecord
100
AcDbRegAppTableRecord
  2
ACAD_DSTYLE_DIM_EXT1_LINET
 70
     0
  0
APPID
  5
D0CB
330
9
100
AcDbSymbolTableRecord
100
AcDbRegAppTableRecord
  2
ACAD_DSTYLE_DIM_EXT2_LINET
 70
     0
  0
ENDTAB
  0
TABLE
  2
DIMSTYLE
  5
A
330
0
100
AcDbSymbolTable
 70
     2
  0
DIMSTYLE
105
48
330
A
100
AcDbSymbolTableRecord
100
AcDbDimStyleTableRecord
  2
NEWX10
 70
     0
  3
 
  4

  5

  6
OPEN30
  7
OPEN30
 40
1.0
 41
2.0
 42
0.0
 43
7.0
 44
1.0
 45
0.0
 46
0.0
 47
0.0
 48
0.0
140
3.5
141
0.0
142
0.0
143
25.4
144
1.0
145
0.0
146
0.7
147
0.7
 71
     0
 72
     0
 73
     0
 74
     0
 75
     0
 76
     0
 77
     1
 78
     8
170
     0
171
     2
172
     1
173
     1
174
     0
175
     0
176
   256
177
   256
178
   201
179
     2
270
     2
271
     2
272
     4
273
     2
274
     2
340
F
275
     0
280
     0
281
     0
282
     0
283
     1
284
     8
285
     0
286
     0
287
     2
288
     0
  0
DIMSTYLE
105
D040
330
A
100
AcDbSymbolTableRecord
100
AcDbDimStyleTableRecord
  2
ISO-25
 70
     0
  3

  4

  5

  6

  7

 40
1.0
 41
20.0
 42
3.0
 43
3.75
 44
2.0
 45
0.0
 46
0.0
 47
0.0
 48
0.0
140
30.0
141
5.0
142
0.0
143
0.03937
144
1.0
145
0.0
146
1.0
147
8.0
 71
     0
 72
     0
 73
     0
 74
     0
 75
     0
 76
     0
 77
     1
 78
     8
170
     0
171
     3
172
     1
173
     0
174
     0
175
     0
176
     1
177
     1
178
     1
179
     2
270
     2
271
     2
272
     2
273
     2
274
     3
340
F
275
     0
280
     0
281
     0
282
     0
283
     0
284
     8
285
     0
286
     0
287
     3
288
     0
  0
ENDTAB
  0
TABLE
  2
BLOCK_RECORD
  5
1
330
0
100
AcDbSymbolTable
 70
     8
  0
BLOCK_RECORD
  5
18
102
{ACAD_XDICTIONARY
360
88F
102
}
330
1
100
AcDbSymbolTableRecord
100
AcDbBlockTableRecord
  2
*MODEL_SPACE
  0
BLOCK_RECORD
  5
15
102
{ACAD_XDICTIONARY
360
CCE4
102
}
330
1
100
AcDbSymbolTableRecord
100
AcDbBlockTableRecord
  2
*PAPER_SPACE
  0
BLOCK_RECORD
  5
42
330
1
100
AcDbSymbolTableRecord
100
AcDbBlockTableRecord
  2
_OPEN30
  0
BLOCK_RECORD
  5
A333
330
1
100
AcDbSymbolTableRecord
100
AcDbBlockTableRecord
  2
A3WAKUKAWAJUN2017_HYOUDAI_
  0
BLOCK_RECORD
  5
D2DC
330
1
100
AcDbSymbolTableRecord
100
AcDbBlockTableRecord
  2
*X40
  0
BLOCK_RECORD
  5
D32A
330
1
100
AcDbSymbolTableRecord
100
AcDbBlockTableRecord
  2
*X41
  0
BLOCK_RECORD
  5
D37C
330
1
100
AcDbSymbolTableRecord
100
AcDbBlockTableRecord
  2
*X42
  0
BLOCK_RECORD
  5
D3CD
330
1
100
AcDbSymbolTableRecord
100
AcDbBlockTableRecord
  2
*X43
  0
BLOCK_RECORD
  5
D40A
330
1
100
AcDbSymbolTableRecord
100
AcDbBlockTableRecord
  2
*X44
  0
BLOCK_RECORD
  5
D44A
330
1
100
AcDbSymbolTableRecord
100
AcDbBlockTableRecord
  2
*X45
  0
ENDTAB
  0
ENDSEC
  0
SECTION
  2
BLOCKS
  0
BLOCK
  5
19
330
18
100
AcDbEntity
  8
0
100
AcDbBlockBegin
  2
*MODEL_SPACE
 70
     0
 10
0.0
 20
0.0
 30
0.0
  3
*MODEL_SPACE
  1

  0
ENDBLK
  5
1A
330
18
100
AcDbEntity
  8
0
100
AcDbBlockEnd
  0
BLOCK
  5
16
330
15
100
AcDbEntity
 67
     1
  8
0
100
AcDbBlockBegin
  2
*PAPER_SPACE
 70
     0
 10
0.0
 20
0.0
 30
0.0
  3
*PAPER_SPACE
  1

  0
ENDBLK
  5
17
330
15
100
AcDbEntity
 67
     1
  8
0
100
AcDbBlockEnd
  0
BLOCK
  5
43
330
42
100
AcDbEntity
  8
0
100
AcDbBlockBegin
  2
_OPEN30
 70
     0
 10
0.0
 20
0.0
 30
0.0
  3
_OPEN30
  1

  0
LINE
  5
44
330
42
100
AcDbEntity
  8
0
  6
BYBLOCK
 62
     0
100
AcDbLine
 10
-1.0
 20
0.26794919
 30
0.0
 11
0.0
 21
0.0
 31
0.0
  0
LINE
  5
45
330
42
100
AcDbEntity
  8
0
  6
BYBLOCK
 62
     0
100
AcDbLine
 10
0.0
 20
0.0
 30
0.0
 11
-1.0
 21
-0.26794919
 31
0.0
  0
LINE
  5
46
330
42
100
AcDbEntity
  8
0
  6
BYBLOCK
 62
     0
100
AcDbLine
 10
0.0
 20
0.0
 30
0.0
 11
-1.0
 21
0.0
 31
0.0
  0
ENDBLK
  5
47
330
42
100
AcDbEntity
  8
0
100
AcDbBlockEnd
  0
BLOCK
  5
AA56
330
A333
100
AcDbEntity
  8
0
100
AcDbBlockBegin
  2
A3WAKUKAWAJUN2017_HYOUDAI_
 70
     0
 10
0.0
 20
0.0
 30
0.0
  3
A3WAKUKAWAJUN2017_HYOUDAI_
  1

  0
LINE
  5
A335
330
A333
100
AcDbEntity
  8
0
100
AcDbLine
 10
13.26299999998673
 20
-0.0001000000000317
 30
0.0
 11
9.236999999990758
 21
8.999899999990987
 31
0.0
1001
ACAD
1000
ASC_BOUNDS
1002
{
1070
    19
1005
A376
1002
}
  0
LINE
  5
A336
330
A333
100
AcDbEntity
  8
0
100
AcDbLine
 10
5.657999999994331
 20
0.9999999999989768
 30
0.0
 11
9.236999999990758
 21
8.999999999991019
 31
0.0
1001
ACAD
1000
ASC_BOUNDS
1002
{
1070
    19
1005
A376
1002
}
  0
LINE
  5
A337
330
A333
100
AcDbEntity
  8
0
100
AcDbLine
 10
18.59199999998134
 20
-0.2368999999997641
 30
0.0
 11
16.46099999998353
 21
5.432899999994561
 31
0.0
1001
ACAD
1000
ASC_BOUNDS
1002
{
1070
    19
1005
A377
1002
}
  0
LINE
  5
A338
330
A333
100
AcDbEntity
  8
0
100
AcDbLine
 10
18.59199999998134
 20
-0.2368999999997641
 30
0.0
 11
22.38199999997767
 21
8.763099999991255
 31
0.0
1001
ACAD
1000
ASC_BOUNDS
1002
{
1070
    19
1005
A377
1002
}
  0
LINE
  5
A339
330
A333
100
AcDbEntity
  8
0
100
AcDbLine
 10
14.32899999998563
 20
-0.2368999999997641
 30
0.0
 11
16.46099999998353
 21
5.432899999994561
 31
0.0
1001
ACAD
1000
ASC_BOUNDS
1002
{
1070
    19
1005
A377
1002
}
  0
LINE
  5
A33A
330
A333
100
AcDbEntity
  8
0
100
AcDbLine
 10
14.32899999998563
 20
-0.2368999999997641
 30
0.0
 11
10.53899999998941
 21
8.763099999991255
 31
0.0
1001
ACAD
1000
ASC_BOUNDS
1002
{
1070
    19
1005
A377
1002
}
  0
LINE
  5
A33B
330
A333
100
AcDbEntity
  8
0
100
AcDbLine
 10
19.53899999998043
 20
-0.0001000000000317
 30
0.0
 11
23.56599999997638
 21
8.999899999990987
 31
0.0
1001
ACAD
1000
ASC_BOUNDS
1002
{
1070
    19
1005
A378
1002
}
  0
LINE
  5
A33C
330
A333
100
AcDbEntity
  8
0
100
AcDbLine
 10
26.97358892824991
 20
1.383099999991202
 30
0.0
 11
23.56599999997638
 21
8.999899999990987
 31
0.0
1001
ACAD
1000
ASC_BOUNDS
1002
{
1070
    19
1005
A378
1002
}
  0
LINE
  5
A33D
330
A333
100
AcDbEntity
  8
0
100
AcDbLine
 10
5.657999999994331
 20
0.9999999999989768
 30
0.0
 11
3.181999999996833
 21
4.668599999995308
 31
0.0
1001
ACAD
1000
ASC_BOUNDS
1002
{
1070
    19
1005
A376
1002
}
  0
LINE
  5
A33E
330
A333
100
AcDbEntity
  8
0
100
AcDbLine
 10
4.617999999995391
 20
-0.0001000000000317
 30
0.0
 11
1.420999999998571
 21
4.736799999995242
 31
0.0
1001
ACAD
1000
ASC_BOUNDS
1002
{
1070
    19
1005
A376
1002
}
  0
LINE
  5
A33F
330
A333
100
AcDbEntity
  8
0
100
AcDbLine
 10
1.420999999998571
 20
8.763099999991255
 30
0.0
 11
1.420999999998571
 21
0.0
 31
0.0
1001
ACAD
1000
ASC_BOUNDS
1002
{
1070
    19
1005
A37B
1002
}
  0
LINE
  5
A340
330
A333
100
AcDbEntity
  8
0
100
AcDbLine
 10
0.0
 20
8.763099999991255
 30
0.0
 11
0.0
 21
0.0
 31
0.0
1001
ACAD
1000
ASC_BOUNDS
1002
{
1070
    19
1005
A37B
1002
}
  0
LINE
  5
A341
330
A333
100
AcDbEntity
  8
0
100
AcDbLine
 10
6.766999999993232
 20
-0.0001000000000317
 30
0.0
 11
7.826999999992154
 21
2.368399999997621
 31
0.0
1001
ACAD
1000
ASC_BOUNDS
1002
{
1070
    19
1005
A376
1002
}
  0
LINE
  5
A342
330
A333
100
AcDbEntity
  8
0
100
AcDbLine
 10
0.0
 20
0.0
 30
0.0
 11
1.420999999998571
 21
0.0
 31
0.0
1001
ACAD
1000
ASC_BOUNDS
1002
{
1070
    19
1005
A37B
1002
}
  0
LINE
  5
A343
330
A333
100
AcDbEntity
  8
0
100
AcDbLine
 10
4.617999999995391
 20
0.0
 30
0.0
 11
6.766999999993232
 21
0.0
 31
0.0
1001
ACAD
1000
ASC_BOUNDS
1002
{
1070
    19
1005
A376
1002
}
  0
LINE
  5
A344
330
A333
100
AcDbEntity
  8
0
100
AcDbLine
 10
11.70599999998831
 20
-0.0001000000000317
 30
0.0
 11
10.64699999998936
 21
2.368399999997621
 31
0.0
1001
ACAD
1000
ASC_BOUNDS
1002
{
1070
    19
1005
A376
1002
}
  0
LINE
  5
A345
330
A333
100
AcDbEntity
  8
0
100
AcDbLine
 10
7.826999999992154
 20
2.368399999997621
 30
0.0
 11
10.64699999998936
 21
2.368399999997621
 31
0.0
1001
ACAD
1000
ASC_BOUNDS
1002
{
1070
    19
1005
A376
1002
}
  0
LINE
  5
A346
330
A333
100
AcDbEntity
  8
0
100
AcDbLine
 10
11.70599999998831
 20
0.0
 30
0.0
 11
13.26299999998673
 21
0.0
 31
0.0
1001
ACAD
1000
ASC_BOUNDS
1002
{
1070
    19
1005
A376
1002
}
  0
LINE
  5
A347
330
A333
100
AcDbEntity
  8
0
100
AcDbLine
 10
22.15599999997789
 20
2.368399999997621
 30
0.0
 11
24.97599999997499
 21
2.368399999997621
 31
0.0
1001
ACAD
1000
ASC_BOUNDS
1002
{
1070
    19
1005
A378
1002
}
  0
LINE
  5
A348
330
A333
100
AcDbEntity
  8
0
100
AcDbLine
 10
19.53899999998043
 20
0.0
 30
0.0
 11
21.09599999997886
 21
0.0
 31
0.0
1001
ACAD
1000
ASC_BOUNDS
1002
{
1070
    19
1005
A378
1002
}
  0
LINE
  5
A349
330
A333
100
AcDbEntity
  8
0
100
AcDbLine
 10
21.09599999997886
 20
-0.0001000000000317
 30
0.0
 11
22.15599999997789
 21
2.368399999997621
 31
0.0
1001
ACAD
1000
ASC_BOUNDS
1002
{
1070
    19
1005
A378
1002
}
  0
LINE
  5
A34A
330
A333
100
AcDbEntity
  8
0
100
AcDbLine
 10
26.02015566812236
 20
0.0330999999912365
 30
0.0
 11
24.97599999997499
 21
2.368399999997621
 31
0.0
1001
ACAD
1000
ASC_BOUNDS
1002
{
1070
    19
1005
A378
1002
}
  0
LINE
  5
A34B
330
A333
100
AcDbEntity
  8
0
100
AcDbLine
 10
14.32399999998563
 20
3.315799999996671
 30
0.0
 11
16.46099999998353
 21
8.999899999990987
 31
0.0
1001
ACAD
1000
ASC_BOUNDS
1002
{
1070
    19
1005
A377
1002
}
  0
LINE
  5
A34C
330
A333
100
AcDbEntity
  8
0
100
AcDbLine
 10
6.432999999993513
 20
8.763099999991255
 30
0.0
 11
3.181999999996833
 21
4.668599999995308
 31
0.0
1001
ACAD
1000
ASC_BOUNDS
1002
{
1070
    19
1005
A376
1002
}
  0
LINE
  5
A34D
330
A333
100
AcDbEntity
  8
0
100
AcDbLine
 10
4.617999999995391
 20
8.763099999991255
 30
0.0
 11
1.420999999998571
 21
4.736799999995242
 31
0.0
1001
ACAD
1000
ASC_BOUNDS
1002
{
1070
    19
1005
A376
1002
}
  0
LINE
  5
A34E
330
A333
100
AcDbEntity
  8
0
100
AcDbLine
 10
0.0
 20
8.763099999991255
 30
0.0
 11
1.420999999998571
 21
8.763099999991255
 31
0.0
1001
ACAD
1000
ASC_BOUNDS
1002
{
1070
    19
1005
A37B
1002
}
  0
LINE
  5
A34F
330
A333
100
AcDbEntity
  8
0
100
AcDbLine
 10
4.617999999995391
 20
8.763099999991255
 30
0.0
 11
6.432999999993513
 21
8.763099999991255
 31
0.0
1001
ACAD
1000
ASC_BOUNDS
1002
{
1070
    19
1005
A376
1002
}
  0
LINE
  5
A350
330
A333
100
AcDbEntity
  8
0
100
AcDbLine
 10
14.32399999998563
 20
3.315799999996671
 30
0.0
 11
12.02999999998792
 21
8.763099999991255
 31
0.0
1001
ACAD
1000
ASC_BOUNDS
1002
{
1070
    19
1005
A377
1002
}
  0
LINE
  5
A351
330
A333
100
AcDbEntity
  8
0
100
AcDbLine
 10
10.06399999998996
 20
3.670999999996297
 30
0.0
 11
9.236999999990758
 21
5.5200999999945
 31
0.0
1001
ACAD
1000
ASC_BOUNDS
1002
{
1070
    19
1005
A376
1002
}
  0
LINE
  5
A352
330
A333
100
AcDbEntity
  8
0
100
AcDbLine
 10
8.409999999991555
 20
3.670999999996297
 30
0.0
 11
9.236999999990758
 21
5.5200999999945
 31
0.0
1001
ACAD
1000
ASC_BOUNDS
1002
{
1070
    19
1005
A376
1002
}
  0
LINE
  5
A353
330
A333
100
AcDbEntity
  8
0
100
AcDbLine
 10
8.409999999991555
 20
3.670999999996297
 30
0.0
 11
10.06399999998996
 21
3.670999999996297
 31
0.0
1001
ACAD
1000
ASC_BOUNDS
1002
{
1070
    19
1005
A376
1002
}
  0
LINE
  5
A354
330
A333
100
AcDbEntity
  8
0
100
AcDbLine
 10
10.53899999998941
 20
8.763099999991255
 30
0.0
 11
12.02999999998792
 21
8.763099999991255
 31
0.0
1001
ACAD
1000
ASC_BOUNDS
1002
{
1070
    19
1005
A377
1002
}
  0
LINE
  5
A355
330
A333
100
AcDbEntity
  8
0
100
AcDbLine
 10
22.7389999999773
 20
3.670999999996297
 30
0.0
 11
23.56599999997638
 21
5.5200999999945
 31
0.0
1001
ACAD
1000
ASC_BOUNDS
1002
{
1070
    19
1005
A378
1002
}
  0
LINE
  5
A356
330
A333
100
AcDbEntity
  8
0
100
AcDbLine
 10
22.7389999999773
 20
3.670999999996297
 30
0.0
 11
24.39299999997559
 21
3.670999999996297
 31
0.0
1001
ACAD
1000
ASC_BOUNDS
1002
{
1070
    19
1005
A378
1002
}
  0
LINE
  5
A357
330
A333
100
AcDbEntity
  8
0
100
AcDbLine
 10
18.59799999998143
 20
3.315799999996671
 30
0.0
 11
20.89099999997916
 21
8.763099999991255
 31
0.0
1001
ACAD
1000
ASC_BOUNDS
1002
{
1070
    19
1005
A377
1002
}
  0
LINE
  5
A358
330
A333
100
AcDbEntity
  8
0
100
AcDbLine
 10
18.59799999998143
 20
3.315799999996671
 30
0.0
 11
16.46099999998353
 21
8.999899999990987
 31
0.0
1001
ACAD
1000
ASC_BOUNDS
1002
{
1070
    19
1005
A377
1002
}
  0
LINE
  5
A359
330
A333
100
AcDbEntity
  8
0
100
AcDbLine
 10
20.89099999997916
 20
8.763099999991255
 30
0.0
 11
22.38199999997767
 21
8.763099999991255
 31
0.0
1001
ACAD
1000
ASC_BOUNDS
1002
{
1070
    19
1005
A377
1002
}
  0
LINE
  5
A35A
330
A333
100
AcDbEntity
  8
0
100
AcDbLine
 10
24.39299999997559
 20
3.670999999996297
 30
0.0
 11
23.56599999997638
 21
5.5200999999945
 31
0.0
1001
ACAD
1000
ASC_BOUNDS
1002
{
1070
    19
1005
A378
1002
}
  0
LINE
  5
A35B
330
A333
100
AcDbEntity
  8
0
100
AcDbLine
 10
44.99999999995498
 20
-0.2368999999997641
 30
0.0
 11
40.02599999995994
 21
5.341799999994635
 31
0.0
1001
ACAD
1000
ASC_BOUNDS
1002
{
1070
    19
1005
A37A
1002
}
  0
LINE
  5
A35C
330
A333
100
AcDbEntity
  8
0
100
AcDbLine
 10
40.02599999995994
 20
5.341799999994635
 30
0.0
 11
40.02599999995994
 21
0.0
 31
0.0
1001
ACAD
1000
ASC_BOUNDS
1002
{
1070
    19
1005
A37A
1002
}
  0
LINE
  5
A35D
330
A333
100
AcDbEntity
  8
0
100
AcDbLine
 10
38.60499999996136
 20
8.999999999991019
 30
0.0
 11
38.60499999996136
 21
0.0
 31
0.0
1001
ACAD
1000
ASC_BOUNDS
1002
{
1070
    19
1005
A37A
1002
}
  0
LINE
  5
A35E
330
A333
100
AcDbEntity
  8
0
100
AcDbLine
 10
44.99999999995498
 20
8.763099999991255
 30
0.0
 11
44.99999999995498
 21
-0.2368999999997641
 31
0.0
1001
ACAD
1000
ASC_BOUNDS
1002
{
1070
    19
1005
A37A
1002
}
  0
LINE
  5
A35F
330
A333
100
AcDbEntity
  8
0
100
AcDbLine
 10
38.60499999996136
 20
0.0
 30
0.0
 11
40.02599999995994
 21
0.0
 31
0.0
1001
ACAD
1000
ASC_BOUNDS
1002
{
1070
    19
1005
A37A
1002
}
  0
LINE
  5
A360
330
A333
100
AcDbEntity
  8
0
100
AcDbLine
 10
43.57899999995641
 20
3.421199999996588
 30
0.0
 11
38.60499999996136
 21
8.999899999990987
 31
0.0
1001
ACAD
1000
ASC_BOUNDS
1002
{
1070
    19
1005
A37A
1002
}
  0
LINE
  5
A361
330
A333
100
AcDbEntity
  8
0
100
AcDbLine
 10
43.57899999995641
 20
8.763099999991255
 30
0.0
 11
43.57899999995641
 21
3.421199999996588
 31
0.0
1001
ACAD
1000
ASC_BOUNDS
1002
{
1070
    19
1005
A37A
1002
}
  0
LINE
  5
A362
330
A333
100
AcDbEntity
  8
0
100
AcDbLine
 10
43.57899999995641
 20
8.763099999991255
 30
0.0
 11
44.99999999995498
 21
8.763099999991255
 31
0.0
1001
ACAD
1000
ASC_BOUNDS
1002
{
1070
    19
1005
A37A
1002
}
  0
LINE
  5
A363
330
A333
100
AcDbEntity
  8
0
100
AcDbLine
 10
37.67199999996831
 20
8.763099999991255
 30
0.0
 11
36.23199999996837
 21
8.763099999991255
 31
0.0
  0
LINE
  5
A364
330
A333
100
AcDbEntity
  8
0
100
AcDbLine
 10
31.64199999996833
 20
8.763099999991255
 30
0.0
 11
31.64199999996833
 21
2.481619422925121
 31
0.0
  0
LINE
  5
A365
330
A333
100
AcDbEntity
  8
0
100
AcDbLine
 10
37.67199999996831
 20
8.763099999991255
 30
0.0
 11
37.67199999996831
 21
2.481619422925121
 31
0.0
  0
LINE
  5
A366
330
A333
100
AcDbEntity
  8
0
100
AcDbLine
 10
36.23199999996837
 20
8.763099999991255
 30
0.0
 11
36.23199999996837
 21
2.481619422925064
 31
0.0
  0
LINE
  5
A367
330
A333
100
AcDbEntity
  8
0
100
AcDbLine
 10
33.08199999996839
 20
8.763099999991255
 30
0.0
 11
33.08199999996839
 21
2.481619422925121
 31
0.0
  0
ARC
  5
A368
330
A333
100
AcDbEntity
  8
0
100
AcDbCircle
 10
34.65699999996832
 20
3.183099999991214
 30
0.0
 40
3.420000000000007
100
AcDbArc
 50
240.0000000000255
 51
299.9999999999766
  0
ARC
  5
A369
330
A333
100
AcDbEntity
  8
0
100
AcDbCircle
 10
34.65699999996832
 20
3.183099999991214
 30
0.0
 40
1.97999999999999
100
AcDbArc
 50
240.000000000026
 51
299.9999999999703
  0
LINE
  5
A36A
330
A333
100
AcDbEntity
  8
0
100
AcDbLine
 10
33.08199999996828
 20
8.763099999991255
 30
0.0
 11
31.64199999996833
 21
8.763099999991255
 31
0.0
  0
ARC
  5
A36B
330
A333
100
AcDbEntity
  8
0
100
AcDbCircle
 10
35.06199999996829
 20
2.481619422925064
 30
0.0
 40
1.17
100
AcDbArc
 50
299.9999999999699
 51
0.0
  0
ARC
  5
A36C
330
A333
100
AcDbEntity
  8
0
100
AcDbCircle
 10
34.25199999996835
 20
2.481619422925121
 30
0.0
 40
1.17
100
AcDbArc
 50
180.0
 51
240.0000000000238
  0
ARC
  5
A36D
330
A333
100
AcDbEntity
  8
0
100
AcDbCircle
 10
35.06199999996841
 20
2.481619422925121
 30
0.0
 40
2.61
100
AcDbArc
 50
299.9999999999756
 51
0.0
  0
ARC
  5
A36E
330
A333
100
AcDbEntity
  8
0
100
AcDbCircle
 10
34.25199999996835
 20
2.481619422925121
 30
0.0
 40
2.61
100
AcDbArc
 50
180.0
 51
240.0000000000244
  0
LINE
  5
A36F
330
A333
100
AcDbEntity
  8
0
100
AcDbLine
 10
29.30199999996933
 20
8.763099999991255
 30
0.0
 11
30.74199999996927
 21
8.763099999991255
 31
0.0
1001
ACAD
1000
ASC_BOUNDS
1002
{
1070
    19
1005
A378
1002
}
  0
LINE
  5
A370
330
A333
100
AcDbEntity
  8
0
100
AcDbLine
 10
30.74199999996927
 20
8.763099999991255
 30
0.0
 11
30.74199999996927
 21
2.373099999991211
 31
0.0
1001
ACAD
1000
ASC_BOUNDS
1002
{
1070
    19
1005
A378
1002
}
  0
LINE
  5
A371
330
A333
100
AcDbEntity
  8
0
100
AcDbLine
 10
26.02015566812236
 20
0.0330999999912365
 30
0.0
 11
28.40199999996923
 21
0.0330999999912365
 31
0.0
1001
ACAD
1000
ASC_BOUNDS
1002
{
1070
    19
1005
A378
1002
}
  0
LINE
  5
A372
330
A333
100
AcDbEntity
  8
0
100
AcDbLine
 10
29.30199999996933
 20
8.763099999991255
 30
0.0
 11
29.30199999996933
 21
2.283099999991236
 31
0.0
1001
ACAD
1000
ASC_BOUNDS
1002
{
1070
    19
1005
A378
1002
}
  0
LINE
  5
A373
330
A333
100
AcDbEntity
  8
0
100
AcDbLine
 10
26.97358892824991
 20
1.383099999991202
 30
0.0
 11
28.40199999996923
 21
1.383099999991202
 31
0.0
1001
ACAD
1000
ASC_BOUNDS
1002
{
1070
    19
1005
A378
1002
}
  0
ARC
  5
A374
330
A333
100
AcDbEntity
  8
0
100
AcDbCircle
 10
28.40199999996923
 20
2.283099999991236
 30
0.0
 40
0.9
100
AcDbArc
 50
270.0
 51
0.0
1001
ACAD
1000
ASC_BOUNDS
1002
{
1070
    19
1005
A378
1002
}
  0
ARC
  5
A375
330
A333
100
AcDbEntity
  8
0
100
AcDbCircle
 10
28.40199999996923
 20
2.373099999991211
 30
0.0
 40
2.34
100
AcDbArc
 50
270.0
 51
0.0
1001
ACAD
1000
ASC_BOUNDS
1002
{
1070
    19
1005
A378
1002
}
  0
INSERT
  5
A376
330
A333
100
AcDbEntity
  8
0
100
AcDbBlockReference
  2
*X40
 10
0.0
 20
0.0
 30
0.0
1001
ACAD
1000
HATCH
1002
{
1070
    19
1000
ANSI37
1040
0.15
1040
0.0
1000
ASC_BOUNDS
1070
     2
1070
     2
1070
    12
1005
A335
1005
A336
1005
A33D
1005
A34C
1005
A34F
1005
A34D
1005
A33E
1005
A343
1005
A341
1005
A345
1005
A344
1005
A346
1070
     2
1070
     3
1005
A351
1005
A353
1005
A352
1000
ASC_SEEDPOINT
1011
3.614004224891801
1021
2.996669441146025
1031
0.0
1000
R14_HATCH_DATA
1000
A376
1011
1.0
1021
0.0
1031
0.0
1011
0.0
1021
1.0
1031
0.0
1011
0.0
1021
0.0
1031
1.0
1040
0.0
1010
0.0
1020
0.0
1030
1.0
1000
ANSI37
1070
     0
1070
     1
1071
        2
1071
        7
1070
     0
1070
     1
1071
       17
1040
13.26299999998673
1040
-0.0001000000000317
1040
9.236999999990758
1040
8.999899999990987
1040
9.236999999990758
1040
8.999999999991019
1040
5.657999999994331
1040
0.9999999999989768
1040
3.181999999996833
1040
4.668599999995308
1040
6.432999999993513
1040
8.763099999991255
1040
4.617999999995391
1040
8.763099999991255
1040
1.420999999998571
1040
4.736799999995242
1040
4.617999999995391
1040
-0.0001000000000317
1040
4.617999999995391
1040
0.0
1040
6.766999999993232
1040
0.0
1040
6.766999999993232
1040
-0.0001000000000317
1040
7.826999999992154
1040
2.368399999997621
1040
10.64699999998936
1040
2.368399999997621
1040
11.70599999998831
1040
-0.0001000000000317
1040
11.70599999998831
1040
0.0
1040
13.26299999998673
1040
0.0
1071
       12
1005
A335
1005
A336
1005
A33D
1005
A34C
1005
A34F
1005
A34D
1005
A33E
1005
A343
1005
A341
1005
A345
1005
A344
1005
A346
1071
       22
1070
     0
1070
     1
1071
        3
1040
9.236999999990758
1040
5.5200999999945
1040
10.06399999998996
1040
3.670999999996297
1040
8.409999999991555
1040
3.670999999996297
1071
        3
1005
A351
1005
A353
1005
A352
1070
     0
1070
     1
1040
0.0
1040
0.15
1070
     0
1070
     2
1040
0.7853981633974483
1040
49.29960901727088
1040
-10.17736998311392
1040
-0.3367596045400932
1040
0.3367596045400932
1070
     0
1040
2.356194490192345
1040
49.29960901727088
1040
-10.17736998311392
1040
-0.3367596045400932
1040
-0.3367596045400932
1070
     0
1040
0.0110235143455945
1071
        2
1040
3.614004224891801
1040
2.996669441146025
1040
0.0
1040
3.614004224891801
1040
2.996669441146025
1040
0.0
1002
}
  0
INSERT
  5
A377
330
A333
100
AcDbEntity
  8
0
100
AcDbBlockReference
  2
*X41
 10
0.0
 20
0.0
 30
0.0
1001
ACAD
1000
HATCH
1002
{
1070
    19
1000
ANSI37
1040
0.15
1040
0.0
1000
ASC_BOUNDS
1070
     1
1070
     2
1070
    10
1005
A337
1005
A338
1005
A359
1005
A357
1005
A358
1005
A34B
1005
A350
1005
A354
1005
A33A
1005
A339
1000
ASC_SEEDPOINT
1011
14.73245321214324
1021
2.798246178283421
1031
0.0
1000
R14_HATCH_DATA
1000
A377
1011
1.0
1021
0.0
1031
0.0
1011
0.0
1021
1.0
1031
0.0
1011
0.0
1021
0.0
1031
1.0
1040
0.0
1010
0.0
1020
0.0
1030
1.0
1000
ANSI37
1070
     0
1070
     1
1071
        1
1071
        7
1070
     0
1070
     1
1071
       10
1040
16.46099999998353
1040
5.432899999994561
1040
18.59199999998134
1040
-0.2368999999997641
1040
22.38199999997767
1040
8.763099999991255
1040
20.89099999997916
1040
8.763099999991255
1040
18.59799999998143
1040
3.315799999996671
1040
16.46099999998353
1040
8.999899999990987
1040
14.32399999998563
1040
3.315799999996671
1040
12.02999999998792
1040
8.763099999991255
1040
10.53899999998941
1040
8.763099999991255
1040
14.32899999998563
1040
-0.2368999999997641
1071
       10
1005
A337
1005
A338
1005
A359
1005
A357
1005
A358
1005
A34B
1005
A350
1005
A354
1005
A33A
1005
A339
1070
     0
1070
     1
1040
0.0
1040
0.15
1070
     0
1070
     2
1040
0.7853981633974483
1040
49.29960901727088
1040
-10.17736998311392
1040
-0.3367596045400932
1040
0.3367596045400932
1070
     0
1040
2.356194490192345
1040
49.29960901727088
1040
-10.17736998311392
1040
-0.3367596045400932
1040
-0.3367596045400932
1070
     0
1040
0.0110235143455945
1071
        1
1040
14.73245321214324
1040
2.798246178283421
1040
0.0
1002
}
  0
INSERT
  5
A378
330
A333
100
AcDbEntity
  8
0
100
AcDbBlockReference
  2
*X42
 10
0.0
 20
0.0
 30
0.0
1001
ACAD
1000
HATCH
1002
{
1070
    19
1000
ANSI37
1040
0.15
1040
0.0
1000
ASC_BOUNDS
1070
     2
1070
     2
1070
    13
1005
A33B
1005
A348
1005
A349
1005
A347
1005
A34A
1005
A371
1005
A375
1005
A370
1005
A36F
1005
A372
1005
A374
1005
A373
1005
A33C
1070
     2
1070
     3
1005
A355
1005
A35A
1005
A356
1000
ASC_SEEDPOINT
1011
21.97929957367762
1021
3.294304244259308
1031
0.0
1000
R14_HATCH_DATA
1000
A378
1011
1.0
1021
0.0
1031
0.0
1011
0.0
1021
1.0
1031
0.0
1011
0.0
1021
0.0
1031
1.0
1040
0.0
1010
0.0
1020
0.0
1030
1.0
1000
ANSI37
1070
     0
1070
     1
1071
        2
1071
        7
1070
     1
1070
     1
1071
       15
1040
23.56599999997638
1040
8.999899999990987
1040
0.0
1040
19.53899999998043
1040
-0.0001000000000317
1040
0.0
1040
19.53899999998043
1040
0.0
1040
0.0
1040
21.09599999997886
1040
0.0
1040
0.0
1040
21.09599999997886
1040
-0.0001000000000317
1040
0.0
1040
22.15599999997789
1040
2.368399999997621
1040
0.0
1040
24.97599999997499
1040
2.368399999997621
1040
0.0
1040
26.02015566812236
1040
0.0330999999912365
1040
0.0
1040
28.40199999996923
1040
0.0330999999912365
1040
0.414213562373095
1040
30.74199999996923
1040
2.373099999991211
1040
0.0
1040
30.74199999996927
1040
8.763099999991255
1040
0.0
1040
29.30199999996933
1040
8.763099999991255
1040
0.0
1040
29.30199999996933
1040
2.283099999991236
1040
-0.414213562373095
1040
28.40199999996923
1040
1.383099999991237
1040
0.0
1040
26.97358892824991
1040
1.383099999991202
1040
0.0
1071
       13
1005
A33B
1005
A348
1005
A349
1005
A347
1005
A34A
1005
A371
1005
A375
1005
A370
1005
A36F
1005
A372
1005
A374
1005
A373
1005
A33C
1071
       22
1070
     0
1070
     1
1071
        3
1040
22.7389999999773
1040
3.670999999996297
1040
23.56599999997638
1040
5.5200999999945
1040
24.39299999997559
1040
3.670999999996297
1071
        3
1005
A355
1005
A35A
1005
A356
1070
     0
1070
     1
1040
0.0
1040
0.15
1070
     0
1070
     2
1040
0.7853981633974483
1040
49.29960901727088
1040
-10.17736998311392
1040
-0.3367596045400932
1040
0.3367596045400932
1070
     0
1040
2.356194490192345
1040
49.29960901727088
1040
-10.17736998311392
1040
-0.3367596045400932
1040
-0.3367596045400932
1070
     0
1040
0.0110235143455945
1071
        2
1040
21.97929957367762
1040
3.294304244259308
1040
0.0
1040
21.97929957367762
1040
3.294304244259308
1040
0.0
1002
}
  0
INSERT
  5
A379
330
A333
100
AcDbEntity
  8
0
100
AcDbBlockReference
  2
*X43
 10
0.0
 20
0.0
 30
0.0
1001
ACAD
1000
HATCH
1002
{
1070
    19
1000
ANSI37
1040
0.15
1040
0.0
1000
R14_HATCH_DATA
1000
A379
1011
1.0
1021
0.0
1031
0.0
1011
0.0
1021
1.0
1031
0.0
1011
0.0
1021
0.0
1031
1.0
1040
0.0
1010
0.0
1020
0.0
1030
1.0
1000
ANSI37
1070
     0
1070
     1
1071
        1
1071
        7
1070
     1
1070
     1
1071
       12
1040
31.64199999996833
1040
2.481619422925121
1040
0.2679491924310942
1040
32.94699999997067
1040
0.2212931190493919
1040
0.2679491924301353
1040
36.36699999995983
1040
0.2212931190459813
1040
0.2679491924321411
1040
37.67199999996831
1040
2.481619422928361
1040
0.0
1040
37.67199999996831
1040
8.763099999991255
1040
0.0
1040
36.23199999996837
1040
8.763099999991255
1040
0.0
1040
36.23199999996837
1040
2.481619422925064
1040
-0.2679491924310291
1040
35.64699999996708
1040
1.468369700498386
1040
-0.267949192430519
1040
33.66699999997093
1040
1.468369700497703
1040
-0.267949192431809
1040
33.08199999996839
1040
2.481619422926997
1040
0.0
1040
33.08199999996839
1040
8.763099999991255
1040
0.0
1040
31.64199999996833
1040
8.763099999991255
1040
0.0
1071
        0
1070
     0
1070
     1
1040
0.0
1040
0.15
1070
     0
1070
     2
1040
0.7853981633974483
1040
49.29960901727088
1040
-10.17736998311392
1040
-0.3367596045400932
1040
0.3367596045400932
1070
     0
1040
2.356194490192345
1040
49.29960901727088
1040
-10.17736998311392
1040
-0.3367596045400932
1040
-0.3367596045400932
1070
     0
1040
0.0110235143455945
1071
        1
1040
32.30357378967278
1040
3.988785755459219
1040
0.0
1002
}
  0
INSERT
  5
A37A
330
A333
100
AcDbEntity
  8
0
100
AcDbBlockReference
  2
*X44
 10
0.0
 20
0.0
 30
0.0
1001
ACAD
1000
HATCH
1002
{
1070
    19
1000
ANSI37
1040
0.15
1040
0.0
1000
ASC_BOUNDS
1070
     1
1070
     2
1070
     8
1005
A35B
1005
A35E
1005
A362
1005
A361
1005
A360
1005
A35D
1005
A35F
1005
A35C
1000
ASC_SEEDPOINT
1011
39.74896370716704
1021
4.484843821435049
1031
0.0
1000
R14_HATCH_DATA
1000
A37A
1011
1.0
1021
0.0
1031
0.0
1011
0.0
1021
1.0
1031
0.0
1011
0.0
1021
0.0
1031
1.0
1040
0.0
1010
0.0
1020
0.0
1030
1.0
1000
ANSI37
1070
     0
1070
     1
1071
        1
1071
        7
1070
     0
1070
     1
1071
        9
1040
40.02599999995994
1040
5.341799999994635
1040
44.99999999995498
1040
-0.2368999999997641
1040
44.99999999995498
1040
8.763099999991255
1040
43.57899999995641
1040
8.763099999991255
1040
43.57899999995641
1040
3.421199999996588
1040
38.60499999996136
1040
8.999899999990987
1040
38.60499999996136
1040
8.999999999991019
1040
38.60499999996136
1040
0.0
1040
40.02599999995994
1040
0.0
1071
        8
1005
A35B
1005
A35E
1005
A362
1005
A361
1005
A360
1005
A35D
1005
A35F
1005
A35C
1070
     0
1070
     1
1040
0.0
1040
0.15
1070
     0
1070
     2
1040
0.7853981633974483
1040
49.29960901727088
1040
-10.17736998311392
1040
-0.3367596045400932
1040
0.3367596045400932
1070
     0
1040
2.356194490192345
1040
49.29960901727088
1040
-10.17736998311392
1040
-0.3367596045400932
1040
-0.3367596045400932
1070
     0
1040
0.0110235143455945
1071
        1
1040
39.74896370716704
1040
4.484843821435049
1040
0.0
1002
}
  0
INSERT
  5
A37B
330
A333
100
AcDbEntity
  8
0
100
AcDbBlockReference
  2
*X45
 10
0.0
 20
0.0
 30
0.0
1001
ACAD
1000
HATCH
1002
{
1070
    19
1000
ANSI37
1040
0.15
1040
0.0
1000
ASC_BOUNDS
1070
     1
1070
     2
1070
     4
1005
A33F
1005
A34E
1005
A340
1005
A342
1000
ASC_SEEDPOINT
1011
1.079051535452663
1021
4.148538732891836
1031
0.0
1000
R14_HATCH_DATA
1000
A37B
1011
1.0
1021
0.0
1031
0.0
1011
0.0
1021
1.0
1031
0.0
1011
0.0
1021
0.0
1031
1.0
1040
0.0
1010
0.0
1020
0.0
1030
1.0
1000
ANSI37
1070
     0
1070
     1
1071
        1
1071
        7
1070
     0
1070
     1
1071
        4
1040
1.420999999998571
1040
0.0
1040
1.420999999998571
1040
8.763099999991255
1040
0.0
1040
8.763099999991255
1040
0.0
1040
0.0
1071
        4
1005
A33F
1005
A34E
1005
A340
1005
A342
1070
     0
1070
     1
1040
0.0
1040
0.15
1070
     0
1070
     2
1040
0.7853981633974483
1040
49.29960901727088
1040
-10.17736998311392
1040
-0.3367596045400932
1040
0.3367596045400932
1070
     0
1040
2.356194490192345
1040
49.29960901727088
1040
-10.17736998311392
1040
-0.3367596045400932
1040
-0.3367596045400932
1070
     0
1040
0.0053004257112761
1071
        1
1040
1.079051535452663
1040
4.148538732891836
1040
0.0
1002
}
  0
ENDBLK
  5
AA57
330
A333
100
AcDbEntity
  8
0
100
AcDbBlockEnd
  0
BLOCK
  5
D46A
330
D2DC
100
AcDbEntity
  8
0
100
AcDbBlockBegin
  2
*X40
 70
     1
 10
0.0
 20
0.0
 30
0.0
  3
*X40
  1

  0
LINE
  5
D2DD
330
D2DC
100
AcDbEntity
  8
0
  6
CONTINUOUS
100
AcDbLine
 10
3.418023043697893
 20
7.251849696850613
 30
0.0
 11
4.929273346838536
 21
8.763099999991255
 31
0.0
  0
LINE
  5
D2DE
330
D2DC
100
AcDbEntity
  8
0
  6
CONTINUOUS
100
AcDbLine
 10
1.483656411257782
 20
4.643963855330318
 30
0.0
 11
5.60279255591872
 21
8.763099999991255
 31
0.0
  0
LINE
  5
D2DF
330
D2DC
100
AcDbEntity
  8
0
  6
CONTINUOUS
100
AcDbLine
 10
1.755053947328235
 20
4.241842182320584
 30
0.0
 11
6.276311764998907
 21
8.763099999991255
 31
0.0
  0
LINE
  5
D2E0
330
D2DC
100
AcDbEntity
  8
0
  6
CONTINUOUS
100
AcDbLine
 10
2.026451483398688
 20
3.839720509310849
 30
0.0
 11
4.441040904851878
 21
6.254309930764039
 31
0.0
  0
LINE
  5
D2E1
330
D2DC
100
AcDbEntity
  8
0
  6
CONTINUOUS
100
AcDbLine
 10
2.297849019469139
 20
3.437598836301114
 30
0.0
 11
3.321765168359338
 21
4.461514985191313
 31
0.0
  0
LINE
  5
D2E2
330
D2DC
100
AcDbEntity
  8
0
  6
CONTINUOUS
100
AcDbLine
 10
2.569246555539591
 20
3.03547716329138
 30
0.0
 11
3.593163397972743
 21
4.059394005724531
 31
0.0
  0
LINE
  5
D2E3
330
D2DC
100
AcDbEntity
  8
0
  6
CONTINUOUS
100
AcDbLine
 10
2.840644091610043
 20
2.633355490281646
 30
0.0
 11
3.864561627586149
 21
3.657273026257751
 31
0.0
  0
LINE
  5
D2E4
330
D2DC
100
AcDbEntity
  8
0
  6
CONTINUOUS
100
AcDbLine
 10
3.112041627680496
 20
2.231233817271911
 30
0.0
 11
4.135959857199554
 21
3.25515204679097
 31
0.0
  0
LINE
  5
D2E5
330
D2DC
100
AcDbEntity
  8
0
  6
CONTINUOUS
100
AcDbLine
 10
3.383439163750948
 20
1.829112144262177
 30
0.0
 11
4.40735808681296
 21
2.853031067324189
 31
0.0
  0
LINE
  5
D2E6
330
D2DC
100
AcDbEntity
  8
0
  6
CONTINUOUS
100
AcDbLine
 10
3.654836699821399
 20
1.426990471252442
 30
0.0
 11
4.678756316426365
 21
2.450910087857407
 31
0.0
  0
LINE
  5
D2E7
330
D2DC
100
AcDbEntity
  8
0
  6
CONTINUOUS
100
AcDbLine
 10
3.926234235891853
 20
1.024868798242709
 30
0.0
 11
4.95015454603977
 21
2.048789108390626
 31
0.0
  0
LINE
  5
D2E8
330
D2DC
100
AcDbEntity
  8
0
  6
CONTINUOUS
100
AcDbLine
 10
4.197631771962304
 20
0.6227471252329737
 30
0.0
 11
5.221552775653176
 21
1.646668128923846
 31
0.0
  0
LINE
  5
D2E9
330
D2DC
100
AcDbEntity
  8
0
  6
CONTINUOUS
100
AcDbLine
 10
8.715877546767851
 20
7.835069736359266
 30
0.0
 11
9.435953450375058
 21
8.555145639966472
 31
0.0
  0
LINE
  5
D2EA
330
D2DC
100
AcDbEntity
  8
0
  6
CONTINUOUS
100
AcDbLine
 10
8.170620868422267
 20
6.616293848933497
 30
0.0
 11
9.644120833743461
 21
8.08979381425469
 31
0.0
  0
LINE
  5
D2EB
330
D2DC
100
AcDbEntity
  8
0
  6
CONTINUOUS
100
AcDbLine
 10
7.625364190076684
 20
5.397517961507727
 30
0.0
 11
9.852288217111864
 21
7.624441988542907
 31
0.0
  0
LINE
  5
D2EC
330
D2DC
100
AcDbEntity
  8
0
  6
CONTINUOUS
100
AcDbLine
 10
7.080107511731101
 20
4.178742074081957
 30
0.0
 11
10.06045560048027
 21
7.159090162831124
 31
0.0
  0
LINE
  5
D2ED
330
D2DC
100
AcDbEntity
  8
0
  6
CONTINUOUS
100
AcDbLine
 10
6.534850833385518
 20
2.959966186656187
 30
0.0
 11
10.26862298384867
 21
6.693738337119342
 31
0.0
  0
LINE
  5
D2EE
330
D2DC
100
AcDbEntity
  8
0
  6
CONTINUOUS
100
AcDbLine
 10
4.469029308032756
 20
0.2206254522232385
 30
0.0
 11
5.492951005266582
 21
1.244547149457064
 31
0.0
  0
LINE
  5
D2EF
330
D2DC
100
AcDbEntity
  8
0
  6
CONTINUOUS
100
AcDbLine
 10
5.989594155039935
 20
1.741190299230417
 30
0.0
 11
8.806950407233131
 21
4.558546551423613
 31
0.0
  0
LINE
  5
D2F0
330
D2DC
100
AcDbEntity
  8
0
  6
CONTINUOUS
100
AcDbLine
 10
9.401251593263643
 20
5.152847737454126
 30
0.0
 11
10.47679036721708
 21
6.228386511407559
 31
0.0
  0
LINE
  5
D2F1
330
D2DC
100
AcDbEntity
  8
0
  6
CONTINUOUS
100
AcDbLine
 10
4.921837203428691
 20
-0.0000858614610131
 30
0.0
 11
8.592923064886001
 21
3.670999999996297
 31
0.0
  0
LINE
  5
D2F2
330
D2DC
100
AcDbEntity
  8
0
  6
CONTINUOUS
100
AcDbLine
 10
9.609390446785305
 20
4.6874673818956
 30
0.0
 11
10.68495775058548
 21
5.763034685695775
 31
0.0
  0
LINE
  5
D2F3
330
D2DC
100
AcDbEntity
  8
0
  6
CONTINUOUS
100
AcDbLine
 10
5.595387755019432
 20
-0.0000545189504582
 30
0.0
 11
7.716137258923768
 21
2.120694984953879
 31
0.0
  0
LINE
  5
D2F4
330
D2DC
100
AcDbEntity
  8
0
  6
CONTINUOUS
100
AcDbLine
 10
6.268938306610172
 20
-0.000023176439905
 30
0.0
 11
7.170485805526503
 21
0.9015243224764267
 31
0.0
  0
LINE
  5
D2F5
330
D2DC
100
AcDbEntity
  8
0
  6
CONTINUOUS
100
AcDbLine
 10
7.963842273967511
 20
2.368399999997621
 30
0.0
 11
9.266442273966188
 21
3.670999999996297
 31
0.0
  0
LINE
  5
D2F6
330
D2DC
100
AcDbEntity
  8
0
  6
CONTINUOUS
100
AcDbLine
 10
8.637361483047696
 20
2.368399999997621
 30
0.0
 11
9.939961483046375
 21
3.670999999996297
 31
0.0
  0
LINE
  5
D2F7
330
D2DC
100
AcDbEntity
  8
0
  6
CONTINUOUS
100
AcDbLine
 10
9.817529300306965
 20
4.222087026337075
 30
0.0
 11
10.89312513395388
 21
5.297682859983993
 31
0.0
  0
LINE
  5
D2F8
330
D2DC
100
AcDbEntity
  8
0
  6
CONTINUOUS
100
AcDbLine
 10
10.02566815382863
 20
3.756706670778549
 30
0.0
 11
11.10129251732229
 21
4.832331034272211
 31
0.0
  0
LINE
  5
D2F9
330
D2DC
100
AcDbEntity
  8
0
  6
CONTINUOUS
100
AcDbLine
 10
9.310880692127883
 20
2.368399999997621
 30
0.0
 11
11.30945990069069
 21
4.366979208560428
 31
0.0
  0
LINE
  5
D2FA
330
D2DC
100
AcDbEntity
  8
0
  6
CONTINUOUS
100
AcDbLine
 10
9.98439990120807
 20
2.36839999999762
 30
0.0
 11
11.5176272840591
 21
3.901627382848645
 31
0.0
  0
LINE
  5
D2FB
330
D2DC
100
AcDbEntity
  8
0
  6
CONTINUOUS
100
AcDbLine
 10
10.65037369446246
 20
2.36085458417182
 30
0.0
 11
11.7257946674275
 21
3.436275557136862
 31
0.0
  0
LINE
  5
D2FC
330
D2DC
100
AcDbEntity
  8
0
  6
CONTINUOUS
100
AcDbLine
 10
10.85847197087848
 20
1.895433651507656
 30
0.0
 11
11.9339620507959
 21
2.97092373142508
 31
0.0
  0
LINE
  5
D2FD
330
D2DC
100
AcDbEntity
  8
0
  6
CONTINUOUS
100
AcDbLine
 10
11.0665702472945
 20
1.430012718843491
 30
0.0
 11
12.14212943416431
 21
2.505571905713296
 31
0.0
  0
LINE
  5
D2FE
330
D2DC
100
AcDbEntity
  8
0
  6
CONTINUOUS
100
AcDbLine
 10
11.27466852371052
 20
0.9645917861793256
 30
0.0
 11
12.35029681753271
 21
2.040220080001513
 31
0.0
  0
LINE
  5
D2FF
330
D2DC
100
AcDbEntity
  8
0
  6
CONTINUOUS
100
AcDbLine
 10
11.48276680012654
 20
0.4991708535151611
 30
0.0
 11
12.55846420090111
 21
1.57486825428973
 31
0.0
  0
LINE
  5
D300
330
D2DC
100
AcDbEntity
  8
0
  6
CONTINUOUS
100
AcDbLine
 10
11.69086507654257
 20
0.0337499208509957
 30
0.0
 11
12.76663158426952
 21
1.109516428577947
 31
0.0
  0
LINE
  5
D301
330
D2DC
100
AcDbEntity
  8
0
  6
CONTINUOUS
100
AcDbLine
 10
12.33057447873954
 20
-0.0000598860322123
 30
0.0
 11
12.97479896763792
 21
0.6441646028661663
 31
0.0
  0
LINE
  5
D302
330
D2DC
100
AcDbEntity
  8
0
  6
CONTINUOUS
100
AcDbLine
 10
13.00413694809395
 20
-0.0000166257579952
 30
0.0
 11
13.18296635100632
 21
0.1788127771543824
 31
0.0
  0
LINE
  5
D303
330
D2DC
100
AcDbEntity
  8
0
  6
CONTINUOUS
100
AcDbLine
 10
4.772852165289667
 20
-0.000092794222212
 30
0.0
 11
4.296495091028902
 21
0.4762642800385528
 31
0.0
  0
LINE
  5
D304
330
D2DC
100
AcDbEntity
  8
0
  6
CONTINUOUS
100
AcDbLine
 10
5.446340034776103
 20
-0.0000614546284616
 30
0.0
 11
2.898195908335625
 21
2.548082671812017
 31
0.0
  0
LINE
  5
D305
330
D2DC
100
AcDbEntity
  8
0
  6
CONTINUOUS
100
AcDbLine
 10
6.119827904262539
 20
-0.0000301150347113
 30
0.0
 11
1.499896725642348
 21
4.61990106358548
 31
0.0
  0
LINE
  5
D306
330
D2DC
100
AcDbEntity
  8
0
  6
CONTINUOUS
100
AcDbLine
 10
6.775136745476159
 20
0.0181802528318542
 30
0.0
 11
5.699826040202669
 21
1.093490958105344
 31
0.0
  0
LINE
  5
D307
330
D2DC
100
AcDbEntity
  8
0
  6
CONTINUOUS
100
AcDbLine
 10
6.983376846288489
 20
0.4834593610997118
 30
0.0
 11
5.908008617934405
 21
1.558827589453796
 31
0.0
  0
LINE
  5
D308
330
D2DC
100
AcDbEntity
  8
0
  6
CONTINUOUS
100
AcDbLine
 10
5.377063484962296
 20
1.416253513345719
 30
0.0
 11
1.702276957014131
 21
5.091040041293883
 31
0.0
  0
LINE
  5
D309
330
D2DC
100
AcDbEntity
  8
0
  6
CONTINUOUS
100
AcDbLine
 10
3.978745891735324
 20
3.488090315652877
 30
0.0
 11
2.000373521109399
 21
5.466462686278803
 31
0.0
  0
LINE
  5
D30A
330
D2DC
100
AcDbEntity
  8
0
  6
CONTINUOUS
100
AcDbLine
 10
7.191616947100819
 20
0.948738469367568
 30
0.0
 11
6.11619119566614
 21
2.024164220802247
 31
0.0
  0
LINE
  5
D30B
330
D2DC
100
AcDbEntity
  8
0
  6
CONTINUOUS
100
AcDbLine
 10
7.399857047913149
 20
1.414017577635424
 30
0.0
 11
6.324373773397875
 21
2.489500852150698
 31
0.0
  0
LINE
  5
D30C
330
D2DC
100
AcDbEntity
  8
0
  6
CONTINUOUS
100
AcDbLine
 10
7.608097148725479
 20
1.879296685903281
 30
0.0
 11
6.53255635112961
 21
2.95483748349915
 31
0.0
  0
LINE
  5
D30D
330
D2DC
100
AcDbEntity
  8
0
  6
CONTINUOUS
100
AcDbLine
 10
7.816337249537808
 20
2.344575794171138
 30
0.0
 11
6.740738928861345
 21
3.420174114847601
 31
0.0
  0
LINE
  5
D30E
330
D2DC
100
AcDbEntity
  8
0
  6
CONTINUOUS
100
AcDbLine
 10
3.310241080789734
 20
4.830114335678653
 30
0.0
 11
2.298470085204666
 21
5.84188533126372
 31
0.0
  0
LINE
  5
D30F
330
D2DC
100
AcDbEntity
  8
0
  6
CONTINUOUS
100
AcDbLine
 10
3.60832983563551
 20
5.205544789913063
 30
0.0
 11
2.596566649299935
 21
6.217307976248638
 31
0.0
  0
LINE
  5
D310
330
D2DC
100
AcDbEntity
  8
0
  6
CONTINUOUS
100
AcDbLine
 10
3.906418590481286
 20
5.580975244147473
 30
0.0
 11
2.894663213395203
 21
6.592730621233557
 31
0.0
  0
LINE
  5
D311
330
D2DC
100
AcDbEntity
  8
0
  6
CONTINUOUS
100
AcDbLine
 10
4.204507345327062
 20
5.956405698381884
 30
0.0
 11
3.192759777490472
 21
6.968153266218474
 31
0.0
  0
LINE
  5
D312
330
D2DC
100
AcDbEntity
  8
0
  6
CONTINUOUS
100
AcDbLine
 10
8.466032252791512
 20
2.368399999997621
 30
0.0
 11
6.948921506593081
 21
3.885510746196053
 31
0.0
  0
LINE
  5
D313
330
D2DC
100
AcDbEntity
  8
0
  6
CONTINUOUS
100
AcDbLine
 10
9.139551461871699
 20
2.36839999999762
 30
0.0
 11
7.157104084324816
 21
4.350847377544504
 31
0.0
  0
LINE
  5
D314
330
D2DC
100
AcDbEntity
  8
0
  6
CONTINUOUS
100
AcDbLine
 10
4.502596100172839
 20
6.331836152616295
 30
0.0
 11
3.49085634158574
 21
7.343575911203393
 31
0.0
  0
LINE
  5
D315
330
D2DC
100
AcDbEntity
  8
0
  6
CONTINUOUS
100
AcDbLine
 10
4.800684855018615
 20
6.707266606850705
 30
0.0
 11
3.788952905681008
 21
7.718998556188312
 31
0.0
  0
LINE
  5
D316
330
D2DC
100
AcDbEntity
  8
0
  6
CONTINUOUS
100
AcDbLine
 10
12.18154012887317
 20
-0.0000694579236642
 30
0.0
 11
11.32140332908496
 21
0.8600673418645499
 31
0.0
  0
LINE
  5
D317
330
D2DC
100
AcDbEntity
  8
0
  6
CONTINUOUS
100
AcDbLine
 10
12.85501608323566
 20
-0.0000262032059659
 30
0.0
 11
10.77672456435345
 21
2.078265315676246
 31
0.0
  0
LINE
  5
D318
330
D2DC
100
AcDbEntity
  8
0
  6
CONTINUOUS
100
AcDbLine
 10
9.813070670951886
 20
2.36839999999762
 30
0.0
 11
8.51047067095321
 21
3.670999999996297
 31
0.0
  0
LINE
  5
D319
330
D2DC
100
AcDbEntity
  8
0
  6
CONTINUOUS
100
AcDbLine
 10
10.48658988003207
 20
2.36839999999762
 30
0.0
 11
9.183989880033396
 21
3.670999999996297
 31
0.0
  0
LINE
  5
D31A
330
D2DC
100
AcDbEntity
  8
0
  6
CONTINUOUS
100
AcDbLine
 10
8.441048632286794
 20
3.740422038662712
 30
0.0
 11
7.365286662056551
 21
4.816184008892956
 31
0.0
  0
LINE
  5
D31B
330
D2DC
100
AcDbEntity
  8
0
  6
CONTINUOUS
100
AcDbLine
 10
8.649187485808454
 20
4.205802394221237
 30
0.0
 11
7.573469239788285
 21
5.281520640241407
 31
0.0
  0
LINE
  5
D31C
330
D2DC
100
AcDbEntity
  8
0
  6
CONTINUOUS
100
AcDbLine
 10
5.098773609864391
 20
7.082697061085115
 30
0.0
 11
4.087049469776277
 21
8.09442120117323
 31
0.0
  0
LINE
  5
D31D
330
D2DC
100
AcDbEntity
  8
0
  6
CONTINUOUS
100
AcDbLine
 10
5.396862364710167
 20
7.458127515319526
 30
0.0
 11
4.385146033871544
 21
8.469843846158149
 31
0.0
  0
LINE
  5
D31E
330
D2DC
100
AcDbEntity
  8
0
  6
CONTINUOUS
100
AcDbLine
 10
13.04801363231285
 20
0.4804954567970334
 30
0.0
 11
9.85750908911358
 21
3.670999999996297
 31
0.0
  0
LINE
  5
D31F
330
D2DC
100
AcDbEntity
  8
0
  6
CONTINUOUS
100
AcDbLine
 10
8.857326339330116
 20
4.671182749779763
 30
0.0
 11
7.781651817520021
 21
5.746857271589858
 31
0.0
  0
LINE
  5
D320
330
D2DC
100
AcDbEntity
  8
0
  6
CONTINUOUS
100
AcDbLine
 10
5.694951119555943
 20
7.833557969553937
 30
0.0
 11
4.765409089118624
 21
8.763099999991255
 31
0.0
  0
LINE
  5
D321
330
D2DC
100
AcDbEntity
  8
0
  6
CONTINUOUS
100
AcDbLine
 10
12.50286117236978
 20
1.699167125820288
 30
0.0
 11
9.68611877250287
 21
4.515909525687196
 31
0.0
  0
LINE
  5
D322
330
D2DC
100
AcDbEntity
  8
0
  6
CONTINUOUS
100
AcDbLine
 10
9.065465192851777
 20
5.136563105338288
 30
0.0
 11
7.989834395251757
 21
6.21219390293831
 31
0.0
  0
LINE
  5
D323
330
D2DC
100
AcDbEntity
  8
0
  6
CONTINUOUS
100
AcDbLine
 10
5.993039874401719
 20
8.208988423788346
 30
0.0
 11
5.43892829819881
 21
8.763099999991255
 31
0.0
  0
LINE
  5
D324
330
D2DC
100
AcDbEntity
  8
0
  6
CONTINUOUS
100
AcDbLine
 10
11.95770871242671
 20
2.917838794843543
 30
0.0
 11
8.19801697298349
 21
6.677530534286761
 31
0.0
  0
LINE
  5
D325
330
D2DC
100
AcDbEntity
  8
0
  6
CONTINUOUS
100
AcDbLine
 10
6.291128629247495
 20
8.584418878022756
 30
0.0
 11
6.112447507278997
 21
8.763099999991255
 31
0.0
  0
LINE
  5
D326
330
D2DC
100
AcDbEntity
  8
0
  6
CONTINUOUS
100
AcDbLine
 10
11.41255625248364
 20
4.136510463866797
 30
0.0
 11
8.406199550715227
 21
7.142867165635211
 31
0.0
  0
LINE
  5
D327
330
D2DC
100
AcDbEntity
  8
0
  6
CONTINUOUS
100
AcDbLine
 10
10.86740379254057
 20
5.355182132890051
 30
0.0
 11
8.614382128446962
 21
7.608203796983664
 31
0.0
  0
LINE
  5
D328
330
D2DC
100
AcDbEntity
  8
0
  6
CONTINUOUS
100
AcDbLine
 10
10.3222513325975
 20
6.573853801913305
 30
0.0
 11
8.822564706178696
 21
8.073540428332114
 31
0.0
  0
LINE
  5
D329
330
D2DC
100
AcDbEntity
  8
0
  6
CONTINUOUS
100
AcDbLine
 10
9.777098872654436
 20
7.792525470936562
 30
0.0
 11
9.030747283910433
 21
8.538877059680566
 31
0.0
  0
ENDBLK
  5
D46B
330
D2DC
100
AcDbEntity
  8
0
100
AcDbBlockEnd
  0
BLOCK
  5
D46C
330
D32A
100
AcDbEntity
  8
0
100
AcDbBlockBegin
  2
*X41
 70
     1
 10
0.0
 20
0.0
 30
0.0
  3
*X41
  1

  0
LINE
  5
D32B
330
D32A
100
AcDbEntity
  8
0
  6
CONTINUOUS
100
AcDbLine
 10
10.67292308101235
 20
8.445076852443387
 30
0.0
 11
10.99094622856022
 21
8.763099999991255
 31
0.0
  0
LINE
  5
D32C
330
D32A
100
AcDbEntity
  8
0
  6
CONTINUOUS
100
AcDbLine
 10
10.87250383178748
 20
7.971138394138331
 30
0.0
 11
11.6644654376404
 21
8.763099999991255
 31
0.0
  0
LINE
  5
D32D
330
D32A
100
AcDbEntity
  8
0
  6
CONTINUOUS
100
AcDbLine
 10
11.07208458256261
 20
7.497199935833273
 30
0.0
 11
12.12126590876355
 21
8.546381262034211
 31
0.0
  0
LINE
  5
D32E
330
D32A
100
AcDbEntity
  8
0
  6
CONTINUOUS
100
AcDbLine
 10
11.27166533333774
 20
7.023261477528216
 30
0.0
 11
12.32085164573666
 21
8.072447789927136
 31
0.0
  0
LINE
  5
D32F
330
D32A
100
AcDbEntity
  8
0
  6
CONTINUOUS
100
AcDbLine
 10
11.47124608411287
 20
6.549323019223158
 30
0.0
 11
12.52043738270977
 21
7.59851431782006
 31
0.0
  0
LINE
  5
D330
330
D32A
100
AcDbEntity
  8
0
  6
CONTINUOUS
100
AcDbLine
 10
11.670826834888
 20
6.075384560918101
 30
0.0
 11
12.72002311968288
 21
7.124580845712984
 31
0.0
  0
LINE
  5
D331
330
D32A
100
AcDbEntity
  8
0
  6
CONTINUOUS
100
AcDbLine
 10
11.87040758566313
 20
5.601446102613043
 30
0.0
 11
12.91960885665599
 21
6.650647373605907
 31
0.0
  0
LINE
  5
D332
330
D32A
100
AcDbEntity
  8
0
  6
CONTINUOUS
100
AcDbLine
 10
12.06998833643825
 20
5.127507644307986
 30
0.0
 11
13.1191945936291
 21
6.176713901498832
 31
0.0
  0
LINE
  5
D333
330
D32A
100
AcDbEntity
  8
0
  6
CONTINUOUS
100
AcDbLine
 10
12.26956908721338
 20
4.65356918600293
 30
0.0
 11
13.31878033060221
 21
5.702780429391757
 31
0.0
  0
LINE
  5
D334
330
D32A
100
AcDbEntity
  8
0
  6
CONTINUOUS
100
AcDbLine
 10
12.46914983798851
 20
4.179630727697873
 30
0.0
 11
13.51836606757532
 21
5.228846957284683
 31
0.0
  0
LINE
  5
D335
330
D32A
100
AcDbEntity
  8
0
  6
CONTINUOUS
100
AcDbLine
 10
12.66873058876364
 20
3.705692269392816
 30
0.0
 11
13.71795180454843
 21
4.754913485177607
 31
0.0
  0
LINE
  5
D336
330
D32A
100
AcDbEntity
  8
0
  6
CONTINUOUS
100
AcDbLine
 10
12.86831133953877
 20
3.231753811087759
 30
0.0
 11
13.91753754152154
 21
4.280980013070531
 31
0.0
  0
LINE
  5
D337
330
D32A
100
AcDbEntity
  8
0
  6
CONTINUOUS
100
AcDbLine
 10
13.0678920903139
 20
2.757815352782702
 30
0.0
 11
14.11712327849465
 21
3.807046540963456
 31
0.0
  0
LINE
  5
D338
330
D32A
100
AcDbEntity
  8
0
  6
CONTINUOUS
100
AcDbLine
 10
13.26747284108903
 20
2.283876894477644
 30
0.0
 11
14.31670901546777
 21
3.333113068856379
 31
0.0
  0
LINE
  5
D339
330
D32A
100
AcDbEntity
  8
0
  6
CONTINUOUS
100
AcDbLine
 10
16.36767838827179
 20
8.751678487061342
 30
0.0
 11
16.50332410898388
 21
8.887324207773432
 31
0.0
  0
LINE
  5
D33A
330
D32A
100
AcDbEntity
  8
0
  6
CONTINUOUS
100
AcDbLine
 10
15.96190732182191
 20
7.67238821153127
 30
0.0
 11
16.68735328004734
 21
8.397834169756699
 31
0.0
  0
LINE
  5
D33B
330
D32A
100
AcDbEntity
  8
0
  6
CONTINUOUS
100
AcDbLine
 10
15.55613625537202
 20
6.593097936001196
 30
0.0
 11
16.87138245111079
 21
7.908344131739965
 31
0.0
  0
LINE
  5
D33C
330
D32A
100
AcDbEntity
  8
0
  6
CONTINUOUS
100
AcDbLine
 10
15.15036518892213
 20
5.513807660471122
 30
0.0
 11
17.05541162217424
 21
7.418854093723231
 31
0.0
  0
LINE
  5
D33D
330
D32A
100
AcDbEntity
  8
0
  6
CONTINUOUS
100
AcDbLine
 10
14.74459412247225
 20
4.434517384941048
 30
0.0
 11
17.2394407932377
 21
6.929364055706499
 31
0.0
  0
LINE
  5
D33E
330
D32A
100
AcDbEntity
  8
0
  6
CONTINUOUS
100
AcDbLine
 10
14.33882305602236
 20
3.355227109410975
 30
0.0
 11
17.42346996430115
 21
6.439874017689766
 31
0.0
  0
LINE
  5
D33F
330
D32A
100
AcDbEntity
  8
0
  6
CONTINUOUS
100
AcDbLine
 10
13.46705359186416
 20
1.809938436172586
 30
0.0
 11
16.0819338255367
 21
4.424818669845129
 31
0.0
  0
LINE
  5
D340
330
D32A
100
AcDbEntity
  8
0
  6
CONTINUOUS
100
AcDbLine
 10
16.63283254238972
 20
4.975717386698149
 30
0.0
 11
17.60749913536461
 21
5.950383979673033
 31
0.0
  0
LINE
  5
D341
330
D32A
100
AcDbEntity
  8
0
  6
CONTINUOUS
100
AcDbLine
 10
13.66663434263929
 20
1.335999977867529
 30
0.0
 11
15.67604797733754
 21
3.345413612565779
 31
0.0
  0
LINE
  5
D342
330
D32A
100
AcDbEntity
  8
0
  6
CONTINUOUS
100
AcDbLine
 10
13.86621509341442
 20
0.8620615195624723
 30
0.0
 11
15.27016212913838
 21
2.26600855528643
 31
0.0
  0
LINE
  5
D343
330
D32A
100
AcDbEntity
  8
0
  6
CONTINUOUS
100
AcDbLine
 10
16.81682257348267
 20
4.486188208710908
 30
0.0
 11
17.79152830642806
 21
5.460893941656299
 31
0.0
  0
LINE
  5
D344
330
D32A
100
AcDbEntity
  8
0
  6
CONTINUOUS
100
AcDbLine
 10
17.00081260457561
 20
3.996659030723667
 30
0.0
 11
17.97555747749151
 21
4.971403903639565
 31
0.0
  0
LINE
  5
D345
330
D32A
100
AcDbEntity
  8
0
  6
CONTINUOUS
100
AcDbLine
 10
20.74362343514722
 20
8.412989070375462
 30
0.0
 11
21.09373436476302
 21
8.763099999991256
 31
0.0
  0
LINE
  5
D346
330
D32A
100
AcDbEntity
  8
0
  6
CONTINUOUS
100
AcDbLine
 10
20.25401257174777
 20
7.249858997895826
 30
0.0
 11
21.7672535738432
 21
8.763099999991255
 31
0.0
  0
LINE
  5
D347
330
D32A
100
AcDbEntity
  8
0
  6
CONTINUOUS
100
AcDbLine
 10
14.06579584418955
 20
0.3881230612574149
 30
0.0
 11
14.86427628093921
 21
1.186603498007082
 31
0.0
  0
LINE
  5
D348
330
D32A
100
AcDbEntity
  8
0
  6
CONTINUOUS
100
AcDbLine
 10
14.26537659496467
 20
-0.0858153970476412
 30
0.0
 11
14.45839043274005
 21
0.1071984407277329
 31
0.0
  0
LINE
  5
D349
330
D32A
100
AcDbEntity
  8
0
  6
CONTINUOUS
100
AcDbLine
 10
17.18480263566856
 20
3.507129852736426
 30
0.0
 11
18.15958664855496
 21
4.481913865622833
 31
0.0
  0
LINE
  5
D34A
330
D32A
100
AcDbEntity
  8
0
  6
CONTINUOUS
100
AcDbLine
 10
17.3687926667615
 20
3.017600674749186
 30
0.0
 11
18.34361581961842
 21
3.9924238276061
 31
0.0
  0
LINE
  5
D34B
330
D32A
100
AcDbEntity
  8
0
  6
CONTINUOUS
100
AcDbLine
 10
19.76440170834832
 20
6.086728925416191
 30
0.0
 11
22.33924590259489
 21
8.661573119662755
 31
0.0
  0
LINE
  5
D34C
330
D32A
100
AcDbEntity
  8
0
  6
CONTINUOUS
100
AcDbLine
 10
19.27479084494887
 20
4.923598852936555
 30
0.0
 11
21.84929622842713
 21
7.498104236414807
 31
0.0
  0
LINE
  5
D34D
330
D32A
100
AcDbEntity
  8
0
  6
CONTINUOUS
100
AcDbLine
 10
17.55278269785445
 20
2.528071496761945
 30
0.0
 11
18.52764499068187
 21
3.502933789589366
 31
0.0
  0
LINE
  5
D34E
330
D32A
100
AcDbEntity
  8
0
  6
CONTINUOUS
100
AcDbLine
 10
18.78517998154942
 20
3.760468780456919
 30
0.0
 11
21.35934655425936
 21
6.33463535316686
 31
0.0
  0
LINE
  5
D34F
330
D32A
100
AcDbEntity
  8
0
  6
CONTINUOUS
100
AcDbLine
 10
17.73677272894739
 20
2.038542318774704
 30
0.0
 11
20.8693968800916
 21
5.171166469918914
 31
0.0
  0
LINE
  5
D350
330
D32A
100
AcDbEntity
  8
0
  6
CONTINUOUS
100
AcDbLine
 10
17.92076276004034
 20
1.549013140787464
 30
0.0
 11
20.37944720592384
 21
4.007697586670968
 31
0.0
  0
LINE
  5
D351
330
D32A
100
AcDbEntity
  8
0
  6
CONTINUOUS
100
AcDbLine
 10
18.10475279113329
 20
1.059483962800223
 30
0.0
 11
19.88949753175608
 21
2.84422870342302
 31
0.0
  0
LINE
  5
D352
330
D32A
100
AcDbEntity
  8
0
  6
CONTINUOUS
100
AcDbLine
 10
18.28874282222623
 20
0.5699547848129822
 30
0.0
 11
19.39954785758832
 21
1.680759820175074
 31
0.0
  0
LINE
  5
D353
330
D32A
100
AcDbEntity
  8
0
  6
CONTINUOUS
100
AcDbLine
 10
18.47273285331918
 20
0.0804256068257416
 30
0.0
 11
18.90959818342056
 21
0.517290936927127
 31
0.0
  0
LINE
  5
D354
330
D32A
100
AcDbEntity
  8
0
  6
CONTINUOUS
100
AcDbLine
 10
14.3590401358224
 20
-0.1570118376323384
 30
0.0
 11
14.24903296539946
 21
-0.0470046672093929
 31
0.0
  0
LINE
  5
D355
330
D32A
100
AcDbEntity
  8
0
  6
CONTINUOUS
100
AcDbLine
 10
14.54309291258661
 20
0.332454594683643
 30
0.0
 11
13.75908329123172
 21
1.116464216038529
 31
0.0
  0
LINE
  5
D356
330
D32A
100
AcDbEntity
  8
0
  6
CONTINUOUS
100
AcDbLine
 10
14.72714568935081
 20
0.8219210269996244
 30
0.0
 11
13.26913361706399
 21
2.27993309928645
 31
0.0
  0
LINE
  5
D357
330
D32A
100
AcDbEntity
  8
0
  6
CONTINUOUS
100
AcDbLine
 10
14.91119846611502
 20
1.311387459315606
 30
0.0
 11
12.77918394289625
 21
3.443401982534371
 31
0.0
  0
LINE
  5
D358
330
D32A
100
AcDbEntity
  8
0
  6
CONTINUOUS
100
AcDbLine
 10
15.09525124287922
 20
1.800853891631587
 30
0.0
 11
12.28923426872852
 21
4.606870865782293
 31
0.0
  0
LINE
  5
D359
330
D32A
100
AcDbEntity
  8
0
  6
CONTINUOUS
100
AcDbLine
 10
15.27930401964343
 20
2.290320323947569
 30
0.0
 11
11.79928459456078
 21
5.770339749030213
 31
0.0
  0
LINE
  5
D35A
330
D32A
100
AcDbEntity
  8
0
  6
CONTINUOUS
100
AcDbLine
 10
15.46335679640763
 20
2.77978675626355
 30
0.0
 11
14.48885470994921
 21
3.754288842721972
 31
0.0
  0
LINE
  5
D35B
330
D32A
100
AcDbEntity
  8
0
  6
CONTINUOUS
100
AcDbLine
 10
13.88507249233704
 20
4.358071060334137
 30
0.0
 11
11.30933492039305
 21
6.933808632278135
 31
0.0
  0
LINE
  5
D35C
330
D32A
100
AcDbEntity
  8
0
  6
CONTINUOUS
100
AcDbLine
 10
18.75840522805855
 20
0.1582575336928151
 30
0.0
 11
18.25383727664818
 21
0.6628254851031863
 31
0.0
  0
LINE
  5
D35D
330
D32A
100
AcDbEntity
  8
0
  6
CONTINUOUS
100
AcDbLine
 10
15.64740957317184
 20
3.269253188579531
 30
0.0
 11
14.67288388101266
 21
4.243778880738705
 31
0.0
  0
LINE
  5
D35E
330
D32A
100
AcDbEntity
  8
0
  6
CONTINUOUS
100
AcDbLine
 10
13.39509276772158
 20
5.521569994029786
 30
0.0
 11
10.81938524622531
 21
8.097277515526056
 31
0.0
  0
LINE
  5
D35F
330
D32A
100
AcDbEntity
  8
0
  6
CONTINUOUS
100
AcDbLine
 10
18.95798597883369
 20
0.6321959919978686
 30
0.0
 11
17.84825644852853
 21
1.741925522303024
 31
0.0
  0
LINE
  5
D360
330
D32A
100
AcDbEntity
  8
0
  6
CONTINUOUS
100
AcDbLine
 10
19.15756672960882
 20
1.106134450302922
 30
0.0
 11
17.44267562040888
 21
2.821025559502861
 31
0.0
  0
LINE
  5
D361
330
D32A
100
AcDbEntity
  8
0
  6
CONTINUOUS
100
AcDbLine
 10
15.83146234993604
 20
3.758719620895513
 30
0.0
 11
14.85691305207612
 21
4.733268918755439
 31
0.0
  0
LINE
  5
D362
330
D32A
100
AcDbEntity
  8
0
  6
CONTINUOUS
100
AcDbLine
 10
16.01551512670025
 20
4.248186053211494
 30
0.0
 11
15.04094222313957
 21
5.222758956772172
 31
0.0
  0
LINE
  5
D363
330
D32A
100
AcDbEntity
  8
0
  6
CONTINUOUS
100
AcDbLine
 10
12.90511304310612
 20
6.685068927725435
 30
0.0
 11
10.8270819708403
 21
8.763099999991255
 31
0.0
  0
LINE
  5
D364
330
D32A
100
AcDbEntity
  8
0
  6
CONTINUOUS
100
AcDbLine
 10
12.41513331849066
 20
7.848567861421083
 30
0.0
 11
11.50060117992049
 21
8.763099999991255
 31
0.0
  0
LINE
  5
D365
330
D32A
100
AcDbEntity
  8
0
  6
CONTINUOUS
100
AcDbLine
 10
19.35714748038395
 20
1.580072908607975
 30
0.0
 11
17.03709479228923
 21
3.900125596702697
 31
0.0
  0
LINE
  5
D366
330
D32A
100
AcDbEntity
  8
0
  6
CONTINUOUS
100
AcDbLine
 10
19.55672823115909
 20
2.054011366913028
 30
0.0
 11
16.63151396416958
 21
4.979225633902534
 31
0.0
  0
LINE
  5
D367
330
D32A
100
AcDbEntity
  8
0
  6
CONTINUOUS
100
AcDbLine
 10
16.19956790346445
 20
4.737652485527476
 30
0.0
 11
15.22497139420302
 21
5.712248994788904
 31
0.0
  0
LINE
  5
D368
330
D32A
100
AcDbEntity
  8
0
  6
CONTINUOUS
100
AcDbLine
 10
16.38362068022866
 20
5.227118917843457
 30
0.0
 11
15.40900056526648
 21
6.201739032805637
 31
0.0
  0
LINE
  5
D369
330
D32A
100
AcDbEntity
  8
0
  6
CONTINUOUS
100
AcDbLine
 10
19.75630898193422
 20
2.527949825218081
 30
0.0
 11
18.70774536448286
 21
3.576513442669441
 31
0.0
  0
LINE
  5
D36A
330
D32A
100
AcDbEntity
  8
0
  6
CONTINUOUS
100
AcDbLine
 10
19.95588973270936
 20
3.001888283523134
 30
0.0
 11
18.90726987211446
 21
4.050508144118028
 31
0.0
  0
LINE
  5
D36B
330
D32A
100
AcDbEntity
  8
0
  6
CONTINUOUS
100
AcDbLine
 10
20.15547048348449
 20
3.475826741828186
 30
0.0
 11
19.10679437974606
 21
4.524502845566614
 31
0.0
  0
LINE
  5
D36C
330
D32A
100
AcDbEntity
  8
0
  6
CONTINUOUS
100
AcDbLine
 10
20.35505123425962
 20
3.94976520013324
 30
0.0
 11
19.30631888737766
 21
4.998497547015201
 31
0.0
  0
LINE
  5
D36D
330
D32A
100
AcDbEntity
  8
0
  6
CONTINUOUS
100
AcDbLine
 10
20.55463198503475
 20
4.423703658438292
 30
0.0
 11
19.50584339500926
 21
5.472492248463787
 31
0.0
  0
LINE
  5
D36E
330
D32A
100
AcDbEntity
  8
0
  6
CONTINUOUS
100
AcDbLine
 10
18.37481191085755
 20
3.909446896294752
 30
0.0
 11
15.59302973632993
 21
6.691229070822371
 31
0.0
  0
LINE
  5
D36F
330
D32A
100
AcDbEntity
  8
0
  6
CONTINUOUS
100
AcDbLine
 10
17.96904084440766
 20
4.988737171824825
 30
0.0
 11
15.77705890739338
 21
7.180719108839104
 31
0.0
  0
LINE
  5
D370
330
D32A
100
AcDbEntity
  8
0
  6
CONTINUOUS
100
AcDbLine
 10
17.56326977795777
 20
6.068027447354899
 30
0.0
 11
15.96108807845684
 21
7.670209146855838
 31
0.0
  0
LINE
  5
D371
330
D32A
100
AcDbEntity
  8
0
  6
CONTINUOUS
100
AcDbLine
 10
17.15749871150789
 20
7.147317722884972
 30
0.0
 11
16.14511724952029
 21
8.15969918487257
 31
0.0
  0
LINE
  5
D372
330
D32A
100
AcDbEntity
  8
0
  6
CONTINUOUS
100
AcDbLine
 10
16.751727645058
 20
8.226607998415046
 30
0.0
 11
16.32914642058374
 21
8.649189222889303
 31
0.0
  0
LINE
  5
D373
330
D32A
100
AcDbEntity
  8
0
  6
CONTINUOUS
100
AcDbLine
 10
20.75421273580989
 20
4.897642116743345
 30
0.0
 11
19.70536790264086
 21
5.946486949912374
 31
0.0
  0
LINE
  5
D374
330
D32A
100
AcDbEntity
  8
0
  6
CONTINUOUS
100
AcDbLine
 10
20.95379348658502
 20
5.371580575048398
 30
0.0
 11
19.90489241027246
 21
6.42048165136096
 31
0.0
  0
LINE
  5
D375
330
D32A
100
AcDbEntity
  8
0
  6
CONTINUOUS
100
AcDbLine
 10
21.15337423736015
 20
5.845519033353452
 30
0.0
 11
20.10441691790406
 21
6.894476352809547
 31
0.0
  0
LINE
  5
D376
330
D32A
100
AcDbEntity
  8
0
  6
CONTINUOUS
100
AcDbLine
 10
21.35295498813529
 20
6.319457491658505
 30
0.0
 11
20.30394142553566
 21
7.368471054258134
 31
0.0
  0
LINE
  5
D377
330
D32A
100
AcDbEntity
  8
0
  6
CONTINUOUS
100
AcDbLine
 10
21.55253573891042
 20
6.793395949963558
 30
0.0
 11
20.50346593316726
 21
7.842465755706721
 31
0.0
  0
LINE
  5
D378
330
D32A
100
AcDbEntity
  8
0
  6
CONTINUOUS
100
AcDbLine
 10
21.75211648968556
 20
7.267334408268612
 30
0.0
 11
20.70299044079886
 21
8.316460457155308
 31
0.0
  0
LINE
  5
D379
330
D32A
100
AcDbEntity
  8
0
  6
CONTINUOUS
100
AcDbLine
 10
21.95169724046069
 20
7.741272866573663
 30
0.0
 11
20.9298701070431
 21
8.763099999991256
 31
0.0
  0
LINE
  5
D37A
330
D32A
100
AcDbEntity
  8
0
  6
CONTINUOUS
100
AcDbLine
 10
22.15127799123582
 20
8.215211324878716
 30
0.0
 11
21.60338931612328
 21
8.763099999991256
 31
0.0
  0
LINE
  5
D37B
330
D32A
100
AcDbEntity
  8
0
  6
CONTINUOUS
100
AcDbLine
 10
22.35085874201096
 20
8.689149783183769
 30
0.0
 11
22.27690852520347
 21
8.763099999991255
 31
0.0
  0
ENDBLK
  5
D46D
330
D32A
100
AcDbEntity
  8
0
100
AcDbBlockEnd
  0
BLOCK
  5
D46E
330
D37C
100
AcDbEntity
  8
0
100
AcDbBlockBegin
  2
*X42
 70
     1
 10
0.0
 20
0.0
 30
0.0
  3
*X42
  1

  0
LINE
  5
D37D
330
D37C
100
AcDbEntity
  8
0
  6
CONTINUOUS
100
AcDbLine
 10
23.19462913593892
 20
8.169917934846424
 30
0.0
 11
23.70775465517246
 21
8.683043454079957
 31
0.0
  0
LINE
  5
D37E
330
D37C
100
AcDbEntity
  8
0
  6
CONTINUOUS
100
AcDbLine
 10
22.64923161835078
 20
6.951001208178088
 30
0.0
 11
23.9159364069932
 21
8.217705996820516
 31
0.0
  0
LINE
  5
D37F
330
D37C
100
AcDbEntity
  8
0
  6
CONTINUOUS
100
AcDbLine
 10
22.10383410076263
 20
5.732084481509751
 30
0.0
 11
24.12411815881395
 21
7.752368539561078
 31
0.0
  0
LINE
  5
D380
330
D37C
100
AcDbEntity
  8
0
  6
CONTINUOUS
100
AcDbLine
 10
21.55843658317447
 20
4.513167754841414
 30
0.0
 11
24.3322999106347
 21
7.287031082301639
 31
0.0
  0
LINE
  5
D381
330
D37C
100
AcDbEntity
  8
0
  6
CONTINUOUS
100
AcDbLine
 10
21.01303906558632
 20
3.294251028173077
 30
0.0
 11
24.54048166245544
 21
6.821693625042199
 31
0.0
  0
LINE
  5
D382
330
D37C
100
AcDbEntity
  8
0
  6
CONTINUOUS
100
AcDbLine
 10
20.46764154799817
 20
2.075334301504738
 30
0.0
 11
23.28571549467848
 21
4.89340824818505
 31
0.0
  0
LINE
  5
D383
330
D37C
100
AcDbEntity
  8
0
  6
CONTINUOUS
100
AcDbLine
 10
19.92224403041002
 20
0.8564175748364002
 30
0.0
 11
22.74075865492779
 21
3.674932199354171
 31
0.0
  0
LINE
  5
D384
330
D37C
100
AcDbEntity
  8
0
  6
CONTINUOUS
100
AcDbLine
 10
23.67305085490148
 20
5.280743608408048
 30
0.0
 11
24.74866341427619
 21
6.356356167782759
 31
0.0
  0
LINE
  5
D385
330
D37C
100
AcDbEntity
  8
0
  6
CONTINUOUS
100
AcDbLine
 10
23.88118970842314
 20
4.815363252849522
 30
0.0
 11
24.95684516609694
 21
5.89101871052332
 31
0.0
  0
LINE
  5
D386
330
D37C
100
AcDbEntity
  8
0
  6
CONTINUOUS
100
AcDbLine
 10
19.73925852647308
 20
-0.0000871381807288
 30
0.0
 11
23.4103456646501
 21
3.670999999996297
 31
0.0
  0
LINE
  5
D387
330
D37C
100
AcDbEntity
  8
0
  6
CONTINUOUS
100
AcDbLine
 10
24.0893285619448
 20
4.349982897290997
 30
0.0
 11
25.16502691791769
 21
5.42568125326388
 31
0.0
  0
LINE
  5
D388
330
D37C
100
AcDbEntity
  8
0
  6
CONTINUOUS
100
AcDbLine
 10
20.41282099582748
 20
-0.0000438779065108
 30
0.0
 11
21.64944178675636
 21
1.236576913022366
 31
0.0
  0
LINE
  5
D389
330
D37C
100
AcDbEntity
  8
0
  6
CONTINUOUS
100
AcDbLine
 10
22.78126487373161
 20
2.36839999999762
 30
0.0
 11
24.08386487373029
 21
3.670999999996297
 31
0.0
  0
LINE
  5
D38A
330
D37C
100
AcDbEntity
  8
0
  6
CONTINUOUS
100
AcDbLine
 10
24.29746741546646
 20
3.884602541732471
 30
0.0
 11
25.37320866973843
 21
4.960343796004441
 31
0.0
  0
LINE
  5
D38B
330
D37C
100
AcDbEntity
  8
0
  6
CONTINUOUS
100
AcDbLine
 10
21.08638346518189
 20
-0.0000006176322938
 30
0.0
 11
21.10379033335899
 21
0.0174062505448083
 31
0.0
  0
LINE
  5
D38C
330
D37C
100
AcDbEntity
  8
0
  6
CONTINUOUS
100
AcDbLine
 10
23.4547840828118
 20
2.36839999999762
 30
0.0
 11
25.58139042155918
 21
4.495006338745002
 31
0.0
  0
LINE
  5
D38D
330
D37C
100
AcDbEntity
  8
0
  6
CONTINUOUS
100
AcDbLine
 10
29.30199999996933
 20
8.215615917155148
 30
0.0
 11
29.84948408280543
 21
8.763099999991255
 31
0.0
  0
LINE
  5
D38E
330
D37C
100
AcDbEntity
  8
0
  6
CONTINUOUS
100
AcDbLine
 10
24.12830329189199
 20
2.36839999999762
 30
0.0
 11
25.78957217337993
 21
4.029668881485562
 31
0.0
  0
LINE
  5
D38F
330
D37C
100
AcDbEntity
  8
0
  6
CONTINUOUS
100
AcDbLine
 10
29.30199999996933
 20
7.54209670807496
 30
0.0
 11
30.52300329188562
 21
8.763099999991255
 31
0.0
  0
LINE
  5
D390
330
D37C
100
AcDbEntity
  8
0
  6
CONTINUOUS
100
AcDbLine
 10
24.80182250097217
 20
2.36839999999762
 30
0.0
 11
25.99775392520067
 21
3.564331424226122
 31
0.0
  0
LINE
  5
D391
330
D37C
100
AcDbEntity
  8
0
  6
CONTINUOUS
100
AcDbLine
 10
29.30199999996933
 20
6.868577498994774
 30
0.0
 11
30.74199999996926
 21
8.308577498994712
 31
0.0
  0
LINE
  5
D392
330
D37C
100
AcDbEntity
  8
0
  6
CONTINUOUS
100
AcDbLine
 10
25.13028238392013
 20
2.023340673865392
 30
0.0
 11
26.20593567702142
 21
3.098993966966683
 31
0.0
  0
LINE
  5
D393
330
D37C
100
AcDbEntity
  8
0
  6
CONTINUOUS
100
AcDbLine
 10
25.33838066033617
 20
1.557919741201244
 30
0.0
 11
26.41411742884217
 21
2.633656509707244
 31
0.0
  0
LINE
  5
D394
330
D37C
100
AcDbEntity
  8
0
  6
CONTINUOUS
100
AcDbLine
 10
25.54647893675221
 20
1.092498808537098
 30
0.0
 11
26.62229918066291
 21
2.168319052447804
 31
0.0
  0
LINE
  5
D395
330
D37C
100
AcDbEntity
  8
0
  6
CONTINUOUS
100
AcDbLine
 10
25.75457721316825
 20
0.62707787587295
 30
0.0
 11
26.83048093248366
 21
1.702981595188365
 31
0.0
  0
LINE
  5
D396
330
D37C
100
AcDbEntity
  8
0
  6
CONTINUOUS
100
AcDbLine
 10
29.30199999996933
 20
6.195058289914587
 30
0.0
 11
30.74199999996926
 21
7.635058289914522
 31
0.0
  0
LINE
  5
D397
330
D37C
100
AcDbEntity
  8
0
  6
CONTINUOUS
100
AcDbLine
 10
29.30199999996933
 20
5.521539080834401
 30
0.0
 11
30.74199999996926
 21
6.961539080834331
 31
0.0
  0
LINE
  5
D398
330
D37C
100
AcDbEntity
  8
0
  6
CONTINUOUS
100
AcDbLine
 10
29.30199999996933
 20
4.848019871754214
 30
0.0
 11
30.74199999996925
 21
6.288019871754143
 31
0.0
  0
LINE
  5
D399
330
D37C
100
AcDbEntity
  8
0
  6
CONTINUOUS
100
AcDbLine
 10
29.30199999996933
 20
4.174500662674028
 30
0.0
 11
30.74199999996925
 21
5.614500662673953
 31
0.0
  0
LINE
  5
D39A
330
D37C
100
AcDbEntity
  8
0
  6
CONTINUOUS
100
AcDbLine
 10
25.96267548958429
 20
0.1616569432088024
 30
0.0
 11
27.18411854636669
 21
1.383099999991207
 31
0.0
  0
LINE
  5
D39B
330
D37C
100
AcDbEntity
  8
0
  6
CONTINUOUS
100
AcDbLine
 10
29.30199999996933
 20
3.500981453593841
 30
0.0
 11
30.74199999996925
 21
4.940981453593762
 31
0.0
  0
LINE
  5
D39C
330
D37C
100
AcDbEntity
  8
0
  6
CONTINUOUS
100
AcDbLine
 10
26.50763775544691
 20
0.0330999999912356
 30
0.0
 11
27.85763775544689
 21
1.383099999991223
 31
0.0
  0
LINE
  5
D39D
330
D37C
100
AcDbEntity
  8
0
  6
CONTINUOUS
100
AcDbLine
 10
29.30199999996933
 20
2.827462244513656
 30
0.0
 11
30.74199999996925
 21
4.267462244513574
 31
0.0
  0
LINE
  5
D39E
330
D37C
100
AcDbEntity
  8
0
  6
CONTINUOUS
100
AcDbLine
 10
27.18115696452709
 20
0.0330999999912356
 30
0.0
 11
28.6224847300034
 21
1.474427765467545
 31
0.0
  0
LINE
  5
D39F
330
D37C
100
AcDbEntity
  8
0
  6
CONTINUOUS
100
AcDbLine
 10
29.21067223449293
 20
2.062615269957069
 30
0.0
 11
30.74199999996924
 21
3.593943035433383
 31
0.0
  0
LINE
  5
D3A0
330
D37C
100
AcDbEntity
  8
0
  6
CONTINUOUS
100
AcDbLine
 10
27.85467617360728
 20
0.0330999999912356
 30
0.0
 11
30.74199999996924
 21
2.920423826353195
 31
0.0
  0
LINE
  5
D3A1
330
D37C
100
AcDbEntity
  8
0
  6
CONTINUOUS
100
AcDbLine
 10
28.57438609860264
 20
0.0792907159064073
 30
0.0
 11
30.69580928405405
 21
2.200713901357819
 31
0.0
  0
LINE
  5
D3A2
330
D37C
100
AcDbEntity
  8
0
  6
CONTINUOUS
100
AcDbLine
 10
29.49443044814297
 20
0.3258158563665496
 30
0.0
 11
30.44928414359389
 21
1.280669551817477
 31
0.0
  0
LINE
  5
D3A3
330
D37C
100
AcDbEntity
  8
0
  6
CONTINUOUS
100
AcDbLine
 10
19.59027867740337
 20
-0.0000967065718083
 30
0.0
 11
19.55485265190471
 21
0.035329318926844
 31
0.0
  0
LINE
  5
D3A4
330
D37C
100
AcDbEntity
  8
0
  6
CONTINUOUS
100
AcDbLine
 10
20.26375463176586
 20
-0.0000534518541091
 30
0.0
 11
19.76305575737534
 21
0.5006454225364014
 31
0.0
  0
LINE
  5
D3A5
330
D37C
100
AcDbEntity
  8
0
  6
CONTINUOUS
100
AcDbLine
 10
20.93723058612834
 20
-0.0000101971364099
 30
0.0
 11
19.97125886284597
 21
0.965961526145958
 31
0.0
  0
LINE
  5
D3A6
330
D37C
100
AcDbEntity
  8
0
  6
CONTINUOUS
100
AcDbLine
 10
21.25514828313686
 20
0.355591314935257
 30
0.0
 11
20.1794619683166
 21
1.431277629755512
 31
0.0
  0
LINE
  5
D3A7
330
D37C
100
AcDbEntity
  8
0
  6
CONTINUOUS
100
AcDbLine
 10
21.46338838394921
 20
0.8208704232030986
 30
0.0
 11
20.38766507378723
 21
1.896593733365069
 31
0.0
  0
LINE
  5
D3A8
330
D37C
100
AcDbEntity
  8
0
  6
CONTINUOUS
100
AcDbLine
 10
21.67162848476155
 20
1.28614953147094
 30
0.0
 11
20.59586817925786
 21
2.361909836974626
 31
0.0
  0
LINE
  5
D3A9
330
D37C
100
AcDbEntity
  8
0
  6
CONTINUOUS
100
AcDbLine
 10
21.8798685855739
 20
1.751428639738782
 30
0.0
 11
20.80407128472849
 21
2.827225940584183
 31
0.0
  0
LINE
  5
D3AA
330
D37C
100
AcDbEntity
  8
0
  6
CONTINUOUS
100
AcDbLine
 10
22.08810868638624
 20
2.216707748006623
 30
0.0
 11
21.01227439019912
 21
3.292542044193739
 31
0.0
  0
LINE
  5
D3AB
330
D37C
100
AcDbEntity
  8
0
  6
CONTINUOUS
100
AcDbLine
 10
22.60993564347543
 20
2.36839999999762
 30
0.0
 11
21.22047749566975
 21
3.757858147803296
 31
0.0
  0
LINE
  5
D3AC
330
D37C
100
AcDbEntity
  8
0
  6
CONTINUOUS
100
AcDbLine
 10
23.28345485255561
 20
2.36839999999762
 30
0.0
 11
21.42868060114038
 21
4.223174251412853
 31
0.0
  0
LINE
  5
D3AD
330
D37C
100
AcDbEntity
  8
0
  6
CONTINUOUS
100
AcDbLine
 10
26.29227406164219
 20
0.0330999999912356
 30
0.0
 11
25.80009199592872
 21
0.5252820657046957
 31
0.0
  0
LINE
  5
D3AE
330
D37C
100
AcDbEntity
  8
0
  6
CONTINUOUS
100
AcDbLine
 10
23.9569740616358
 20
2.36839999999762
 30
0.0
 11
21.63688370661101
 21
4.688490355022409
 31
0.0
  0
LINE
  5
D3AF
330
D37C
100
AcDbEntity
  8
0
  6
CONTINUOUS
100
AcDbLine
 10
26.96579327072237
 20
0.0330999999912356
 30
0.0
 11
25.2554132311971
 21
1.743480039516508
 31
0.0
  0
LINE
  5
D3B0
330
D37C
100
AcDbEntity
  8
0
  6
CONTINUOUS
100
AcDbLine
 10
24.63049327071599
 20
2.36839999999762
 30
0.0
 11
23.32789327071731
 21
3.670999999996297
 31
0.0
  0
LINE
  5
D3B1
330
D37C
100
AcDbEntity
  8
0
  6
CONTINUOUS
100
AcDbLine
 10
22.92098674744635
 20
4.077906523267254
 30
0.0
 11
21.84508681208164
 21
5.153806458631966
 31
0.0
  0
LINE
  5
D3B2
330
D37C
100
AcDbEntity
  8
0
  6
CONTINUOUS
100
AcDbLine
 10
27.63931247980256
 20
0.0330999999912356
 30
0.0
 11
24.0014124797975
 21
3.670999999996297
 31
0.0
  0
LINE
  5
D3B3
330
D37C
100
AcDbEntity
  8
0
  6
CONTINUOUS
100
AcDbLine
 10
23.129125600968
 20
4.5432868788258
 30
0.0
 11
22.05328991755227
 21
5.619122562241522
 31
0.0
  0
LINE
  5
D3B4
330
D37C
100
AcDbEntity
  8
0
  6
CONTINUOUS
100
AcDbLine
 10
28.31283168888275
 20
0.0330999999912356
 30
0.0
 11
24.16488385994816
 21
4.181047828925828
 31
0.0
  0
LINE
  5
D3B5
330
D37C
100
AcDbEntity
  8
0
  6
CONTINUOUS
100
AcDbLine
 10
23.33726445448964
 20
5.008667234384345
 30
0.0
 11
22.2614930230229
 21
6.084438665851079
 31
0.0
  0
LINE
  5
D3B6
330
D37C
100
AcDbEntity
  8
0
  6
CONTINUOUS
100
AcDbLine
 10
28.86286302309502
 20
0.1565878748591523
 30
0.0
 11
27.63635089796295
 21
1.383099999991217
 31
0.0
  0
LINE
  5
D3B7
330
D37C
100
AcDbEntity
  8
0
  6
CONTINUOUS
100
AcDbLine
 10
26.43704649509776
 20
2.582404402856405
 30
0.0
 11
23.61992702019732
 21
5.399523877756844
 31
0.0
  0
LINE
  5
D3B8
330
D37C
100
AcDbEntity
  8
0
  6
CONTINUOUS
100
AcDbLine
 10
23.54540330801128
 20
5.47404758994289
 30
0.0
 11
22.46969612849353
 21
6.549754769460635
 31
0.0
  0
LINE
  5
D3B9
330
D37C
100
AcDbEntity
  8
0
  6
CONTINUOUS
100
AcDbLine
 10
29.39405087596853
 20
0.2989192310658284
 30
0.0
 11
28.30987010704312
 21
1.383099999991234
 31
0.0
  0
LINE
  5
D3BA
330
D37C
100
AcDbEntity
  8
0
  6
CONTINUOUS
100
AcDbLine
 10
25.89179548232307
 20
3.801174624711282
 30
0.0
 11
22.67789923396416
 21
7.015070873070191
 31
0.0
  0
LINE
  5
D3BB
330
D37C
100
AcDbEntity
  8
0
  6
CONTINUOUS
100
AcDbLine
 10
29.79594438047407
 20
0.570544935640473
 30
0.0
 11
28.81310432793121
 21
1.553384988183336
 31
0.0
  0
LINE
  5
D3BC
330
D37C
100
AcDbEntity
  8
0
  6
CONTINUOUS
100
AcDbLine
 10
25.34654446954838
 20
5.01994484656616
 30
0.0
 11
22.88610233943479
 21
7.480386976679748
 31
0.0
  0
LINE
  5
D3BD
330
D37C
100
AcDbEntity
  8
0
  6
CONTINUOUS
100
AcDbLine
 10
30.13270398501416
 20
0.9073045401805646
 30
0.0
 11
29.14234640337737
 21
1.897662121817355
 31
0.0
  0
LINE
  5
D3BE
330
D37C
100
AcDbEntity
  8
0
  6
CONTINUOUS
100
AcDbLine
 10
24.80129345677369
 20
6.238715068421037
 30
0.0
 11
23.09430544490542
 21
7.945703080289305
 31
0.0
  0
LINE
  5
D3BF
330
D37C
100
AcDbEntity
  8
0
  6
CONTINUOUS
100
AcDbLine
 10
30.44581292956759
 20
1.26771480470732
 30
0.0
 11
29.30199999996933
 21
2.411527734305588
 31
0.0
  0
LINE
  5
D3C0
330
D37C
100
AcDbEntity
  8
0
  6
CONTINUOUS
100
AcDbLine
 10
30.58814428577427
 20
1.798902657580827
 30
0.0
 11
29.30199999996933
 21
3.085046943385775
 31
0.0
  0
LINE
  5
D3C1
330
D37C
100
AcDbEntity
  8
0
  6
CONTINUOUS
100
AcDbLine
 10
24.256042443999
 20
7.457485290275915
 30
0.0
 11
23.30250855037605
 21
8.411019183898862
 31
0.0
  0
LINE
  5
D3C2
330
D37C
100
AcDbEntity
  8
0
  6
CONTINUOUS
100
AcDbLine
 10
23.71079143122431
 20
8.676255512130794
 30
0.0
 11
23.51071165584668
 21
8.876335287508418
 31
0.0
  0
LINE
  5
D3C3
330
D37C
100
AcDbEntity
  8
0
  6
CONTINUOUS
100
AcDbLine
 10
30.73047564198095
 20
2.330090510454333
 30
0.0
 11
29.30199999996933
 21
3.758566152465961
 31
0.0
  0
LINE
  5
D3C4
330
D37C
100
AcDbEntity
  8
0
  6
CONTINUOUS
100
AcDbLine
 10
30.74199999996924
 20
2.992085361546236
 30
0.0
 11
29.30199999996933
 21
4.432085361546148
 31
0.0
  0
LINE
  5
D3C5
330
D37C
100
AcDbEntity
  8
0
  6
CONTINUOUS
100
AcDbLine
 10
30.74199999996924
 20
3.665604570626419
 30
0.0
 11
29.30199999996933
 21
5.105604570626333
 31
0.0
  0
LINE
  5
D3C6
330
D37C
100
AcDbEntity
  8
0
  6
CONTINUOUS
100
AcDbLine
 10
30.74199999996925
 20
4.339123779706602
 30
0.0
 11
29.30199999996933
 21
5.77912377970652
 31
0.0
  0
LINE
  5
D3C7
330
D37C
100
AcDbEntity
  8
0
  6
CONTINUOUS
100
AcDbLine
 10
30.74199999996925
 20
5.012642988786785
 30
0.0
 11
29.30199999996933
 21
6.452642988786707
 31
0.0
  0
LINE
  5
D3C8
330
D37C
100
AcDbEntity
  8
0
  6
CONTINUOUS
100
AcDbLine
 10
30.74199999996925
 20
5.68616219786697
 30
0.0
 11
29.30199999996933
 21
7.126162197866894
 31
0.0
  0
LINE
  5
D3C9
330
D37C
100
AcDbEntity
  8
0
  6
CONTINUOUS
100
AcDbLine
 10
30.74199999996925
 20
6.359681406947153
 30
0.0
 11
29.30199999996933
 21
7.799681406947081
 31
0.0
  0
LINE
  5
D3CA
330
D37C
100
AcDbEntity
  8
0
  6
CONTINUOUS
100
AcDbLine
 10
30.74199999996926
 20
7.033200616027337
 30
0.0
 11
29.30199999996933
 21
8.473200616027269
 31
0.0
  0
LINE
  5
D3CB
330
D37C
100
AcDbEntity
  8
0
  6
CONTINUOUS
100
AcDbLine
 10
30.74199999996926
 20
7.706719825107518
 30
0.0
 11
29.68561982508552
 21
8.763099999991255
 31
0.0
  0
LINE
  5
D3CC
330
D37C
100
AcDbEntity
  8
0
  6
CONTINUOUS
100
AcDbLine
 10
30.74199999996926
 20
8.380239034187703
 30
0.0
 11
30.35913903416571
 21
8.763099999991255
 31
0.0
  0
ENDBLK
  5
D46F
330
D37C
100
AcDbEntity
  8
0
100
AcDbBlockEnd
  0
BLOCK
  5
D470
330
D3CD
100
AcDbEntity
  8
0
100
AcDbBlockBegin
  2
*X43
 70
     1
 10
0.0
 20
0.0
 30
0.0
  3
*X43
  1

  0
LINE
  5
D3CE
330
D3CD
100
AcDbEntity
  8
0
  6
CONTINUOUS
100
AcDbLine
 10
31.64199999996833
 20
8.5350582899136
 30
0.0
 11
31.87004171004599
 21
8.763099999991255
 31
0.0
  0
LINE
  5
D3CF
330
D3CD
100
AcDbEntity
  8
0
  6
CONTINUOUS
100
AcDbLine
 10
31.64199999996833
 20
7.861539080833413
 30
0.0
 11
32.54356091912618
 21
8.763099999991255
 31
0.0
  0
LINE
  5
D3D0
330
D3CD
100
AcDbEntity
  8
0
  6
CONTINUOUS
100
AcDbLine
 10
31.64199999996833
 20
7.188019871753227
 30
0.0
 11
33.08199999996839
 21
8.628019871753281
 31
0.0
  0
LINE
  5
D3D1
330
D3CD
100
AcDbEntity
  8
0
  6
CONTINUOUS
100
AcDbLine
 10
31.64199999996833
 20
6.514500662673041
 30
0.0
 11
33.08199999996839
 21
7.954500662673095
 31
0.0
  0
LINE
  5
D3D2
330
D3CD
100
AcDbEntity
  8
0
  6
CONTINUOUS
100
AcDbLine
 10
31.64199999996833
 20
5.840981453592855
 30
0.0
 11
33.08199999996839
 21
7.28098145359291
 31
0.0
  0
LINE
  5
D3D3
330
D3CD
100
AcDbEntity
  8
0
  6
CONTINUOUS
100
AcDbLine
 10
31.64199999996833
 20
5.167462244512668
 30
0.0
 11
33.08199999996839
 21
6.607462244512723
 31
0.0
  0
LINE
  5
D3D4
330
D3CD
100
AcDbEntity
  8
0
  6
CONTINUOUS
100
AcDbLine
 10
31.64199999996833
 20
4.493943035432482
 30
0.0
 11
33.08199999996839
 21
5.933943035432536
 31
0.0
  0
LINE
  5
D3D5
330
D3CD
100
AcDbEntity
  8
0
  6
CONTINUOUS
100
AcDbLine
 10
31.64199999996833
 20
3.820423826352294
 30
0.0
 11
33.08199999996839
 21
5.260423826352349
 31
0.0
  0
LINE
  5
D3D6
330
D3CD
100
AcDbEntity
  8
0
  6
CONTINUOUS
100
AcDbLine
 10
31.64199999996833
 20
3.146904617272108
 30
0.0
 11
33.08199999996839
 21
4.586904617272163
 31
0.0
  0
LINE
  5
D3D7
330
D3CD
100
AcDbEntity
  8
0
  6
CONTINUOUS
100
AcDbLine
 10
36.23199999996837
 20
8.410423826352327
 30
0.0
 11
36.58467617360729
 21
8.763099999991255
 31
0.0
  0
LINE
  5
D3D8
330
D3CD
100
AcDbEntity
  8
0
  6
CONTINUOUS
100
AcDbLine
 10
36.23199999996837
 20
7.73690461727214
 30
0.0
 11
37.25819538268748
 21
8.763099999991255
 31
0.0
  0
LINE
  5
D3D9
330
D3CD
100
AcDbEntity
  8
0
  6
CONTINUOUS
100
AcDbLine
 10
31.64323424774199
 20
2.474619655965573
 30
0.0
 11
33.08199999996839
 21
3.913385408191976
 31
0.0
  0
LINE
  5
D3DA
330
D3CD
100
AcDbEntity
  8
0
  6
CONTINUOUS
100
AcDbLine
 10
31.74419223861915
 20
1.902058437762552
 30
0.0
 11
33.08199999996839
 21
3.239866199111789
 31
0.0
  0
LINE
  5
D3DB
330
D3CD
100
AcDbEntity
  8
0
  6
CONTINUOUS
100
AcDbLine
 10
36.23199999996837
 20
7.063385408191953
 30
0.0
 11
37.67199999996831
 21
8.503385408191894
 31
0.0
  0
LINE
  5
D3DC
330
D3CD
100
AcDbEntity
  8
0
  6
CONTINUOUS
100
AcDbLine
 10
36.23199999996837
 20
6.389866199111767
 30
0.0
 11
37.67199999996831
 21
7.829866199111708
 31
0.0
  0
LINE
  5
D3DD
330
D3CD
100
AcDbEntity
  8
0
  6
CONTINUOUS
100
AcDbLine
 10
31.91111233414976
 20
1.39545932421297
 30
0.0
 11
33.08199999996839
 21
2.566346990031603
 31
0.0
  0
LINE
  5
D3DE
330
D3CD
100
AcDbEntity
  8
0
  6
CONTINUOUS
100
AcDbLine
 10
36.23199999996837
 20
5.71634699003158
 30
0.0
 11
37.67199999996831
 21
7.156346990031522
 31
0.0
  0
LINE
  5
D3DF
330
D3CD
100
AcDbEntity
  8
0
  6
CONTINUOUS
100
AcDbLine
 10
32.1576374746103
 20
0.9684652555933289
 30
0.0
 11
33.20642631446081
 21
2.017254095443838
 31
0.0
  0
LINE
  5
D3E0
330
D3CD
100
AcDbEntity
  8
0
  6
CONTINUOUS
100
AcDbLine
 10
36.23199999996837
 20
5.042827780951393
 30
0.0
 11
37.67199999996831
 21
6.482827780951334
 31
0.0
  0
LINE
  5
D3E1
330
D3CD
100
AcDbEntity
  8
0
  6
CONTINUOUS
100
AcDbLine
 10
32.47774023927325
 20
0.6150488111760914
 30
0.0
 11
33.49903056428258
 21
1.636339136185419
 31
0.0
  0
LINE
  5
D3E2
330
D3CD
100
AcDbEntity
  8
0
  6
CONTINUOUS
100
AcDbLine
 10
36.23199999996837
 20
4.369308571871207
 30
0.0
 11
37.67199999996831
 21
5.809308571871148
 31
0.0
  0
LINE
  5
D3E3
330
D3CD
100
AcDbEntity
  8
0
  6
CONTINUOUS
100
AcDbLine
 10
32.84396249154443
 20
0.3077518543670883
 30
0.0
 11
33.93324121824649
 21
1.397030581069146
 31
0.0
  0
LINE
  5
D3E4
330
D3CD
100
AcDbEntity
  8
0
  6
CONTINUOUS
100
AcDbLine
 10
36.23199999996837
 20
3.695789362791021
 30
0.0
 11
37.67199999996831
 21
5.135789362790963
 31
0.0
  0
LINE
  5
D3E5
330
D3CD
100
AcDbEntity
  8
0
  6
CONTINUOUS
100
AcDbLine
 10
33.30186329036846
 20
0.0921334441109263
 30
0.0
 11
34.46442907112041
 21
1.254699224862875
 31
0.0
  0
LINE
  5
D3E6
330
D3CD
100
AcDbEntity
  8
0
  6
CONTINUOUS
100
AcDbLine
 10
36.23199999996837
 20
3.022270153710834
 30
0.0
 11
37.67199999996831
 21
4.462270153710776
 31
0.0
  0
LINE
  5
D3E7
330
D3CD
100
AcDbEntity
  8
0
  6
CONTINUOUS
100
AcDbLine
 10
33.79565647746294
 20
-0.0875925778747773
 30
0.0
 11
35.24350171668284
 21
1.360252661345124
 31
0.0
  0
LINE
  5
D3E8
330
D3CD
100
AcDbEntity
  8
0
  6
CONTINUOUS
100
AcDbLine
 10
36.18336676155003
 20
2.300117706212308
 30
0.0
 11
37.67199999996831
 21
3.788750944630589
 31
0.0
  0
LINE
  5
D3E9
330
D3CD
100
AcDbEntity
  8
0
  6
CONTINUOUS
100
AcDbLine
 10
34.37182574910968
 20
-0.184942515308224
 30
0.0
 11
37.67199999996831
 21
3.115231735550402
 31
0.0
  0
LINE
  5
D3EA
330
D3CD
100
AcDbEntity
  8
0
  6
CONTINUOUS
100
AcDbLine
 10
35.0453449581892
 20
-0.1849425153088955
 30
0.0
 11
37.66345697088136
 21
2.433169497383271
 31
0.0
  0
LINE
  5
D3EB
330
D3CD
100
AcDbEntity
  8
0
  6
CONTINUOUS
100
AcDbLine
 10
35.98667157609191
 20
0.0828648935136398
 30
0.0
 11
37.51927401744566
 21
1.615467334867382
 31
0.0
  0
LINE
  5
D3EC
330
D3CD
100
AcDbEntity
  8
0
  6
CONTINUOUS
100
AcDbLine
 10
32.27747408544484
 20
0.7830920669904482
 30
0.0
 11
32.24716210471949
 21
0.8134040477157893
 31
0.0
  0
LINE
  5
D3ED
330
D3CD
100
AcDbEntity
  8
0
  6
CONTINUOUS
100
AcDbLine
 10
33.83656881101902
 20
-0.1024834495035494
 30
0.0
 11
31.72538911593758
 21
2.008696245577891
 31
0.0
  0
LINE
  5
D3EE
330
D3CD
100
AcDbEntity
  8
0
  6
CONTINUOUS
100
AcDbLine
 10
34.5925470859041
 20
-0.1849425153084434
 30
0.0
 11
31.64199999996833
 21
2.765604570627322
 31
0.0
  0
LINE
  5
D3EF
330
D3CD
100
AcDbEntity
  8
0
  6
CONTINUOUS
100
AcDbLine
 10
35.26201302775981
 20
-0.1808892480839752
 30
0.0
 11
31.64199999996833
 21
3.439123779707508
 31
0.0
  0
LINE
  5
D3F0
330
D3CD
100
AcDbEntity
  8
0
  6
CONTINUOUS
100
AcDbLine
 10
35.75580621485512
 20
-0.0011632260990879
 30
0.0
 11
34.51294304365551
 21
1.241699945100514
 31
0.0
  0
LINE
  5
D3F1
330
D3CD
100
AcDbEntity
  8
0
  6
CONTINUOUS
100
AcDbLine
 10
33.08199999996839
 20
2.672642988787641
 30
0.0
 11
31.64199999996833
 21
4.112642988787695
 31
0.0
  0
LINE
  5
D3F2
330
D3CD
100
AcDbEntity
  8
0
  6
CONTINUOUS
100
AcDbLine
 10
36.24959940195042
 20
0.1785627958857976
 30
0.0
 11
35.10501653033629
 21
1.323145667499924
 31
0.0
  0
LINE
  5
D3F3
330
D3CD
100
AcDbEntity
  8
0
  6
CONTINUOUS
100
AcDbLine
 10
33.08199999996839
 20
3.346162197867827
 30
0.0
 11
31.64199999996833
 21
4.786162197867881
 31
0.0
  0
LINE
  5
D3F4
330
D3CD
100
AcDbEntity
  8
0
  6
CONTINUOUS
100
AcDbLine
 10
36.64615197150552
 20
0.4555294354108876
 30
0.0
 11
35.6362043832099
 21
1.465477023706505
 31
0.0
  0
LINE
  5
D3F5
330
D3CD
100
AcDbEntity
  8
0
  6
CONTINUOUS
100
AcDbLine
 10
33.08199999996839
 20
4.019681406948013
 30
0.0
 11
31.64199999996833
 21
5.459681406948068
 31
0.0
  0
LINE
  5
D3F6
330
D3CD
100
AcDbEntity
  8
0
  6
CONTINUOUS
100
AcDbLine
 10
37.0123742237774
 20
0.7628263922191891
 30
0.0
 11
35.97691545773309
 21
1.798285158263504
 31
0.0
  0
LINE
  5
D3F7
330
D3CD
100
AcDbEntity
  8
0
  6
CONTINUOUS
100
AcDbLine
 10
33.08199999996839
 20
4.6932006160282
 30
0.0
 11
31.64199999996833
 21
6.133200616028255
 31
0.0
  0
LINE
  5
D3F8
330
D3CD
100
AcDbEntity
  8
0
  6
CONTINUOUS
100
AcDbLine
 10
37.27491524157143
 20
1.173804583505349
 30
0.0
 11
36.17602012811361
 21
2.272699696963169
 31
0.0
  0
LINE
  5
D3F9
330
D3CD
100
AcDbEntity
  8
0
  6
CONTINUOUS
100
AcDbLine
 10
33.08199999996839
 20
5.366719825108387
 30
0.0
 11
31.64199999996833
 21
6.806719825108441
 31
0.0
  0
LINE
  5
D3FA
330
D3CD
100
AcDbEntity
  8
0
  6
CONTINUOUS
100
AcDbLine
 10
37.51739996707661
 20
1.604839067080355
 30
0.0
 11
36.23199999996837
 21
2.890239034188595
 31
0.0
  0
LINE
  5
D3FB
330
D3CD
100
AcDbEntity
  8
0
  6
CONTINUOUS
100
AcDbLine
 10
37.6183579579535
 20
2.177400285283649
 30
0.0
 11
36.23199999996837
 21
3.563758243268782
 31
0.0
  0
LINE
  5
D3FC
330
D3CD
100
AcDbEntity
  8
0
  6
CONTINUOUS
100
AcDbLine
 10
33.08199999996839
 20
6.040239034188573
 30
0.0
 11
31.64199999996833
 21
7.480239034188628
 31
0.0
  0
LINE
  5
D3FD
330
D3CD
100
AcDbEntity
  8
0
  6
CONTINUOUS
100
AcDbLine
 10
33.08199999996839
 20
6.713758243268759
 30
0.0
 11
31.64199999996833
 21
8.153758243268815
 31
0.0
  0
LINE
  5
D3FE
330
D3CD
100
AcDbEntity
  8
0
  6
CONTINUOUS
100
AcDbLine
 10
37.67199999996831
 20
2.797277452349027
 30
0.0
 11
36.23199999996837
 21
4.237277452348969
 31
0.0
  0
LINE
  5
D3FF
330
D3CD
100
AcDbEntity
  8
0
  6
CONTINUOUS
100
AcDbLine
 10
37.67199999996831
 20
3.470796661429214
 30
0.0
 11
36.23199999996837
 21
4.910796661429155
 31
0.0
  0
LINE
  5
D400
330
D3CD
100
AcDbEntity
  8
0
  6
CONTINUOUS
100
AcDbLine
 10
37.67199999996831
 20
4.1443158705094
 30
0.0
 11
36.23199999996837
 21
5.584315870509341
 31
0.0
  0
LINE
  5
D401
330
D3CD
100
AcDbEntity
  8
0
  6
CONTINUOUS
100
AcDbLine
 10
33.08199999996839
 20
7.387277452348946
 30
0.0
 11
31.70617745232608
 21
8.763099999991255
 31
0.0
  0
LINE
  5
D402
330
D3CD
100
AcDbEntity
  8
0
  6
CONTINUOUS
100
AcDbLine
 10
33.08199999996839
 20
8.060796661429134
 30
0.0
 11
32.37969666140626
 21
8.763099999991255
 31
0.0
  0
LINE
  5
D403
330
D3CD
100
AcDbEntity
  8
0
  6
CONTINUOUS
100
AcDbLine
 10
33.08199999996839
 20
8.734315870509318
 30
0.0
 11
33.05321587048645
 21
8.763099999991255
 31
0.0
  0
LINE
  5
D404
330
D3CD
100
AcDbEntity
  8
0
  6
CONTINUOUS
100
AcDbLine
 10
37.67199999996831
 20
4.817835079589586
 30
0.0
 11
36.23199999996837
 21
6.257835079589528
 31
0.0
  0
LINE
  5
D405
330
D3CD
100
AcDbEntity
  8
0
  6
CONTINUOUS
100
AcDbLine
 10
37.67199999996831
 20
5.491354288669772
 30
0.0
 11
36.23199999996837
 21
6.931354288669715
 31
0.0
  0
LINE
  5
D406
330
D3CD
100
AcDbEntity
  8
0
  6
CONTINUOUS
100
AcDbLine
 10
37.67199999996831
 20
6.164873497749959
 30
0.0
 11
36.23199999996837
 21
7.6048734977499
 31
0.0
  0
LINE
  5
D407
330
D3CD
100
AcDbEntity
  8
0
  6
CONTINUOUS
100
AcDbLine
 10
37.67199999996831
 20
6.838392706830145
 30
0.0
 11
36.23199999996837
 21
8.278392706830086
 31
0.0
  0
LINE
  5
D408
330
D3CD
100
AcDbEntity
  8
0
  6
CONTINUOUS
100
AcDbLine
 10
37.67199999996831
 20
7.511911915910333
 30
0.0
 11
36.42081191588738
 21
8.763099999991255
 31
0.0
  0
LINE
  5
D409
330
D3CD
100
AcDbEntity
  8
0
  6
CONTINUOUS
100
AcDbLine
 10
37.67199999996831
 20
8.185431124990519
 30
0.0
 11
37.09433112496757
 21
8.763099999991255
 31
0.0
  0
ENDBLK
  5
D471
330
D3CD
100
AcDbEntity
  8
0
100
AcDbBlockEnd
  0
BLOCK
  5
D472
330
D40A
100
AcDbEntity
  8
0
100
AcDbBlockBegin
  2
*X44
 70
     1
 10
0.0
 20
0.0
 30
0.0
  3
*X44
  1

  0
LINE
  5
D40B
330
D40A
100
AcDbEntity
  8
0
  6
CONTINUOUS
100
AcDbLine
 10
38.60499999996136
 20
8.762866199104765
 30
0.0
 11
38.71672554182345
 21
8.874591740966855
 31
0.0
  0
LINE
  5
D40C
330
D40A
100
AcDbEntity
  8
0
  6
CONTINUOUS
100
AcDbLine
 10
38.60499999996136
 20
8.089346990024577
 30
0.0
 11
39.03418785440363
 21
8.518534844466847
 31
0.0
  0
LINE
  5
D40D
330
D40A
100
AcDbEntity
  8
0
  6
CONTINUOUS
100
AcDbLine
 10
38.60499999996136
 20
7.41582778094439
 30
0.0
 11
39.35165016698382
 21
8.16247794796684
 31
0.0
  0
LINE
  5
D40E
330
D40A
100
AcDbEntity
  8
0
  6
CONTINUOUS
100
AcDbLine
 10
38.60499999996136
 20
6.742308571864204
 30
0.0
 11
39.66911247956399
 21
7.806421051466834
 31
0.0
  0
LINE
  5
D40F
330
D40A
100
AcDbEntity
  8
0
  6
CONTINUOUS
100
AcDbLine
 10
38.60499999996136
 20
6.068789362784018
 30
0.0
 11
39.98657479214418
 21
7.450364154966827
 31
0.0
  0
LINE
  5
D410
330
D40A
100
AcDbEntity
  8
0
  6
CONTINUOUS
100
AcDbLine
 10
38.60499999996136
 20
5.395270153703832
 30
0.0
 11
40.30403710472435
 21
7.09430725846682
 31
0.0
  0
LINE
  5
D411
330
D40A
100
AcDbEntity
  8
0
  6
CONTINUOUS
100
AcDbLine
 10
38.60499999996136
 20
4.721750944623645
 30
0.0
 11
40.62149941730453
 21
6.738250361966813
 31
0.0
  0
LINE
  5
D412
330
D40A
100
AcDbEntity
  8
0
  6
CONTINUOUS
100
AcDbLine
 10
38.60499999996136
 20
4.048231735543458
 30
0.0
 11
40.93896172988471
 21
6.382193465466806
 31
0.0
  0
LINE
  5
D413
330
D40A
100
AcDbEntity
  8
0
  6
CONTINUOUS
100
AcDbLine
 10
38.60499999996136
 20
3.374712526463272
 30
0.0
 11
40.02599999995994
 21
4.795712526461843
 31
0.0
  0
LINE
  5
D414
330
D40A
100
AcDbEntity
  8
0
  6
CONTINUOUS
100
AcDbLine
 10
38.60499999996136
 20
2.701193317383085
 30
0.0
 11
40.02599999995994
 21
4.122193317381657
 31
0.0
  0
LINE
  5
D415
330
D40A
100
AcDbEntity
  8
0
  6
CONTINUOUS
100
AcDbLine
 10
40.28339754687704
 20
5.053110073378947
 30
0.0
 11
41.25642404246489
 21
6.026136568966799
 31
0.0
  0
LINE
  5
D416
330
D40A
100
AcDbEntity
  8
0
  6
CONTINUOUS
100
AcDbLine
 10
40.60085985945722
 20
4.697053176878939
 30
0.0
 11
41.57388635504507
 21
5.670079672466793
 31
0.0
  0
LINE
  5
D417
330
D40A
100
AcDbEntity
  8
0
  6
CONTINUOUS
100
AcDbLine
 10
43.57899999995641
 20
8.348712526458318
 30
0.0
 11
43.99338747348935
 21
8.763099999991255
 31
0.0
  0
LINE
  5
D418
330
D40A
100
AcDbEntity
  8
0
  6
CONTINUOUS
100
AcDbLine
 10
43.57899999995641
 20
7.675193317378131
 30
0.0
 11
44.66690668256953
 21
8.763099999991255
 31
0.0
  0
LINE
  5
D419
330
D40A
100
AcDbEntity
  8
0
  6
CONTINUOUS
100
AcDbLine
 10
38.60499999996136
 20
2.027674108302898
 30
0.0
 11
40.02599999995994
 21
3.44867410830147
 31
0.0
  0
LINE
  5
D41A
330
D40A
100
AcDbEntity
  8
0
  6
CONTINUOUS
100
AcDbLine
 10
38.60499999996136
 20
1.354154899222712
 30
0.0
 11
40.02599999995994
 21
2.775154899221284
 31
0.0
  0
LINE
  5
D41B
330
D40A
100
AcDbEntity
  8
0
  6
CONTINUOUS
100
AcDbLine
 10
38.60499999996136
 20
0.6806356901425255
 30
0.0
 11
40.02599999995994
 21
2.101635690141098
 31
0.0
  0
LINE
  5
D41C
330
D40A
100
AcDbEntity
  8
0
  6
CONTINUOUS
100
AcDbLine
 10
38.60499999996136
 20
0.0071164810623383
 30
0.0
 11
40.02599999995994
 21
1.428116481060911
 31
0.0
  0
LINE
  5
D41D
330
D40A
100
AcDbEntity
  8
0
  6
CONTINUOUS
100
AcDbLine
 10
40.9183221720374
 20
4.340996280378933
 30
0.0
 11
41.89134866762525
 21
5.314022775966786
 31
0.0
  0
LINE
  5
D41E
330
D40A
100
AcDbEntity
  8
0
  6
CONTINUOUS
100
AcDbLine
 10
41.23578448461758
 20
3.984939383878926
 30
0.0
 11
42.20881098020543
 21
4.957965879466778
 31
0.0
  0
LINE
  5
D41F
330
D40A
100
AcDbEntity
  8
0
  6
CONTINUOUS
100
AcDbLine
 10
41.55324679719776
 20
3.628882487378919
 30
0.0
 11
42.52627329278561
 21
4.601908982966772
 31
0.0
  0
LINE
  5
D420
330
D40A
100
AcDbEntity
  8
0
  6
CONTINUOUS
100
AcDbLine
 10
41.87070910977793
 20
3.272825590878912
 30
0.0
 11
42.84373560536579
 21
4.245852086466765
 31
0.0
  0
LINE
  5
D421
330
D40A
100
AcDbEntity
  8
0
  6
CONTINUOUS
100
AcDbLine
 10
43.57899999995641
 20
7.001674108297943
 30
0.0
 11
44.99999999995498
 21
8.422674108296516
 31
0.0
  0
LINE
  5
D422
330
D40A
100
AcDbEntity
  8
0
  6
CONTINUOUS
100
AcDbLine
 10
43.57899999995641
 20
6.328154899217758
 30
0.0
 11
44.99999999995498
 21
7.749154899216329
 31
0.0
  0
LINE
  5
D423
330
D40A
100
AcDbEntity
  8
0
  6
CONTINUOUS
100
AcDbLine
 10
43.57899999995641
 20
5.654635690137571
 30
0.0
 11
44.99999999995498
 21
7.075635690136142
 31
0.0
  0
LINE
  5
D424
330
D40A
100
AcDbEntity
  8
0
  6
CONTINUOUS
100
AcDbLine
 10
43.57899999995641
 20
4.981116481057384
 30
0.0
 11
44.99999999995498
 21
6.402116481055955
 31
0.0
  0
LINE
  5
D425
330
D40A
100
AcDbEntity
  8
0
  6
CONTINUOUS
100
AcDbLine
 10
39.27140272797921
 20
-0.0000000000000009
 30
0.0
 11
40.02599999995994
 21
0.7545972719807246
 31
0.0
  0
LINE
  5
D426
330
D40A
100
AcDbEntity
  8
0
  6
CONTINUOUS
100
AcDbLine
 10
39.9449219370594
 20
-0.0000000000000009
 30
0.0
 11
40.02599999995994
 21
0.0810780629005379
 31
0.0
  0
LINE
  5
D427
330
D40A
100
AcDbEntity
  8
0
  6
CONTINUOUS
100
AcDbLine
 10
42.18817142235812
 20
2.916768694378905
 30
0.0
 11
43.16119791794597
 21
3.889795189966758
 31
0.0
  0
LINE
  5
D428
330
D40A
100
AcDbEntity
  8
0
  6
CONTINUOUS
100
AcDbLine
 10
42.50563373493829
 20
2.560711797878898
 30
0.0
 11
43.47866023052615
 21
3.533738293466751
 31
0.0
  0
LINE
  5
D429
330
D40A
100
AcDbEntity
  8
0
  6
CONTINUOUS
100
AcDbLine
 10
43.57899999995641
 20
4.307597271977198
 30
0.0
 11
44.99999999995498
 21
5.728597271975769
 31
0.0
  0
LINE
  5
D42A
330
D40A
100
AcDbEntity
  8
0
  6
CONTINUOUS
100
AcDbLine
 10
43.57899999995641
 20
3.634078062897011
 30
0.0
 11
44.99999999995498
 21
5.055078062895582
 31
0.0
  0
LINE
  5
D42B
330
D40A
100
AcDbEntity
  8
0
  6
CONTINUOUS
100
AcDbLine
 10
42.82309604751848
 20
2.204654901378891
 30
0.0
 11
44.99999999995498
 21
4.381558853815395
 31
0.0
  0
LINE
  5
D42C
330
D40A
100
AcDbEntity
  8
0
  6
CONTINUOUS
100
AcDbLine
 10
43.14055836009865
 20
1.848598004878885
 30
0.0
 11
44.99999999995498
 21
3.70803964473521
 31
0.0
  0
LINE
  5
D42D
330
D40A
100
AcDbEntity
  8
0
  6
CONTINUOUS
100
AcDbLine
 10
43.45802067267883
 20
1.492541108378878
 30
0.0
 11
44.99999999995498
 21
3.034520435655023
 31
0.0
  0
LINE
  5
D42E
330
D40A
100
AcDbEntity
  8
0
  6
CONTINUOUS
100
AcDbLine
 10
43.77548298525902
 20
1.136484211878871
 30
0.0
 11
44.99999999995498
 21
2.361001226574837
 31
0.0
  0
LINE
  5
D42F
330
D40A
100
AcDbEntity
  8
0
  6
CONTINUOUS
100
AcDbLine
 10
44.09294529783919
 20
0.7804273153788639
 30
0.0
 11
44.99999999995498
 21
1.687482017494649
 31
0.0
  0
LINE
  5
D430
330
D40A
100
AcDbEntity
  8
0
  6
CONTINUOUS
100
AcDbLine
 10
44.41040761041938
 20
0.4243704188788566
 30
0.0
 11
44.99999999995498
 21
1.013962808414463
 31
0.0
  0
LINE
  5
D431
330
D40A
100
AcDbEntity
  8
0
  6
CONTINUOUS
100
AcDbLine
 10
44.72786992299955
 20
0.0683135223788494
 30
0.0
 11
44.99999999995498
 21
0.340443599334276
 31
0.0
  0
LINE
  5
D432
330
D40A
100
AcDbEntity
  8
0
  6
CONTINUOUS
100
AcDbLine
 10
39.12223903415696
 20
-0.0000000000000009
 30
0.0
 11
38.60499999996136
 21
0.5172390341955961
 31
0.0
  0
LINE
  5
D433
330
D40A
100
AcDbEntity
  8
0
  6
CONTINUOUS
100
AcDbLine
 10
39.79575824323715
 20
-0.0000000000000009
 30
0.0
 11
38.60499999996136
 21
1.190758243275783
 31
0.0
  0
LINE
  5
D434
330
D40A
100
AcDbEntity
  8
0
  6
CONTINUOUS
100
AcDbLine
 10
40.02599999995994
 20
0.443277452357397
 30
0.0
 11
38.60499999996136
 21
1.864277452355969
 31
0.0
  0
LINE
  5
D435
330
D40A
100
AcDbEntity
  8
0
  6
CONTINUOUS
100
AcDbLine
 10
40.02599999995994
 20
1.116796661437583
 30
0.0
 11
38.60499999996136
 21
2.537796661436155
 31
0.0
  0
LINE
  5
D436
330
D40A
100
AcDbEntity
  8
0
  6
CONTINUOUS
100
AcDbLine
 10
40.02599999995994
 20
1.79031587051777
 30
0.0
 11
38.60499999996136
 21
3.211315870516341
 31
0.0
  0
LINE
  5
D437
330
D40A
100
AcDbEntity
  8
0
  6
CONTINUOUS
100
AcDbLine
 10
40.02599999995994
 20
2.463835079597956
 30
0.0
 11
38.60499999996136
 21
3.884835079596527
 31
0.0
  0
LINE
  5
D438
330
D40A
100
AcDbEntity
  8
0
  6
CONTINUOUS
100
AcDbLine
 10
40.02599999995994
 20
3.137354288678143
 30
0.0
 11
38.60499999996136
 21
4.558354288676714
 31
0.0
  0
LINE
  5
D439
330
D40A
100
AcDbEntity
  8
0
  6
CONTINUOUS
100
AcDbLine
 10
40.02599999995994
 20
3.810873497758329
 30
0.0
 11
38.60499999996136
 21
5.2318734977569
 31
0.0
  0
LINE
  5
D43A
330
D40A
100
AcDbEntity
  8
0
  6
CONTINUOUS
100
AcDbLine
 10
40.02599999995994
 20
4.484392706838515
 30
0.0
 11
38.60499999996136
 21
5.905392706837086
 31
0.0
  0
LINE
  5
D43B
330
D40A
100
AcDbEntity
  8
0
  6
CONTINUOUS
100
AcDbLine
 10
44.99999999995498
 20
0.183911915923658
 30
0.0
 11
41.53858364506288
 21
3.64532827081576
 31
0.0
  0
LINE
  5
D43C
330
D40A
100
AcDbEntity
  8
0
  6
CONTINUOUS
100
AcDbLine
 10
40.02599999995994
 20
5.157911915918703
 30
0.0
 11
38.60499999996136
 21
6.578911915917274
 31
0.0
  0
LINE
  5
D43D
330
D40A
100
AcDbEntity
  8
0
  6
CONTINUOUS
100
AcDbLine
 10
44.99999999995498
 20
0.8574311250038447
 30
0.0
 11
38.60499999996136
 21
7.25243112499746
 31
0.0
  0
LINE
  5
D43E
330
D40A
100
AcDbEntity
  8
0
  6
CONTINUOUS
100
AcDbLine
 10
44.99999999995498
 20
1.530950334084031
 30
0.0
 11
38.60499999996136
 21
7.925950334077647
 31
0.0
  0
LINE
  5
D43F
330
D40A
100
AcDbEntity
  8
0
  6
CONTINUOUS
100
AcDbLine
 10
44.99999999995498
 20
2.204469543164218
 30
0.0
 11
43.57899999995641
 21
3.625469543162789
 31
0.0
  0
LINE
  5
D440
330
D40A
100
AcDbEntity
  8
0
  6
CONTINUOUS
100
AcDbLine
 10
41.89876730984767
 20
5.305702233271528
 30
0.0
 11
38.60499999996136
 21
8.599469543157834
 31
0.0
  0
LINE
  5
D441
330
D40A
100
AcDbEntity
  8
0
  6
CONTINUOUS
100
AcDbLine
 10
44.99999999995498
 20
2.877988752244405
 30
0.0
 11
43.57899999995641
 21
4.298988752242975
 31
0.0
  0
LINE
  5
D442
330
D40A
100
AcDbEntity
  8
0
  6
CONTINUOUS
100
AcDbLine
 10
44.99999999995498
 20
3.551507961324591
 30
0.0
 11
43.57899999995641
 21
4.972507961323163
 31
0.0
  0
LINE
  5
D443
330
D40A
100
AcDbEntity
  8
0
  6
CONTINUOUS
100
AcDbLine
 10
44.99999999995498
 20
4.225027170404777
 30
0.0
 11
43.57899999995641
 21
5.646027170403348
 31
0.0
  0
LINE
  5
D444
330
D40A
100
AcDbEntity
  8
0
  6
CONTINUOUS
100
AcDbLine
 10
44.99999999995498
 20
4.898546379484964
 30
0.0
 11
43.57899999995641
 21
6.319546379483535
 31
0.0
  0
LINE
  5
D445
330
D40A
100
AcDbEntity
  8
0
  6
CONTINUOUS
100
AcDbLine
 10
44.99999999995498
 20
5.572065588565151
 30
0.0
 11
43.57899999995641
 21
6.993065588563722
 31
0.0
  0
LINE
  5
D446
330
D40A
100
AcDbEntity
  8
0
  6
CONTINUOUS
100
AcDbLine
 10
44.99999999995498
 20
6.245584797645336
 30
0.0
 11
43.57899999995641
 21
7.666584797643908
 31
0.0
  0
LINE
  5
D447
330
D40A
100
AcDbEntity
  8
0
  6
CONTINUOUS
100
AcDbLine
 10
44.99999999995498
 20
6.919104006725522
 30
0.0
 11
43.57899999995641
 21
8.340104006724093
 31
0.0
  0
LINE
  5
D448
330
D40A
100
AcDbEntity
  8
0
  6
CONTINUOUS
100
AcDbLine
 10
44.99999999995498
 20
7.592623215805709
 30
0.0
 11
43.82952321576943
 21
8.763099999991255
 31
0.0
  0
LINE
  5
D449
330
D40A
100
AcDbEntity
  8
0
  6
CONTINUOUS
100
AcDbLine
 10
44.99999999995498
 20
8.266142424885896
 30
0.0
 11
44.50304242484962
 21
8.763099999991255
 31
0.0
  0
ENDBLK
  5
D473
330
D40A
100
AcDbEntity
  8
0
100
AcDbBlockEnd
  0
BLOCK
  5
D474
330
D44A
100
AcDbEntity
  8
0
100
AcDbBlockBegin
  2
*X45
 70
     1
 10
0.0
 20
0.0
 30
0.0
  3
*X45
  1

  0
LINE
  5
D44B
330
D44A
100
AcDbEntity
  8
0
  6
CONTINUOUS
100
AcDbLine
 10
0.0
 20
8.548461116714023
 30
0.0
 11
0.2146388832772324
 21
8.763099999991255
 31
0.0
  0
LINE
  5
D44C
330
D44A
100
AcDbEntity
  8
0
  6
CONTINUOUS
100
AcDbLine
 10
-0.0000000000000002
 20
7.874941907633837
 30
0.0
 11
0.8881580923574184
 21
8.763099999991255
 31
0.0
  0
LINE
  5
D44D
330
D44A
100
AcDbEntity
  8
0
  6
CONTINUOUS
100
AcDbLine
 10
0.0
 20
7.20142269855365
 30
0.0
 11
1.420999999998572
 21
8.622422698552223
 31
0.0
  0
LINE
  5
D44E
330
D44A
100
AcDbEntity
  8
0
  6
CONTINUOUS
100
AcDbLine
 10
-0.0000000000000001
 20
6.527903489473465
 30
0.0
 11
1.420999999998571
 21
7.948903489472036
 31
0.0
  0
LINE
  5
D44F
330
D44A
100
AcDbEntity
  8
0
  6
CONTINUOUS
100
AcDbLine
 10
-0.0000000000000002
 20
5.854384280393278
 30
0.0
 11
1.420999999998571
 21
7.275384280391849
 31
0.0
  0
LINE
  5
D450
330
D44A
100
AcDbEntity
  8
0
  6
CONTINUOUS
100
AcDbLine
 10
-0.0000000000000002
 20
5.180865071313091
 30
0.0
 11
1.420999999998571
 21
6.601865071311663
 31
0.0
  0
LINE
  5
D451
330
D44A
100
AcDbEntity
  8
0
  6
CONTINUOUS
100
AcDbLine
 10
0.0
 20
4.507345862232905
 30
0.0
 11
1.420999999998571
 21
5.928345862231477
 31
0.0
  0
LINE
  5
D452
330
D44A
100
AcDbEntity
  8
0
  6
CONTINUOUS
100
AcDbLine
 10
-0.0000000000000003
 20
3.833826653152718
 30
0.0
 11
1.420999999998571
 21
5.25482665315129
 31
0.0
  0
LINE
  5
D453
330
D44A
100
AcDbEntity
  8
0
  6
CONTINUOUS
100
AcDbLine
 10
-0.0000000000000002
 20
3.160307444072532
 30
0.0
 11
1.420999999998571
 21
4.581307444071103
 31
0.0
  0
LINE
  5
D454
330
D44A
100
AcDbEntity
  8
0
  6
CONTINUOUS
100
AcDbLine
 10
-0.0000000000000001
 20
2.486788234992345
 30
0.0
 11
1.420999999998571
 21
3.907788234990917
 31
0.0
  0
LINE
  5
D455
330
D44A
100
AcDbEntity
  8
0
  6
CONTINUOUS
100
AcDbLine
 10
-0.0000000000000006
 20
1.813269025912159
 30
0.0
 11
1.420999999998571
 21
3.234269025910731
 31
0.0
  0
LINE
  5
D456
330
D44A
100
AcDbEntity
  8
0
  6
CONTINUOUS
100
AcDbLine
 10
0.0
 20
1.139749816831973
 30
0.0
 11
1.420999999998571
 21
2.560749816830544
 31
0.0
  0
LINE
  5
D457
330
D44A
100
AcDbEntity
  8
0
  6
CONTINUOUS
100
AcDbLine
 10
0.0000000000000002
 20
0.466230607751787
 30
0.0
 11
1.420999999998571
 21
1.887230607750358
 31
0.0
  0
LINE
  5
D458
330
D44A
100
AcDbEntity
  8
0
  6
CONTINUOUS
100
AcDbLine
 10
0.2072886013284003
 20
-0.0000000000000009
 30
0.0
 11
1.420999999998571
 21
1.213711398670171
 31
0.0
  0
LINE
  5
D459
330
D44A
100
AcDbEntity
  8
0
  6
CONTINUOUS
100
AcDbLine
 10
0.8808078104085864
 20
-0.0000000000000009
 30
0.0
 11
1.420999999998571
 21
0.5401921895899839
 31
0.0
  0
LINE
  5
D45A
330
D44A
100
AcDbEntity
  8
0
  6
CONTINUOUS
100
AcDbLine
 10
0.0581249075061505
 20
-0.0000000000000009
 30
0.0
 11
-0.0000000000000002
 21
0.0581249075061496
 31
0.0
  0
LINE
  5
D45B
330
D44A
100
AcDbEntity
  8
0
  6
CONTINUOUS
100
AcDbLine
 10
0.7316441165863372
 20
-0.0000000000000009
 30
0.0
 11
-0.0000000000000002
 21
0.7316441165863363
 31
0.0
  0
LINE
  5
D45C
330
D44A
100
AcDbEntity
  8
0
  6
CONTINUOUS
100
AcDbLine
 10
1.405163325666523
 20
-0.0000000000000009
 30
0.0
 11
-0.0000000000000002
 21
1.405163325666523
 31
0.0
  0
LINE
  5
D45D
330
D44A
100
AcDbEntity
  8
0
  6
CONTINUOUS
100
AcDbLine
 10
1.420999999998572
 20
0.6576825347481381
 30
0.0
 11
-0.0000000000000001
 21
2.07868253474671
 31
0.0
  0
LINE
  5
D45E
330
D44A
100
AcDbEntity
  8
0
  6
CONTINUOUS
100
AcDbLine
 10
1.420999999998571
 20
1.331201743828324
 30
0.0
 11
-0.0000000000000001
 21
2.752201743826896
 31
0.0
  0
LINE
  5
D45F
330
D44A
100
AcDbEntity
  8
0
  6
CONTINUOUS
100
AcDbLine
 10
1.420999999998571
 20
2.004720952908511
 30
0.0
 11
-0.0000000000000002
 21
3.425720952907082
 31
0.0
  0
LINE
  5
D460
330
D44A
100
AcDbEntity
  8
0
  6
CONTINUOUS
100
AcDbLine
 10
1.420999999998571
 20
2.678240161988697
 30
0.0
 11
-0.0000000000000001
 21
4.099240161987269
 31
0.0
  0
LINE
  5
D461
330
D44A
100
AcDbEntity
  8
0
  6
CONTINUOUS
100
AcDbLine
 10
1.420999999998572
 20
3.351759371068884
 30
0.0
 11
0.0
 21
4.772759371067455
 31
0.0
  0
LINE
  5
D462
330
D44A
100
AcDbEntity
  8
0
  6
CONTINUOUS
100
AcDbLine
 10
1.420999999998571
 20
4.02527858014907
 30
0.0
 11
-0.0000000000000003
 21
5.446278580147642
 31
0.0
  0
LINE
  5
D463
330
D44A
100
AcDbEntity
  8
0
  6
CONTINUOUS
100
AcDbLine
 10
1.420999999998571
 20
4.698797789229257
 30
0.0
 11
0.0
 21
6.119797789227828
 31
0.0
  0
LINE
  5
D464
330
D44A
100
AcDbEntity
  8
0
  6
CONTINUOUS
100
AcDbLine
 10
1.420999999998571
 20
5.372316998309444
 30
0.0
 11
-0.0000000000000001
 21
6.793316998308015
 31
0.0
  0
LINE
  5
D465
330
D44A
100
AcDbEntity
  8
0
  6
CONTINUOUS
100
AcDbLine
 10
1.420999999998572
 20
6.045836207389629
 30
0.0
 11
-0.0000000000000004
 21
7.466836207388202
 31
0.0
  0
LINE
  5
D466
330
D44A
100
AcDbEntity
  8
0
  6
CONTINUOUS
100
AcDbLine
 10
1.420999999998571
 20
6.719355416469816
 30
0.0
 11
0.0
 21
8.140355416468388
 31
0.0
  0
LINE
  5
D467
330
D44A
100
AcDbEntity
  8
0
  6
CONTINUOUS
100
AcDbLine
 10
1.420999999998571
 20
7.392874625550003
 30
0.0
 11
0.0507746255573185
 21
8.763099999991255
 31
0.0
  0
LINE
  5
D468
330
D44A
100
AcDbEntity
  8
0
  6
CONTINUOUS
100
AcDbLine
 10
1.420999999998571
 20
8.06639383463019
 30
0.0
 11
0.7242938346375052
 21
8.763099999991255
 31
0.0
  0
LINE
  5
D469
330
D44A
100
AcDbEntity
  8
0
  6
CONTINUOUS
100
AcDbLine
 10
1.420999999998571
 20
8.739913043710375
 30
0.0
 11
1.397813043717691
 21
8.763099999991255
 31
0.0
  0
ENDBLK
  5
D475
330
D44A
100
AcDbEntity
  8
0
100
AcDbBlockEnd
  0
ENDSEC
  0
SECTION
  2
ENTITIES
  0
LINE
  5
AE2F
330
18
100
AcDbEntity
  8
01
  6
BYBLOCK
100
AcDbLine
 10
5135.268724362464
 20
-52.90226996795627
 30
0.0000000000563712
 11
5289.023104517495
 21
-52.90226996795627
 31
0.0000000000563712
  0
LINE
  5
AE37
330
18
100
AcDbEntity
  8
01
100
AcDbLine
 10
5036.267840180404
 20
-182.9009516538244
 30
0.0000000000563712
 11
5036.267840180404
 21
-372.9009516538244
 31
0.0000000000563712
  0
LINE
  5
AE3A
330
18
100
AcDbEntity
  8
01
100
AcDbLine
 10
5186.267840180404
 20
-272.9009516538244
 30
0.0000000000563712
 11
5186.267840180404
 21
-332.9009516538244
 31
0.0000000000563712
  0
LINE
  5
B873
330
18
100
AcDbEntity
  8
01
100
AcDbLine
 10
5130.267840180404
 20
-224.9022699669276
 30
0.0000000000563712
 11
5144.267840180404
 21
-224.9022699669276
 31
0.0000000000563712
  0
LINE
  5
B874
330
18
100
AcDbEntity
  8
01
100
AcDbLine
 10
5135.268724362464
 20
-12.90226996795627
 30
0.0000000000563712
 11
5289.023104517497
 21
-12.90226996795627
 31
0.0000000000563712
  0
LINE
  5
B875
330
18
100
AcDbEntity
  8
01
  6
BYBLOCK
100
AcDbLine
 10
5135.268724362464
 20
-12.90226996795627
 30
0.0000000000563712
 11
5135.268724362464
 21
-52.90226996795627
 31
0.0000000000563712
  0
LINE
  5
B879
330
18
100
AcDbEntity
  8
01
100
AcDbLine
 10
5186.267956520149
 20
-17.90226996898491
 30
0.0000000000563712
 11
5186.267956520149
 21
13.01581022026403
 31
0.0000000000563712
  0
LINE
  5
B87D
330
18
100
AcDbEntity
  8
01
  6
BYBLOCK
100
AcDbLine
 10
5136.767840180404
 20
-217.0022699669275
 30
0.0000000000563712
 11
5136.767840180404
 21
-346.8022699669275
 31
0.0000000000563712
  0
LINE
  5
B87E
330
18
100
AcDbEntity
  8
01
  6
BYBLOCK
100
AcDbLine
 10
5136.767840180404
 20
-345.9022699669276
 30
0.0000000000563712
 11
5139.267840180404
 21
-345.9022699669276
 31
0.0000000000563712
  0
LINE
  5
B87F
330
18
100
AcDbEntity
  8
01
  6
BYBLOCK
100
AcDbLine
 10
5139.267840180404
 20
-345.9022699669276
 30
0.0000000000563712
 11
5139.267840180404
 21
-329.3993262417753
 31
0.0000000000563712
  0
LINE
  5
B880
330
18
100
AcDbEntity
  8
01
  6
BYBLOCK
100
AcDbLine
 10
5135.267840180404
 20
-217.0022699669275
 30
0.0000000000563712
 11
5135.267840180404
 21
-346.8022699669275
 31
0.0000000000563712
  0
LINE
  5
B881
330
18
100
AcDbEntity
  8
01
  6
BYBLOCK
100
AcDbLine
 10
5135.267840180404
 20
-346.8022699669275
 30
0.0000000000563712
 11
5136.767840180404
 21
-346.8022699669275
 31
0.0000000000563712
  0
LINE
  5
B882
330
18
100
AcDbEntity
  8
01
  6
BYBLOCK
100
AcDbLine
 10
5136.767840180404
 20
-217.9022699669276
 30
0.0000000000563712
 11
5139.267840180404
 21
-217.9022699669276
 31
0.0000000000563712
  0
LINE
  5
B883
330
18
100
AcDbEntity
  8
01
  6
BYBLOCK
100
AcDbLine
 10
5135.267840180404
 20
-217.0022699669275
 30
0.0000000000563712
 11
5136.767840180404
 21
-217.0022699669275
 31
0.0000000000563712
  0
LINE
  5
B884
330
18
100
AcDbEntity
  8
01
  6
BYBLOCK
100
AcDbLine
 10
5136.767840180404
 20
-241.9022699669276
 30
0.0000000000563712
 11
5137.967840180403
 21
-241.9022699669276
 31
0.0000000000563712
  0
ARC
  5
B885
330
18
100
AcDbEntity
  8
01
  6
BYBLOCK
100
AcDbCircle
 10
5203.267840180404
 20
-245.9022699669276
 30
0.0000000000563712
 40
1.0
100
AcDbArc
 50
0.0
 51
90.0
  0
LINE
  5
B886
330
18
100
AcDbEntity
  8
01
  6
BYBLOCK
100
AcDbLine
 10
5137.967840180403
 20
-236.2022699669274
 30
0.0000000000563712
 11
5137.967840180403
 21
-327.6022699669275
 31
0.0000000000563712
  0
LINE
  5
B887
330
18
100
AcDbEntity
  8
01
  6
BYBLOCK
100
AcDbLine
 10
5138.067840180403
 20
-345.9022699669276
 30
0.0000000000563712
 11
5138.067840180403
 21
-329.3022699669275
 31
0.0000000000563712
  0
LINE
  5
B888
330
18
100
AcDbEntity
  8
01
  6
BYBLOCK
100
AcDbLine
 10
5138.067840180403
 20
-329.3022699669275
 30
0.0000000000563712
 11
5137.11931204298
 21
-328.3537418295036
 31
0.0000000000563712
  0
LINE
  5
B889
330
18
100
AcDbEntity
  8
01
  6
BYBLOCK
100
AcDbLine
 10
5138.916368317827
 20
-328.5507981043513
 30
0.0000000000563712
 11
5137.967840180403
 21
-327.6022699669275
 31
0.0000000000563712
  0
ARC
  5
B88A
330
18
100
AcDbEntity
  8
01
  6
BYBLOCK
100
AcDbCircle
 10
5138.067840180403
 20
-329.3993262417753
 30
0.0000000000563712
 40
1.2
100
AcDbArc
 50
0.0
 51
45.00000000004836
  0
ARC
  5
B88B
330
18
100
AcDbEntity
  8
01
  6
BYBLOCK
100
AcDbCircle
 10
5137.967840180403
 20
-327.5052136920797
 30
0.0000000000563712
 40
1.2
100
AcDbArc
 50
180.0
 51
225.0000000000484
  0
LINE
  5
B88C
330
18
100
AcDbEntity
  8
01
  6
BYBLOCK
100
AcDbLine
 10
5139.267840180404
 20
-217.9022699669276
 30
0.0000000000563712
 11
5139.267840180404
 21
-234.4052136920798
 31
0.0000000000563712
  0
LINE
  5
B88D
330
18
100
AcDbEntity
  8
01
  6
BYBLOCK
100
AcDbLine
 10
5138.067840180403
 20
-217.9022699669276
 30
0.0000000000563712
 11
5138.067840180403
 21
-234.5022699669275
 31
0.0000000000563712
  0
LINE
  5
B88E
330
18
100
AcDbEntity
  8
01
  6
BYBLOCK
100
AcDbLine
 10
5138.067840180403
 20
-234.5022699669275
 30
0.0000000000563712
 11
5137.11931204298
 21
-235.4507981043514
 31
0.0000000000563712
  0
LINE
  5
B88F
330
18
100
AcDbEntity
  8
01
  6
BYBLOCK
100
AcDbLine
 10
5138.916368317827
 20
-235.2537418295037
 30
0.0000000000563712
 11
5137.967840180403
 21
-236.2022699669276
 31
0.0000000000563712
  0
ARC
  5
B890
330
18
100
AcDbEntity
  8
01
  6
BYBLOCK
100
AcDbCircle
 10
5138.067840180403
 20
-234.4052136920798
 30
0.0000000000563712
 40
1.2
100
AcDbArc
 50
314.9999999999516
 51
0.0
  0
ARC
  5
B891
330
18
100
AcDbEntity
  8
01
  6
BYBLOCK
100
AcDbCircle
 10
5137.967840180403
 20
-236.2993262417754
 30
0.0000000000563712
 40
1.2
100
AcDbArc
 50
134.9999999999516
 51
180.0
  0
CIRCLE
  5
B892
330
18
100
AcDbEntity
  8
01
  6
BYBLOCK
100
AcDbCircle
 10
5186.267840180404
 20
-252.9022699669276
 30
0.0000000000563712
 40
4.75
  0
LINE
  5
B893
330
18
100
AcDbEntity
  8
01
  6
BYBLOCK
100
AcDbLine
 10
5137.967840180403
 20
-318.9022699669279
 30
0.0000000000563712
 11
5203.267840180404
 21
-318.9022699669276
 31
0.0000000000563712
  0
ARC
  5
B894
330
18
100
AcDbEntity
  8
01
  6
BYBLOCK
100
AcDbCircle
 10
5138.368724362464
 20
-29.34101942495636
 30
0.0000000000563712
 40
1.6
100
AcDbArc
 50
115.9444797720213
 51
180.0
  0
ARC
  5
B895
330
18
100
AcDbEntity
  8
01
  6
BYBLOCK
100
AcDbCircle
 10
5138.368724362464
 20
-36.46352051095619
 30
0.0000000000563712
 40
1.6
100
AcDbArc
 50
180.0
 51
244.0555202279787
  0
ARC
  5
B896
330
18
100
AcDbEntity
  8
01
  6
BYBLOCK
100
AcDbCircle
 10
5137.668724362464
 20
-37.74101942495622
 30
0.0000000000563712
 40
1.6
100
AcDbArc
 50
0.0
 51
64.05552022797873
  0
ARC
  5
B897
330
18
100
AcDbEntity
  8
01
  6
BYBLOCK
100
AcDbCircle
 10
5137.668724362464
 20
-28.06352051095632
 30
0.0000000000563712
 40
1.6
100
AcDbArc
 50
295.9444797720212
 51
0.0
  0
LINE
  5
B898
330
18
100
AcDbEntity
  8
01
  6
BYBLOCK
100
AcDbLine
 10
5139.268724362464
 20
-28.06352051095632
 30
0.0000000000563712
 11
5139.268724362464
 21
-20.70226996795623
 31
0.0000000000563712
  0
LINE
  5
B899
330
18
100
AcDbEntity
  8
01
  6
BYBLOCK
100
AcDbLine
 10
5138.368724362464
 20
-36.30226996795636
 30
0.0000000000563712
 11
5138.368724362464
 21
-29.50226996795618
 31
0.0000000000563712
  0
LINE
  5
B89A
330
18
100
AcDbEntity
  8
01
  6
BYBLOCK
100
AcDbLine
 10
5139.268724362464
 20
-44.90226996795627
 30
0.0000000000563712
 11
5139.268724362464
 21
-37.74101942495622
 31
0.0000000000563712
  0
LINE
  5
B89B
330
18
100
AcDbEntity
  8
01
  6
BYBLOCK
100
AcDbLine
 10
5137.668724362464
 20
-27.90226996795627
 30
0.0000000000563712
 11
5137.668724362464
 21
-20.70226996795623
 31
0.0000000000563712
  0
LINE
  5
B89C
330
18
100
AcDbEntity
  8
01
  6
BYBLOCK
100
AcDbLine
 10
5137.668724362464
 20
-37.90226996795627
 30
0.0000000000563712
 11
5137.668724362464
 21
-45.00226996795618
 31
0.0000000000563712
  0
ARC
  5
B89D
330
18
100
AcDbEntity
  8
01
  6
BYBLOCK
100
AcDbCircle
 10
5202.668724362464
 20
-25.00226996795618
 30
0.0000000000563712
 40
1.6
100
AcDbArc
 50
0.0
 51
90.0
  0
LINE
  5
B89E
330
18
100
AcDbEntity
  8
01
  6
BYBLOCK
100
AcDbLine
 10
5136.768724362464
 20
-20.50226996795618
 30
0.0000000000563712
 11
5136.768724362464
 21
-45.30226996795614
 31
0.0000000000563712
  0
LINE
  5
B89F
330
18
100
AcDbEntity
  8
01
  6
BYBLOCK
100
AcDbLine
 10
5202.668724362464
 20
-23.40226996795627
 30
0.0000000000563712
 11
5139.268724362464
 21
-23.40226996795627
 31
0.0000000000563712
  0
LINE
  5
B8A0
330
18
100
AcDbEntity
  8
01
  6
BYBLOCK
100
AcDbLine
 10
5202.668724362464
 20
-40.60226996795632
 30
0.0000000000563712
 11
5202.668724362464
 21
-23.40226996795627
 31
0.0000000000563712
  0
LINE
  5
B8A1
330
18
100
AcDbEntity
  8
01
  6
BYBLOCK
100
AcDbLine
 10
5204.268724362464
 20
-42.20226996795623
 30
0.0000000000563712
 11
5204.268724362464
 21
-25.00226996795618
 31
0.0000000000563712
  0
LINE
  5
B8A2
330
18
100
AcDbEntity
  8
01
  6
BYBLOCK
100
AcDbLine
 10
5136.768724362464
 20
-20.70226996795623
 30
0.0000000000563712
 11
5139.268724362464
 21
-20.70226996795623
 31
0.0000000000563712
  0
LINE
  5
B8A3
330
18
100
AcDbEntity
  8
01
  6
BYBLOCK
100
AcDbLine
 10
5139.268724362464
 20
-44.90226996795627
 30
0.0000000000563712
 11
5137.668724362464
 21
-44.90226996795627
 31
0.0000000000563712
  0
LINE
  5
B8A4
330
18
100
AcDbEntity
  8
01
  6
BYBLOCK
100
AcDbLine
 10
5137.668724362464
 20
-45.00226996795618
 30
0.0000000000563712
 11
5136.768724362464
 21
-45.00226996795618
 31
0.0000000000563712
  0
ARC
  5
B8A5
330
18
100
AcDbEntity
  8
01
  6
BYBLOCK
100
AcDbCircle
 10
5133.969319289863
 20
-38.60226996795564
 30
0.0000000000563712
 40
0.3000000000000051
100
AcDbArc
 50
232.8678058729399
 51
270.0
  0
LINE
  5
B8A6
330
18
100
AcDbEntity
  8
01
  6
BYBLOCK
100
AcDbLine
 10
5134.768724362464
 20
-38.90226996795559
 30
0.0000000000563712
 11
5133.969319289863
 21
-38.90226996795559
 31
0.0000000000563712
  0
LINE
  5
B8A7
330
18
100
AcDbEntity
  8
01
  6
BYBLOCK
100
AcDbLine
 10
5124.368724362464
 20
-29.22928110175144
 30
0.0000000000563712
 11
5124.368724362464
 21
-29.39990315730051
 31
0.0000000000563712
  0
ARC
  5
B8A8
330
18
100
AcDbEntity
  8
01
  6
BYBLOCK
100
AcDbCircle
 10
5124.668724362464
 20
-29.39990315730051
 30
0.0000000000563712
 40
0.3
100
AcDbArc
 50
180.0
 51
217.740529562962
  0
ARC
  5
B8A9
330
18
100
AcDbEntity
  8
01
  6
BYBLOCK
100
AcDbCircle
 10
5163.971024961747
 20
1.020799786640282
 30
0.0000000000563712
 40
50.00000000000002
100
AcDbArc
 50
217.7405295629796
 51
232.8678058729912
  0
LINE
  5
B8AA
330
18
100
AcDbEntity
  8
01
  6
BYBLOCK
100
AcDbLine
 10
5124.168724362464
 20
-28.10226996795609
 30
0.0000000000563712
 11
5124.168724362464
 21
-27.40226996795627
 31
0.0000000000563712
  0
ARC
  5
B8AB
330
18
100
AcDbEntity
  8
01
  6
BYBLOCK
100
AcDbCircle
 10
5124.668724362464
 20
-27.40226996795627
 30
0.0000000000563712
 40
0.5000000000000142
100
AcDbArc
 50
90.0
 51
180.0
  0
LINE
  5
B8AC
330
18
100
AcDbEntity
  8
01
  6
BYBLOCK
100
AcDbLine
 10
5134.768724362464
 20
-26.90226996795627
 30
0.0000000000563712
 11
5124.668724362464
 21
-26.90226996795627
 31
0.0000000000563712
  0
LINE
  5
B8AD
330
18
100
AcDbEntity
  8
01
  6
BYBLOCK
100
AcDbLine
 10
5124.168724362464
 20
-28.48094962439654
 30
0.0000000000563712
 11
5124.168724362464
 21
-28.10226996795609
 31
0.0000000000563712
  0
SPLINE
  5
B8AE
330
18
100
AcDbEntity
  8
01
  6
BYBLOCK
100
AcDbSpline
210
0.0
220
0.0
230
1.0
 70
     8
 71
     3
 72
     8
 73
     4
 74
     0
 42
0.0000000001
 43
0.0000000001
 40
0.0
 40
0.0
 40
0.0
 40
0.0
 40
1.0
 40
1.0
 40
1.0
 40
1.0
 10
5124.194456903728
 20
-28.75760005384564
 30
0.0000000000563712
 10
5124.176989017617
 20
-28.66451385796518
 30
0.0000000000563712
 10
5124.168724362464
 20
-28.57124784707366
 30
0.0000000000563712
 10
5124.168724362464
 20
-28.48094962439609
 30
0.0000000000563712
  0
ARC
  5
B8AF
330
18
100
AcDbEntity
  8
01
  6
BYBLOCK
100
AcDbCircle
 10
5125.668724362464
 20
-28.48094962439654
 30
0.0000000000563712
 40
1.499999999999998
100
AcDbArc
 50
190.628112987605
 51
225.000000000046
  0
LINE
  5
B8B0
330
18
100
AcDbEntity
  8
01
  6
BYBLOCK
100
AcDbLine
 10
5135.268724362464
 20
-26.05226996795614
 30
0.0000000000563712
 11
5134.768724362464
 21
-26.05226996795614
 31
0.0000000000563712
  0
LINE
  5
B8B1
330
18
100
AcDbEntity
  8
01
  6
BYBLOCK
100
AcDbLine
 10
5134.768724362464
 20
-39.75226996795618
 30
0.0000000000563712
 11
5135.268724362464
 21
-39.75226996795618
 31
0.0000000000563712
  0
LINE
  5
B8B2
330
18
100
AcDbEntity
  8
01
  6
BYBLOCK
100
AcDbLine
 10
5134.768724362464
 20
-39.75226996795618
 30
0.0000000000563712
 11
5134.768724362464
 21
-26.05226996795614
 31
0.0000000000563712
  0
LINE
  5
B8B3
330
18
100
AcDbEntity
  8
01
  6
BYBLOCK
100
AcDbLine
 10
5135.268724362464
 20
-20.50226996795618
 30
0.0000000000563712
 11
5136.768724362464
 21
-20.50226996795618
 31
0.0000000000563712
  0
LINE
  5
B8B4
330
18
100
AcDbEntity
  8
01
  6
BYBLOCK
100
AcDbLine
 10
5135.268724362464
 20
-45.30226996795614
 30
0.0000000000563712
 11
5136.768724362464
 21
-45.30226996795614
 31
0.0000000000563712
  0
LINE
  5
B8B5
330
18
100
AcDbEntity
  8
01
  6
BYBLOCK
100
AcDbLine
 10
5135.268724362464
 20
-45.30226996795614
 30
0.0000000000563712
 11
5135.268724362464
 21
-20.50226996795618
 31
0.0000000000563712
  0
LINE
  5
B8B6
330
18
100
AcDbEntity
  8
01
  6
BYBLOCK
100
AcDbLine
 10
5204.268724362464
 20
-40.60226996795632
 30
0.0000000000563712
 11
5139.268724362464
 21
-40.60226996795632
 31
0.0000000000563712
  0
LINE
  5
B8B7
330
18
100
AcDbEntity
  8
01
  6
BYBLOCK
100
AcDbLine
 10
5204.268724362464
 20
-42.20226996795623
 30
0.0000000000563712
 11
5153.868724362464
 21
-42.20226996795623
 31
0.0000000000563712
  0
LINE
  5
B8B8
330
18
100
AcDbEntity
  8
01
  6
BYBLOCK
100
AcDbLine
 10
5156.705982662666
 20
-42.20226996795623
 30
0.0000000000563712
 11
5139.268724362464
 21
-42.20226996795623
 31
0.0000000000563712
  0
LINE
  5
B8B9
330
18
100
AcDbEntity
  8
01
  6
BYBLOCK
100
AcDbLine
 10
5133.822277753057
 20
-38.75582335854961
 30
0.0000000000563712
 11
5124.608064190683
 21
-29.54160979617654
 31
0.0000000000563712
  0
ARC
  5
B8BA
330
18
100
AcDbEntity
  8
01
  6
BYBLOCK
100
AcDbCircle
 10
5134.17583114365
 20
-38.40226996795627
 30
0.0000000000563712
 40
0.5
100
AcDbArc
 50
224.9999999999908
 51
270.0
  0
LINE
  5
B8BB
330
18
100
AcDbEntity
  8
01
  6
BYBLOCK
100
AcDbLine
 10
5134.768724362464
 20
-38.90226996795627
 30
0.0000000000563712
 11
5134.17583114365
 21
-38.90226996795627
 31
0.0000000000563712
  0
LINE
  5
B8BD
330
18
100
AcDbEntity
  8
01
  6
BYBLOCK
100
AcDbLine
 10
5182.661595596352
 20
-252.9022699669276
 30
0.0000000000563712
 11
5186.267840180404
 21
-249.2960253828762
 31
0.0000000000563712
  0
LINE
  5
B8BE
330
18
100
AcDbEntity
  8
01
  6
BYBLOCK
100
AcDbLine
 10
5189.874084764455
 20
-252.9022699669276
 30
0.0000000000563712
 11
5186.267840180404
 21
-249.2960253828762
 31
0.0000000000563712
  0
LINE
  5
B8BF
330
18
100
AcDbEntity
  8
01
  6
BYBLOCK
100
AcDbLine
 10
5182.661595596352
 20
-252.9022699669276
 30
0.0000000000563712
 11
5186.267840180404
 21
-256.5085145509788
 31
0.0000000000563712
  0
LINE
  5
B8C0
330
18
100
AcDbEntity
  8
01
  6
BYBLOCK
100
AcDbLine
 10
5189.874084764455
 20
-252.9022699669276
 30
0.0000000000563712
 11
5186.267840180404
 21
-256.5085145509788
 31
0.0000000000563712
  0
LINE
  5
B8C1
330
18
100
AcDbEntity
  8
01
  6
BYBLOCK
100
AcDbLine
 10
5124.267840180404
 20
-271.8705996999115
 30
0.0000000000563712
 11
5124.267840180404
 21
-289.9339402339174
 31
0.0000000000563712
  0
LINE
  5
B8C2
330
18
100
AcDbEntity
  8
01
  6
BYBLOCK
100
AcDbLine
 10
5128.560733399217
 20
-270.9022699669144
 30
0.0000000000563712
 11
5135.267840180404
 21
-270.9022699669144
 31
0.0000000000563712
  0
LINE
  5
B8C3
330
18
100
AcDbEntity
  8
01
  6
BYBLOCK
100
AcDbLine
 10
5128.560733399217
 20
-290.9022699669144
 30
0.0000000000563712
 11
5135.267840180404
 21
-290.9022699669144
 31
0.0000000000563712
  0
LINE
  5
B8C4
330
18
100
AcDbEntity
  8
01
  6
BYBLOCK
100
AcDbLine
 10
5134.060733399217
 20
-275.6522699669144
 30
0.0000000000563712
 11
5134.060733399217
 21
-286.1522699669144
 31
0.0000000000563712
  0
ARC
  5
B8C5
330
18
100
AcDbEntity
  8
01
  6
BYBLOCK
100
AcDbCircle
 10
5128.560733399217
 20
-280.9022699669144
 30
0.0000000000563712
 40
10.00000000000009
100
AcDbArc
 50
53.13010235414377
 51
115.4224671781405
  0
ARC
  5
B8C6
330
18
100
AcDbEntity
  8
01
  6
BYBLOCK
100
AcDbCircle
 10
5128.560733399217
 20
-280.9022699669142
 30
0.0000000000563712
 40
10.00000000000009
100
AcDbArc
 50
244.5775328218595
 51
306.8698976458562
  0
LINE
  5
B8C7
330
18
100
AcDbEntity
  8
01
  6
BYBLOCK
100
AcDbLine
 10
5134.560733399217
 20
-272.9022699669144
 30
0.0000000000563712
 11
5134.560733399217
 21
-288.9022699669144
 31
0.0000000000563712
  0
LINE
  5
B8C8
330
18
100
AcDbEntity
  8
01
  6
BYBLOCK
100
AcDbLine
 10
5124.267840180404
 20
-275.6522699669144
 30
0.0000000000563712
 11
5134.060733399217
 21
-275.6522699669144
 31
0.0000000000563712
  0
LINE
  5
B8C9
330
18
100
AcDbEntity
  8
01
  6
BYBLOCK
100
AcDbLine
 10
5124.267840180404
 20
-286.1522699669144
 30
0.0000000000563712
 11
5134.060733399217
 21
-286.1522699669144
 31
0.0000000000563712
  0
LINE
  5
B8CA
330
18
100
AcDbEntity
  8
01
  6
BYBLOCK
100
AcDbLine
 10
5009.867956520149
 20
-217.0022699669282
 30
0.0000000000563712
 11
5022.667956520148
 21
-217.0022699669282
 31
0.0000000000563712
  0
LINE
  5
B8CB
330
18
100
AcDbEntity
  8
01
  6
BYBLOCK
100
AcDbLine
 10
5009.867956520149
 20
-346.8022699669282
 30
0.0000000000563712
 11
5022.667956520148
 21
-346.8022699669282
 31
0.0000000000563712
  0
LINE
  5
B8CC
330
18
100
AcDbEntity
  8
01
  6
BYBLOCK
100
AcDbLine
 10
5003.867956520149
 20
-223.0022699669282
 30
0.0000000000563712
 11
5003.867956520149
 21
-340.8022699669282
 31
0.0000000000563712
  0
LINE
  5
B8CD
330
18
100
AcDbEntity
  8
01
  6
BYBLOCK
100
AcDbLine
 10
5028.667956520148
 20
-223.0022699669282
 30
0.0000000000563712
 11
5028.667956520148
 21
-340.8022699669282
 31
0.0000000000563712
  0
ARC
  5
B8CE
330
18
100
AcDbEntity
  8
01
  6
BYBLOCK
100
AcDbCircle
 10
5009.867956520149
 20
-340.8022699669282
 30
0.0000000000563712
 40
6.0
100
AcDbArc
 50
180.0
 51
270.0
  0
ARC
  5
B8CF
330
18
100
AcDbEntity
  8
01
  6
BYBLOCK
100
AcDbCircle
 10
5022.667956520148
 20
-340.8022699669282
 30
0.0000000000563712
 40
6.0
100
AcDbArc
 50
270.0
 51
0.0
  0
ARC
  5
B8D0
330
18
100
AcDbEntity
  8
01
  6
BYBLOCK
100
AcDbCircle
 10
5009.867956520149
 20
-223.0022699669282
 30
0.0000000000563712
 40
6.0
100
AcDbArc
 50
90.0
 51
180.0
  0
ARC
  5
B8D1
330
18
100
AcDbEntity
  8
01
  6
BYBLOCK
100
AcDbCircle
 10
5022.667956520148
 20
-223.0022699669282
 30
0.0000000000563712
 40
6.0
100
AcDbArc
 50
0.0
 51
90.0
  0
CIRCLE
  5
B8D2
330
18
100
AcDbEntity
  8
01
  6
BYBLOCK
100
AcDbCircle
 10
5016.267956520149
 20
-338.9022699669281
 30
0.0000000000563712
 40
2.75
  0
CIRCLE
  5
B8D3
330
18
100
AcDbEntity
  8
01
  6
BYBLOCK
100
AcDbCircle
 10
5016.267956520149
 20
-338.9022699669281
 30
0.0000000000563712
 40
4.25
  0
CIRCLE
  5
B8D4
330
18
100
AcDbEntity
  8
01
  6
BYBLOCK
100
AcDbCircle
 10
5016.267956520149
 20
-224.9022699669283
 30
0.0000000000563712
 40
2.75
  0
CIRCLE
  5
B8D5
330
18
100
AcDbEntity
  8
01
  6
BYBLOCK
100
AcDbCircle
 10
5016.267956520149
 20
-224.9022699669283
 30
0.0000000000563712
 40
4.25
  0
LINE
  5
B8D6
330
18
100
AcDbEntity
  8
1CENTER
100
AcDbLine
 10
5022.142981928055
 20
-338.9022699669283
 30
0.0000000000563712
 11
5010.392931112243
 21
-338.9022699669283
 31
0.0000000000563712
  0
LINE
  5
B8D7
330
18
100
AcDbEntity
  8
1CENTER
100
AcDbLine
 10
5016.267956520149
 20
-333.0272445590219
 30
0.0000000000563712
 11
5016.267956520149
 21
-344.7772953748345
 31
0.0000000000563712
  0
LINE
  5
B8D8
330
18
100
AcDbEntity
  8
1CENTER
100
AcDbLine
 10
5022.142981928055
 20
-224.9022699669283
 30
0.0000000000563712
 11
5010.392931112243
 21
-224.9022699669283
 31
0.0000000000563712
  0
LINE
  5
B8D9
330
18
100
AcDbEntity
  8
1CENTER
100
AcDbLine
 10
5016.267956520149
 20
-219.0272445590219
 30
0.0000000000563712
 11
5016.267956520149
 21
-230.7772953748345
 31
0.0000000000563712
  0
ARC
  5
B8DA
330
18
100
AcDbEntity
  8
01
  6
BYBLOCK
100
AcDbCircle
 10
5016.267956520149
 20
-280.9022699669281
 30
0.0000000000563712
 40
10.15
100
AcDbArc
 50
231.9925780701383
 51
308.0074219298617
  0
LINE
  5
B8DB
330
18
100
AcDbEntity
  8
01
  6
BYBLOCK
100
AcDbLine
 10
5010.017956520149
 20
-272.9047703576753
 30
0.0000000000563712
 11
5010.017956520149
 21
-288.8997695761809
 31
0.0000000000563712
  0
LINE
  5
B8DC
330
18
100
AcDbEntity
  8
01
  6
BYBLOCK
100
AcDbLine
 10
5022.517956520149
 20
-272.9047703576753
 30
0.0000000000563712
 11
5022.517956520149
 21
-288.8997695761809
 31
0.0000000000563712
  0
ARC
  5
B8DD
330
18
100
AcDbEntity
  8
01
  6
BYBLOCK
100
AcDbCircle
 10
5016.267956520149
 20
-280.9022699669281
 30
0.0000000000563712
 40
10.15
100
AcDbArc
 50
51.99257807013829
 51
128.0074219298617
  0
LINE
  5
B8DE
330
18
100
AcDbEntity
  8
01
  6
BYBLOCK
100
AcDbLine
 10
5011.767956520149
 20
-275.6522699669281
 30
0.0000000000563712
 11
5011.767956520149
 21
-286.1522699669281
 31
0.0000000000563712
  0
LINE
  5
B8DF
330
18
100
AcDbEntity
  8
01
  6
BYBLOCK
100
AcDbLine
 10
5021.767956520149
 20
-275.6522699669281
 30
0.0000000000563712
 11
5021.767956520149
 21
-286.1522699669281
 31
0.0000000000563712
  0
LINE
  5
B8E0
330
18
100
AcDbEntity
  8
01
  6
BYBLOCK
100
AcDbLine
 10
5012.267956520149
 20
-271.5736848652098
 30
0.0000000000563712
 11
5012.267956520149
 21
-275.6522699669283
 31
0.0000000000563712
  0
LINE
  5
B8E1
330
18
100
AcDbEntity
  8
01
  6
BYBLOCK
100
AcDbLine
 10
5010.767956520149
 20
-275.6522699669283
 30
0.0000000000563712
 11
5010.767956520149
 21
-286.1522699669281
 31
0.0000000000563712
  0
LINE
  5
B8E2
330
18
100
AcDbEntity
  8
01
  6
BYBLOCK
100
AcDbLine
 10
5012.267956520149
 20
-286.1522699669281
 30
0.0000000000563712
 11
5012.267956520149
 21
-290.2308550686464
 31
0.0000000000563712
  0
LINE
  5
B8E3
330
18
100
AcDbEntity
  8
01
  6
BYBLOCK
100
AcDbLine
 10
5010.767956520149
 20
-275.6522699669281
 30
0.0000000000563712
 11
5021.767956520149
 21
-275.6522699669281
 31
0.0000000000563712
  0
LINE
  5
B8E4
330
18
100
AcDbEntity
  8
01
  6
BYBLOCK
100
AcDbLine
 10
5010.767956520149
 20
-286.1522699669281
 30
0.0000000000563712
 11
5021.767956520149
 21
-286.1522699669281
 31
0.0000000000563712
  0
LINE
  5
B8E8
330
18
100
AcDbEntity
  8
01
100
AcDbLine
 10
4996.268072859892
 20
-182.9022699669279
 30
0.0000000000563712
 11
4996.268072859892
 21
-372.9022699669281
 31
0.0000000000563712
  0
LINE
  5
B8F3
330
18
100
AcDbEntity
  8
01
100
AcDbLine
 10
4998.396358242324
 20
-302.9022699669281
 30
0.0000000000563712
 11
4975.768072859892
 21
-302.9022699669281
 31
0.0000000000563712
  0
LINE
  5
B8F9
330
18
100
AcDbEntity
  8
01
100
AcDbLine
 10
5130.267840180692
 20
-338.9022699666389
 30
0.0000000000563712
 11
5144.267840180692
 21
-338.9022699666389
 31
0.0000000000563712
  0
LINE
  5
B8FA
330
18
100
AcDbEntity
  8
01
100
AcDbLine
 10
5197.579728447945
 20
-252.9022699669276
 30
0.0000000000563712
 11
5174.955951912862
 21
-252.9022699669276
 31
0.0000000000563712
  0
LINE
  5
B8FB
330
18
100
AcDbEntity
  8
01
100
AcDbLine
 10
5186.267840180404
 20
-241.5903816993859
 30
0.0000000000563712
 11
5186.267840180404
 21
-264.2141582344693
 31
0.0000000000563712
  0
LINE
  5
B8FC
330
18
100
AcDbEntity
  8
01
  6
BYBLOCK
100
AcDbLine
 10
4908.268072859893
 20
-271.8705996999115
 30
0.0000000000563712
 11
4908.268072859893
 21
-289.9339402339174
 31
0.0000000000563712
  0
LINE
  5
B8FD
330
18
100
AcDbEntity
  8
01
  6
BYBLOCK
100
AcDbLine
 10
4903.97517964108
 20
-270.9022699669144
 30
0.0000000000563712
 11
4897.268072859893
 21
-270.9022699669144
 31
0.0000000000563712
  0
LINE
  5
B8FE
330
18
100
AcDbEntity
  8
01
  6
BYBLOCK
100
AcDbLine
 10
4903.97517964108
 20
-290.9022699669144
 30
0.0000000000563712
 11
4897.268072859893
 21
-290.9022699669144
 31
0.0000000000563712
  0
ARC
  5
B8FF
330
18
100
AcDbEntity
  8
01
  6
BYBLOCK
100
AcDbCircle
 10
4903.97517964108
 20
-280.9022699669144
 30
0.0000000000563712
 40
10.00000000000009
100
AcDbArc
 50
64.57753282185949
 51
90.0
  0
LINE
  5
B900
330
18
100
AcDbEntity
  8
01
  6
CONTINUOUS
100
AcDbLine
 10
4907.768072859893
 20
-289.2170641597452
 30
0.0000000000563712
 11
4897.268072859893
 21
-289.2170641597452
 31
0.0000000000563712
  0
ARC
  5
B901
330
18
100
AcDbEntity
  8
01
  6
CONTINUOUS
100
AcDbCircle
 10
4907.806653106807
 20
-288.7549249289384
 30
0.0000000000563712
 40
0.4637468103423796
100
AcDbArc
 50
265.2279066161985
 51
354.2577450626174
  0
LINE
  5
B902
330
18
100
AcDbEntity
  8
01
  6
CONTINUOUS
100
AcDbLine
 10
4908.268072859893
 20
-273.4189551933664
 30
0.0000000000563712
 11
4908.268072859893
 21
-288.3855847404623
 31
0.0000000000563712
  0
ARC
  5
B903
330
18
100
AcDbEntity
  8
01
  6
CONTINUOUS
100
AcDbCircle
 10
4907.806653106807
 20
-273.04961500489
 30
0.0000000000563712
 40
0.4637468103423387
100
AcDbArc
 50
5.742254937382608
 51
94.77209338380148
  0
ARC
  5
B904
330
18
100
AcDbEntity
  8
01
  6
BYBLOCK
100
AcDbCircle
 10
4903.97517964108
 20
-280.9022699669142
 30
0.0000000000563712
 40
10.00000000000009
100
AcDbArc
 50
270.0
 51
295.4224671781406
  0
LINE
  5
B905
330
18
100
AcDbEntity
  8
01
  6
CONTINUOUS
100
AcDbLine
 10
4897.268072859893
 20
-272.5874757740833
 30
0.0000000000563712
 11
4907.768072859893
 21
-272.5874757740833
 31
0.0000000000563712
  0
LINE
  5
B906
330
18
100
AcDbEntity
  8
01
100
AcDbLine
 10
5204.267840180404
 20
-288.4009516538246
 30
0.0000000000563712
 11
5204.267840180404
 21
-317.4009516538246
 31
0.0000000000563712
  0
LINE
  5
B911
330
18
100
AcDbEntity
  8
01
100
AcDbLine
 10
4876.268072859893
 20
-302.9022699669276
 30
0.0000000000563712
 11
4816.268072859893
 21
-302.9022699669276
 31
0.0000000000563712
  0
LINE
  5
B912
330
18
100
AcDbEntity
  8
01
100
AcDbLine
 10
4846.268072859893
 20
-272.9022699669276
 30
0.0000000000563712
 11
4846.268072859893
 21
-332.9022699669276
 31
0.0000000000563712
  0
LINE
  5
B91A
330
18
100
AcDbEntity
  8
01
100
AcDbLine
 10
5186.267840180404
 20
-272.9022699669276
 30
0.0000000000563712
 11
5186.267840180404
 21
-332.9022699669276
 31
0.0000000000563712
  0
LINE
  5
B920
330
18
100
AcDbEntity
  8
01
  6
BYBLOCK
100
AcDbLine
 10
5204.267840180404
 20
-245.9022699669276
 30
0.0000000000563712
 11
5204.267840180404
 21
-267.4022697628004
 31
0.0000000000563712
  0
LINE
  5
B921
330
18
100
AcDbEntity
  8
01
  6
BYBLOCK
100
AcDbLine
 10
5137.967840180403
 20
-244.9022699669276
 30
0.0000000000563712
 11
5166.267840180406
 21
-244.9022699669276
 31
0.0000000000563712
  0
LINE
  5
B922
330
18
100
AcDbEntity
  8
01
  6
BYBLOCK
100
AcDbLine
 10
5166.267840180406
 20
-244.9022699669276
 30
0.0000000000563712
 11
5203.267840180404
 21
-244.9022699669276
 31
0.0000000000563712
  0
LINE
  5
B923
330
18
100
AcDbEntity
  8
01
  6
BYBLOCK
100
AcDbLine
 10
5204.267840180406
 20
-267.4022697628004
 30
0.0000000000563712
 11
5204.267840180404
 21
-288.4009516538246
 31
0.0000000000563712
  0
LINE
  5
B924
330
18
100
AcDbEntity
  8
01
100
AcDbLine
 10
4902.268072859893
 20
-224.9022699669276
 30
0.0000000000563712
 11
4888.268072859893
 21
-224.9022699669276
 31
0.0000000000563712
  0
LINE
  5
B925
330
18
100
AcDbEntity
  8
01
  6
BYBLOCK
100
AcDbLine
 10
4895.768072859893
 20
-217.0022699669275
 30
0.0000000000563712
 11
4895.768072859893
 21
-346.8022699669275
 31
0.0000000000563712
  0
LINE
  5
B926
330
18
100
AcDbEntity
  8
01
  6
BYBLOCK
100
AcDbLine
 10
4895.768072859893
 20
-345.9022699669276
 30
0.0000000000563712
 11
4893.268072859893
 21
-345.9022699669276
 31
0.0000000000563712
  0
LINE
  5
B927
330
18
100
AcDbEntity
  8
01
  6
BYBLOCK
100
AcDbLine
 10
4893.268072859893
 20
-345.9022699669276
 30
0.0000000000563712
 11
4893.268072859893
 21
-329.3993262417753
 31
0.0000000000563712
  0
LINE
  5
B928
330
18
100
AcDbEntity
  8
01
  6
BYBLOCK
100
AcDbLine
 10
4897.268072859893
 20
-217.0022699669275
 30
0.0000000000563712
 11
4897.268072859893
 21
-346.8022699669275
 31
0.0000000000563712
  0
LINE
  5
B929
330
18
100
AcDbEntity
  8
01
  6
BYBLOCK
100
AcDbLine
 10
4897.268072859893
 20
-346.8022699669275
 30
0.0000000000563712
 11
4895.768072859893
 21
-346.8022699669275
 31
0.0000000000563712
  0
LINE
  5
B92A
330
18
100
AcDbEntity
  8
01
  6
BYBLOCK
100
AcDbLine
 10
4895.768072859893
 20
-217.9022699669276
 30
0.0000000000563712
 11
4893.268072859893
 21
-217.9022699669276
 31
0.0000000000563712
  0
LINE
  5
B92B
330
18
100
AcDbEntity
  8
01
  6
BYBLOCK
100
AcDbLine
 10
4897.268072859893
 20
-217.0022699669275
 30
0.0000000000563712
 11
4895.768072859893
 21
-217.0022699669275
 31
0.0000000000563712
  0
LINE
  5
B92C
330
18
100
AcDbEntity
  8
01
  6
BYBLOCK
100
AcDbLine
 10
4895.768072859893
 20
-241.9022699669276
 30
0.0000000000563712
 11
4894.568072859893
 21
-241.9022699669276
 31
0.0000000000563712
  0
ARC
  5
B92D
330
18
100
AcDbEntity
  8
01
  6
BYBLOCK
100
AcDbCircle
 10
4829.268072859893
 20
-245.9022699669276
 30
0.0000000000563712
 40
1.0
100
AcDbArc
 50
90.0
 51
180.0
  0
LINE
  5
B92E
330
18
100
AcDbEntity
  8
01
  6
BYBLOCK
100
AcDbLine
 10
4894.568072859893
 20
-236.2022699669274
 30
0.0000000000563712
 11
4894.568072859893
 21
-327.6022699669275
 31
0.0000000000563712
  0
LINE
  5
B92F
330
18
100
AcDbEntity
  8
01
  6
BYBLOCK
100
AcDbLine
 10
4894.468072859892
 20
-345.9022699669276
 30
0.0000000000563712
 11
4894.468072859892
 21
-329.3022699669275
 31
0.0000000000563712
  0
LINE
  5
B930
330
18
100
AcDbEntity
  8
01
  6
BYBLOCK
100
AcDbLine
 10
4894.468072859892
 20
-329.3022699669275
 30
0.0000000000563712
 11
4895.416600997318
 21
-328.3537418295036
 31
0.0000000000563712
  0
LINE
  5
B931
330
18
100
AcDbEntity
  8
01
  6
BYBLOCK
100
AcDbLine
 10
4893.619544722469
 20
-328.5507981043513
 30
0.0000000000563712
 11
4894.568072859893
 21
-327.6022699669275
 31
0.0000000000563712
  0
ARC
  5
B932
330
18
100
AcDbEntity
  8
01
  6
BYBLOCK
100
AcDbCircle
 10
4894.468072859892
 20
-329.3993262417753
 30
0.0000000000563712
 40
1.2
100
AcDbArc
 50
134.9999999999516
 51
180.0
  0
ARC
  5
B933
330
18
100
AcDbEntity
  8
01
  6
BYBLOCK
100
AcDbCircle
 10
4894.568072859893
 20
-327.5052136920797
 30
0.0000000000563712
 40
1.2
100
AcDbArc
 50
314.9999999999516
 51
0.0
  0
LINE
  5
B934
330
18
100
AcDbEntity
  8
01
  6
BYBLOCK
100
AcDbLine
 10
4893.268072859893
 20
-217.9022699669276
 30
0.0000000000563712
 11
4893.268072859893
 21
-234.4052136920798
 31
0.0000000000563712
  0
LINE
  5
B935
330
18
100
AcDbEntity
  8
01
  6
BYBLOCK
100
AcDbLine
 10
4894.468072859892
 20
-217.9022699669276
 30
0.0000000000563712
 11
4894.468072859892
 21
-234.5022699669275
 31
0.0000000000563712
  0
LINE
  5
B936
330
18
100
AcDbEntity
  8
01
  6
BYBLOCK
100
AcDbLine
 10
4894.468072859892
 20
-234.5022699669275
 30
0.0000000000563712
 11
4895.416600997318
 21
-235.4507981043514
 31
0.0000000000563712
  0
LINE
  5
B937
330
18
100
AcDbEntity
  8
01
  6
BYBLOCK
100
AcDbLine
 10
4893.619544722469
 20
-235.2537418295037
 30
0.0000000000563712
 11
4894.568072859893
 21
-236.2022699669276
 31
0.0000000000563712
  0
ARC
  5
B938
330
18
100
AcDbEntity
  8
01
  6
BYBLOCK
100
AcDbCircle
 10
4894.468072859892
 20
-234.4052136920798
 30
0.0000000000563712
 40
1.2
100
AcDbArc
 50
180.0
 51
225.0000000000484
  0
ARC
  5
B939
330
18
100
AcDbEntity
  8
01
  6
BYBLOCK
100
AcDbCircle
 10
4894.568072859893
 20
-236.2993262417754
 30
0.0000000000563712
 40
1.2
100
AcDbArc
 50
0.0
 51
45.00000000004836
  0
CIRCLE
  5
B93A
330
18
100
AcDbEntity
  8
01
  6
BYBLOCK
100
AcDbCircle
 10
4846.268072859893
 20
-252.9022699669276
 30
0.0000000000563712
 40
4.75
  0
LINE
  5
B93B
330
18
100
AcDbEntity
  8
01
  6
BYBLOCK
100
AcDbLine
 10
4895.768072859893
 20
-318.9022699669278
 30
0.0000000000563712
 11
4829.26807285989
 21
-318.9022699669271
 31
0.0000000000563712
  0
LINE
  5
B93C
330
18
100
AcDbEntity
  8
01
  6
BYBLOCK
100
AcDbLine
 10
4849.874317443944
 20
-252.9022699669276
 30
0.0000000000563712
 11
4846.268072859893
 21
-249.2960253828762
 31
0.0000000000563712
  0
LINE
  5
B93D
330
18
100
AcDbEntity
  8
01
  6
BYBLOCK
100
AcDbLine
 10
4842.661828275841
 20
-252.9022699669276
 30
0.0000000000563712
 11
4846.268072859893
 21
-249.2960253828762
 31
0.0000000000563712
  0
LINE
  5
B93E
330
18
100
AcDbEntity
  8
01
  6
BYBLOCK
100
AcDbLine
 10
4849.874317443944
 20
-252.9022699669276
 30
0.0000000000563712
 11
4846.268072859893
 21
-256.5085145509788
 31
0.0000000000563712
  0
LINE
  5
B93F
330
18
100
AcDbEntity
  8
01
  6
BYBLOCK
100
AcDbLine
 10
4842.661828275841
 20
-252.9022699669276
 30
0.0000000000563712
 11
4846.268072859893
 21
-256.5085145509788
 31
0.0000000000563712
  0
LINE
  5
B940
330
18
100
AcDbEntity
  8
01
  6
BYBLOCK
100
AcDbLine
 10
4908.268072859893
 20
-271.8705996999115
 30
0.0000000000563712
 11
4908.268072859893
 21
-289.9339402339174
 31
0.0000000000563712
  0
LINE
  5
B941
330
18
100
AcDbEntity
  8
01
  6
BYBLOCK
100
AcDbLine
 10
4903.97517964108
 20
-270.9022699669144
 30
0.0000000000563712
 11
4897.268072859893
 21
-270.9022699669144
 31
0.0000000000563712
  0
LINE
  5
B942
330
18
100
AcDbEntity
  8
01
  6
BYBLOCK
100
AcDbLine
 10
4903.97517964108
 20
-290.9022699669144
 30
0.0000000000563712
 11
4897.268072859893
 21
-290.9022699669144
 31
0.0000000000563712
  0
LINE
  5
B943
330
18
100
AcDbEntity
  8
01
100
AcDbLine
 10
4902.268072859606
 20
-338.9022699666389
 30
0.0000000000563712
 11
4888.268072859606
 21
-338.9022699666389
 31
0.0000000000563712
  0
LINE
  5
B944
330
18
100
AcDbEntity
  8
01
100
AcDbLine
 10
4876.268072859893
 20
-302.9022699669276
 30
0.0000000000563712
 11
4816.268072859893
 21
-302.9022699669276
 31
0.0000000000563712
  0
LINE
  5
B945
330
18
100
AcDbEntity
  8
01
100
AcDbLine
 10
4846.268072859893
 20
-272.9022699669276
 30
0.0000000000563712
 11
4846.268072859893
 21
-332.9022699669276
 31
0.0000000000563712
  0
LINE
  5
B946
330
18
100
AcDbEntity
  8
01
  6
BYBLOCK
100
AcDbLine
 10
4828.268072859893
 20
-245.9022699669276
 30
0.0000000000563712
 11
4828.268072859893
 21
-267.4022697628004
 31
0.0000000000563712
  0
LINE
  5
B947
330
18
100
AcDbEntity
  8
01
  6
BYBLOCK
100
AcDbLine
 10
4894.568072859893
 20
-244.9022699669276
 30
0.0000000000563712
 11
4866.268072859892
 21
-244.9022699669276
 31
0.0000000000563712
  0
LINE
  5
B948
330
18
100
AcDbEntity
  8
01
  6
BYBLOCK
100
AcDbLine
 10
4866.268072859892
 20
-244.9022699669276
 30
0.0000000000563712
 11
4829.268072859893
 21
-244.9022699669276
 31
0.0000000000563712
  0
LINE
  5
B949
330
18
100
AcDbEntity
  8
01
  6
BYBLOCK
100
AcDbLine
 10
4828.26807285989
 20
-267.4022697628004
 30
0.0000000000563712
 11
4828.26807285989
 21
-288.4009516538246
 31
0.0000000000563712
  0
TEXT
  5
B94A
330
18
100
AcDbEntity
  8
1TEXT
100
AcDbText
 10
4708.505816214484
 20
24.73847319549282
 30
0.0
 40
20.0
  1
1-WFT-X-LJ-2
100
AcDbText
  0
LINE
  5
C1D0
330
18
100
AcDbEntity
  8
01
100
AcDbLine
 10
4876.267960520148
 20
-302.9009516538244
 30
0.0000000000563712
 11
4816.267960520148
 21
-302.9009516538244
 31
0.0000000000563712
  0
LINE
  5
C1D2
330
18
100
AcDbEntity
  8
01
100
AcDbLine
 10
5186.267840180404
 20
-272.9009516538244
 30
0.0000000000563712
 11
5186.267840180404
 21
-332.9009516538244
 31
0.0000000000563712
  0
LINE
  5
C1D3
330
18
100
AcDbEntity
  8
1DIM
100
AcDbLine
 10
4716.490196763417
 20
-36.76152680450718
 30
0.0000000000563712
 11
4885.990196763417
 21
-36.76152680450718
 31
0.0000000000563712
  0
TEXT
  5
C1D4
330
18
100
AcDbEntity
  8
1TEXT
100
AcDbText
 10
4774.490196763417
 20
-44.72789722186349
 30
0.0
 40
6.0
  1
ヘンプグレー
 72
     1
 11
4795.090196763417
 21
-44.72789722186349
 31
0.0
100
AcDbText
  0
TEXT
  5
C1D5
330
18
100
AcDbEntity
  8
1TEXT
100
AcDbText
 10
4769.980196763418
 20
-13.51152680450718
 30
0.0
 40
6.0
  1
表面処理：カバー
 41
0.9
 72
     1
 11
4795.090196763417
 21
-13.51152680450718
 31
0.0
100
AcDbText
  0
TEXT
  5
C1D6
330
18
100
AcDbEntity
  8
1TEXT
100
AcDbText
 10
4770.890196763417
 20
-23.764459793794
 30
0.0
 40
6.0
  1
ヘンプブラック
 72
     1
 11
4795.090196763417
 21
-23.764459793794
 31
0.0
100
AcDbText
  0
LINE
  5
C1D7
330
18
100
AcDbEntity
  8
1DIM
100
AcDbLine
 10
4716.490196763417
 20
-5.261526804507184
 30
0.0000000000563712
 11
4885.990196763417
 21
-5.261526804507184
 31
0.0000000000563712
  0
LINE
  5
C1D8
330
18
100
AcDbEntity
  8
1DIM
100
AcDbLine
 10
4716.490196763417
 20
-15.76152680450718
 30
0.0000000000563712
 11
4885.990196763417
 21
-15.76152680450718
 31
0.0000000000563712
  0
LINE
  5
C1D9
330
18
100
AcDbEntity
  8
1DIM
100
AcDbLine
 10
4768.990196763417
 20
-26.26152680450718
 30
0.0000000000563712
 11
4885.990196763417
 21
-26.26152680450718
 31
0.0000000000563712
  0
LINE
  5
C1DA
330
18
100
AcDbEntity
  8
1DIM
100
AcDbLine
 10
4716.490196763417
 20
-26.26152680450718
 30
0.0000000000563712
 11
4885.990196763417
 21
-26.26152680450718
 31
0.0000000000563712
  0
LINE
  5
C1DB
330
18
100
AcDbEntity
  8
1DIM
100
AcDbLine
 10
4821.490196763417
 20
-5.261526804507184
 30
0.0000000000563712
 11
4821.490196763418
 21
-57.33326002694643
 31
0.0000000000563712
  0
TEXT
  5
C1DC
330
18
100
AcDbEntity
  8
1TEXT
100
AcDbText
 10
4825.077696763417
 20
-24.33306227998105
 30
0.0
 40
6.0
  1
1-WFT-085100-LJ-2
 41
0.6
 72
     1
 11
4853.590196763417
 21
-24.33306227998105
 31
0.0
100
AcDbText
  0
TEXT
  5
C1DD
330
18
100
AcDbEntity
  8
1TEXT
100
AcDbText
 10
4843.290196763417
 20
-13.51152680450718
 30
0.0
 40
6.0
  1
コード
 72
     1
 11
4853.590196763417
 21
-13.51152680450718
 31
0.0
100
AcDbText
  0
LINE
  5
C1DE
330
18
100
AcDbEntity
  8
1DIM
100
AcDbLine
 10
4716.490196763417
 20
-47.26152680450718
 30
0.0000000000563712
 11
4885.990196763417
 21
-47.26152680450718
 31
0.0000000000563712
  0
TEXT
  5
C1DF
330
18
100
AcDbEntity
  8
1TEXT
100
AcDbText
 10
4770.590196763417
 20
-34.22789722186349
 30
0.0
 40
6.0
  1
ヘンプブラウン
 72
     1
 11
4795.090196763417
 21
-34.22789722186349
 31
0.0
100
AcDbText
  0
LINE
  5
C1E0
330
18
100
AcDbEntity
  8
1DIM
100
AcDbLine
 10
4768.990196763417
 20
-57.76152680450718
 30
0.0000000000563712
 11
4768.990196763417
 21
-5.261526804507184
 31
0.0000000000563712
  0
LINE
  5
C1E1
330
18
100
AcDbEntity
  8
1DIM
100
AcDbLine
 10
4885.990196763417
 20
-57.76152680450718
 30
0.0000000000563712
 11
4885.990196763417
 21
-5.261526804507184
 31
0.0000000000563712
  0
TEXT
  5
C1E2
330
18
100
AcDbEntity
  8
1TEXT
100
AcDbText
 10
4824.790196763417
 20
-45.33306227998105
 30
0.0
 40
6.0
  1
1-WFT-087102-LJ-2
 41
0.6
 72
     1
 11
4853.590196763417
 21
-45.33306227998105
 31
0.0
100
AcDbText
  0
TEXT
  5
C1E3
330
18
100
AcDbEntity
  8
1TEXT
100
AcDbText
 10
4825.377696763418
 20
-34.83306227998105
 30
0.0
 40
6.0
  1
1-WFT-086101-LJ-2
 41
0.6
 72
     1
 11
4853.590196763417
 21
-34.83306227998105
 31
0.0
100
AcDbText
  0
LINE
  5
C228
330
18
100
AcDbEntity
  8
01
100
AcDbLine
 10
4876.268072859893
 20
-302.9009516538244
 30
0.0000000000563712
 11
4816.268072859893
 21
-302.9009516538244
 31
0.0000000000563712
  0
LINE
  5
C23D
330
18
100
AcDbEntity
  8
01
100
AcDbLine
 10
4876.268072859893
 20
-302.9009516538244
 30
0.0000000000563712
 11
4816.268072859893
 21
-302.9009516538244
 31
0.0000000000563712
  0
LINE
  5
C254
330
18
100
AcDbEntity
  8
01
100
AcDbLine
 10
4876.268072859893
 20
-302.9009516538244
 30
0.0000000000563712
 11
4816.268072859893
 21
-302.9009516538244
 31
0.0000000000563712
  0
LINE
  5
C255
330
18
100
AcDbEntity
  8
01
100
AcDbLine
 10
4876.268072859893
 20
-302.9009516538244
 30
0.0000000000563712
 11
4816.268072859893
 21
-302.9009516538244
 31
0.0000000000563712
  0
LINE
  5
C3F7
330
18
100
AcDbEntity
  8
01
100
AcDbLine
 10
5156.267840180404
 20
-302.9009516538244
 30
0.0000000000563712
 11
5216.267840180404
 21
-302.9009516538244
 31
0.0000000000563712
  0
LINE
  5
C3F8
330
18
100
AcDbEntity
  8
01
100
AcDbLine
 10
5186.267840180404
 20
-272.9009516538244
 30
0.0000000000563712
 11
5186.267840180404
 21
-332.9009516538244
 31
0.0000000000563712
  0
LINE
  5
C3F9
330
18
100
AcDbEntity
  8
1CENTER
100
AcDbLine
 10
5186.267956520147
 20
-113.2603053497463
 30
0.0000000000563712
 11
5186.267956520147
 21
-51.45612868044282
 31
0.0000000000563712
  0
LINE
  5
C84E
330
18
100
AcDbEntity
  8
1CENTER
100
AcDbLine
 10
5050.967840180404
 20
-308.2915585742803
 30
0.0000000000563712
 11
5050.967840180404
 21
-322.5427716750319
 31
0.0000000000563712
  0
LINE
  5
C8FC
330
18
100
AcDbEntity
  8
01
100
AcDbLine
 10
5034.139554797974
 20
-302.9022699669281
 30
0.0000000000563712
 11
5056.767840180406
 21
-302.9022699669281
 31
0.0000000000563712
  0
ARC
  5
C933
330
18
100
AcDbEntity
  8
01
100
AcDbCircle
 10
5203.267840180404
 20
-317.9022699669276
 30
0.0000000000563712
 40
1.0
100
AcDbArc
 50
270.0000000000002
 51
0.0
  0
LINE
  5
C934
330
18
100
AcDbEntity
  8
01
100
AcDbLine
 10
5204.267840180404
 20
-317.4009516538246
 30
0.0000000000563712
 11
5204.267840180404
 21
-317.9022699669276
 31
0.0000000000563712
  0
LINE
  5
CA5C
330
18
100
AcDbEntity
  8
1HIDDEN
100
AcDbLine
 10
4828.26807285989
 20
-288.4009516538246
 30
0.0000000000563712
 11
4828.26807285989
 21
-317.4009516538246
 31
0.0000000000563712
  0
ARC
  5
CA5D
330
18
100
AcDbEntity
  8
01
100
AcDbCircle
 10
4829.26807285989
 20
-317.9022699669271
 30
0.0000000000563712
 40
1.0
100
AcDbArc
 50
180.0
 51
269.9999999999994
  0
LINE
  5
CA5E
330
18
100
AcDbEntity
  8
01
100
AcDbLine
 10
4828.26807285989
 20
-317.4009516538246
 30
0.0000000000563712
 11
4828.26807285989
 21
-317.9022699669271
 31
0.0000000000563712
  0
TEXT
  5
CB27
330
18
100
AcDbEntity
  8
1TEXT
100
AcDbText
 10
4717.890196763417
 20
-13.51152680450718
 30
0.0
 40
6.0
  1
表面処理：本体
 72
     1
 11
4742.590196763417
 21
-13.51152680450718
 31
0.0
100
AcDbText
  0
LINE
  5
CB29
330
18
100
AcDbEntity
  8
1DIM
100
AcDbLine
 10
4768.990196763417
 20
-5.261526804507184
 30
0.0000000000563712
 11
4768.990196763417
 21
-57.76152680450718
 31
0.0000000000563712
  0
LINE
  5
CB2B
330
18
100
AcDbEntity
  8
1DIM
100
AcDbLine
 10
4716.490196763417
 20
-57.76152680450718
 30
0.0000000000563712
 11
4716.490196763417
 21
-5.261526804507184
 31
0.0000000000563712
  0
TEXT
  5
CCB1
330
18
100
AcDbEntity
  8
1TEXT
100
AcDbText
 10
4770.890196763417
 20
-55.22789722186349
 30
0.0
 40
6.0
  1
ヘンプゴールド
 72
     1
 11
4795.090196763417
 21
-55.22789722186349
 31
0.0
100
AcDbText
  0
LINE
  5
CCB2
330
18
100
AcDbEntity
  8
1DIM
100
AcDbLine
 10
4716.490196763417
 20
-57.76152680450718
 30
0.0000000000563712
 11
4885.990196763417
 21
-57.76152680450718
 31
0.0000000000563712
  0
TEXT
  5
CCB3
330
18
100
AcDbEntity
  8
1TEXT
100
AcDbText
 10
4824.790196763417
 20
-55.83306227998105
 30
0.0
 40
6.0
  1
1-WFT-088103-LJ-2
 41
0.6
 72
     1
 11
4853.590196763417
 21
-55.83306227998105
 31
0.0
100
AcDbText
  0
LINE
  5
CE7F
330
18
100
AcDbEntity
  8
1CENTER
100
AcDbLine
 10
5186.267956520147
 20
-47.90226996795627
 30
0.0000000000563712
 11
5186.267956520147
 21
-74.40226996795627
 31
0.0000000000563712
  0
LINE
  5
CE91
330
18
100
AcDbEntity
  8
01
  6
CONTINUOUS
100
AcDbLine
 10
5207.267956520147
 20
-58.40226996795627
 30
0.0000000000563712
 11
5207.767956520147
 21
-58.40226996795627
 31
0.0000000000563712
  0
ARC
  5
CE92
330
18
100
AcDbEntity
  8
01
  6
CONTINUOUS
100
AcDbCircle
 10
5207.767956520147
 20
-58.70226996795623
 30
0.0000000000563712
 40
0.2999999999999972
100
AcDbArc
 50
0.0
 51
90.0
  0
LINE
  5
CE93
330
18
100
AcDbEntity
  8
01
  6
CONTINUOUS
100
AcDbLine
 10
5208.067956520146
 20
-59.1022699679562
 30
0.0000000000563712
 11
5208.067956520146
 21
-58.70226996795623
 31
0.0000000000563712
  0
LINE
  5
CE94
330
18
100
AcDbEntity
  8
01
  6
CONTINUOUS
100
AcDbLine
 10
5165.267956520147
 20
-58.40226996795627
 30
0.0000000000563712
 11
5207.267956520147
 21
-58.40226996795627
 31
0.0000000000563712
  0
LINE
  5
CE95
330
18
100
AcDbEntity
  8
01
  6
CONTINUOUS
100
AcDbLine
 10
5164.767956520147
 20
-58.40226996795627
 30
0.0000000000563712
 11
5165.267956520147
 21
-58.40226996795627
 31
0.0000000000563712
  0
ARC
  5
CE96
330
18
100
AcDbEntity
  8
01
  6
CONTINUOUS
100
AcDbCircle
 10
5164.767956520147
 20
-58.70226996795623
 30
0.0000000000563712
 40
0.3000000000000114
100
AcDbArc
 50
90.0
 51
180.0
  0
LINE
  5
CE97
330
18
100
AcDbEntity
  8
01
  6
CONTINUOUS
100
AcDbLine
 10
5164.467956520147
 20
-59.1022699679562
 30
0.0000000000563712
 11
5164.467956520147
 21
-58.70226996795623
 31
0.0000000000563712
  0
LINE
  5
CE9A
330
18
100
AcDbEntity
  8
01
  6
CONTINUOUS
100
AcDbLine
 10
5162.267956520147
 20
-58.40226996795627
 30
0.0000000000563712
 11
5210.267956520147
 21
-58.40226996795627
 31
0.0000000000563712
  0
LINE
  5
CE9B
330
18
100
AcDbEntity
  8
01
  6
CONTINUOUS
100
AcDbLine
 10
5162.267956520147
 20
-52.90226996795627
 30
0.0000000000563712
 11
5210.267956520147
 21
-52.90226996795627
 31
0.0000000000563712
  0
LINE
  5
CE9C
330
18
100
AcDbEntity
  8
01
100
AcDbLine
 10
5162.267956520147
 20
-58.40226996795627
 30
0.0000000000563712
 11
5162.267956520147
 21
-52.90226996795627
 31
0.0000000000563712
  0
LINE
  5
CE9D
330
18
100
AcDbEntity
  8
01
100
AcDbLine
 10
5210.267956520147
 20
-58.40226996795627
 30
0.0000000000563712
 11
5210.267956520147
 21
-52.90226996795627
 31
0.0000000000563712
  0
SPLINE
  5
CEA0
330
18
100
AcDbEntity
  8
01
  6
CONTINUOUS
100
AcDbSpline
210
0.0
220
0.0
230
1.0
 70
     8
 71
     3
 72
    42
 73
    38
 74
     0
 42
0.000000001
 43
0.00000001
 40
0.0
 40
0.0
 40
0.0
 40
0.0
 40
0.0160301726121894
 40
0.0433298716371249
 40
0.0708162246798309
 40
0.0989145816546444
 40
0.1277912596154477
 40
0.1573259548225397
 40
0.1872491122745221
 40
0.2173137352065125
 40
0.2473477844541721
 40
0.277303087173062
 40
0.3071730793306366
 40
0.3369660706408011
 40
0.3666952454216487
 40
0.3963741014594519
 40
0.4260152396758351
 40
0.4556296885924142
 40
0.4852274116721279
 40
0.5148175256941026
 40
0.5444087875799384
 40
0.5740069841803327
 40
0.6036211301931784
 40
0.6332609084722939
 40
0.6629371535776695
 40
0.6926621283449981
 40
0.7224500246879335
 40
0.7523165913501654
 40
0.7822778374791456
 40
0.8123459578404255
 40
0.8425188479992123
 40
0.8727525909148507
 40
0.9028696168954005
 40
0.9325917273558505
 40
0.9615950248380605
 40
0.9897373720895192
 40
1.0
 40
1.0
 40
1.0
 40
1.0
 10
5169.687314603336
 20
-291.0509521023379
 30
0.0000000000563712
 10
5169.588878100922
 20
-291.0544013473149
 30
0.0000000000563712
 10
5169.322802300166
 20
-291.0637247242812
 30
0.0000000000563712
 10
5168.892724924122
 20
-291.1611155062565
 30
0.0000000000563712
 10
5168.406872864239
 20
-291.3651947338354
 30
0.0000000000563712
 10
5167.935180066038
 20
-291.6657806870845
 30
0.0000000000563712
 10
5167.478472683822
 20
-292.061793575445
 30
0.0000000000563712
 10
5167.040000260895
 20
-292.5532445986063
 30
0.0000000000563712
 10
5166.624578573799
 20
-293.1361989291628
 30
0.0000000000563712
 10
5166.237007449088
 20
-293.8039644392845
 30
0.0000000000563712
 10
5165.880929861381
 20
-294.5486777770849
 30
0.0000000000563712
 10
5165.558930818189
 20
-295.3625557803923
 30
0.0000000000563712
 10
5165.272844657656
 20
-296.2382831572942
 30
0.0000000000563712
 10
5165.024318005358
 20
-297.1685067730951
 30
0.0000000000563712
 10
5164.81476696904
 20
-298.1455789194489
 30
0.0000000000563712
 10
5164.645492598714
 20
-299.1615405669563
 30
0.0000000000563712
 10
5164.517557961501
 20
-300.2080987530206
 30
0.0000000000563712
 10
5164.431804997683
 20
-301.2766927336751
 30
0.0000000000563712
 10
5164.388793723753
 20
-302.3585410272879
 30
0.0000000000563712
 10
5164.388827601825
 20
-303.4447396326649
 30
0.0000000000563712
 10
5164.431866495748
 20
-304.5263001663382
 30
0.0000000000563712
 10
5164.517617291231
 20
-305.5942773885006
 30
0.0000000000563712
 10
5164.645434261586
 20
-306.6398636662654
 30
0.0000000000563712
 10
5164.814444983001
 20
-307.6544973150346
 30
0.0000000000563712
 10
5165.023522027022
 20
-308.6299247066602
 30
0.0000000000563712
 10
5165.271313498819
 20
-309.5582689740252
 30
0.0000000000563712
 10
5165.556373094477
 20
-310.4320876351087
 30
0.0000000000563712
 10
5165.877166230407
 20
-311.2444153670441
 30
0.0000000000563712
 10
5166.232202645074
 20
-311.9887491153021
 30
0.0000000000563712
 10
5166.620129718943
 20
-312.6589416385022
 30
0.0000000000563712
 10
5167.039684261246
 20
-313.2489140095801
 30
0.0000000000563712
 10
5167.489216252982
 20
-313.752011912611
 30
0.0000000000563712
 10
5167.965884798389
 20
-314.1608030199794
 30
0.0000000000563712
 10
5168.464509288116
 20
-314.4684162644926
 30
0.0000000000563712
 10
5168.977077252737
 20
-314.6679875603423
 30
0.0000000000563712
 10
5169.388491608634
 20
-314.7440588740578
 30
0.0000000000563712
 10
5169.624301243069
 20
-314.7494977951268
 30
0.0000000000563712
 10
5169.687314603336
 20
-314.7509511907593
 30
0.0000000000563712
  0
LINE
  5
CEA1
330
18
100
AcDbEntity
  8
01
  6
CONTINUOUS
100
AcDbLine
 10
5176.946877214916
 20
-291.0509521023379
 30
0.0000000000563712
 11
5181.478413466222
 21
-291.0509521023379
 31
0.0000000000563712
  0
LINE
  5
CEA2
330
18
100
AcDbEntity
  8
01
100
AcDbLine
 10
5181.478413466222
 20
-291.0509521023379
 30
0.0000000000563712
 11
5181.478413466222
 21
-291.5509512529717
 31
0.0000000000563712
  0
LINE
  5
CEA3
330
18
100
AcDbEntity
  8
01
100
AcDbLine
 10
5181.478413466222
 20
-291.5509512529717
 30
0.0000000000563712
 11
5181.478413466222
 21
-314.250951108803
 31
0.0000000000563712
  0
LINE
  5
CEA4
330
18
100
AcDbEntity
  8
01
100
AcDbLine
 10
5181.478413466222
 20
-314.250951108803
 30
0.0000000000563712
 11
5181.478413466222
 21
-314.7509511907593
 31
0.0000000000563712
  0
LINE
  5
CEA5
330
18
100
AcDbEntity
  8
01
  6
CONTINUOUS
100
AcDbLine
 10
5181.478413466222
 20
-314.7509511907593
 30
0.0000000000563712
 11
5176.946877214916
 21
-314.7509511907593
 31
0.0000000000563712
  0
LINE
  5
CEA6
330
18
100
AcDbEntity
  8
01
  6
CONTINUOUS
100
AcDbLine
 10
5302.76784178973
 20
-314.7509511907593
 30
0.0000000000563712
 11
5181.478413466222
 21
-314.7509511907593
 31
0.0000000000563712
  0
LINE
  5
CEA7
330
18
100
AcDbEntity
  8
01
  6
CONTINUOUS
100
AcDbLine
 10
5181.478413466222
 20
-291.0509521023379
 30
0.0000000000563712
 11
5302.76784178973
 21
-291.0509521023379
 31
0.0000000000563712
  0
ARC
  5
CEA8
330
18
100
AcDbEntity
  8
01
  6
CONTINUOUS
100
AcDbCircle
 10
5302.767840776451
 20
-302.9009511977678
 30
0.0000000000563712
 40
11.85000000000001
100
AcDbArc
 50
270.0
 51
90.0
  0
LINE
  5
CEA9
330
18
100
AcDbEntity
  8
01
  6
CONTINUOUS
100
AcDbLine
 10
5169.687314603336
 20
-291.0509521023379
 30
0.0000000000563712
 11
5176.946877214916
 21
-291.0509521023379
 31
0.0000000000563712
  0
LINE
  5
CEAA
330
18
100
AcDbEntity
  8
01
  6
CONTINUOUS
100
AcDbLine
 10
5176.946877214916
 20
-314.7509511907593
 30
0.0000000000563712
 11
5169.687314603336
 21
-314.7509511907593
 31
0.0000000000563712
  0
LINE
  5
CEAB
330
18
100
AcDbEntity
  8
01
100
AcDbLine
 10
5181.478413466222
 20
-289.4009521112786
 30
0.0000000000563712
 11
5181.478413466222
 21
-290.4009504125462
 31
0.0000000000563712
  0
LINE
  5
CEAC
330
18
100
AcDbEntity
  8
01
100
AcDbLine
 10
5181.478413466222
 20
-315.4009511925289
 30
0.0000000000563712
 11
5181.478413466222
 21
-316.4009511963706
 31
0.0000000000563712
  0
LINE
  5
CEAD
330
18
100
AcDbEntity
  8
01
  6
CONTINUOUS
100
AcDbLine
 10
5302.76784178973
 20
-317.4009512293161
 30
0.0000000000563712
 11
5181.478413466222
 21
-317.4009512293161
 31
0.0000000000563712
  0
LINE
  5
CEAE
330
18
100
AcDbEntity
  8
01
100
AcDbLine
 10
5181.478413466222
 20
-316.4009511963706
 30
0.0000000000563712
 11
5181.478413466222
 21
-317.4009512293161
 31
0.0000000000563712
  0
LINE
  5
CEAF
330
18
100
AcDbEntity
  8
01
100
AcDbLine
 10
5181.478413466222
 20
-289.4009521112786
 30
0.0000000000563712
 11
5181.478413466222
 21
-288.4009519473658
 31
0.0000000000563712
  0
LINE
  5
CEB0
330
18
100
AcDbEntity
  8
01
  6
CONTINUOUS
100
AcDbLine
 10
5181.478413466222
 20
-288.4009519473658
 30
0.0000000000563712
 11
5302.76784178973
 21
-288.4009519473658
 31
0.0000000000563712
  0
LINE
  5
CEB1
330
18
100
AcDbEntity
  8
01
  6
CONTINUOUS
100
AcDbLine
 10
5176.946877214916
 20
-288.4009519473658
 30
0.0000000000563712
 11
5181.478413466222
 21
-288.4009519473658
 31
0.0000000000563712
  0
LINE
  5
CEB2
330
18
100
AcDbEntity
  8
01
  6
CONTINUOUS
100
AcDbLine
 10
5302.76784178973
 20
-290.9009514258252
 30
0.0000000000563712
 11
5181.478413466222
 21
-290.9009514258252
 31
0.0000000000563712
  0
LINE
  5
CEB3
330
18
100
AcDbEntity
  8
01
100
AcDbLine
 10
5181.478413466222
 20
-290.9009514258252
 30
0.0000000000563712
 11
5181.478413466222
 21
-290.4009504125462
 31
0.0000000000563712
  0
LINE
  5
CEB4
330
18
100
AcDbEntity
  8
01
100
AcDbLine
 10
5181.478413466222
 20
-315.4009511925289
 30
0.0000000000563712
 11
5181.478413466222
 21
-314.9009511687801
 31
0.0000000000563712
  0
LINE
  5
CEB5
330
18
100
AcDbEntity
  8
01
  6
CONTINUOUS
100
AcDbLine
 10
5181.478413466222
 20
-314.9009511687801
 30
0.0000000000563712
 11
5302.76784178973
 21
-314.9009511687801
 31
0.0000000000563712
  0
LINE
  5
CEB6
330
18
100
AcDbEntity
  8
01
  6
CONTINUOUS
100
AcDbLine
 10
5181.478413466222
 20
-290.9009514258252
 30
0.0000000000563712
 11
5176.49372545243
 21
-290.9009514258252
 31
0.0000000000563712
  0
LINE
  5
CEB7
330
18
100
AcDbEntity
  8
01
  6
CONTINUOUS
100
AcDbLine
 10
5176.49372545243
 20
-314.9009511687801
 30
0.0000000000563712
 11
5181.478413466222
 21
-314.9009511687801
 31
0.0000000000563712
  0
LINE
  5
CEB8
330
18
100
AcDbEntity
  8
01
  6
CONTINUOUS
100
AcDbLine
 10
5181.478413466222
 20
-317.4009512293161
 30
0.0000000000563712
 11
5176.946877214916
 21
-317.4009512293161
 31
0.0000000000563712
  0
ARC
  5
CEB9
330
18
100
AcDbEntity
  8
01
  6
CONTINUOUS
100
AcDbCircle
 10
5302.767840776451
 20
-302.9009511977678
 30
0.0000000000563712
 40
14.5
100
AcDbArc
 50
270.0
 51
90.0
  0
ARC
  5
CEBA
330
18
100
AcDbEntity
  8
01
  6
CONTINUOUS
100
AcDbCircle
 10
5302.767840776451
 20
-302.9009511977678
 30
0.0000000000563712
 40
12.0
100
AcDbArc
 50
270.0
 51
90.0
  0
LINE
  5
CEBB
330
18
100
AcDbEntity
  8
01
  6
CONTINUOUS
100
AcDbLine
 10
5169.23416284085
 20
-314.9009511687801
 30
0.0000000000563712
 11
5176.49372545243
 21
-314.9009511687801
 31
0.0000000000563712
  0
LINE
  5
CEBD
330
18
100
AcDbEntity
  8
01
  6
CONTINUOUS
100
AcDbLine
 10
5163.455224308975
 20
-288.4009519473658
 30
0.0000000000563712
 11
5176.946877214916
 21
-288.4009519473658
 31
0.0000000000563712
  0
LINE
  5
CEBE
330
18
100
AcDbEntity
  8
01
  6
CONTINUOUS
100
AcDbLine
 10
5176.49372545243
 20
-290.9009514258252
 30
0.0000000000563712
 11
5169.23416284085
 21
-290.9009514258252
 31
0.0000000000563712
  0
LINE
  5
CEC0
330
18
100
AcDbEntity
  8
01
  6
CONTINUOUS
100
AcDbLine
 10
5176.946877214916
 20
-317.4009512293161
 30
0.0000000000563712
 11
5163.455224308975
 21
-317.4009512293161
 31
0.0000000000563712
  0
ARC
  5
CEC3
330
18
100
AcDbEntity
  8
01
  6
CONTINUOUS
100
AcDbCircle
 10
5163.267840776451
 20
-316.4009511977678
 30
0.0000000000563712
 40
1.0
100
AcDbArc
 50
179.9999999999967
 51
270.0
  0
LINE
  5
CEC4
330
18
100
AcDbEntity
  8
01
  6
CONTINUOUS
100
AcDbLine
 10
5163.455224308975
 20
-317.4009512293161
 30
0.0000000000563712
 11
5163.267842206962
 21
-317.4009512293161
 31
0.0000000000563712
  0
ARC
  5
CEC5
330
18
100
AcDbEntity
  8
01
  6
CONTINUOUS
100
AcDbCircle
 10
5163.267840776451
 20
-289.4009511977678
 30
0.0000000000563712
 40
1.0
100
AcDbArc
 50
90.0
 51
180.0
  0
LINE
  5
CEC6
330
18
100
AcDbEntity
  8
01
  6
CONTINUOUS
100
AcDbLine
 10
5163.267842206962
 20
-288.4009519473658
 30
0.0000000000563712
 11
5163.455224308975
 21
-288.4009519473658
 31
0.0000000000563712
  0
LINE
  5
CEC7
330
18
100
AcDbEntity
  8
01
  6
CONTINUOUS
100
AcDbLine
 10
5162.267840180404
 20
-316.4009511963706
 30
0.0000000000563712
 11
5162.267840180404
 21
-289.4009521112786
 31
0.0000000000563712
  0
LINE
  5
CEFE
330
18
100
AcDbEntity
  8
01
  6
CONTINUOUS
100
AcDbLine
 10
5210.267956728763
 20
-59.1022699679562
 30
0.0000000000563712
 11
5210.267956728763
 21
-79.60226680891003
 31
0.0000000000563712
  0
ARC
  5
CEFF
330
18
100
AcDbEntity
  8
01
  6
CONTINUOUS
100
AcDbCircle
 10
5218.267956907577
 20
-79.60226824227215
 30
0.0000000000563712
 40
8.000000000000028
100
AcDbArc
 50
180.0
 51
270.0
  0
LINE
  5
CF00
330
18
100
AcDbEntity
  8
01
  6
CONTINUOUS
100
AcDbLine
 10
5218.26795617742
 20
-87.60226812021222
 30
0.0000000000563712
 11
5316.267955477066
 21
-87.60226812021222
 31
0.0000000000563712
  0
ARC
  5
CF01
330
18
100
AcDbEntity
  8
01
  6
CONTINUOUS
100
AcDbCircle
 10
5316.267956907577
 20
-88.60226824227215
 30
0.0000000000563712
 40
1.0
100
AcDbArc
 50
0.0
 51
90.0
  0
LINE
  5
CF02
330
18
100
AcDbEntity
  8
01
  6
CONTINUOUS
100
AcDbLine
 10
5317.267957503624
 20
-88.60226828412499
 30
0.0000000000563712
 11
5317.267957503624
 21
-98.10226890997376
 31
0.0000000000563712
  0
ARC
  5
CF03
330
18
100
AcDbEntity
  8
01
  6
CONTINUOUS
100
AcDbCircle
 10
5316.267956907577
 20
-98.10226824227215
 30
0.0000000000563712
 40
1.0
100
AcDbArc
 50
270.0
 51
0.0
  0
LINE
  5
CF04
330
18
100
AcDbEntity
  8
01
  6
CONTINUOUS
100
AcDbLine
 10
5316.267955477066
 20
-99.10226814256396
 30
0.0000000000563712
 11
5315.267953450508
 21
-99.10226814256396
 31
0.0000000000563712
  0
LINE
  5
CF05
330
18
100
AcDbEntity
  8
01
  6
CONTINUOUS
100
AcDbLine
 10
5163.498397345371
 20
-68.74095570103611
 30
0.0000000000563712
 11
5162.54903691513
 21
-66.7050398494431
 31
0.0000000000563712
  0
ARC
  5
CF06
330
18
100
AcDbEntity
  8
01
  6
CONTINUOUS
100
AcDbCircle
 10
5165.267956907577
 20
-65.43718425434338
 30
0.0000000000563712
 40
2.999999999999972
100
AcDbArc
 50
180.0
 51
205.0000000000053
  0
LINE
  5
CF07
330
18
100
AcDbEntity
  8
01
  6
CONTINUOUS
100
AcDbLine
 10
5162.267956311531
 20
-65.43718572513546
 30
0.0000000000563712
 11
5162.267956311531
 21
-59.1022699679562
 31
0.0000000000563712
  0
LINE
  5
CF09
330
18
100
AcDbEntity
  8
01
  6
CONTINUOUS
100
AcDbLine
 10
5315.267953450508
 20
-99.10226814256396
 30
0.0000000000563712
 11
5302.767957920856
 21
-99.10226814256396
 31
0.0000000000563712
  0
LINE
  5
CF0A
330
18
100
AcDbEntity
  8
01
  6
CONTINUOUS
100
AcDbLine
 10
5176.040682370491
 20
-95.63797820167031
 30
0.0000000000563712
 11
5168.781127209491
 21
-80.0698056425282
 31
0.0000000000563712
  0
LINE
  5
CF0B
330
18
100
AcDbEntity
  8
01
  6
CONTINUOUS
100
AcDbLine
 10
5302.767957920856
 20
-99.10226814256396
 30
0.0000000000563712
 11
5181.478529597349
 21
-99.10226814256396
 31
0.0000000000563712
  0
ARC
  5
CF0C
330
18
100
AcDbEntity
  8
01
  6
CONTINUOUS
100
AcDbCircle
 10
5181.478531191538
 20
-93.10226824227215
 30
0.0000000000563712
 40
6.000000000000004
100
AcDbArc
 50
205.0000000000049
 51
270.0
  0
LINE
  5
CF0D
330
18
100
AcDbEntity
  8
01
100
AcDbLine
 10
5162.267956311531
 20
-59.1022699679562
 30
0.0000000000563712
 11
5210.267956728763
 21
-59.1022699679562
 31
0.0000000000563712
  0
LINE
  5
CF4B
330
18
100
AcDbEntity
  8
01
  6
CONTINUOUS
100
AcDbLine
 10
5207.267956520147
 20
-7.402269967956045
 30
0.0000000000563712
 11
5207.767956520147
 21
-7.402269967956045
 31
0.0000000000563712
  0
ARC
  5
CF4C
330
18
100
AcDbEntity
  8
01
  6
CONTINUOUS
100
AcDbCircle
 10
5207.767956520147
 20
-7.10226996795609
 30
0.0000000000563712
 40
0.2999999999999972
100
AcDbArc
 50
270.0
 51
0.0
  0
LINE
  5
CF4D
330
18
100
AcDbEntity
  8
01
  6
CONTINUOUS
100
AcDbLine
 10
5208.067956520146
 20
-6.702269967956113
 30
0.0000000000563712
 11
5208.067956520146
 21
-7.10226996795609
 31
0.0000000000563712
  0
LINE
  5
CF4E
330
18
100
AcDbEntity
  8
01
  6
CONTINUOUS
100
AcDbLine
 10
5165.267956520147
 20
-7.402269967956045
 30
0.0000000000563712
 11
5207.267956520147
 21
-7.402269967956045
 31
0.0000000000563712
  0
LINE
  5
CF4F
330
18
100
AcDbEntity
  8
01
  6
CONTINUOUS
100
AcDbLine
 10
5164.767956520147
 20
-7.402269967956045
 30
0.0000000000563712
 11
5165.267956520147
 21
-7.402269967956045
 31
0.0000000000563712
  0
ARC
  5
CF50
330
18
100
AcDbEntity
  8
01
  6
CONTINUOUS
100
AcDbCircle
 10
5164.767956520147
 20
-7.10226996795609
 30
0.0000000000563712
 40
0.3000000000000114
100
AcDbArc
 50
180.0
 51
270.0
  0
LINE
  5
CF51
330
18
100
AcDbEntity
  8
01
  6
CONTINUOUS
100
AcDbLine
 10
5164.467956520147
 20
-6.702269967956113
 30
0.0000000000563712
 11
5164.467956520147
 21
-7.10226996795609
 31
0.0000000000563712
  0
LINE
  5
CF52
330
18
100
AcDbEntity
  8
01
  6
CONTINUOUS
100
AcDbLine
 10
5162.267956520147
 20
-7.402269967956045
 30
0.0000000000563712
 11
5210.267956520147
 21
-7.402269967956045
 31
0.0000000000563712
  0
LINE
  5
CF53
330
18
100
AcDbEntity
  8
01
  6
CONTINUOUS
100
AcDbLine
 10
5162.267956520147
 20
-12.90226996795604
 30
0.0000000000563712
 11
5210.267956520147
 21
-12.90226996795604
 31
0.0000000000563712
  0
LINE
  5
CF54
330
18
100
AcDbEntity
  8
01
100
AcDbLine
 10
5162.267956520147
 20
-7.402269967956045
 30
0.0000000000563712
 11
5162.267956520147
 21
-12.90226996795604
 31
0.0000000000563712
  0
LINE
  5
CF55
330
18
100
AcDbEntity
  8
01
100
AcDbLine
 10
5210.267956520147
 20
-7.402269967956045
 30
0.0000000000563712
 11
5210.267956520147
 21
-12.90226996795604
 31
0.0000000000563712
  0
LINE
  5
CF56
330
18
100
AcDbEntity
  8
01
  6
CONTINUOUS
100
AcDbLine
 10
5210.267956728763
 20
-6.702269967956113
 30
0.0000000000563712
 11
5210.267956728763
 21
13.79772687299771
 31
0.0000000000563712
  0
ARC
  5
CF57
330
18
100
AcDbEntity
  8
01
  6
CONTINUOUS
100
AcDbCircle
 10
5218.267956907577
 20
13.79772830635983
 30
0.0000000000563712
 40
8.000000000000028
100
AcDbArc
 50
90.0
 51
180.0
  0
LINE
  5
CF58
330
18
100
AcDbEntity
  8
01
  6
CONTINUOUS
100
AcDbLine
 10
5218.26795617742
 20
21.79772818429988
 30
0.0000000000563712
 11
5316.267955477066
 21
21.79772818429988
 31
0.0000000000563712
  0
ARC
  5
CF59
330
18
100
AcDbEntity
  8
01
  6
CONTINUOUS
100
AcDbCircle
 10
5316.267956907577
 20
22.79772830635982
 30
0.0000000000563712
 40
1.0
100
AcDbArc
 50
270.0
 51
0.0
  0
LINE
  5
CF5A
330
18
100
AcDbEntity
  8
01
  6
CONTINUOUS
100
AcDbLine
 10
5317.267957503624
 20
22.79772834821266
 30
0.0000000000563712
 11
5317.267957503624
 21
32.29772897406143
 31
0.0000000000563712
  0
ARC
  5
CF5B
330
18
100
AcDbEntity
  8
01
  6
CONTINUOUS
100
AcDbCircle
 10
5316.267956907577
 20
32.29772830635982
 30
0.0000000000563712
 40
1.0
100
AcDbArc
 50
0.0
 51
90.0
  0
LINE
  5
CF5C
330
18
100
AcDbEntity
  8
01
  6
CONTINUOUS
100
AcDbLine
 10
5316.267955477066
 20
33.29772820665163
 30
0.0000000000563712
 11
5315.267953450508
 21
33.29772820665163
 31
0.0000000000563712
  0
LINE
  5
CF5D
330
18
100
AcDbEntity
  8
01
  6
CONTINUOUS
100
AcDbLine
 10
5163.498397345371
 20
2.936415765123797
 30
0.0000000000563712
 11
5162.54903691513
 21
0.9004999135307798
 31
0.0000000000563712
  0
ARC
  5
CF5E
330
18
100
AcDbEntity
  8
01
  6
CONTINUOUS
100
AcDbCircle
 10
5165.267956907577
 20
-0.3673556815689381
 30
0.0000000000563712
 40
2.999999999999972
100
AcDbArc
 50
154.9999999999944
 51
180.0
  0
LINE
  5
CF5F
330
18
100
AcDbEntity
  8
01
  6
CONTINUOUS
100
AcDbLine
 10
5162.267956311531
 20
-0.3673542107768526
 30
0.0000000000563712
 11
5162.267956311531
 21
-6.702269967956113
 31
0.0000000000563712
  0
LINE
  5
CF61
330
18
100
AcDbEntity
  8
01
  6
CONTINUOUS
100
AcDbLine
 10
5315.267953450508
 20
33.29772820665163
 30
0.0000000000563712
 11
5302.767957920856
 21
33.29772820665163
 31
0.0000000000563712
  0
LINE
  5
CF62
330
18
100
AcDbEntity
  8
01
  6
CONTINUOUS
100
AcDbLine
 10
5176.040682370491
 20
29.83343826575798
 30
0.0000000000563712
 11
5168.781127209491
 21
14.26526570661586
 31
0.0000000000563712
  0
LINE
  5
CF63
330
18
100
AcDbEntity
  8
01
  6
CONTINUOUS
100
AcDbLine
 10
5302.767957920856
 20
33.29772820665163
 30
0.0000000000563712
 11
5181.478529597349
 21
33.29772820665163
 31
0.0000000000563712
  0
ARC
  5
CF64
330
18
100
AcDbEntity
  8
01
  6
CONTINUOUS
100
AcDbCircle
 10
5181.478531191538
 20
27.29772830635982
 30
0.0000000000563712
 40
6.000000000000004
100
AcDbArc
 50
90.0
 51
154.9999999999946
  0
LINE
  5
CF65
330
18
100
AcDbEntity
  8
01
100
AcDbLine
 10
5162.267956311531
 20
-6.702269967956113
 30
0.0000000000563712
 11
5210.267956728763
 21
-6.702269967956113
 31
0.0000000000563712
  0
LINE
  5
CF66
330
18
100
AcDbEntity
  8
01
  6
CONTINUOUS
100
AcDbLine
 10
5042.467840180404
 20
-290.6022699669279
 30
0.0000000000563712
 11
5042.067840180404
 21
-290.6022699669279
 31
0.0000000000563712
  0
LINE
  5
CF67
330
18
100
AcDbEntity
  8
01
  6
CONTINUOUS
100
AcDbLine
 10
5041.767840180404
 20
-290.9022699669281
 30
0.0000000000563712
 11
5041.767840180404
 21
-291.4022699669281
 31
0.0000000000563712
  0
ARC
  5
CF68
330
18
100
AcDbEntity
  8
01
  6
CONTINUOUS
100
AcDbCircle
 10
5042.067840180404
 20
-290.9022699669281
 30
0.0000000000563712
 40
0.3000000000000114
100
AcDbArc
 50
90.0
 51
180.0
  0
LINE
  5
CF69
330
18
100
AcDbEntity
  8
01
  6
CONTINUOUS
100
AcDbLine
 10
5041.767840180404
 20
-288.4022699669272
 30
0.0000000000563712
 11
5041.767840180404
 21
-314.4022699669281
 31
0.0000000000563712
  0
LINE
  5
CF6A
330
18
100
AcDbEntity
  8
01
  6
CONTINUOUS
100
AcDbLine
 10
5041.767840180404
 20
-314.4022699669281
 30
0.0000000000563712
 11
5041.767840180404
 21
-314.9022699669281
 31
0.0000000000563712
  0
ARC
  5
CF6B
330
18
100
AcDbEntity
  8
01
  6
CONTINUOUS
100
AcDbCircle
 10
5042.067840180404
 20
-314.9022699669281
 30
0.0000000000563712
 40
0.3000000000000398
100
AcDbArc
 50
180.0
 51
270.0
  0
LINE
  5
CF6C
330
18
100
AcDbEntity
  8
01
  6
CONTINUOUS
100
AcDbLine
 10
5042.467840180404
 20
-315.2022699669274
 30
0.0000000000563712
 11
5042.067840180404
 21
-315.2022699669274
 31
0.0000000000563712
  0
LINE
  5
CF6D
330
18
100
AcDbEntity
  8
1CENTER
100
AcDbLine
 10
5050.967840180404
 20
-308.2915585742803
 30
0.0000000000563712
 11
5050.967840180404
 21
-322.5427716750319
 31
0.0000000000563712
  0
LINE
  5
CF6E
330
18
100
AcDbEntity
  8
01
100
AcDbLine
 10
5041.767840180404
 20
-314.9022699669281
 30
0.0000000000563712
 11
5041.767840180404
 21
-317.4022699669272
 31
0.0000000000563712
  0
LINE
  5
CF6F
330
18
100
AcDbEntity
  8
01
100
AcDbLine
 10
5036.267840180404
 20
-288.4022699669272
 30
0.0000000000563712
 11
5036.267840180404
 21
-317.402269966929
 31
0.0000000000563712
  0
LINE
  5
CF70
330
18
100
AcDbEntity
  8
01
100
AcDbLine
 10
5041.767840180404
 20
-317.402269966929
 30
0.0000000000563712
 11
5036.267840180404
 21
-317.402269966929
 31
0.0000000000563712
  0
LINE
  5
CF71
330
18
100
AcDbEntity
  8
01
100
AcDbLine
 10
5041.767840180404
 20
-288.4022699669272
 30
0.0000000000563712
 11
5036.267840180404
 21
-288.4022699669272
 31
0.0000000000563712
  0
SPLINE
  5
CF72
330
18
100
AcDbEntity
  8
01
  6
CONTINUOUS
100
AcDbSpline
210
0.0
220
0.0
230
1.0
 70
     8
 71
     3
 72
    33
 73
    29
 74
     0
 42
0.000000001
 43
0.00000001
 40
0.0
 40
0.0
 40
0.0
 40
0.0
 40
0.0107026488860271
 40
0.0519288465215787
 40
0.0931289482748471
 40
0.134303153357556
 40
0.1754532540854584
 40
0.2165817319187309
 40
0.2576913504976579
 40
0.2987850749191529
 40
0.3398656280320848
 40
0.3809355662014297
 40
0.4219970690981862
 40
0.46305216043309
 40
0.5041026196150179
 40
0.5451500406172949
 40
0.5861955878620898
 40
0.627241043836128
 40
0.6682880456407774
 40
0.7093387687199076
 40
0.7503959123396361
 40
0.7914620646192059
 40
0.8325408102607734
 40
0.873635428974601
 40
0.9147496527058158
 40
0.9558870416669216
 40
0.9970506024098833
 40
1.0
 40
1.0
 40
1.0
 40
1.0
 10
5058.225955978639
 20
-313.5362341676068
 30
0.0000000000563712
 10
5058.148881928398
 20
-313.4949790846312
 30
0.0000000000563712
 10
5057.774921559486
 20
-313.294810986538
 30
0.0000000000563712
 10
5057.145819620548
 20
-312.847190893614
 30
0.0000000000563712
 10
5056.349312840109
 20
-312.1962836070633
 30
0.0000000000563712
 10
5055.613441722902
 20
-311.4608558759251
 30
0.0000000000563712
 10
5054.940282863316
 20
-310.6560531040467
 30
0.0000000000563712
 10
5054.336508285372
 20
-309.7862028653879
 30
0.0000000000563712
 10
5053.806820484631
 20
-308.8592043644327
 30
0.0000000000563712
 10
5053.35570413906
 20
-307.88261566703
 30
0.0000000000563712
 10
5052.986864910215
 20
-306.8646209709078
 30
0.0000000000563712
 10
5052.70336978734
 20
-305.813690119632
 30
0.0000000000563712
 10
5052.507574621452
 20
-304.7385840393709
 30
0.0000000000563712
 10
5052.401086955613
 20
-303.6482662396609
 30
0.0000000000563712
 10
5052.384774296735
 20
-302.5518239568964
 30
0.0000000000563712
 10
5052.458763180105
 20
-301.4584025233014
 30
0.0000000000563712
 10
5052.622390939926
 20
-300.3771148861715
 30
0.0000000000563712
 10
5052.874274959908
 20
-299.3169722563906
 30
0.0000000000563712
 10
5053.212270020896
 20
-298.2867927186559
 30
0.0000000000563712
 10
5053.63352177004
 20
-297.295130781565
 30
0.0000000000563712
 10
5054.13450011776
 20
-296.3502105898373
 30
0.0000000000563712
 10
5054.711026527192
 20
-295.4599006822837
 30
0.0000000000563712
 10
5055.358204304393
 20
-294.6313388984839
 30
0.0000000000563712
 10
5056.071022024217
 20
-293.8722668362587
 30
0.0000000000563712
 10
5056.842249507937
 20
-293.1855661469981
 30
0.0000000000563712
 10
5057.670501729698
 20
-292.589580851992
 30
0.0000000000563712
 10
5058.264121553762
 20
-292.2115514462394
 30
0.0000000000563712
 10
5058.589130299813
 20
-292.0599114408319
 30
0.0000000000563712
 10
5058.610860422857
 20
-292.0497727722091
 30
0.0000000000563712
  0
ARC
  5
CF73
330
18
100
AcDbEntity
  8
01
  6
CONTINUOUS
100
AcDbCircle
 10
5063.041209552264
 20
-304.7927657031644
 30
0.0000000000563712
 40
9.959544443809994
100
AcDbArc
 50
239.7006507597929
 51
269.8363140078068
  0
ARC
  5
CF74
330
18
100
AcDbEntity
  8
01
  6
CONTINUOUS
100
AcDbCircle
 10
5063.053133854944
 20
-301.056857867593
 30
0.0000000000563712
 40
10.00466893069151
100
AcDbArc
 50
90.23123745623111
 51
120.6725775065913
  0
LINE
  5
CF76
330
18
100
AcDbEntity
  8
01
  6
CONTINUOUS
100
AcDbLine
 10
5062.505614176996
 20
-314.7522695038629
 30
0.0000000000563712
 11
5063.012756571777
 21
-314.7522695038629
 31
0.0000000000563712
  0
LINE
  5
CF79
330
18
100
AcDbEntity
  8
01
  6
CONTINUOUS
100
AcDbLine
 10
5062.505614176996
 20
-291.0522704154414
 30
0.0000000000563712
 11
5063.012756571777
 21
-291.0522704154414
 31
0.0000000000563712
  0
LINE
  5
CF7B
330
18
100
AcDbEntity
  8
01
  6
CONTINUOUS
100
AcDbLine
 10
5078.580929130919
 20
-314.7522695038629
 30
0.0000000000563712
 11
5063.012756571777
 21
-314.7522695038629
 31
0.0000000000563712
  0
LINE
  5
CF7C
330
18
100
AcDbEntity
  8
01
  6
CONTINUOUS
100
AcDbLine
 10
5063.012756571777
 20
-291.0522704154414
 30
0.0000000000563712
 11
5078.580929130919
 21
-291.0522704154414
 31
0.0000000000563712
  0
LINE
  5
CF7E
330
18
100
AcDbEntity
  8
01
  6
CONTINUOUS
100
AcDbLine
 10
5081.467838273055
 20
-291.5522695660752
 30
0.0000000000563712
 11
5081.467838273055
 21
-314.2522694219065
 31
0.0000000000563712
  0
ARC
  5
CF7F
330
18
100
AcDbEntity
  8
01
  6
CONTINUOUS
100
AcDbCircle
 10
5080.96783845472
 20
-291.5522695108713
 30
0.0000000000563712
 40
0.5
100
AcDbArc
 50
0.0
 51
90.0
  0
LINE
  5
CF80
330
18
100
AcDbEntity
  8
01
  6
CONTINUOUS
100
AcDbLine
 10
5078.580929130919
 20
-291.0522704154414
 30
0.0000000000563712
 11
5080.968789543207
 21
-291.0522704154414
 31
0.0000000000563712
  0
ARC
  5
CF81
330
18
100
AcDbEntity
  8
01
  6
CONTINUOUS
100
AcDbCircle
 10
5080.96783845472
 20
-314.2522695108713
 30
0.0000000000563712
 40
0.5
100
AcDbArc
 50
270.0
 51
0.0
  0
LINE
  5
CF82
330
18
100
AcDbEntity
  8
01
  6
CONTINUOUS
100
AcDbLine
 10
5080.96783845472
 20
-314.7522695038629
 30
0.0000000000563712
 11
5078.580929130919
 21
-314.7522695038629
 31
0.0000000000563712
  0
LINE
  5
CF83
330
18
100
AcDbEntity
  8
01
100
AcDbLine
 10
5049.647990778692
 20
-317.4022695424196
 30
0.0000000000563712
 11
5048.802755937583
 21
-317.4022695424196
 31
0.0000000000563712
  0
LINE
  5
CF84
330
18
100
AcDbEntity
  8
01
100
AcDbLine
 10
5048.802755937583
 20
-316.4022695094741
 30
0.0000000000563712
 11
5048.802755937583
 21
-317.4022695424196
 31
0.0000000000563712
  0
LINE
  5
CF85
330
18
100
AcDbEntity
  8
01
  6
CONTINUOUS
100
AcDbLine
 10
5042.467840180404
 20
-288.4022702604693
 30
0.0000000000563712
 11
5048.802755937583
 21
-288.4022702604693
 31
0.0000000000563712
  0
LINE
  5
CF86
330
18
100
AcDbEntity
  8
01
100
AcDbLine
 10
5048.802755937583
 20
-289.4022704243821
 30
0.0000000000563712
 11
5048.802755937583
 21
-288.4022702604693
 31
0.0000000000563712
  0
LINE
  5
CF87
330
18
100
AcDbEntity
  8
01
  6
CONTINUOUS
100
AcDbLine
 10
5042.467840180404
 20
-289.4022704243821
 30
0.0000000000563712
 11
5042.467840180404
 21
-288.4022702604693
 31
0.0000000000563712
  0
LINE
  5
CF88
330
18
100
AcDbEntity
  8
01
100
AcDbLine
 10
5048.802755937583
 20
-316.4022695094741
 30
0.0000000000563712
 11
5048.802755937583
 21
-289.4022704243821
 31
0.0000000000563712
  0
LINE
  5
CF89
330
18
100
AcDbEntity
  8
01
  6
CONTINUOUS
100
AcDbLine
 10
5042.467840180404
 20
-289.4022704243821
 30
0.0000000000563712
 11
5042.467840180404
 21
-316.4022695094741
 31
0.0000000000563712
  0
LINE
  5
CF8A
330
18
100
AcDbEntity
  8
01
  6
CONTINUOUS
100
AcDbLine
 10
5048.802755937583
 20
-317.4022695424196
 30
0.0000000000563712
 11
5042.467840180404
 21
-317.4022695424196
 31
0.0000000000563712
  0
LINE
  5
CF8B
330
18
100
AcDbEntity
  8
01
  6
CONTINUOUS
100
AcDbLine
 10
5042.467840180404
 20
-317.4022695424196
 30
0.0000000000563712
 11
5042.467840180404
 21
-316.4022695094741
 31
0.0000000000563712
  0
LINE
  5
CF8C
330
18
100
AcDbEntity
  8
01
100
AcDbLine
 10
5048.802755937583
 20
-288.4022702604693
 30
0.0000000000563712
 11
5049.647990778692
 21
-288.4022702604693
 31
0.0000000000563712
  0
LINE
  5
CF8E
330
18
100
AcDbEntity
  8
01
  6
CONTINUOUS
100
AcDbLine
 10
5078.580929130919
 20
-317.4022695424196
 30
0.0000000000563712
 11
5049.647990778692
 21
-317.4022695424196
 31
0.0000000000563712
  0
LINE
  5
CF91
330
18
100
AcDbEntity
  8
01
  6
CONTINUOUS
100
AcDbLine
 10
5049.647990778692
 20
-288.4022702604693
 30
0.0000000000563712
 11
5078.580929130919
 21
-288.4022702604693
 31
0.0000000000563712
  0
ARC
  5
CF93
330
18
100
AcDbEntity
  8
01
  6
CONTINUOUS
100
AcDbCircle
 10
5063.249122515695
 20
-300.9630553842716
 30
0.0000000000563712
 40
10.06081684654995
100
AcDbArc
 50
90.14269436359571
 51
117.6981167287013
  0
ARC
  5
CF94
330
18
100
AcDbEntity
  8
01
  6
CONTINUOUS
100
AcDbCircle
 10
5063.248389681746
 20
-304.8337608806078
 30
0.0000000000563712
 40
10.06853798150849
100
AcDbArc
 50
239.7931362837547
 51
269.8615853226359
  0
LINE
  5
CF95
330
18
100
AcDbEntity
  8
01
  6
CONTINUOUS
100
AcDbLine
 10
5063.224066213376
 20
-314.9022694818836
 30
0.0000000000563712
 11
5078.792238772518
 21
-314.9022694818836
 31
0.0000000000563712
  0
LINE
  5
CF97
330
18
100
AcDbEntity
  8
01
  6
CONTINUOUS
100
AcDbLine
 10
5078.792238772518
 20
-290.9022697389287
 30
0.0000000000563712
 11
5063.224066213376
 21
-290.9022697389287
 31
0.0000000000563712
  0
ARC
  5
CF99
330
18
100
AcDbEntity
  8
01
  6
CONTINUOUS
100
AcDbCircle
 10
5081.96783845472
 20
-290.4022695108713
 30
0.0000000000563712
 40
0.5
100
AcDbArc
 50
270.0
 51
0.0
  0
LINE
  5
CF9A
330
18
100
AcDbEntity
  8
01
  6
CONTINUOUS
100
AcDbLine
 10
5081.967838273055
 20
-290.9022697389287
 30
0.0000000000563712
 11
5078.792238772518
 21
-290.9022697389287
 31
0.0000000000563712
  0
ARC
  5
CF9B
330
18
100
AcDbEntity
  8
01
  6
CONTINUOUS
100
AcDbCircle
 10
5081.46783845472
 20
-289.4022695108713
 30
0.0000000000563712
 40
1.0
100
AcDbArc
 50
0.0
 51
90.0
  0
LINE
  5
CF9C
330
18
100
AcDbEntity
  8
01
  6
CONTINUOUS
100
AcDbLine
 10
5078.580929130919
 20
-288.4022702604693
 30
0.0000000000563712
 11
5081.467839122422
 21
-288.4022702604693
 31
0.0000000000563712
  0
ARC
  5
CF9D
330
18
100
AcDbEntity
  8
01
  6
CONTINUOUS
100
AcDbCircle
 10
5081.96783845472
 20
-315.4022695108713
 30
0.0000000000563712
 40
0.5
100
AcDbArc
 50
0.0
 51
90.0
  0
LINE
  5
CF9E
330
18
100
AcDbEntity
  8
01
  6
CONTINUOUS
100
AcDbLine
 10
5078.792238772518
 20
-314.9022694818836
 30
0.0000000000563712
 11
5081.967838273055
 21
-314.9022694818836
 31
0.0000000000563712
  0
ARC
  5
CF9F
330
18
100
AcDbEntity
  8
01
  6
CONTINUOUS
100
AcDbCircle
 10
5081.46783845472
 20
-316.4022695108713
 30
0.0000000000563712
 40
1.0
100
AcDbArc
 50
270.0
 51
0.0
  0
LINE
  5
CFA0
330
18
100
AcDbEntity
  8
01
  6
CONTINUOUS
100
AcDbLine
 10
5081.467839122422
 20
-317.4022695424196
 30
0.0000000000563712
 11
5078.580929130919
 21
-317.4022695424196
 31
0.0000000000563712
  0
LINE
  5
CFA1
330
18
100
AcDbEntity
  8
01
  6
CONTINUOUS
100
AcDbLine
 10
5082.467838355012
 20
-315.4022695056324
 30
0.0000000000563712
 11
5082.467838355012
 21
-316.4022695094741
 31
0.0000000000563712
  0
LINE
  5
CFA2
330
18
100
AcDbEntity
  8
01
  6
CONTINUOUS
100
AcDbLine
 10
5082.467838355012
 20
-289.4022704243821
 30
0.0000000000563712
 11
5082.467838355012
 21
-290.4022687256497
 31
0.0000000000563712
  0
LINE
  5
CFA3
330
18
100
AcDbEntity
  8
01
  6
CONTINUOUS
100
AcDbLine
 10
5079.96783794523
 20
-290.9022697389287
 30
0.0000000000563712
 11
5079.96783794523
 21
-291.0522704154414
 31
0.0000000000563712
  0
LINE
  5
CFA4
330
18
100
AcDbEntity
  8
01
  6
CONTINUOUS
100
AcDbLine
 10
5079.96783794523
 20
-314.7522695038629
 30
0.0000000000563712
 11
5079.96783794523
 21
-314.9022694818836
 31
0.0000000000563712
  0
LINE
  5
CFA5
330
18
100
AcDbEntity
  8
01
  6
CONTINUOUS
100
AcDbLine
 10
5082.467838355012
 20
-290.4022687256497
 30
0.0000000000563712
 11
5082.467838355012
 21
-315.4022695056324
 31
0.0000000000563712
  0
LINE
  5
CFA6
330
18
100
AcDbEntity
  8
01
  6
CONTINUOUS
100
AcDbLine
 10
5076.503548935659
 20
-291.0522704154414
 30
0.0000000000563712
 11
5076.503548935659
 21
-290.9022697389287
 31
0.0000000000563712
  0
LINE
  5
CFA7
330
18
100
AcDbEntity
  8
01
  6
CONTINUOUS
100
AcDbLine
 10
5076.503548935659
 20
-314.9022694818836
 30
0.0000000000563712
 11
5076.503548935659
 21
-314.7522695038629
 31
0.0000000000563712
  0
LINE
  5
CFA8
330
18
100
AcDbEntity
  8
1CENTER
100
AcDbLine
 10
4981.568072859894
 20
-308.2915585742803
 30
0.0000000000563712
 11
4981.568072859894
 21
-322.5427716750319
 31
0.0000000000563712
  0
LINE
  5
CFA9
330
18
100
AcDbEntity
  8
01
  6
CONTINUOUS
100
AcDbLine
 10
4990.068072859894
 20
-290.6022699669279
 30
0.0000000000563712
 11
4990.468072859893
 21
-290.6022699669279
 31
0.0000000000563712
  0
LINE
  5
CFAA
330
18
100
AcDbEntity
  8
01
  6
CONTINUOUS
100
AcDbLine
 10
4990.768072859893
 20
-290.9022699669281
 30
0.0000000000563712
 11
4990.768072859893
 21
-291.4022699669281
 31
0.0000000000563712
  0
ARC
  5
CFAB
330
18
100
AcDbEntity
  8
01
  6
CONTINUOUS
100
AcDbCircle
 10
4990.468072859893
 20
-290.9022699669281
 30
0.0000000000563712
 40
0.3000000000000114
100
AcDbArc
 50
0.0
 51
90.0
  0
LINE
  5
CFAC
330
18
100
AcDbEntity
  8
01
  6
CONTINUOUS
100
AcDbLine
 10
4990.768072859893
 20
-288.4022699669272
 30
0.0000000000563712
 11
4990.768072859893
 21
-314.4022699669281
 31
0.0000000000563712
  0
LINE
  5
CFAD
330
18
100
AcDbEntity
  8
01
  6
CONTINUOUS
100
AcDbLine
 10
4990.768072859893
 20
-314.4022699669281
 30
0.0000000000563712
 11
4990.768072859893
 21
-314.9022699669281
 31
0.0000000000563712
  0
ARC
  5
CFAE
330
18
100
AcDbEntity
  8
01
  6
CONTINUOUS
100
AcDbCircle
 10
4990.468072859893
 20
-314.9022699669281
 30
0.0000000000563712
 40
0.3000000000000398
100
AcDbArc
 50
270.0
 51
0.0
  0
LINE
  5
CFAF
330
18
100
AcDbEntity
  8
01
  6
CONTINUOUS
100
AcDbLine
 10
4990.068072859894
 20
-315.2022699669274
 30
0.0000000000563712
 11
4990.468072859893
 21
-315.2022699669274
 31
0.0000000000563712
  0
LINE
  5
CFB0
330
18
100
AcDbEntity
  8
1CENTER
100
AcDbLine
 10
4981.568072859894
 20
-308.2915585742803
 30
0.0000000000563712
 11
4981.568072859894
 21
-322.5427716750319
 31
0.0000000000563712
  0
LINE
  5
CFB1
330
18
100
AcDbEntity
  8
01
100
AcDbLine
 10
4990.768072859893
 20
-314.9022699669281
 30
0.0000000000563712
 11
4990.768072859893
 21
-317.4022699669272
 31
0.0000000000563712
  0
LINE
  5
CFB2
330
18
100
AcDbEntity
  8
01
100
AcDbLine
 10
4996.268072859893
 20
-288.4022699669272
 30
0.0000000000563712
 11
4996.268072859893
 21
-317.402269966929
 31
0.0000000000563712
  0
LINE
  5
CFB3
330
18
100
AcDbEntity
  8
01
100
AcDbLine
 10
4990.768072859893
 20
-317.402269966929
 30
0.0000000000563712
 11
4996.268072859893
 21
-317.402269966929
 31
0.0000000000563712
  0
LINE
  5
CFB4
330
18
100
AcDbEntity
  8
01
100
AcDbLine
 10
4990.768072859893
 20
-288.4022699669272
 30
0.0000000000563712
 11
4996.268072859893
 21
-288.4022699669272
 31
0.0000000000563712
  0
SPLINE
  5
CFB5
330
18
100
AcDbEntity
  8
01
  6
CONTINUOUS
100
AcDbSpline
210
0.0
220
0.0
230
1.0
 70
     8
 71
     3
 72
    33
 73
    29
 74
     0
 42
0.000000001
 43
0.00000001
 40
0.0
 40
0.0
 40
0.0
 40
0.0
 40
0.0107026488860271
 40
0.0519288465215787
 40
0.0931289482748471
 40
0.134303153357556
 40
0.1754532540854584
 40
0.2165817319187309
 40
0.2576913504976579
 40
0.2987850749191529
 40
0.3398656280320848
 40
0.3809355662014297
 40
0.4219970690981862
 40
0.46305216043309
 40
0.5041026196150179
 40
0.5451500406172949
 40
0.5861955878620898
 40
0.627241043836128
 40
0.6682880456407774
 40
0.7093387687199076
 40
0.7503959123396361
 40
0.7914620646192059
 40
0.8325408102607734
 40
0.873635428974601
 40
0.9147496527058158
 40
0.9558870416669216
 40
0.9970506024098833
 40
1.0
 40
1.0
 40
1.0
 40
1.0
 10
4974.309957061659
 20
-313.5362341676068
 30
0.0000000000563712
 10
4974.3870311119
 20
-313.4949790846312
 30
0.0000000000563712
 10
4974.760991480812
 20
-313.294810986538
 30
0.0000000000563712
 10
4975.39009341975
 20
-312.847190893614
 30
0.0000000000563712
 10
4976.186600200189
 20
-312.1962836070633
 30
0.0000000000563712
 10
4976.922471317395
 20
-311.4608558759251
 30
0.0000000000563712
 10
4977.595630176981
 20
-310.6560531040467
 30
0.0000000000563712
 10
4978.199404754925
 20
-309.7862028653879
 30
0.0000000000563712
 10
4978.729092555666
 20
-308.8592043644327
 30
0.0000000000563712
 10
4979.180208901237
 20
-307.88261566703
 30
0.0000000000563712
 10
4979.549048130082
 20
-306.8646209709078
 30
0.0000000000563712
 10
4979.832543252957
 20
-305.813690119632
 30
0.0000000000563712
 10
4980.028338418845
 20
-304.7385840393709
 30
0.0000000000563712
 10
4980.134826084684
 20
-303.6482662396609
 30
0.0000000000563712
 10
4980.151138743563
 20
-302.5518239568964
 30
0.0000000000563712
 10
4980.077149860193
 20
-301.4584025233014
 30
0.0000000000563712
 10
4979.913522100372
 20
-300.3771148861715
 30
0.0000000000563712
 10
4979.66163808039
 20
-299.3169722563906
 30
0.0000000000563712
 10
4979.323643019402
 20
-298.2867927186559
 30
0.0000000000563712
 10
4978.902391270258
 20
-297.295130781565
 30
0.0000000000563712
 10
4978.401412922538
 20
-296.3502105898373
 30
0.0000000000563712
 10
4977.824886513105
 20
-295.4599006822837
 30
0.0000000000563712
 10
4977.177708735904
 20
-294.6313388984839
 30
0.0000000000563712
 10
4976.46489101608
 20
-293.8722668362587
 30
0.0000000000563712
 10
4975.693663532361
 20
-293.1855661469981
 30
0.0000000000563712
 10
4974.865411310599
 20
-292.589580851992
 30
0.0000000000563712
 10
4974.271791486535
 20
-292.2115514462394
 30
0.0000000000563712
 10
4973.946782740484
 20
-292.0599114408319
 30
0.0000000000563712
 10
4973.925052617441
 20
-292.0497727722091
 30
0.0000000000563712
  0
ARC
  5
CFB6
330
18
100
AcDbEntity
  8
01
  6
CONTINUOUS
100
AcDbCircle
 10
4969.494703488033
 20
-304.7927657031644
 30
0.0000000000563712
 40
9.959544443809994
100
AcDbArc
 50
270.1636859921932
 51
300.2993492402071
  0
ARC
  5
CFB7
330
18
100
AcDbEntity
  8
01
  6
CONTINUOUS
100
AcDbCircle
 10
4969.482779185354
 20
-301.056857867593
 30
0.0000000000563712
 40
10.00466893069151
100
AcDbArc
 50
59.32742249340875
 51
89.76876254376887
  0
LINE
  5
CFB9
330
18
100
AcDbEntity
  8
01
  6
CONTINUOUS
100
AcDbLine
 10
4970.030298863302
 20
-314.7522695038629
 30
0.0000000000563712
 11
4969.523156468521
 21
-314.7522695038629
 31
0.0000000000563712
  0
LINE
  5
CFBC
330
18
100
AcDbEntity
  8
01
  6
CONTINUOUS
100
AcDbLine
 10
4970.030298863302
 20
-291.0522704154414
 30
0.0000000000563712
 11
4969.523156468521
 21
-291.0522704154414
 31
0.0000000000563712
  0
LINE
  5
CFBE
330
18
100
AcDbEntity
  8
01
  6
CONTINUOUS
100
AcDbLine
 10
4953.954983909379
 20
-314.7522695038629
 30
0.0000000000563712
 11
4969.523156468521
 21
-314.7522695038629
 31
0.0000000000563712
  0
LINE
  5
CFBF
330
18
100
AcDbEntity
  8
01
  6
CONTINUOUS
100
AcDbLine
 10
4969.523156468521
 20
-291.0522704154414
 30
0.0000000000563712
 11
4953.954983909379
 21
-291.0522704154414
 31
0.0000000000563712
  0
LINE
  5
CFC1
330
18
100
AcDbEntity
  8
01
  6
CONTINUOUS
100
AcDbLine
 10
4951.068074767242
 20
-291.5522695660752
 30
0.0000000000563712
 11
4951.068074767242
 21
-314.2522694219065
 31
0.0000000000563712
  0
ARC
  5
CFC2
330
18
100
AcDbEntity
  8
01
  6
CONTINUOUS
100
AcDbCircle
 10
4951.568074585578
 20
-291.5522695108713
 30
0.0000000000563712
 40
0.5
100
AcDbArc
 50
90.0
 51
180.0
  0
LINE
  5
CFC3
330
18
100
AcDbEntity
  8
01
  6
CONTINUOUS
100
AcDbLine
 10
4953.954983909379
 20
-291.0522704154414
 30
0.0000000000563712
 11
4951.567123497091
 21
-291.0522704154414
 31
0.0000000000563712
  0
ARC
  5
CFC4
330
18
100
AcDbEntity
  8
01
  6
CONTINUOUS
100
AcDbCircle
 10
4951.568074585578
 20
-314.2522695108713
 30
0.0000000000563712
 40
0.5
100
AcDbArc
 50
180.0
 51
270.0
  0
LINE
  5
CFC5
330
18
100
AcDbEntity
  8
01
  6
CONTINUOUS
100
AcDbLine
 10
4951.568074585578
 20
-314.7522695038629
 30
0.0000000000563712
 11
4953.954983909379
 21
-314.7522695038629
 31
0.0000000000563712
  0
LINE
  5
CFC6
330
18
100
AcDbEntity
  8
01
  6
CONTINUOUS
100
AcDbLine
 10
4982.887922261606
 20
-317.4022695424196
 30
0.0000000000563712
 11
4983.733157102714
 21
-317.4022695424196
 31
0.0000000000563712
  0
LINE
  5
CFC7
330
18
100
AcDbEntity
  8
01
100
AcDbLine
 10
4983.733157102714
 20
-316.4022695094741
 30
0.0000000000563712
 11
4983.733157102714
 21
-317.4022695424196
 31
0.0000000000563712
  0
LINE
  5
CFC8
330
18
100
AcDbEntity
  8
01
  6
CONTINUOUS
100
AcDbLine
 10
4990.068072859894
 20
-288.4022702604693
 30
0.0000000000563712
 11
4983.733157102714
 21
-288.4022702604693
 31
0.0000000000563712
  0
LINE
  5
CFC9
330
18
100
AcDbEntity
  8
01
100
AcDbLine
 10
4983.733157102714
 20
-289.4022704243821
 30
0.0000000000563712
 11
4983.733157102714
 21
-288.4022702604693
 31
0.0000000000563712
  0
LINE
  5
CFCA
330
18
100
AcDbEntity
  8
01
  6
CONTINUOUS
100
AcDbLine
 10
4990.068072859894
 20
-289.4022704243821
 30
0.0000000000563712
 11
4990.068072859894
 21
-288.4022702604693
 31
0.0000000000563712
  0
LINE
  5
CFCB
330
18
100
AcDbEntity
  8
01
100
AcDbLine
 10
4983.733157102714
 20
-316.4022695094741
 30
0.0000000000563712
 11
4983.733157102714
 21
-289.4022704243821
 31
0.0000000000563712
  0
LINE
  5
CFCC
330
18
100
AcDbEntity
  8
01
  6
CONTINUOUS
100
AcDbLine
 10
4990.068072859894
 20
-289.4022704243821
 30
0.0000000000563712
 11
4990.068072859894
 21
-316.4022695094741
 31
0.0000000000563712
  0
LINE
  5
CFCD
330
18
100
AcDbEntity
  8
01
  6
CONTINUOUS
100
AcDbLine
 10
4983.733157102714
 20
-317.4022695424196
 30
0.0000000000563712
 11
4990.068072859894
 21
-317.4022695424196
 31
0.0000000000563712
  0
LINE
  5
CFCE
330
18
100
AcDbEntity
  8
01
  6
CONTINUOUS
100
AcDbLine
 10
4990.068072859894
 20
-317.4022695424196
 30
0.0000000000563712
 11
4990.068072859894
 21
-316.4022695094741
 31
0.0000000000563712
  0
LINE
  5
CFCF
330
18
100
AcDbEntity
  8
01
  6
CONTINUOUS
100
AcDbLine
 10
4983.733157102714
 20
-288.4022702604693
 30
0.0000000000563712
 11
4982.887922261606
 21
-288.4022702604693
 31
0.0000000000563712
  0
LINE
  5
CFD1
330
18
100
AcDbEntity
  8
01
  6
CONTINUOUS
100
AcDbLine
 10
4953.954983909379
 20
-317.4022695424196
 30
0.0000000000563712
 11
4982.887922261606
 21
-317.4022695424196
 31
0.0000000000563712
  0
LINE
  5
CFD4
330
18
100
AcDbEntity
  8
01
  6
CONTINUOUS
100
AcDbLine
 10
4982.887922261606
 20
-288.4022702604693
 30
0.0000000000563712
 11
4953.954983909379
 21
-288.4022702604693
 31
0.0000000000563712
  0
ARC
  5
CFD6
330
18
100
AcDbEntity
  8
01
  6
CONTINUOUS
100
AcDbCircle
 10
4969.286790524602
 20
-300.9630553842716
 30
0.0000000000563712
 40
10.06081684654995
100
AcDbArc
 50
62.30188327129868
 51
89.85730563640429
  0
ARC
  5
CFD7
330
18
100
AcDbEntity
  8
01
  6
CONTINUOUS
100
AcDbCircle
 10
4969.287523358552
 20
-304.8337608806078
 30
0.0000000000563712
 40
10.06853798150849
100
AcDbArc
 50
270.1384146773641
 51
300.2068637162453
  0
LINE
  5
CFD8
330
18
100
AcDbEntity
  8
01
  6
CONTINUOUS
100
AcDbLine
 10
4969.311846826921
 20
-314.9022694818836
 30
0.0000000000563712
 11
4953.743674267779
 21
-314.9022694818836
 31
0.0000000000563712
  0
LINE
  5
CFDA
330
18
100
AcDbEntity
  8
01
  6
CONTINUOUS
100
AcDbLine
 10
4953.743674267779
 20
-290.9022697389287
 30
0.0000000000563712
 11
4969.311846826921
 21
-290.9022697389287
 31
0.0000000000563712
  0
ARC
  5
CFDC
330
18
100
AcDbEntity
  8
01
  6
CONTINUOUS
100
AcDbCircle
 10
4950.568074585578
 20
-290.4022695108713
 30
0.0000000000563712
 40
0.5
100
AcDbArc
 50
180.0
 51
270.0
  0
LINE
  5
CFDD
330
18
100
AcDbEntity
  8
01
  6
CONTINUOUS
100
AcDbLine
 10
4950.568074767242
 20
-290.9022697389287
 30
0.0000000000563712
 11
4953.743674267779
 21
-290.9022697389287
 31
0.0000000000563712
  0
ARC
  5
CFDE
330
18
100
AcDbEntity
  8
01
  6
CONTINUOUS
100
AcDbCircle
 10
4951.068074585578
 20
-289.4022695108713
 30
0.0000000000563712
 40
1.0
100
AcDbArc
 50
90.0
 51
180.0
  0
LINE
  5
CFDF
330
18
100
AcDbEntity
  8
01
  6
CONTINUOUS
100
AcDbLine
 10
4953.954983909379
 20
-288.4022702604693
 30
0.0000000000563712
 11
4951.068073917876
 21
-288.4022702604693
 31
0.0000000000563712
  0
ARC
  5
CFE0
330
18
100
AcDbEntity
  8
01
  6
CONTINUOUS
100
AcDbCircle
 10
4950.568074585578
 20
-315.4022695108713
 30
0.0000000000563712
 40
0.5
100
AcDbArc
 50
90.0
 51
180.0
  0
LINE
  5
CFE1
330
18
100
AcDbEntity
  8
01
  6
CONTINUOUS
100
AcDbLine
 10
4953.743674267779
 20
-314.9022694818836
 30
0.0000000000563712
 11
4950.568074767242
 21
-314.9022694818836
 31
0.0000000000563712
  0
ARC
  5
CFE2
330
18
100
AcDbEntity
  8
01
  6
CONTINUOUS
100
AcDbCircle
 10
4951.068074585578
 20
-316.4022695108713
 30
0.0000000000563712
 40
1.0
100
AcDbArc
 50
180.0
 51
270.0
  0
LINE
  5
CFE3
330
18
100
AcDbEntity
  8
01
  6
CONTINUOUS
100
AcDbLine
 10
4951.068073917876
 20
-317.4022695424196
 30
0.0000000000563712
 11
4953.954983909379
 21
-317.4022695424196
 31
0.0000000000563712
  0
LINE
  5
CFE4
330
18
100
AcDbEntity
  8
01
  6
CONTINUOUS
100
AcDbLine
 10
4950.068074685286
 20
-315.4022695056324
 30
0.0000000000563712
 11
4950.068074685286
 21
-316.4022695094741
 31
0.0000000000563712
  0
LINE
  5
CFE5
330
18
100
AcDbEntity
  8
01
  6
CONTINUOUS
100
AcDbLine
 10
4950.068074685286
 20
-289.4022704243821
 30
0.0000000000563712
 11
4950.068074685286
 21
-290.4022687256497
 31
0.0000000000563712
  0
LINE
  5
CFE6
330
18
100
AcDbEntity
  8
01
  6
CONTINUOUS
100
AcDbLine
 10
4952.568075095068
 20
-290.9022697389287
 30
0.0000000000563712
 11
4952.568075095068
 21
-291.0522704154414
 31
0.0000000000563712
  0
LINE
  5
CFE7
330
18
100
AcDbEntity
  8
01
  6
CONTINUOUS
100
AcDbLine
 10
4952.568075095068
 20
-314.7522695038629
 30
0.0000000000563712
 11
4952.568075095068
 21
-314.9022694818836
 31
0.0000000000563712
  0
LINE
  5
CFE8
330
18
100
AcDbEntity
  8
01
  6
CONTINUOUS
100
AcDbLine
 10
4950.068074685286
 20
-290.4022687256497
 30
0.0000000000563712
 11
4950.068074685286
 21
-315.4022695056324
 31
0.0000000000563712
  0
LINE
  5
CFE9
330
18
100
AcDbEntity
  8
01
  6
CONTINUOUS
100
AcDbLine
 10
4956.032364104639
 20
-291.0522704154414
 30
0.0000000000563712
 11
4956.032364104639
 21
-290.9022697389287
 31
0.0000000000563712
  0
LINE
  5
CFEA
330
18
100
AcDbEntity
  8
01
  6
CONTINUOUS
100
AcDbLine
 10
4956.032364104639
 20
-314.9022694818836
 30
0.0000000000563712
 11
4956.032364104639
 21
-314.7522695038629
 31
0.0000000000563712
  0
LINE
  5
CFF9
330
18
100
AcDbEntity
  8
01
100
AcDbLine
 10
4828.267960520148
 20
-288.4009516538246
 30
0.0000000000563712
 11
4828.267960520148
 21
-317.4009516538246
 31
0.0000000000563712
  0
LINE
  5
CFFA
330
18
100
AcDbEntity
  8
01
100
AcDbLine
 10
4828.267960520148
 20
-317.4009516538246
 30
0.0000000000563712
 11
4828.267960520148
 21
-317.9022699669276
 31
0.0000000000563712
  0
SPLINE
  5
CFFB
330
18
100
AcDbEntity
  8
01
  6
CONTINUOUS
100
AcDbSpline
210
0.0
220
0.0
230
1.0
 70
     8
 71
     3
 72
    42
 73
    38
 74
     0
 42
0.000000001
 43
0.00000001
 40
0.0
 40
0.0
 40
0.0
 40
0.0
 40
0.0160301726121894
 40
0.0433298716371249
 40
0.0708162246798309
 40
0.0989145816546444
 40
0.1277912596154477
 40
0.1573259548225397
 40
0.1872491122745221
 40
0.2173137352065125
 40
0.2473477844541721
 40
0.277303087173062
 40
0.3071730793306366
 40
0.3369660706408011
 40
0.3666952454216487
 40
0.3963741014594519
 40
0.4260152396758351
 40
0.4556296885924142
 40
0.4852274116721279
 40
0.5148175256941026
 40
0.5444087875799384
 40
0.5740069841803327
 40
0.6036211301931784
 40
0.6332609084722939
 40
0.6629371535776695
 40
0.6926621283449981
 40
0.7224500246879335
 40
0.7523165913501654
 40
0.7822778374791456
 40
0.8123459578404255
 40
0.8425188479992123
 40
0.8727525909148507
 40
0.9028696168954005
 40
0.9325917273558505
 40
0.9615950248380605
 40
0.9897373720895192
 40
1.0
 40
1.0
 40
1.0
 40
1.0
 10
4862.848486097217
 20
-291.0509521023379
 30
0.0000000000563712
 10
4862.946922599631
 20
-291.0544013473149
 30
0.0000000000563712
 10
4863.212998400387
 20
-291.0637247242812
 30
0.0000000000563712
 10
4863.64307577643
 20
-291.1611155062565
 30
0.0000000000563712
 10
4864.128927836314
 20
-291.3651947338354
 30
0.0000000000563712
 10
4864.600620634515
 20
-291.6657806870845
 30
0.0000000000563712
 10
4865.057328016731
 20
-292.061793575445
 30
0.0000000000563712
 10
4865.495800439658
 20
-292.5532445986063
 30
0.0000000000563712
 10
4865.911222126753
 20
-293.1361989291628
 30
0.0000000000563712
 10
4866.298793251464
 20
-293.8039644392845
 30
0.0000000000563712
 10
4866.654870839171
 20
-294.5486777770849
 30
0.0000000000563712
 10
4866.976869882364
 20
-295.3625557803923
 30
0.0000000000563712
 10
4867.262956042897
 20
-296.2382831572942
 30
0.0000000000563712
 10
4867.511482695195
 20
-297.1685067730951
 30
0.0000000000563712
 10
4867.721033731513
 20
-298.1455789194489
 30
0.0000000000563712
 10
4867.890308101839
 20
-299.1615405669563
 30
0.0000000000563712
 10
4868.018242739052
 20
-300.2080987530206
 30
0.0000000000563712
 10
4868.10399570287
 20
-301.2766927336751
 30
0.0000000000563712
 10
4868.147006976799
 20
-302.3585410272879
 30
0.0000000000563712
 10
4868.146973098727
 20
-303.4447396326649
 30
0.0000000000563712
 10
4868.103934204804
 20
-304.5263001663382
 30
0.0000000000563712
 10
4868.018183409322
 20
-305.5942773885006
 30
0.0000000000563712
 10
4867.890366438966
 20
-306.6398636662654
 30
0.0000000000563712
 10
4867.721355717552
 20
-307.6544973150346
 30
0.0000000000563712
 10
4867.51227867353
 20
-308.6299247066602
 30
0.0000000000563712
 10
4867.264487201734
 20
-309.5582689740252
 30
0.0000000000563712
 10
4866.979427606076
 20
-310.4320876351087
 30
0.0000000000563712
 10
4866.658634470145
 20
-311.2444153670441
 30
0.0000000000563712
 10
4866.303598055479
 20
-311.9887491153021
 30
0.0000000000563712
 10
4865.91567098161
 20
-312.6589416385022
 30
0.0000000000563712
 10
4865.496116439306
 20
-313.2489140095801
 30
0.0000000000563712
 10
4865.04658444757
 20
-313.752011912611
 30
0.0000000000563712
 10
4864.569915902163
 20
-314.1608030199794
 30
0.0000000000563712
 10
4864.071291412436
 20
-314.4684162644926
 30
0.0000000000563712
 10
4863.558723447815
 20
-314.6679875603423
 30
0.0000000000563712
 10
4863.147309091919
 20
-314.7440588740578
 30
0.0000000000563712
 10
4862.911499457484
 20
-314.7494977951268
 30
0.0000000000563712
 10
4862.848486097217
 20
-314.7509511907593
 30
0.0000000000563712
  0
LINE
  5
CFFC
330
18
100
AcDbEntity
  8
01
  6
CONTINUOUS
100
AcDbLine
 10
4855.588923485637
 20
-291.0509521023379
 30
0.0000000000563712
 11
4851.05738723433
 21
-291.0509521023379
 31
0.0000000000563712
  0
LINE
  5
CFFD
330
18
100
AcDbEntity
  8
01
100
AcDbLine
 10
4851.05738723433
 20
-291.0509521023379
 30
0.0000000000563712
 11
4851.05738723433
 21
-291.5509512529717
 31
0.0000000000563712
  0
LINE
  5
CFFE
330
18
100
AcDbEntity
  8
01
100
AcDbLine
 10
4851.05738723433
 20
-291.5509512529717
 30
0.0000000000563712
 11
4851.05738723433
 21
-314.250951108803
 31
0.0000000000563712
  0
LINE
  5
CFFF
330
18
100
AcDbEntity
  8
01
100
AcDbLine
 10
4851.05738723433
 20
-314.250951108803
 30
0.0000000000563712
 11
4851.05738723433
 21
-314.7509511907593
 31
0.0000000000563712
  0
LINE
  5
D000
330
18
100
AcDbEntity
  8
01
  6
CONTINUOUS
100
AcDbLine
 10
4851.05738723433
 20
-314.7509511907593
 30
0.0000000000563712
 11
4855.588923485637
 21
-314.7509511907593
 31
0.0000000000563712
  0
LINE
  5
D001
330
18
100
AcDbEntity
  8
01
  6
CONTINUOUS
100
AcDbLine
 10
4729.767958910823
 20
-314.7509511907593
 30
0.0000000000563712
 11
4851.05738723433
 21
-314.7509511907593
 31
0.0000000000563712
  0
LINE
  5
D002
330
18
100
AcDbEntity
  8
01
  6
CONTINUOUS
100
AcDbLine
 10
4851.05738723433
 20
-291.0509521023379
 30
0.0000000000563712
 11
4729.767958910823
 21
-291.0509521023379
 31
0.0000000000563712
  0
ARC
  5
D003
330
18
100
AcDbEntity
  8
01
  6
CONTINUOUS
100
AcDbCircle
 10
4729.767959924102
 20
-302.9009511977678
 30
0.0000000000563712
 40
11.85000000000001
100
AcDbArc
 50
90.0
 51
270.0
  0
LINE
  5
D004
330
18
100
AcDbEntity
  8
01
  6
CONTINUOUS
100
AcDbLine
 10
4862.848486097217
 20
-291.0509521023379
 30
0.0000000000563712
 11
4855.588923485637
 21
-291.0509521023379
 31
0.0000000000563712
  0
LINE
  5
D005
330
18
100
AcDbEntity
  8
01
  6
CONTINUOUS
100
AcDbLine
 10
4855.588923485637
 20
-314.7509511907593
 30
0.0000000000563712
 11
4862.848486097217
 21
-314.7509511907593
 31
0.0000000000563712
  0
LINE
  5
D006
330
18
100
AcDbEntity
  8
01
100
AcDbLine
 10
4851.05738723433
 20
-289.4009521112786
 30
0.0000000000563712
 11
4851.05738723433
 21
-290.4009504125462
 31
0.0000000000563712
  0
LINE
  5
D007
330
18
100
AcDbEntity
  8
01
100
AcDbLine
 10
4851.05738723433
 20
-315.4009511925289
 30
0.0000000000563712
 11
4851.05738723433
 21
-316.4009511963706
 31
0.0000000000563712
  0
LINE
  5
D008
330
18
100
AcDbEntity
  8
01
  6
CONTINUOUS
100
AcDbLine
 10
4729.767958910823
 20
-317.4009512293161
 30
0.0000000000563712
 11
4851.05738723433
 21
-317.4009512293161
 31
0.0000000000563712
  0
LINE
  5
D009
330
18
100
AcDbEntity
  8
01
100
AcDbLine
 10
4851.05738723433
 20
-316.4009511963706
 30
0.0000000000563712
 11
4851.05738723433
 21
-317.4009512293161
 31
0.0000000000563712
  0
LINE
  5
D00A
330
18
100
AcDbEntity
  8
01
100
AcDbLine
 10
4851.05738723433
 20
-289.4009521112786
 30
0.0000000000563712
 11
4851.05738723433
 21
-288.4009519473658
 31
0.0000000000563712
  0
LINE
  5
D00B
330
18
100
AcDbEntity
  8
01
  6
CONTINUOUS
100
AcDbLine
 10
4851.05738723433
 20
-288.4009519473658
 30
0.0000000000563712
 11
4729.767958910823
 21
-288.4009519473658
 31
0.0000000000563712
  0
LINE
  5
D00C
330
18
100
AcDbEntity
  8
01
  6
CONTINUOUS
100
AcDbLine
 10
4855.588923485637
 20
-288.4009519473658
 30
0.0000000000563712
 11
4851.05738723433
 21
-288.4009519473658
 31
0.0000000000563712
  0
LINE
  5
D00D
330
18
100
AcDbEntity
  8
01
  6
CONTINUOUS
100
AcDbLine
 10
4729.767958910823
 20
-290.9009514258252
 30
0.0000000000563712
 11
4851.05738723433
 21
-290.9009514258252
 31
0.0000000000563712
  0
LINE
  5
D00E
330
18
100
AcDbEntity
  8
01
100
AcDbLine
 10
4851.05738723433
 20
-290.9009514258252
 30
0.0000000000563712
 11
4851.05738723433
 21
-290.4009504125462
 31
0.0000000000563712
  0
LINE
  5
D00F
330
18
100
AcDbEntity
  8
01
100
AcDbLine
 10
4851.05738723433
 20
-315.4009511925289
 30
0.0000000000563712
 11
4851.05738723433
 21
-314.9009511687801
 31
0.0000000000563712
  0
LINE
  5
D010
330
18
100
AcDbEntity
  8
01
  6
CONTINUOUS
100
AcDbLine
 10
4851.05738723433
 20
-314.9009511687801
 30
0.0000000000563712
 11
4729.767958910823
 21
-314.9009511687801
 31
0.0000000000563712
  0
LINE
  5
D011
330
18
100
AcDbEntity
  8
01
  6
CONTINUOUS
100
AcDbLine
 10
4851.05738723433
 20
-290.9009514258252
 30
0.0000000000563712
 11
4856.042075248122
 21
-290.9009514258252
 31
0.0000000000563712
  0
LINE
  5
D012
330
18
100
AcDbEntity
  8
01
  6
CONTINUOUS
100
AcDbLine
 10
4856.042075248122
 20
-314.9009511687801
 30
0.0000000000563712
 11
4851.05738723433
 21
-314.9009511687801
 31
0.0000000000563712
  0
LINE
  5
D013
330
18
100
AcDbEntity
  8
01
  6
CONTINUOUS
100
AcDbLine
 10
4851.05738723433
 20
-317.4009512293161
 30
0.0000000000563712
 11
4855.588923485637
 21
-317.4009512293161
 31
0.0000000000563712
  0
ARC
  5
D014
330
18
100
AcDbEntity
  8
01
  6
CONTINUOUS
100
AcDbCircle
 10
4729.767959924102
 20
-302.9009511977678
 30
0.0000000000563712
 40
14.5
100
AcDbArc
 50
90.0
 51
270.0
  0
ARC
  5
D015
330
18
100
AcDbEntity
  8
01
  6
CONTINUOUS
100
AcDbCircle
 10
4729.767959924102
 20
-302.9009511977678
 30
0.0000000000563712
 40
12.0
100
AcDbArc
 50
90.0
 51
270.0
  0
LINE
  5
D016
330
18
100
AcDbEntity
  8
01
  6
CONTINUOUS
100
AcDbLine
 10
4863.301637859702
 20
-314.9009511687801
 30
0.0000000000563712
 11
4856.042075248122
 21
-314.9009511687801
 31
0.0000000000563712
  0
LINE
  5
D018
330
18
100
AcDbEntity
  8
01
  6
CONTINUOUS
100
AcDbLine
 10
4869.080576391578
 20
-288.4009519473658
 30
0.0000000000563712
 11
4855.588923485637
 21
-288.4009519473658
 31
0.0000000000563712
  0
LINE
  5
D019
330
18
100
AcDbEntity
  8
01
  6
CONTINUOUS
100
AcDbLine
 10
4856.042075248122
 20
-290.9009514258252
 30
0.0000000000563712
 11
4863.301637859702
 21
-290.9009514258252
 31
0.0000000000563712
  0
LINE
  5
D01B
330
18
100
AcDbEntity
  8
01
  6
CONTINUOUS
100
AcDbLine
 10
4855.588923485637
 20
-317.4009512293161
 30
0.0000000000563712
 11
4869.080576391578
 21
-317.4009512293161
 31
0.0000000000563712
  0
ARC
  5
D01E
330
18
100
AcDbEntity
  8
01
  6
CONTINUOUS
100
AcDbCircle
 10
4869.267959924102
 20
-316.4009511977678
 30
0.0000000000563712
 40
1.0
100
AcDbArc
 50
270.0
 51
0.0000000000032569
  0
LINE
  5
D01F
330
18
100
AcDbEntity
  8
01
  6
CONTINUOUS
100
AcDbLine
 10
4869.080576391578
 20
-317.4009512293161
 30
0.0000000000563712
 11
4869.26795849359
 21
-317.4009512293161
 31
0.0000000000563712
  0
ARC
  5
D020
330
18
100
AcDbEntity
  8
01
  6
CONTINUOUS
100
AcDbCircle
 10
4869.267959924102
 20
-289.4009511977678
 30
0.0000000000563712
 40
1.0
100
AcDbArc
 50
0.0
 51
90.0
  0
LINE
  5
D021
330
18
100
AcDbEntity
  8
01
  6
CONTINUOUS
100
AcDbLine
 10
4869.26795849359
 20
-288.4009519473658
 30
0.0000000000563712
 11
4869.080576391578
 21
-288.4009519473658
 31
0.0000000000563712
  0
LINE
  5
D022
330
18
100
AcDbEntity
  8
01
  6
CONTINUOUS
100
AcDbLine
 10
4870.267960520148
 20
-316.4009511963706
 30
0.0000000000563712
 11
4870.267960520148
 21
-289.4009521112786
 31
0.0000000000563712
  0
TEXT
  5
D097
330
18
100
AcDbEntity
  8
1TEXT
100
AcDbText
 10
4718.190196763417
 20
-45.15616399942424
 30
0.0
 40
6.0
  1
サンドベージュ
 72
     1
 11
4742.590196763416
 21
-45.15616399942424
 31
0.0
100
AcDbText
  0
TEXT
  5
D098
330
18
100
AcDbEntity
  8
1TEXT
100
AcDbText
 10
4721.890196763416
 20
-24.19272657135475
 30
0.0
 40
6.0
  1
ダークグレー
 72
     1
 11
4742.590196763416
 21
-24.19272657135475
 31
0.0
100
AcDbText
  0
TEXT
  5
D099
330
18
100
AcDbEntity
  8
1TEXT
100
AcDbText
 10
4721.490196763416
 20
-34.65616399942424
 30
0.0
 40
6.0
  1
モカブラウン
 72
     1
 11
4742.590196763416
 21
-34.65616399942424
 31
0.0
100
AcDbText
  0
TEXT
  5
D09A
330
18
100
AcDbEntity
  8
1TEXT
100
AcDbText
 10
4717.120196763416
 20
-55.65616399942424
 30
0.0
 40
6.0
  1
オリーブグリーン
 41
0.9
 72
     1
 11
4742.590196763416
 21
-55.65616399942424
 31
0.0
100
AcDbText
  0
LINE
  5
D1BD
330
18
100
AcDbEntity
  8
01
100
AcDbLine
 10
5124.267840180404
 20
-274.9022706650589
 30
0.0000000000563712
 11
5124.267840180404
 21
-172.1807778822396
 31
0.0000000000563712
1001
ACAD
1000
DSTYLE
1002
{
1070
    40
1040
1.3
1070
    45
1040
0.5
1002
}
  0
LINE
  5
D1BE
330
18
100
AcDbEntity
  8
01
100
AcDbLine
 10
5135.267840180404
 20
-217.03095261577
 30
0.0000000000563712
 11
5135.267840180404
 21
-172.1807778822396
 31
0.0000000000563712
1001
ACAD
1000
DSTYLE
1002
{
1070
    40
1040
1.3
1070
    45
1040
0.5
1002
}
  0
LINE
  5
D1BF
330
18
100
AcDbEntity
  8
01
100
AcDbLine
 10
5126.867840180405
 20
-173.4807778822396
 30
0.0000000000563712
 11
5132.667840180404
 21
-173.4807778822396
 31
0.0000000000563712
1001
ACAD
1000
DSTYLE
1002
{
1070
    40
1040
1.3
1070
    45
1040
0.5
1002
}
  0
LINE
  5
D1C3
330
18
100
AcDbEntity
  8
01
100
AcDbLine
 10
5204.267840180404
 20
-244.9096424745358
 30
0.0000000000563712
 11
5232.567840180404
 21
-244.9096424745358
 31
0.0000000000563712
1001
ACAD
1000
DSTYLE
1002
{
1070
    40
1040
1.3
1070
    45
1040
0.5
1002
}
  0
LINE
  5
D1C4
330
18
100
AcDbEntity
  8
01
100
AcDbLine
 10
5204.267840180404
 20
-318.9022699669281
 30
0.0000000000563712
 11
5232.567840180404
 21
-318.9022699669281
 31
0.0000000000563712
1001
ACAD
1000
DSTYLE
1002
{
1070
    40
1040
1.3
1070
    45
1040
0.5
1002
}
  0
LINE
  5
D1C5
330
18
100
AcDbEntity
  8
01
100
AcDbLine
 10
5231.267840180404
 20
-247.5096424745358
 30
0.0000000000563712
 11
5231.267840180404
 21
-316.3022699669281
 31
0.0000000000563712
1001
ACAD
1000
DSTYLE
1002
{
1070
    40
1040
1.3
1070
    45
1040
0.5
1002
}
  0
LINE
  5
D1C9
330
18
100
AcDbEntity
  8
01
100
AcDbLine
 10
5204.267840180404
 20
-244.9096424745358
 30
0.0000000000563712
 11
5204.267840180404
 21
-162.1009104141914
 31
0.0000000000563712
1001
ACAD
1000
DSTYLE
1002
{
1070
    40
1040
1.3
1070
    45
1040
0.5
1002
}
  0
LINE
  5
D1CA
330
18
100
AcDbEntity
  8
01
100
AcDbLine
 10
5135.267840180404
 20
-217.03095261577
 30
0.0000000000563712
 11
5135.267840180404
 21
-162.1009104141914
 31
0.0000000000563712
1001
ACAD
1000
DSTYLE
1002
{
1070
    40
1040
1.3
1070
    45
1040
0.5
1002
}
  0
LINE
  5
D1CB
330
18
100
AcDbEntity
  8
01
100
AcDbLine
 10
5201.667840180404
 20
-163.4009104141915
 30
0.0000000000563712
 11
5137.867840180405
 21
-163.4009104141915
 31
0.0000000000563712
1001
ACAD
1000
DSTYLE
1002
{
1070
    40
1040
1.3
1070
    45
1040
0.5
1002
}
  0
LINE
  5
D1CF
330
18
100
AcDbEntity
  8
01
100
AcDbLine
 10
5135.267840180404
 20
-217.03095261577
 30
0.0000000000563712
 11
5135.267840180404
 21
-172.1807778822396
 31
0.0000000000563712
1001
ACAD
1000
DSTYLE
1002
{
1070
    40
1040
1.3
1070
    45
1040
0.5
1002
}
  0
LINE
  5
D1D0
330
18
100
AcDbEntity
  8
01
100
AcDbLine
 10
5186.267840180404
 20
-252.9022699669276
 30
0.0000000000563712
 11
5186.267840180404
 21
-172.1807778822396
 31
0.0000000000563712
1001
ACAD
1000
DSTYLE
1002
{
1070
    40
1040
1.3
1070
    45
1040
0.5
1002
}
  0
LINE
  5
D1D1
330
18
100
AcDbEntity
  8
01
100
AcDbLine
 10
5137.867840180405
 20
-173.4807778822396
 30
0.0000000000563712
 11
5183.667840180404
 21
-173.4807778822396
 31
0.0000000000563712
1001
ACAD
1000
DSTYLE
1002
{
1070
    40
1040
1.3
1070
    45
1040
0.5
1002
}
  0
LINE
  5
D1D5
330
18
100
AcDbEntity
  8
01
100
AcDbLine
 10
5022.142981928055
 20
-224.9022699669283
 30
0.0000000000563712
 11
5102.429113096262
 21
-224.9022699669283
 31
0.0000000000563712
1001
ACAD
1000
DSTYLE
1002
{
1070
    40
1040
1.3
1070
    45
1040
0.5
1002
}
  0
LINE
  5
D1D6
330
18
100
AcDbEntity
  8
01
100
AcDbLine
 10
5022.142981928055
 20
-338.9022699669283
 30
0.0000000000563712
 11
5102.429113096262
 21
-338.9022699669283
 31
0.0000000000563712
1001
ACAD
1000
DSTYLE
1002
{
1070
    40
1040
1.3
1070
    45
1040
0.5
1002
}
  0
LINE
  5
D1D7
330
18
100
AcDbEntity
  8
01
100
AcDbLine
 10
5101.129113096262
 20
-227.5022699669283
 30
0.0000000000563712
 11
5101.129113096262
 21
-336.3022699669283
 31
0.0000000000563712
1001
ACAD
1000
DSTYLE
1002
{
1070
    40
1040
1.3
1070
    45
1040
0.5
1002
}
  0
LINE
  5
D1DB
330
18
100
AcDbEntity
  8
01
100
AcDbLine
 10
5022.741042324818
 20
-217.0027151113447
 30
0.0000000000563712
 11
5111.793447262487
 21
-217.0027151113448
 31
0.0000000000563712
1001
ACAD
1000
DSTYLE
1002
{
1070
    40
1040
1.3
1070
    45
1040
0.5
1002
}
  0
LINE
  5
D1DC
330
18
100
AcDbEntity
  8
01
100
AcDbLine
 10
5022.667956520148
 20
-346.8022699669282
 30
0.0000000000563712
 11
5111.793447262487
 21
-346.8022699669282
 31
0.0000000000563712
1001
ACAD
1000
DSTYLE
1002
{
1070
    40
1040
1.3
1070
    45
1040
0.5
1002
}
  0
LINE
  5
D1DD
330
18
100
AcDbEntity
  8
01
100
AcDbLine
 10
5110.493447262486
 20
-219.6027151113448
 30
0.0000000000563712
 11
5110.493447262486
 21
-344.2022699669282
 31
0.0000000000563712
1001
ACAD
1000
DSTYLE
1002
{
1070
    40
1040
1.3
1070
    45
1040
0.5
1002
}
  0
LINE
  5
D1E1
330
18
100
AcDbEntity
  8
01
100
AcDbLine
 10
5003.767956520149
 20
-222.9022699669281
 30
0.0000000000563712
 11
5003.767956520149
 21
-172.1807778822399
 31
0.0000000000563712
1001
ACAD
1000
DSTYLE
1002
{
1070
    40
1040
1.3
1070
    45
1040
0.5
1002
}
  0
LINE
  5
D1E2
330
18
100
AcDbEntity
  8
01
100
AcDbLine
 10
5028.767956520149
 20
-222.9022699669281
 30
0.0000000000563712
 11
5028.767956520149
 21
-172.1807778822399
 31
0.0000000000563712
1001
ACAD
1000
DSTYLE
1002
{
1070
    40
1040
1.3
1070
    45
1040
0.5
1002
}
  0
LINE
  5
D1E3
330
18
100
AcDbEntity
  8
01
100
AcDbLine
 10
5006.367956520149
 20
-173.4807778822399
 30
0.0000000000563712
 11
5026.167956520148
 21
-173.4807778822399
 31
0.0000000000563712
1001
ACAD
1000
DSTYLE
1002
{
1070
    40
1040
1.3
1070
    45
1040
0.5
1002
}
  0
LINE
  5
D1E7
330
18
100
AcDbEntity
  8
01
  6
CONTINUOUS
100
AcDbLine
 10
5169.23416284085
 20
-290.9009514258252
 30
0.0
 11
5168.737075004585
 21
-290.9587344036446
 31
0.0
  0
LINE
  5
D1E8
330
18
100
AcDbEntity
  8
01
  6
CONTINUOUS
100
AcDbLine
 10
5168.737075004585
 20
-290.9587344036446
 30
0.0
 11
5168.244777891643
 21
-291.1315282688485
 31
0.0
  0
LINE
  5
D1E9
330
18
100
AcDbEntity
  8
01
  6
CONTINUOUS
100
AcDbLine
 10
5168.244777891643
 20
-291.1315282688485
 30
0.0
 11
5167.762010071285
 21
-291.4176678166733
 31
0.0
  0
LINE
  5
D1EA
330
18
100
AcDbEntity
  8
01
  6
CONTINUOUS
100
AcDbLine
 10
5167.762010071285
 20
-291.4176678166733
 30
0.0
 11
5167.293413255222
 21
-291.8143963322983
 31
0.0
  0
LINE
  5
D1EB
330
18
100
AcDbEntity
  8
01
  6
CONTINUOUS
100
AcDbLine
 10
5167.293413255222
 20
-291.8143963322983
 30
0.0
 11
5166.843509945877
 21
-292.3178953931675
 31
0.0
  0
LINE
  5
D1EC
330
18
100
AcDbEntity
  8
01
  6
CONTINUOUS
100
AcDbLine
 10
5166.843509945877
 20
-292.3178953931675
 30
0.0
 11
5166.416636381156
 21
-292.9233165339575
 31
0.0
  0
LINE
  5
D1ED
330
18
100
AcDbEntity
  8
01
  6
CONTINUOUS
100
AcDbLine
 10
5166.416636381156
 20
-292.9233165339575
 30
0.0
 11
5166.01689038039
 21
-293.6248259500609
 31
0.0
  0
LINE
  5
D1EE
330
18
100
AcDbEntity
  8
01
  6
CONTINUOUS
100
AcDbLine
 10
5166.01689038039
 20
-293.6248259500609
 30
0.0
 11
5165.648131344326
 21
-294.4156696901665
 31
0.0
  0
LINE
  5
D1EF
330
18
100
AcDbEntity
  8
01
  6
CONTINUOUS
100
AcDbLine
 10
5165.648131344326
 20
-294.4156696901665
 30
0.0
 11
5165.313905749328
 21
-295.2882313982592
 31
0.0
  0
LINE
  5
D1F0
330
18
100
AcDbEntity
  8
01
  6
CONTINUOUS
100
AcDbLine
 10
5165.313905749328
 20
-295.2882313982592
 30
0.0
 11
5165.017432246215
 21
-296.2341086820708
 31
0.0
  0
LINE
  5
D1F1
330
18
100
AcDbEntity
  8
01
  6
CONTINUOUS
100
AcDbLine
 10
5165.017432246215
 20
-296.2341086820708
 30
0.0
 11
5164.761571857936
 21
-297.2441894815312
 31
0.0
  0
LINE
  5
D1F2
330
18
100
AcDbEntity
  8
01
  6
CONTINUOUS
100
AcDbLine
 10
5164.761571857936
 20
-297.2441894815312
 30
0.0
 11
5164.548783276088
 21
-298.3087507889614
 31
0.0
  0
LINE
  5
D1F3
330
18
100
AcDbEntity
  8
01
  6
CONTINUOUS
100
AcDbLine
 10
5164.548783276088
 20
-298.3087507889614
 30
0.0
 11
5164.381115410335
 21
-299.4175350175248
 31
0.0
  0
LINE
  5
D1F4
330
18
100
AcDbEntity
  8
01
  6
CONTINUOUS
100
AcDbLine
 10
5164.381115410335
 20
-299.4175350175248
 30
0.0
 11
5164.260192487247
 21
-300.5598673478709
 31
0.0
  0
LINE
  5
D1F5
330
18
100
AcDbEntity
  8
01
  6
CONTINUOUS
100
AcDbLine
 10
5164.260192487247
 20
-300.5598673478709
 30
0.0
 11
5164.187161896236
 21
-301.7247451351033
 31
0.0
  0
LINE
  5
D1F6
330
18
100
AcDbEntity
  8
01
  6
CONTINUOUS
100
AcDbLine
 10
5164.187161896236
 20
-301.7247451351033
 30
0.0
 11
5164.16274634362
 21
-302.9009515301333
 31
0.0
  0
LINE
  5
D1F7
330
18
100
AcDbEntity
  8
01
  6
CONTINUOUS
100
AcDbLine
 10
5164.16274634362
 20
-302.9009515301333
 30
0.0
 11
5164.187161896236
 21
-304.0771569938407
 31
0.0
  0
LINE
  5
D1F8
330
18
100
AcDbEntity
  8
01
  6
CONTINUOUS
100
AcDbLine
 10
5164.187161896236
 20
-304.0771569938407
 30
0.0
 11
5164.260192487247
 21
-305.2420347810731
 31
0.0
  0
LINE
  5
D1F9
330
18
100
AcDbEntity
  8
01
  6
CONTINUOUS
100
AcDbLine
 10
5164.260192487247
 20
-305.2420347810731
 30
0.0
 11
5164.381115410335
 21
-306.3843671114192
 31
0.0
  0
LINE
  5
D1FA
330
18
100
AcDbEntity
  8
01
  6
CONTINUOUS
100
AcDbLine
 10
5164.381115410335
 20
-306.3843671114192
 30
0.0
 11
5164.548783276088
 21
-307.4931522713051
 31
0.0
  0
LINE
  5
D1FB
330
18
100
AcDbEntity
  8
01
  6
CONTINUOUS
100
AcDbLine
 10
5164.548783276088
 20
-307.4931522713051
 30
0.0
 11
5164.761571857936
 21
-308.5577121817515
 31
0.0
  0
LINE
  5
D1FC
330
18
100
AcDbEntity
  8
01
  6
CONTINUOUS
100
AcDbLine
 10
5164.761571857936
 20
-308.5577121817515
 30
0.0
 11
5165.017432246215
 21
-309.5677939125345
 31
0.0
  0
LINE
  5
D1FD
330
18
100
AcDbEntity
  8
01
  6
CONTINUOUS
100
AcDbLine
 10
5165.017432246215
 20
-309.5677939125345
 30
0.0
 11
5165.313905749328
 21
-310.5136707306848
 31
0.0
  0
LINE
  5
D1FE
330
18
100
AcDbEntity
  8
01
  6
CONTINUOUS
100
AcDbLine
 10
5165.313905749328
 20
-310.5136707306848
 30
0.0
 11
5165.648131344326
 21
-311.3862324387775
 31
0.0
  0
LINE
  5
D1FF
330
18
100
AcDbEntity
  8
01
  6
CONTINUOUS
100
AcDbLine
 10
5165.648131344326
 20
-311.3862324387775
 30
0.0
 11
5166.01689038039
 21
-312.1770766445444
 31
0.0
  0
LINE
  5
D200
330
18
100
AcDbEntity
  8
01
  6
CONTINUOUS
100
AcDbLine
 10
5166.01689038039
 20
-312.1770766445444
 30
0.0
 11
5166.416636381156
 21
-312.878586526309
 31
0.0
  0
LINE
  5
D201
330
18
100
AcDbEntity
  8
01
  6
CONTINUOUS
100
AcDbLine
 10
5166.416636381156
 20
-312.878586526309
 30
0.0
 11
5166.843509945877
 21
-313.4840062701152
 31
0.0
  0
LINE
  5
D202
330
18
100
AcDbEntity
  8
01
  6
CONTINUOUS
100
AcDbLine
 10
5166.843509945877
 20
-313.4840062701152
 30
0.0
 11
5167.293413255222
 21
-313.987505563815
 31
0.0
  0
LINE
  5
D203
330
18
100
AcDbEntity
  8
01
  6
CONTINUOUS
100
AcDbLine
 10
5167.293413255222
 20
-313.987505563815
 30
0.0
 11
5167.762010071285
 21
-314.3842352435933
 31
0.0
  0
LINE
  5
D204
330
18
100
AcDbEntity
  8
01
  6
CONTINUOUS
100
AcDbLine
 10
5167.762010071285
 20
-314.3842352435933
 30
0.0
 11
5168.244777891643
 21
-314.6703745585875
 31
0.0
  0
LINE
  5
D205
330
18
100
AcDbEntity
  8
01
  6
CONTINUOUS
100
AcDbLine
 10
5168.244777891643
 20
-314.6703745585875
 30
0.0
 11
5168.737075004585
 21
-314.84316795813
 31
0.0
  0
LINE
  5
D206
330
18
100
AcDbEntity
  8
01
  6
CONTINUOUS
100
AcDbLine
 10
5168.737075004585
 20
-314.84316795813
 30
0.0
 11
5169.23416284085
 21
-314.9009511687801
 31
0.0
  0
LINE
  5
D207
330
18
100
AcDbEntity
  8
01
  6
CONTINUOUS
100
AcDbLine
 10
5168.781127209491
 20
-80.0698056425282
 30
0.0
 11
5168.263326759166
 21
-78.95938228623356
 31
0.0
  0
LINE
  5
D208
330
18
100
AcDbEntity
  8
01
  6
CONTINUOUS
100
AcDbLine
 10
5168.263326759166
 20
-78.95938228623356
 30
0.0
 11
5167.750518197841
 21
-77.85965796367611
 31
0.0
  0
LINE
  5
D209
330
18
100
AcDbEntity
  8
01
  6
CONTINUOUS
100
AcDbLine
 10
5167.750518197841
 20
-77.85965796367611
 30
0.0
 11
5167.247633809871
 21
-76.78121249930348
 31
0.0
  0
LINE
  5
D20A
330
18
100
AcDbEntity
  8
01
  6
CONTINUOUS
100
AcDbLine
 10
5167.247633809871
 20
-76.78121249930348
 30
0.0
 11
5166.759516472644
 21
-75.73444317833867
 31
0.0
  0
LINE
  5
D20B
330
18
100
AcDbEntity
  8
01
  6
CONTINUOUS
100
AcDbLine
 10
5166.759516472644
 20
-75.73444317833867
 30
0.0
 11
5166.290867502517
 21
-74.72942318574871
 31
0.0
  0
LINE
  5
D20C
330
18
100
AcDbEntity
  8
01
  6
CONTINUOUS
100
AcDbLine
 10
5166.290867502517
 20
-74.72942318574871
 30
0.0
 11
5165.846201951332
 21
-73.77583455101933
 31
0.0
  0
LINE
  5
D20D
330
18
100
AcDbEntity
  8
01
  6
CONTINUOUS
100
AcDbLine
 10
5165.846201951332
 20
-73.77583455101933
 30
0.0
 11
5165.42979645235
 21
-72.88286011473622
 31
0.0
  0
LINE
  5
D20E
330
18
100
AcDbEntity
  8
01
  6
CONTINUOUS
100
AcDbLine
 10
5165.42979645235
 20
-72.88286011473622
 30
0.0
 11
5165.045674319095
 21
-72.05910157219853
 31
0.0
  0
LINE
  5
D20F
330
18
100
AcDbEntity
  8
01
  6
CONTINUOUS
100
AcDbLine
 10
5165.045674319095
 20
-72.05910157219853
 30
0.0
 11
5164.697523588962
 21
-71.31248634116139
 31
0.0
  0
LINE
  5
D210
330
18
100
AcDbEntity
  8
01
  6
CONTINUOUS
100
AcDbLine
 10
5164.697523588962
 20
-71.31248634116139
 30
0.0
 11
5164.38869702322
 21
-70.65021168248143
 31
0.0
  0
LINE
  5
D211
330
18
100
AcDbEntity
  8
01
  6
CONTINUOUS
100
AcDbLine
 10
5164.38869702322
 20
-70.65021168248143
 30
0.0
 11
5164.122174854107
 21
-70.07865156785931
 31
0.0
  0
LINE
  5
D212
330
18
100
AcDbEntity
  8
01
  6
CONTINUOUS
100
AcDbLine
 10
5164.122174854107
 20
-70.07865156785931
 30
0.0
 11
5163.900520081348
 21
-69.60331570164647
 31
0.0
  0
LINE
  5
D213
330
18
100
AcDbEntity
  8
01
  6
CONTINUOUS
100
AcDbLine
 10
5163.900520081348
 20
-69.60331570164647
 30
0.0
 11
5163.725871021576
 21
-69.2287750150391
 31
0.0
  0
LINE
  5
D214
330
18
100
AcDbEntity
  8
01
  6
CONTINUOUS
100
AcDbLine
 10
5163.725871021576
 20
-69.2287750150391
 30
0.0
 11
5163.599904055423
 21
-68.95863931433644
 31
0.0
  0
LINE
  5
D215
330
18
100
AcDbEntity
  8
01
  6
CONTINUOUS
100
AcDbLine
 10
5163.599904055423
 20
-68.95863931433644
 30
0.0
 11
5163.523833627529
 21
-68.79550885216679
 31
0.0
  0
LINE
  5
D216
330
18
100
AcDbEntity
  8
01
  6
CONTINUOUS
100
AcDbLine
 10
5163.523833627529
 20
-68.79550885216679
 30
0.0
 11
5163.498397345371
 21
-68.74095570103611
 31
0.0
  0
LINE
  5
D217
330
18
100
AcDbEntity
  8
01
  6
CONTINUOUS
100
AcDbLine
 10
5168.781127209491
 20
14.26526570661586
 30
0.0
 11
5168.263326759166
 21
13.15484235032125
 31
0.0
  0
LINE
  5
D218
330
18
100
AcDbEntity
  8
01
  6
CONTINUOUS
100
AcDbLine
 10
5168.263326759166
 20
13.15484235032125
 30
0.0
 11
5167.750518197841
 21
12.0551180277638
 31
0.0
  0
LINE
  5
D219
330
18
100
AcDbEntity
  8
01
  6
CONTINUOUS
100
AcDbLine
 10
5167.750518197841
 20
12.0551180277638
 30
0.0
 11
5167.247633809871
 21
10.97667256339116
 31
0.0
  0
LINE
  5
D21A
330
18
100
AcDbEntity
  8
01
  6
CONTINUOUS
100
AcDbLine
 10
5167.247633809871
 20
10.97667256339116
 30
0.0
 11
5166.759516472644
 21
9.929903242426349
 31
0.0
  0
LINE
  5
D21B
330
18
100
AcDbEntity
  8
01
  6
CONTINUOUS
100
AcDbLine
 10
5166.759516472644
 20
9.929903242426349
 30
0.0
 11
5166.290867502517
 21
8.924883249836398
 31
0.0
  0
LINE
  5
D21C
330
18
100
AcDbEntity
  8
01
  6
CONTINUOUS
100
AcDbLine
 10
5166.290867502517
 20
8.924883249836398
 30
0.0
 11
5165.846201951332
 21
7.971294615107013
 31
0.0
  0
LINE
  5
D21D
330
18
100
AcDbEntity
  8
01
  6
CONTINUOUS
100
AcDbLine
 10
5165.846201951332
 20
7.971294615107013
 30
0.0
 11
5165.42979645235
 21
7.078320178823901
 31
0.0
  0
LINE
  5
D21E
330
18
100
AcDbEntity
  8
01
  6
CONTINUOUS
100
AcDbLine
 10
5165.42979645235
 20
7.078320178823901
 30
0.0
 11
5165.045674319095
 21
6.254561636286212
 31
0.0
  0
LINE
  5
D21F
330
18
100
AcDbEntity
  8
01
  6
CONTINUOUS
100
AcDbLine
 10
5165.045674319095
 20
6.254561636286212
 30
0.0
 11
5164.697523588962
 21
5.507946405249072
 31
0.0
  0
LINE
  5
D220
330
18
100
AcDbEntity
  8
01
  6
CONTINUOUS
100
AcDbLine
 10
5164.697523588962
 20
5.507946405249072
 30
0.0
 11
5164.38869702322
 21
4.84567174656911
 31
0.0
  0
LINE
  5
D221
330
18
100
AcDbEntity
  8
01
  6
CONTINUOUS
100
AcDbLine
 10
5164.38869702322
 20
4.84567174656911
 30
0.0
 11
5164.122174854107
 21
4.274111631946994
 31
0.0
  0
LINE
  5
D222
330
18
100
AcDbEntity
  8
01
  6
CONTINUOUS
100
AcDbLine
 10
5164.122174854107
 20
4.274111631946994
 30
0.0
 11
5163.900520081348
 21
3.798775765734149
 31
0.0
  0
LINE
  5
D223
330
18
100
AcDbEntity
  8
01
  6
CONTINUOUS
100
AcDbLine
 10
5163.900520081348
 20
3.798775765734149
 30
0.0
 11
5163.725871021576
 21
3.424235079126788
 31
0.0
  0
LINE
  5
D224
330
18
100
AcDbEntity
  8
01
  6
CONTINUOUS
100
AcDbLine
 10
5163.725871021576
 20
3.424235079126788
 30
0.0
 11
5163.599904055423
 21
3.154099378424121
 31
0.0
  0
LINE
  5
D225
330
18
100
AcDbEntity
  8
01
  6
CONTINUOUS
100
AcDbLine
 10
5163.599904055423
 20
3.154099378424121
 30
0.0
 11
5163.523833627529
 21
2.990968916254474
 31
0.0
  0
LINE
  5
D226
330
18
100
AcDbEntity
  8
01
  6
CONTINUOUS
100
AcDbLine
 10
5163.523833627529
 20
2.990968916254474
 30
0.0
 11
5163.498397345371
 21
2.936415765123797
 31
0.0
  0
LINE
  5
D227
330
18
100
AcDbEntity
  8
01
  6
CONTINUOUS
100
AcDbLine
 10
5062.505614176996
 20
-291.0522704154414
 30
0.0
 11
5061.452936545617
 21
-291.1093306869429
 31
0.0
  0
LINE
  5
D228
330
18
100
AcDbEntity
  8
01
  6
CONTINUOUS
100
AcDbLine
 10
5061.452936545617
 20
-291.1093306869429
 30
0.0
 11
5060.819789931781
 21
-291.1991697877806
 31
0.0
  0
LINE
  5
D229
330
18
100
AcDbEntity
  8
01
  6
CONTINUOUS
100
AcDbLine
 10
5060.819789931781
 20
-314.6053683852938
 30
0.0
 11
5061.452936545617
 21
-314.6952085338694
 31
0.0
  0
LINE
  5
D22A
330
18
100
AcDbEntity
  8
01
  6
CONTINUOUS
100
AcDbLine
 10
5061.452936545617
 20
-314.6952085338694
 30
0.0
 11
5062.505614176996
 21
-314.7522695038629
 31
0.0
  0
LINE
  5
D22B
330
18
100
AcDbEntity
  8
01
  6
CONTINUOUS
100
AcDbLine
 10
4970.030298863302
 20
-291.0522704154414
 30
0.0
 11
4971.08297649468
 21
-291.1093306869429
 31
0.0
  0
LINE
  5
D22C
330
18
100
AcDbEntity
  8
01
  6
CONTINUOUS
100
AcDbLine
 10
4971.08297649468
 20
-291.1093306869429
 30
0.0
 11
4971.716123108517
 21
-291.1991697877806
 31
0.0
  0
LINE
  5
D22D
330
18
100
AcDbEntity
  8
01
  6
CONTINUOUS
100
AcDbLine
 10
4971.716123108517
 20
-314.6053683852938
 30
0.0
 11
4971.08297649468
 21
-314.6952085338694
 31
0.0
  0
LINE
  5
D22E
330
18
100
AcDbEntity
  8
01
  6
CONTINUOUS
100
AcDbLine
 10
4971.08297649468
 20
-314.6952085338694
 30
0.0
 11
4970.030298863302
 21
-314.7522695038629
 31
0.0
  0
LINE
  5
D22F
330
18
100
AcDbEntity
  8
01
  6
CONTINUOUS
100
AcDbLine
 10
4863.301637859702
 20
-290.9009514258252
 30
0.0
 11
4863.798725695968
 21
-290.9587344036446
 31
0.0
  0
LINE
  5
D230
330
18
100
AcDbEntity
  8
01
  6
CONTINUOUS
100
AcDbLine
 10
4863.798725695968
 20
-290.9587344036446
 30
0.0
 11
4864.291022808909
 21
-291.1315282688485
 31
0.0
  0
LINE
  5
D231
330
18
100
AcDbEntity
  8
01
  6
CONTINUOUS
100
AcDbLine
 10
4864.291022808909
 20
-291.1315282688485
 30
0.0
 11
4864.773790629268
 21
-291.4176678166733
 31
0.0
  0
LINE
  5
D232
330
18
100
AcDbEntity
  8
01
  6
CONTINUOUS
100
AcDbLine
 10
4864.773790629268
 20
-291.4176678166733
 30
0.0
 11
4865.242387445331
 21
-291.8143963322983
 31
0.0
  0
LINE
  5
D233
330
18
100
AcDbEntity
  8
01
  6
CONTINUOUS
100
AcDbLine
 10
4865.242387445331
 20
-291.8143963322983
 30
0.0
 11
4865.692290754676
 21
-292.3178953931675
 31
0.0
  0
LINE
  5
D234
330
18
100
AcDbEntity
  8
01
  6
CONTINUOUS
100
AcDbLine
 10
4865.692290754676
 20
-292.3178953931675
 30
0.0
 11
4866.119164319396
 21
-292.9233165339575
 31
0.0
  0
LINE
  5
D235
330
18
100
AcDbEntity
  8
01
  6
CONTINUOUS
100
AcDbLine
 10
4866.119164319396
 20
-292.9233165339575
 30
0.0
 11
4866.518910320163
 21
-293.6248259500609
 31
0.0
  0
LINE
  5
D236
330
18
100
AcDbEntity
  8
01
  6
CONTINUOUS
100
AcDbLine
 10
4866.518910320163
 20
-293.6248259500609
 30
0.0
 11
4866.887669356227
 21
-294.4156696901665
 31
0.0
  0
LINE
  5
D237
330
18
100
AcDbEntity
  8
01
  6
CONTINUOUS
100
AcDbLine
 10
4866.887669356227
 20
-294.4156696901665
 30
0.0
 11
4867.221894951224
 21
-295.2882313982592
 31
0.0
  0
LINE
  5
D238
330
18
100
AcDbEntity
  8
01
  6
CONTINUOUS
100
AcDbLine
 10
4867.221894951224
 20
-295.2882313982592
 30
0.0
 11
4867.518368454337
 21
-296.2341086820708
 31
0.0
  0
LINE
  5
D239
330
18
100
AcDbEntity
  8
01
  6
CONTINUOUS
100
AcDbLine
 10
4867.518368454337
 20
-296.2341086820708
 30
0.0
 11
4867.774228842616
 21
-297.2441894815312
 31
0.0
  0
LINE
  5
D23A
330
18
100
AcDbEntity
  8
01
  6
CONTINUOUS
100
AcDbLine
 10
4867.774228842616
 20
-297.2441894815312
 30
0.0
 11
4867.987017424464
 21
-298.3087507889614
 31
0.0
  0
LINE
  5
D23B
330
18
100
AcDbEntity
  8
01
  6
CONTINUOUS
100
AcDbLine
 10
4867.987017424464
 20
-298.3087507889614
 30
0.0
 11
4868.154685290217
 21
-299.4175350175248
 31
0.0
  0
LINE
  5
D23C
330
18
100
AcDbEntity
  8
01
  6
CONTINUOUS
100
AcDbLine
 10
4868.154685290217
 20
-299.4175350175248
 30
0.0
 11
4868.275608213306
 21
-300.5598673478709
 31
0.0
  0
LINE
  5
D23D
330
18
100
AcDbEntity
  8
01
  6
CONTINUOUS
100
AcDbLine
 10
4868.275608213306
 20
-300.5598673478709
 30
0.0
 11
4868.348638804317
 21
-301.7247451351033
 31
0.0
  0
LINE
  5
D23E
330
18
100
AcDbEntity
  8
01
  6
CONTINUOUS
100
AcDbLine
 10
4868.348638804317
 20
-301.7247451351033
 30
0.0
 11
4868.373054356933
 21
-302.9009515301333
 31
0.0
  0
LINE
  5
D23F
330
18
100
AcDbEntity
  8
01
  6
CONTINUOUS
100
AcDbLine
 10
4868.373054356933
 20
-302.9009515301333
 30
0.0
 11
4868.348638804317
 21
-304.0771569938407
 31
0.0
  0
LINE
  5
D240
330
18
100
AcDbEntity
  8
01
  6
CONTINUOUS
100
AcDbLine
 10
4868.348638804317
 20
-304.0771569938407
 30
0.0
 11
4868.275608213306
 21
-305.2420347810731
 31
0.0
  0
LINE
  5
D241
330
18
100
AcDbEntity
  8
01
  6
CONTINUOUS
100
AcDbLine
 10
4868.275608213306
 20
-305.2420347810731
 30
0.0
 11
4868.154685290217
 21
-306.3843671114192
 31
0.0
  0
LINE
  5
D242
330
18
100
AcDbEntity
  8
01
  6
CONTINUOUS
100
AcDbLine
 10
4868.154685290217
 20
-306.3843671114192
 30
0.0
 11
4867.987017424464
 21
-307.4931522713051
 31
0.0
  0
LINE
  5
D243
330
18
100
AcDbEntity
  8
01
  6
CONTINUOUS
100
AcDbLine
 10
4867.987017424464
 20
-307.4931522713051
 30
0.0
 11
4867.774228842616
 21
-308.5577121817515
 31
0.0
  0
LINE
  5
D244
330
18
100
AcDbEntity
  8
01
  6
CONTINUOUS
100
AcDbLine
 10
4867.774228842616
 20
-308.5577121817515
 30
0.0
 11
4867.518368454337
 21
-309.5677939125345
 31
0.0
  0
LINE
  5
D245
330
18
100
AcDbEntity
  8
01
  6
CONTINUOUS
100
AcDbLine
 10
4867.518368454337
 20
-309.5677939125345
 30
0.0
 11
4867.221894951224
 21
-310.5136707306848
 31
0.0
  0
LINE
  5
D246
330
18
100
AcDbEntity
  8
01
  6
CONTINUOUS
100
AcDbLine
 10
4867.221894951224
 20
-310.5136707306848
 30
0.0
 11
4866.887669356227
 21
-311.3862324387775
 31
0.0
  0
LINE
  5
D247
330
18
100
AcDbEntity
  8
01
  6
CONTINUOUS
100
AcDbLine
 10
4866.887669356227
 20
-311.3862324387775
 30
0.0
 11
4866.518910320163
 21
-312.1770766445444
 31
0.0
  0
LINE
  5
D248
330
18
100
AcDbEntity
  8
01
  6
CONTINUOUS
100
AcDbLine
 10
4866.518910320163
 20
-312.1770766445444
 30
0.0
 11
4866.119164319396
 21
-312.878586526309
 31
0.0
  0
LINE
  5
D249
330
18
100
AcDbEntity
  8
01
  6
CONTINUOUS
100
AcDbLine
 10
4866.119164319396
 20
-312.878586526309
 30
0.0
 11
4865.692290754676
 21
-313.4840062701152
 31
0.0
  0
LINE
  5
D24A
330
18
100
AcDbEntity
  8
01
  6
CONTINUOUS
100
AcDbLine
 10
4865.692290754676
 20
-313.4840062701152
 30
0.0
 11
4865.242387445331
 21
-313.987505563815
 31
0.0
  0
LINE
  5
D24B
330
18
100
AcDbEntity
  8
01
  6
CONTINUOUS
100
AcDbLine
 10
4865.242387445331
 20
-313.987505563815
 30
0.0
 11
4864.773790629268
 21
-314.3842352435933
 31
0.0
  0
LINE
  5
D24C
330
18
100
AcDbEntity
  8
01
  6
CONTINUOUS
100
AcDbLine
 10
4864.773790629268
 20
-314.3842352435933
 30
0.0
 11
4864.291022808909
 21
-314.6703745585875
 31
0.0
  0
LINE
  5
D24D
330
18
100
AcDbEntity
  8
01
  6
CONTINUOUS
100
AcDbLine
 10
4864.291022808909
 20
-314.6703745585875
 30
0.0
 11
4863.798725695968
 21
-314.84316795813
 31
0.0
  0
LINE
  5
D24E
330
18
100
AcDbEntity
  8
01
  6
CONTINUOUS
100
AcDbLine
 10
4863.798725695968
 20
-314.84316795813
 30
0.0
 11
4863.301637859702
 21
-314.9009511687801
 31
0.0
  0
LINE
  5
D24F
330
18
100
AcDbEntity
  8
01
  6
BYBLOCK
100
AcDbLine
 10
5126.867840180405
 20
-174.1774457762396
 30
0.0000000000563712
 11
5124.267840180404
 21
-173.4807778822396
 31
0.0000000000563712
  0
LINE
  5
D250
330
18
100
AcDbEntity
  8
01
  6
BYBLOCK
100
AcDbLine
 10
5124.267840180404
 20
-173.4807778822396
 30
0.0000000000563712
 11
5126.867840180405
 21
-172.7841099882396
 31
0.0000000000563712
  0
LINE
  5
D251
330
18
100
AcDbEntity
  8
01
  6
BYBLOCK
100
AcDbLine
 10
5124.267840180404
 20
-173.4807778822396
 30
0.0000000000563712
 11
5126.867840180405
 21
-173.4807778822396
 31
0.0000000000563712
  0
LINE
  5
D252
330
18
100
AcDbEntity
  8
01
  6
BYBLOCK
100
AcDbLine
 10
5132.667840180404
 20
-172.7841099882396
 30
0.0000000000563712
 11
5135.267840180404
 21
-173.4807778822396
 31
0.0000000000563712
  0
LINE
  5
D253
330
18
100
AcDbEntity
  8
01
  6
BYBLOCK
100
AcDbLine
 10
5135.267840180404
 20
-173.4807778822396
 30
0.0000000000563712
 11
5132.667840180404
 21
-174.1774457762396
 31
0.0000000000563712
  0
LINE
  5
D254
330
18
100
AcDbEntity
  8
01
  6
BYBLOCK
100
AcDbLine
 10
5135.267840180404
 20
-173.4807778822396
 30
0.0000000000563712
 11
5132.667840180404
 21
-173.4807778822396
 31
0.0000000000563712
  0
TEXT
  5
D255
330
18
100
AcDbEntity
  8
01
  6
CONTINUOUS
100
AcDbText
 10
5127.492840180405
 20
-172.5707778822396
 30
0.0000000000563712
 40
4.55
  1
11
100
AcDbText
1001
ACAD
1000
DSTYLE
1002
{
1070
    40
1040
1.3
1070
    45
1040
0.5
1002
}
  0
LINE
  5
D256
330
18
100
AcDbEntity
  8
01
  6
BYBLOCK
100
AcDbLine
 10
5230.571172286404
 20
-247.5096424745358
 30
0.0000000000563712
 11
5231.267840180404
 21
-244.9096424745358
 31
0.0000000000563712
  0
LINE
  5
D257
330
18
100
AcDbEntity
  8
01
  6
BYBLOCK
100
AcDbLine
 10
5231.267840180404
 20
-244.9096424745358
 30
0.0000000000563712
 11
5231.964508074404
 21
-247.5096424745358
 31
0.0000000000563712
  0
LINE
  5
D258
330
18
100
AcDbEntity
  8
01
  6
BYBLOCK
100
AcDbLine
 10
5231.267840180404
 20
-244.9096424745358
 30
0.0000000000563712
 11
5231.267840180404
 21
-247.5096424745358
 31
0.0000000000563712
  0
LINE
  5
D259
330
18
100
AcDbEntity
  8
01
  6
BYBLOCK
100
AcDbLine
 10
5231.964508074404
 20
-316.3022699669281
 30
0.0000000000563712
 11
5231.267840180404
 21
-318.9022699669281
 31
0.0000000000563712
  0
LINE
  5
D25A
330
18
100
AcDbEntity
  8
01
  6
BYBLOCK
100
AcDbLine
 10
5231.267840180404
 20
-318.9022699669281
 30
0.0000000000563712
 11
5230.571172286404
 21
-316.3022699669281
 31
0.0000000000563712
  0
LINE
  5
D25B
330
18
100
AcDbEntity
  8
01
  6
BYBLOCK
100
AcDbLine
 10
5231.267840180404
 20
-318.9022699669281
 30
0.0000000000563712
 11
5231.267840180404
 21
-316.3022699669281
 31
0.0000000000563712
  0
TEXT
  5
D25C
330
18
100
AcDbEntity
  8
01
  6
CONTINUOUS
100
AcDbText
 10
5230.357840180403
 20
-263.9309258809099
 30
0.0000000000563712
 40
4.55
  1
74
 50
90.0
100
AcDbText
1001
ACAD
1000
DSTYLE
1002
{
1070
    40
1040
1.3
1070
    45
1040
0.5
1002
}
  0
LINE
  5
D25D
330
18
100
AcDbEntity
  8
01
  6
BYBLOCK
100
AcDbLine
 10
5201.667840180404
 20
-162.7042425201915
 30
0.0000000000563712
 11
5204.267840180404
 21
-163.4009104141915
 31
0.0000000000563712
  0
LINE
  5
D25E
330
18
100
AcDbEntity
  8
01
  6
BYBLOCK
100
AcDbLine
 10
5204.267840180404
 20
-163.4009104141915
 30
0.0000000000563712
 11
5201.667840180404
 21
-164.0975783081915
 31
0.0000000000563712
  0
LINE
  5
D25F
330
18
100
AcDbEntity
  8
01
  6
BYBLOCK
100
AcDbLine
 10
5204.267840180404
 20
-163.4009104141915
 30
0.0000000000563712
 11
5201.667840180404
 21
-163.4009104141915
 31
0.0000000000563712
  0
LINE
  5
D260
330
18
100
AcDbEntity
  8
01
  6
BYBLOCK
100
AcDbLine
 10
5137.867840180405
 20
-164.0975783081915
 30
0.0000000000563712
 11
5135.267840180404
 21
-163.4009104141915
 31
0.0000000000563712
  0
LINE
  5
D261
330
18
100
AcDbEntity
  8
01
  6
BYBLOCK
100
AcDbLine
 10
5135.267840180404
 20
-163.4009104141915
 30
0.0000000000563712
 11
5137.867840180405
 21
-162.7042425201915
 31
0.0000000000563712
  0
LINE
  5
D262
330
18
100
AcDbEntity
  8
01
  6
BYBLOCK
100
AcDbLine
 10
5135.267840180404
 20
-163.4009104141915
 30
0.0000000000563712
 11
5137.867840180405
 21
-163.4009104141915
 31
0.0000000000563712
  0
TEXT
  5
D263
330
18
100
AcDbEntity
  8
01
  6
CONTINUOUS
100
AcDbText
 10
5165.959321661886
 20
-162.4909104141915
 30
0.0000000000563712
 40
4.55
  1
69
100
AcDbText
1001
ACAD
1000
DSTYLE
1002
{
1070
    40
1040
1.3
1070
    45
1040
0.5
1002
}
  0
LINE
  5
D264
330
18
100
AcDbEntity
  8
01
  6
BYBLOCK
100
AcDbLine
 10
5137.867840180405
 20
-174.1774457762396
 30
0.0000000000563712
 11
5135.267840180404
 21
-173.4807778822396
 31
0.0000000000563712
  0
LINE
  5
D265
330
18
100
AcDbEntity
  8
01
  6
BYBLOCK
100
AcDbLine
 10
5135.267840180404
 20
-173.4807778822396
 30
0.0000000000563712
 11
5137.867840180405
 21
-172.7841099882396
 31
0.0000000000563712
  0
LINE
  5
D266
330
18
100
AcDbEntity
  8
01
  6
BYBLOCK
100
AcDbLine
 10
5135.267840180404
 20
-173.4807778822396
 30
0.0000000000563712
 11
5137.867840180405
 21
-173.4807778822396
 31
0.0000000000563712
  0
LINE
  5
D267
330
18
100
AcDbEntity
  8
01
  6
BYBLOCK
100
AcDbLine
 10
5183.667840180404
 20
-172.7841099882396
 30
0.0000000000563712
 11
5186.267840180404
 21
-173.4807778822396
 31
0.0000000000563712
  0
LINE
  5
D268
330
18
100
AcDbEntity
  8
01
  6
BYBLOCK
100
AcDbLine
 10
5186.267840180404
 20
-173.4807778822396
 30
0.0000000000563712
 11
5183.667840180404
 21
-174.1774457762396
 31
0.0000000000563712
  0
LINE
  5
D269
330
18
100
AcDbEntity
  8
01
  6
BYBLOCK
100
AcDbLine
 10
5186.267840180404
 20
-173.4807778822396
 30
0.0000000000563712
 11
5183.667840180404
 21
-173.4807778822396
 31
0.0000000000563712
  0
TEXT
  5
D26A
330
18
100
AcDbEntity
  8
01
  6
CONTINUOUS
100
AcDbText
 10
5157.71870823596
 20
-172.5707778822396
 30
0.0000000000563712
 40
4.55
  1
51
100
AcDbText
1001
ACAD
1000
DSTYLE
1002
{
1070
    40
1040
1.3
1070
    45
1040
0.5
1002
}
  0
LINE
  5
D26B
330
18
100
AcDbEntity
  8
01
  6
BYBLOCK
100
AcDbLine
 10
5100.432445202262
 20
-227.5022699669283
 30
0.0000000000563712
 11
5101.129113096262
 21
-224.9022699669283
 31
0.0000000000563712
  0
LINE
  5
D26C
330
18
100
AcDbEntity
  8
01
  6
BYBLOCK
100
AcDbLine
 10
5101.129113096262
 20
-224.9022699669283
 30
0.0000000000563712
 11
5101.825780990262
 21
-227.5022699669283
 31
0.0000000000563712
  0
LINE
  5
D26D
330
18
100
AcDbEntity
  8
01
  6
BYBLOCK
100
AcDbLine
 10
5101.129113096262
 20
-224.9022699669283
 30
0.0000000000563712
 11
5101.129113096262
 21
-227.5022699669283
 31
0.0000000000563712
  0
LINE
  5
D26E
330
18
100
AcDbEntity
  8
01
  6
BYBLOCK
100
AcDbLine
 10
5101.825780990262
 20
-336.3022699669283
 30
0.0000000000563712
 11
5101.129113096262
 21
-338.9022699669283
 31
0.0000000000563712
  0
LINE
  5
D26F
330
18
100
AcDbEntity
  8
01
  6
BYBLOCK
100
AcDbLine
 10
5101.129113096262
 20
-338.9022699669283
 30
0.0000000000563712
 11
5100.432445202262
 21
-336.3022699669283
 31
0.0000000000563712
  0
LINE
  5
D270
330
18
100
AcDbEntity
  8
01
  6
BYBLOCK
100
AcDbLine
 10
5101.129113096262
 20
-338.9022699669283
 30
0.0000000000563712
 11
5101.129113096262
 21
-336.3022699669283
 31
0.0000000000563712
  0
TEXT
  5
D271
330
18
100
AcDbEntity
  8
01
  6
CONTINUOUS
100
AcDbText
 10
5100.219113096262
 20
-257.319247619007
 30
0.0000000000563712
 40
4.55
  1
114
 50
90.0
100
AcDbText
1001
ACAD
1000
DSTYLE
1002
{
1070
    40
1040
1.3
1070
    45
1040
0.5
1002
}
  0
LINE
  5
D272
330
18
100
AcDbEntity
  8
01
  6
BYBLOCK
100
AcDbLine
 10
5109.796779368487
 20
-219.6027151113448
 30
0.0000000000563712
 11
5110.493447262486
 21
-217.0027151113448
 31
0.0000000000563712
  0
LINE
  5
D273
330
18
100
AcDbEntity
  8
01
  6
BYBLOCK
100
AcDbLine
 10
5110.493447262486
 20
-217.0027151113448
 30
0.0000000000563712
 11
5111.190115156486
 21
-219.6027151113448
 31
0.0000000000563712
  0
LINE
  5
D274
330
18
100
AcDbEntity
  8
01
  6
BYBLOCK
100
AcDbLine
 10
5110.493447262486
 20
-217.0027151113448
 30
0.0000000000563712
 11
5110.493447262486
 21
-219.6027151113448
 31
0.0000000000563712
  0
LINE
  5
D275
330
18
100
AcDbEntity
  8
01
  6
BYBLOCK
100
AcDbLine
 10
5111.190115156486
 20
-344.2022699669282
 30
0.0000000000563712
 11
5110.493447262486
 21
-346.8022699669282
 31
0.0000000000563712
  0
LINE
  5
D276
330
18
100
AcDbEntity
  8
01
  6
BYBLOCK
100
AcDbLine
 10
5110.493447262486
 20
-346.8022699669282
 30
0.0000000000563712
 11
5109.796779368487
 21
-344.2022699669282
 31
0.0000000000563712
  0
LINE
  5
D277
330
18
100
AcDbEntity
  8
01
  6
BYBLOCK
100
AcDbLine
 10
5110.493447262486
 20
-346.8022699669282
 30
0.0000000000563712
 11
5110.493447262486
 21
-344.2022699669282
 31
0.0000000000563712
  0
TEXT
  5
D278
330
18
100
AcDbEntity
  8
01
  6
CONTINUOUS
100
AcDbText
 10
5109.583447262486
 20
-258.1038116218142
 30
0.0000000000563712
 40
4.55
  1
130
 50
90.0
100
AcDbText
1001
ACAD
1000
DSTYLE
1002
{
1070
    40
1040
1.3
1070
    45
1040
0.5
1002
}
  0
LINE
  5
D279
330
18
100
AcDbEntity
  8
01
  6
BYBLOCK
100
AcDbLine
 10
5006.367956520149
 20
-174.1774457762399
 30
0.0000000000563712
 11
5003.767956520149
 21
-173.4807778822399
 31
0.0000000000563712
  0
LINE
  5
D27A
330
18
100
AcDbEntity
  8
01
  6
BYBLOCK
100
AcDbLine
 10
5003.767956520149
 20
-173.4807778822399
 30
0.0000000000563712
 11
5006.367956520149
 21
-172.7841099882399
 31
0.0000000000563712
  0
LINE
  5
D27B
330
18
100
AcDbEntity
  8
01
  6
BYBLOCK
100
AcDbLine
 10
5003.767956520149
 20
-173.4807778822399
 30
0.0000000000563712
 11
5006.367956520149
 21
-173.4807778822399
 31
0.0000000000563712
  0
LINE
  5
D27C
330
18
100
AcDbEntity
  8
01
  6
BYBLOCK
100
AcDbLine
 10
5026.167956520148
 20
-172.7841099882399
 30
0.0000000000563712
 11
5028.767956520149
 21
-173.4807778822399
 31
0.0000000000563712
  0
LINE
  5
D27D
330
18
100
AcDbEntity
  8
01
  6
BYBLOCK
100
AcDbLine
 10
5028.767956520149
 20
-173.4807778822399
 30
0.0000000000563712
 11
5026.167956520148
 21
-174.1774457762399
 31
0.0000000000563712
  0
LINE
  5
D27E
330
18
100
AcDbEntity
  8
01
  6
BYBLOCK
100
AcDbLine
 10
5028.767956520149
 20
-173.4807778822399
 30
0.0000000000563712
 11
5026.167956520148
 21
-173.4807778822399
 31
0.0000000000563712
  0
TEXT
  5
D27F
330
18
100
AcDbEntity
  8
01
  6
CONTINUOUS
100
AcDbText
 10
5012.476289853482
 20
-172.5707778822399
 30
0.0000000000563712
 40
4.55
  1
25
100
AcDbText
1001
ACAD
1000
DSTYLE
1002
{
1070
    40
1040
1.3
1070
    45
1040
0.5
1002
}
  0
LINE
  5
D280
330
18
100
AcDbEntity
  8
1DIM
100
AcDbLine
 10
5202.668724362464
 20
-23.40226996795627
 30
0.0000000000563712
 11
5223.229115122177
 21
-23.40226996795628
 31
0.0000000000563712
1001
ACAD
1000
DSTYLE
1002
{
1070
    45
1040
0.5
1070
    40
1040
1.3
1002
}
  0
LINE
  5
D281
330
18
100
AcDbEntity
  8
1DIM
100
AcDbLine
 10
5204.268724362464
 20
-42.20226996795623
 30
0.0000000000563712
 11
5223.229115122177
 21
-42.20226996795623
 31
0.0000000000563712
1001
ACAD
1000
DSTYLE
1002
{
1070
    45
1040
0.5
1070
    40
1040
1.3
1002
}
  0
LINE
  5
D282
330
18
100
AcDbEntity
  8
1DIM
100
AcDbLine
 10
5221.929115122177
 20
-26.00226996795628
 30
0.0000000000563712
 11
5221.929115122177
 21
-39.60226996795623
 31
0.0000000000563712
1001
ACAD
1000
DSTYLE
1002
{
1070
    45
1040
0.5
1070
    40
1040
1.3
1002
}
  0
SOLID
  5
D286
330
18
100
AcDbEntity
  8
1DIM
100
AcDbTrace
 10
5167.81808395197
 20
-80.61466383893502
 30
0.0000000000563712
 11
5169.869381287576
 21
-78.95938228623356
 31
0.0000000000563712
 12
5168.465812960177
 22
-81.1904747827693
 32
0.0000000000563712
 13
5168.465812960177
 23
-81.1904747827693
 33
0.0000000000563712
1001
ACAD
1000
DSTYLE
1002
{
1070
    40
1040
1.3
1002
}
  0
LINE
  5
D287
330
18
100
AcDbEntity
  8
1DIM
100
AcDbLine
 10
5168.141948456074
 20
-80.90256931085216
 30
0.0000000000563712
 11
5149.052518833838
 21
-102.3762447399722
 31
0.0000000000563712
1001
ACAD
1000
DSTYLE
1002
{
1070
    40
1040
1.3
1002
}
  0
LINE
  5
D288
330
18
100
AcDbEntity
  8
1DIM
100
AcDbLine
 10
5149.052518833838
 20
-102.3762447399722
 30
0.0000000000563712
 11
5087.605852167171
 21
-102.3762447399722
 31
0.0000000000563712
1001
ACAD
1000
DSTYLE
1002
{
1070
    40
1040
1.3
1002
}
  0
TEXT
  5
D289
330
18
100
AcDbEntity
  8
1HIDDEN
  6
CONTINUOUS
100
AcDbText
 10
5087.302518833838
 20
-93.88291140663885
 30
0.0000000000563712
 40
4.55
  1
材質：亜鉛ダイキャスト
100
AcDbText
1001
ACADANNOTATIVE
1000
AnnotativeData
1002
{
1070
     1
1070
     0
1002
}
  0
TEXT
  5
D28A
330
18
100
AcDbEntity
  8
1HIDDEN
  6
CONTINUOUS
100
AcDbText
 10
5097.312518833838
 20
-101.4662447399722
 30
0.0000000000563712
 40
4.55
  1
仕上げ：各種仕上げ
100
AcDbText
1001
ACADANNOTATIVE
1000
AnnotativeData
1002
{
1070
     1
1070
     0
1002
}
  0
SOLID
  5
D28B
330
18
100
AcDbEntity
  8
1DIM
100
AcDbTrace
 10
5255.868151190332
 20
-297.3720873707391
 30
-0.0000000000001455
 11
5253.98537569485
 21
-299.2167917403846
 31
-0.0000000000001455
 12
5255.168097043664
 22
-296.861171230023
 32
-0.0000000000001455
 13
5255.168097043664
 23
-296.861171230023
 33
-0.0000000000001455
1001
ACAD
1000
DSTYLE
1002
{
1070
    40
1040
1.3
1002
}
  0
LINE
  5
D28C
330
18
100
AcDbEntity
  8
1DIM
100
AcDbLine
 10
5255.518124116998
 20
-297.116629300381
 30
-0.0000000000001455
 11
5274.827552926052
 21
-270.6589689715872
 31
-0.0000000000001455
1001
ACAD
1000
DSTYLE
1002
{
1070
    40
1040
1.3
1002
}
  0
LINE
  5
D28D
330
18
100
AcDbEntity
  8
1DIM
100
AcDbLine
 10
5274.827552926052
 20
-270.6589689715872
 30
-0.0000000000001455
 11
5326.415886259386
 21
-270.6589689715872
 31
-0.0000000000001455
1001
ACAD
1000
DSTYLE
1002
{
1070
    40
1040
1.3
1002
}
  0
TEXT
  5
D28E
330
18
100
AcDbEntity
  8
1DIM
  6
CONTINUOUS
100
AcDbText
 10
5278.034219592719
 20
-262.1656356382539
 30
-0.0000000000001455
 40
4.55
  1
材質：PET
100
AcDbText
1001
ACADANNOTATIVE
1000
AnnotativeData
1002
{
1070
     1
1070
     0
1002
}
  0
TEXT
  5
D28F
330
18
100
AcDbEntity
  8
1DIM
  6
CONTINUOUS
100
AcDbText
 10
5278.185886259385
 20
-269.7489689715872
 30
-0.0000000000001455
 40
4.55
  1
仕上げ：各種仕上げ
100
AcDbText
1001
ACADANNOTATIVE
1000
AnnotativeData
1002
{
1070
     1
1070
     0
1002
}
  0
LINE
  5
D290
330
18
100
AcDbEntity
  8
1DIM
100
AcDbLine
 10
5289.023104517495
 20
-52.90226996795695
 30
0.0
 11
5357.993783295421
 21
-52.90226996795696
 31
0.0
1001
ACAD
1000
DSTYLE
1002
{
1070
    40
1040
1.3
1002
}
  0
LINE
  5
D291
330
18
100
AcDbEntity
  8
1DIM
100
AcDbLine
 10
5316.267956907577
 20
-99.10226824227215
 30
0.0
 11
5357.993783295421
 21
-99.10226824227215
 31
0.0
1001
ACAD
1000
DSTYLE
1002
{
1070
    40
1040
1.3
1002
}
  0
LINE
  5
D292
330
18
100
AcDbEntity
  8
1DIM
100
AcDbLine
 10
5356.693783295421
 20
-55.50226996795696
 30
0.0
 11
5356.693783295421
 21
-96.50226824227215
 31
0.0
1001
ACAD
1000
DSTYLE
1002
{
1070
    40
1040
1.3
1002
}
  0
LINE
  5
D296
330
18
100
AcDbEntity
  8
1DIM
100
AcDbLine
 10
5316.267956520147
 20
-87.6022699679562
 30
0.0
 11
5344.285375627243
 21
-87.6022699679562
 31
0.0
1001
ACAD
1000
DSTYLE
1002
{
1070
    40
1040
1.3
1002
}
  0
LINE
  5
D297
330
18
100
AcDbEntity
  8
1DIM
100
AcDbLine
 10
5289.023104517495
 20
-52.90226996795695
 30
0.0
 11
5344.285375627243
 21
-52.90226996795695
 31
0.0
1001
ACAD
1000
DSTYLE
1002
{
1070
    40
1040
1.3
1002
}
  0
LINE
  5
D298
330
18
100
AcDbEntity
  8
1DIM
100
AcDbLine
 10
5342.985375627243
 20
-85.00226996795621
 30
0.0
 11
5342.985375627243
 21
-55.50226996795696
 31
0.0
1001
ACAD
1000
DSTYLE
1002
{
1070
    40
1040
1.3
1002
}
  0
LINE
  5
D29C
330
18
100
AcDbEntity
  8
1DIM
100
AcDbLine
 10
5162.267956311531
 20
-65.43718572513546
 30
0.0
 11
5162.267956311531
 21
-124.1177321752584
 31
0.0
  0
LINE
  5
D29D
330
18
100
AcDbEntity
  8
1DIM
100
AcDbLine
 10
5317.267957503624
 20
-98.10226890997376
 30
0.0
 11
5317.267957503624
 21
-124.1177321752584
 31
0.0
  0
LINE
  5
D29E
330
18
100
AcDbEntity
  8
1DIM
100
AcDbLine
 10
5164.267956311531
 20
-123.1177321752584
 30
0.0
 11
5315.267957503624
 21
-123.1177321752584
 31
0.0
  0
LINE
  5
D2A2
330
18
100
AcDbEntity
  8
1DIM
100
AcDbLine
 10
5186.267956520147
 20
-74.40226996795627
 30
0.0
 11
5186.267956520147
 21
-111.6267368037353
 31
0.0
  0
LINE
  5
D2A3
330
18
100
AcDbEntity
  8
1DIM
100
AcDbLine
 10
5317.267957503624
 20
-98.10226890997376
 30
0.0
 11
5317.267957503624
 21
-111.6267368037353
 31
0.0
  0
LINE
  5
D2A4
330
18
100
AcDbEntity
  8
1DIM
100
AcDbLine
 10
5188.267956520147
 20
-110.6267368037353
 30
0.0
 11
5315.267957503624
 21
-110.6267368037353
 31
0.0
  0
LINE
  5
D2A8
330
18
100
AcDbEntity
  8
1DIM
100
AcDbLine
 10
5302.767840776451
 20
-288.4009511977678
 30
0.0
 11
5328.052704505119
 21
-288.4009511977678
 31
0.0
1001
ACAD
1000
DSTYLE
1002
{
1070
    40
1040
1.3
1002
}
  0
LINE
  5
D2A9
330
18
100
AcDbEntity
  8
1DIM
100
AcDbLine
 10
5302.767840776451
 20
-317.4009511977678
 30
0.0
 11
5328.052704505119
 21
-317.4009511977678
 31
0.0
1001
ACAD
1000
DSTYLE
1002
{
1070
    40
1040
1.3
1002
}
  0
LINE
  5
D2AA
330
18
100
AcDbEntity
  8
1DIM
100
AcDbLine
 10
5326.752704505118
 20
-291.0009511977678
 30
0.0
 11
5326.752704505118
 21
-314.8009511977677
 31
0.0
1001
ACAD
1000
DSTYLE
1002
{
1070
    40
1040
1.3
1002
}
  0
LINE
  5
D2AE
330
18
100
AcDbEntity
  8
0
  6
BYBLOCK
100
AcDbLine
 10
5221.232447228177
 20
-26.00226996795628
 30
0.0000000000563712
 11
5221.929115122177
 21
-23.40226996795628
 31
0.0000000000563712
  0
LINE
  5
D2AF
330
18
100
AcDbEntity
  8
0
  6
BYBLOCK
100
AcDbLine
 10
5221.929115122177
 20
-23.40226996795628
 30
0.0000000000563712
 11
5222.625783016177
 21
-26.00226996795628
 31
0.0000000000563712
  0
LINE
  5
D2B0
330
18
100
AcDbEntity
  8
0
  6
BYBLOCK
100
AcDbLine
 10
5221.929115122177
 20
-23.40226996795628
 30
0.0000000000563712
 11
5221.929115122177
 21
-26.00226996795628
 31
0.0000000000563712
  0
LINE
  5
D2B1
330
18
100
AcDbEntity
  8
0
  6
BYBLOCK
100
AcDbLine
 10
5222.625783016177
 20
-39.60226996795623
 30
0.0000000000563712
 11
5221.929115122177
 21
-42.20226996795623
 31
0.0000000000563712
  0
LINE
  5
D2B2
330
18
100
AcDbEntity
  8
0
  6
BYBLOCK
100
AcDbLine
 10
5221.929115122177
 20
-42.20226996795623
 30
0.0000000000563712
 11
5221.232447228177
 21
-39.60226996795623
 31
0.0000000000563712
  0
LINE
  5
D2B3
330
18
100
AcDbEntity
  8
0
  6
BYBLOCK
100
AcDbLine
 10
5221.929115122177
 20
-42.20226996795623
 30
0.0000000000563712
 11
5221.929115122177
 21
-39.60226996795623
 31
0.0000000000563712
  0
TEXT
  5
D2B4
330
18
100
AcDbEntity
  8
1DIM
  6
CONTINUOUS
100
AcDbText
 10
5221.019115122176
 20
-35.83665654203014
 30
0.0000000000563712
 40
4.55
  1
19
 50
90.0
100
AcDbText
1001
ACAD
1000
DSTYLE
1002
{
1070
    45
1040
0.5
1070
    40
1040
1.3
1002
}
  0
LINE
  5
D2B5
330
18
100
AcDbEntity
  8
0
  6
BYBLOCK
100
AcDbLine
 10
5355.997115401421
 20
-55.50226996795696
 30
0.0
 11
5356.693783295421
 21
-52.90226996795696
 31
0.0
  0
LINE
  5
D2B6
330
18
100
AcDbEntity
  8
0
  6
BYBLOCK
100
AcDbLine
 10
5356.693783295421
 20
-52.90226996795696
 30
0.0
 11
5357.390451189421
 21
-55.50226996795696
 31
0.0
  0
LINE
  5
D2B7
330
18
100
AcDbEntity
  8
0
  6
BYBLOCK
100
AcDbLine
 10
5356.693783295421
 20
-52.90226996795696
 30
0.0
 11
5356.693783295421
 21
-55.50226996795696
 31
0.0
  0
LINE
  5
D2B8
330
18
100
AcDbEntity
  8
0
  6
BYBLOCK
100
AcDbLine
 10
5357.390451189421
 20
-96.50226824227215
 30
0.0
 11
5356.693783295421
 21
-99.10226824227215
 31
0.0
  0
LINE
  5
D2B9
330
18
100
AcDbEntity
  8
0
  6
BYBLOCK
100
AcDbLine
 10
5356.693783295421
 20
-99.10226824227215
 30
0.0
 11
5355.997115401421
 21
-96.50226824227215
 31
0.0
  0
LINE
  5
D2BA
330
18
100
AcDbEntity
  8
0
  6
BYBLOCK
100
AcDbLine
 10
5356.693783295421
 20
-99.10226824227215
 30
0.0
 11
5356.693783295421
 21
-96.50226824227215
 31
0.0
  0
TEXT
  5
D2BB
330
18
100
AcDbEntity
  8
1DIM
  6
CONTINUOUS
100
AcDbText
 10
5355.78378329542
 20
-79.81078762363268
 30
0.0
 40
4.55
  1
59
 50
90.0
100
AcDbText
1001
ACAD
1000
DSTYLE
1002
{
1070
    40
1040
1.3
1002
}
  0
LINE
  5
D2BC
330
18
100
AcDbEntity
  8
0
  6
BYBLOCK
100
AcDbLine
 10
5343.682043521243
 20
-85.00226996795621
 30
0.0
 11
5342.985375627243
 21
-87.6022699679562
 31
0.0
  0
LINE
  5
D2BD
330
18
100
AcDbEntity
  8
0
  6
BYBLOCK
100
AcDbLine
 10
5342.985375627243
 20
-87.6022699679562
 30
0.0
 11
5342.288707733243
 21
-85.00226996795621
 31
0.0
  0
LINE
  5
D2BE
330
18
100
AcDbEntity
  8
0
  6
BYBLOCK
100
AcDbLine
 10
5342.985375627243
 20
-87.6022699679562
 30
0.0
 11
5342.985375627243
 21
-85.00226996795621
 31
0.0
  0
LINE
  5
D2BF
330
18
100
AcDbEntity
  8
0
  6
BYBLOCK
100
AcDbLine
 10
5342.288707733243
 20
-55.50226996795696
 30
0.0
 11
5342.985375627243
 21
-52.90226996795695
 31
0.0
  0
LINE
  5
D2C0
330
18
100
AcDbEntity
  8
0
  6
BYBLOCK
100
AcDbLine
 10
5342.985375627243
 20
-52.90226996795695
 30
0.0
 11
5343.682043521243
 21
-55.50226996795696
 31
0.0
  0
LINE
  5
D2C1
330
18
100
AcDbEntity
  8
0
  6
BYBLOCK
100
AcDbLine
 10
5342.985375627243
 20
-52.90226996795695
 30
0.0
 11
5342.985375627243
 21
-55.50226996795696
 31
0.0
  0
TEXT
  5
D2C2
330
18
100
AcDbEntity
  8
1DIM
  6
CONTINUOUS
100
AcDbText
 10
5342.075375627242
 20
-79.71332869595062
 30
0.0
 40
4.55
  1
40.5
 50
90.0
100
AcDbText
1001
ACAD
1000
DSTYLE
1002
{
1070
    40
1040
1.3
1002
}
  0
LINE
  5
D2C3
330
18
100
AcDbEntity
  8
0
  6
BYBLOCK
100
AcDbLine
 10
5164.267956311531
 20
-123.6536305552584
 30
0.0
 11
5162.267956311531
 21
-123.1177321752584
 31
0.0
  0
LINE
  5
D2C4
330
18
100
AcDbEntity
  8
0
  6
BYBLOCK
100
AcDbLine
 10
5162.267956311531
 20
-123.1177321752584
 30
0.0
 11
5164.267956311531
 21
-122.5818337952584
 31
0.0
  0
LINE
  5
D2C5
330
18
100
AcDbEntity
  8
0
  6
BYBLOCK
100
AcDbLine
 10
5162.267956311531
 20
-123.1177321752584
 30
0.0
 11
5164.267956311531
 21
-123.1177321752584
 31
0.0
  0
LINE
  5
D2C6
330
18
100
AcDbEntity
  8
0
  6
BYBLOCK
100
AcDbLine
 10
5315.267957503624
 20
-122.5818337952584
 30
0.0
 11
5317.267957503624
 21
-123.1177321752584
 31
0.0
  0
LINE
  5
D2C7
330
18
100
AcDbEntity
  8
0
  6
BYBLOCK
100
AcDbLine
 10
5317.267957503624
 20
-123.1177321752584
 30
0.0
 11
5315.267957503624
 21
-123.6536305552584
 31
0.0
  0
LINE
  5
D2C8
330
18
100
AcDbEntity
  8
0
  6
BYBLOCK
100
AcDbLine
 10
5317.267957503624
 20
-123.1177321752584
 30
0.0
 11
5315.267957503624
 21
-123.1177321752584
 31
0.0
  0
TEXT
  5
D2C9
330
18
100
AcDbEntity
  8
1DIM
  6
CONTINUOUS
100
AcDbText
 10
5235.672470796466
 20
-122.4177321752584
 30
0.0
 40
3.5
  1
155
100
AcDbText
  0
LINE
  5
D2CA
330
18
100
AcDbEntity
  8
0
  6
BYBLOCK
100
AcDbLine
 10
5188.267956520147
 20
-111.1626351837353
 30
0.0
 11
5186.267956520147
 21
-110.6267368037353
 31
0.0
  0
LINE
  5
D2CB
330
18
100
AcDbEntity
  8
0
  6
BYBLOCK
100
AcDbLine
 10
5186.267956520147
 20
-110.6267368037353
 30
0.0
 11
5188.267956520147
 21
-110.0908384237353
 31
0.0
  0
LINE
  5
D2CC
330
18
100
AcDbEntity
  8
0
  6
BYBLOCK
100
AcDbLine
 10
5186.267956520147
 20
-110.6267368037353
 30
0.0
 11
5188.267956520147
 21
-110.6267368037353
 31
0.0
  0
LINE
  5
D2CD
330
18
100
AcDbEntity
  8
0
  6
BYBLOCK
100
AcDbLine
 10
5315.267957503624
 20
-110.0908384237353
 30
0.0
 11
5317.267957503624
 21
-110.6267368037353
 31
0.0
  0
LINE
  5
D2CE
330
18
100
AcDbEntity
  8
0
  6
BYBLOCK
100
AcDbLine
 10
5317.267957503624
 20
-110.6267368037353
 30
0.0
 11
5315.267957503624
 21
-111.1626351837353
 31
0.0
  0
LINE
  5
D2CF
330
18
100
AcDbEntity
  8
0
  6
BYBLOCK
100
AcDbLine
 10
5317.267957503624
 20
-110.6267368037353
 30
0.0
 11
5315.267957503624
 21
-110.6267368037353
 31
0.0
  0
TEXT
  5
D2D0
330
18
100
AcDbEntity
  8
1DIM
  6
CONTINUOUS
100
AcDbText
 10
5248.267957011885
 20
-109.9267368037353
 30
0.0
 40
3.5
  1
131
100
AcDbText
  0
LINE
  5
D2D1
330
18
100
AcDbEntity
  8
0
  6
BYBLOCK
100
AcDbLine
 10
5326.056036611119
 20
-291.0009511977678
 30
0.0
 11
5326.752704505118
 21
-288.4009511977678
 31
0.0
  0
LINE
  5
D2D2
330
18
100
AcDbEntity
  8
0
  6
BYBLOCK
100
AcDbLine
 10
5326.752704505118
 20
-288.4009511977678
 30
0.0
 11
5327.449372399118
 21
-291.0009511977678
 31
0.0
  0
LINE
  5
D2D3
330
18
100
AcDbEntity
  8
0
  6
BYBLOCK
100
AcDbLine
 10
5326.752704505118
 20
-288.4009511977678
 30
0.0
 11
5326.752704505118
 21
-291.0009511977678
 31
0.0
  0
LINE
  5
D2D4
330
18
100
AcDbEntity
  8
0
  6
BYBLOCK
100
AcDbLine
 10
5327.449372399118
 20
-314.8009511977677
 30
0.0
 11
5326.752704505118
 21
-317.4009511977678
 31
0.0
  0
LINE
  5
D2D5
330
18
100
AcDbEntity
  8
0
  6
BYBLOCK
100
AcDbLine
 10
5326.752704505118
 20
-317.4009511977678
 30
0.0
 11
5326.056036611119
 21
-314.8009511977677
 31
0.0
  0
LINE
  5
D2D6
330
18
100
AcDbEntity
  8
0
  6
BYBLOCK
100
AcDbLine
 10
5326.752704505118
 20
-317.4009511977678
 30
0.0
 11
5326.752704505118
 21
-314.8009511977677
 31
0.0
  0
TEXT
  5
D2D7
330
18
100
AcDbEntity
  8
1DIM
  6
CONTINUOUS
100
AcDbText
 10
5325.842704505118
 20
-306.6936711051749
 30
0.0
 40
4.55
  1
29
 50
90.0
100
AcDbText
1001
ACAD
1000
DSTYLE
1002
{
1070
    40
1040
1.3
1002
}
  0
VIEWPORT
  5
57
330
15
100
AcDbEntity
 67
     1
  8
0
100
AcDbViewport
 68
     1
 10
0.0
 20
0.0
 30
0.0
 40
551.8723404255319
 41
297.0
 68
     1
 69
     1
1001
ACAD
1000
MVIEW
1002
{
1070
    16
1010
0.0
1020
0.0
1030
0.0
1010
0.0
1020
0.0
1030
1.0
1040
0.0
1040
297.0
1040
5.728000000000009
1040
25.339
1040
50.0
1040
0.0
1040
0.0
1070
    16
1070
   100
1070
     0
1070
     1
1070
     0
1070
     0
1070
     0
1070
     0
1040
0.0
1040
0.0
1040
0.0
1040
10.0
1040
10.0
1040
10.0
1040
10.0
1070
     0
1002
{
1002
}
1002
}
  0
ENDSEC
  0
SECTION
  2
OBJECTS
  0
DICTIONARY
  5
C
330
0
100
AcDbDictionary
  3
ACAD_CIP_PREVIOUS_PRODUCT_INFO
350
AD5D
  3
ACAD_COLOR
350
18D
  3
ACAD_GROUP
350
D
  3
ACAD_LAYOUT
350
18E
  3
ACAD_MATERIAL
350
18C
  3
ACAD_MLEADERSTYLE
350
9583
  3
ACAD_MLINESTYLE
350
1B
  3
ACAD_PLOTSETTINGS
350
18F
  3
ACAD_SCALELIST
350
9561
  3
ACAD_VISUALSTYLE
350
9550
  3
ACDBHEADERROUNDTRIPXREC
350
D2D8
  3
ACDBVARIABLEDICTIONARY
350
37
  3
AEC_PROPERTY_SET_DEFS
350
AE18
  3
CONTENTDICTIONARY
350
D8
  3
DRAWINGVARIABLESDICT
350
20
  3
DWGPROPS
350
D2DB
1001
ACAD
1000
TREAT_AS_HARD
1070
     0
  0
DICTIONARY
  5
96D9
330
2
100
AcDbDictionary
  3
ACAD_LAYERSTATES
360
96DA
1001
ACAD
1000
TREAT_AS_HARD
1070
     1
  0
DICTIONARY
  5
9593
330
E
100
AcDbDictionary
  3
ADSK_XREC_LAYER_RECONCILED
360
9594
1001
ACAD
1000
TREAT_AS_HARD
1070
     1
  0
DICTIONARY
  5
9595
330
29
100
AcDbDictionary
  3
ADSK_XREC_LAYER_RECONCILED
360
9596
1001
ACAD
1000
TREAT_AS_HARD
1070
     1
  0
DICTIONARY
  5
9597
330
31
100
AcDbDictionary
  3
ADSK_XREC_LAYER_RECONCILED
360
9598
1001
ACAD
1000
TREAT_AS_HARD
1070
     1
  0
DICTIONARY
  5
959D
330
243
100
AcDbDictionary
  3
ADSK_XREC_LAYER_RECONCILED
360
959E
1001
ACAD
1000
TREAT_AS_HARD
1070
     1
  0
DICTIONARY
  5
95A3
330
24E
100
AcDbDictionary
  3
ADSK_XREC_LAYER_RECONCILED
360
95A4
1001
ACAD
1000
TREAT_AS_HARD
1070
     1
  0
DICTIONARY
  5
95AF
330
2C05
100
AcDbDictionary
  3
ADSK_XREC_LAYER_RECONCILED
360
95B0
1001
ACAD
1000
TREAT_AS_HARD
1070
     1
  0
DICTIONARY
  5
88F
330
18
100
AcDbDictionary
  3
ACAD_SORTENTS
360
890
1001
ACAD
1000
TREAT_AS_HARD
1070
     1
  0
DICTIONARY
  5
CCE4
330
15
100
AcDbDictionary
  3
ACAD_SORTENTS
360
CCE5
1001
ACAD
1000
TREAT_AS_HARD
1070
     1
  0
XRECORD
  5
AD5D
102
{ACAD_REACTORS
330
C
102
}
330
C
100
AcDbXrecord
300
ACDLT
300
2012
300
ACDLT_F_S
  0
DICTIONARY
  5
18D
102
{ACAD_REACTORS
330
C
102
}
330
C
100
AcDbDictionary
1001
ACAD
1000
TREAT_AS_HARD
1070
     0
  0
DICTIONARY
  5
D
102
{ACAD_REACTORS
330
C
102
}
330
C
100
AcDbDictionary
1001
ACAD
1000
TREAT_AS_HARD
1070
     0
  0
DICTIONARY
  5
18E
102
{ACAD_REACTORS
330
C
102
}
330
C
100
AcDbDictionary
1001
ACAD
1000
TREAT_AS_HARD
1070
     0
  0
DICTIONARY
  5
18C
102
{ACAD_REACTORS
330
C
102
}
330
C
100
AcDbDictionary
  3
BYBLOCK
350
9540
  3
BYLAYER
350
9538
  3
GLOBAL
350
9548
1001
ACAD
1000
TREAT_AS_HARD
1070
     0
  0
DICTIONARY
  5
9583
102
{ACAD_REACTORS
330
C
102
}
330
C
100
AcDbDictionary
  3
STANDARD
350
9584
1001
ACAD
1000
TREAT_AS_HARD
1070
     0
  0
DICTIONARY
  5
1B
102
{ACAD_REACTORS
330
C
102
}
330
C
100
AcDbDictionary
  3
STANDARD
350
1C
1001
ACAD
1000
TREAT_AS_HARD
1070
     0
  0
DICTIONARY
  5
18F
102
{ACAD_REACTORS
330
C
102
}
330
C
100
AcDbDictionary
1001
ACAD
1000
TREAT_AS_HARD
1070
     0
  0
DICTIONARY
  5
9561
102
{ACAD_REACTORS
330
C
102
}
330
C
100
AcDbDictionary
  3
A0
350
9562
  3
A1
350
9563
  3
A2
350
9564
  3
A3
350
9565
  3
A4
350
9566
  3
A5
350
9567
  3
A6
350
9568
  3
A7
350
9569
  3
A8
350
956A
  3
A9
350
956B
  3
B0
350
956C
  3
B1
350
956D
  3
B2
350
956E
  3
B3
350
956F
  3
B4
350
9570
  3
B5
350
9571
  3
B6
350
9572
  3
B7
350
9573
  3
B8
350
9574
  3
B9
350
9575
  3
C0
350
9576
  3
C1
350
9577
  3
C2
350
9578
  3
C3
350
9579
  3
C4
350
957A
  3
C5
350
957B
  3
C6
350
957C
  3
C7
350
957D
  3
C8
350
957E
  3
C9
350
957F
  3
D0
350
9580
  3
D1
350
9581
  3
D2
350
9582
1001
ACAD
1000
TREAT_AS_HARD
1070
     0
  0
DICTIONARY
  5
9550
102
{ACAD_REACTORS
330
C
102
}
330
C
100
AcDbDictionary
  3
2DWIREFRAME
350
9556
  3
3D_HIDDEN
350
9558
  3
3DWIREFRAME
350
9557
  3
BASIC
350
9555
  3
BRIGHTEN
350
955C
  3
COLORCHANGE
350
9560
  3
CONCEPTUAL
350
9559
  3
DIM
350
955B
  3
EDGECOLOROFF
350
A211
  3
FACEPATTERN
350
955F
  3
FLAT
350
9551
  3
FLATWITHEDGES
350
9552
  3
GOURAUD
350
9553
  3
GOURAUDWITHEDGES
350
9554
  3
HIDDEN
350
A260
  3
JITTEROFF
350
A20F
  3
LINEPATTERN
350
955E
  3
MODELING
350
A266
  3
OVERHANGOFF
350
A210
  3
REALISTIC
350
955A
  3
SHADED
350
A265
  3
SHADED_WITH_EDGES
350
A264
  3
SHADES_OF_GRAY
350
A261
  3
SKETCHY
350
A262
  3
THICKEN
350
955D
  3
WIREFRAME
350
A25F
  3
X-RAY
350
A263
1001
ACAD
1000
TREAT_AS_HARD
1070
     0
  0
DICTIONARY
  5
D2D8
102
{ACAD_REACTORS
330
C
102
}
330
C
100
AcDbDictionary
  3
COLORDICT
350
D2D9
  3
MATERIALDICT
350
D2DA
1001
ACAD
1000
TREAT_AS_HARD
1070
     0
  0
DICTIONARY
  5
37
102
{ACAD_REACTORS
330
C
102
}
330
C
100
AcDbDictionary
  3
CANNOSCALE
350
AAE0
  3
CMLEADERSTYLE
350
9627
  3
CTABLESTYLE
350
29E
  3
DIMADEC
350
38
  3
DIMASSOC
350
1CE
  3
HIDETEXT
350
704E
  3
INDEXCTL
350
962A
  3
INTERSECTIONCOLOR
350
7052
  3
INTERSECTIONDISPLAY
350
7051
  3
MSLTSCALE
350
AB30
  3
OBSCOLOR
350
704F
  3
OBSLTYPE
350
7050
  3
PROJECTNAME
350
1CF
  3
SORTENTS
350
9629
  3
XCLIPFRAME
350
CCFB
1001
ACAD
1000
TREAT_AS_HARD
1070
     0
  0
DICTIONARY
  5
AE18
102
{ACAD_REACTORS
330
C
102
}
330
C
100
AcDbDictionary
1001
ACAD
1000
TREAT_AS_HARD
1070
     0
  0
DICTIONARY
  5
D8
102
{ACAD_REACTORS
330
C
102
}
330
C
100
AcDbDictionary
1001
ACAD
1000
TREAT_AS_HARD
1070
     0
  0
DICTIONARY
  5
20
102
{ACAD_REACTORS
330
C
102
}
330
C
100
AcDbDictionary
1001
DRAWINGVARIABLESXDATA
1000
POLARANG
1000
0.261799387799149410000000
1000
POLARMODE
1000
1
1000
POLARSTYLE
1000
1
1001
ACAD
1000
TREAT_AS_HARD
1070
     0
  0
XRECORD
  5
D2DB
102
{ACAD_REACTORS
330
C
102
}
330
C
100
AcDbXrecord
  1
DWGPROPS COOKIE
  2

  3

  4

  6

  7

  8
3684
  9

300
=
301
=
302
=
303
=
304
=
305
=
306
=
307
=
308
=
309
=
 40
0.0
 41
2451318.246352917
 42
2459359.03263228
  1

 90
        0
  0
DICTIONARY
  5
96DA
102
{ACAD_REACTORS
330
96D9
102
}
330
96D9
100
AcDbDictionary
1001
ACAD
1000
TREAT_AS_HARD
1070
     0
  0
ACAD_PROXY_OBJECT
  5
9594
102
{ACAD_REACTORS
330
9593
102
}
330
9593
100
AcDbZombieObject
 90
      499
 91
      514
 93
       34
310
40C8804040
  0
ACAD_PROXY_OBJECT
  5
9596
102
{ACAD_REACTORS
330
9595
102
}
330
9595
100
AcDbZombieObject
 90
      499
 91
      514
 93
       34
310
40C8804040
  0
ACAD_PROXY_OBJECT
  5
9598
102
{ACAD_REACTORS
330
9597
102
}
330
9597
100
AcDbZombieObject
 90
      499
 91
      514
 93
       34
310
40C8804040
  0
ACAD_PROXY_OBJECT
  5
959E
102
{ACAD_REACTORS
330
959D
102
}
330
959D
100
AcDbZombieObject
 90
      499
 91
      514
 93
       34
310
40C8804040
  0
ACAD_PROXY_OBJECT
  5
95A4
102
{ACAD_REACTORS
330
95A3
102
}
330
95A3
100
AcDbZombieObject
 90
      499
 91
      514
 93
       34
310
40C8804040
  0
ACAD_PROXY_OBJECT
  5
95B0
102
{ACAD_REACTORS
330
95AF
102
}
330
95AF
100
AcDbZombieObject
 90
      499
 91
      514
 93
       34
310
40C8804040
  0
SORTENTSTABLE
  5
890
102
{ACAD_REACTORS
330
88F
102
}
330
88F
100
AcDbSortentsTable
330
18
331
0
  5
B874
331
B873
  5
B88B
331
B874
  5
B88C
331
B875
  5
B890
331
0
  5
B878
331
0
  5
B879
331
0
  5
B87A
331
B879
  5
B8B2
331
B87D
  5
B8B3
331
B87E
  5
B8B4
331
B87F
  5
B8B5
331
B880
  5
B8B6
331
B881
  5
B8B7
331
B882
  5
B8B8
331
B883
  5
B8B9
331
B884
  5
B8BA
331
B885
  5
B8BB
331
B886
  5
B8BC
331
B887
  5
B8BD
331
B888
  5
B8BE
331
B889
  5
B8BF
331
B88A
  5
B8C0
331
B88B
  5
B8C1
331
B88C
  5
B8C2
331
B88D
  5
B8C3
331
B88E
  5
B8C4
331
B88F
  5
B8C5
331
B890
  5
B8C6
331
B891
  5
B8C7
331
B892
  5
B8C8
331
B893
  5
B8C9
331
B894
  5
B8CA
331
B895
  5
B8CB
331
B896
  5
B8CC
331
B897
  5
B8CD
331
B898
  5
B8CE
331
B899
  5
B8CF
331
B89A
  5
B8D0
331
B89B
  5
B8D1
331
B89C
  5
B8D2
331
B89D
  5
B8D3
331
B89E
  5
B8D4
331
B89F
  5
B8D5
331
B8A0
  5
B8D6
331
B8A1
  5
B8D7
331
B8A2
  5
B8D8
331
B8A3
  5
B8D9
331
B8A4
  5
B8DA
331
B8A5
  5
B8DB
331
B8A6
  5
B8DC
331
B8A7
  5
B8DD
331
B8A8
  5
B8DE
331
B8A9
  5
B8DF
331
B8AA
  5
B8E0
331
B8AB
  5
B8E1
331
B8AC
  5
B8E2
331
B8AD
  5
B8E3
331
B8AE
  5
B8E4
331
B8AF
  5
B8E5
331
B8B0
  5
B8E6
331
B8B1
  5
B8EE
331
B8B2
  5
B8FA
331
B8B3
  5
B8FB
331
B8B4
  5
B8FC
331
B8B5
  5
B8FD
331
B8B6
  5
B8FE
331
B8B7
  5
B8FF
331
B8B8
  5
B900
331
B8B9
  5
B901
331
B8BA
  5
B902
331
B8BB
  5
B903
331
0
  5
B904
331
B8BD
  5
B928
331
B8BE
  5
B929
331
B8BF
  5
B92D
331
B8C0
  5
B92E
331
B8C1
  5
B92F
331
B8C2
  5
B933
331
B8C3
  5
B934
331
B8C4
  5
B935
331
B8C5
  5
B939
331
B8C6
  5
B93A
331
B8C7
  5
B93B
331
B8C8
  5
B93C
331
B8C9
  5
B93D
331
B8CA
  5
B93E
331
B8CB
  5
B93F
331
B8CC
  5
B940
331
B8CD
  5
B941
331
B8CE
  5
B942
331
B8CF
  5
B943
331
B8D0
  5
B944
331
B8D1
  5
B945
331
B8D2
  5
B946
331
B8D3
  5
B947
331
B8D4
  5
B948
331
B8D5
  5
B949
331
B8D6
  5
B94A
331
B8D7
  5
B94B
331
B8D8
  5
BAC8
331
B8D9
  5
BAE0
331
B8DA
  5
C1D4
331
B8DB
  5
C1D5
331
B8DC
  5
C1D6
331
B8DD
  5
C1D7
331
B8DE
  5
C1D8
331
B8DF
  5
C1D9
331
B8E0
  5
C1DA
331
B8E1
  5
C1DB
331
B8E2
  5
C1DC
331
B8E3
  5
C1DD
331
B8E4
  5
C1DE
331
0
  5
B8E7
331
0
  5
B8E8
331
0
  5
B8E9
331
B8E8
  5
CCB3
331
B8F3
  5
CE7F
331
B8F9
  5
CE81
331
B8FA
  5
CE82
331
B8FB
  5
CE91
331
B8FC
  5
CE92
331
B8FD
  5
CE93
331
B8FE
  5
CE94
331
B8FF
  5
CE95
331
B900
  5
CE96
331
B901
  5
CE97
331
B902
  5
CE98
331
B903
  5
CE99
331
B904
  5
CE9A
331
B905
  5
CE9B
331
B906
  5
CE9C
331
B911
  5
CEA0
331
B912
  5
CEA1
331
B91A
  5
CEA2
331
B920
  5
CEA3
331
B921
  5
CEA4
331
B922
  5
CEA5
331
B923
  5
CEA6
331
B924
  5
CEA7
331
B925
  5
CEA8
331
B926
  5
CEA9
331
B927
  5
CEAA
331
B928
  5
CEAB
331
B929
  5
CEAC
331
B92A
  5
CEAD
331
B92B
  5
CEAE
331
B92C
  5
CEAF
331
B92D
  5
CEB0
331
B92E
  5
CEB1
331
B92F
  5
CEB2
331
B930
  5
CEB3
331
B931
  5
CEB4
331
B932
  5
CEB5
331
B933
  5
CEB6
331
B934
  5
CEB7
331
B935
  5
CEB8
331
B936
  5
CEB9
331
B937
  5
CEBA
331
B938
  5
CEBB
331
B939
  5
CEBD
331
B93A
  5
CEBE
331
B93B
  5
CEC0
331
B93C
  5
CEC4
331
B93D
  5
CEC5
331
B93E
  5
CEC6
331
B93F
  5
CEC7
331
B940
  5
CEFE
331
B941
  5
CEFF
331
B942
  5
CF00
331
B943
  5
CF01
331
B944
  5
CF02
331
B945
  5
CF03
331
B946
  5
CF04
331
B947
  5
CF05
331
B948
  5
CF06
331
B949
  5
CF07
331
B94A
  5
CF09
331
C1D0
  5
CF0A
331
C1D2
  5
CF0B
331
C1D3
  5
CF0C
331
C1D4
  5
CF0D
331
C1D5
  5
CF4B
331
C1D6
  5
CF4C
331
C1D7
  5
CF4D
331
C1D8
  5
CF4E
331
C1D9
  5
CF4F
331
C1DA
  5
CF50
331
C1DB
  5
CF51
331
C1DC
  5
CF52
331
C1DD
  5
CF53
331
C1DE
  5
CF54
331
C1DF
  5
CF55
331
C1E0
  5
CF56
331
C1E1
  5
CF57
331
C1E2
  5
CF58
331
C1E3
  5
CF5D
331
C228
  5
CF5E
331
C23D
  5
CF5F
331
C254
  5
CF61
331
C255
  5
CF62
331
C3F7
  5
CF63
331
C3F8
  5
CF64
331
C3F9
  5
CF67
331
C84E
  5
CF68
331
C8FC
  5
CF69
331
C933
  5
CE9D
331
C934
  5
CF6A
331
CA5C
  5
CF6B
331
CA5D
  5
CEC3
331
CA5E
  5
CF6C
331
0
  5
CF59
331
0
  5
CF5A
331
0
  5
CF5B
331
0
  5
CF5C
331
CB27
  5
CF7E
331
CB29
  5
CF7F
331
CB2B
  5
CF80
331
CCB1
  5
CF84
331
CCB2
  5
CF85
331
CCB3
  5
CF86
331
CE7F
  5
CF8A
331
0
  5
CF65
331
0
  5
CF66
331
CE91
  5
CFAB
331
CE92
  5
CFAC
331
CE93
  5
CFAD
331
CE94
  5
CFAE
331
CE95
  5
CFAF
331
CE96
  5
CFB0
331
CE97
  5
CFB1
331
0
  5
CF6E
331
0
  5
CF6F
331
CE9A
  5
CFCB
331
CE9B
  5
CFCC
331
CE9C
  5
CFCD
331
CE9D
  5
CFCE
331
CEA0
  5
CFCF
331
CEA1
  5
CFD1
331
CEA2
  5
CFD4
331
CEA3
  5
CFD6
331
CEA4
  5
CFD7
331
CEA5
  5
CFD8
331
CEA6
  5
CFDA
331
CEA7
  5
CFDC
331
CEA8
  5
CFDD
331
CEA9
  5
CFDE
331
CEAA
  5
CFDF
331
CEAB
  5
CFE0
331
CEAC
  5
CFE1
331
CEAD
  5
CFE2
331
CEAE
  5
CFE3
331
CEAF
  5
CFE4
331
CEB0
  5
CFE5
331
CEB1
  5
CFE6
331
CEB2
  5
CFE7
331
CEB3
  5
CFE8
331
CEB4
  5
CFE9
331
CEB5
  5
CFEA
331
CEB6
  5
CFEC
331
CEB7
  5
CFF9
331
CEB8
  5
CFFA
331
CEB9
  5
CFFB
331
CEBA
  5
CFFC
331
CEBB
  5
CFFD
331
CEBD
  5
CFFE
331
CEBE
  5
CFFF
331
CEC0
  5
D000
331
CEC3
  5
D099
331
CEC4
  5
D09A
331
CEC5
  5
D1BD
331
CEC6
  5
D1BE
331
CEC7
  5
D1BF
331
CEFE
  5
D1C0
331
CEFF
  5
D1C1
331
CF00
  5
D1C2
331
CF01
  5
D1C3
331
CF02
  5
D1C4
331
CF03
  5
D1C5
331
CF04
  5
D1C6
331
CF05
  5
D1C7
331
CF06
  5
D1C8
331
CF07
  5
D1C9
331
CF09
  5
D1DA
331
CF0A
  5
D1DB
331
CF0B
  5
D1DC
331
CF0C
  5
D1DD
331
CF0D
  5
D1DE
331
CF4B
  5
D1DF
331
CF4C
  5
D1E0
331
CF4D
  5
D1E1
331
CF4E
  5
D1E2
331
CF4F
  5
D1E3
331
CF50
  5
D1E4
331
CF51
  5
D1E5
331
CF52
  5
D1E6
331
CF53
  5
D1E7
331
CF54
  5
D1E8
331
CF55
  5
D1E9
331
CF56
  5
D1EA
331
CF57
  5
D1EB
331
CF58
  5
D1EC
331
CF59
  5
D1ED
331
CF5A
  5
D1EE
331
CF5B
  5
D1EF
331
CF5C
  5
D1F0
331
CF5D
  5
D1F1
331
CF5E
  5
D1F2
331
CF5F
  5
D1F3
331
CF61
  5
D204
331
CF62
  5
D205
331
CF63
  5
D206
331
CF64
  5
D207
331
CF65
  5
D208
331
CF66
  5
D209
331
CF67
  5
D20A
331
CF68
  5
D20B
331
CF69
  5
D20C
331
CF6A
  5
D20D
331
CF6B
  5
D20E
331
CF6C
  5
D20F
331
CF6D
  5
D210
331
CF6E
  5
D211
331
CF6F
  5
D212
331
CF70
  5
D213
331
CF71
  5
D214
331
CF72
  5
D215
331
CF73
  5
D216
331
CF74
  5
D217
331
CF76
  5
D218
331
CF79
  5
D21D
331
CF7B
  5
D21E
331
CF7C
  5
D21F
331
CF7E
  5
D220
331
CF7F
  5
D221
331
CF80
  5
D222
331
CF81
  5
D223
331
CF82
  5
D224
331
CF83
  5
D225
331
CF84
  5
D226
331
CF85
  5
D227
331
CF86
  5
D228
331
CF87
  5
D229
331
CF88
  5
D22A
331
CF89
  5
D22B
331
CF8A
  5
D22C
331
CF8B
  5
D22D
331
CF8C
  5
D22E
331
CF8E
  5
D22F
331
CF91
  5
D230
331
CF93
  5
D231
331
CF94
  5
D232
331
CF95
  5
D233
331
CF97
  5
D234
331
CF99
  5
D236
331
CF9A
  5
D237
331
CF9B
  5
D238
331
CF9C
  5
D239
331
CF9D
  5
D23A
331
CF9E
  5
D23B
331
CF9F
  5
D23C
331
CFA0
  5
D23D
331
CFA1
  5
D23E
331
CFA2
  5
D23F
331
CFA3
  5
D240
331
CFA4
  5
D241
331
CFA5
  5
D242
331
CFA6
  5
D243
331
CFA7
  5
D244
331
CFA8
  5
D245
331
CFA9
  5
D246
331
CFAA
  5
D247
331
CFAB
  5
D248
331
CFAC
  5
D249
331
CFAD
  5
D24A
331
CFAE
  5
D24B
331
CFAF
  5
D24C
331
CFB0
  5
D24D
331
CFB1
  5
D24E
331
CFB2
  5
D24F
331
CFB3
  5
D250
331
CFB4
  5
D251
331
CFB5
  5
D252
331
CFB6
  5
D253
331
CFB7
  5
D254
331
CFB9
  5
D255
331
CFBC
  5
D25A
331
CFBE
  5
D25B
331
CFBF
  5
D25C
331
CFC1
  5
D25D
331
CFC2
  5
D25E
331
CFC3
  5
D25F
331
CFC4
  5
D260
331
CFC5
  5
D264
331
CFC6
  5
D265
331
CFC7
  5
D266
331
CFC8
  5
D267
331
CFC9
  5
D268
331
CFCA
  5
D269
331
CFCB
  5
D26A
331
CFCC
  5
D26B
331
CFCD
  5
D26C
331
CFCE
  5
D26D
331
CFCF
  5
D26E
331
CFD1
  5
D26F
331
CFD4
  5
D270
331
CFD6
  5
D271
331
CFD7
  5
D272
331
CFD8
  5
D273
331
CFDA
  5
D274
331
CFDC
  5
D275
331
CFDD
  5
D276
331
CFDE
  5
D277
331
CFDF
  5
D278
331
CFE0
  5
D279
331
CFE1
  5
D27A
331
CFE2
  5
D27B
331
CFE3
  5
D27C
331
CFE4
  5
D27D
331
CFE5
  5
D27E
331
CFE6
  5
D27F
331
CFE7
  5
D280
331
CFE8
  5
D281
331
CFE9
  5
D282
331
CFEA
  5
D283
331
0
  5
D235
331
CFF9
  5
D28E
331
CFFA
  5
D28F
331
CFFB
  5
D290
331
CFFC
  5
D291
331
CFFD
  5
D292
331
CFFE
  5
D293
331
CFFF
  5
D294
331
D000
  5
D295
331
D001
  5
D296
331
D002
  5
D297
331
D003
  5
D298
331
D004
  5
D299
331
D005
  5
D29A
331
D006
  5
D29B
331
D007
  5
D29C
331
D008
  5
D29D
331
D009
  5
D29E
331
D00A
  5
D29F
331
D00B
  5
D2A0
331
D00C
  5
D2A1
331
D00D
  5
D2A2
331
D00E
  5
D2A3
331
D00F
  5
D2A4
331
D010
  5
D2A5
331
D011
  5
D2A6
331
D012
  5
D2A7
331
D013
  5
D2A8
331
D014
  5
D2A9
331
D015
  5
D2AA
331
D016
  5
D2AB
331
D018
  5
D2AC
331
D019
  5
D2AD
331
D01B
  5
D2AE
331
D01E
  5
D2CF
331
D01F
  5
D2D0
331
D020
  5
D2D1
331
D021
  5
D2D2
331
D022
  5
D2D3
331
D097
  5
D2D4
331
D098
  5
D2D5
331
D099
  5
D2D6
331
D09A
  5
D2D7
331
D1BD
  5
B875
331
D1BE
  5
B876
331
D1BF
  5
B877
331
0
  5
B87E
331
0
  5
B87F
331
0
  5
B880
331
D1C3
  5
B891
331
D1C4
  5
B892
331
D1C5
  5
B896
331
0
  5
B887
331
0
  5
B888
331
0
  5
B889
331
D1C9
  5
B89E
331
D1CA
  5
B89F
331
D1CB
  5
B8A0
331
0
  5
B88D
331
0
  5
B88E
331
0
  5
B88F
331
D1CF
  5
B8A8
331
D1D0
  5
B8A9
331
D1D1
  5
B8AA
331
0
  5
B893
331
0
  5
B894
331
0
  5
B895
331
D1D5
  5
C1DF
331
D1D6
  5
C1E0
331
D1D7
  5
C1E1
331
0
  5
B92A
331
0
  5
B92B
331
0
  5
B92C
331
D1DB
  5
C257
331
D1DC
  5
C3F5
331
D1DD
  5
C3F6
331
0
  5
B930
331
0
  5
B931
331
0
  5
B932
331
D1E1
  5
CA5E
331
D1E2
  5
CAA6
331
D1E3
  5
CAA7
331
0
  5
B936
331
0
  5
B937
331
0
  5
B938
331
D1E7
  5
D001
331
D1E8
  5
D002
331
D1E9
  5
D003
331
D1EA
  5
D004
331
D1EB
  5
D005
331
D1EC
  5
D006
331
D1ED
  5
D007
331
D1EE
  5
D008
331
D1EF
  5
D009
331
D1F0
  5
D00A
331
D1F1
  5
D00B
331
D1F2
  5
D00C
331
D1F3
  5
D00D
331
D1F4
  5
D00E
331
D1F5
  5
D00F
331
D1F6
  5
D010
331
D1F7
  5
D011
331
D1F8
  5
D012
331
D1F9
  5
D013
331
D1FA
  5
D014
331
D1FB
  5
D015
331
D1FC
  5
D016
331
D1FD
  5
D018
331
D1FE
  5
D019
331
D1FF
  5
D01B
331
D200
  5
D01E
331
D201
  5
D01F
331
D202
  5
D020
331
D203
  5
D021
331
D204
  5
D022
331
D205
  5
D097
331
D206
  5
D098
331
D207
  5
D1CA
331
D208
  5
D1CB
331
D209
  5
D1CC
331
D20A
  5
D1CD
331
D20B
  5
D1CE
331
D20C
  5
D1CF
331
D20D
  5
D1D0
331
D20E
  5
D1D1
331
D20F
  5
D1D2
331
D210
  5
D1D3
331
D211
  5
D1D4
331
D212
  5
D1D5
331
D213
  5
D1D6
331
D214
  5
D1D7
331
D215
  5
D1D8
331
D216
  5
D1D9
331
D217
  5
D1F4
331
D218
  5
D1F5
331
D219
  5
D1F6
331
D21A
  5
D1F7
331
D21B
  5
D1F8
331
D21C
  5
D1F9
331
D21D
  5
D1FA
331
D21E
  5
D1FB
331
D21F
  5
D1FC
331
D220
  5
D1FD
331
D221
  5
D1FE
331
D222
  5
D1FF
331
D223
  5
D200
331
D224
  5
D201
331
D225
  5
D202
331
D226
  5
D203
331
D227
  5
D219
331
D228
  5
D21A
331
D229
  5
D21B
331
D22A
  5
D21C
331
D22B
  5
D256
331
D22C
  5
D257
331
D22D
  5
D258
331
D22E
  5
D259
331
D22F
  5
D2AF
331
D230
  5
D2B0
331
D231
  5
D2B1
331
D232
  5
D2B2
331
D233
  5
D2B3
331
D234
  5
D2B4
331
D235
  5
D2B5
331
D236
  5
D2B6
331
D237
  5
D2B7
331
D238
  5
D2B8
331
D239
  5
D2B9
331
D23A
  5
D2BA
331
D23B
  5
D2BB
331
D23C
  5
D2BC
331
D23D
  5
D2BD
331
D23E
  5
D2BE
331
D23F
  5
D2BF
331
D240
  5
D2C0
331
D241
  5
D2C1
331
D242
  5
D2C2
331
D243
  5
D2C3
331
D244
  5
D2C4
331
D245
  5
D2C5
331
D246
  5
D2C6
331
D247
  5
D2C7
331
D248
  5
D2C8
331
D249
  5
D2C9
331
D24A
  5
D2CA
331
D24B
  5
D2CB
331
D24C
  5
D2CC
331
D24D
  5
D2CD
331
D24E
  5
D2CE
331
D24F
  5
B881
331
D250
  5
B882
331
D251
  5
B883
331
D252
  5
B884
331
D253
  5
B885
331
D254
  5
B886
331
D255
  5
B88A
331
D256
  5
B897
331
D257
  5
B898
331
D258
  5
B899
331
D259
  5
B89A
331
D25A
  5
B89B
331
D25B
  5
B89C
331
D25C
  5
B89D
331
D25D
  5
B8A1
331
D25E
  5
B8A2
331
D25F
  5
B8A3
331
D260
  5
B8A4
331
D261
  5
B8A5
331
D262
  5
B8A6
331
D263
  5
B8A7
331
D264
  5
B8AB
331
D265
  5
B8AC
331
D266
  5
B8AD
331
D267
  5
B8AE
331
D268
  5
B8AF
331
D269
  5
B8B0
331
D26A
  5
B8B1
331
D26B
  5
C1E2
331
D26C
  5
C1E3
331
D26D
  5
C1E4
331
D26E
  5
C1E5
331
D26F
  5
C214
331
D270
  5
C22A
331
D271
  5
C256
331
D272
  5
C3F9
331
D273
  5
C3FB
331
D274
  5
C3FC
331
D275
  5
C850
331
D276
  5
C8FE
331
D277
  5
C938
331
D278
  5
CA5D
331
D279
  5
CAA8
331
D27A
  5
CAA9
331
D27B
  5
CB27
331
D27C
  5
CB29
331
D27D
  5
CB2B
331
D27E
  5
CCB1
331
D27F
  5
CCB2
331
D280
  5
B905
331
D281
  5
B906
331
D282
  5
B907
331
0
  5
B90A
331
0
  5
B913
331
0
  5
B914
331
D286
  5
CF6D
331
D287
  5
CF70
331
D288
  5
CF71
331
D289
  5
CF72
331
D28A
  5
CF73
331
D28B
  5
CF74
331
D28C
  5
CF76
331
D28D
  5
CF79
331
D28E
  5
CF7B
331
D28F
  5
CF7C
331
D290
  5
CF8B
331
D291
  5
CF8C
331
D292
  5
CF8E
331
0
  5
CF81
331
0
  5
CF82
331
0
  5
CF83
331
D296
  5
CF9E
331
D297
  5
CF9F
331
D298
  5
CFA3
331
0
  5
CF87
331
0
  5
CF88
331
0
  5
CF89
331
D29C
  5
CFB2
331
D29D
  5
CFB3
331
D29E
  5
CFB4
331
0
  5
CF9A
331
0
  5
CF9B
331
0
  5
CF9C
331
D2A2
  5
CFC1
331
D2A3
  5
CFC2
331
D2A4
  5
CFC3
331
0
  5
CFA0
331
0
  5
CFA1
331
0
  5
CFA2
331
D2A8
  5
D284
331
D2A9
  5
D285
331
D2AA
  5
D286
331
0
  5
D261
331
0
  5
D262
331
0
  5
D263
331
D2AE
  5
B915
331
D2AF
  5
B922
331
D2B0
  5
B923
331
D2B1
  5
B924
331
D2B2
  5
B925
331
D2B3
  5
B926
331
D2B4
  5
B927
331
D2B5
  5
CF91
331
D2B6
  5
CF93
331
D2B7
  5
CF94
331
D2B8
  5
CF95
331
D2B9
  5
CF97
331
D2BA
  5
CF99
331
D2BB
  5
CF9D
331
D2BC
  5
CFA4
331
D2BD
  5
CFA5
331
D2BE
  5
CFA6
331
D2BF
  5
CFA7
331
D2C0
  5
CFA8
331
D2C1
  5
CFA9
331
D2C2
  5
CFAA
331
D2C3
  5
CFB5
331
D2C4
  5
CFB6
331
D2C5
  5
CFB7
331
D2C6
  5
CFB9
331
D2C7
  5
CFBC
331
D2C8
  5
CFBE
331
D2C9
  5
CFBF
331
D2CA
  5
CFC4
331
D2CB
  5
CFC5
331
D2CC
  5
CFC6
331
D2CD
  5
CFC7
331
D2CE
  5
CFC8
331
D2CF
  5
CFC9
331
D2D0
  5
CFCA
331
D2D1
  5
D287
331
D2D2
  5
D288
331
D2D3
  5
D289
331
D2D4
  5
D28A
331
D2D5
  5
D28B
331
D2D6
  5
D28C
331
D2D7
  5
D28D
  0
SORTENTSTABLE
  5
CCE5
102
{ACAD_REACTORS
330
CCE4
102
}
330
CCE4
100
AcDbSortentsTable
330
15
331
0
  5
AA65
331
57
  5
57
331
0
  5
1FC
331
0
  5
200
331
0
  5
208
331
0
  5
6A9
331
0
  5
AA5E
331
0
  5
AA5F
331
0
  5
AA60
331
0
  5
AA61
331
0
  5
AA62
331
0
  5
AA63
331
0
  5
AA64
331
0
  5
AA6C
331
0
  5
AA6D
331
0
  5
AA6E
331
0
  5
AA6F
331
0
  5
AA73
331
0
  5
AA79
331
0
  5
AA80
331
0
  5
AA88
331
0
  5
CCDE
331
0
  5
CCDF
331
0
  5
CCE0
331
0
  5
CCE1
331
0
  5
CCE2
331
0
  5
CCE3
331
0
  5
AA66
331
0
  5
AA67
331
0
  5
AA68
331
0
  5
AA69
331
0
  5
AA6A
331
0
  5
AA6B
  0
MATERIAL
  5
9540
102
{ACAD_REACTORS
330
18C
102
}
102
{ACAD_XDICTIONARY
360
D476
102
}
330
18C
100
AcDbMaterial
  1
BYBLOCK
 72
     0
 73
     2
 43
0.0208333333333333
 43
0.0
 43
0.0
 43
0.0
 43
0.0
 43
0.0208333333333333
 43
0.0
 43
0.0
 43
0.0
 43
0.0
 43
1.0
 43
0.0
 43
0.0
 43
0.0
 43
0.0
 43
1.0
 77
     0
 78
     2
 47
0.0208333333333333
 47
0.0
 47
0.0
 47
0.0
 47
0.0
 47
0.0208333333333333
 47
0.0
 47
0.0
 47
0.0
 47
0.0
 47
1.0
 47
0.0
 47
0.0
 47
0.0
 47
0.0
 47
1.0
171
     0
172
     2
 49
0.0208333333333333
 49
0.0
 49
0.0
 49
0.0
 49
0.0
 49
0.0208333333333333
 49
0.0
 49
0.0
 49
0.0
 49
0.0
 49
1.0
 49
0.0
 49
0.0
 49
0.0
 49
0.0
 49
1.0
175
     0
176
     2
142
0.0208333333333333
142
0.0
142
0.0
142
0.0
142
0.0
142
0.0208333333333333
142
0.0
142
0.0
142
0.0
142
0.0
142
1.0
142
0.0
142
0.0
142
0.0
142
0.0
142
1.0
179
     0
270
     2
144
0.0208333333333333
144
0.0
144
0.0
144
0.0
144
0.0
144
0.0208333333333333
144
0.0
144
0.0
144
0.0
144
0.0
144
1.0
144
0.0
144
0.0
144
0.0
144
0.0
144
1.0
274
     2
147
0.0208333333333333
147
0.0
147
0.0
147
0.0
147
0.0
147
0.0208333333333333
147
0.0
147
0.0
147
0.0
147
0.0
147
1.0
147
0.0
147
0.0
147
0.0
147
0.0
147
1.0
  0
MATERIAL
  5
9538
102
{ACAD_REACTORS
330
18C
102
}
102
{ACAD_XDICTIONARY
360
D478
102
}
330
18C
100
AcDbMaterial
  1
BYLAYER
 72
     0
 73
     2
 43
0.0208333333333333
 43
0.0
 43
0.0
 43
0.0
 43
0.0
 43
0.0208333333333333
 43
0.0
 43
0.0
 43
0.0
 43
0.0
 43
1.0
 43
0.0
 43
0.0
 43
0.0
 43
0.0
 43
1.0
 77
     0
 78
     2
 47
0.0208333333333333
 47
0.0
 47
0.0
 47
0.0
 47
0.0
 47
0.0208333333333333
 47
0.0
 47
0.0
 47
0.0
 47
0.0
 47
1.0
 47
0.0
 47
0.0
 47
0.0
 47
0.0
 47
1.0
171
     0
172
     2
 49
0.0208333333333333
 49
0.0
 49
0.0
 49
0.0
 49
0.0
 49
0.0208333333333333
 49
0.0
 49
0.0
 49
0.0
 49
0.0
 49
1.0
 49
0.0
 49
0.0
 49
0.0
 49
0.0
 49
1.0
175
     0
176
     2
142
0.0208333333333333
142
0.0
142
0.0
142
0.0
142
0.0
142
0.0208333333333333
142
0.0
142
0.0
142
0.0
142
0.0
142
1.0
142
0.0
142
0.0
142
0.0
142
0.0
142
1.0
179
     0
270
     2
144
0.0208333333333333
144
0.0
144
0.0
144
0.0
144
0.0
144
0.0208333333333333
144
0.0
144
0.0
144
0.0
144
0.0
144
1.0
144
0.0
144
0.0
144
0.0
144
0.0
144
1.0
274
     2
147
0.0208333333333333
147
0.0
147
0.0
147
0.0
147
0.0
147
0.0208333333333333
147
0.0
147
0.0
147
0.0
147
0.0
147
1.0
147
0.0
147
0.0
147
0.0
147
0.0
147
1.0
  0
MATERIAL
  5
9548
102
{ACAD_REACTORS
330
18C
102
}
102
{ACAD_XDICTIONARY
360
D47A
102
}
330
18C
100
AcDbMaterial
  1
GLOBAL
 72
     0
 73
     2
 43
0.0208333333333333
 43
0.0
 43
0.0
 43
0.0
 43
0.0
 43
0.0208333333333333
 43
0.0
 43
0.0
 43
0.0
 43
0.0
 43
1.0
 43
0.0
 43
0.0
 43
0.0
 43
0.0
 43
1.0
 77
     0
 78
     2
 47
0.0208333333333333
 47
0.0
 47
0.0
 47
0.0
 47
0.0
 47
0.0208333333333333
 47
0.0
 47
0.0
 47
0.0
 47
0.0
 47
1.0
 47
0.0
 47
0.0
 47
0.0
 47
0.0
 47
1.0
171
     0
172
     2
 49
0.0208333333333333
 49
0.0
 49
0.0
 49
0.0
 49
0.0
 49
0.0208333333333333
 49
0.0
 49
0.0
 49
0.0
 49
0.0
 49
1.0
 49
0.0
 49
0.0
 49
0.0
 49
0.0
 49
1.0
175
     0
176
     2
142
0.0208333333333333
142
0.0
142
0.0
142
0.0
142
0.0
142
0.0208333333333333
142
0.0
142
0.0
142
0.0
142
0.0
142
1.0
142
0.0
142
0.0
142
0.0
142
0.0
142
1.0
179
     0
270
     2
144
0.0208333333333333
144
0.0
144
0.0
144
0.0
144
0.0
144
0.0208333333333333
144
0.0
144
0.0
144
0.0
144
0.0
144
1.0
144
0.0
144
0.0
144
0.0
144
0.0
144
1.0
274
     2
147
0.0208333333333333
147
0.0
147
0.0
147
0.0
147
0.0
147
0.0208333333333333
147
0.0
147
0.0
147
0.0
147
0.0
147
1.0
147
0.0
147
0.0
147
0.0
147
0.0
147
1.0
  0
ACAD_PROXY_OBJECT
  5
9584
102
{ACAD_REACTORS
330
9583
102
}
330
9583
100
AcDbZombieObject
 90
      499
 91
      511
 93
      610
310
40901902A4063FBFFFFFE000000000000002040AD7A3703D0AD73F4214DD185B99185C990000000000000104090141901A00000000000004100000000000000041025764000000000000300FC0
340
12
340
0
340
F
340
0
 94
        0
1001
ACAD_MLEADERVER
1070
     2
  0
MLINESTYLE
  5
1C
102
{ACAD_REACTORS
330
1B
102
}
330
1B
100
AcDbMlineStyle
  2
STANDARD
 70
     0
  3

 62
   256
 51
90.0
 52
90.0
 71
     2
 49
0.5
 62
   256
  6
BYLAYER
 49
-0.5
 62
   256
  6
BYLAYER
  0
ACAD_PROXY_OBJECT
  5
9562
102
{ACAD_REACTORS
330
9561
102
}
330
9561
100
AcDbZombieObject
 90
      499
 91
      510
 93
       41
310
903313A31580
  0
ACAD_PROXY_OBJECT
  5
9563
102
{ACAD_REACTORS
330
9561
102
}
330
9561
100
AcDbZombieObject
 90
      499
 91
      510
 93
      105
310
903313A324000000000000004000
  0
ACAD_PROXY_OBJECT
  5
9564
102
{ACAD_REACTORS
330
9561
102
}
330
9561
100
AcDbZombieObject
 90
      499
 91
      510
 93
      105
310
903313A344000000000000104000
  0
ACAD_PROXY_OBJECT
  5
9565
102
{ACAD_REACTORS
330
9561
102
}
330
9561
100
AcDbZombieObject
 90
      499
 91
      510
 93
      105
310
903313A354000000000000144000
  0
ACAD_PROXY_OBJECT
  5
9566
102
{ACAD_REACTORS
330
9561
102
}
330
9561
100
AcDbZombieObject
 90
      499
 91
      510
 93
      105
310
903313A384000000000000204000
  0
ACAD_PROXY_OBJECT
  5
9567
102
{ACAD_REACTORS
330
9561
102
}
330
9561
100
AcDbZombieObject
 90
      499
 91
      510
 93
      113
310
904313A31304000000000000244000
  0
ACAD_PROXY_OBJECT
  5
9568
102
{ACAD_REACTORS
330
9561
102
}
330
9561
100
AcDbZombieObject
 90
      499
 91
      510
 93
      113
310
904313A31364000000000000304000
  0
ACAD_PROXY_OBJECT
  5
9569
102
{ACAD_REACTORS
330
9561
102
}
330
9561
100
AcDbZombieObject
 90
      499
 91
      510
 93
      113
310
904313A32304000000000000344000
  0
ACAD_PROXY_OBJECT
  5
956A
102
{ACAD_REACTORS
330
9561
102
}
330
9561
100
AcDbZombieObject
 90
      499
 91
      510
 93
      113
310
904313A333040000000000003E4000
  0
ACAD_PROXY_OBJECT
  5
956B
102
{ACAD_REACTORS
330
9561
102
}
330
9561
100
AcDbZombieObject
 90
      499
 91
      510
 93
      113
310
904313A34304000000000000444000
  0
ACAD_PROXY_OBJECT
  5
956C
102
{ACAD_REACTORS
330
9561
102
}
330
9561
100
AcDbZombieObject
 90
      499
 91
      510
 93
      113
310
904313A35304000000000000494000
  0
ACAD_PROXY_OBJECT
  5
956D
102
{ACAD_REACTORS
330
9561
102
}
330
9561
100
AcDbZombieObject
 90
      499
 91
      510
 93
      121
310
905313A3130304000000000000594000
  0
ACAD_PROXY_OBJECT
  5
956E
102
{ACAD_REACTORS
330
9561
102
}
330
9561
100
AcDbZombieObject
 90
      499
 91
      510
 93
      105
310
903323A310000000000000010100
  0
ACAD_PROXY_OBJECT
  5
956F
102
{ACAD_REACTORS
330
9561
102
}
330
9561
100
AcDbZombieObject
 90
      499
 91
      510
 93
      105
310
903343A310000000000000410100
  0
ACAD_PROXY_OBJECT
  5
9570
102
{ACAD_REACTORS
330
9561
102
}
330
9561
100
AcDbZombieObject
 90
      499
 91
      510
 93
      105
310
903383A310000000000000810100
  0
ACAD_PROXY_OBJECT
  5
9571
102
{ACAD_REACTORS
330
9561
102
}
330
9561
100
AcDbZombieObject
 90
      499
 91
      510
 93
      113
310
90431303A310000000000000910100
  0
ACAD_PROXY_OBJECT
  5
9572
102
{ACAD_REACTORS
330
9561
102
}
330
9561
100
AcDbZombieObject
 90
      499
 91
      510
 93
      121
310
9053130303A310000000000001650100
  0
ACAD_PROXY_OBJECT
  5
9573
102
{ACAD_REACTORS
330
9561
102
}
330
9561
100
AcDbZombieObject
 90
      499
 91
      510
 93
      257
310
90E312F31323822203D2031272D3022000000000000200FC000000000000284000
  0
ACAD_PROXY_OBJECT
  5
9574
102
{ACAD_REACTORS
330
9561
102
}
330
9561
100
AcDbZombieObject
 90
      499
 91
      510
 93
      249
310
90D312F363422203D2031272D3022000000000000240FC000000000000284000
  0
ACAD_PROXY_OBJECT
  5
9575
102
{ACAD_REACTORS
330
9561
102
}
330
9561
100
AcDbZombieObject
 90
      499
 91
      510
 93
      249
310
90D312F333222203D2031272D3022000000000000280FC000000000000284000
  0
ACAD_PROXY_OBJECT
  5
9576
102
{ACAD_REACTORS
330
9561
102
}
330
9561
100
AcDbZombieObject
 90
      499
 91
      510
 93
      249
310
90D312F313622203D2031272D30220000000000002C0FC000000000000284000
  0
ACAD_PROXY_OBJECT
  5
9577
102
{ACAD_REACTORS
330
9561
102
}
330
9561
100
AcDbZombieObject
 90
      499
 91
      510
 93
      249
310
90D332F333222203D2031272D30220000000000002E0FC000000000000284000
  0
ACAD_PROXY_OBJECT
  5
9578
102
{ACAD_REACTORS
330
9561
102
}
330
9561
100
AcDbZombieObject
 90
      499
 91
      510
 93
      241
310
90C312F3822203D2031272D3022000000000000300FC000000000000284000
  0
ACAD_PROXY_OBJECT
  5
9579
102
{ACAD_REACTORS
330
9561
102
}
330
9561
100
AcDbZombieObject
 90
      499
 91
      510
 93
      249
310
90D332F313622203D2031272D3022000000000000320FC000000000000284000
  0
ACAD_PROXY_OBJECT
  5
957A
102
{ACAD_REACTORS
330
9561
102
}
330
9561
100
AcDbZombieObject
 90
      499
 91
      510
 93
      241
310
90C312F3422203D2031272D3022000000000000340FC000000000000284000
  0
ACAD_PROXY_OBJECT
  5
957B
102
{ACAD_REACTORS
330
9561
102
}
330
9561
100
AcDbZombieObject
 90
      499
 91
      510
 93
      241
310
90C332F3822203D2031272D3022000000000000360FC000000000000284000
  0
ACAD_PROXY_OBJECT
  5
957C
102
{ACAD_REACTORS
330
9561
102
}
330
9561
100
AcDbZombieObject
 90
      499
 91
      510
 93
      241
310
90C312F3222203D2031272D3022000000000000380FC000000000000284000
  0
ACAD_PROXY_OBJECT
  5
957D
102
{ACAD_REACTORS
330
9561
102
}
330
9561
100
AcDbZombieObject
 90
      499
 91
      510
 93
      241
310
90C332F3422203D2031272D30220000000000003A0FC000000000000284000
  0
ACAD_PROXY_OBJECT
  5
957E
102
{ACAD_REACTORS
330
9561
102
}
330
9561
100
AcDbZombieObject
 90
      499
 91
      510
 93
      161
310
90A3122203D2031272D30224000000000000284000
  0
ACAD_PROXY_OBJECT
  5
957F
102
{ACAD_REACTORS
330
9561
102
}
330
9561
100
AcDbZombieObject
 90
      499
 91
      510
 93
      257
310
90E312D312F3222203D2031272D30220000000000003E0FC000000000000284000
  0
ACAD_PROXY_OBJECT
  5
9580
102
{ACAD_REACTORS
330
9561
102
}
330
9561
100
AcDbZombieObject
 90
      499
 91
      510
 93
      225
310
90A3322203D2031272D302200000000000002100000000000000284000
  0
ACAD_PROXY_OBJECT
  5
9581
102
{ACAD_REACTORS
330
9561
102
}
330
9561
100
AcDbZombieObject
 90
      499
 91
      510
 93
      225
310
90A3622203D2031272D302200000000000006100000000000000284000
  0
ACAD_PROXY_OBJECT
  5
9582
102
{ACAD_REACTORS
330
9561
102
}
330
9561
100
AcDbZombieObject
 90
      499
 91
      510
 93
      249
310
90D31272D3022203D2031272D30220000000000000A100000000000000284000
  0
ACAD_PROXY_OBJECT
  5
9556
102
{ACAD_REACTORS
330
9550
102
}
330
9550
100
AcDbZombieObject
 90
      499
 91
      509
 93
      436
310
42CC9915DA5C99599C985B595049028333333333333E3BF0000000000000FB0107901411070040501600405405064090741402480A0340
1001
ACAD
1000
AcDbSavedByObjectVersion
1070
     0
  0
ACAD_PROXY_OBJECT
  5
9558
102
{ACAD_REACTORS
330
9550
102
}
330
9550
100
AcDbZombieObject
 90
      499
 91
      509
 93
      500
310
424CD108121A5919195B90640502408333333333333E3BF0000000000000FB01079024090700405020000000000001110200405405064090740C02480A0340
1001
ACAD
1000
AcDbSavedByObjectVersion
1070
     0
  0
ACAD_PROXY_OBJECT
  5
9557
102
{ACAD_REACTORS
330
9550
102
}
330
9550
100
AcDbZombieObject
 90
      499
 91
      509
 93
      436
310
42CCD915DA5C99599C985B595059028333333333333E3BF0000000000000FB0107901411070040501600405405064090741402480A0340
1001
ACAD
1000
AcDbSavedByObjectVersion
1070
     0
  0
ACAD_PROXY_OBJECT
  5
9555
102
{ACAD_REACTORS
330
9550
102
}
330
9550
100
AcDbZombieObject
 90
      499
 91
      509
 93
      388
310
4150985CDA58D07406404333333333333E3BF0000000000000FB0107A41107004050150841D405064090741402480A0350
1001
ACAD
1000
AcDbSavedByObjectVersion
1070
     0
  0
ACAD_PROXY_OBJECT
  5
955C
102
{ACAD_REACTORS
330
9550
102
}
330
9550
100
AcDbZombieObject
 90
      499
 91
      509
 93
      428
310
42109C9A59DA1D195B90C409028333333333333E3BF0000000000000FB010790141107004050150841D405064090741402480A029950
1001
ACAD
1000
AcDbSavedByObjectVersion
1070
     0
  0
ACAD_PROXY_OBJECT
  5
9560
102
{ACAD_REACTORS
330
9550
102
}
330
9550
100
AcDbZombieObject
 90
      499
 91
      509
 93
      452
310
42D0DBDB1BDC90DA185B99D95104090240C333333333333E3BF0000000000000FB0108901411070040501508421405064090741402480A0350
1001
ACAD
1000
AcDbSavedByObjectVersion
1070
     0
  0
ACAD_PROXY_OBJECT
  5
9559
102
{ACAD_REACTORS
330
9550
102
}
330
9550
100
AcDbZombieObject
 90
      499
 91
      509
 93
      500
310
4290DBDB98D95C1D1D585B10940D028333333333333E3BF0000000000000FB0107902409070040501000000000000111010841D405064090740C02480A0340
1001
ACAD
1000
AcDbSavedByObjectVersion
1070
     0
  0
ACAD_PROXY_OBJECT
  5
955B
102
{ACAD_REACTORS
330
9550
102
}
330
9550
100
AcDbZombieObject
 90
      499
 91
      509
 93
      412
310
40D11A5B50B409028333333333333E3BF0000000000000FB010790141107004050150841D405064090741402480A02677FFFFFD0
1001
ACAD
1000
AcDbSavedByObjectVersion
1070
     0
  0
ACAD_PROXY_OBJECT
  5
A211
102
{ACAD_REACTORS
330
9550
102
}
330
9550
100
AcDbZombieObject
 90
      499
 91
      509
 93
      452
310
43115919D950DBDB1BDC93D999916409028333333333333E3BF0000000000000FB010790141107004050150841D405064090741402480A0350
1001
ACAD
1000
AcDbSavedByObjectVersion
1070
     0
  0
ACAD_PROXY_OBJECT
  5
955F
102
{ACAD_REACTORS
330
9550
102
}
330
9550
100
AcDbZombieObject
 90
      499
 91
      509
 93
      444
310
42D19858D95C185D1D195C9B90F409028333333333333E3BF0000000000000FB010790141107004050150841D405064090741402480A0350
1001
ACAD
1000
AcDbSavedByObjectVersion
1070
     0
  0
ACAD_PROXY_OBJECT
  5
9551
102
{ACAD_REACTORS
330
9550
102
}
330
9550
100
AcDbZombieObject
 90
      499
 91
      509
 93
      388
310
41119B185D240901404333333333333E3BF0000000000000F9010740A41107004050150841D405064090741402480A1B50
1001
ACAD
1000
AcDbSavedByObjectVersion
1070
     0
  0
ACAD_PROXY_OBJECT
  5
9552
102
{ACAD_REACTORS
330
9550
102
}
330
9550
100
AcDbZombieObject
 90
      499
 91
      509
 93
      476
310
43519B185D15DA5D1A115919D95CD0140901404333333333333E3BF0000000000000F9010740901411070040501600405405064090741402480A1B50
1001
ACAD
1000
AcDbSavedByObjectVersion
1070
     0
  0
ACAD_PROXY_OBJECT
  5
9553
102
{ACAD_REACTORS
330
9550
102
}
330
9550
100
AcDbZombieObject
 90
      499
 91
      509
 93
      412
310
41D1DBDD5C985D5910240902404333333333333E3BF0000000000000F9010740A411070040501641D405064090741402480A1B50
1001
ACAD
1000
AcDbSavedByObjectVersion
1070
     0
  0
ACAD_PROXY_OBJECT
  5
9554
102
{ACAD_REACTORS
330
9550
102
}
330
9550
100
AcDbZombieObject
 90
      499
 91
      509
 93
      500
310
4411DBDD5C985D5915DA5D1A115919D95CD0340902404333333333333E3BF0000000000000F9010740901411070040501600405405064090741402480A1B50
1001
ACAD
1000
AcDbSavedByObjectVersion
1070
     0
  0
ACAD_PROXY_OBJECT
  5
A260
102
{ACAD_REACTORS
330
9550
102
}
330
9550
100
AcDbZombieObject
 90
      499
 91
      509
 93
      476
310
41921A5919195B90640502408333333333333E3BF0000000000000FB01079024090700405020000000000001110200405405064090740C02480A0340
1001
ACAD
1000
AcDbSavedByObjectVersion
1070
     0
  0
ACAD_PROXY_OBJECT
  5
A20F
102
{ACAD_REACTORS
330
9550
102
}
330
9550
100
AcDbZombieObject
 90
      499
 91
      509
 93
      428
310
42529A5D1D195C93D999914409028333333333333E3BF0000000000000FB010790141107004050150A41D405064090741402480A0350
1001
ACAD
1000
AcDbSavedByObjectVersion
1070
     0
  0
ACAD_PROXY_OBJECT
  5
955E
102
{ACAD_REACTORS
330
9550
102
}
330
9550
100
AcDbZombieObject
 90
      499
 91
      509
 93
      444
310
42D31A5B995C185D1D195C9B90E409028333333333333E3BF0000000000000FB010790141107004050750841D405064090741402483A0350
1001
ACAD
1000
AcDbSavedByObjectVersion
1070
     0
  0
ACAD_PROXY_OBJECT
  5
A266
102
{ACAD_REACTORS
330
9550
102
}
330
9550
100
AcDbZombieObject
 90
      499
 91
      509
 93
      484
310
42135BD9195B1A5B99D0A409028333333333333E3BF0000000000000F901074090290700405010000000000201990108421405064090741402480A1B40
1001
ACAD
1000
AcDbSavedByObjectVersion
1070
     0
  0
ACAD_PROXY_OBJECT
  5
A210
102
{ACAD_REACTORS
330
9550
102
}
330
9550
100
AcDbZombieObject
 90
      499
 91
      509
 93
      444
310
42D3DD995C9A185B99D3D999915409028333333333333E3BF0000000000000FB010790141107004050150941D405064090741402480A0350
1001
ACAD
1000
AcDbSavedByObjectVersion
1070
     0
  0
ACAD_PROXY_OBJECT
  5
955A
102
{ACAD_REACTORS
330
9550
102
}
330
9550
100
AcDbZombieObject
 90
      499
 91
      509
 93
      420
310
425499585B1A5CDD1A58D08409028333333333333E3BF0000000000000FB01079019070040501508421405064090741402480A1B40
1001
ACAD
1000
AcDbSavedByObjectVersion
1070
     0
  0
ACAD_PROXY_OBJECT
  5
A265
102
{ACAD_REACTORS
330
9550
102
}
330
9550
100
AcDbZombieObject
 90
      499
 91
      509
 93
      420
310
4194DA1859195911B40902404333333333333E3BF0000000000000F9010740A41107004050150800405405064090840C02480A0B40
1001
ACAD
1000
AcDbSavedByObjectVersion
1070
     0
  0
ACAD_PROXY_OBJECT
  5
A264
102
{ACAD_REACTORS
330
9550
102
}
330
9550
100
AcDbZombieObject
 90
      499
 91
      509
 93
      516
310
4454DA18591959081DDA5D1A08195919D95CD1A40902404333333333333E3BF0000000000000F901074090142907004050250800405405064090740C02480A0B40
1001
ACAD
1000
AcDbSavedByObjectVersion
1070
     0
  0
ACAD_PROXY_OBJECT
  5
A261
102
{ACAD_REACTORS
330
9550
102
}
330
9550
100
AcDbZombieObject
 90
      499
 91
      509
 93
      532
310
4394DA1859195CC81BD98811DC985E5174090240C333333333333E3BF0000000000000FB01079024090741D01000000000000111010841D405064090740C02480A0340
1001
ACAD
1000
AcDbSavedByObjectVersion
1070
     0
  0
ACAD_PROXY_OBJECT
  5
A262
102
{ACAD_REACTORS
330
9550
102
}
330
9550
100
AcDbZombieObject
 90
      499
 91
      509
 93
      476
310
41D4DAD95D18DA1E51840502408333333333333E3BF0000000000000FB01079024090741D01000000000000111010B41D405064090741802480A0340
1001
ACAD
1000
AcDbSavedByObjectVersion
1070
     0
  0
ACAD_PROXY_OBJECT
  5
955D
102
{ACAD_REACTORS
330
9550
102
}
330
9550
100
AcDbZombieObject
 90
      499
 91
      509
 93
      412
310
41D51A1A58DAD95B90D409028333333333333E3BF0000000000000FB010790141107004050150C41D405064090741402480A0350
1001
ACAD
1000
AcDbSavedByObjectVersion
1070
     0
  0
ACAD_PROXY_OBJECT
  5
A25F
102
{ACAD_REACTORS
330
9550
102
}
330
9550
100
AcDbZombieObject
 90
      499
 91
      509
 93
      420
310
4255DA5C99599C985B595059028333333333333E3BF0000000000000FB0107901411070040501600405405064090740C02480A0340
1001
ACAD
1000
AcDbSavedByObjectVersion
1070
     0
  0
ACAD_PROXY_OBJECT
  5
A263
102
{ACAD_REACTORS
330
9550
102
}
330
9550
100
AcDbZombieObject
 90
      499
 91
      509
 93
      404
310
41560B54985E51940902404000000000000E03F0000000000000FB010740501907004050150841D405064090740C02480A1B40
1001
ACAD
1000
AcDbSavedByObjectVersion
1070
     0
  0
XRECORD
  5
D2D9
102
{ACAD_REACTORS
330
D2D8
102
}
330
D2D8
100
AcDbXrecord
340
18D
  0
XRECORD
  5
D2DA
102
{ACAD_REACTORS
330
D2D8
102
}
330
D2D8
100
AcDbXrecord
340
18C
  0
DICTIONARYVAR
  5
AAE0
102
{ACAD_REACTORS
330
37
102
}
330
37
100
DictionaryVariables
280
     0
  1
1:1
  0
DICTIONARYVAR
  5
9627
102
{ACAD_REACTORS
330
37
102
}
330
37
100
DictionaryVariables
280
     0
  1
Standard
  0
DICTIONARYVAR
  5
29E
102
{ACAD_REACTORS
330
37
102
}
330
37
100
DictionaryVariables
280
     0
  1
Standard
  0
DICTIONARYVAR
  5
38
102
{ACAD_REACTORS
330
37
102
}
330
37
100
DictionaryVariables
280
     0
  1
-1
  0
DICTIONARYVAR
  5
1CE
102
{ACAD_REACTORS
330
37
102
}
330
37
100
DictionaryVariables
280
     0
  1
2
  0
DICTIONARYVAR
  5
704E
102
{ACAD_REACTORS
330
37
102
}
330
37
100
DictionaryVariables
280
     0
  1
1
  0
DICTIONARYVAR
  5
962A
102
{ACAD_REACTORS
330
37
102
}
330
37
100
DictionaryVariables
280
     0
  1
0
  0
DICTIONARYVAR
  5
7052
102
{ACAD_REACTORS
330
37
102
}
330
37
100
DictionaryVariables
280
     0
  1
8
  0
DICTIONARYVAR
  5
7051
102
{ACAD_REACTORS
330
37
102
}
330
37
100
DictionaryVariables
280
     0
  1
1
  0
DICTIONARYVAR
  5
AB30
102
{ACAD_REACTORS
330
37
102
}
330
37
100
DictionaryVariables
280
     0
  1
0
  0
DICTIONARYVAR
  5
704F
102
{ACAD_REACTORS
330
37
102
}
330
37
100
DictionaryVariables
280
     0
  1
8
  0
DICTIONARYVAR
  5
7050
102
{ACAD_REACTORS
330
37
102
}
330
37
100
DictionaryVariables
280
     0
  1
2
  0
DICTIONARYVAR
  5
1CF
102
{ACAD_REACTORS
330
37
102
}
330
37
100
DictionaryVariables
280
     0
  1

  0
DICTIONARYVAR
  5
9629
102
{ACAD_REACTORS
330
37
102
}
330
37
100
DictionaryVariables
280
     0
  1
127
  0
DICTIONARYVAR
  5
CCFB
102
{ACAD_REACTORS
330
37
102
}
330
37
100
DictionaryVariables
280
     0
  1
2
  0
DICTIONARY
  5
D476
330
9540
100
AcDbDictionary
  3
ACAD_XREC_ROUNDTRIP
360
D477
1001
ACAD
1000
TREAT_AS_HARD
1070
     1
  0
DICTIONARY
  5
D478
330
9538
100
AcDbDictionary
  3
ACAD_XREC_ROUNDTRIP
360
D479
1001
ACAD
1000
TREAT_AS_HARD
1070
     1
  0
DICTIONARY
  5
D47A
330
9548
100
AcDbDictionary
  3
ACAD_XREC_ROUNDTRIP
360
D47B
1001
ACAD
1000
TREAT_AS_HARD
1070
     1
  0
XRECORD
  5
D477
102
{ACAD_REACTORS
330
D476
102
}
330
D476
100
AcDbXrecord
102
MATERIAL
148
0.0
149
0.0
149
0.0
 93
        0
 94
      127
282
     0
 72
     0
 77
     0
171
     0
175
     0
179
     0
273
     0
  0
XRECORD
  5
D479
102
{ACAD_REACTORS
330
D478
102
}
330
D478
100
AcDbXrecord
102
MATERIAL
148
0.0
149
0.0
149
0.0
 93
        0
 94
      127
282
     0
 72
     0
 77
     0
171
     0
175
     0
179
     0
273
     0
  0
XRECORD
  5
D47B
102
{ACAD_REACTORS
330
D47A
102
}
330
D47A
100
AcDbXrecord
102
MATERIAL
148
0.0
149
0.0
149
0.0
 93
        0
 94
      127
282
     0
 72
     0
 77
     0
171
     0
175
     0
179
     0
273
     0
  0
ENDSEC
  0
EOF
