  0
SECTION
  2
HEADER
  9
$ACADVER
  1
AC1012
  9
$DWGCODEPAGE
  3
ansi_932
  9
$INSBASE
 10
0.0
 20
0.0
 30
0.0
  9
$EXTMIN
 10
1925.173047705771
 20
-720.0582269970906
 30
-0.000000000002521
  9
$EXTMAX
 10
2541.473906012656
 20
-300.7581036888586
 30
0.0000000000563712
  9
$LIMMIN
 10
0.0
 20
0.0
  9
$LIMMAX
 10
420.0
 20
297.0
  9
$ORTHOMODE
 70
     0
  9
$REGENMODE
 70
     1
  9
$FILLMODE
 70
     1
  9
$QTEXTMODE
 70
     0
  9
$MIRRTEXT
 70
     0
  9
$DRAGMODE
 70
     2
  9
$LTSCALE
 40
0.5
  9
$OSMODE
 70
  2399
  9
$ATTMODE
 70
     1
  9
$TEXTSIZE
 40
4.0
  9
$TRACEWID
 40
1.0
  9
$TEXTSTYLE
  7
STANDARD
  9
$CLAYER
  8
1TEXT
  9
$CELTYPE
  6
BYLAYER
  9
$CECOLOR
 62
   256
  9
$CELTSCALE
 40
1.0
  9
$DELOBJ
 70
     1
  9
$DISPSILH
 70
     0
  9
$DIMSCALE
 40
1.0
  9
$DIMASZ
 40
2.0
  9
$DIMEXO
 40
0.0
  9
$DIMDLI
 40
7.0
  9
$DIMRND
 40
0.0
  9
$DIMDLE
 40
0.0
  9
$DIMEXE
 40
1.0
  9
$DIMTP
 40
0.0
  9
$DIMTM
 40
0.0
  9
$DIMTXT
 40
3.5
  9
$DIMCEN
 40
0.0
  9
$DIMTSZ
 40
0.0
  9
$DIMTOL
 70
     0
  9
$DIMLIM
 70
     0
  9
$DIMTIH
 70
     0
  9
$DIMTOH
 70
     0
  9
$DIMSE1
 70
     0
  9
$DIMSE2
 70
     0
  9
$DIMTAD
 70
     1
  9
$DIMZIN
 70
     8
  9
$DIMBLK
  1

  9
$DIMASO
 70
     1
  9
$DIMSHO
 70
     1
  9
$DIMPOST
  1
 
  9
$DIMAPOST
  1

  9
$DIMALT
 70
     0
  9
$DIMALTD
 70
     2
  9
$DIMALTF
 40
25.4
  9
$DIMLFAC
 40
1.0
  9
$DIMTOFL
 70
     1
  9
$DIMTVP
 40
0.0
  9
$DIMTIX
 70
     0
  9
$DIMSOXD
 70
     0
  9
$DIMSAH
 70
     1
  9
$DIMBLK1
  1
OPEN30
  9
$DIMBLK2
  1
OPEN30
  9
$DIMSTYLE
  2
NEWX10
  9
$DIMCLRD
 70
   256
  9
$DIMCLRE
 70
   256
  9
$DIMCLRT
 70
   201
  9
$DIMTFAC
 40
0.7
  9
$DIMGAP
 40
0.7
  9
$DIMJUST
 70
     0
  9
$DIMSD1
 70
     0
  9
$DIMSD2
 70
     0
  9
$DIMTOLJ
 70
     1
  9
$DIMTZIN
 70
     8
  9
$DIMALTZ
 70
     0
  9
$DIMALTTZ
 70
     0
  9
$DIMFIT
 70
     2
  9
$DIMUPT
 70
     0
  9
$DIMUNIT
 70
     2
  9
$DIMDEC
 70
     2
  9
$DIMTDEC
 70
     4
  9
$DIMALTU
 70
     2
  9
$DIMALTTD
 70
     2
  9
$DIMTXSTY
  7
STANDARD
  9
$DIMAUNIT
 70
     0
  9
$LUNITS
 70
     2
  9
$LUPREC
 70
     4
  9
$SKETCHINC
 40
1.0
  9
$FILLETRAD
 40
0.0
  9
$AUNITS
 70
     0
  9
$AUPREC
 70
     2
  9
$MENU
  1
acad
  9
$ELEVATION
 40
0.0
  9
$PELEVATION
 40
0.0
  9
$THICKNESS
 40
0.0
  9
$LIMCHECK
 70
     0
  9
$CHAMFERA
 40
10.0
  9
$CHAMFERB
 40
10.0
  9
$CHAMFERC
 40
20.0
  9
$CHAMFERD
 40
0.0
  9
$SKPOLY
 70
     0
  9
$TDCREATE
 40
2451318.621352917
  9
$TDUPDATE
 40
2459198.436123114
  9
$TDINDWG
 40
1.6741570833
  9
$TDUSRTIMER
 40
1.6741570833
  9
$USRTIMER
 70
     1
  9
$ANGBASE
 50
0.0
  9
$ANGDIR
 70
     0
  9
$PDMODE
 70
     0
  9
$PDSIZE
 40
0.0
  9
$PLINEWID
 40
0.0
  9
$COORDS
 70
     2
  9
$SPLFRAME
 70
     0
  9
$SPLINETYPE
 70
     6
  9
$SPLINESEGS
 70
     8
  9
$ATTDIA
 70
     0
  9
$ATTREQ
 70
     1
  9
$HANDLING
 70
     1
  9
$HANDSEED
  5
1BEB7
  9
$SURFTAB1
 70
     6
  9
$SURFTAB2
 70
     6
  9
$SURFTYPE
 70
     6
  9
$SURFU
 70
     6
  9
$SURFV
 70
     6
  9
$UCSNAME
  2

  9
$UCSORG
 10
0.0
 20
0.0
 30
0.0
  9
$UCSXDIR
 10
1.0
 20
0.0
 30
0.0
  9
$UCSYDIR
 10
0.0
 20
1.0
 30
0.0
  9
$PUCSNAME
  2

  9
$PUCSORG
 10
0.0
 20
0.0
 30
0.0
  9
$PUCSXDIR
 10
1.0
 20
0.0
 30
0.0
  9
$PUCSYDIR
 10
0.0
 20
1.0
 30
0.0
  9
$USERI1
 70
     0
  9
$USERI2
 70
     0
  9
$USERI3
 70
     0
  9
$USERI4
 70
     0
  9
$USERI5
 70
     0
  9
$USERR1
 40
0.0
  9
$USERR2
 40
0.0
  9
$USERR3
 40
0.0
  9
$USERR4
 40
0.0
  9
$USERR5
 40
0.0
  9
$WORLDVIEW
 70
     1
  9
$SHADEDGE
 70
     3
  9
$SHADEDIF
 70
    70
  9
$TILEMODE
 70
     1
  9
$MAXACTVP
 70
    48
  9
$PINSBASE
 10
0.0
 20
0.0
 30
0.0
  9
$PLIMCHECK
 70
     0
  9
$PEXTMIN
 10
1.000000000000000E+20
 20
1.000000000000000E+20
 30
1.000000000000000E+20
  9
$PEXTMAX
 10
-1.000000000000000E+20
 20
-1.000000000000000E+20
 30
-1.000000000000000E+20
  9
$PLIMMIN
 10
0.0
 20
0.0
  9
$PLIMMAX
 10
420.0
 20
297.0
  9
$UNITMODE
 70
     0
  9
$VISRETAIN
 70
     1
  9
$PLINEGEN
 70
     0
  9
$PSLTSCALE
 70
     1
  9
$TREEDEPTH
 70
  3020
  9
$PICKSTYLE
 70
     0
  9
$CMLSTYLE
  2
STANDARD
  9
$CMLJUST
 70
     0
  9
$CMLSCALE
 40
20.0
  9
$SAVEIMAGES
 70
     1
  0
ENDSEC
  0
SECTION
  2
CLASSES
  0
CLASS
  1
DICTIONARYVAR
  2
AcDbDictionaryVar
  3
ObjectDBX Classes
 90
        0
280
     0
281
     0
  0
CLASS
  1
IDBUFFER
  2
AcDbIdBuffer
  3
ObjectDBX Classes
 90
    32768
280
     0
281
     0
  0
CLASS
  1
LWPOLYLINE
  2
AcDbPolyline
  3
ObjectDBX Classes
 90
    32768
280
     0
281
     1
  0
CLASS
  1
ACDBDICTIONARYWDFLT
  2
AcDbDictionaryWithDefault
  3
ObjectDBX Classes
 90
    32768
280
     0
281
     0
  0
CLASS
  1
ACDBPLACEHOLDER
  2
AcDbPlaceHolder
  3
ObjectDBX Classes
 90
        0
280
     0
281
     0
  0
CLASS
  1
LAYOUT
  2
AcDbLayout
  3
ObjectDBX Classes
 90
        0
280
     0
281
     0
  0
CLASS
  1
TABLESTYLE
  2
AcDbTableStyle
  3
ObjectDBX Classes
 90
     4095
280
     0
281
     0
  0
CLASS
  1
SORTENTSTABLE
  2
AcDbSortentsTable
  3
ObjectDBX Classes
 90
    32768
280
     0
281
     0
  0
CLASS
  1
MATERIAL
  2
AcDbMaterial
  3
ObjectDBX Classes
 90
     1153
280
     0
281
     0
  0
CLASS
  1
VISUALSTYLE
  2
AcDbVisualStyle
  3
ObjectDBX Classes
 90
     4095
280
     0
281
     0
  0
CLASS
  1
SCALE
  2
AcDbScale
  3
ObjectDBX Classes
 90
     1153
280
     0
281
     0
  0
CLASS
  1
MLEADERSTYLE
  2
AcDbMLeaderStyle
  3
ACDB_MLEADERSTYLE_CLASS
 90
     4095
280
     0
281
     0
  0
CLASS
  1
CELLSTYLEMAP
  2
AcDbCellStyleMap
  3
ObjectDBX Classes
 90
     1152
280
     0
281
     0
  0
CLASS
  1
SUN
  2
AcDbSun
  3
SCENEOE
 90
     1153
280
     0
281
     0
  0
CLASS
  1
XRECORD
  2
AcDbXrecord
  3
ObjectDBX Classes
 90
    32768
280
     0
281
     0
  0
CLASS
  1
HATCH
  2
AcDbHatch
  3
ObjectDBX Classes
 90
    32768
280
     0
281
     1
  0
ENDSEC
  0
SECTION
  2
TABLES
  0
TABLE
  2
VPORT
  5
8
330
0
100
AcDbSymbolTable
 70
     1
  0
VPORT
  5
D991
330
8
100
AcDbSymbolTableRecord
100
AcDbViewportTableRecord
  2
*ACTIVE
 70
     0
 10
0.0
 20
0.0
 11
1.0
 21
1.0
 12
2233.323476859214
 22
-510.4081653429746
 13
0.0
 23
0.0
 14
10.0
 24
10.0
 15
10.0
 25
10.0
 16
0.0
 26
0.0
 36
1.0
 17
0.0
 27
0.0
 37
0.0
 40
450.195921867786
 41
1.858156028368794
 42
50.0
 43
0.0
 44
0.0
 50
0.0
 51
0.0
 71
    16
 72
   100
 73
     1
 74
     1
 75
     0
 76
     0
 77
     0
 78
     0
  0
ENDTAB
  0
TABLE
  2
LTYPE
  5
5
330
0
100
AcDbSymbolTable
 70
     2
  0
LTYPE
  5
12
330
5
100
AcDbSymbolTableRecord
100
AcDbLinetypeTableRecord
  2
BYBLOCK
 70
     0
  3

 72
    65
 73
     0
 40
0.0
  0
LTYPE
  5
13
330
5
100
AcDbSymbolTableRecord
100
AcDbLinetypeTableRecord
  2
BYLAYER
 70
     0
  3

 72
    65
 73
     0
 40
0.0
  0
LTYPE
  5
14
330
5
100
AcDbSymbolTableRecord
100
AcDbLinetypeTableRecord
  2
CONTINUOUS
 70
     0
  3
Solid line
 72
    65
 73
     0
 40
0.0
  0
LTYPE
  5
13839
330
5
100
AcDbSymbolTableRecord
100
AcDbLinetypeTableRecord
  2
CENTER2
 70
     0
  3
Center (.5x) ___ _ ___ _ ___ _ ___ _ ___ _ ___
 72
    65
 73
     4
 40
28.575
 49
19.05
 74
     0
 49
-3.175
 74
     0
 49
3.175
 74
     0
 49
-3.175
 74
     0
  0
ENDTAB
  0
TABLE
  2
LAYER
  5
2
102
{ACAD_XDICTIONARY
360
E6A6
102
}
330
0
100
AcDbSymbolTable
 70
     5
  0
LAYER
  5
E
102
{ACAD_XDICTIONARY
360
DA05
102
}
330
2
100
AcDbSymbolTableRecord
100
AcDbLayerTableRecord
  2
0
 70
     0
 62
     7
  6
CONTINUOUS
  0
LAYER
  5
29
102
{ACAD_XDICTIONARY
360
DA07
102
}
330
2
100
AcDbSymbolTableRecord
100
AcDbLayerTableRecord
  2
1CENTER
 70
     0
 62
     7
  6
CENTER2
  0
LAYER
  5
31
102
{ACAD_XDICTIONARY
360
DA09
102
}
330
2
100
AcDbSymbolTableRecord
100
AcDbLayerTableRecord
  2
1TEXT
 70
     0
 62
     7
  6
CONTINUOUS
  0
LAYER
  5
243
102
{ACAD_XDICTIONARY
360
DA0F
102
}
330
2
100
AcDbSymbolTableRecord
100
AcDbLayerTableRecord
  2
01
 70
     0
 62
     1
  6
CONTINUOUS
  0
LAYER
  5
24E
102
{ACAD_XDICTIONARY
360
DA15
102
}
330
2
100
AcDbSymbolTableRecord
100
AcDbLayerTableRecord
  2
1DIM
 70
     0
 62
     7
  6
CONTINUOUS
  0
ENDTAB
  0
TABLE
  2
STYLE
  5
3
330
0
100
AcDbSymbolTable
 70
     1
  0
STYLE
  5
F
330
3
100
AcDbSymbolTableRecord
100
AcDbTextStyleTableRecord
  2
STANDARD
 70
     0
 40
0.0
 41
1.0
 50
0.0
 71
     0
 42
4.0
  3
txt.shx
  4
extfont.shx
  0
ENDTAB
  0
TABLE
  2
VIEW
  5
6
330
0
100
AcDbSymbolTable
 70
     0
  0
ENDTAB
  0
TABLE
  2
UCS
  5
7
330
0
100
AcDbSymbolTable
 70
     0
  0
ENDTAB
  0
TABLE
  2
APPID
  5
9
330
0
100
AcDbSymbolTable
 70
    19
  0
APPID
  5
10
330
9
100
AcDbSymbolTableRecord
100
AcDbRegAppTableRecord
  2
ACAD
 70
     0
  0
APPID
  5
21
330
9
100
AcDbSymbolTableRecord
100
AcDbRegAppTableRecord
  2
DRAWINGVARIABLESXDATA
 70
     0
  0
APPID
  5
64
330
9
100
AcDbSymbolTableRecord
100
AcDbRegAppTableRecord
  2
CONTENTTABDATA
 70
     0
  0
APPID
  5
65
330
9
100
AcDbSymbolTableRecord
100
AcDbRegAppTableRecord
  2
CONTENTCURRENTTAB
 70
     0
  0
APPID
  5
66
330
9
100
AcDbSymbolTableRecord
100
AcDbRegAppTableRecord
  2
CONTENTBLOCKDESCRIPTION
 70
     0
  0
APPID
  5
67
330
9
100
AcDbSymbolTableRecord
100
AcDbRegAppTableRecord
  2
CONTENTBLOCKICON
 70
     0
  0
APPID
  5
68
330
9
100
AcDbSymbolTableRecord
100
AcDbRegAppTableRecord
  2
CONTENTLONGBLOCKNAME
 70
     0
  0
APPID
  5
2AE
330
9
100
AcDbSymbolTableRecord
100
AcDbRegAppTableRecord
  2
ACAD_PSEXT
 70
     0
  0
APPID
  5
D9E9
330
9
100
AcDbSymbolTableRecord
100
AcDbRegAppTableRecord
  2
ACAD_MLEADERVER
 70
     0
  0
APPID
  5
19CF0
330
9
100
AcDbSymbolTableRecord
100
AcDbRegAppTableRecord
  2
ACADANNOTATIVE
 70
     0
  0
APPID
  5
19CF1
330
9
100
AcDbSymbolTableRecord
100
AcDbRegAppTableRecord
  2
ACDBBLOCKREPETAG
 70
     0
  0
APPID
  5
19CF2
330
9
100
AcDbSymbolTableRecord
100
AcDbRegAppTableRecord
  2
ACLAYERTOOLS
 70
     0
  0
APPID
  5
19CF3
330
9
100
AcDbSymbolTableRecord
100
AcDbRegAppTableRecord
  2
ACAD_NAV_VCDISPLAY
 70
     0
  0
APPID
  5
1A86C
330
9
100
AcDbSymbolTableRecord
100
AcDbRegAppTableRecord
  2
ACAD_OBJECT_CHANGE_GUID
 70
     0
  0
APPID
  5
1AA0C
330
9
100
AcDbSymbolTableRecord
100
AcDbRegAppTableRecord
  2
ACAECLAYERSTANDARD
 70
     0
  0
APPID
  5
1BA9A
330
9
100
AcDbSymbolTableRecord
100
AcDbRegAppTableRecord
  2
ACAD_DSTYLE_DIMJOGGED_JOGA
 70
     0
  0
APPID
  5
1BA9B
330
9
100
AcDbSymbolTableRecord
100
AcDbRegAppTableRecord
  2
ACAD_DSTYLE_DIM_LINETYPE
 70
     0
  0
APPID
  5
1BA9C
330
9
100
AcDbSymbolTableRecord
100
AcDbRegAppTableRecord
  2
ACAD_DSTYLE_DIM_EXT1_LINET
 70
     0
  0
APPID
  5
1BA9D
330
9
100
AcDbSymbolTableRecord
100
AcDbRegAppTableRecord
  2
ACAD_DSTYLE_DIM_EXT2_LINET
 70
     0
  0
ENDTAB
  0
TABLE
  2
DIMSTYLE
  5
A
330
0
100
AcDbSymbolTable
 70
     2
  0
DIMSTYLE
105
48
330
A
100
AcDbSymbolTableRecord
100
AcDbDimStyleTableRecord
  2
NEWX10
 70
     0
  3
 
  4

  5

  6
OPEN30
  7
OPEN30
 40
1.0
 41
2.0
 42
0.0
 43
7.0
 44
1.0
 45
0.0
 46
0.0
 47
0.0
 48
0.0
140
3.5
141
0.0
142
0.0
143
25.4
144
1.0
145
0.0
146
0.7
147
0.7
 71
     0
 72
     0
 73
     0
 74
     0
 75
     0
 76
     0
 77
     1
 78
     8
170
     0
171
     2
172
     1
173
     1
174
     0
175
     0
176
   256
177
   256
178
   201
179
     2
270
     2
271
     2
272
     4
273
     2
274
     2
340
F
275
     0
280
     0
281
     0
282
     0
283
     1
284
     8
285
     0
286
     0
287
     2
288
     0
  0
DIMSTYLE
105
1AFB6
330
A
100
AcDbSymbolTableRecord
100
AcDbDimStyleTableRecord
  2
ISO-25
 70
     0
  3

  4

  5

  6

  7

 40
1.0
 41
20.0
 42
3.0
 43
3.75
 44
2.0
 45
0.0
 46
0.0
 47
0.0
 48
0.0
140
30.0
141
5.0
142
0.0
143
0.03937
144
1.0
145
0.0
146
1.0
147
8.0
 71
     0
 72
     0
 73
     0
 74
     0
 75
     0
 76
     0
 77
     1
 78
     8
170
     0
171
     3
172
     1
173
     0
174
     0
175
     0
176
     1
177
     1
178
     1
179
     2
270
     2
271
     2
272
     2
273
     2
274
     3
340
F
275
     0
280
     0
281
     0
282
     0
283
     0
284
     8
285
     0
286
     0
287
     3
288
     0
  0
ENDTAB
  0
TABLE
  2
BLOCK_RECORD
  5
1
330
0
100
AcDbSymbolTable
 70
     8
  0
BLOCK_RECORD
  5
18
102
{ACAD_XDICTIONARY
360
88F
102
}
330
1
100
AcDbSymbolTableRecord
100
AcDbBlockTableRecord
  2
*MODEL_SPACE
  0
BLOCK_RECORD
  5
15
330
1
100
AcDbSymbolTableRecord
100
AcDbBlockTableRecord
  2
*PAPER_SPACE
  0
BLOCK_RECORD
  5
42
330
1
100
AcDbSymbolTableRecord
100
AcDbBlockTableRecord
  2
_OPEN30
  0
BLOCK_RECORD
  5
19D42
330
1
100
AcDbSymbolTableRecord
100
AcDbBlockTableRecord
  2
A3WAKUKAWAJUN2017_HYOUDAI_
  0
BLOCK_RECORD
  5
1BD17
330
1
100
AcDbSymbolTableRecord
100
AcDbBlockTableRecord
  2
*X180
  0
BLOCK_RECORD
  5
1BD65
330
1
100
AcDbSymbolTableRecord
100
AcDbBlockTableRecord
  2
*X181
  0
BLOCK_RECORD
  5
1BDB7
330
1
100
AcDbSymbolTableRecord
100
AcDbBlockTableRecord
  2
*X182
  0
BLOCK_RECORD
  5
1BE08
330
1
100
AcDbSymbolTableRecord
100
AcDbBlockTableRecord
  2
*X183
  0
BLOCK_RECORD
  5
1BE45
330
1
100
AcDbSymbolTableRecord
100
AcDbBlockTableRecord
  2
*X184
  0
BLOCK_RECORD
  5
1BE85
330
1
100
AcDbSymbolTableRecord
100
AcDbBlockTableRecord
  2
*X185
  0
ENDTAB
  0
ENDSEC
  0
SECTION
  2
BLOCKS
  0
BLOCK
  5
19
330
18
100
AcDbEntity
  8
0
100
AcDbBlockBegin
  2
*MODEL_SPACE
 70
     0
 10
0.0
 20
0.0
 30
0.0
  3
*MODEL_SPACE
  1

  0
ENDBLK
  5
1A
330
18
100
AcDbEntity
  8
0
100
AcDbBlockEnd
  0
BLOCK
  5
16
330
15
100
AcDbEntity
 67
     1
  8
0
100
AcDbBlockBegin
  2
*PAPER_SPACE
 70
     0
 10
0.0
 20
0.0
 30
0.0
  3
*PAPER_SPACE
  1

  0
ENDBLK
  5
17
330
15
100
AcDbEntity
 67
     1
  8
0
100
AcDbBlockEnd
  0
BLOCK
  5
43
330
42
100
AcDbEntity
  8
0
100
AcDbBlockBegin
  2
_OPEN30
 70
     0
 10
0.0
 20
0.0
 30
0.0
  3
_OPEN30
  1

  0
LINE
  5
44
330
42
100
AcDbEntity
  8
0
  6
BYBLOCK
 62
     0
100
AcDbLine
 10
-1.0
 20
0.26794919
 30
0.0
 11
0.0
 21
0.0
 31
0.0
  0
LINE
  5
45
330
42
100
AcDbEntity
  8
0
  6
BYBLOCK
 62
     0
100
AcDbLine
 10
0.0
 20
0.0
 30
0.0
 11
-1.0
 21
-0.26794919
 31
0.0
  0
LINE
  5
46
330
42
100
AcDbEntity
  8
0
  6
BYBLOCK
 62
     0
100
AcDbLine
 10
0.0
 20
0.0
 30
0.0
 11
-1.0
 21
0.0
 31
0.0
  0
ENDBLK
  5
47
330
42
100
AcDbEntity
  8
0
100
AcDbBlockEnd
  0
BLOCK
  5
1A550
330
19D42
100
AcDbEntity
  8
0
100
AcDbBlockBegin
  2
A3WAKUKAWAJUN2017_HYOUDAI_
 70
     0
 10
0.0
 20
0.0
 30
0.0
  3
A3WAKUKAWAJUN2017_HYOUDAI_
  1

  0
LINE
  5
19D44
330
19D42
100
AcDbEntity
  8
0
100
AcDbLine
 10
13.26299999998673
 20
-0.0001000000000317
 30
0.0
 11
9.236999999990758
 21
8.999899999990987
 31
0.0
1001
ACAD
1000
ASC_BOUNDS
1002
{
1070
    19
1005
19D85
1002
}
  0
LINE
  5
19D45
330
19D42
100
AcDbEntity
  8
0
100
AcDbLine
 10
5.657999999994331
 20
0.9999999999989768
 30
0.0
 11
9.236999999990758
 21
8.999999999991019
 31
0.0
1001
ACAD
1000
ASC_BOUNDS
1002
{
1070
    19
1005
19D85
1002
}
  0
LINE
  5
19D46
330
19D42
100
AcDbEntity
  8
0
100
AcDbLine
 10
18.59199999998134
 20
-0.2368999999997641
 30
0.0
 11
16.46099999998353
 21
5.432899999994561
 31
0.0
1001
ACAD
1000
ASC_BOUNDS
1002
{
1070
    19
1005
19D86
1002
}
  0
LINE
  5
19D47
330
19D42
100
AcDbEntity
  8
0
100
AcDbLine
 10
18.59199999998134
 20
-0.2368999999997641
 30
0.0
 11
22.38199999997767
 21
8.763099999991255
 31
0.0
1001
ACAD
1000
ASC_BOUNDS
1002
{
1070
    19
1005
19D86
1002
}
  0
LINE
  5
19D48
330
19D42
100
AcDbEntity
  8
0
100
AcDbLine
 10
14.32899999998563
 20
-0.2368999999997641
 30
0.0
 11
16.46099999998353
 21
5.432899999994561
 31
0.0
1001
ACAD
1000
ASC_BOUNDS
1002
{
1070
    19
1005
19D86
1002
}
  0
LINE
  5
19D49
330
19D42
100
AcDbEntity
  8
0
100
AcDbLine
 10
14.32899999998563
 20
-0.2368999999997641
 30
0.0
 11
10.53899999998941
 21
8.763099999991255
 31
0.0
1001
ACAD
1000
ASC_BOUNDS
1002
{
1070
    19
1005
19D86
1002
}
  0
LINE
  5
19D4A
330
19D42
100
AcDbEntity
  8
0
100
AcDbLine
 10
19.53899999998043
 20
-0.0001000000000317
 30
0.0
 11
23.56599999997638
 21
8.999899999990987
 31
0.0
1001
ACAD
1000
ASC_BOUNDS
1002
{
1070
    19
1005
19D87
1002
}
  0
LINE
  5
19D4B
330
19D42
100
AcDbEntity
  8
0
100
AcDbLine
 10
26.97358892824991
 20
1.383099999991202
 30
0.0
 11
23.56599999997638
 21
8.999899999990987
 31
0.0
1001
ACAD
1000
ASC_BOUNDS
1002
{
1070
    19
1005
19D87
1002
}
  0
LINE
  5
19D4C
330
19D42
100
AcDbEntity
  8
0
100
AcDbLine
 10
5.657999999994331
 20
0.9999999999989768
 30
0.0
 11
3.181999999996833
 21
4.668599999995308
 31
0.0
1001
ACAD
1000
ASC_BOUNDS
1002
{
1070
    19
1005
19D85
1002
}
  0
LINE
  5
19D4D
330
19D42
100
AcDbEntity
  8
0
100
AcDbLine
 10
4.617999999995391
 20
-0.0001000000000317
 30
0.0
 11
1.420999999998571
 21
4.736799999995242
 31
0.0
1001
ACAD
1000
ASC_BOUNDS
1002
{
1070
    19
1005
19D85
1002
}
  0
LINE
  5
19D4E
330
19D42
100
AcDbEntity
  8
0
100
AcDbLine
 10
1.420999999998571
 20
8.763099999991255
 30
0.0
 11
1.420999999998571
 21
0.0
 31
0.0
1001
ACAD
1000
ASC_BOUNDS
1002
{
1070
    19
1005
19D8A
1002
}
  0
LINE
  5
19D4F
330
19D42
100
AcDbEntity
  8
0
100
AcDbLine
 10
0.0
 20
8.763099999991255
 30
0.0
 11
0.0
 21
0.0
 31
0.0
1001
ACAD
1000
ASC_BOUNDS
1002
{
1070
    19
1005
19D8A
1002
}
  0
LINE
  5
19D50
330
19D42
100
AcDbEntity
  8
0
100
AcDbLine
 10
6.766999999993232
 20
-0.0001000000000317
 30
0.0
 11
7.826999999992154
 21
2.368399999997621
 31
0.0
1001
ACAD
1000
ASC_BOUNDS
1002
{
1070
    19
1005
19D85
1002
}
  0
LINE
  5
19D51
330
19D42
100
AcDbEntity
  8
0
100
AcDbLine
 10
0.0
 20
0.0
 30
0.0
 11
1.420999999998571
 21
0.0
 31
0.0
1001
ACAD
1000
ASC_BOUNDS
1002
{
1070
    19
1005
19D8A
1002
}
  0
LINE
  5
19D52
330
19D42
100
AcDbEntity
  8
0
100
AcDbLine
 10
4.617999999995391
 20
0.0
 30
0.0
 11
6.766999999993232
 21
0.0
 31
0.0
1001
ACAD
1000
ASC_BOUNDS
1002
{
1070
    19
1005
19D85
1002
}
  0
LINE
  5
19D53
330
19D42
100
AcDbEntity
  8
0
100
AcDbLine
 10
11.70599999998831
 20
-0.0001000000000317
 30
0.0
 11
10.64699999998936
 21
2.368399999997621
 31
0.0
1001
ACAD
1000
ASC_BOUNDS
1002
{
1070
    19
1005
19D85
1002
}
  0
LINE
  5
19D54
330
19D42
100
AcDbEntity
  8
0
100
AcDbLine
 10
7.826999999992154
 20
2.368399999997621
 30
0.0
 11
10.64699999998936
 21
2.368399999997621
 31
0.0
1001
ACAD
1000
ASC_BOUNDS
1002
{
1070
    19
1005
19D85
1002
}
  0
LINE
  5
19D55
330
19D42
100
AcDbEntity
  8
0
100
AcDbLine
 10
11.70599999998831
 20
0.0
 30
0.0
 11
13.26299999998673
 21
0.0
 31
0.0
1001
ACAD
1000
ASC_BOUNDS
1002
{
1070
    19
1005
19D85
1002
}
  0
LINE
  5
19D56
330
19D42
100
AcDbEntity
  8
0
100
AcDbLine
 10
22.15599999997789
 20
2.368399999997621
 30
0.0
 11
24.97599999997499
 21
2.368399999997621
 31
0.0
1001
ACAD
1000
ASC_BOUNDS
1002
{
1070
    19
1005
19D87
1002
}
  0
LINE
  5
19D57
330
19D42
100
AcDbEntity
  8
0
100
AcDbLine
 10
19.53899999998043
 20
0.0
 30
0.0
 11
21.09599999997886
 21
0.0
 31
0.0
1001
ACAD
1000
ASC_BOUNDS
1002
{
1070
    19
1005
19D87
1002
}
  0
LINE
  5
19D58
330
19D42
100
AcDbEntity
  8
0
100
AcDbLine
 10
21.09599999997886
 20
-0.0001000000000317
 30
0.0
 11
22.15599999997789
 21
2.368399999997621
 31
0.0
1001
ACAD
1000
ASC_BOUNDS
1002
{
1070
    19
1005
19D87
1002
}
  0
LINE
  5
19D59
330
19D42
100
AcDbEntity
  8
0
100
AcDbLine
 10
26.02015566812236
 20
0.0330999999912365
 30
0.0
 11
24.97599999997499
 21
2.368399999997621
 31
0.0
1001
ACAD
1000
ASC_BOUNDS
1002
{
1070
    19
1005
19D87
1002
}
  0
LINE
  5
19D5A
330
19D42
100
AcDbEntity
  8
0
100
AcDbLine
 10
14.32399999998563
 20
3.315799999996671
 30
0.0
 11
16.46099999998353
 21
8.999899999990987
 31
0.0
1001
ACAD
1000
ASC_BOUNDS
1002
{
1070
    19
1005
19D86
1002
}
  0
LINE
  5
19D5B
330
19D42
100
AcDbEntity
  8
0
100
AcDbLine
 10
6.432999999993513
 20
8.763099999991255
 30
0.0
 11
3.181999999996833
 21
4.668599999995308
 31
0.0
1001
ACAD
1000
ASC_BOUNDS
1002
{
1070
    19
1005
19D85
1002
}
  0
LINE
  5
19D5C
330
19D42
100
AcDbEntity
  8
0
100
AcDbLine
 10
4.617999999995391
 20
8.763099999991255
 30
0.0
 11
1.420999999998571
 21
4.736799999995242
 31
0.0
1001
ACAD
1000
ASC_BOUNDS
1002
{
1070
    19
1005
19D85
1002
}
  0
LINE
  5
19D5D
330
19D42
100
AcDbEntity
  8
0
100
AcDbLine
 10
0.0
 20
8.763099999991255
 30
0.0
 11
1.420999999998571
 21
8.763099999991255
 31
0.0
1001
ACAD
1000
ASC_BOUNDS
1002
{
1070
    19
1005
19D8A
1002
}
  0
LINE
  5
19D5E
330
19D42
100
AcDbEntity
  8
0
100
AcDbLine
 10
4.617999999995391
 20
8.763099999991255
 30
0.0
 11
6.432999999993513
 21
8.763099999991255
 31
0.0
1001
ACAD
1000
ASC_BOUNDS
1002
{
1070
    19
1005
19D85
1002
}
  0
LINE
  5
19D5F
330
19D42
100
AcDbEntity
  8
0
100
AcDbLine
 10
14.32399999998563
 20
3.315799999996671
 30
0.0
 11
12.02999999998792
 21
8.763099999991255
 31
0.0
1001
ACAD
1000
ASC_BOUNDS
1002
{
1070
    19
1005
19D86
1002
}
  0
LINE
  5
19D60
330
19D42
100
AcDbEntity
  8
0
100
AcDbLine
 10
10.06399999998996
 20
3.670999999996297
 30
0.0
 11
9.236999999990758
 21
5.5200999999945
 31
0.0
1001
ACAD
1000
ASC_BOUNDS
1002
{
1070
    19
1005
19D85
1002
}
  0
LINE
  5
19D61
330
19D42
100
AcDbEntity
  8
0
100
AcDbLine
 10
8.409999999991555
 20
3.670999999996297
 30
0.0
 11
9.236999999990758
 21
5.5200999999945
 31
0.0
1001
ACAD
1000
ASC_BOUNDS
1002
{
1070
    19
1005
19D85
1002
}
  0
LINE
  5
19D62
330
19D42
100
AcDbEntity
  8
0
100
AcDbLine
 10
8.409999999991555
 20
3.670999999996297
 30
0.0
 11
10.06399999998996
 21
3.670999999996297
 31
0.0
1001
ACAD
1000
ASC_BOUNDS
1002
{
1070
    19
1005
19D85
1002
}
  0
LINE
  5
19D63
330
19D42
100
AcDbEntity
  8
0
100
AcDbLine
 10
10.53899999998941
 20
8.763099999991255
 30
0.0
 11
12.02999999998792
 21
8.763099999991255
 31
0.0
1001
ACAD
1000
ASC_BOUNDS
1002
{
1070
    19
1005
19D86
1002
}
  0
LINE
  5
19D64
330
19D42
100
AcDbEntity
  8
0
100
AcDbLine
 10
22.7389999999773
 20
3.670999999996297
 30
0.0
 11
23.56599999997638
 21
5.5200999999945
 31
0.0
1001
ACAD
1000
ASC_BOUNDS
1002
{
1070
    19
1005
19D87
1002
}
  0
LINE
  5
19D65
330
19D42
100
AcDbEntity
  8
0
100
AcDbLine
 10
22.7389999999773
 20
3.670999999996297
 30
0.0
 11
24.39299999997559
 21
3.670999999996297
 31
0.0
1001
ACAD
1000
ASC_BOUNDS
1002
{
1070
    19
1005
19D87
1002
}
  0
LINE
  5
19D66
330
19D42
100
AcDbEntity
  8
0
100
AcDbLine
 10
18.59799999998143
 20
3.315799999996671
 30
0.0
 11
20.89099999997916
 21
8.763099999991255
 31
0.0
1001
ACAD
1000
ASC_BOUNDS
1002
{
1070
    19
1005
19D86
1002
}
  0
LINE
  5
19D67
330
19D42
100
AcDbEntity
  8
0
100
AcDbLine
 10
18.59799999998143
 20
3.315799999996671
 30
0.0
 11
16.46099999998353
 21
8.999899999990987
 31
0.0
1001
ACAD
1000
ASC_BOUNDS
1002
{
1070
    19
1005
19D86
1002
}
  0
LINE
  5
19D68
330
19D42
100
AcDbEntity
  8
0
100
AcDbLine
 10
20.89099999997916
 20
8.763099999991255
 30
0.0
 11
22.38199999997767
 21
8.763099999991255
 31
0.0
1001
ACAD
1000
ASC_BOUNDS
1002
{
1070
    19
1005
19D86
1002
}
  0
LINE
  5
19D69
330
19D42
100
AcDbEntity
  8
0
100
AcDbLine
 10
24.39299999997559
 20
3.670999999996297
 30
0.0
 11
23.56599999997638
 21
5.5200999999945
 31
0.0
1001
ACAD
1000
ASC_BOUNDS
1002
{
1070
    19
1005
19D87
1002
}
  0
LINE
  5
19D6A
330
19D42
100
AcDbEntity
  8
0
100
AcDbLine
 10
44.99999999995498
 20
-0.2368999999997641
 30
0.0
 11
40.02599999995994
 21
5.341799999994635
 31
0.0
1001
ACAD
1000
ASC_BOUNDS
1002
{
1070
    19
1005
19D89
1002
}
  0
LINE
  5
19D6B
330
19D42
100
AcDbEntity
  8
0
100
AcDbLine
 10
40.02599999995994
 20
5.341799999994635
 30
0.0
 11
40.02599999995994
 21
0.0
 31
0.0
1001
ACAD
1000
ASC_BOUNDS
1002
{
1070
    19
1005
19D89
1002
}
  0
LINE
  5
19D6C
330
19D42
100
AcDbEntity
  8
0
100
AcDbLine
 10
38.60499999996136
 20
8.999999999991019
 30
0.0
 11
38.60499999996136
 21
0.0
 31
0.0
1001
ACAD
1000
ASC_BOUNDS
1002
{
1070
    19
1005
19D89
1002
}
  0
LINE
  5
19D6D
330
19D42
100
AcDbEntity
  8
0
100
AcDbLine
 10
44.99999999995498
 20
8.763099999991255
 30
0.0
 11
44.99999999995498
 21
-0.2368999999997641
 31
0.0
1001
ACAD
1000
ASC_BOUNDS
1002
{
1070
    19
1005
19D89
1002
}
  0
LINE
  5
19D6E
330
19D42
100
AcDbEntity
  8
0
100
AcDbLine
 10
38.60499999996136
 20
0.0
 30
0.0
 11
40.02599999995994
 21
0.0
 31
0.0
1001
ACAD
1000
ASC_BOUNDS
1002
{
1070
    19
1005
19D89
1002
}
  0
LINE
  5
19D6F
330
19D42
100
AcDbEntity
  8
0
100
AcDbLine
 10
43.57899999995641
 20
3.421199999996588
 30
0.0
 11
38.60499999996136
 21
8.999899999990987
 31
0.0
1001
ACAD
1000
ASC_BOUNDS
1002
{
1070
    19
1005
19D89
1002
}
  0
LINE
  5
19D70
330
19D42
100
AcDbEntity
  8
0
100
AcDbLine
 10
43.57899999995641
 20
8.763099999991255
 30
0.0
 11
43.57899999995641
 21
3.421199999996588
 31
0.0
1001
ACAD
1000
ASC_BOUNDS
1002
{
1070
    19
1005
19D89
1002
}
  0
LINE
  5
19D71
330
19D42
100
AcDbEntity
  8
0
100
AcDbLine
 10
43.57899999995641
 20
8.763099999991255
 30
0.0
 11
44.99999999995498
 21
8.763099999991255
 31
0.0
1001
ACAD
1000
ASC_BOUNDS
1002
{
1070
    19
1005
19D89
1002
}
  0
LINE
  5
19D72
330
19D42
100
AcDbEntity
  8
0
100
AcDbLine
 10
37.67199999996831
 20
8.763099999991255
 30
0.0
 11
36.23199999996837
 21
8.763099999991255
 31
0.0
  0
LINE
  5
19D73
330
19D42
100
AcDbEntity
  8
0
100
AcDbLine
 10
31.64199999996833
 20
8.763099999991255
 30
0.0
 11
31.64199999996833
 21
2.481619422925121
 31
0.0
  0
LINE
  5
19D74
330
19D42
100
AcDbEntity
  8
0
100
AcDbLine
 10
37.67199999996831
 20
8.763099999991255
 30
0.0
 11
37.67199999996831
 21
2.481619422925121
 31
0.0
  0
LINE
  5
19D75
330
19D42
100
AcDbEntity
  8
0
100
AcDbLine
 10
36.23199999996837
 20
8.763099999991255
 30
0.0
 11
36.23199999996837
 21
2.481619422925064
 31
0.0
  0
LINE
  5
19D76
330
19D42
100
AcDbEntity
  8
0
100
AcDbLine
 10
33.08199999996839
 20
8.763099999991255
 30
0.0
 11
33.08199999996839
 21
2.481619422925121
 31
0.0
  0
ARC
  5
19D77
330
19D42
100
AcDbEntity
  8
0
100
AcDbCircle
 10
34.65699999996832
 20
3.183099999991214
 30
0.0
 40
3.420000000000007
100
AcDbArc
 50
240.0000000000255
 51
299.9999999999766
  0
ARC
  5
19D78
330
19D42
100
AcDbEntity
  8
0
100
AcDbCircle
 10
34.65699999996832
 20
3.183099999991214
 30
0.0
 40
1.97999999999999
100
AcDbArc
 50
240.000000000026
 51
299.9999999999703
  0
LINE
  5
19D79
330
19D42
100
AcDbEntity
  8
0
100
AcDbLine
 10
33.08199999996828
 20
8.763099999991255
 30
0.0
 11
31.64199999996833
 21
8.763099999991255
 31
0.0
  0
ARC
  5
19D7A
330
19D42
100
AcDbEntity
  8
0
100
AcDbCircle
 10
35.06199999996829
 20
2.481619422925064
 30
0.0
 40
1.17
100
AcDbArc
 50
299.9999999999699
 51
0.0
  0
ARC
  5
19D7B
330
19D42
100
AcDbEntity
  8
0
100
AcDbCircle
 10
34.25199999996835
 20
2.481619422925121
 30
0.0
 40
1.17
100
AcDbArc
 50
180.0
 51
240.0000000000238
  0
ARC
  5
19D7C
330
19D42
100
AcDbEntity
  8
0
100
AcDbCircle
 10
35.06199999996841
 20
2.481619422925121
 30
0.0
 40
2.61
100
AcDbArc
 50
299.9999999999756
 51
0.0
  0
ARC
  5
19D7D
330
19D42
100
AcDbEntity
  8
0
100
AcDbCircle
 10
34.25199999996835
 20
2.481619422925121
 30
0.0
 40
2.61
100
AcDbArc
 50
180.0
 51
240.0000000000244
  0
LINE
  5
19D7E
330
19D42
100
AcDbEntity
  8
0
100
AcDbLine
 10
29.30199999996933
 20
8.763099999991255
 30
0.0
 11
30.74199999996927
 21
8.763099999991255
 31
0.0
1001
ACAD
1000
ASC_BOUNDS
1002
{
1070
    19
1005
19D87
1002
}
  0
LINE
  5
19D7F
330
19D42
100
AcDbEntity
  8
0
100
AcDbLine
 10
30.74199999996927
 20
8.763099999991255
 30
0.0
 11
30.74199999996927
 21
2.373099999991211
 31
0.0
1001
ACAD
1000
ASC_BOUNDS
1002
{
1070
    19
1005
19D87
1002
}
  0
LINE
  5
19D80
330
19D42
100
AcDbEntity
  8
0
100
AcDbLine
 10
26.02015566812236
 20
0.0330999999912365
 30
0.0
 11
28.40199999996923
 21
0.0330999999912365
 31
0.0
1001
ACAD
1000
ASC_BOUNDS
1002
{
1070
    19
1005
19D87
1002
}
  0
LINE
  5
19D81
330
19D42
100
AcDbEntity
  8
0
100
AcDbLine
 10
29.30199999996933
 20
8.763099999991255
 30
0.0
 11
29.30199999996933
 21
2.283099999991236
 31
0.0
1001
ACAD
1000
ASC_BOUNDS
1002
{
1070
    19
1005
19D87
1002
}
  0
LINE
  5
19D82
330
19D42
100
AcDbEntity
  8
0
100
AcDbLine
 10
26.97358892824991
 20
1.383099999991202
 30
0.0
 11
28.40199999996923
 21
1.383099999991202
 31
0.0
1001
ACAD
1000
ASC_BOUNDS
1002
{
1070
    19
1005
19D87
1002
}
  0
ARC
  5
19D83
330
19D42
100
AcDbEntity
  8
0
100
AcDbCircle
 10
28.40199999996923
 20
2.283099999991236
 30
0.0
 40
0.9
100
AcDbArc
 50
270.0
 51
0.0
1001
ACAD
1000
ASC_BOUNDS
1002
{
1070
    19
1005
19D87
1002
}
  0
ARC
  5
19D84
330
19D42
100
AcDbEntity
  8
0
100
AcDbCircle
 10
28.40199999996923
 20
2.373099999991211
 30
0.0
 40
2.34
100
AcDbArc
 50
270.0
 51
0.0
1001
ACAD
1000
ASC_BOUNDS
1002
{
1070
    19
1005
19D87
1002
}
  0
INSERT
  5
19D85
330
19D42
100
AcDbEntity
  8
0
100
AcDbBlockReference
  2
*X180
 10
0.0
 20
0.0
 30
0.0
1001
ACAD
1000
HATCH
1002
{
1070
    19
1000
ANSI37
1040
0.15
1040
0.0
1000
ASC_BOUNDS
1070
     2
1070
     2
1070
    12
1005
19D44
1005
19D45
1005
19D4C
1005
19D5B
1005
19D5E
1005
19D5C
1005
19D4D
1005
19D52
1005
19D50
1005
19D54
1005
19D53
1005
19D55
1070
     2
1070
     3
1005
19D60
1005
19D62
1005
19D61
1000
ASC_SEEDPOINT
1011
3.614004224891801
1021
2.996669441146025
1031
0.0
1000
R14_HATCH_DATA
1000
19D85
1011
1.0
1021
0.0
1031
0.0
1011
0.0
1021
1.0
1031
0.0
1011
0.0
1021
0.0
1031
1.0
1040
0.0
1010
0.0
1020
0.0
1030
1.0
1000
ANSI37
1070
     0
1070
     1
1071
        2
1071
        7
1070
     0
1070
     1
1071
       17
1040
13.26299999998673
1040
-0.0001000000000317
1040
9.236999999990758
1040
8.999899999990987
1040
9.236999999990758
1040
8.999999999991019
1040
5.657999999994331
1040
0.9999999999989768
1040
3.181999999996833
1040
4.668599999995308
1040
6.432999999993513
1040
8.763099999991255
1040
4.617999999995391
1040
8.763099999991255
1040
1.420999999998571
1040
4.736799999995242
1040
4.617999999995391
1040
-0.0001000000000317
1040
4.617999999995391
1040
0.0
1040
6.766999999993232
1040
0.0
1040
6.766999999993232
1040
-0.0001000000000317
1040
7.826999999992154
1040
2.368399999997621
1040
10.64699999998936
1040
2.368399999997621
1040
11.70599999998831
1040
-0.0001000000000317
1040
11.70599999998831
1040
0.0
1040
13.26299999998673
1040
0.0
1071
       12
1005
19D44
1005
19D45
1005
19D4C
1005
19D5B
1005
19D5E
1005
19D5C
1005
19D4D
1005
19D52
1005
19D50
1005
19D54
1005
19D53
1005
19D55
1071
       22
1070
     0
1070
     1
1071
        3
1040
9.236999999990758
1040
5.5200999999945
1040
10.06399999998996
1040
3.670999999996297
1040
8.409999999991555
1040
3.670999999996297
1071
        3
1005
19D60
1005
19D62
1005
19D61
1070
     0
1070
     1
1040
0.0
1040
0.15
1070
     0
1070
     2
1040
0.7853981633974483
1040
49.29960901727088
1040
-10.17736998311392
1040
-0.3367596045400932
1040
0.3367596045400932
1070
     0
1040
2.356194490192345
1040
49.29960901727088
1040
-10.17736998311392
1040
-0.3367596045400932
1040
-0.3367596045400932
1070
     0
1040
0.0110235143455945
1071
        2
1040
3.614004224891801
1040
2.996669441146025
1040
0.0
1040
3.614004224891801
1040
2.996669441146025
1040
0.0
1002
}
  0
INSERT
  5
19D86
330
19D42
100
AcDbEntity
  8
0
100
AcDbBlockReference
  2
*X181
 10
0.0
 20
0.0
 30
0.0
1001
ACAD
1000
HATCH
1002
{
1070
    19
1000
ANSI37
1040
0.15
1040
0.0
1000
ASC_BOUNDS
1070
     1
1070
     2
1070
    10
1005
19D46
1005
19D47
1005
19D68
1005
19D66
1005
19D67
1005
19D5A
1005
19D5F
1005
19D63
1005
19D49
1005
19D48
1000
ASC_SEEDPOINT
1011
14.73245321214324
1021
2.798246178283421
1031
0.0
1000
R14_HATCH_DATA
1000
19D86
1011
1.0
1021
0.0
1031
0.0
1011
0.0
1021
1.0
1031
0.0
1011
0.0
1021
0.0
1031
1.0
1040
0.0
1010
0.0
1020
0.0
1030
1.0
1000
ANSI37
1070
     0
1070
     1
1071
        1
1071
        7
1070
     0
1070
     1
1071
       10
1040
16.46099999998353
1040
5.432899999994561
1040
18.59199999998134
1040
-0.2368999999997641
1040
22.38199999997767
1040
8.763099999991255
1040
20.89099999997916
1040
8.763099999991255
1040
18.59799999998143
1040
3.315799999996671
1040
16.46099999998353
1040
8.999899999990987
1040
14.32399999998563
1040
3.315799999996671
1040
12.02999999998792
1040
8.763099999991255
1040
10.53899999998941
1040
8.763099999991255
1040
14.32899999998563
1040
-0.2368999999997641
1071
       10
1005
19D46
1005
19D47
1005
19D68
1005
19D66
1005
19D67
1005
19D5A
1005
19D5F
1005
19D63
1005
19D49
1005
19D48
1070
     0
1070
     1
1040
0.0
1040
0.15
1070
     0
1070
     2
1040
0.7853981633974483
1040
49.29960901727088
1040
-10.17736998311392
1040
-0.3367596045400932
1040
0.3367596045400932
1070
     0
1040
2.356194490192345
1040
49.29960901727088
1040
-10.17736998311392
1040
-0.3367596045400932
1040
-0.3367596045400932
1070
     0
1040
0.0110235143455945
1071
        1
1040
14.73245321214324
1040
2.798246178283421
1040
0.0
1002
}
  0
INSERT
  5
19D87
330
19D42
100
AcDbEntity
  8
0
100
AcDbBlockReference
  2
*X182
 10
0.0
 20
0.0
 30
0.0
1001
ACAD
1000
HATCH
1002
{
1070
    19
1000
ANSI37
1040
0.15
1040
0.0
1000
ASC_BOUNDS
1070
     2
1070
     2
1070
    13
1005
19D4A
1005
19D57
1005
19D58
1005
19D56
1005
19D59
1005
19D80
1005
19D84
1005
19D7F
1005
19D7E
1005
19D81
1005
19D83
1005
19D82
1005
19D4B
1070
     2
1070
     3
1005
19D64
1005
19D69
1005
19D65
1000
ASC_SEEDPOINT
1011
21.97929957367762
1021
3.294304244259308
1031
0.0
1000
R14_HATCH_DATA
1000
19D87
1011
1.0
1021
0.0
1031
0.0
1011
0.0
1021
1.0
1031
0.0
1011
0.0
1021
0.0
1031
1.0
1040
0.0
1010
0.0
1020
0.0
1030
1.0
1000
ANSI37
1070
     0
1070
     1
1071
        2
1071
        7
1070
     1
1070
     1
1071
       15
1040
23.56599999997638
1040
8.999899999990987
1040
0.0
1040
19.53899999998043
1040
-0.0001000000000317
1040
0.0
1040
19.53899999998043
1040
0.0
1040
0.0
1040
21.09599999997886
1040
0.0
1040
0.0
1040
21.09599999997886
1040
-0.0001000000000317
1040
0.0
1040
22.15599999997789
1040
2.368399999997621
1040
0.0
1040
24.97599999997499
1040
2.368399999997621
1040
0.0
1040
26.02015566812236
1040
0.0330999999912365
1040
0.0
1040
28.40199999996923
1040
0.0330999999912365
1040
0.414213562373095
1040
30.74199999996923
1040
2.373099999991211
1040
0.0
1040
30.74199999996927
1040
8.763099999991255
1040
0.0
1040
29.30199999996933
1040
8.763099999991255
1040
0.0
1040
29.30199999996933
1040
2.283099999991236
1040
-0.414213562373095
1040
28.40199999996923
1040
1.383099999991237
1040
0.0
1040
26.97358892824991
1040
1.383099999991202
1040
0.0
1071
       13
1005
19D4A
1005
19D57
1005
19D58
1005
19D56
1005
19D59
1005
19D80
1005
19D84
1005
19D7F
1005
19D7E
1005
19D81
1005
19D83
1005
19D82
1005
19D4B
1071
       22
1070
     0
1070
     1
1071
        3
1040
22.7389999999773
1040
3.670999999996297
1040
23.56599999997638
1040
5.5200999999945
1040
24.39299999997559
1040
3.670999999996297
1071
        3
1005
19D64
1005
19D69
1005
19D65
1070
     0
1070
     1
1040
0.0
1040
0.15
1070
     0
1070
     2
1040
0.7853981633974483
1040
49.29960901727088
1040
-10.17736998311392
1040
-0.3367596045400932
1040
0.3367596045400932
1070
     0
1040
2.356194490192345
1040
49.29960901727088
1040
-10.17736998311392
1040
-0.3367596045400932
1040
-0.3367596045400932
1070
     0
1040
0.0110235143455945
1071
        2
1040
21.97929957367762
1040
3.294304244259308
1040
0.0
1040
21.97929957367762
1040
3.294304244259308
1040
0.0
1002
}
  0
INSERT
  5
19D88
330
19D42
100
AcDbEntity
  8
0
100
AcDbBlockReference
  2
*X183
 10
0.0
 20
0.0
 30
0.0
1001
ACAD
1000
HATCH
1002
{
1070
    19
1000
ANSI37
1040
0.15
1040
0.0
1000
R14_HATCH_DATA
1000
19D88
1011
1.0
1021
0.0
1031
0.0
1011
0.0
1021
1.0
1031
0.0
1011
0.0
1021
0.0
1031
1.0
1040
0.0
1010
0.0
1020
0.0
1030
1.0
1000
ANSI37
1070
     0
1070
     1
1071
        1
1071
        7
1070
     1
1070
     1
1071
       12
1040
31.64199999996833
1040
2.481619422925121
1040
0.2679491924310942
1040
32.94699999997067
1040
0.2212931190493919
1040
0.2679491924301353
1040
36.36699999995983
1040
0.2212931190459813
1040
0.2679491924321411
1040
37.67199999996831
1040
2.481619422928361
1040
0.0
1040
37.67199999996831
1040
8.763099999991255
1040
0.0
1040
36.23199999996837
1040
8.763099999991255
1040
0.0
1040
36.23199999996837
1040
2.481619422925064
1040
-0.2679491924310291
1040
35.64699999996708
1040
1.468369700498386
1040
-0.267949192430519
1040
33.66699999997093
1040
1.468369700497703
1040
-0.267949192431809
1040
33.08199999996839
1040
2.481619422926997
1040
0.0
1040
33.08199999996839
1040
8.763099999991255
1040
0.0
1040
31.64199999996833
1040
8.763099999991255
1040
0.0
1071
        0
1070
     0
1070
     1
1040
0.0
1040
0.15
1070
     0
1070
     2
1040
0.7853981633974483
1040
49.29960901727088
1040
-10.17736998311392
1040
-0.3367596045400932
1040
0.3367596045400932
1070
     0
1040
2.356194490192345
1040
49.29960901727088
1040
-10.17736998311392
1040
-0.3367596045400932
1040
-0.3367596045400932
1070
     0
1040
0.0110235143455945
1071
        1
1040
32.30357378967278
1040
3.988785755459219
1040
0.0
1002
}
  0
INSERT
  5
19D89
330
19D42
100
AcDbEntity
  8
0
100
AcDbBlockReference
  2
*X184
 10
0.0
 20
0.0
 30
0.0
1001
ACAD
1000
HATCH
1002
{
1070
    19
1000
ANSI37
1040
0.15
1040
0.0
1000
ASC_BOUNDS
1070
     1
1070
     2
1070
     8
1005
19D6A
1005
19D6D
1005
19D71
1005
19D70
1005
19D6F
1005
19D6C
1005
19D6E
1005
19D6B
1000
ASC_SEEDPOINT
1011
39.74896370716704
1021
4.484843821435049
1031
0.0
1000
R14_HATCH_DATA
1000
19D89
1011
1.0
1021
0.0
1031
0.0
1011
0.0
1021
1.0
1031
0.0
1011
0.0
1021
0.0
1031
1.0
1040
0.0
1010
0.0
1020
0.0
1030
1.0
1000
ANSI37
1070
     0
1070
     1
1071
        1
1071
        7
1070
     0
1070
     1
1071
        9
1040
40.02599999995994
1040
5.341799999994635
1040
44.99999999995498
1040
-0.2368999999997641
1040
44.99999999995498
1040
8.763099999991255
1040
43.57899999995641
1040
8.763099999991255
1040
43.57899999995641
1040
3.421199999996588
1040
38.60499999996136
1040
8.999899999990987
1040
38.60499999996136
1040
8.999999999991019
1040
38.60499999996136
1040
0.0
1040
40.02599999995994
1040
0.0
1071
        8
1005
19D6A
1005
19D6D
1005
19D71
1005
19D70
1005
19D6F
1005
19D6C
1005
19D6E
1005
19D6B
1070
     0
1070
     1
1040
0.0
1040
0.15
1070
     0
1070
     2
1040
0.7853981633974483
1040
49.29960901727088
1040
-10.17736998311392
1040
-0.3367596045400932
1040
0.3367596045400932
1070
     0
1040
2.356194490192345
1040
49.29960901727088
1040
-10.17736998311392
1040
-0.3367596045400932
1040
-0.3367596045400932
1070
     0
1040
0.0110235143455945
1071
        1
1040
39.74896370716704
1040
4.484843821435049
1040
0.0
1002
}
  0
INSERT
  5
19D8A
330
19D42
100
AcDbEntity
  8
0
100
AcDbBlockReference
  2
*X185
 10
0.0
 20
0.0
 30
0.0
1001
ACAD
1000
HATCH
1002
{
1070
    19
1000
ANSI37
1040
0.15
1040
0.0
1000
ASC_BOUNDS
1070
     1
1070
     2
1070
     4
1005
19D4E
1005
19D5D
1005
19D4F
1005
19D51
1000
ASC_SEEDPOINT
1011
1.079051535452663
1021
4.148538732891836
1031
0.0
1000
R14_HATCH_DATA
1000
19D8A
1011
1.0
1021
0.0
1031
0.0
1011
0.0
1021
1.0
1031
0.0
1011
0.0
1021
0.0
1031
1.0
1040
0.0
1010
0.0
1020
0.0
1030
1.0
1000
ANSI37
1070
     0
1070
     1
1071
        1
1071
        7
1070
     0
1070
     1
1071
        4
1040
1.420999999998571
1040
0.0
1040
1.420999999998571
1040
8.763099999991255
1040
0.0
1040
8.763099999991255
1040
0.0
1040
0.0
1071
        4
1005
19D4E
1005
19D5D
1005
19D4F
1005
19D51
1070
     0
1070
     1
1040
0.0
1040
0.15
1070
     0
1070
     2
1040
0.7853981633974483
1040
49.29960901727088
1040
-10.17736998311392
1040
-0.3367596045400932
1040
0.3367596045400932
1070
     0
1040
2.356194490192345
1040
49.29960901727088
1040
-10.17736998311392
1040
-0.3367596045400932
1040
-0.3367596045400932
1070
     0
1040
0.0053004257112761
1071
        1
1040
1.079051535452663
1040
4.148538732891836
1040
0.0
1002
}
  0
ENDBLK
  5
1A551
330
19D42
100
AcDbEntity
  8
0
100
AcDbBlockEnd
  0
BLOCK
  5
1BEA5
330
1BD17
100
AcDbEntity
  8
0
100
AcDbBlockBegin
  2
*X180
 70
     1
 10
0.0
 20
0.0
 30
0.0
  3
*X180
  1

  0
LINE
  5
1BD18
330
1BD17
100
AcDbEntity
  8
0
  6
CONTINUOUS
100
AcDbLine
 10
3.418023043697893
 20
7.251849696850613
 30
0.0
 11
4.929273346838536
 21
8.763099999991255
 31
0.0
  0
LINE
  5
1BD19
330
1BD17
100
AcDbEntity
  8
0
  6
CONTINUOUS
100
AcDbLine
 10
1.483656411257782
 20
4.643963855330318
 30
0.0
 11
5.60279255591872
 21
8.763099999991255
 31
0.0
  0
LINE
  5
1BD1A
330
1BD17
100
AcDbEntity
  8
0
  6
CONTINUOUS
100
AcDbLine
 10
1.755053947328235
 20
4.241842182320584
 30
0.0
 11
6.276311764998907
 21
8.763099999991255
 31
0.0
  0
LINE
  5
1BD1B
330
1BD17
100
AcDbEntity
  8
0
  6
CONTINUOUS
100
AcDbLine
 10
2.026451483398688
 20
3.839720509310849
 30
0.0
 11
4.441040904851878
 21
6.254309930764039
 31
0.0
  0
LINE
  5
1BD1C
330
1BD17
100
AcDbEntity
  8
0
  6
CONTINUOUS
100
AcDbLine
 10
2.297849019469139
 20
3.437598836301114
 30
0.0
 11
3.321765168359338
 21
4.461514985191313
 31
0.0
  0
LINE
  5
1BD1D
330
1BD17
100
AcDbEntity
  8
0
  6
CONTINUOUS
100
AcDbLine
 10
2.569246555539591
 20
3.03547716329138
 30
0.0
 11
3.593163397972743
 21
4.059394005724531
 31
0.0
  0
LINE
  5
1BD1E
330
1BD17
100
AcDbEntity
  8
0
  6
CONTINUOUS
100
AcDbLine
 10
2.840644091610043
 20
2.633355490281646
 30
0.0
 11
3.864561627586149
 21
3.657273026257751
 31
0.0
  0
LINE
  5
1BD1F
330
1BD17
100
AcDbEntity
  8
0
  6
CONTINUOUS
100
AcDbLine
 10
3.112041627680496
 20
2.231233817271911
 30
0.0
 11
4.135959857199554
 21
3.25515204679097
 31
0.0
  0
LINE
  5
1BD20
330
1BD17
100
AcDbEntity
  8
0
  6
CONTINUOUS
100
AcDbLine
 10
3.383439163750948
 20
1.829112144262177
 30
0.0
 11
4.40735808681296
 21
2.853031067324189
 31
0.0
  0
LINE
  5
1BD21
330
1BD17
100
AcDbEntity
  8
0
  6
CONTINUOUS
100
AcDbLine
 10
3.654836699821399
 20
1.426990471252442
 30
0.0
 11
4.678756316426365
 21
2.450910087857407
 31
0.0
  0
LINE
  5
1BD22
330
1BD17
100
AcDbEntity
  8
0
  6
CONTINUOUS
100
AcDbLine
 10
3.926234235891853
 20
1.024868798242709
 30
0.0
 11
4.95015454603977
 21
2.048789108390626
 31
0.0
  0
LINE
  5
1BD23
330
1BD17
100
AcDbEntity
  8
0
  6
CONTINUOUS
100
AcDbLine
 10
4.197631771962304
 20
0.6227471252329737
 30
0.0
 11
5.221552775653176
 21
1.646668128923846
 31
0.0
  0
LINE
  5
1BD24
330
1BD17
100
AcDbEntity
  8
0
  6
CONTINUOUS
100
AcDbLine
 10
8.715877546767851
 20
7.835069736359266
 30
0.0
 11
9.435953450375058
 21
8.555145639966472
 31
0.0
  0
LINE
  5
1BD25
330
1BD17
100
AcDbEntity
  8
0
  6
CONTINUOUS
100
AcDbLine
 10
8.170620868422267
 20
6.616293848933497
 30
0.0
 11
9.644120833743461
 21
8.08979381425469
 31
0.0
  0
LINE
  5
1BD26
330
1BD17
100
AcDbEntity
  8
0
  6
CONTINUOUS
100
AcDbLine
 10
7.625364190076684
 20
5.397517961507727
 30
0.0
 11
9.852288217111864
 21
7.624441988542907
 31
0.0
  0
LINE
  5
1BD27
330
1BD17
100
AcDbEntity
  8
0
  6
CONTINUOUS
100
AcDbLine
 10
7.080107511731101
 20
4.178742074081957
 30
0.0
 11
10.06045560048027
 21
7.159090162831124
 31
0.0
  0
LINE
  5
1BD28
330
1BD17
100
AcDbEntity
  8
0
  6
CONTINUOUS
100
AcDbLine
 10
6.534850833385518
 20
2.959966186656187
 30
0.0
 11
10.26862298384867
 21
6.693738337119342
 31
0.0
  0
LINE
  5
1BD29
330
1BD17
100
AcDbEntity
  8
0
  6
CONTINUOUS
100
AcDbLine
 10
4.469029308032756
 20
0.2206254522232385
 30
0.0
 11
5.492951005266582
 21
1.244547149457064
 31
0.0
  0
LINE
  5
1BD2A
330
1BD17
100
AcDbEntity
  8
0
  6
CONTINUOUS
100
AcDbLine
 10
5.989594155039935
 20
1.741190299230417
 30
0.0
 11
8.806950407233131
 21
4.558546551423613
 31
0.0
  0
LINE
  5
1BD2B
330
1BD17
100
AcDbEntity
  8
0
  6
CONTINUOUS
100
AcDbLine
 10
9.401251593263643
 20
5.152847737454126
 30
0.0
 11
10.47679036721708
 21
6.228386511407559
 31
0.0
  0
LINE
  5
1BD2C
330
1BD17
100
AcDbEntity
  8
0
  6
CONTINUOUS
100
AcDbLine
 10
4.921837203428691
 20
-0.0000858614610131
 30
0.0
 11
8.592923064886001
 21
3.670999999996297
 31
0.0
  0
LINE
  5
1BD2D
330
1BD17
100
AcDbEntity
  8
0
  6
CONTINUOUS
100
AcDbLine
 10
9.609390446785305
 20
4.6874673818956
 30
0.0
 11
10.68495775058548
 21
5.763034685695775
 31
0.0
  0
LINE
  5
1BD2E
330
1BD17
100
AcDbEntity
  8
0
  6
CONTINUOUS
100
AcDbLine
 10
5.595387755019432
 20
-0.0000545189504582
 30
0.0
 11
7.716137258923768
 21
2.120694984953879
 31
0.0
  0
LINE
  5
1BD2F
330
1BD17
100
AcDbEntity
  8
0
  6
CONTINUOUS
100
AcDbLine
 10
6.268938306610172
 20
-0.000023176439905
 30
0.0
 11
7.170485805526503
 21
0.9015243224764267
 31
0.0
  0
LINE
  5
1BD30
330
1BD17
100
AcDbEntity
  8
0
  6
CONTINUOUS
100
AcDbLine
 10
7.963842273967511
 20
2.368399999997621
 30
0.0
 11
9.266442273966188
 21
3.670999999996297
 31
0.0
  0
LINE
  5
1BD31
330
1BD17
100
AcDbEntity
  8
0
  6
CONTINUOUS
100
AcDbLine
 10
8.637361483047696
 20
2.368399999997621
 30
0.0
 11
9.939961483046375
 21
3.670999999996297
 31
0.0
  0
LINE
  5
1BD32
330
1BD17
100
AcDbEntity
  8
0
  6
CONTINUOUS
100
AcDbLine
 10
9.817529300306965
 20
4.222087026337075
 30
0.0
 11
10.89312513395388
 21
5.297682859983993
 31
0.0
  0
LINE
  5
1BD33
330
1BD17
100
AcDbEntity
  8
0
  6
CONTINUOUS
100
AcDbLine
 10
10.02566815382863
 20
3.756706670778549
 30
0.0
 11
11.10129251732229
 21
4.832331034272211
 31
0.0
  0
LINE
  5
1BD34
330
1BD17
100
AcDbEntity
  8
0
  6
CONTINUOUS
100
AcDbLine
 10
9.310880692127883
 20
2.368399999997621
 30
0.0
 11
11.30945990069069
 21
4.366979208560428
 31
0.0
  0
LINE
  5
1BD35
330
1BD17
100
AcDbEntity
  8
0
  6
CONTINUOUS
100
AcDbLine
 10
9.98439990120807
 20
2.36839999999762
 30
0.0
 11
11.5176272840591
 21
3.901627382848645
 31
0.0
  0
LINE
  5
1BD36
330
1BD17
100
AcDbEntity
  8
0
  6
CONTINUOUS
100
AcDbLine
 10
10.65037369446246
 20
2.36085458417182
 30
0.0
 11
11.7257946674275
 21
3.436275557136862
 31
0.0
  0
LINE
  5
1BD37
330
1BD17
100
AcDbEntity
  8
0
  6
CONTINUOUS
100
AcDbLine
 10
10.85847197087848
 20
1.895433651507656
 30
0.0
 11
11.9339620507959
 21
2.97092373142508
 31
0.0
  0
LINE
  5
1BD38
330
1BD17
100
AcDbEntity
  8
0
  6
CONTINUOUS
100
AcDbLine
 10
11.0665702472945
 20
1.430012718843491
 30
0.0
 11
12.14212943416431
 21
2.505571905713296
 31
0.0
  0
LINE
  5
1BD39
330
1BD17
100
AcDbEntity
  8
0
  6
CONTINUOUS
100
AcDbLine
 10
11.27466852371052
 20
0.9645917861793256
 30
0.0
 11
12.35029681753271
 21
2.040220080001513
 31
0.0
  0
LINE
  5
1BD3A
330
1BD17
100
AcDbEntity
  8
0
  6
CONTINUOUS
100
AcDbLine
 10
11.48276680012654
 20
0.4991708535151611
 30
0.0
 11
12.55846420090111
 21
1.57486825428973
 31
0.0
  0
LINE
  5
1BD3B
330
1BD17
100
AcDbEntity
  8
0
  6
CONTINUOUS
100
AcDbLine
 10
11.69086507654257
 20
0.0337499208509957
 30
0.0
 11
12.76663158426952
 21
1.109516428577947
 31
0.0
  0
LINE
  5
1BD3C
330
1BD17
100
AcDbEntity
  8
0
  6
CONTINUOUS
100
AcDbLine
 10
12.33057447873954
 20
-0.0000598860322123
 30
0.0
 11
12.97479896763792
 21
0.6441646028661663
 31
0.0
  0
LINE
  5
1BD3D
330
1BD17
100
AcDbEntity
  8
0
  6
CONTINUOUS
100
AcDbLine
 10
13.00413694809395
 20
-0.0000166257579952
 30
0.0
 11
13.18296635100632
 21
0.1788127771543824
 31
0.0
  0
LINE
  5
1BD3E
330
1BD17
100
AcDbEntity
  8
0
  6
CONTINUOUS
100
AcDbLine
 10
4.772852165289667
 20
-0.000092794222212
 30
0.0
 11
4.296495091028902
 21
0.4762642800385528
 31
0.0
  0
LINE
  5
1BD3F
330
1BD17
100
AcDbEntity
  8
0
  6
CONTINUOUS
100
AcDbLine
 10
5.446340034776103
 20
-0.0000614546284616
 30
0.0
 11
2.898195908335625
 21
2.548082671812017
 31
0.0
  0
LINE
  5
1BD40
330
1BD17
100
AcDbEntity
  8
0
  6
CONTINUOUS
100
AcDbLine
 10
6.119827904262539
 20
-0.0000301150347113
 30
0.0
 11
1.499896725642348
 21
4.61990106358548
 31
0.0
  0
LINE
  5
1BD41
330
1BD17
100
AcDbEntity
  8
0
  6
CONTINUOUS
100
AcDbLine
 10
6.775136745476159
 20
0.0181802528318542
 30
0.0
 11
5.699826040202669
 21
1.093490958105344
 31
0.0
  0
LINE
  5
1BD42
330
1BD17
100
AcDbEntity
  8
0
  6
CONTINUOUS
100
AcDbLine
 10
6.983376846288489
 20
0.4834593610997118
 30
0.0
 11
5.908008617934405
 21
1.558827589453796
 31
0.0
  0
LINE
  5
1BD43
330
1BD17
100
AcDbEntity
  8
0
  6
CONTINUOUS
100
AcDbLine
 10
5.377063484962296
 20
1.416253513345719
 30
0.0
 11
1.702276957014131
 21
5.091040041293883
 31
0.0
  0
LINE
  5
1BD44
330
1BD17
100
AcDbEntity
  8
0
  6
CONTINUOUS
100
AcDbLine
 10
3.978745891735324
 20
3.488090315652877
 30
0.0
 11
2.000373521109399
 21
5.466462686278803
 31
0.0
  0
LINE
  5
1BD45
330
1BD17
100
AcDbEntity
  8
0
  6
CONTINUOUS
100
AcDbLine
 10
7.191616947100819
 20
0.948738469367568
 30
0.0
 11
6.11619119566614
 21
2.024164220802247
 31
0.0
  0
LINE
  5
1BD46
330
1BD17
100
AcDbEntity
  8
0
  6
CONTINUOUS
100
AcDbLine
 10
7.399857047913149
 20
1.414017577635424
 30
0.0
 11
6.324373773397875
 21
2.489500852150698
 31
0.0
  0
LINE
  5
1BD47
330
1BD17
100
AcDbEntity
  8
0
  6
CONTINUOUS
100
AcDbLine
 10
7.608097148725479
 20
1.879296685903281
 30
0.0
 11
6.53255635112961
 21
2.95483748349915
 31
0.0
  0
LINE
  5
1BD48
330
1BD17
100
AcDbEntity
  8
0
  6
CONTINUOUS
100
AcDbLine
 10
7.816337249537808
 20
2.344575794171138
 30
0.0
 11
6.740738928861345
 21
3.420174114847601
 31
0.0
  0
LINE
  5
1BD49
330
1BD17
100
AcDbEntity
  8
0
  6
CONTINUOUS
100
AcDbLine
 10
3.310241080789734
 20
4.830114335678653
 30
0.0
 11
2.298470085204666
 21
5.84188533126372
 31
0.0
  0
LINE
  5
1BD4A
330
1BD17
100
AcDbEntity
  8
0
  6
CONTINUOUS
100
AcDbLine
 10
3.60832983563551
 20
5.205544789913063
 30
0.0
 11
2.596566649299935
 21
6.217307976248638
 31
0.0
  0
LINE
  5
1BD4B
330
1BD17
100
AcDbEntity
  8
0
  6
CONTINUOUS
100
AcDbLine
 10
3.906418590481286
 20
5.580975244147473
 30
0.0
 11
2.894663213395203
 21
6.592730621233557
 31
0.0
  0
LINE
  5
1BD4C
330
1BD17
100
AcDbEntity
  8
0
  6
CONTINUOUS
100
AcDbLine
 10
4.204507345327062
 20
5.956405698381884
 30
0.0
 11
3.192759777490472
 21
6.968153266218474
 31
0.0
  0
LINE
  5
1BD4D
330
1BD17
100
AcDbEntity
  8
0
  6
CONTINUOUS
100
AcDbLine
 10
8.466032252791512
 20
2.368399999997621
 30
0.0
 11
6.948921506593081
 21
3.885510746196053
 31
0.0
  0
LINE
  5
1BD4E
330
1BD17
100
AcDbEntity
  8
0
  6
CONTINUOUS
100
AcDbLine
 10
9.139551461871699
 20
2.36839999999762
 30
0.0
 11
7.157104084324816
 21
4.350847377544504
 31
0.0
  0
LINE
  5
1BD4F
330
1BD17
100
AcDbEntity
  8
0
  6
CONTINUOUS
100
AcDbLine
 10
4.502596100172839
 20
6.331836152616295
 30
0.0
 11
3.49085634158574
 21
7.343575911203393
 31
0.0
  0
LINE
  5
1BD50
330
1BD17
100
AcDbEntity
  8
0
  6
CONTINUOUS
100
AcDbLine
 10
4.800684855018615
 20
6.707266606850705
 30
0.0
 11
3.788952905681008
 21
7.718998556188312
 31
0.0
  0
LINE
  5
1BD51
330
1BD17
100
AcDbEntity
  8
0
  6
CONTINUOUS
100
AcDbLine
 10
12.18154012887317
 20
-0.0000694579236642
 30
0.0
 11
11.32140332908496
 21
0.8600673418645499
 31
0.0
  0
LINE
  5
1BD52
330
1BD17
100
AcDbEntity
  8
0
  6
CONTINUOUS
100
AcDbLine
 10
12.85501608323566
 20
-0.0000262032059659
 30
0.0
 11
10.77672456435345
 21
2.078265315676246
 31
0.0
  0
LINE
  5
1BD53
330
1BD17
100
AcDbEntity
  8
0
  6
CONTINUOUS
100
AcDbLine
 10
9.813070670951886
 20
2.36839999999762
 30
0.0
 11
8.51047067095321
 21
3.670999999996297
 31
0.0
  0
LINE
  5
1BD54
330
1BD17
100
AcDbEntity
  8
0
  6
CONTINUOUS
100
AcDbLine
 10
10.48658988003207
 20
2.36839999999762
 30
0.0
 11
9.183989880033396
 21
3.670999999996297
 31
0.0
  0
LINE
  5
1BD55
330
1BD17
100
AcDbEntity
  8
0
  6
CONTINUOUS
100
AcDbLine
 10
8.441048632286794
 20
3.740422038662712
 30
0.0
 11
7.365286662056551
 21
4.816184008892956
 31
0.0
  0
LINE
  5
1BD56
330
1BD17
100
AcDbEntity
  8
0
  6
CONTINUOUS
100
AcDbLine
 10
8.649187485808454
 20
4.205802394221237
 30
0.0
 11
7.573469239788285
 21
5.281520640241407
 31
0.0
  0
LINE
  5
1BD57
330
1BD17
100
AcDbEntity
  8
0
  6
CONTINUOUS
100
AcDbLine
 10
5.098773609864391
 20
7.082697061085115
 30
0.0
 11
4.087049469776277
 21
8.09442120117323
 31
0.0
  0
LINE
  5
1BD58
330
1BD17
100
AcDbEntity
  8
0
  6
CONTINUOUS
100
AcDbLine
 10
5.396862364710167
 20
7.458127515319526
 30
0.0
 11
4.385146033871544
 21
8.469843846158149
 31
0.0
  0
LINE
  5
1BD59
330
1BD17
100
AcDbEntity
  8
0
  6
CONTINUOUS
100
AcDbLine
 10
13.04801363231285
 20
0.4804954567970334
 30
0.0
 11
9.85750908911358
 21
3.670999999996297
 31
0.0
  0
LINE
  5
1BD5A
330
1BD17
100
AcDbEntity
  8
0
  6
CONTINUOUS
100
AcDbLine
 10
8.857326339330116
 20
4.671182749779763
 30
0.0
 11
7.781651817520021
 21
5.746857271589858
 31
0.0
  0
LINE
  5
1BD5B
330
1BD17
100
AcDbEntity
  8
0
  6
CONTINUOUS
100
AcDbLine
 10
5.694951119555943
 20
7.833557969553937
 30
0.0
 11
4.765409089118624
 21
8.763099999991255
 31
0.0
  0
LINE
  5
1BD5C
330
1BD17
100
AcDbEntity
  8
0
  6
CONTINUOUS
100
AcDbLine
 10
12.50286117236978
 20
1.699167125820288
 30
0.0
 11
9.68611877250287
 21
4.515909525687196
 31
0.0
  0
LINE
  5
1BD5D
330
1BD17
100
AcDbEntity
  8
0
  6
CONTINUOUS
100
AcDbLine
 10
9.065465192851777
 20
5.136563105338288
 30
0.0
 11
7.989834395251757
 21
6.21219390293831
 31
0.0
  0
LINE
  5
1BD5E
330
1BD17
100
AcDbEntity
  8
0
  6
CONTINUOUS
100
AcDbLine
 10
5.993039874401719
 20
8.208988423788346
 30
0.0
 11
5.43892829819881
 21
8.763099999991255
 31
0.0
  0
LINE
  5
1BD5F
330
1BD17
100
AcDbEntity
  8
0
  6
CONTINUOUS
100
AcDbLine
 10
11.95770871242671
 20
2.917838794843543
 30
0.0
 11
8.19801697298349
 21
6.677530534286761
 31
0.0
  0
LINE
  5
1BD60
330
1BD17
100
AcDbEntity
  8
0
  6
CONTINUOUS
100
AcDbLine
 10
6.291128629247495
 20
8.584418878022756
 30
0.0
 11
6.112447507278997
 21
8.763099999991255
 31
0.0
  0
LINE
  5
1BD61
330
1BD17
100
AcDbEntity
  8
0
  6
CONTINUOUS
100
AcDbLine
 10
11.41255625248364
 20
4.136510463866797
 30
0.0
 11
8.406199550715227
 21
7.142867165635211
 31
0.0
  0
LINE
  5
1BD62
330
1BD17
100
AcDbEntity
  8
0
  6
CONTINUOUS
100
AcDbLine
 10
10.86740379254057
 20
5.355182132890051
 30
0.0
 11
8.614382128446962
 21
7.608203796983664
 31
0.0
  0
LINE
  5
1BD63
330
1BD17
100
AcDbEntity
  8
0
  6
CONTINUOUS
100
AcDbLine
 10
10.3222513325975
 20
6.573853801913305
 30
0.0
 11
8.822564706178696
 21
8.073540428332114
 31
0.0
  0
LINE
  5
1BD64
330
1BD17
100
AcDbEntity
  8
0
  6
CONTINUOUS
100
AcDbLine
 10
9.777098872654436
 20
7.792525470936562
 30
0.0
 11
9.030747283910433
 21
8.538877059680566
 31
0.0
  0
ENDBLK
  5
1BEA6
330
1BD17
100
AcDbEntity
  8
0
100
AcDbBlockEnd
  0
BLOCK
  5
1BEA7
330
1BD65
100
AcDbEntity
  8
0
100
AcDbBlockBegin
  2
*X181
 70
     1
 10
0.0
 20
0.0
 30
0.0
  3
*X181
  1

  0
LINE
  5
1BD66
330
1BD65
100
AcDbEntity
  8
0
  6
CONTINUOUS
100
AcDbLine
 10
10.67292308101235
 20
8.445076852443387
 30
0.0
 11
10.99094622856022
 21
8.763099999991255
 31
0.0
  0
LINE
  5
1BD67
330
1BD65
100
AcDbEntity
  8
0
  6
CONTINUOUS
100
AcDbLine
 10
10.87250383178748
 20
7.971138394138331
 30
0.0
 11
11.6644654376404
 21
8.763099999991255
 31
0.0
  0
LINE
  5
1BD68
330
1BD65
100
AcDbEntity
  8
0
  6
CONTINUOUS
100
AcDbLine
 10
11.07208458256261
 20
7.497199935833273
 30
0.0
 11
12.12126590876355
 21
8.546381262034211
 31
0.0
  0
LINE
  5
1BD69
330
1BD65
100
AcDbEntity
  8
0
  6
CONTINUOUS
100
AcDbLine
 10
11.27166533333774
 20
7.023261477528216
 30
0.0
 11
12.32085164573666
 21
8.072447789927136
 31
0.0
  0
LINE
  5
1BD6A
330
1BD65
100
AcDbEntity
  8
0
  6
CONTINUOUS
100
AcDbLine
 10
11.47124608411287
 20
6.549323019223158
 30
0.0
 11
12.52043738270977
 21
7.59851431782006
 31
0.0
  0
LINE
  5
1BD6B
330
1BD65
100
AcDbEntity
  8
0
  6
CONTINUOUS
100
AcDbLine
 10
11.670826834888
 20
6.075384560918101
 30
0.0
 11
12.72002311968288
 21
7.124580845712984
 31
0.0
  0
LINE
  5
1BD6C
330
1BD65
100
AcDbEntity
  8
0
  6
CONTINUOUS
100
AcDbLine
 10
11.87040758566313
 20
5.601446102613043
 30
0.0
 11
12.91960885665599
 21
6.650647373605907
 31
0.0
  0
LINE
  5
1BD6D
330
1BD65
100
AcDbEntity
  8
0
  6
CONTINUOUS
100
AcDbLine
 10
12.06998833643825
 20
5.127507644307986
 30
0.0
 11
13.1191945936291
 21
6.176713901498832
 31
0.0
  0
LINE
  5
1BD6E
330
1BD65
100
AcDbEntity
  8
0
  6
CONTINUOUS
100
AcDbLine
 10
12.26956908721338
 20
4.65356918600293
 30
0.0
 11
13.31878033060221
 21
5.702780429391757
 31
0.0
  0
LINE
  5
1BD6F
330
1BD65
100
AcDbEntity
  8
0
  6
CONTINUOUS
100
AcDbLine
 10
12.46914983798851
 20
4.179630727697873
 30
0.0
 11
13.51836606757532
 21
5.228846957284683
 31
0.0
  0
LINE
  5
1BD70
330
1BD65
100
AcDbEntity
  8
0
  6
CONTINUOUS
100
AcDbLine
 10
12.66873058876364
 20
3.705692269392816
 30
0.0
 11
13.71795180454843
 21
4.754913485177607
 31
0.0
  0
LINE
  5
1BD71
330
1BD65
100
AcDbEntity
  8
0
  6
CONTINUOUS
100
AcDbLine
 10
12.86831133953877
 20
3.231753811087759
 30
0.0
 11
13.91753754152154
 21
4.280980013070531
 31
0.0
  0
LINE
  5
1BD72
330
1BD65
100
AcDbEntity
  8
0
  6
CONTINUOUS
100
AcDbLine
 10
13.0678920903139
 20
2.757815352782702
 30
0.0
 11
14.11712327849465
 21
3.807046540963456
 31
0.0
  0
LINE
  5
1BD73
330
1BD65
100
AcDbEntity
  8
0
  6
CONTINUOUS
100
AcDbLine
 10
13.26747284108903
 20
2.283876894477644
 30
0.0
 11
14.31670901546777
 21
3.333113068856379
 31
0.0
  0
LINE
  5
1BD74
330
1BD65
100
AcDbEntity
  8
0
  6
CONTINUOUS
100
AcDbLine
 10
16.36767838827179
 20
8.751678487061342
 30
0.0
 11
16.50332410898388
 21
8.887324207773432
 31
0.0
  0
LINE
  5
1BD75
330
1BD65
100
AcDbEntity
  8
0
  6
CONTINUOUS
100
AcDbLine
 10
15.96190732182191
 20
7.67238821153127
 30
0.0
 11
16.68735328004734
 21
8.397834169756699
 31
0.0
  0
LINE
  5
1BD76
330
1BD65
100
AcDbEntity
  8
0
  6
CONTINUOUS
100
AcDbLine
 10
15.55613625537202
 20
6.593097936001196
 30
0.0
 11
16.87138245111079
 21
7.908344131739965
 31
0.0
  0
LINE
  5
1BD77
330
1BD65
100
AcDbEntity
  8
0
  6
CONTINUOUS
100
AcDbLine
 10
15.15036518892213
 20
5.513807660471122
 30
0.0
 11
17.05541162217424
 21
7.418854093723231
 31
0.0
  0
LINE
  5
1BD78
330
1BD65
100
AcDbEntity
  8
0
  6
CONTINUOUS
100
AcDbLine
 10
14.74459412247225
 20
4.434517384941048
 30
0.0
 11
17.2394407932377
 21
6.929364055706499
 31
0.0
  0
LINE
  5
1BD79
330
1BD65
100
AcDbEntity
  8
0
  6
CONTINUOUS
100
AcDbLine
 10
14.33882305602236
 20
3.355227109410975
 30
0.0
 11
17.42346996430115
 21
6.439874017689766
 31
0.0
  0
LINE
  5
1BD7A
330
1BD65
100
AcDbEntity
  8
0
  6
CONTINUOUS
100
AcDbLine
 10
13.46705359186416
 20
1.809938436172586
 30
0.0
 11
16.0819338255367
 21
4.424818669845129
 31
0.0
  0
LINE
  5
1BD7B
330
1BD65
100
AcDbEntity
  8
0
  6
CONTINUOUS
100
AcDbLine
 10
16.63283254238972
 20
4.975717386698149
 30
0.0
 11
17.60749913536461
 21
5.950383979673033
 31
0.0
  0
LINE
  5
1BD7C
330
1BD65
100
AcDbEntity
  8
0
  6
CONTINUOUS
100
AcDbLine
 10
13.66663434263929
 20
1.335999977867529
 30
0.0
 11
15.67604797733754
 21
3.345413612565779
 31
0.0
  0
LINE
  5
1BD7D
330
1BD65
100
AcDbEntity
  8
0
  6
CONTINUOUS
100
AcDbLine
 10
13.86621509341442
 20
0.8620615195624723
 30
0.0
 11
15.27016212913838
 21
2.26600855528643
 31
0.0
  0
LINE
  5
1BD7E
330
1BD65
100
AcDbEntity
  8
0
  6
CONTINUOUS
100
AcDbLine
 10
16.81682257348267
 20
4.486188208710908
 30
0.0
 11
17.79152830642806
 21
5.460893941656299
 31
0.0
  0
LINE
  5
1BD7F
330
1BD65
100
AcDbEntity
  8
0
  6
CONTINUOUS
100
AcDbLine
 10
17.00081260457561
 20
3.996659030723667
 30
0.0
 11
17.97555747749151
 21
4.971403903639565
 31
0.0
  0
LINE
  5
1BD80
330
1BD65
100
AcDbEntity
  8
0
  6
CONTINUOUS
100
AcDbLine
 10
20.74362343514722
 20
8.412989070375462
 30
0.0
 11
21.09373436476302
 21
8.763099999991256
 31
0.0
  0
LINE
  5
1BD81
330
1BD65
100
AcDbEntity
  8
0
  6
CONTINUOUS
100
AcDbLine
 10
20.25401257174777
 20
7.249858997895826
 30
0.0
 11
21.7672535738432
 21
8.763099999991255
 31
0.0
  0
LINE
  5
1BD82
330
1BD65
100
AcDbEntity
  8
0
  6
CONTINUOUS
100
AcDbLine
 10
14.06579584418955
 20
0.3881230612574149
 30
0.0
 11
14.86427628093921
 21
1.186603498007082
 31
0.0
  0
LINE
  5
1BD83
330
1BD65
100
AcDbEntity
  8
0
  6
CONTINUOUS
100
AcDbLine
 10
14.26537659496467
 20
-0.0858153970476412
 30
0.0
 11
14.45839043274005
 21
0.1071984407277329
 31
0.0
  0
LINE
  5
1BD84
330
1BD65
100
AcDbEntity
  8
0
  6
CONTINUOUS
100
AcDbLine
 10
17.18480263566856
 20
3.507129852736426
 30
0.0
 11
18.15958664855496
 21
4.481913865622833
 31
0.0
  0
LINE
  5
1BD85
330
1BD65
100
AcDbEntity
  8
0
  6
CONTINUOUS
100
AcDbLine
 10
17.3687926667615
 20
3.017600674749186
 30
0.0
 11
18.34361581961842
 21
3.9924238276061
 31
0.0
  0
LINE
  5
1BD86
330
1BD65
100
AcDbEntity
  8
0
  6
CONTINUOUS
100
AcDbLine
 10
19.76440170834832
 20
6.086728925416191
 30
0.0
 11
22.33924590259489
 21
8.661573119662755
 31
0.0
  0
LINE
  5
1BD87
330
1BD65
100
AcDbEntity
  8
0
  6
CONTINUOUS
100
AcDbLine
 10
19.27479084494887
 20
4.923598852936555
 30
0.0
 11
21.84929622842713
 21
7.498104236414807
 31
0.0
  0
LINE
  5
1BD88
330
1BD65
100
AcDbEntity
  8
0
  6
CONTINUOUS
100
AcDbLine
 10
17.55278269785445
 20
2.528071496761945
 30
0.0
 11
18.52764499068187
 21
3.502933789589366
 31
0.0
  0
LINE
  5
1BD89
330
1BD65
100
AcDbEntity
  8
0
  6
CONTINUOUS
100
AcDbLine
 10
18.78517998154942
 20
3.760468780456919
 30
0.0
 11
21.35934655425936
 21
6.33463535316686
 31
0.0
  0
LINE
  5
1BD8A
330
1BD65
100
AcDbEntity
  8
0
  6
CONTINUOUS
100
AcDbLine
 10
17.73677272894739
 20
2.038542318774704
 30
0.0
 11
20.8693968800916
 21
5.171166469918914
 31
0.0
  0
LINE
  5
1BD8B
330
1BD65
100
AcDbEntity
  8
0
  6
CONTINUOUS
100
AcDbLine
 10
17.92076276004034
 20
1.549013140787464
 30
0.0
 11
20.37944720592384
 21
4.007697586670968
 31
0.0
  0
LINE
  5
1BD8C
330
1BD65
100
AcDbEntity
  8
0
  6
CONTINUOUS
100
AcDbLine
 10
18.10475279113329
 20
1.059483962800223
 30
0.0
 11
19.88949753175608
 21
2.84422870342302
 31
0.0
  0
LINE
  5
1BD8D
330
1BD65
100
AcDbEntity
  8
0
  6
CONTINUOUS
100
AcDbLine
 10
18.28874282222623
 20
0.5699547848129822
 30
0.0
 11
19.39954785758832
 21
1.680759820175074
 31
0.0
  0
LINE
  5
1BD8E
330
1BD65
100
AcDbEntity
  8
0
  6
CONTINUOUS
100
AcDbLine
 10
18.47273285331918
 20
0.0804256068257416
 30
0.0
 11
18.90959818342056
 21
0.517290936927127
 31
0.0
  0
LINE
  5
1BD8F
330
1BD65
100
AcDbEntity
  8
0
  6
CONTINUOUS
100
AcDbLine
 10
14.3590401358224
 20
-0.1570118376323384
 30
0.0
 11
14.24903296539946
 21
-0.0470046672093929
 31
0.0
  0
LINE
  5
1BD90
330
1BD65
100
AcDbEntity
  8
0
  6
CONTINUOUS
100
AcDbLine
 10
14.54309291258661
 20
0.332454594683643
 30
0.0
 11
13.75908329123172
 21
1.116464216038529
 31
0.0
  0
LINE
  5
1BD91
330
1BD65
100
AcDbEntity
  8
0
  6
CONTINUOUS
100
AcDbLine
 10
14.72714568935081
 20
0.8219210269996244
 30
0.0
 11
13.26913361706399
 21
2.27993309928645
 31
0.0
  0
LINE
  5
1BD92
330
1BD65
100
AcDbEntity
  8
0
  6
CONTINUOUS
100
AcDbLine
 10
14.91119846611502
 20
1.311387459315606
 30
0.0
 11
12.77918394289625
 21
3.443401982534371
 31
0.0
  0
LINE
  5
1BD93
330
1BD65
100
AcDbEntity
  8
0
  6
CONTINUOUS
100
AcDbLine
 10
15.09525124287922
 20
1.800853891631587
 30
0.0
 11
12.28923426872852
 21
4.606870865782293
 31
0.0
  0
LINE
  5
1BD94
330
1BD65
100
AcDbEntity
  8
0
  6
CONTINUOUS
100
AcDbLine
 10
15.27930401964343
 20
2.290320323947569
 30
0.0
 11
11.79928459456078
 21
5.770339749030213
 31
0.0
  0
LINE
  5
1BD95
330
1BD65
100
AcDbEntity
  8
0
  6
CONTINUOUS
100
AcDbLine
 10
15.46335679640763
 20
2.77978675626355
 30
0.0
 11
14.48885470994921
 21
3.754288842721972
 31
0.0
  0
LINE
  5
1BD96
330
1BD65
100
AcDbEntity
  8
0
  6
CONTINUOUS
100
AcDbLine
 10
13.88507249233704
 20
4.358071060334137
 30
0.0
 11
11.30933492039305
 21
6.933808632278135
 31
0.0
  0
LINE
  5
1BD97
330
1BD65
100
AcDbEntity
  8
0
  6
CONTINUOUS
100
AcDbLine
 10
18.75840522805855
 20
0.1582575336928151
 30
0.0
 11
18.25383727664818
 21
0.6628254851031863
 31
0.0
  0
LINE
  5
1BD98
330
1BD65
100
AcDbEntity
  8
0
  6
CONTINUOUS
100
AcDbLine
 10
15.64740957317184
 20
3.269253188579531
 30
0.0
 11
14.67288388101266
 21
4.243778880738705
 31
0.0
  0
LINE
  5
1BD99
330
1BD65
100
AcDbEntity
  8
0
  6
CONTINUOUS
100
AcDbLine
 10
13.39509276772158
 20
5.521569994029786
 30
0.0
 11
10.81938524622531
 21
8.097277515526056
 31
0.0
  0
LINE
  5
1BD9A
330
1BD65
100
AcDbEntity
  8
0
  6
CONTINUOUS
100
AcDbLine
 10
18.95798597883369
 20
0.6321959919978686
 30
0.0
 11
17.84825644852853
 21
1.741925522303024
 31
0.0
  0
LINE
  5
1BD9B
330
1BD65
100
AcDbEntity
  8
0
  6
CONTINUOUS
100
AcDbLine
 10
19.15756672960882
 20
1.106134450302922
 30
0.0
 11
17.44267562040888
 21
2.821025559502861
 31
0.0
  0
LINE
  5
1BD9C
330
1BD65
100
AcDbEntity
  8
0
  6
CONTINUOUS
100
AcDbLine
 10
15.83146234993604
 20
3.758719620895513
 30
0.0
 11
14.85691305207612
 21
4.733268918755439
 31
0.0
  0
LINE
  5
1BD9D
330
1BD65
100
AcDbEntity
  8
0
  6
CONTINUOUS
100
AcDbLine
 10
16.01551512670025
 20
4.248186053211494
 30
0.0
 11
15.04094222313957
 21
5.222758956772172
 31
0.0
  0
LINE
  5
1BD9E
330
1BD65
100
AcDbEntity
  8
0
  6
CONTINUOUS
100
AcDbLine
 10
12.90511304310612
 20
6.685068927725435
 30
0.0
 11
10.8270819708403
 21
8.763099999991255
 31
0.0
  0
LINE
  5
1BD9F
330
1BD65
100
AcDbEntity
  8
0
  6
CONTINUOUS
100
AcDbLine
 10
12.41513331849066
 20
7.848567861421083
 30
0.0
 11
11.50060117992049
 21
8.763099999991255
 31
0.0
  0
LINE
  5
1BDA0
330
1BD65
100
AcDbEntity
  8
0
  6
CONTINUOUS
100
AcDbLine
 10
19.35714748038395
 20
1.580072908607975
 30
0.0
 11
17.03709479228923
 21
3.900125596702697
 31
0.0
  0
LINE
  5
1BDA1
330
1BD65
100
AcDbEntity
  8
0
  6
CONTINUOUS
100
AcDbLine
 10
19.55672823115909
 20
2.054011366913028
 30
0.0
 11
16.63151396416958
 21
4.979225633902534
 31
0.0
  0
LINE
  5
1BDA2
330
1BD65
100
AcDbEntity
  8
0
  6
CONTINUOUS
100
AcDbLine
 10
16.19956790346445
 20
4.737652485527476
 30
0.0
 11
15.22497139420302
 21
5.712248994788904
 31
0.0
  0
LINE
  5
1BDA3
330
1BD65
100
AcDbEntity
  8
0
  6
CONTINUOUS
100
AcDbLine
 10
16.38362068022866
 20
5.227118917843457
 30
0.0
 11
15.40900056526648
 21
6.201739032805637
 31
0.0
  0
LINE
  5
1BDA4
330
1BD65
100
AcDbEntity
  8
0
  6
CONTINUOUS
100
AcDbLine
 10
19.75630898193422
 20
2.527949825218081
 30
0.0
 11
18.70774536448286
 21
3.576513442669441
 31
0.0
  0
LINE
  5
1BDA5
330
1BD65
100
AcDbEntity
  8
0
  6
CONTINUOUS
100
AcDbLine
 10
19.95588973270936
 20
3.001888283523134
 30
0.0
 11
18.90726987211446
 21
4.050508144118028
 31
0.0
  0
LINE
  5
1BDA6
330
1BD65
100
AcDbEntity
  8
0
  6
CONTINUOUS
100
AcDbLine
 10
20.15547048348449
 20
3.475826741828186
 30
0.0
 11
19.10679437974606
 21
4.524502845566614
 31
0.0
  0
LINE
  5
1BDA7
330
1BD65
100
AcDbEntity
  8
0
  6
CONTINUOUS
100
AcDbLine
 10
20.35505123425962
 20
3.94976520013324
 30
0.0
 11
19.30631888737766
 21
4.998497547015201
 31
0.0
  0
LINE
  5
1BDA8
330
1BD65
100
AcDbEntity
  8
0
  6
CONTINUOUS
100
AcDbLine
 10
20.55463198503475
 20
4.423703658438292
 30
0.0
 11
19.50584339500926
 21
5.472492248463787
 31
0.0
  0
LINE
  5
1BDA9
330
1BD65
100
AcDbEntity
  8
0
  6
CONTINUOUS
100
AcDbLine
 10
18.37481191085755
 20
3.909446896294752
 30
0.0
 11
15.59302973632993
 21
6.691229070822371
 31
0.0
  0
LINE
  5
1BDAA
330
1BD65
100
AcDbEntity
  8
0
  6
CONTINUOUS
100
AcDbLine
 10
17.96904084440766
 20
4.988737171824825
 30
0.0
 11
15.77705890739338
 21
7.180719108839104
 31
0.0
  0
LINE
  5
1BDAB
330
1BD65
100
AcDbEntity
  8
0
  6
CONTINUOUS
100
AcDbLine
 10
17.56326977795777
 20
6.068027447354899
 30
0.0
 11
15.96108807845684
 21
7.670209146855838
 31
0.0
  0
LINE
  5
1BDAC
330
1BD65
100
AcDbEntity
  8
0
  6
CONTINUOUS
100
AcDbLine
 10
17.15749871150789
 20
7.147317722884972
 30
0.0
 11
16.14511724952029
 21
8.15969918487257
 31
0.0
  0
LINE
  5
1BDAD
330
1BD65
100
AcDbEntity
  8
0
  6
CONTINUOUS
100
AcDbLine
 10
16.751727645058
 20
8.226607998415046
 30
0.0
 11
16.32914642058374
 21
8.649189222889303
 31
0.0
  0
LINE
  5
1BDAE
330
1BD65
100
AcDbEntity
  8
0
  6
CONTINUOUS
100
AcDbLine
 10
20.75421273580989
 20
4.897642116743345
 30
0.0
 11
19.70536790264086
 21
5.946486949912374
 31
0.0
  0
LINE
  5
1BDAF
330
1BD65
100
AcDbEntity
  8
0
  6
CONTINUOUS
100
AcDbLine
 10
20.95379348658502
 20
5.371580575048398
 30
0.0
 11
19.90489241027246
 21
6.42048165136096
 31
0.0
  0
LINE
  5
1BDB0
330
1BD65
100
AcDbEntity
  8
0
  6
CONTINUOUS
100
AcDbLine
 10
21.15337423736015
 20
5.845519033353452
 30
0.0
 11
20.10441691790406
 21
6.894476352809547
 31
0.0
  0
LINE
  5
1BDB1
330
1BD65
100
AcDbEntity
  8
0
  6
CONTINUOUS
100
AcDbLine
 10
21.35295498813529
 20
6.319457491658505
 30
0.0
 11
20.30394142553566
 21
7.368471054258134
 31
0.0
  0
LINE
  5
1BDB2
330
1BD65
100
AcDbEntity
  8
0
  6
CONTINUOUS
100
AcDbLine
 10
21.55253573891042
 20
6.793395949963558
 30
0.0
 11
20.50346593316726
 21
7.842465755706721
 31
0.0
  0
LINE
  5
1BDB3
330
1BD65
100
AcDbEntity
  8
0
  6
CONTINUOUS
100
AcDbLine
 10
21.75211648968556
 20
7.267334408268612
 30
0.0
 11
20.70299044079886
 21
8.316460457155308
 31
0.0
  0
LINE
  5
1BDB4
330
1BD65
100
AcDbEntity
  8
0
  6
CONTINUOUS
100
AcDbLine
 10
21.95169724046069
 20
7.741272866573663
 30
0.0
 11
20.9298701070431
 21
8.763099999991256
 31
0.0
  0
LINE
  5
1BDB5
330
1BD65
100
AcDbEntity
  8
0
  6
CONTINUOUS
100
AcDbLine
 10
22.15127799123582
 20
8.215211324878716
 30
0.0
 11
21.60338931612328
 21
8.763099999991256
 31
0.0
  0
LINE
  5
1BDB6
330
1BD65
100
AcDbEntity
  8
0
  6
CONTINUOUS
100
AcDbLine
 10
22.35085874201096
 20
8.689149783183769
 30
0.0
 11
22.27690852520347
 21
8.763099999991255
 31
0.0
  0
ENDBLK
  5
1BEA8
330
1BD65
100
AcDbEntity
  8
0
100
AcDbBlockEnd
  0
BLOCK
  5
1BEA9
330
1BDB7
100
AcDbEntity
  8
0
100
AcDbBlockBegin
  2
*X182
 70
     1
 10
0.0
 20
0.0
 30
0.0
  3
*X182
  1

  0
LINE
  5
1BDB8
330
1BDB7
100
AcDbEntity
  8
0
  6
CONTINUOUS
100
AcDbLine
 10
23.19462913593892
 20
8.169917934846424
 30
0.0
 11
23.70775465517246
 21
8.683043454079957
 31
0.0
  0
LINE
  5
1BDB9
330
1BDB7
100
AcDbEntity
  8
0
  6
CONTINUOUS
100
AcDbLine
 10
22.64923161835078
 20
6.951001208178088
 30
0.0
 11
23.9159364069932
 21
8.217705996820516
 31
0.0
  0
LINE
  5
1BDBA
330
1BDB7
100
AcDbEntity
  8
0
  6
CONTINUOUS
100
AcDbLine
 10
22.10383410076263
 20
5.732084481509751
 30
0.0
 11
24.12411815881395
 21
7.752368539561078
 31
0.0
  0
LINE
  5
1BDBB
330
1BDB7
100
AcDbEntity
  8
0
  6
CONTINUOUS
100
AcDbLine
 10
21.55843658317447
 20
4.513167754841414
 30
0.0
 11
24.3322999106347
 21
7.287031082301639
 31
0.0
  0
LINE
  5
1BDBC
330
1BDB7
100
AcDbEntity
  8
0
  6
CONTINUOUS
100
AcDbLine
 10
21.01303906558632
 20
3.294251028173077
 30
0.0
 11
24.54048166245544
 21
6.821693625042199
 31
0.0
  0
LINE
  5
1BDBD
330
1BDB7
100
AcDbEntity
  8
0
  6
CONTINUOUS
100
AcDbLine
 10
20.46764154799817
 20
2.075334301504738
 30
0.0
 11
23.28571549467848
 21
4.89340824818505
 31
0.0
  0
LINE
  5
1BDBE
330
1BDB7
100
AcDbEntity
  8
0
  6
CONTINUOUS
100
AcDbLine
 10
19.92224403041002
 20
0.8564175748364002
 30
0.0
 11
22.74075865492779
 21
3.674932199354171
 31
0.0
  0
LINE
  5
1BDBF
330
1BDB7
100
AcDbEntity
  8
0
  6
CONTINUOUS
100
AcDbLine
 10
23.67305085490148
 20
5.280743608408048
 30
0.0
 11
24.74866341427619
 21
6.356356167782759
 31
0.0
  0
LINE
  5
1BDC0
330
1BDB7
100
AcDbEntity
  8
0
  6
CONTINUOUS
100
AcDbLine
 10
23.88118970842314
 20
4.815363252849522
 30
0.0
 11
24.95684516609694
 21
5.89101871052332
 31
0.0
  0
LINE
  5
1BDC1
330
1BDB7
100
AcDbEntity
  8
0
  6
CONTINUOUS
100
AcDbLine
 10
19.73925852647308
 20
-0.0000871381807288
 30
0.0
 11
23.4103456646501
 21
3.670999999996297
 31
0.0
  0
LINE
  5
1BDC2
330
1BDB7
100
AcDbEntity
  8
0
  6
CONTINUOUS
100
AcDbLine
 10
24.0893285619448
 20
4.349982897290997
 30
0.0
 11
25.16502691791769
 21
5.42568125326388
 31
0.0
  0
LINE
  5
1BDC3
330
1BDB7
100
AcDbEntity
  8
0
  6
CONTINUOUS
100
AcDbLine
 10
20.41282099582748
 20
-0.0000438779065108
 30
0.0
 11
21.64944178675636
 21
1.236576913022366
 31
0.0
  0
LINE
  5
1BDC4
330
1BDB7
100
AcDbEntity
  8
0
  6
CONTINUOUS
100
AcDbLine
 10
22.78126487373161
 20
2.36839999999762
 30
0.0
 11
24.08386487373029
 21
3.670999999996297
 31
0.0
  0
LINE
  5
1BDC5
330
1BDB7
100
AcDbEntity
  8
0
  6
CONTINUOUS
100
AcDbLine
 10
24.29746741546646
 20
3.884602541732471
 30
0.0
 11
25.37320866973843
 21
4.960343796004441
 31
0.0
  0
LINE
  5
1BDC6
330
1BDB7
100
AcDbEntity
  8
0
  6
CONTINUOUS
100
AcDbLine
 10
21.08638346518189
 20
-0.0000006176322938
 30
0.0
 11
21.10379033335899
 21
0.0174062505448083
 31
0.0
  0
LINE
  5
1BDC7
330
1BDB7
100
AcDbEntity
  8
0
  6
CONTINUOUS
100
AcDbLine
 10
23.4547840828118
 20
2.36839999999762
 30
0.0
 11
25.58139042155918
 21
4.495006338745002
 31
0.0
  0
LINE
  5
1BDC8
330
1BDB7
100
AcDbEntity
  8
0
  6
CONTINUOUS
100
AcDbLine
 10
29.30199999996933
 20
8.215615917155148
 30
0.0
 11
29.84948408280543
 21
8.763099999991255
 31
0.0
  0
LINE
  5
1BDC9
330
1BDB7
100
AcDbEntity
  8
0
  6
CONTINUOUS
100
AcDbLine
 10
24.12830329189199
 20
2.36839999999762
 30
0.0
 11
25.78957217337993
 21
4.029668881485562
 31
0.0
  0
LINE
  5
1BDCA
330
1BDB7
100
AcDbEntity
  8
0
  6
CONTINUOUS
100
AcDbLine
 10
29.30199999996933
 20
7.54209670807496
 30
0.0
 11
30.52300329188562
 21
8.763099999991255
 31
0.0
  0
LINE
  5
1BDCB
330
1BDB7
100
AcDbEntity
  8
0
  6
CONTINUOUS
100
AcDbLine
 10
24.80182250097217
 20
2.36839999999762
 30
0.0
 11
25.99775392520067
 21
3.564331424226122
 31
0.0
  0
LINE
  5
1BDCC
330
1BDB7
100
AcDbEntity
  8
0
  6
CONTINUOUS
100
AcDbLine
 10
29.30199999996933
 20
6.868577498994774
 30
0.0
 11
30.74199999996926
 21
8.308577498994712
 31
0.0
  0
LINE
  5
1BDCD
330
1BDB7
100
AcDbEntity
  8
0
  6
CONTINUOUS
100
AcDbLine
 10
25.13028238392013
 20
2.023340673865392
 30
0.0
 11
26.20593567702142
 21
3.098993966966683
 31
0.0
  0
LINE
  5
1BDCE
330
1BDB7
100
AcDbEntity
  8
0
  6
CONTINUOUS
100
AcDbLine
 10
25.33838066033617
 20
1.557919741201244
 30
0.0
 11
26.41411742884217
 21
2.633656509707244
 31
0.0
  0
LINE
  5
1BDCF
330
1BDB7
100
AcDbEntity
  8
0
  6
CONTINUOUS
100
AcDbLine
 10
25.54647893675221
 20
1.092498808537098
 30
0.0
 11
26.62229918066291
 21
2.168319052447804
 31
0.0
  0
LINE
  5
1BDD0
330
1BDB7
100
AcDbEntity
  8
0
  6
CONTINUOUS
100
AcDbLine
 10
25.75457721316825
 20
0.62707787587295
 30
0.0
 11
26.83048093248366
 21
1.702981595188365
 31
0.0
  0
LINE
  5
1BDD1
330
1BDB7
100
AcDbEntity
  8
0
  6
CONTINUOUS
100
AcDbLine
 10
29.30199999996933
 20
6.195058289914587
 30
0.0
 11
30.74199999996926
 21
7.635058289914522
 31
0.0
  0
LINE
  5
1BDD2
330
1BDB7
100
AcDbEntity
  8
0
  6
CONTINUOUS
100
AcDbLine
 10
29.30199999996933
 20
5.521539080834401
 30
0.0
 11
30.74199999996926
 21
6.961539080834331
 31
0.0
  0
LINE
  5
1BDD3
330
1BDB7
100
AcDbEntity
  8
0
  6
CONTINUOUS
100
AcDbLine
 10
29.30199999996933
 20
4.848019871754214
 30
0.0
 11
30.74199999996925
 21
6.288019871754143
 31
0.0
  0
LINE
  5
1BDD4
330
1BDB7
100
AcDbEntity
  8
0
  6
CONTINUOUS
100
AcDbLine
 10
29.30199999996933
 20
4.174500662674028
 30
0.0
 11
30.74199999996925
 21
5.614500662673953
 31
0.0
  0
LINE
  5
1BDD5
330
1BDB7
100
AcDbEntity
  8
0
  6
CONTINUOUS
100
AcDbLine
 10
25.96267548958429
 20
0.1616569432088024
 30
0.0
 11
27.18411854636669
 21
1.383099999991207
 31
0.0
  0
LINE
  5
1BDD6
330
1BDB7
100
AcDbEntity
  8
0
  6
CONTINUOUS
100
AcDbLine
 10
29.30199999996933
 20
3.500981453593841
 30
0.0
 11
30.74199999996925
 21
4.940981453593762
 31
0.0
  0
LINE
  5
1BDD7
330
1BDB7
100
AcDbEntity
  8
0
  6
CONTINUOUS
100
AcDbLine
 10
26.50763775544691
 20
0.0330999999912356
 30
0.0
 11
27.85763775544689
 21
1.383099999991223
 31
0.0
  0
LINE
  5
1BDD8
330
1BDB7
100
AcDbEntity
  8
0
  6
CONTINUOUS
100
AcDbLine
 10
29.30199999996933
 20
2.827462244513656
 30
0.0
 11
30.74199999996925
 21
4.267462244513574
 31
0.0
  0
LINE
  5
1BDD9
330
1BDB7
100
AcDbEntity
  8
0
  6
CONTINUOUS
100
AcDbLine
 10
27.18115696452709
 20
0.0330999999912356
 30
0.0
 11
28.6224847300034
 21
1.474427765467545
 31
0.0
  0
LINE
  5
1BDDA
330
1BDB7
100
AcDbEntity
  8
0
  6
CONTINUOUS
100
AcDbLine
 10
29.21067223449293
 20
2.062615269957069
 30
0.0
 11
30.74199999996924
 21
3.593943035433383
 31
0.0
  0
LINE
  5
1BDDB
330
1BDB7
100
AcDbEntity
  8
0
  6
CONTINUOUS
100
AcDbLine
 10
27.85467617360728
 20
0.0330999999912356
 30
0.0
 11
30.74199999996924
 21
2.920423826353195
 31
0.0
  0
LINE
  5
1BDDC
330
1BDB7
100
AcDbEntity
  8
0
  6
CONTINUOUS
100
AcDbLine
 10
28.57438609860264
 20
0.0792907159064073
 30
0.0
 11
30.69580928405405
 21
2.200713901357819
 31
0.0
  0
LINE
  5
1BDDD
330
1BDB7
100
AcDbEntity
  8
0
  6
CONTINUOUS
100
AcDbLine
 10
29.49443044814297
 20
0.3258158563665496
 30
0.0
 11
30.44928414359389
 21
1.280669551817477
 31
0.0
  0
LINE
  5
1BDDE
330
1BDB7
100
AcDbEntity
  8
0
  6
CONTINUOUS
100
AcDbLine
 10
19.59027867740337
 20
-0.0000967065718083
 30
0.0
 11
19.55485265190471
 21
0.035329318926844
 31
0.0
  0
LINE
  5
1BDDF
330
1BDB7
100
AcDbEntity
  8
0
  6
CONTINUOUS
100
AcDbLine
 10
20.26375463176586
 20
-0.0000534518541091
 30
0.0
 11
19.76305575737534
 21
0.5006454225364014
 31
0.0
  0
LINE
  5
1BDE0
330
1BDB7
100
AcDbEntity
  8
0
  6
CONTINUOUS
100
AcDbLine
 10
20.93723058612834
 20
-0.0000101971364099
 30
0.0
 11
19.97125886284597
 21
0.965961526145958
 31
0.0
  0
LINE
  5
1BDE1
330
1BDB7
100
AcDbEntity
  8
0
  6
CONTINUOUS
100
AcDbLine
 10
21.25514828313686
 20
0.355591314935257
 30
0.0
 11
20.1794619683166
 21
1.431277629755512
 31
0.0
  0
LINE
  5
1BDE2
330
1BDB7
100
AcDbEntity
  8
0
  6
CONTINUOUS
100
AcDbLine
 10
21.46338838394921
 20
0.8208704232030986
 30
0.0
 11
20.38766507378723
 21
1.896593733365069
 31
0.0
  0
LINE
  5
1BDE3
330
1BDB7
100
AcDbEntity
  8
0
  6
CONTINUOUS
100
AcDbLine
 10
21.67162848476155
 20
1.28614953147094
 30
0.0
 11
20.59586817925786
 21
2.361909836974626
 31
0.0
  0
LINE
  5
1BDE4
330
1BDB7
100
AcDbEntity
  8
0
  6
CONTINUOUS
100
AcDbLine
 10
21.8798685855739
 20
1.751428639738782
 30
0.0
 11
20.80407128472849
 21
2.827225940584183
 31
0.0
  0
LINE
  5
1BDE5
330
1BDB7
100
AcDbEntity
  8
0
  6
CONTINUOUS
100
AcDbLine
 10
22.08810868638624
 20
2.216707748006623
 30
0.0
 11
21.01227439019912
 21
3.292542044193739
 31
0.0
  0
LINE
  5
1BDE6
330
1BDB7
100
AcDbEntity
  8
0
  6
CONTINUOUS
100
AcDbLine
 10
22.60993564347543
 20
2.36839999999762
 30
0.0
 11
21.22047749566975
 21
3.757858147803296
 31
0.0
  0
LINE
  5
1BDE7
330
1BDB7
100
AcDbEntity
  8
0
  6
CONTINUOUS
100
AcDbLine
 10
23.28345485255561
 20
2.36839999999762
 30
0.0
 11
21.42868060114038
 21
4.223174251412853
 31
0.0
  0
LINE
  5
1BDE8
330
1BDB7
100
AcDbEntity
  8
0
  6
CONTINUOUS
100
AcDbLine
 10
26.29227406164219
 20
0.0330999999912356
 30
0.0
 11
25.80009199592872
 21
0.5252820657046957
 31
0.0
  0
LINE
  5
1BDE9
330
1BDB7
100
AcDbEntity
  8
0
  6
CONTINUOUS
100
AcDbLine
 10
23.9569740616358
 20
2.36839999999762
 30
0.0
 11
21.63688370661101
 21
4.688490355022409
 31
0.0
  0
LINE
  5
1BDEA
330
1BDB7
100
AcDbEntity
  8
0
  6
CONTINUOUS
100
AcDbLine
 10
26.96579327072237
 20
0.0330999999912356
 30
0.0
 11
25.2554132311971
 21
1.743480039516508
 31
0.0
  0
LINE
  5
1BDEB
330
1BDB7
100
AcDbEntity
  8
0
  6
CONTINUOUS
100
AcDbLine
 10
24.63049327071599
 20
2.36839999999762
 30
0.0
 11
23.32789327071731
 21
3.670999999996297
 31
0.0
  0
LINE
  5
1BDEC
330
1BDB7
100
AcDbEntity
  8
0
  6
CONTINUOUS
100
AcDbLine
 10
22.92098674744635
 20
4.077906523267254
 30
0.0
 11
21.84508681208164
 21
5.153806458631966
 31
0.0
  0
LINE
  5
1BDED
330
1BDB7
100
AcDbEntity
  8
0
  6
CONTINUOUS
100
AcDbLine
 10
27.63931247980256
 20
0.0330999999912356
 30
0.0
 11
24.0014124797975
 21
3.670999999996297
 31
0.0
  0
LINE
  5
1BDEE
330
1BDB7
100
AcDbEntity
  8
0
  6
CONTINUOUS
100
AcDbLine
 10
23.129125600968
 20
4.5432868788258
 30
0.0
 11
22.05328991755227
 21
5.619122562241522
 31
0.0
  0
LINE
  5
1BDEF
330
1BDB7
100
AcDbEntity
  8
0
  6
CONTINUOUS
100
AcDbLine
 10
28.31283168888275
 20
0.0330999999912356
 30
0.0
 11
24.16488385994816
 21
4.181047828925828
 31
0.0
  0
LINE
  5
1BDF0
330
1BDB7
100
AcDbEntity
  8
0
  6
CONTINUOUS
100
AcDbLine
 10
23.33726445448964
 20
5.008667234384345
 30
0.0
 11
22.2614930230229
 21
6.084438665851079
 31
0.0
  0
LINE
  5
1BDF1
330
1BDB7
100
AcDbEntity
  8
0
  6
CONTINUOUS
100
AcDbLine
 10
28.86286302309502
 20
0.1565878748591523
 30
0.0
 11
27.63635089796295
 21
1.383099999991217
 31
0.0
  0
LINE
  5
1BDF2
330
1BDB7
100
AcDbEntity
  8
0
  6
CONTINUOUS
100
AcDbLine
 10
26.43704649509776
 20
2.582404402856405
 30
0.0
 11
23.61992702019732
 21
5.399523877756844
 31
0.0
  0
LINE
  5
1BDF3
330
1BDB7
100
AcDbEntity
  8
0
  6
CONTINUOUS
100
AcDbLine
 10
23.54540330801128
 20
5.47404758994289
 30
0.0
 11
22.46969612849353
 21
6.549754769460635
 31
0.0
  0
LINE
  5
1BDF4
330
1BDB7
100
AcDbEntity
  8
0
  6
CONTINUOUS
100
AcDbLine
 10
29.39405087596853
 20
0.2989192310658284
 30
0.0
 11
28.30987010704312
 21
1.383099999991234
 31
0.0
  0
LINE
  5
1BDF5
330
1BDB7
100
AcDbEntity
  8
0
  6
CONTINUOUS
100
AcDbLine
 10
25.89179548232307
 20
3.801174624711282
 30
0.0
 11
22.67789923396416
 21
7.015070873070191
 31
0.0
  0
LINE
  5
1BDF6
330
1BDB7
100
AcDbEntity
  8
0
  6
CONTINUOUS
100
AcDbLine
 10
29.79594438047407
 20
0.570544935640473
 30
0.0
 11
28.81310432793121
 21
1.553384988183336
 31
0.0
  0
LINE
  5
1BDF7
330
1BDB7
100
AcDbEntity
  8
0
  6
CONTINUOUS
100
AcDbLine
 10
25.34654446954838
 20
5.01994484656616
 30
0.0
 11
22.88610233943479
 21
7.480386976679748
 31
0.0
  0
LINE
  5
1BDF8
330
1BDB7
100
AcDbEntity
  8
0
  6
CONTINUOUS
100
AcDbLine
 10
30.13270398501416
 20
0.9073045401805646
 30
0.0
 11
29.14234640337737
 21
1.897662121817355
 31
0.0
  0
LINE
  5
1BDF9
330
1BDB7
100
AcDbEntity
  8
0
  6
CONTINUOUS
100
AcDbLine
 10
24.80129345677369
 20
6.238715068421037
 30
0.0
 11
23.09430544490542
 21
7.945703080289305
 31
0.0
  0
LINE
  5
1BDFA
330
1BDB7
100
AcDbEntity
  8
0
  6
CONTINUOUS
100
AcDbLine
 10
30.44581292956759
 20
1.26771480470732
 30
0.0
 11
29.30199999996933
 21
2.411527734305588
 31
0.0
  0
LINE
  5
1BDFB
330
1BDB7
100
AcDbEntity
  8
0
  6
CONTINUOUS
100
AcDbLine
 10
30.58814428577427
 20
1.798902657580827
 30
0.0
 11
29.30199999996933
 21
3.085046943385775
 31
0.0
  0
LINE
  5
1BDFC
330
1BDB7
100
AcDbEntity
  8
0
  6
CONTINUOUS
100
AcDbLine
 10
24.256042443999
 20
7.457485290275915
 30
0.0
 11
23.30250855037605
 21
8.411019183898862
 31
0.0
  0
LINE
  5
1BDFD
330
1BDB7
100
AcDbEntity
  8
0
  6
CONTINUOUS
100
AcDbLine
 10
23.71079143122431
 20
8.676255512130794
 30
0.0
 11
23.51071165584668
 21
8.876335287508418
 31
0.0
  0
LINE
  5
1BDFE
330
1BDB7
100
AcDbEntity
  8
0
  6
CONTINUOUS
100
AcDbLine
 10
30.73047564198095
 20
2.330090510454333
 30
0.0
 11
29.30199999996933
 21
3.758566152465961
 31
0.0
  0
LINE
  5
1BDFF
330
1BDB7
100
AcDbEntity
  8
0
  6
CONTINUOUS
100
AcDbLine
 10
30.74199999996924
 20
2.992085361546236
 30
0.0
 11
29.30199999996933
 21
4.432085361546148
 31
0.0
  0
LINE
  5
1BE00
330
1BDB7
100
AcDbEntity
  8
0
  6
CONTINUOUS
100
AcDbLine
 10
30.74199999996924
 20
3.665604570626419
 30
0.0
 11
29.30199999996933
 21
5.105604570626333
 31
0.0
  0
LINE
  5
1BE01
330
1BDB7
100
AcDbEntity
  8
0
  6
CONTINUOUS
100
AcDbLine
 10
30.74199999996925
 20
4.339123779706602
 30
0.0
 11
29.30199999996933
 21
5.77912377970652
 31
0.0
  0
LINE
  5
1BE02
330
1BDB7
100
AcDbEntity
  8
0
  6
CONTINUOUS
100
AcDbLine
 10
30.74199999996925
 20
5.012642988786785
 30
0.0
 11
29.30199999996933
 21
6.452642988786707
 31
0.0
  0
LINE
  5
1BE03
330
1BDB7
100
AcDbEntity
  8
0
  6
CONTINUOUS
100
AcDbLine
 10
30.74199999996925
 20
5.68616219786697
 30
0.0
 11
29.30199999996933
 21
7.126162197866894
 31
0.0
  0
LINE
  5
1BE04
330
1BDB7
100
AcDbEntity
  8
0
  6
CONTINUOUS
100
AcDbLine
 10
30.74199999996925
 20
6.359681406947153
 30
0.0
 11
29.30199999996933
 21
7.799681406947081
 31
0.0
  0
LINE
  5
1BE05
330
1BDB7
100
AcDbEntity
  8
0
  6
CONTINUOUS
100
AcDbLine
 10
30.74199999996926
 20
7.033200616027337
 30
0.0
 11
29.30199999996933
 21
8.473200616027269
 31
0.0
  0
LINE
  5
1BE06
330
1BDB7
100
AcDbEntity
  8
0
  6
CONTINUOUS
100
AcDbLine
 10
30.74199999996926
 20
7.706719825107518
 30
0.0
 11
29.68561982508552
 21
8.763099999991255
 31
0.0
  0
LINE
  5
1BE07
330
1BDB7
100
AcDbEntity
  8
0
  6
CONTINUOUS
100
AcDbLine
 10
30.74199999996926
 20
8.380239034187703
 30
0.0
 11
30.35913903416571
 21
8.763099999991255
 31
0.0
  0
ENDBLK
  5
1BEAA
330
1BDB7
100
AcDbEntity
  8
0
100
AcDbBlockEnd
  0
BLOCK
  5
1BEAB
330
1BE08
100
AcDbEntity
  8
0
100
AcDbBlockBegin
  2
*X183
 70
     1
 10
0.0
 20
0.0
 30
0.0
  3
*X183
  1

  0
LINE
  5
1BE09
330
1BE08
100
AcDbEntity
  8
0
  6
CONTINUOUS
100
AcDbLine
 10
31.64199999996833
 20
8.5350582899136
 30
0.0
 11
31.87004171004599
 21
8.763099999991255
 31
0.0
  0
LINE
  5
1BE0A
330
1BE08
100
AcDbEntity
  8
0
  6
CONTINUOUS
100
AcDbLine
 10
31.64199999996833
 20
7.861539080833413
 30
0.0
 11
32.54356091912618
 21
8.763099999991255
 31
0.0
  0
LINE
  5
1BE0B
330
1BE08
100
AcDbEntity
  8
0
  6
CONTINUOUS
100
AcDbLine
 10
31.64199999996833
 20
7.188019871753227
 30
0.0
 11
33.08199999996839
 21
8.628019871753281
 31
0.0
  0
LINE
  5
1BE0C
330
1BE08
100
AcDbEntity
  8
0
  6
CONTINUOUS
100
AcDbLine
 10
31.64199999996833
 20
6.514500662673041
 30
0.0
 11
33.08199999996839
 21
7.954500662673095
 31
0.0
  0
LINE
  5
1BE0D
330
1BE08
100
AcDbEntity
  8
0
  6
CONTINUOUS
100
AcDbLine
 10
31.64199999996833
 20
5.840981453592855
 30
0.0
 11
33.08199999996839
 21
7.28098145359291
 31
0.0
  0
LINE
  5
1BE0E
330
1BE08
100
AcDbEntity
  8
0
  6
CONTINUOUS
100
AcDbLine
 10
31.64199999996833
 20
5.167462244512668
 30
0.0
 11
33.08199999996839
 21
6.607462244512723
 31
0.0
  0
LINE
  5
1BE0F
330
1BE08
100
AcDbEntity
  8
0
  6
CONTINUOUS
100
AcDbLine
 10
31.64199999996833
 20
4.493943035432482
 30
0.0
 11
33.08199999996839
 21
5.933943035432536
 31
0.0
  0
LINE
  5
1BE10
330
1BE08
100
AcDbEntity
  8
0
  6
CONTINUOUS
100
AcDbLine
 10
31.64199999996833
 20
3.820423826352294
 30
0.0
 11
33.08199999996839
 21
5.260423826352349
 31
0.0
  0
LINE
  5
1BE11
330
1BE08
100
AcDbEntity
  8
0
  6
CONTINUOUS
100
AcDbLine
 10
31.64199999996833
 20
3.146904617272108
 30
0.0
 11
33.08199999996839
 21
4.586904617272163
 31
0.0
  0
LINE
  5
1BE12
330
1BE08
100
AcDbEntity
  8
0
  6
CONTINUOUS
100
AcDbLine
 10
36.23199999996837
 20
8.410423826352327
 30
0.0
 11
36.58467617360729
 21
8.763099999991255
 31
0.0
  0
LINE
  5
1BE13
330
1BE08
100
AcDbEntity
  8
0
  6
CONTINUOUS
100
AcDbLine
 10
36.23199999996837
 20
7.73690461727214
 30
0.0
 11
37.25819538268748
 21
8.763099999991255
 31
0.0
  0
LINE
  5
1BE14
330
1BE08
100
AcDbEntity
  8
0
  6
CONTINUOUS
100
AcDbLine
 10
31.64323424774199
 20
2.474619655965573
 30
0.0
 11
33.08199999996839
 21
3.913385408191976
 31
0.0
  0
LINE
  5
1BE15
330
1BE08
100
AcDbEntity
  8
0
  6
CONTINUOUS
100
AcDbLine
 10
31.74419223861915
 20
1.902058437762552
 30
0.0
 11
33.08199999996839
 21
3.239866199111789
 31
0.0
  0
LINE
  5
1BE16
330
1BE08
100
AcDbEntity
  8
0
  6
CONTINUOUS
100
AcDbLine
 10
36.23199999996837
 20
7.063385408191953
 30
0.0
 11
37.67199999996831
 21
8.503385408191894
 31
0.0
  0
LINE
  5
1BE17
330
1BE08
100
AcDbEntity
  8
0
  6
CONTINUOUS
100
AcDbLine
 10
36.23199999996837
 20
6.389866199111767
 30
0.0
 11
37.67199999996831
 21
7.829866199111708
 31
0.0
  0
LINE
  5
1BE18
330
1BE08
100
AcDbEntity
  8
0
  6
CONTINUOUS
100
AcDbLine
 10
31.91111233414976
 20
1.39545932421297
 30
0.0
 11
33.08199999996839
 21
2.566346990031603
 31
0.0
  0
LINE
  5
1BE19
330
1BE08
100
AcDbEntity
  8
0
  6
CONTINUOUS
100
AcDbLine
 10
36.23199999996837
 20
5.71634699003158
 30
0.0
 11
37.67199999996831
 21
7.156346990031522
 31
0.0
  0
LINE
  5
1BE1A
330
1BE08
100
AcDbEntity
  8
0
  6
CONTINUOUS
100
AcDbLine
 10
32.1576374746103
 20
0.9684652555933289
 30
0.0
 11
33.20642631446081
 21
2.017254095443838
 31
0.0
  0
LINE
  5
1BE1B
330
1BE08
100
AcDbEntity
  8
0
  6
CONTINUOUS
100
AcDbLine
 10
36.23199999996837
 20
5.042827780951393
 30
0.0
 11
37.67199999996831
 21
6.482827780951334
 31
0.0
  0
LINE
  5
1BE1C
330
1BE08
100
AcDbEntity
  8
0
  6
CONTINUOUS
100
AcDbLine
 10
32.47774023927325
 20
0.6150488111760914
 30
0.0
 11
33.49903056428258
 21
1.636339136185419
 31
0.0
  0
LINE
  5
1BE1D
330
1BE08
100
AcDbEntity
  8
0
  6
CONTINUOUS
100
AcDbLine
 10
36.23199999996837
 20
4.369308571871207
 30
0.0
 11
37.67199999996831
 21
5.809308571871148
 31
0.0
  0
LINE
  5
1BE1E
330
1BE08
100
AcDbEntity
  8
0
  6
CONTINUOUS
100
AcDbLine
 10
32.84396249154443
 20
0.3077518543670883
 30
0.0
 11
33.93324121824649
 21
1.397030581069146
 31
0.0
  0
LINE
  5
1BE1F
330
1BE08
100
AcDbEntity
  8
0
  6
CONTINUOUS
100
AcDbLine
 10
36.23199999996837
 20
3.695789362791021
 30
0.0
 11
37.67199999996831
 21
5.135789362790963
 31
0.0
  0
LINE
  5
1BE20
330
1BE08
100
AcDbEntity
  8
0
  6
CONTINUOUS
100
AcDbLine
 10
33.30186329036846
 20
0.0921334441109263
 30
0.0
 11
34.46442907112041
 21
1.254699224862875
 31
0.0
  0
LINE
  5
1BE21
330
1BE08
100
AcDbEntity
  8
0
  6
CONTINUOUS
100
AcDbLine
 10
36.23199999996837
 20
3.022270153710834
 30
0.0
 11
37.67199999996831
 21
4.462270153710776
 31
0.0
  0
LINE
  5
1BE22
330
1BE08
100
AcDbEntity
  8
0
  6
CONTINUOUS
100
AcDbLine
 10
33.79565647746294
 20
-0.0875925778747773
 30
0.0
 11
35.24350171668284
 21
1.360252661345124
 31
0.0
  0
LINE
  5
1BE23
330
1BE08
100
AcDbEntity
  8
0
  6
CONTINUOUS
100
AcDbLine
 10
36.18336676155003
 20
2.300117706212308
 30
0.0
 11
37.67199999996831
 21
3.788750944630589
 31
0.0
  0
LINE
  5
1BE24
330
1BE08
100
AcDbEntity
  8
0
  6
CONTINUOUS
100
AcDbLine
 10
34.37182574910968
 20
-0.184942515308224
 30
0.0
 11
37.67199999996831
 21
3.115231735550402
 31
0.0
  0
LINE
  5
1BE25
330
1BE08
100
AcDbEntity
  8
0
  6
CONTINUOUS
100
AcDbLine
 10
35.0453449581892
 20
-0.1849425153088955
 30
0.0
 11
37.66345697088136
 21
2.433169497383271
 31
0.0
  0
LINE
  5
1BE26
330
1BE08
100
AcDbEntity
  8
0
  6
CONTINUOUS
100
AcDbLine
 10
35.98667157609191
 20
0.0828648935136398
 30
0.0
 11
37.51927401744566
 21
1.615467334867382
 31
0.0
  0
LINE
  5
1BE27
330
1BE08
100
AcDbEntity
  8
0
  6
CONTINUOUS
100
AcDbLine
 10
32.27747408544484
 20
0.7830920669904482
 30
0.0
 11
32.24716210471949
 21
0.8134040477157893
 31
0.0
  0
LINE
  5
1BE28
330
1BE08
100
AcDbEntity
  8
0
  6
CONTINUOUS
100
AcDbLine
 10
33.83656881101902
 20
-0.1024834495035494
 30
0.0
 11
31.72538911593758
 21
2.008696245577891
 31
0.0
  0
LINE
  5
1BE29
330
1BE08
100
AcDbEntity
  8
0
  6
CONTINUOUS
100
AcDbLine
 10
34.5925470859041
 20
-0.1849425153084434
 30
0.0
 11
31.64199999996833
 21
2.765604570627322
 31
0.0
  0
LINE
  5
1BE2A
330
1BE08
100
AcDbEntity
  8
0
  6
CONTINUOUS
100
AcDbLine
 10
35.26201302775981
 20
-0.1808892480839752
 30
0.0
 11
31.64199999996833
 21
3.439123779707508
 31
0.0
  0
LINE
  5
1BE2B
330
1BE08
100
AcDbEntity
  8
0
  6
CONTINUOUS
100
AcDbLine
 10
35.75580621485512
 20
-0.0011632260990879
 30
0.0
 11
34.51294304365551
 21
1.241699945100514
 31
0.0
  0
LINE
  5
1BE2C
330
1BE08
100
AcDbEntity
  8
0
  6
CONTINUOUS
100
AcDbLine
 10
33.08199999996839
 20
2.672642988787641
 30
0.0
 11
31.64199999996833
 21
4.112642988787695
 31
0.0
  0
LINE
  5
1BE2D
330
1BE08
100
AcDbEntity
  8
0
  6
CONTINUOUS
100
AcDbLine
 10
36.24959940195042
 20
0.1785627958857976
 30
0.0
 11
35.10501653033629
 21
1.323145667499924
 31
0.0
  0
LINE
  5
1BE2E
330
1BE08
100
AcDbEntity
  8
0
  6
CONTINUOUS
100
AcDbLine
 10
33.08199999996839
 20
3.346162197867827
 30
0.0
 11
31.64199999996833
 21
4.786162197867881
 31
0.0
  0
LINE
  5
1BE2F
330
1BE08
100
AcDbEntity
  8
0
  6
CONTINUOUS
100
AcDbLine
 10
36.64615197150552
 20
0.4555294354108876
 30
0.0
 11
35.6362043832099
 21
1.465477023706505
 31
0.0
  0
LINE
  5
1BE30
330
1BE08
100
AcDbEntity
  8
0
  6
CONTINUOUS
100
AcDbLine
 10
33.08199999996839
 20
4.019681406948013
 30
0.0
 11
31.64199999996833
 21
5.459681406948068
 31
0.0
  0
LINE
  5
1BE31
330
1BE08
100
AcDbEntity
  8
0
  6
CONTINUOUS
100
AcDbLine
 10
37.0123742237774
 20
0.7628263922191891
 30
0.0
 11
35.97691545773309
 21
1.798285158263504
 31
0.0
  0
LINE
  5
1BE32
330
1BE08
100
AcDbEntity
  8
0
  6
CONTINUOUS
100
AcDbLine
 10
33.08199999996839
 20
4.6932006160282
 30
0.0
 11
31.64199999996833
 21
6.133200616028255
 31
0.0
  0
LINE
  5
1BE33
330
1BE08
100
AcDbEntity
  8
0
  6
CONTINUOUS
100
AcDbLine
 10
37.27491524157143
 20
1.173804583505349
 30
0.0
 11
36.17602012811361
 21
2.272699696963169
 31
0.0
  0
LINE
  5
1BE34
330
1BE08
100
AcDbEntity
  8
0
  6
CONTINUOUS
100
AcDbLine
 10
33.08199999996839
 20
5.366719825108387
 30
0.0
 11
31.64199999996833
 21
6.806719825108441
 31
0.0
  0
LINE
  5
1BE35
330
1BE08
100
AcDbEntity
  8
0
  6
CONTINUOUS
100
AcDbLine
 10
37.51739996707661
 20
1.604839067080355
 30
0.0
 11
36.23199999996837
 21
2.890239034188595
 31
0.0
  0
LINE
  5
1BE36
330
1BE08
100
AcDbEntity
  8
0
  6
CONTINUOUS
100
AcDbLine
 10
37.6183579579535
 20
2.177400285283649
 30
0.0
 11
36.23199999996837
 21
3.563758243268782
 31
0.0
  0
LINE
  5
1BE37
330
1BE08
100
AcDbEntity
  8
0
  6
CONTINUOUS
100
AcDbLine
 10
33.08199999996839
 20
6.040239034188573
 30
0.0
 11
31.64199999996833
 21
7.480239034188628
 31
0.0
  0
LINE
  5
1BE38
330
1BE08
100
AcDbEntity
  8
0
  6
CONTINUOUS
100
AcDbLine
 10
33.08199999996839
 20
6.713758243268759
 30
0.0
 11
31.64199999996833
 21
8.153758243268815
 31
0.0
  0
LINE
  5
1BE39
330
1BE08
100
AcDbEntity
  8
0
  6
CONTINUOUS
100
AcDbLine
 10
37.67199999996831
 20
2.797277452349027
 30
0.0
 11
36.23199999996837
 21
4.237277452348969
 31
0.0
  0
LINE
  5
1BE3A
330
1BE08
100
AcDbEntity
  8
0
  6
CONTINUOUS
100
AcDbLine
 10
37.67199999996831
 20
3.470796661429214
 30
0.0
 11
36.23199999996837
 21
4.910796661429155
 31
0.0
  0
LINE
  5
1BE3B
330
1BE08
100
AcDbEntity
  8
0
  6
CONTINUOUS
100
AcDbLine
 10
37.67199999996831
 20
4.1443158705094
 30
0.0
 11
36.23199999996837
 21
5.584315870509341
 31
0.0
  0
LINE
  5
1BE3C
330
1BE08
100
AcDbEntity
  8
0
  6
CONTINUOUS
100
AcDbLine
 10
33.08199999996839
 20
7.387277452348946
 30
0.0
 11
31.70617745232608
 21
8.763099999991255
 31
0.0
  0
LINE
  5
1BE3D
330
1BE08
100
AcDbEntity
  8
0
  6
CONTINUOUS
100
AcDbLine
 10
33.08199999996839
 20
8.060796661429134
 30
0.0
 11
32.37969666140626
 21
8.763099999991255
 31
0.0
  0
LINE
  5
1BE3E
330
1BE08
100
AcDbEntity
  8
0
  6
CONTINUOUS
100
AcDbLine
 10
33.08199999996839
 20
8.734315870509318
 30
0.0
 11
33.05321587048645
 21
8.763099999991255
 31
0.0
  0
LINE
  5
1BE3F
330
1BE08
100
AcDbEntity
  8
0
  6
CONTINUOUS
100
AcDbLine
 10
37.67199999996831
 20
4.817835079589586
 30
0.0
 11
36.23199999996837
 21
6.257835079589528
 31
0.0
  0
LINE
  5
1BE40
330
1BE08
100
AcDbEntity
  8
0
  6
CONTINUOUS
100
AcDbLine
 10
37.67199999996831
 20
5.491354288669772
 30
0.0
 11
36.23199999996837
 21
6.931354288669715
 31
0.0
  0
LINE
  5
1BE41
330
1BE08
100
AcDbEntity
  8
0
  6
CONTINUOUS
100
AcDbLine
 10
37.67199999996831
 20
6.164873497749959
 30
0.0
 11
36.23199999996837
 21
7.6048734977499
 31
0.0
  0
LINE
  5
1BE42
330
1BE08
100
AcDbEntity
  8
0
  6
CONTINUOUS
100
AcDbLine
 10
37.67199999996831
 20
6.838392706830145
 30
0.0
 11
36.23199999996837
 21
8.278392706830086
 31
0.0
  0
LINE
  5
1BE43
330
1BE08
100
AcDbEntity
  8
0
  6
CONTINUOUS
100
AcDbLine
 10
37.67199999996831
 20
7.511911915910333
 30
0.0
 11
36.42081191588738
 21
8.763099999991255
 31
0.0
  0
LINE
  5
1BE44
330
1BE08
100
AcDbEntity
  8
0
  6
CONTINUOUS
100
AcDbLine
 10
37.67199999996831
 20
8.185431124990519
 30
0.0
 11
37.09433112496757
 21
8.763099999991255
 31
0.0
  0
ENDBLK
  5
1BEAC
330
1BE08
100
AcDbEntity
  8
0
100
AcDbBlockEnd
  0
BLOCK
  5
1BEAD
330
1BE45
100
AcDbEntity
  8
0
100
AcDbBlockBegin
  2
*X184
 70
     1
 10
0.0
 20
0.0
 30
0.0
  3
*X184
  1

  0
LINE
  5
1BE46
330
1BE45
100
AcDbEntity
  8
0
  6
CONTINUOUS
100
AcDbLine
 10
38.60499999996136
 20
8.762866199104765
 30
0.0
 11
38.71672554182345
 21
8.874591740966855
 31
0.0
  0
LINE
  5
1BE47
330
1BE45
100
AcDbEntity
  8
0
  6
CONTINUOUS
100
AcDbLine
 10
38.60499999996136
 20
8.089346990024577
 30
0.0
 11
39.03418785440363
 21
8.518534844466847
 31
0.0
  0
LINE
  5
1BE48
330
1BE45
100
AcDbEntity
  8
0
  6
CONTINUOUS
100
AcDbLine
 10
38.60499999996136
 20
7.41582778094439
 30
0.0
 11
39.35165016698382
 21
8.16247794796684
 31
0.0
  0
LINE
  5
1BE49
330
1BE45
100
AcDbEntity
  8
0
  6
CONTINUOUS
100
AcDbLine
 10
38.60499999996136
 20
6.742308571864204
 30
0.0
 11
39.66911247956399
 21
7.806421051466834
 31
0.0
  0
LINE
  5
1BE4A
330
1BE45
100
AcDbEntity
  8
0
  6
CONTINUOUS
100
AcDbLine
 10
38.60499999996136
 20
6.068789362784018
 30
0.0
 11
39.98657479214418
 21
7.450364154966827
 31
0.0
  0
LINE
  5
1BE4B
330
1BE45
100
AcDbEntity
  8
0
  6
CONTINUOUS
100
AcDbLine
 10
38.60499999996136
 20
5.395270153703832
 30
0.0
 11
40.30403710472435
 21
7.09430725846682
 31
0.0
  0
LINE
  5
1BE4C
330
1BE45
100
AcDbEntity
  8
0
  6
CONTINUOUS
100
AcDbLine
 10
38.60499999996136
 20
4.721750944623645
 30
0.0
 11
40.62149941730453
 21
6.738250361966813
 31
0.0
  0
LINE
  5
1BE4D
330
1BE45
100
AcDbEntity
  8
0
  6
CONTINUOUS
100
AcDbLine
 10
38.60499999996136
 20
4.048231735543458
 30
0.0
 11
40.93896172988471
 21
6.382193465466806
 31
0.0
  0
LINE
  5
1BE4E
330
1BE45
100
AcDbEntity
  8
0
  6
CONTINUOUS
100
AcDbLine
 10
38.60499999996136
 20
3.374712526463272
 30
0.0
 11
40.02599999995994
 21
4.795712526461843
 31
0.0
  0
LINE
  5
1BE4F
330
1BE45
100
AcDbEntity
  8
0
  6
CONTINUOUS
100
AcDbLine
 10
38.60499999996136
 20
2.701193317383085
 30
0.0
 11
40.02599999995994
 21
4.122193317381657
 31
0.0
  0
LINE
  5
1BE50
330
1BE45
100
AcDbEntity
  8
0
  6
CONTINUOUS
100
AcDbLine
 10
40.28339754687704
 20
5.053110073378947
 30
0.0
 11
41.25642404246489
 21
6.026136568966799
 31
0.0
  0
LINE
  5
1BE51
330
1BE45
100
AcDbEntity
  8
0
  6
CONTINUOUS
100
AcDbLine
 10
40.60085985945722
 20
4.697053176878939
 30
0.0
 11
41.57388635504507
 21
5.670079672466793
 31
0.0
  0
LINE
  5
1BE52
330
1BE45
100
AcDbEntity
  8
0
  6
CONTINUOUS
100
AcDbLine
 10
43.57899999995641
 20
8.348712526458318
 30
0.0
 11
43.99338747348935
 21
8.763099999991255
 31
0.0
  0
LINE
  5
1BE53
330
1BE45
100
AcDbEntity
  8
0
  6
CONTINUOUS
100
AcDbLine
 10
43.57899999995641
 20
7.675193317378131
 30
0.0
 11
44.66690668256953
 21
8.763099999991255
 31
0.0
  0
LINE
  5
1BE54
330
1BE45
100
AcDbEntity
  8
0
  6
CONTINUOUS
100
AcDbLine
 10
38.60499999996136
 20
2.027674108302898
 30
0.0
 11
40.02599999995994
 21
3.44867410830147
 31
0.0
  0
LINE
  5
1BE55
330
1BE45
100
AcDbEntity
  8
0
  6
CONTINUOUS
100
AcDbLine
 10
38.60499999996136
 20
1.354154899222712
 30
0.0
 11
40.02599999995994
 21
2.775154899221284
 31
0.0
  0
LINE
  5
1BE56
330
1BE45
100
AcDbEntity
  8
0
  6
CONTINUOUS
100
AcDbLine
 10
38.60499999996136
 20
0.6806356901425255
 30
0.0
 11
40.02599999995994
 21
2.101635690141098
 31
0.0
  0
LINE
  5
1BE57
330
1BE45
100
AcDbEntity
  8
0
  6
CONTINUOUS
100
AcDbLine
 10
38.60499999996136
 20
0.0071164810623383
 30
0.0
 11
40.02599999995994
 21
1.428116481060911
 31
0.0
  0
LINE
  5
1BE58
330
1BE45
100
AcDbEntity
  8
0
  6
CONTINUOUS
100
AcDbLine
 10
40.9183221720374
 20
4.340996280378933
 30
0.0
 11
41.89134866762525
 21
5.314022775966786
 31
0.0
  0
LINE
  5
1BE59
330
1BE45
100
AcDbEntity
  8
0
  6
CONTINUOUS
100
AcDbLine
 10
41.23578448461758
 20
3.984939383878926
 30
0.0
 11
42.20881098020543
 21
4.957965879466778
 31
0.0
  0
LINE
  5
1BE5A
330
1BE45
100
AcDbEntity
  8
0
  6
CONTINUOUS
100
AcDbLine
 10
41.55324679719776
 20
3.628882487378919
 30
0.0
 11
42.52627329278561
 21
4.601908982966772
 31
0.0
  0
LINE
  5
1BE5B
330
1BE45
100
AcDbEntity
  8
0
  6
CONTINUOUS
100
AcDbLine
 10
41.87070910977793
 20
3.272825590878912
 30
0.0
 11
42.84373560536579
 21
4.245852086466765
 31
0.0
  0
LINE
  5
1BE5C
330
1BE45
100
AcDbEntity
  8
0
  6
CONTINUOUS
100
AcDbLine
 10
43.57899999995641
 20
7.001674108297943
 30
0.0
 11
44.99999999995498
 21
8.422674108296516
 31
0.0
  0
LINE
  5
1BE5D
330
1BE45
100
AcDbEntity
  8
0
  6
CONTINUOUS
100
AcDbLine
 10
43.57899999995641
 20
6.328154899217758
 30
0.0
 11
44.99999999995498
 21
7.749154899216329
 31
0.0
  0
LINE
  5
1BE5E
330
1BE45
100
AcDbEntity
  8
0
  6
CONTINUOUS
100
AcDbLine
 10
43.57899999995641
 20
5.654635690137571
 30
0.0
 11
44.99999999995498
 21
7.075635690136142
 31
0.0
  0
LINE
  5
1BE5F
330
1BE45
100
AcDbEntity
  8
0
  6
CONTINUOUS
100
AcDbLine
 10
43.57899999995641
 20
4.981116481057384
 30
0.0
 11
44.99999999995498
 21
6.402116481055955
 31
0.0
  0
LINE
  5
1BE60
330
1BE45
100
AcDbEntity
  8
0
  6
CONTINUOUS
100
AcDbLine
 10
39.27140272797921
 20
-0.0000000000000009
 30
0.0
 11
40.02599999995994
 21
0.7545972719807246
 31
0.0
  0
LINE
  5
1BE61
330
1BE45
100
AcDbEntity
  8
0
  6
CONTINUOUS
100
AcDbLine
 10
39.9449219370594
 20
-0.0000000000000009
 30
0.0
 11
40.02599999995994
 21
0.0810780629005379
 31
0.0
  0
LINE
  5
1BE62
330
1BE45
100
AcDbEntity
  8
0
  6
CONTINUOUS
100
AcDbLine
 10
42.18817142235812
 20
2.916768694378905
 30
0.0
 11
43.16119791794597
 21
3.889795189966758
 31
0.0
  0
LINE
  5
1BE63
330
1BE45
100
AcDbEntity
  8
0
  6
CONTINUOUS
100
AcDbLine
 10
42.50563373493829
 20
2.560711797878898
 30
0.0
 11
43.47866023052615
 21
3.533738293466751
 31
0.0
  0
LINE
  5
1BE64
330
1BE45
100
AcDbEntity
  8
0
  6
CONTINUOUS
100
AcDbLine
 10
43.57899999995641
 20
4.307597271977198
 30
0.0
 11
44.99999999995498
 21
5.728597271975769
 31
0.0
  0
LINE
  5
1BE65
330
1BE45
100
AcDbEntity
  8
0
  6
CONTINUOUS
100
AcDbLine
 10
43.57899999995641
 20
3.634078062897011
 30
0.0
 11
44.99999999995498
 21
5.055078062895582
 31
0.0
  0
LINE
  5
1BE66
330
1BE45
100
AcDbEntity
  8
0
  6
CONTINUOUS
100
AcDbLine
 10
42.82309604751848
 20
2.204654901378891
 30
0.0
 11
44.99999999995498
 21
4.381558853815395
 31
0.0
  0
LINE
  5
1BE67
330
1BE45
100
AcDbEntity
  8
0
  6
CONTINUOUS
100
AcDbLine
 10
43.14055836009865
 20
1.848598004878885
 30
0.0
 11
44.99999999995498
 21
3.70803964473521
 31
0.0
  0
LINE
  5
1BE68
330
1BE45
100
AcDbEntity
  8
0
  6
CONTINUOUS
100
AcDbLine
 10
43.45802067267883
 20
1.492541108378878
 30
0.0
 11
44.99999999995498
 21
3.034520435655023
 31
0.0
  0
LINE
  5
1BE69
330
1BE45
100
AcDbEntity
  8
0
  6
CONTINUOUS
100
AcDbLine
 10
43.77548298525902
 20
1.136484211878871
 30
0.0
 11
44.99999999995498
 21
2.361001226574837
 31
0.0
  0
LINE
  5
1BE6A
330
1BE45
100
AcDbEntity
  8
0
  6
CONTINUOUS
100
AcDbLine
 10
44.09294529783919
 20
0.7804273153788639
 30
0.0
 11
44.99999999995498
 21
1.687482017494649
 31
0.0
  0
LINE
  5
1BE6B
330
1BE45
100
AcDbEntity
  8
0
  6
CONTINUOUS
100
AcDbLine
 10
44.41040761041938
 20
0.4243704188788566
 30
0.0
 11
44.99999999995498
 21
1.013962808414463
 31
0.0
  0
LINE
  5
1BE6C
330
1BE45
100
AcDbEntity
  8
0
  6
CONTINUOUS
100
AcDbLine
 10
44.72786992299955
 20
0.0683135223788494
 30
0.0
 11
44.99999999995498
 21
0.340443599334276
 31
0.0
  0
LINE
  5
1BE6D
330
1BE45
100
AcDbEntity
  8
0
  6
CONTINUOUS
100
AcDbLine
 10
39.12223903415696
 20
-0.0000000000000009
 30
0.0
 11
38.60499999996136
 21
0.5172390341955961
 31
0.0
  0
LINE
  5
1BE6E
330
1BE45
100
AcDbEntity
  8
0
  6
CONTINUOUS
100
AcDbLine
 10
39.79575824323715
 20
-0.0000000000000009
 30
0.0
 11
38.60499999996136
 21
1.190758243275783
 31
0.0
  0
LINE
  5
1BE6F
330
1BE45
100
AcDbEntity
  8
0
  6
CONTINUOUS
100
AcDbLine
 10
40.02599999995994
 20
0.443277452357397
 30
0.0
 11
38.60499999996136
 21
1.864277452355969
 31
0.0
  0
LINE
  5
1BE70
330
1BE45
100
AcDbEntity
  8
0
  6
CONTINUOUS
100
AcDbLine
 10
40.02599999995994
 20
1.116796661437583
 30
0.0
 11
38.60499999996136
 21
2.537796661436155
 31
0.0
  0
LINE
  5
1BE71
330
1BE45
100
AcDbEntity
  8
0
  6
CONTINUOUS
100
AcDbLine
 10
40.02599999995994
 20
1.79031587051777
 30
0.0
 11
38.60499999996136
 21
3.211315870516341
 31
0.0
  0
LINE
  5
1BE72
330
1BE45
100
AcDbEntity
  8
0
  6
CONTINUOUS
100
AcDbLine
 10
40.02599999995994
 20
2.463835079597956
 30
0.0
 11
38.60499999996136
 21
3.884835079596527
 31
0.0
  0
LINE
  5
1BE73
330
1BE45
100
AcDbEntity
  8
0
  6
CONTINUOUS
100
AcDbLine
 10
40.02599999995994
 20
3.137354288678143
 30
0.0
 11
38.60499999996136
 21
4.558354288676714
 31
0.0
  0
LINE
  5
1BE74
330
1BE45
100
AcDbEntity
  8
0
  6
CONTINUOUS
100
AcDbLine
 10
40.02599999995994
 20
3.810873497758329
 30
0.0
 11
38.60499999996136
 21
5.2318734977569
 31
0.0
  0
LINE
  5
1BE75
330
1BE45
100
AcDbEntity
  8
0
  6
CONTINUOUS
100
AcDbLine
 10
40.02599999995994
 20
4.484392706838515
 30
0.0
 11
38.60499999996136
 21
5.905392706837086
 31
0.0
  0
LINE
  5
1BE76
330
1BE45
100
AcDbEntity
  8
0
  6
CONTINUOUS
100
AcDbLine
 10
44.99999999995498
 20
0.183911915923658
 30
0.0
 11
41.53858364506288
 21
3.64532827081576
 31
0.0
  0
LINE
  5
1BE77
330
1BE45
100
AcDbEntity
  8
0
  6
CONTINUOUS
100
AcDbLine
 10
40.02599999995994
 20
5.157911915918703
 30
0.0
 11
38.60499999996136
 21
6.578911915917274
 31
0.0
  0
LINE
  5
1BE78
330
1BE45
100
AcDbEntity
  8
0
  6
CONTINUOUS
100
AcDbLine
 10
44.99999999995498
 20
0.8574311250038447
 30
0.0
 11
38.60499999996136
 21
7.25243112499746
 31
0.0
  0
LINE
  5
1BE79
330
1BE45
100
AcDbEntity
  8
0
  6
CONTINUOUS
100
AcDbLine
 10
44.99999999995498
 20
1.530950334084031
 30
0.0
 11
38.60499999996136
 21
7.925950334077647
 31
0.0
  0
LINE
  5
1BE7A
330
1BE45
100
AcDbEntity
  8
0
  6
CONTINUOUS
100
AcDbLine
 10
44.99999999995498
 20
2.204469543164218
 30
0.0
 11
43.57899999995641
 21
3.625469543162789
 31
0.0
  0
LINE
  5
1BE7B
330
1BE45
100
AcDbEntity
  8
0
  6
CONTINUOUS
100
AcDbLine
 10
41.89876730984767
 20
5.305702233271528
 30
0.0
 11
38.60499999996136
 21
8.599469543157834
 31
0.0
  0
LINE
  5
1BE7C
330
1BE45
100
AcDbEntity
  8
0
  6
CONTINUOUS
100
AcDbLine
 10
44.99999999995498
 20
2.877988752244405
 30
0.0
 11
43.57899999995641
 21
4.298988752242975
 31
0.0
  0
LINE
  5
1BE7D
330
1BE45
100
AcDbEntity
  8
0
  6
CONTINUOUS
100
AcDbLine
 10
44.99999999995498
 20
3.551507961324591
 30
0.0
 11
43.57899999995641
 21
4.972507961323163
 31
0.0
  0
LINE
  5
1BE7E
330
1BE45
100
AcDbEntity
  8
0
  6
CONTINUOUS
100
AcDbLine
 10
44.99999999995498
 20
4.225027170404777
 30
0.0
 11
43.57899999995641
 21
5.646027170403348
 31
0.0
  0
LINE
  5
1BE7F
330
1BE45
100
AcDbEntity
  8
0
  6
CONTINUOUS
100
AcDbLine
 10
44.99999999995498
 20
4.898546379484964
 30
0.0
 11
43.57899999995641
 21
6.319546379483535
 31
0.0
  0
LINE
  5
1BE80
330
1BE45
100
AcDbEntity
  8
0
  6
CONTINUOUS
100
AcDbLine
 10
44.99999999995498
 20
5.572065588565151
 30
0.0
 11
43.57899999995641
 21
6.993065588563722
 31
0.0
  0
LINE
  5
1BE81
330
1BE45
100
AcDbEntity
  8
0
  6
CONTINUOUS
100
AcDbLine
 10
44.99999999995498
 20
6.245584797645336
 30
0.0
 11
43.57899999995641
 21
7.666584797643908
 31
0.0
  0
LINE
  5
1BE82
330
1BE45
100
AcDbEntity
  8
0
  6
CONTINUOUS
100
AcDbLine
 10
44.99999999995498
 20
6.919104006725522
 30
0.0
 11
43.57899999995641
 21
8.340104006724093
 31
0.0
  0
LINE
  5
1BE83
330
1BE45
100
AcDbEntity
  8
0
  6
CONTINUOUS
100
AcDbLine
 10
44.99999999995498
 20
7.592623215805709
 30
0.0
 11
43.82952321576943
 21
8.763099999991255
 31
0.0
  0
LINE
  5
1BE84
330
1BE45
100
AcDbEntity
  8
0
  6
CONTINUOUS
100
AcDbLine
 10
44.99999999995498
 20
8.266142424885896
 30
0.0
 11
44.50304242484962
 21
8.763099999991255
 31
0.0
  0
ENDBLK
  5
1BEAE
330
1BE45
100
AcDbEntity
  8
0
100
AcDbBlockEnd
  0
BLOCK
  5
1BEAF
330
1BE85
100
AcDbEntity
  8
0
100
AcDbBlockBegin
  2
*X185
 70
     1
 10
0.0
 20
0.0
 30
0.0
  3
*X185
  1

  0
LINE
  5
1BE86
330
1BE85
100
AcDbEntity
  8
0
  6
CONTINUOUS
100
AcDbLine
 10
0.0
 20
8.548461116714023
 30
0.0
 11
0.2146388832772324
 21
8.763099999991255
 31
0.0
  0
LINE
  5
1BE87
330
1BE85
100
AcDbEntity
  8
0
  6
CONTINUOUS
100
AcDbLine
 10
-0.0000000000000002
 20
7.874941907633837
 30
0.0
 11
0.8881580923574184
 21
8.763099999991255
 31
0.0
  0
LINE
  5
1BE88
330
1BE85
100
AcDbEntity
  8
0
  6
CONTINUOUS
100
AcDbLine
 10
0.0
 20
7.20142269855365
 30
0.0
 11
1.420999999998572
 21
8.622422698552223
 31
0.0
  0
LINE
  5
1BE89
330
1BE85
100
AcDbEntity
  8
0
  6
CONTINUOUS
100
AcDbLine
 10
-0.0000000000000001
 20
6.527903489473465
 30
0.0
 11
1.420999999998571
 21
7.948903489472036
 31
0.0
  0
LINE
  5
1BE8A
330
1BE85
100
AcDbEntity
  8
0
  6
CONTINUOUS
100
AcDbLine
 10
-0.0000000000000002
 20
5.854384280393278
 30
0.0
 11
1.420999999998571
 21
7.275384280391849
 31
0.0
  0
LINE
  5
1BE8B
330
1BE85
100
AcDbEntity
  8
0
  6
CONTINUOUS
100
AcDbLine
 10
-0.0000000000000002
 20
5.180865071313091
 30
0.0
 11
1.420999999998571
 21
6.601865071311663
 31
0.0
  0
LINE
  5
1BE8C
330
1BE85
100
AcDbEntity
  8
0
  6
CONTINUOUS
100
AcDbLine
 10
0.0
 20
4.507345862232905
 30
0.0
 11
1.420999999998571
 21
5.928345862231477
 31
0.0
  0
LINE
  5
1BE8D
330
1BE85
100
AcDbEntity
  8
0
  6
CONTINUOUS
100
AcDbLine
 10
-0.0000000000000003
 20
3.833826653152718
 30
0.0
 11
1.420999999998571
 21
5.25482665315129
 31
0.0
  0
LINE
  5
1BE8E
330
1BE85
100
AcDbEntity
  8
0
  6
CONTINUOUS
100
AcDbLine
 10
-0.0000000000000002
 20
3.160307444072532
 30
0.0
 11
1.420999999998571
 21
4.581307444071103
 31
0.0
  0
LINE
  5
1BE8F
330
1BE85
100
AcDbEntity
  8
0
  6
CONTINUOUS
100
AcDbLine
 10
-0.0000000000000001
 20
2.486788234992345
 30
0.0
 11
1.420999999998571
 21
3.907788234990917
 31
0.0
  0
LINE
  5
1BE90
330
1BE85
100
AcDbEntity
  8
0
  6
CONTINUOUS
100
AcDbLine
 10
-0.0000000000000006
 20
1.813269025912159
 30
0.0
 11
1.420999999998571
 21
3.234269025910731
 31
0.0
  0
LINE
  5
1BE91
330
1BE85
100
AcDbEntity
  8
0
  6
CONTINUOUS
100
AcDbLine
 10
0.0
 20
1.139749816831973
 30
0.0
 11
1.420999999998571
 21
2.560749816830544
 31
0.0
  0
LINE
  5
1BE92
330
1BE85
100
AcDbEntity
  8
0
  6
CONTINUOUS
100
AcDbLine
 10
0.0000000000000002
 20
0.466230607751787
 30
0.0
 11
1.420999999998571
 21
1.887230607750358
 31
0.0
  0
LINE
  5
1BE93
330
1BE85
100
AcDbEntity
  8
0
  6
CONTINUOUS
100
AcDbLine
 10
0.2072886013284003
 20
-0.0000000000000009
 30
0.0
 11
1.420999999998571
 21
1.213711398670171
 31
0.0
  0
LINE
  5
1BE94
330
1BE85
100
AcDbEntity
  8
0
  6
CONTINUOUS
100
AcDbLine
 10
0.8808078104085864
 20
-0.0000000000000009
 30
0.0
 11
1.420999999998571
 21
0.5401921895899839
 31
0.0
  0
LINE
  5
1BE95
330
1BE85
100
AcDbEntity
  8
0
  6
CONTINUOUS
100
AcDbLine
 10
0.0581249075061505
 20
-0.0000000000000009
 30
0.0
 11
-0.0000000000000002
 21
0.0581249075061496
 31
0.0
  0
LINE
  5
1BE96
330
1BE85
100
AcDbEntity
  8
0
  6
CONTINUOUS
100
AcDbLine
 10
0.7316441165863372
 20
-0.0000000000000009
 30
0.0
 11
-0.0000000000000002
 21
0.7316441165863363
 31
0.0
  0
LINE
  5
1BE97
330
1BE85
100
AcDbEntity
  8
0
  6
CONTINUOUS
100
AcDbLine
 10
1.405163325666523
 20
-0.0000000000000009
 30
0.0
 11
-0.0000000000000002
 21
1.405163325666523
 31
0.0
  0
LINE
  5
1BE98
330
1BE85
100
AcDbEntity
  8
0
  6
CONTINUOUS
100
AcDbLine
 10
1.420999999998572
 20
0.6576825347481381
 30
0.0
 11
-0.0000000000000001
 21
2.07868253474671
 31
0.0
  0
LINE
  5
1BE99
330
1BE85
100
AcDbEntity
  8
0
  6
CONTINUOUS
100
AcDbLine
 10
1.420999999998571
 20
1.331201743828324
 30
0.0
 11
-0.0000000000000001
 21
2.752201743826896
 31
0.0
  0
LINE
  5
1BE9A
330
1BE85
100
AcDbEntity
  8
0
  6
CONTINUOUS
100
AcDbLine
 10
1.420999999998571
 20
2.004720952908511
 30
0.0
 11
-0.0000000000000002
 21
3.425720952907082
 31
0.0
  0
LINE
  5
1BE9B
330
1BE85
100
AcDbEntity
  8
0
  6
CONTINUOUS
100
AcDbLine
 10
1.420999999998571
 20
2.678240161988697
 30
0.0
 11
-0.0000000000000001
 21
4.099240161987269
 31
0.0
  0
LINE
  5
1BE9C
330
1BE85
100
AcDbEntity
  8
0
  6
CONTINUOUS
100
AcDbLine
 10
1.420999999998572
 20
3.351759371068884
 30
0.0
 11
0.0
 21
4.772759371067455
 31
0.0
  0
LINE
  5
1BE9D
330
1BE85
100
AcDbEntity
  8
0
  6
CONTINUOUS
100
AcDbLine
 10
1.420999999998571
 20
4.02527858014907
 30
0.0
 11
-0.0000000000000003
 21
5.446278580147642
 31
0.0
  0
LINE
  5
1BE9E
330
1BE85
100
AcDbEntity
  8
0
  6
CONTINUOUS
100
AcDbLine
 10
1.420999999998571
 20
4.698797789229257
 30
0.0
 11
0.0
 21
6.119797789227828
 31
0.0
  0
LINE
  5
1BE9F
330
1BE85
100
AcDbEntity
  8
0
  6
CONTINUOUS
100
AcDbLine
 10
1.420999999998571
 20
5.372316998309444
 30
0.0
 11
-0.0000000000000001
 21
6.793316998308015
 31
0.0
  0
LINE
  5
1BEA0
330
1BE85
100
AcDbEntity
  8
0
  6
CONTINUOUS
100
AcDbLine
 10
1.420999999998572
 20
6.045836207389629
 30
0.0
 11
-0.0000000000000004
 21
7.466836207388202
 31
0.0
  0
LINE
  5
1BEA1
330
1BE85
100
AcDbEntity
  8
0
  6
CONTINUOUS
100
AcDbLine
 10
1.420999999998571
 20
6.719355416469816
 30
0.0
 11
0.0
 21
8.140355416468388
 31
0.0
  0
LINE
  5
1BEA2
330
1BE85
100
AcDbEntity
  8
0
  6
CONTINUOUS
100
AcDbLine
 10
1.420999999998571
 20
7.392874625550003
 30
0.0
 11
0.0507746255573185
 21
8.763099999991255
 31
0.0
  0
LINE
  5
1BEA3
330
1BE85
100
AcDbEntity
  8
0
  6
CONTINUOUS
100
AcDbLine
 10
1.420999999998571
 20
8.06639383463019
 30
0.0
 11
0.7242938346375052
 21
8.763099999991255
 31
0.0
  0
LINE
  5
1BEA4
330
1BE85
100
AcDbEntity
  8
0
  6
CONTINUOUS
100
AcDbLine
 10
1.420999999998571
 20
8.739913043710375
 30
0.0
 11
1.397813043717691
 21
8.763099999991255
 31
0.0
  0
ENDBLK
  5
1BEB0
330
1BE85
100
AcDbEntity
  8
0
100
AcDbBlockEnd
  0
ENDSEC
  0
SECTION
  2
ENTITIES
  0
LINE
  5
1AC7D
330
18
100
AcDbEntity
  8
01
100
AcDbLine
 10
2334.173047705771
 20
-572.0582269970902
 30
0.0
 11
2348.173047705771
 21
-572.0582269970902
 31
0.0
  0
LINE
  5
1AC7E
330
18
100
AcDbEntity
  8
01
100
AcDbLine
 10
2339.173931887831
 20
-360.0582269981188
 30
0.0
 11
2492.928312042864
 21
-360.0582269981188
 31
0.0
  0
LINE
  5
1AC7F
330
18
100
AcDbEntity
  8
01
  6
BYBLOCK
100
AcDbLine
 10
2339.173931887831
 20
-360.0582269981188
 30
0.0
 11
2339.173931887831
 21
-400.0582269981188
 31
0.0
  0
LINE
  5
1AC83
330
18
100
AcDbEntity
  8
01
  6
BYBLOCK
100
AcDbLine
 10
2340.673047705771
 20
-564.1582269970901
 30
0.0
 11
2340.673047705771
 21
-693.95822699709
 31
0.0
  0
LINE
  5
1AC84
330
18
100
AcDbEntity
  8
01
  6
BYBLOCK
100
AcDbLine
 10
2340.673047705771
 20
-693.0582269970902
 30
0.0
 11
2343.173047705771
 21
-693.0582269970902
 31
0.0
  0
LINE
  5
1AC85
330
18
100
AcDbEntity
  8
01
  6
BYBLOCK
100
AcDbLine
 10
2343.173047705771
 20
-693.0582269970902
 30
0.0
 11
2343.173047705771
 21
-676.5552832719378
 31
0.0
  0
LINE
  5
1AC86
330
18
100
AcDbEntity
  8
01
  6
BYBLOCK
100
AcDbLine
 10
2339.173047705771
 20
-564.1582269970901
 30
0.0
 11
2339.173047705771
 21
-693.95822699709
 31
0.0
  0
LINE
  5
1AC87
330
18
100
AcDbEntity
  8
01
  6
BYBLOCK
100
AcDbLine
 10
2339.173047705771
 20
-693.95822699709
 30
0.0
 11
2340.673047705771
 21
-693.95822699709
 31
0.0
  0
LINE
  5
1AC88
330
18
100
AcDbEntity
  8
01
  6
BYBLOCK
100
AcDbLine
 10
2340.673047705771
 20
-565.0582269970902
 30
0.0
 11
2343.173047705771
 21
-565.0582269970902
 31
0.0
  0
LINE
  5
1AC89
330
18
100
AcDbEntity
  8
01
  6
BYBLOCK
100
AcDbLine
 10
2339.173047705771
 20
-564.1582269970901
 30
0.0
 11
2340.673047705771
 21
-564.1582269970901
 31
0.0
  0
LINE
  5
1AC8A
330
18
100
AcDbEntity
  8
01
  6
BYBLOCK
100
AcDbLine
 10
2340.673047705771
 20
-589.0582269970902
 30
0.0
 11
2341.873047705771
 21
-589.0582269970902
 31
0.0
  0
LINE
  5
1AC8B
330
18
100
AcDbEntity
  8
01
  6
BYBLOCK
100
AcDbLine
 10
2341.873047705771
 20
-583.3582269970899
 30
0.0
 11
2341.873047705771
 21
-674.75822699709
 31
0.0
  0
LINE
  5
1AC8C
330
18
100
AcDbEntity
  8
01
  6
BYBLOCK
100
AcDbLine
 10
2341.973047705771
 20
-693.0582269970902
 30
0.0
 11
2341.973047705771
 21
-676.45822699709
 31
0.0
  0
LINE
  5
1AC8D
330
18
100
AcDbEntity
  8
01
  6
BYBLOCK
100
AcDbLine
 10
2341.973047705771
 20
-676.45822699709
 30
0.0
 11
2341.024519568347
 21
-675.5096988596662
 31
0.0
  0
LINE
  5
1AC8E
330
18
100
AcDbEntity
  8
01
  6
BYBLOCK
100
AcDbLine
 10
2342.821575843195
 20
-675.7067551345139
 30
0.0
 11
2341.873047705771
 21
-674.75822699709
 31
0.0
  0
ARC
  5
1AC8F
330
18
100
AcDbEntity
  8
01
  6
BYBLOCK
100
AcDbCircle
 10
2341.973047705771
 20
-676.5552832719378
 30
0.0
 40
1.2
100
AcDbArc
 50
0.0
 51
45.00000000003838
  0
ARC
  5
1AC90
330
18
100
AcDbEntity
  8
01
  6
BYBLOCK
100
AcDbCircle
 10
2341.873047705771
 20
-674.6611707222422
 30
0.0
 40
1.2
100
AcDbArc
 50
180.0
 51
225.0000000000384
  0
LINE
  5
1AC91
330
18
100
AcDbEntity
  8
01
  6
BYBLOCK
100
AcDbLine
 10
2343.173047705771
 20
-565.0582269970902
 30
0.0
 11
2343.173047705771
 21
-581.5611707222423
 31
0.0
  0
LINE
  5
1AC92
330
18
100
AcDbEntity
  8
01
  6
BYBLOCK
100
AcDbLine
 10
2341.973047705771
 20
-565.0582269970902
 30
0.0
 11
2341.973047705771
 21
-581.6582269970901
 31
0.0
  0
LINE
  5
1AC93
330
18
100
AcDbEntity
  8
01
  6
BYBLOCK
100
AcDbLine
 10
2341.973047705771
 20
-581.6582269970901
 30
0.0
 11
2341.024519568347
 21
-582.606755134514
 31
0.0
  0
LINE
  5
1AC94
330
18
100
AcDbEntity
  8
01
  6
BYBLOCK
100
AcDbLine
 10
2342.821575843195
 20
-582.4096988596663
 30
0.0
 11
2341.873047705771
 21
-583.3582269970901
 31
0.0
  0
ARC
  5
1AC95
330
18
100
AcDbEntity
  8
01
  6
BYBLOCK
100
AcDbCircle
 10
2341.973047705771
 20
-581.5611707222423
 30
0.0
 40
1.2
100
AcDbArc
 50
314.9999999999616
 51
0.0
  0
ARC
  5
1AC96
330
18
100
AcDbEntity
  8
01
  6
BYBLOCK
100
AcDbCircle
 10
2341.873047705771
 20
-583.4552832719379
 30
0.0
 40
1.2
100
AcDbArc
 50
134.9999999999616
 51
180.0
  0
CIRCLE
  5
1AC97
330
18
100
AcDbEntity
  8
01
  6
BYBLOCK
100
AcDbCircle
 10
2390.173047705771
 20
-600.0582269970902
 30
0.0
 40
4.75
  0
LINE
  5
1AC98
330
18
100
AcDbEntity
  8
01
  6
BYBLOCK
100
AcDbLine
 10
2341.873047705771
 20
-666.0582269970904
 30
0.0
 11
2370.963674993472
 21
-666.0582269970902
 31
0.0
  0
ARC
  5
1AC99
330
18
100
AcDbEntity
  8
01
  6
BYBLOCK
100
AcDbCircle
 10
2342.273931887832
 20
-376.4969764551189
 30
0.0
 40
1.6
100
AcDbArc
 50
115.9444797720007
 51
180.0
  0
ARC
  5
1AC9A
330
18
100
AcDbEntity
  8
01
  6
BYBLOCK
100
AcDbCircle
 10
2342.273931887832
 20
-383.6194775411187
 30
0.0
 40
1.6
100
AcDbArc
 50
180.0
 51
244.0555202279993
  0
ARC
  5
1AC9B
330
18
100
AcDbEntity
  8
01
  6
BYBLOCK
100
AcDbCircle
 10
2341.573931887831
 20
-384.8969764551188
 30
0.0
 40
1.6
100
AcDbArc
 50
0.0
 51
64.05552022799934
  0
ARC
  5
1AC9C
330
18
100
AcDbEntity
  8
01
  6
BYBLOCK
100
AcDbCircle
 10
2341.573931887831
 20
-375.2194775411189
 30
0.0
 40
1.6
100
AcDbArc
 50
295.9444797720006
 51
0.0
  0
LINE
  5
1AC9D
330
18
100
AcDbEntity
  8
01
  6
BYBLOCK
100
AcDbLine
 10
2343.173931887831
 20
-375.2194775411189
 30
0.0
 11
2343.173931887831
 21
-367.8582269981188
 31
0.0
  0
LINE
  5
1AC9E
330
18
100
AcDbEntity
  8
01
  6
BYBLOCK
100
AcDbLine
 10
2342.273931887832
 20
-383.4582269981189
 30
0.0
 11
2342.273931887832
 21
-376.6582269981187
 31
0.0
  0
LINE
  5
1AC9F
330
18
100
AcDbEntity
  8
01
  6
BYBLOCK
100
AcDbLine
 10
2343.173931887831
 20
-392.0582269981188
 30
0.0
 11
2343.173931887831
 21
-384.8969764551188
 31
0.0
  0
LINE
  5
1ACA0
330
18
100
AcDbEntity
  8
01
  6
BYBLOCK
100
AcDbLine
 10
2341.573931887831
 20
-375.0582269981188
 30
0.0
 11
2341.573931887832
 21
-367.8582269981188
 31
0.0
  0
LINE
  5
1ACA1
330
18
100
AcDbEntity
  8
01
  6
BYBLOCK
100
AcDbLine
 10
2341.573931887831
 20
-385.0582269981188
 30
0.0
 11
2341.573931887831
 21
-392.1582269981187
 31
0.0
  0
ARC
  5
1ACA2
330
18
100
AcDbEntity
  8
01
  6
BYBLOCK
100
AcDbCircle
 10
2406.573931887831
 20
-372.1582269981187
 30
0.0
 40
1.6
100
AcDbArc
 50
0.0
 51
90.0
  0
LINE
  5
1ACA3
330
18
100
AcDbEntity
  8
01
  6
BYBLOCK
100
AcDbLine
 10
2340.673931887831
 20
-367.6582269981187
 30
0.0
 11
2340.673931887831
 21
-392.4582269981187
 31
0.0
  0
LINE
  5
1ACA4
330
18
100
AcDbEntity
  8
01
  6
BYBLOCK
100
AcDbLine
 10
2406.573931887831
 20
-370.5582269981188
 30
0.0
 11
2343.173931887831
 21
-370.5582269981188
 31
0.0
  0
LINE
  5
1ACA5
330
18
100
AcDbEntity
  8
01
  6
BYBLOCK
100
AcDbLine
 10
2406.573931887831
 20
-387.7582269981189
 30
0.0
 11
2406.573931887831
 21
-370.5582269981188
 31
0.0
  0
LINE
  5
1ACA6
330
18
100
AcDbEntity
  8
01
  6
BYBLOCK
100
AcDbLine
 10
2408.173931887831
 20
-389.3582269981188
 30
0.0
 11
2408.173931887831
 21
-372.1582269981187
 31
0.0
  0
LINE
  5
1ACA7
330
18
100
AcDbEntity
  8
01
  6
BYBLOCK
100
AcDbLine
 10
2340.673931887831
 20
-367.8582269981188
 30
0.0
 11
2343.173931887831
 21
-367.8582269981188
 31
0.0
  0
LINE
  5
1ACA8
330
18
100
AcDbEntity
  8
01
  6
BYBLOCK
100
AcDbLine
 10
2343.173931887831
 20
-392.0582269981188
 30
0.0
 11
2341.573931887831
 21
-392.0582269981188
 31
0.0
  0
LINE
  5
1ACA9
330
18
100
AcDbEntity
  8
01
  6
BYBLOCK
100
AcDbLine
 10
2341.573931887831
 20
-392.1582269981187
 30
0.0
 11
2340.673931887831
 21
-392.1582269981187
 31
0.0
  0
ARC
  5
1ACAA
330
18
100
AcDbEntity
  8
01
  6
BYBLOCK
100
AcDbCircle
 10
2337.87452681523
 20
-385.7582269981182
 30
0.0
 40
0.3000000000000051
100
AcDbArc
 50
232.8678058729264
 51
270.0
  0
LINE
  5
1ACAB
330
18
100
AcDbEntity
  8
01
  6
BYBLOCK
100
AcDbLine
 10
2338.673931887831
 20
-386.0582269981181
 30
0.0
 11
2337.87452681523
 21
-386.0582269981181
 31
0.0
  0
LINE
  5
1ACAC
330
18
100
AcDbEntity
  8
01
  6
BYBLOCK
100
AcDbLine
 10
2328.273931887832
 20
-376.385238131914
 30
0.0
 11
2328.273931887832
 21
-376.5558601874631
 31
0.0
  0
ARC
  5
1ACAD
330
18
100
AcDbEntity
  8
01
  6
BYBLOCK
100
AcDbCircle
 10
2328.573931887831
 20
-376.5558601874631
 30
0.0
 40
0.3
100
AcDbArc
 50
180.0
 51
217.7405295629754
  0
ARC
  5
1ACAE
330
18
100
AcDbEntity
  8
01
  6
BYBLOCK
100
AcDbCircle
 10
2367.876232487115
 20
-346.1351572435223
 30
0.0
 40
50.00000000000002
100
AcDbArc
 50
217.7405295629802
 51
232.8678058729729
  0
LINE
  5
1ACAF
330
18
100
AcDbEntity
  8
01
  6
BYBLOCK
100
AcDbLine
 10
2328.073931887831
 20
-375.2582269981186
 30
0.0
 11
2328.073931887831
 21
-374.5582269981188
 31
0.0
  0
ARC
  5
1ACB0
330
18
100
AcDbEntity
  8
01
  6
BYBLOCK
100
AcDbCircle
 10
2328.573931887831
 20
-374.5582269981188
 30
0.0
 40
0.5000000000000142
100
AcDbArc
 50
90.0
 51
180.0
  0
LINE
  5
1ACB1
330
18
100
AcDbEntity
  8
01
  6
BYBLOCK
100
AcDbLine
 10
2338.673931887831
 20
-374.0582269981188
 30
0.0
 11
2328.573931887831
 21
-374.0582269981188
 31
0.0
  0
LINE
  5
1ACB2
330
18
100
AcDbEntity
  8
01
  6
BYBLOCK
100
AcDbLine
 10
2328.073931887831
 20
-375.6369066545591
 30
0.0
 11
2328.073931887831
 21
-375.2582269981186
 31
0.0
  0
SPLINE
  5
1ACB3
330
18
100
AcDbEntity
  8
01
  6
BYBLOCK
100
AcDbSpline
210
0.0
220
0.0
230
1.0
 70
     8
 71
     3
 72
     8
 73
     4
 74
     0
 42
0.0000000001
 43
0.0000000001
 40
0.0
 40
0.0
 40
0.0
 40
0.0
 40
1.0
 40
1.0
 40
1.0
 40
1.0
 10
2328.099664429096
 20
-375.9135570840082
 30
0.0
 10
2328.082196542985
 20
-375.8204708881277
 30
0.0
 10
2328.073931887831
 20
-375.7272048772362
 30
0.0
 10
2328.073931887831
 20
-375.6369066545586
 30
0.0
  0
ARC
  5
1ACB4
330
18
100
AcDbEntity
  8
01
  6
BYBLOCK
100
AcDbCircle
 10
2329.573931887831
 20
-375.6369066545591
 30
0.0
 40
1.499999999999998
100
AcDbArc
 50
190.628112987605
 51
225.0000000000384
  0
LINE
  5
1ACB5
330
18
100
AcDbEntity
  8
01
  6
BYBLOCK
100
AcDbLine
 10
2339.173931887831
 20
-373.2082269981187
 30
0.0
 11
2338.673931887831
 21
-373.2082269981187
 31
0.0
  0
LINE
  5
1ACB6
330
18
100
AcDbEntity
  8
01
  6
BYBLOCK
100
AcDbLine
 10
2338.673931887831
 20
-386.9082269981187
 30
0.0
 11
2339.173931887831
 21
-386.9082269981187
 31
0.0
  0
LINE
  5
1ACB7
330
18
100
AcDbEntity
  8
01
  6
BYBLOCK
100
AcDbLine
 10
2338.673931887831
 20
-386.9082269981187
 30
0.0
 11
2338.673931887831
 21
-373.2082269981187
 31
0.0
  0
LINE
  5
1ACB8
330
18
100
AcDbEntity
  8
01
  6
BYBLOCK
100
AcDbLine
 10
2339.173931887831
 20
-367.6582269981187
 30
0.0
 11
2340.673931887831
 21
-367.6582269981187
 31
0.0
  0
LINE
  5
1ACB9
330
18
100
AcDbEntity
  8
01
  6
BYBLOCK
100
AcDbLine
 10
2339.173931887831
 20
-392.4582269981187
 30
0.0
 11
2340.673931887831
 21
-392.4582269981187
 31
0.0
  0
LINE
  5
1ACBA
330
18
100
AcDbEntity
  8
01
  6
BYBLOCK
100
AcDbLine
 10
2339.173931887831
 20
-392.4582269981187
 30
0.0
 11
2339.173931887831
 21
-367.6582269981187
 31
0.0
  0
LINE
  5
1ACBB
330
18
100
AcDbEntity
  8
01
  6
BYBLOCK
100
AcDbLine
 10
2408.173931887831
 20
-387.7582269981189
 30
0.0
 11
2343.173931887831
 21
-387.7582269981189
 31
0.0
  0
LINE
  5
1ACBC
330
18
100
AcDbEntity
  8
01
  6
BYBLOCK
100
AcDbLine
 10
2408.173931887831
 20
-389.3582269981188
 30
0.0
 11
2357.773931887832
 21
-389.3582269981188
 31
0.0
  0
LINE
  5
1ACBD
330
18
100
AcDbEntity
  8
01
  6
BYBLOCK
100
AcDbLine
 10
2360.611190188034
 20
-389.3582269981188
 30
0.0
 11
2343.173931887831
 21
-389.3582269981188
 31
0.0
  0
LINE
  5
1ACBE
330
18
100
AcDbEntity
  8
01
  6
BYBLOCK
100
AcDbLine
 10
2337.727485278424
 20
-385.9117803887121
 30
0.0
 11
2328.513271716051
 21
-376.6975668263391
 31
0.0
  0
ARC
  5
1ACBF
330
18
100
AcDbEntity
  8
01
  6
BYBLOCK
100
AcDbCircle
 10
2338.081038669018
 20
-385.5582269981188
 30
0.0
 40
0.5
100
AcDbArc
 50
224.9999999999954
 51
270.0
  0
LINE
  5
1ACC0
330
18
100
AcDbEntity
  8
01
  6
BYBLOCK
100
AcDbLine
 10
2338.673931887831
 20
-386.0582269981188
 30
0.0
 11
2338.081038669018
 21
-386.0582269981188
 31
0.0
  0
LINE
  5
1ACC2
330
18
100
AcDbEntity
  8
01
  6
BYBLOCK
100
AcDbLine
 10
2386.56680312172
 20
-600.0582269970902
 30
0.0
 11
2390.173047705771
 21
-596.4519824130388
 31
0.0
  0
LINE
  5
1ACC3
330
18
100
AcDbEntity
  8
01
  6
BYBLOCK
100
AcDbLine
 10
2393.779292289823
 20
-600.0582269970902
 30
0.0
 11
2390.173047705771
 21
-596.4519824130388
 31
0.0
  0
LINE
  5
1ACC4
330
18
100
AcDbEntity
  8
01
  6
BYBLOCK
100
AcDbLine
 10
2386.56680312172
 20
-600.0582269970902
 30
0.0
 11
2390.173047705771
 21
-603.6644715811414
 31
0.0
  0
LINE
  5
1ACC5
330
18
100
AcDbEntity
  8
01
  6
BYBLOCK
100
AcDbLine
 10
2393.779292289823
 20
-600.0582269970902
 30
0.0
 11
2390.173047705771
 21
-603.6644715811414
 31
0.0
  0
LINE
  5
1ACC6
330
18
100
AcDbEntity
  8
01
  6
BYBLOCK
100
AcDbLine
 10
2328.173047705771
 20
-619.026556730074
 30
0.0
 11
2328.173047705771
 21
-637.0898972640799
 31
0.0
  0
LINE
  5
1ACC7
330
18
100
AcDbEntity
  8
01
  6
BYBLOCK
100
AcDbLine
 10
2332.465940924585
 20
-618.058226997077
 30
0.0
 11
2339.173047705771
 21
-618.058226997077
 31
0.0
  0
LINE
  5
1ACC8
330
18
100
AcDbEntity
  8
01
  6
BYBLOCK
100
AcDbLine
 10
2332.465940924585
 20
-638.058226997077
 30
0.0
 11
2339.173047705771
 21
-638.058226997077
 31
0.0
  0
LINE
  5
1ACC9
330
18
100
AcDbEntity
  8
01
  6
BYBLOCK
100
AcDbLine
 10
2337.965940924586
 20
-622.808226997077
 30
0.0
 11
2337.965940924585
 21
-633.308226997077
 31
0.0
  0
ARC
  5
1ACCA
330
18
100
AcDbEntity
  8
01
  6
BYBLOCK
100
AcDbCircle
 10
2332.465940924585
 20
-628.058226997077
 30
0.0
 40
10.00000000000009
100
AcDbArc
 50
53.13010235414986
 51
115.4224671781178
  0
ARC
  5
1ACCB
330
18
100
AcDbEntity
  8
01
  6
BYBLOCK
100
AcDbCircle
 10
2332.465940924585
 20
-628.0582269970768
 30
0.0
 40
10.00000000000009
100
AcDbArc
 50
244.5775328218822
 51
306.8698976458437
  0
LINE
  5
1ACCC
330
18
100
AcDbEntity
  8
01
  6
BYBLOCK
100
AcDbLine
 10
2338.465940924586
 20
-620.058226997077
 30
0.0
 11
2338.465940924586
 21
-636.058226997077
 31
0.0
  0
LINE
  5
1ACCD
330
18
100
AcDbEntity
  8
01
  6
BYBLOCK
100
AcDbLine
 10
2328.173047705771
 20
-622.808226997077
 30
0.0
 11
2337.965940924586
 21
-622.808226997077
 31
0.0
  0
LINE
  5
1ACCE
330
18
100
AcDbEntity
  8
01
  6
BYBLOCK
100
AcDbLine
 10
2328.173047705771
 20
-633.308226997077
 30
0.0
 11
2337.965940924586
 21
-633.308226997077
 31
0.0
  0
LINE
  5
1ACCF
330
18
100
AcDbEntity
  8
01
  6
BYBLOCK
100
AcDbLine
 10
2213.773164045516
 20
-564.1582269970908
 30
0.0
 11
2226.573164045516
 21
-564.1582269970908
 31
0.0
  0
LINE
  5
1ACD0
330
18
100
AcDbEntity
  8
01
  6
BYBLOCK
100
AcDbLine
 10
2213.773164045516
 20
-693.9582269970907
 30
0.0
 11
2226.573164045516
 21
-693.9582269970907
 31
0.0
  0
LINE
  5
1ACD1
330
18
100
AcDbEntity
  8
01
  6
BYBLOCK
100
AcDbLine
 10
2207.773164045516
 20
-570.1582269970908
 30
0.0
 11
2207.773164045516
 21
-687.9582269970907
 31
0.0
  0
LINE
  5
1ACD2
330
18
100
AcDbEntity
  8
01
  6
BYBLOCK
100
AcDbLine
 10
2232.573164045516
 20
-570.1582269970908
 30
0.0
 11
2232.573164045516
 21
-687.9582269970907
 31
0.0
  0
ARC
  5
1ACD3
330
18
100
AcDbEntity
  8
01
  6
BYBLOCK
100
AcDbCircle
 10
2213.773164045516
 20
-687.9582269970907
 30
0.0
 40
6.0
100
AcDbArc
 50
180.0
 51
270.0
  0
ARC
  5
1ACD4
330
18
100
AcDbEntity
  8
01
  6
BYBLOCK
100
AcDbCircle
 10
2226.573164045516
 20
-687.9582269970907
 30
0.0
 40
6.0
100
AcDbArc
 50
270.0
 51
0.0
  0
ARC
  5
1ACD5
330
18
100
AcDbEntity
  8
01
  6
BYBLOCK
100
AcDbCircle
 10
2213.773164045516
 20
-570.1582269970908
 30
0.0
 40
6.0
100
AcDbArc
 50
90.0
 51
180.0
  0
ARC
  5
1ACD6
330
18
100
AcDbEntity
  8
01
  6
BYBLOCK
100
AcDbCircle
 10
2226.573164045516
 20
-570.1582269970908
 30
0.0
 40
6.0
100
AcDbArc
 50
0.0
 51
90.0
  0
CIRCLE
  5
1ACD7
330
18
100
AcDbEntity
  8
01
  6
BYBLOCK
100
AcDbCircle
 10
2220.173164045516
 20
-686.0582269970906
 30
0.0
 40
2.75
  0
CIRCLE
  5
1ACD8
330
18
100
AcDbEntity
  8
01
  6
BYBLOCK
100
AcDbCircle
 10
2220.173164045516
 20
-686.0582269970906
 30
0.0
 40
4.25
  0
CIRCLE
  5
1ACD9
330
18
100
AcDbEntity
  8
01
  6
BYBLOCK
100
AcDbCircle
 10
2220.173164045516
 20
-572.0582269970909
 30
0.0
 40
2.75
  0
CIRCLE
  5
1ACDA
330
18
100
AcDbEntity
  8
01
  6
BYBLOCK
100
AcDbCircle
 10
2220.173164045516
 20
-572.0582269970909
 30
0.0
 40
4.25
  0
LINE
  5
1ACDB
330
18
100
AcDbEntity
  8
1CENTER
100
AcDbLine
 10
2226.048189453422
 20
-686.0582269970909
 30
0.0
 11
2214.29813863761
 21
-686.0582269970909
 31
0.0
  0
LINE
  5
1ACDC
330
18
100
AcDbEntity
  8
1CENTER
100
AcDbLine
 10
2220.173164045516
 20
-680.1832015891845
 30
0.0
 11
2220.173164045516
 21
-691.933252404997
 31
0.0
  0
LINE
  5
1ACDD
330
18
100
AcDbEntity
  8
1CENTER
100
AcDbLine
 10
2226.048189453422
 20
-572.0582269970909
 30
0.0
 11
2214.29813863761
 21
-572.0582269970909
 31
0.0
  0
LINE
  5
1ACDE
330
18
100
AcDbEntity
  8
1CENTER
100
AcDbLine
 10
2220.173164045516
 20
-566.1832015891845
 30
0.0
 11
2220.173164045516
 21
-577.933252404997
 31
0.0
  0
ARC
  5
1ACDF
330
18
100
AcDbEntity
  8
01
  6
BYBLOCK
100
AcDbCircle
 10
2220.173164045516
 20
-628.0582269970906
 30
0.0
 40
10.15
100
AcDbArc
 50
231.9925780701365
 51
308.0074219298635
  0
LINE
  5
1ACE0
330
18
100
AcDbEntity
  8
01
  6
BYBLOCK
100
AcDbLine
 10
2213.923164045516
 20
-620.0607273878378
 30
0.0
 11
2213.923164045516
 21
-636.0557266063435
 31
0.0
  0
LINE
  5
1ACE1
330
18
100
AcDbEntity
  8
01
  6
BYBLOCK
100
AcDbLine
 10
2226.423164045516
 20
-620.0607273878378
 30
0.0
 11
2226.423164045516
 21
-636.0557266063435
 31
0.0
  0
ARC
  5
1ACE2
330
18
100
AcDbEntity
  8
01
  6
BYBLOCK
100
AcDbCircle
 10
2220.173164045516
 20
-628.0582269970906
 30
0.0
 40
10.15
100
AcDbArc
 50
51.9925780701429
 51
128.0074219298571
  0
LINE
  5
1ACE3
330
18
100
AcDbEntity
  8
01
  6
BYBLOCK
100
AcDbLine
 10
2215.673164045516
 20
-622.8082269970906
 30
0.0
 11
2215.673164045516
 21
-633.3082269970906
 31
0.0
  0
LINE
  5
1ACE4
330
18
100
AcDbEntity
  8
01
  6
BYBLOCK
100
AcDbLine
 10
2225.673164045516
 20
-622.8082269970906
 30
0.0
 11
2225.673164045516
 21
-633.3082269970906
 31
0.0
  0
LINE
  5
1ACE5
330
18
100
AcDbEntity
  8
01
  6
BYBLOCK
100
AcDbLine
 10
2216.173164045516
 20
-618.7296418953723
 30
0.0
 11
2216.173164045516
 21
-622.8082269970909
 31
0.0
  0
LINE
  5
1ACE6
330
18
100
AcDbEntity
  8
01
  6
BYBLOCK
100
AcDbLine
 10
2214.673164045516
 20
-622.8082269970909
 30
0.0
 11
2214.673164045516
 21
-633.3082269970906
 31
0.0
  0
LINE
  5
1ACE7
330
18
100
AcDbEntity
  8
01
  6
BYBLOCK
100
AcDbLine
 10
2216.173164045516
 20
-633.3082269970906
 30
0.0
 11
2216.173164045516
 21
-637.386812098809
 31
0.0
  0
LINE
  5
1ACE8
330
18
100
AcDbEntity
  8
01
  6
BYBLOCK
100
AcDbLine
 10
2214.673164045516
 20
-622.8082269970906
 30
0.0
 11
2225.673164045516
 21
-622.8082269970906
 31
0.0
  0
LINE
  5
1ACE9
330
18
100
AcDbEntity
  8
01
  6
BYBLOCK
100
AcDbLine
 10
2214.673164045516
 20
-633.3082269970906
 30
0.0
 11
2225.673164045516
 21
-633.3082269970906
 31
0.0
  0
LINE
  5
1ACEB
330
18
100
AcDbEntity
  8
01
100
AcDbLine
 10
2200.173280385259
 20
-530.0582269970904
 30
0.0
 11
2200.173280385259
 21
-720.0582269970906
 31
0.0
  0
LINE
  5
1ACEC
330
18
100
AcDbEntity
  8
01
100
AcDbLine
 10
2334.173047706059
 20
-686.0582269968014
 30
0.0
 11
2348.173047706059
 21
-686.0582269968014
 31
0.0
  0
LINE
  5
1ACED
330
18
100
AcDbEntity
  8
01
100
AcDbLine
 10
2401.484935973312
 20
-600.0582269970902
 30
0.0
 11
2378.861159438229
 21
-600.0582269970902
 31
0.0
  0
LINE
  5
1ACEE
330
18
100
AcDbEntity
  8
01
100
AcDbLine
 10
2390.173047705771
 20
-588.7463387295485
 30
0.0
 11
2390.173047705771
 21
-611.3701152646319
 31
0.0
  0
LINE
  5
1ACEF
330
18
100
AcDbEntity
  8
01
  6
BYBLOCK
100
AcDbLine
 10
2112.173280385262
 20
-619.026556730074
 30
0.0
 11
2112.173280385262
 21
-637.0898972640799
 31
0.0
  0
LINE
  5
1ACF0
330
18
100
AcDbEntity
  8
01
  6
BYBLOCK
100
AcDbLine
 10
2107.880387166449
 20
-618.058226997077
 30
0.0
 11
2101.173280385262
 21
-618.058226997077
 31
0.0
  0
LINE
  5
1ACF1
330
18
100
AcDbEntity
  8
01
  6
BYBLOCK
100
AcDbLine
 10
2107.880387166449
 20
-638.058226997077
 30
0.0
 11
2101.173280385262
 21
-638.058226997077
 31
0.0
  0
ARC
  5
1ACF2
330
18
100
AcDbEntity
  8
01
  6
BYBLOCK
100
AcDbCircle
 10
2107.880387166449
 20
-628.058226997077
 30
0.0
 40
10.00000000000009
100
AcDbArc
 50
64.57753282188216
 51
90.0
  0
LINE
  5
1ACF3
330
18
100
AcDbEntity
  8
01
  6
CONTINUOUS
100
AcDbLine
 10
2111.673280385262
 20
-636.3730211899077
 30
0.0
 11
2101.173280385262
 21
-636.3730211899077
 31
0.0
  0
ARC
  5
1ACF4
330
18
100
AcDbEntity
  8
01
  6
CONTINUOUS
100
AcDbCircle
 10
2111.711860632176
 20
-635.910881959101
 30
0.0
 40
0.4637468103423796
100
AcDbArc
 50
265.2279066161926
 51
354.2577450626241
  0
LINE
  5
1ACF5
330
18
100
AcDbEntity
  8
01
  6
CONTINUOUS
100
AcDbLine
 10
2112.173280385262
 20
-620.5749122235289
 30
0.0
 11
2112.173280385262
 21
-635.5415417706248
 31
0.0
  0
ARC
  5
1ACF6
330
18
100
AcDbEntity
  8
01
  6
CONTINUOUS
100
AcDbCircle
 10
2111.711860632176
 20
-620.2055720350526
 30
0.0
 40
0.4637468103423387
100
AcDbArc
 50
5.742254937375924
 51
94.77209338380747
  0
ARC
  5
1ACF7
330
18
100
AcDbEntity
  8
01
  6
BYBLOCK
100
AcDbCircle
 10
2107.880387166449
 20
-628.0582269970768
 30
0.0
 40
10.00000000000009
100
AcDbArc
 50
270.0
 51
295.4224671781178
  0
LINE
  5
1ACF8
330
18
100
AcDbEntity
  8
01
  6
CONTINUOUS
100
AcDbLine
 10
2101.173280385262
 20
-619.7434328042458
 30
0.0
 11
2111.673280385262
 21
-619.7434328042458
 31
0.0
  0
LINE
  5
1ACF9
330
18
100
AcDbEntity
  8
01
100
AcDbLine
 10
2408.173047705771
 20
-632.708875424193
 30
0.0
 11
2408.173047705771
 21
-664.8582269970901
 31
0.0
  0
ARC
  5
1ACFA
330
18
100
AcDbEntity
  8
01
100
AcDbCircle
 10
2407.173047705771
 20
-665.0582269970902
 30
0.0
 40
1.0
100
AcDbArc
 50
270.0
 51
0.0
  0
LINE
  5
1ACFB
330
18
100
AcDbEntity
  8
01
100
AcDbLine
 10
2370.963674993473
 20
-666.0582269970902
 30
0.0
 11
2407.173047705771
 21
-666.05822699709
 31
0.0
  0
LINE
  5
1ACFC
330
18
100
AcDbEntity
  8
01
100
AcDbLine
 10
2080.173280385262
 20
-650.0582269970902
 30
0.0
 11
2020.173280385262
 21
-650.0582269970902
 31
0.0
  0
LINE
  5
1ACFD
330
18
100
AcDbEntity
  8
01
100
AcDbLine
 10
2050.173280385262
 20
-620.0582269970902
 30
0.0
 11
2050.173280385262
 21
-680.0582269970902
 31
0.0
  0
LINE
  5
1ACFE
330
18
100
AcDbEntity
  8
01
  6
BYBLOCK
100
AcDbLine
 10
2408.173047705771
 20
-603.2761080295119
 30
0.0000000000001137
 11
2408.173047705771
 21
-632.708875424193
 31
0.0
  0
LINE
  5
1ACFF
330
18
100
AcDbEntity
  8
01
  6
BYBLOCK
100
AcDbLine
 10
2341.873047705771
 20
-592.0582269970902
 30
0.0
 11
2370.329944627788
 21
-592.0582269970902
 31
0.0000000000001137
  0
ARC
  5
1AD00
330
18
100
AcDbEntity
  8
01
  6
BYBLOCK
100
AcDbCircle
 10
2407.173047705771
 20
-593.0582269970902
 30
0.0
 40
1.0
100
AcDbArc
 50
0.0
 51
90.0
  0
LINE
  5
1AD01
330
18
100
AcDbEntity
  8
01
  6
BYBLOCK
100
AcDbLine
 10
2370.329944627788
 20
-592.0582269970902
 30
0.0000000000001137
 11
2407.173047705771
 21
-592.0582269970902
 31
0.0
  0
LINE
  5
1AD02
330
18
100
AcDbEntity
  8
01
  6
BYBLOCK
100
AcDbLine
 10
2408.173047705771
 20
-593.0582269970902
 30
0.0
 11
2408.173047705771
 21
-603.2761080295119
 31
0.0000000000001137
  0
LINE
  5
1AD03
330
18
100
AcDbEntity
  8
01
100
AcDbLine
 10
2106.173280385262
 20
-572.0582269970902
 30
0.0
 11
2092.173280385262
 21
-572.0582269970902
 31
0.0
  0
LINE
  5
1AD04
330
18
100
AcDbEntity
  8
01
  6
BYBLOCK
100
AcDbLine
 10
2099.673280385262
 20
-564.1582269970901
 30
0.0
 11
2099.673280385262
 21
-693.95822699709
 31
0.0
  0
LINE
  5
1AD05
330
18
100
AcDbEntity
  8
01
  6
BYBLOCK
100
AcDbLine
 10
2099.673280385262
 20
-693.0582269970902
 30
0.0
 11
2097.173280385262
 21
-693.0582269970902
 31
0.0
  0
LINE
  5
1AD06
330
18
100
AcDbEntity
  8
01
  6
BYBLOCK
100
AcDbLine
 10
2097.173280385262
 20
-693.0582269970902
 30
0.0
 11
2097.173280385262
 21
-676.5552832719378
 31
0.0
  0
LINE
  5
1AD07
330
18
100
AcDbEntity
  8
01
  6
BYBLOCK
100
AcDbLine
 10
2101.173280385262
 20
-564.1582269970901
 30
0.0
 11
2101.173280385262
 21
-693.95822699709
 31
0.0
  0
LINE
  5
1AD08
330
18
100
AcDbEntity
  8
01
  6
BYBLOCK
100
AcDbLine
 10
2101.173280385262
 20
-693.95822699709
 30
0.0
 11
2099.673280385262
 21
-693.95822699709
 31
0.0
  0
LINE
  5
1AD09
330
18
100
AcDbEntity
  8
01
  6
BYBLOCK
100
AcDbLine
 10
2099.673280385262
 20
-565.0582269970902
 30
0.0
 11
2097.173280385262
 21
-565.0582269970902
 31
0.0
  0
LINE
  5
1AD0A
330
18
100
AcDbEntity
  8
01
  6
BYBLOCK
100
AcDbLine
 10
2101.173280385262
 20
-564.1582269970901
 30
0.0
 11
2099.673280385262
 21
-564.1582269970901
 31
0.0
  0
LINE
  5
1AD0B
330
18
100
AcDbEntity
  8
01
  6
BYBLOCK
100
AcDbLine
 10
2099.673280385262
 20
-589.0582269970902
 30
0.0
 11
2098.473280385263
 21
-589.0582269970902
 31
0.0
  0
LINE
  5
1AD0C
330
18
100
AcDbEntity
  8
01
  6
BYBLOCK
100
AcDbLine
 10
2098.473280385263
 20
-583.3582269970899
 30
0.0
 11
2098.473280385263
 21
-674.75822699709
 31
0.0
  0
LINE
  5
1AD0D
330
18
100
AcDbEntity
  8
01
  6
BYBLOCK
100
AcDbLine
 10
2098.373280385262
 20
-693.0582269970902
 30
0.0
 11
2098.373280385262
 21
-676.45822699709
 31
0.0
  0
LINE
  5
1AD0E
330
18
100
AcDbEntity
  8
01
  6
BYBLOCK
100
AcDbLine
 10
2098.373280385262
 20
-676.45822699709
 30
0.0
 11
2099.321808522687
 21
-675.5096988596662
 31
0.0
  0
LINE
  5
1AD0F
330
18
100
AcDbEntity
  8
01
  6
BYBLOCK
100
AcDbLine
 10
2097.524752247839
 20
-675.7067551345139
 30
0.0
 11
2098.473280385263
 21
-674.75822699709
 31
0.0
  0
ARC
  5
1AD10
330
18
100
AcDbEntity
  8
01
  6
BYBLOCK
100
AcDbCircle
 10
2098.373280385262
 20
-676.5552832719378
 30
0.0
 40
1.2
100
AcDbArc
 50
134.9999999999616
 51
180.0
  0
ARC
  5
1AD11
330
18
100
AcDbEntity
  8
01
  6
BYBLOCK
100
AcDbCircle
 10
2098.473280385263
 20
-674.6611707222422
 30
0.0
 40
1.2
100
AcDbArc
 50
314.9999999999616
 51
0.0
  0
LINE
  5
1AD12
330
18
100
AcDbEntity
  8
01
  6
BYBLOCK
100
AcDbLine
 10
2097.173280385262
 20
-565.0582269970902
 30
0.0
 11
2097.173280385262
 21
-581.5611707222423
 31
0.0
  0
LINE
  5
1AD13
330
18
100
AcDbEntity
  8
01
  6
BYBLOCK
100
AcDbLine
 10
2098.373280385262
 20
-565.0582269970902
 30
0.0
 11
2098.373280385262
 21
-581.6582269970901
 31
0.0
  0
LINE
  5
1AD14
330
18
100
AcDbEntity
  8
01
  6
BYBLOCK
100
AcDbLine
 10
2098.373280385262
 20
-581.6582269970901
 30
0.0
 11
2099.321808522687
 21
-582.606755134514
 31
0.0
  0
LINE
  5
1AD15
330
18
100
AcDbEntity
  8
01
  6
BYBLOCK
100
AcDbLine
 10
2097.524752247839
 20
-582.4096988596663
 30
0.0
 11
2098.473280385263
 21
-583.3582269970901
 31
0.0
  0
ARC
  5
1AD16
330
18
100
AcDbEntity
  8
01
  6
BYBLOCK
100
AcDbCircle
 10
2098.373280385262
 20
-581.5611707222423
 30
0.0
 40
1.2
100
AcDbArc
 50
180.0
 51
225.0000000000384
  0
ARC
  5
1AD17
330
18
100
AcDbEntity
  8
01
  6
BYBLOCK
100
AcDbCircle
 10
2098.473280385263
 20
-583.4552832719379
 30
0.0
 40
1.2
100
AcDbArc
 50
0.0
 51
45.00000000003838
  0
CIRCLE
  5
1AD18
330
18
100
AcDbEntity
  8
01
  6
BYBLOCK
100
AcDbCircle
 10
2050.173280385262
 20
-600.0582269970902
 30
0.0
 40
4.749999999999998
  0
LINE
  5
1AD19
330
18
100
AcDbEntity
  8
01
  6
BYBLOCK
100
AcDbLine
 10
2098.473280385263
 20
-666.0582269970904
 30
0.0
 11
2069.382653097562
 21
-666.0582269970902
 31
0.0
  0
LINE
  5
1AD1A
330
18
100
AcDbEntity
  8
01
  6
BYBLOCK
100
AcDbLine
 10
2053.779524969314
 20
-600.0582269970902
 30
0.0
 11
2050.173280385262
 21
-596.4519824130388
 31
0.0
  0
LINE
  5
1AD1B
330
18
100
AcDbEntity
  8
01
  6
BYBLOCK
100
AcDbLine
 10
2046.567035801211
 20
-600.0582269970902
 30
0.0
 11
2050.173280385262
 21
-596.4519824130388
 31
0.0
  0
LINE
  5
1AD1C
330
18
100
AcDbEntity
  8
01
  6
BYBLOCK
100
AcDbLine
 10
2053.779524969314
 20
-600.0582269970902
 30
0.0
 11
2050.173280385262
 21
-603.6644715811414
 31
0.0
  0
LINE
  5
1AD1D
330
18
100
AcDbEntity
  8
01
  6
BYBLOCK
100
AcDbLine
 10
2046.567035801211
 20
-600.0582269970902
 30
0.0
 11
2050.173280385262
 21
-603.6644715811414
 31
0.0
  0
LINE
  5
1AD1E
330
18
100
AcDbEntity
  8
01
  6
BYBLOCK
100
AcDbLine
 10
2107.880387166449
 20
-618.058226997077
 30
0.0
 11
2101.173280385262
 21
-618.058226997077
 31
0.0
  0
LINE
  5
1AD1F
330
18
100
AcDbEntity
  8
01
  6
BYBLOCK
100
AcDbLine
 10
2107.880387166449
 20
-638.058226997077
 30
0.0
 11
2101.173280385262
 21
-638.058226997077
 31
0.0
  0
LINE
  5
1AD20
330
18
100
AcDbEntity
  8
01
100
AcDbLine
 10
2106.173280384975
 20
-686.0582269968014
 30
0.0
 11
2092.173280384975
 21
-686.0582269968014
 31
0.0
  0
LINE
  5
1AD21
330
18
100
AcDbEntity
  8
01
  6
BYBLOCK
100
AcDbLine
 10
2032.173280385262
 20
-603.2761080295119
 30
0.0000000000001137
 11
2032.173280385262
 21
-632.708875424193
 31
0.0
  0
LINE
  5
1AD22
330
18
100
AcDbEntity
  8
01
  6
BYBLOCK
100
AcDbLine
 10
2098.473280385263
 20
-592.0582269970902
 30
0.0
 11
2070.016383463245
 21
-592.0582269970902
 31
0.0000000000001137
  0
ARC
  5
1AD23
330
18
100
AcDbEntity
  8
01
  6
BYBLOCK
100
AcDbCircle
 10
2033.173280385262
 20
-593.0582269970902
 30
0.0
 40
0.9999999999999996
100
AcDbArc
 50
90.0
 51
180.0
  0
LINE
  5
1AD24
330
18
100
AcDbEntity
  8
01
  6
BYBLOCK
100
AcDbLine
 10
2070.016383463245
 20
-592.0582269970902
 30
0.0000000000001137
 11
2033.173280385262
 21
-592.0582269970902
 31
0.0
  0
LINE
  5
1AD25
330
18
100
AcDbEntity
  8
01
  6
BYBLOCK
100
AcDbLine
 10
2032.173280385262
 20
-593.0582269970902
 30
0.0
 11
2032.173280385262
 21
-603.2761080295119
 31
0.0000000000001137
  0
TEXT
  5
1AD28
330
18
100
AcDbEntity
  8
1TEXT
100
AcDbText
 10
2032.173292385263
 20
-368.5582269970899
 30
0.0
 40
20.0
  1
1-WKC-X-LJ
100
AcDbText
  0
LINE
  5
1AD3B
330
18
100
AcDbEntity
  8
01
  6
BYBLOCK
100
AcDbLine
 10
2339.173815548088
 20
-400.0595453101929
 30
0.0
 11
2492.928195703119
 21
-400.0595453101929
 31
0.0
  0
LINE
  5
1AD3C
330
18
100
AcDbEntity
  8
01
100
AcDbLine
 10
2240.173047705771
 20
-530.0582269970902
 30
0.0
 11
2240.173047705771
 21
-720.0582269970902
 31
0.0
  0
LINE
  5
1AD3D
330
18
100
AcDbEntity
  8
01
100
AcDbLine
 10
2360.173047705771
 20
-650.0582269970902
 30
0.0
 11
2420.173047705771
 21
-650.0582269970902
 31
0.0
  0
LINE
  5
1AD3E
330
18
100
AcDbEntity
  8
01
100
AcDbLine
 10
2390.173047705771
 20
-620.0582269970902
 30
0.0
 11
2390.173047705771
 21
-680.0582269970902
 31
0.0
  0
LINE
  5
1AD41
330
18
100
AcDbEntity
  8
01
100
AcDbLine
 10
2239.544870088539
 20
-650.0582269970902
 30
0.0
 11
2262.173155470969
 21
-650.0582269970902
 31
0.0
  0
LINE
  5
1AD42
330
18
100
AcDbEntity
  8
01
100
AcDbLine
 10
2390.173047705771
 20
-396.5596683521609
 30
0.0
 11
2390.173047705771
 21
-423.0596683521609
 31
0.0
  0
LINE
  5
1AD94
330
18
100
AcDbEntity
  8
01
100
AcDbLine
 10
2390.173047705771
 20
-363.556785644077
 30
0.0
 11
2390.173047705771
 21
-337.056785644077
 31
0.0
  0
LINE
  5
1ADAB
330
18
100
AcDbEntity
  8
01
100
AcDbLine
 10
2200.801458002493
 20
-650.0582269970902
 30
0.0
 11
2178.173172620062
 21
-650.0582269970902
 31
0.0
  0
LINE
  5
1B219
330
18
100
AcDbEntity
  8
1CENTER
100
AcDbLine
 10
2254.573170747742
 20
-678.092269581972
 30
0.0
 11
2254.573170747742
 21
-665.2586683202956
 31
0.0
  0
LINE
  5
1B21D
330
18
100
AcDbEntity
  8
01
100
AcDbLine
 10
2240.173047705771
 20
-627.5582269970906
 30
0.0
 11
2241.673171019396
 21
-627.5582269970906
 31
0.0
  0
LINE
  5
1B21E
330
18
100
AcDbEntity
  8
01
100
AcDbLine
 10
2240.173047705771
 20
-672.5582269970897
 30
0.0
 11
2241.673170747739
 21
-672.5582269970897
 31
0.0
  0
LINE
  5
1B21F
330
18
100
AcDbEntity
  8
01
100
AcDbLine
 10
2240.173047705771
 20
-672.5582269970897
 30
0.0
 11
2240.173047705771
 21
-627.5582269970906
 31
0.0
  0
CIRCLE
  5
1B220
330
18
100
AcDbEntity
  8
01
100
AcDbCircle
 10
2288.173170679011
 20
-650.0582269970902
 30
0.0
 40
11.30000033602118
  0
LINE
  5
1B221
330
18
100
AcDbEntity
  8
01
100
AcDbLine
 10
2259.071438614862
 20
-675.0582269970902
 30
0.0
 11
2259.673170747741
 21
-675.0582269970902
 31
0.0
  0
LINE
  5
1B222
330
18
100
AcDbEntity
  8
01
100
AcDbLine
 10
2241.67317074774
 20
-675.0582269970902
 30
0.0
 11
2250.07317074774
 21
-675.0582269970902
 31
0.0
  0
LINE
  5
1B223
330
18
100
AcDbEntity
  8
01
100
AcDbLine
 10
2259.673170747741
 20
-625.0582269970902
 30
0.0
 11
2241.67317074774
 21
-625.0582269970902
 31
0.0
  0
ARC
  5
1B224
330
18
100
AcDbEntity
  8
01
100
AcDbCircle
 10
2259.673170747741
 20
-674.0582269970902
 30
0.0
 40
1.0
100
AcDbArc
 50
270.0
 51
0.0
  0
ARC
  5
1B225
330
18
100
AcDbEntity
  8
01
100
AcDbCircle
 10
2259.673170747741
 20
-626.0582269970902
 30
0.0
 40
1.0
100
AcDbArc
 50
0.0
 51
90.0
  0
LINE
  5
1B226
330
18
100
AcDbEntity
  8
01
100
AcDbLine
 10
2258.982844973949
 20
-675.0500005777031
 30
0.0
 11
2258.983329261795
 21
-675.0500892820829
 31
0.0
  0
ARC
  5
1B227
330
18
100
AcDbEntity
  8
01
100
AcDbCircle
 10
2259.073170743111
 20
-674.5582269962398
 30
0.0
 40
0.5000000000000058
100
AcDbArc
 50
259.6487061743441
 51
269.801685215615
  0
ARC
  5
1B228
330
18
100
AcDbEntity
  8
01
100
AcDbCircle
 10
2250.073170761429
 20
-674.5582269945754
 30
0.0
 40
0.4999999999999971
100
AcDbArc
 50
269.9998316611
 51
280.4077144125455
  0
SPLINE
  5
1B229
330
18
100
AcDbEntity
  8
01
100
AcDbSpline
210
0.0
220
0.0
230
1.0
 70
     8
 71
     3
 72
    38
 73
    34
 74
     0
 42
0.000000001
 43
0.00000001
 40
0.0
 40
0.0
 40
0.0
 40
0.0
 40
0.0173749390782923
 40
0.0513148018401738
 40
0.0847913878656912
 40
0.1182855394880036
 40
0.1518525219173384
 40
0.1857856707372894
 40
0.2195841600796422
 40
0.2532016284348418
 40
0.2868627017109681
 40
0.3205304360710263
 40
0.3538734461692637
 40
0.3870048937965707
 40
0.4202652434062399
 40
0.4530916268067759
 40
0.485807108963845
 40
0.5187451618501332
 40
0.5514133267406173
 40
0.5840804282388982
 40
0.6171404199898658
 40
0.6501687453677067
 40
0.6832559283660443
 40
0.7167935557795256
 40
0.7504120706266938
 40
0.7840196915782218
 40
0.8178810062199995
 40
0.8518724271587522
 40
0.8857974801276438
 40
0.919455054481305
 40
0.9533691011650021
 40
0.9876069557249617
 40
1.0
 40
1.0
 40
1.0
 40
1.0
 10
2250.165519601244
 20
-675.0496246114591
 30
0.0
 10
2250.166581195587
 20
-675.0494240339059
 30
0.0
 10
2250.169716487348
 20
-675.0488316521224
 30
0.0
 10
2250.212284358422
 20
-675.0409580016568
 30
0.0
 10
2250.308633199513
 20
-675.0236531052889
 30
0.0
 10
2250.452841894629
 20
-674.9983620199101
 30
0.0
 10
2250.642819003419
 20
-674.9662563921075
 30
0.0
 10
2250.876526395805
 20
-674.928858538503
 30
0.0
 10
2251.151889112487
 20
-674.887638892401
 30
0.0
 10
2251.465717597198
 20
-674.8445204654655
 30
0.0
 10
2251.813848644897
 20
-674.8014031593513
 30
0.0
 10
2252.192324089546
 20
-674.7601640632357
 30
0.0
 10
2252.596907014419
 20
-674.7229839749835
 30
0.0
 10
2253.022436818038
 20
-674.6911744638538
 30
0.0
 10
2253.463571546672
 20
-674.6660346009722
 30
0.0
 10
2253.916181766036
 20
-674.649206004012
 30
0.0
 10
2254.374869818114
 20
-674.6409794412449
 30
0.0
 10
2254.835163441845
 20
-674.6413623999725
 30
0.0
 10
2255.292156366618
 20
-674.6509620346334
 30
0.0
 10
2255.741193106914
 20
-674.6691318892873
 30
0.0
 10
2256.178655284822
 20
-674.6947295254705
 30
0.0
 10
2256.599195036043
 20
-674.7270962258818
 30
0.0
 10
2256.998199273882
 20
-674.7648200862133
 30
0.0
 10
2257.372395706358
 20
-674.8060749551388
 30
0.0
 10
2257.7164750536
 20
-674.8491924793672
 30
0.0
 10
2258.025433412027
 20
-674.8921368062094
 30
0.0
 10
2258.297142969815
 20
-674.9331159364593
 30
0.0
 10
2258.528017517767
 20
-674.9703554480485
 30
0.0
 10
2258.713188403174
 20
-675.001707948969
 30
0.0
 10
2258.852151179416
 20
-675.0261814341985
 30
0.0
 10
2258.94417940514
 20
-675.0429209394252
 30
0.0
 10
2258.979974279486
 20
-675.0494542445996
 30
0.0
 10
2258.982627830922
 20
-675.0499395067055
 30
0.0
 10
2258.983333062457
 20
-675.0500684742975
 30
0.0
  0
LINE
  5
1B22A
330
18
100
AcDbEntity
  8
01
100
AcDbLine
 10
2241.67317074774
 20
-625.0582269970902
 30
0.0
 11
2241.67317074774
 21
-675.0582269970902
 31
0.0
  0
SPLINE
  5
1B22B
330
18
100
AcDbEntity
  8
01
100
AcDbSpline
210
0.0
220
0.0
230
1.0
 70
     8
 71
     3
 72
    20
 73
    16
 74
     0
 42
0.000000001
 43
0.00000001
 40
0.0
 40
0.0
 40
0.0
 40
0.0
 40
0.1249999999999998
 40
0.1249999999999998
 40
0.2499999999999996
 40
0.2499999999999996
 40
0.3749999999999993
 40
0.3749999999999993
 40
0.4999999999999991
 40
0.4999999999999991
 40
0.6249999999999989
 40
0.6249999999999989
 40
0.7499999999999987
 40
0.7499999999999987
 40
1.0
 40
1.0
 40
1.0
 40
1.0
 10
2263.673170747741
 20
-658.0582269970902
 30
0.0
 10
2263.459605290308
 20
-658.0582269970902
 30
0.0
 10
2263.246273415775
 20
-658.0812666783996
 30
0.0
 10
2262.833719049312
 20
-658.1703463006098
 30
0.0
 10
2262.63582556222
 20
-658.2356127894546
 30
0.0
 10
2262.256339602086
 20
-658.4057139426878
 30
0.0
 10
2262.074727048326
 20
-658.511437611177
 30
0.0
 10
2261.746394462888
 20
-658.7498311071841
 30
0.0
 10
2261.596941318021
 20
-658.8835509754
 30
0.0
 10
2261.326814580995
 20
-659.1781851935858
 30
0.0
 10
2261.209646032897
 20
-659.3356108059307
 30
0.0
 10
2261.011368583603
 20
-659.6613841993222
 30
0.0
 10
2260.929436276575
 20
-659.8306996871489
 30
0.0
 10
2260.732791534445
 20
-660.3555331365325
 30
0.0
 10
2260.673170747741
 20
-660.7078039938334
 30
0.0
 10
2260.673170747741
 20
-661.0582269970902
 30
0.0
  0
SPLINE
  5
1B22C
330
18
100
AcDbEntity
  8
01
100
AcDbSpline
210
0.0
220
0.0
230
1.0
 70
     8
 71
     3
 72
    22
 73
    18
 74
     0
 42
0.000000001
 43
0.00000001
 40
0.0
 40
0.0
 40
0.0
 40
0.0
 40
0.125
 40
0.125
 40
0.25
 40
0.25
 40
0.375
 40
0.375
 40
0.5
 40
0.5
 40
0.625
 40
0.625
 40
0.75
 40
0.75
 40
0.875
 40
0.875
 40
1.0
 40
1.0
 40
1.0
 40
1.0
 10
2260.673170747741
 20
-639.0582269970902
 30
0.0
 10
2260.673170747741
 20
-639.2333627130357
 30
0.0
 10
2260.688390473096
 20
-639.4091217077959
 30
0.0
 10
2260.75129146858
 20
-639.7615490171639
 30
0.0
 10
2260.799589357165
 20
-639.9396462801998
 30
0.0
 10
2260.929977524541
 20
-640.2867467979469
 30
0.0
 10
2261.011787041395
 20
-640.4560839619272
 30
0.0
 10
2261.212004090807
 20
-640.7843863215295
 30
0.0
 10
2261.330811733861
 20
-640.9430214609666
 30
0.0
 10
2261.59844918495
 20
-641.2341466550398
 30
0.0
 10
2261.749165217653
 20
-641.3691433960549
 30
0.0
 10
2262.08184820207
 20
-641.6096627572953
 30
0.0
 10
2262.259646038179
 20
-641.7124630898198
 30
0.0
 10
2262.638369846933
 20
-641.8817369468126
 30
0.0
 10
2262.841213629303
 20
-641.9481642613747
 30
0.0
 10
2263.250956740885
 20
-642.0357470005212
 30
0.0
 10
2263.459919109483
 20
-642.0582269970902
 30
0.0
 10
2263.673170747741
 20
-642.0582269970902
 30
0.0
  0
LINE
  5
1B22D
330
18
100
AcDbEntity
  8
01
100
AcDbLine
 10
2278.87317074774
 20
-658.0582269970902
 30
0.0
 11
2263.673170747741
 21
-658.0582269970902
 31
0.0
  0
LINE
  5
1B22E
330
18
100
AcDbEntity
  8
01
100
AcDbLine
 10
2279.173170747741
 20
-642.3582269970894
 30
0.0
 11
2279.173170747741
 21
-643.2252182285312
 31
0.0
  0
ARC
  5
1B22F
330
18
100
AcDbEntity
  8
01
100
AcDbCircle
 10
2278.87317074774
 20
-642.3582269970894
 30
0.0
 40
0.3000000000000114
100
AcDbArc
 50
0.0
 51
90.0
  0
LINE
  5
1B230
330
18
100
AcDbEntity
  8
01
100
AcDbLine
 10
2279.173170747741
 20
-656.8912357656492
 30
0.0
 11
2279.173170747741
 21
-657.75822699709
 31
0.0
  0
ARC
  5
1B231
330
18
100
AcDbEntity
  8
01
100
AcDbCircle
 10
2278.87317074774
 20
-657.75822699709
 30
0.0
 40
0.3000000000000114
100
AcDbArc
 50
270.0
 51
0.0
  0
LINE
  5
1B232
330
18
100
AcDbEntity
  8
01
100
AcDbLine
 10
2263.673170747741
 20
-642.0582269970902
 30
0.0
 11
2278.87317074774
 21
-642.0582269970902
 31
0.0
  0
LINE
  5
1B233
330
18
100
AcDbEntity
  8
01
100
AcDbLine
 10
2260.673170747741
 20
-661.0582269970902
 30
0.0
 11
2260.673170747741
 21
-674.0582269970902
 31
0.0
  0
LINE
  5
1B234
330
18
100
AcDbEntity
  8
01
100
AcDbLine
 10
2260.673170747741
 20
-626.0582269970902
 30
0.0
 11
2260.673170747741
 21
-639.0582269970902
 31
0.0
  0
ARC
  5
1B29C
330
18
100
AcDbEntity
  8
01
100
AcDbCircle
 10
2505.673047705771
 20
-438.0596669400883
 30
-0.000000000002521
 40
1.0
100
AcDbArc
 50
0.0
 51
90.0
  0
ARC
  5
1B29D
330
18
100
AcDbEntity
  8
01
100
AcDbCircle
 10
2505.673047705771
 20
-458.0596669400883
 30
-0.000000000002521
 40
1.0
100
AcDbArc
 50
270.0
 51
0.0
  0
LINE
  5
1B2C8
330
18
100
AcDbEntity
  8
01
100
AcDbLine
 10
2361.173047705771
 20
-459.0596682834322
 30
-0.0000000000000336
 11
2505.673047705771
 21
-459.0596682834322
 31
-0.0000000000000336
  0
LINE
  5
1B2C9
330
18
100
AcDbEntity
  8
01
100
AcDbLine
 10
2361.173047705771
 20
-437.059668283432
 30
-0.0000000000005949
 11
2365.285440919459
 21
-437.059668283432
 31
-0.0000000000006495
  0
LINE
  5
1B2CA
330
18
100
AcDbEntity
  8
01
100
AcDbLine
 10
2415.06285299019
 20
-437.059668283432
 30
-0.0000000000013107
 11
2505.673047705771
 21
-437.059668283432
 31
-0.0000000000025144
  0
ARC
  5
1B2CB
330
18
100
AcDbEntity
  8
01
100
AcDbCircle
 10
2361.173047705771
 20
-438.059668283432
 30
-0.000000000000013
 40
1.0
100
AcDbArc
 50
90.0
 51
180.0
  0
ARC
  5
1B2CC
330
18
100
AcDbEntity
  8
01
100
AcDbCircle
 10
2361.173047705771
 20
-458.059668283432
 30
-0.000000000000013
 40
1.0
100
AcDbArc
 50
180.0
 51
270.0
  0
ARC
  5
1B2CD
330
18
100
AcDbEntity
  8
01
100
AcDbCircle
 10
2390.173047705771
 20
-650.0582269970902
 30
0.0
 40
25.0
100
AcDbArc
 50
26.10388113734149
 51
153.8961188626585
  0
ARC
  5
1B2CE
330
18
100
AcDbEntity
  8
01
100
AcDbCircle
 10
2390.173047705771
 20
-650.0582269970902
 30
0.0
 40
25.00000000000002
100
AcDbArc
 50
206.1038811373415
 51
333.8961188626582
  0
LINE
  5
1B2CF
330
18
100
AcDbEntity
  8
01
100
AcDbLine
 10
2360.173047705771
 20
-660.45822699709
 30
0.0
 11
2360.173047705771
 21
-639.6582269970901
 31
0.0
  0
ARC
  5
1B2D0
330
18
100
AcDbEntity
  8
01
100
AcDbCircle
 10
2357.673047679694
 20
-660.8582269710131
 30
0.0
 40
0.5
100
AcDbArc
 50
180.0
 51
270.0
  0
ARC
  5
1B2D1
330
18
100
AcDbEntity
  8
01
100
AcDbCircle
 10
2357.673047703443
 20
-639.2582266089149
 30
0.0
 40
0.5
100
AcDbArc
 50
90.0
 51
180.0
  0
LINE
  5
1B2D2
330
18
100
AcDbEntity
  8
01
100
AcDbLine
 10
2357.673047703443
 20
-638.7582266089149
 30
0.0
 11
2359.673047623815
 21
-638.7582266089149
 31
0.0
  0
LINE
  5
1B2D3
330
18
100
AcDbEntity
  8
01
100
AcDbLine
 10
2359.673047623815
 20
-661.3582273331114
 30
0.0
 11
2357.673047703443
 21
-661.3582273331114
 31
0.0
  0
ARC
  5
1B2D4
330
18
100
AcDbEntity
  8
01
100
AcDbCircle
 10
2359.673047679694
 20
-660.8582269710131
 30
0.0
 40
0.5
100
AcDbArc
 50
270.0
 51
0.0
  0
ARC
  5
1B2D5
330
18
100
AcDbEntity
  8
01
100
AcDbCircle
 10
2359.673047679694
 20
-639.258226971013
 30
0.0
 40
0.5
100
AcDbArc
 50
0.0
 51
90.0
  0
LINE
  5
1B2D6
330
18
100
AcDbEntity
  8
01
100
AcDbLine
 10
2357.173047679694
 20
-639.2582266908713
 30
0.0
 11
2357.173047679694
 21
-660.858227251155
 31
0.0
  0
LINE
  5
1B2D7
330
18
100
AcDbEntity
  8
01
100
AcDbLine
 10
2360.173047705771
 20
-660.858227251155
 30
0.0
 11
2360.173047705771
 21
-639.2582266908713
 31
0.0
  0
LINE
  5
1B2DC
330
18
100
AcDbEntity
  8
01
100
AcDbLine
 10
2506.673047705771
 20
-660.8582256537467
 30
-0.000000000002508
 11
2506.673047705771
 21
-639.2582256537468
 31
-0.000000000002508
  0
ARC
  5
1B313
330
18
100
AcDbEntity
  8
01
100
AcDbCircle
 10
2508.628153077016
 20
-639.7582256537468
 30
-0.000000000002508
 40
1.0
100
AcDbArc
 50
32.82854179139152
 51
90.0
  0
ARC
  5
1B314
330
18
100
AcDbEntity
  8
01
100
AcDbCircle
 10
2508.628153077016
 20
-660.3582256537467
 30
-0.000000000002508
 40
1.0
100
AcDbArc
 50
270.0
 51
327.1714582086085
  0
LINE
  5
1B315
330
18
100
AcDbEntity
  8
01
100
AcDbLine
 10
2508.628153077016
 20
-638.7582256537468
 30
-0.000000000002508
 11
2507.173047705771
 21
-638.7582256537468
 31
-0.000000000002508
  0
LINE
  5
1B316
330
18
100
AcDbEntity
  8
01
100
AcDbLine
 10
2507.173047705771
 20
-661.3582256537467
 30
-0.000000000002508
 11
2508.628153077016
 21
-661.3582256537467
 31
-0.000000000002508
  0
ARC
  5
1B317
330
18
100
AcDbEntity
  8
01
100
AcDbCircle
 10
2507.173047705771
 20
-660.8582256537467
 30
-0.000000000002508
 40
0.5
100
AcDbArc
 50
180.0
 51
270.0
  0
ARC
  5
1B318
330
18
100
AcDbEntity
  8
01
100
AcDbCircle
 10
2507.173047705771
 20
-639.2582256537468
 30
-0.000000000002508
 40
0.5
100
AcDbArc
 50
90.0
 51
180.0
  0
LINE
  5
1B319
330
18
100
AcDbEntity
  8
01
100
AcDbLine
 10
2509.468449725241
 20
-660.9003525235686
 30
-0.000000000002508
 11
2515.013344353995
 21
-652.3057658489989
 31
-0.000000000002508
  0
LINE
  5
1B31A
330
18
100
AcDbEntity
  8
01
100
AcDbLine
 10
2515.013344353995
 20
-647.8106854584945
 30
-0.000000000002508
 11
2509.468449725241
 21
-639.2160987839244
 31
-0.000000000002508
  0
ARC
  5
1B31B
330
18
100
AcDbEntity
  8
01
100
AcDbCircle
 10
2514.173047705771
 20
-651.763638979177
 30
-0.000000000002508
 40
1.0
100
AcDbArc
 50
327.1714582086085
 51
0.0
  0
ARC
  5
1B31C
330
18
100
AcDbEntity
  8
01
100
AcDbCircle
 10
2514.173047705771
 20
-648.3528123283164
 30
-0.000000000002508
 40
1.0
100
AcDbArc
 50
0.0
 51
32.82854179139152
  0
LINE
  5
1B31D
330
18
100
AcDbEntity
  8
01
100
AcDbLine
 10
2515.173047705771
 20
-650.0582256537465
 30
-0.000000000002508
 11
2515.173047705771
 21
-651.763638979177
 31
-0.000000000002508
  0
LINE
  5
1B31E
330
18
100
AcDbEntity
  8
01
100
AcDbLine
 10
2515.173047705771
 20
-648.3528123283164
 30
-0.000000000002508
 11
2515.173047705771
 21
-650.0582256537465
 31
-0.000000000002508
  0
LINE
  5
1B31F
330
18
100
AcDbEntity
  8
01
100
AcDbLine
 10
2509.468449725241
 20
-650.0582256537465
 30
-0.000000000002508
 11
2509.468449725241
 21
-660.9003525235686
 31
-0.000000000002508
  0
LINE
  5
1B320
330
18
100
AcDbEntity
  8
01
100
AcDbLine
 10
2509.468449725241
 20
-639.2160987839244
 30
-0.000000000002508
 11
2509.468449725241
 21
-650.0582256537465
 31
-0.000000000002508
  0
LINE
  5
1B34B
330
18
100
AcDbEntity
  8
01
100
AcDbLine
 10
2360.173047705771
 20
-458.4596682834318
 30
-0.000000000000013
 11
2360.173047705771
 21
-437.6596682834319
 31
-0.000000000000013
  0
ARC
  5
1B34C
330
18
100
AcDbEntity
  8
01
100
AcDbCircle
 10
2357.673047679694
 20
-458.8596682573549
 30
-0.000000000000013
 40
0.5
100
AcDbArc
 50
180.0
 51
270.0
  0
ARC
  5
1B34D
330
18
100
AcDbEntity
  8
01
100
AcDbCircle
 10
2357.673047703443
 20
-437.2596678952567
 30
-0.000000000000013
 40
0.5
100
AcDbArc
 50
90.0
 51
180.0
  0
LINE
  5
1B34E
330
18
100
AcDbEntity
  8
01
100
AcDbLine
 10
2357.673047703443
 20
-436.7596678952567
 30
-0.000000000000013
 11
2359.673047623815
 21
-436.7596678952567
 31
-0.000000000000013
  0
LINE
  5
1B34F
330
18
100
AcDbEntity
  8
01
100
AcDbLine
 10
2359.673047623815
 20
-459.3596686194531
 30
-0.000000000000013
 11
2357.673047703443
 21
-459.3596686194531
 31
-0.000000000000013
  0
ARC
  5
1B350
330
18
100
AcDbEntity
  8
01
100
AcDbCircle
 10
2359.673047679694
 20
-458.8596682573549
 30
-0.000000000000013
 40
0.5
100
AcDbArc
 50
270.0
 51
0.0
  0
ARC
  5
1B351
330
18
100
AcDbEntity
  8
01
100
AcDbCircle
 10
2359.673047679694
 20
-437.2596682573547
 30
-0.000000000000013
 40
0.5
100
AcDbArc
 50
0.0
 51
90.0
  0
LINE
  5
1B352
330
18
100
AcDbEntity
  8
01
100
AcDbLine
 10
2357.173047679694
 20
-437.2596679772131
 30
-0.000000000000013
 11
2357.173047679694
 21
-458.8596685374968
 31
-0.000000000000013
  0
LINE
  5
1B353
330
18
100
AcDbEntity
  8
01
100
AcDbLine
 10
2360.173047705771
 20
-458.8596685374968
 30
-0.000000000000013
 11
2360.173047705771
 21
-437.2596679772131
 31
-0.000000000000013
  0
SPLINE
  5
1B356
330
18
100
AcDbEntity
  8
01
100
AcDbSpline
210
0.0
220
0.0
230
1.0
 70
     8
 71
     3
 72
    25
 73
    21
 74
     0
 42
0.000000001
 43
0.00000001
 40
0.0
 40
0.0
 40
0.0
 40
0.0
 40
0.0010414547670499
 40
0.0078920961784771
 40
0.0124631917519568
 40
0.0153084684371826
 40
0.0182913233871006
 40
0.0230373513888648
 40
0.0335713171085232
 40
0.0577584301918357
 40
0.1223023187146578
 40
0.2340620789408601
 40
0.3433217029835016
 40
0.4495258120597231
 40
0.5560854677349036
 40
0.663679745446913
 40
0.7725124179311238
 40
0.882590620740218
 40
0.9938134037285269
 40
1.0
 40
1.0
 40
1.0
 40
1.0
 10
2365.174076727463
 20
-436.7657657304136
 30
0.0
 10
2365.173920580918
 20
-436.7681365010909
 30
0.0
 10
2365.172737309604
 20
-436.7861020919114
 30
0.0
 10
2365.17787788772
 20
-436.8142083017748
 30
0.0
 10
2365.184989312268
 20
-436.8435089394312
 30
0.0
 10
2365.189931371644
 20
-436.85836009754
 30
0.0
 10
2365.193350406233
 20
-436.8677221784884
 30
0.0
 10
2365.196815760039
 20
-436.8763467345408
 30
0.0
 10
2365.20008410793
 20
-436.883882996253
 30
0.0
 10
2365.204359555325
 20
-436.893341959509
 30
0.0
 10
2365.21776390592
 20
-436.9220339201153
 30
0.0
 10
2365.251208449505
 20
-436.9897621908875
 30
0.0
 10
2365.312187377961
 20
-437.1141229619058
 30
0.0
 10
2365.392794537402
 20
-437.2816257491164
 30
0.0
 10
2365.491361920087
 20
-437.4915446273568
 30
0.0
 10
2365.607443475592
 20
-437.7461474476978
 30
0.0
 10
2365.739392411843
 20
-438.0444234634061
 30
0.0
 10
2365.886588660218
 20
-438.3916251980373
 30
0.0
 10
2365.993173702179
 20
-438.6473762681304
 30
0.0
 10
2366.052072126044
 20
-438.797900634445
 30
0.0
 10
2366.055175632524
 20
-438.8058321428927
 30
0.0
  0
SPLINE
  5
1B357
330
18
100
AcDbEntity
  8
01
100
AcDbSpline
210
0.0
220
0.0
230
1.0
 70
     8
 71
     3
 72
    17
 73
    13
 74
     0
 42
0.000000001
 43
0.00000001
 40
0.0
 40
0.0
 40
0.0
 40
0.0
 40
0.1002957840704815
 40
0.2142673378537419
 40
0.327482717719165
 40
0.4389475003731197
 40
0.5489209533842896
 40
0.6589014246512871
 40
0.7684931801292328
 40
0.8773363251892716
 40
0.9681621498837771
 40
0.9999999999999999
 40
0.9999999999999999
 40
0.9999999999999999
 40
0.9999999999999999
 10
2414.27178285437
 20
-438.8952684588841
 30
0.0
 10
2414.320804042783
 20
-438.773813580755
 30
0.0
 10
2414.425530673485
 20
-438.5143429195779
 30
0.0
 10
2414.572299000747
 20
-438.1669165830818
 30
0.0
 10
2414.711170040789
 20
-437.8450072883173
 30
0.0
 10
2414.831387242283
 20
-437.5713752394064
 30
0.0
 10
2414.93307140014
 20
-437.3436995299327
 30
0.0
 10
2415.015761626785
 20
-437.1615414980571
 30
0.0
 10
2415.079366277893
 20
-437.0237956600309
 30
0.0
 10
2415.118572070302
 20
-436.9401949527697
 30
0.0
 10
2415.138028321113
 20
-436.8999710408294
 30
0.0
 10
2415.137534941054
 20
-436.9008791417183
 30
0.0
 10
2415.137406882276
 20
-436.9011148429564
 30
0.0
  0
SPLINE
  5
1B358
330
18
100
AcDbEntity
  8
01
100
AcDbSpline
210
0.0
220
0.0
230
1.0
 70
     8
 71
     3
 72
    14
 73
    10
 74
     0
 42
0.000000001
 43
0.00000001
 40
0.0
 40
0.0
 40
0.0
 40
0.0
 40
0.2320265698766933
 40
0.8154186661720276
 40
0.8978231064032898
 40
0.9224631684713309
 40
0.9411167382161877
 40
0.9729043060323125
 40
1.0
 40
1.0
 40
1.0
 40
1.0
 10
2415.10754096249
 20
-436.9640476549179
 30
0.0
 10
2415.113564745916
 20
-436.9518233870946
 30
0.0
 10
2415.1347343277
 20
-436.9088632374506
 30
0.0
 10
2415.141452853265
 20
-436.8931834402202
 30
0.0
 10
2415.149116803997
 20
-436.8771237618472
 30
0.0
 10
2415.15651729629
 20
-436.8577538128608
 30
0.0
 10
2415.163660612036
 20
-436.8343965629693
 30
0.0
 10
2415.171218006335
 20
-436.8025467377598
 30
0.0
 10
2415.17107094151
 20
-436.7774516630055
 30
0.0
 10
2415.17100326823
 20
-436.7659039252436
 30
0.0
  0
LINE
  5
1B35B
330
18
100
AcDbEntity
  8
01
100
AcDbLine
 10
2365.175879585455
 20
-436.7656532294278
 30
0.0
 11
2365.175982765417
 21
-436.7658713335028
 31
0.0
  0
LINE
  5
1B35E
330
18
100
AcDbEntity
  8
01
100
AcDbLine
 10
2413.799092288792
 20
-439.0596683521609
 30
0.0
 11
2413.129528272269
 21
-439.0596683521609
 31
0.0
  0
LINE
  5
1B361
330
18
100
AcDbEntity
  8
01
100
AcDbLine
 10
2367.216567139273
 20
-439.0596683521609
 30
0.0
 11
2366.547003122751
 21
-439.0596683521609
 31
0.0
  0
LINE
  5
1B362
330
18
100
AcDbEntity
  8
01
100
AcDbLine
 10
2413.129528272269
 20
-439.0596683521609
 30
0.0
 11
2367.216567139273
 21
-439.0596683521609
 31
0.0
  0
SPLINE
  5
1B363
330
18
100
AcDbEntity
  8
01
100
AcDbSpline
210
0.0
220
0.0
230
1.0
 70
     8
 71
     3
 72
    10
 73
     6
 74
     0
 42
0.000000001
 43
0.00000001
 40
0.0
 40
0.0
 40
0.0
 40
0.0
 40
0.5
 40
0.5
 40
0.9131629334268441
 40
0.9131629334268441
 40
0.9131629334268441
 40
0.9131629334268441
 10
2366.319031402295
 20
-439.0596683521609
 30
0.0
 10
2366.240843104636
 20
-439.0596683521609
 30
0.0
 10
2366.167670122976
 20
-439.0253923104939
 30
0.0
 10
2366.079369855307
 20
-438.9234776899076
 30
0.0
 10
2366.056162116355
 20
-438.8624804021746
 30
0.0
 10
2366.052702695104
 20
-438.7995126018078
 30
0.0
  0
LINE
  5
1B364
330
18
100
AcDbEntity
  8
01
100
AcDbLine
 10
2366.547003122751
 20
-439.0596683521609
 30
0.0
 11
2366.319031402295
 21
-439.0596683521609
 31
0.0
  0
SPLINE
  5
1B365
330
18
100
AcDbEntity
  8
01
100
AcDbSpline
210
0.0
220
0.0
230
1.0
 70
     8
 71
     3
 72
    10
 73
     6
 74
     0
 42
0.000000001
 43
0.00000001
 40
0.0
 40
0.0
 40
0.0
 40
0.0
 40
0.5
 40
0.5
 40
0.7232990038580591
 40
0.7232990038580591
 40
0.7232990038580591
 40
0.7232990038580591
 10
2414.027064009247
 20
-439.0596683521609
 30
0.0
 10
2414.105252306907
 20
-439.0596683521609
 30
0.0
 10
2414.178425288567
 20
-439.0253923104939
 30
0.0
 10
2414.24836625234
 20
-438.9446676765318
 30
0.0
 10
2414.265067734374
 20
-438.9153980074394
 30
0.0
 10
2414.276404021039
 20
-438.8838191301621
 30
0.0
  0
LINE
  5
1B366
330
18
100
AcDbEntity
  8
01
100
AcDbLine
 10
2414.027064009246
 20
-439.0596683521609
 30
0.0
 11
2413.799092288792
 21
-439.0596683521609
 31
0.0
  0
LINE
  5
1B367
330
18
100
AcDbEntity
  8
01
100
AcDbLine
 10
2506.673047705771
 20
-448.0596669400883
 30
-0.000000000002521
 11
2506.673047705771
 21
-437.2596669400886
 31
-0.000000000002521
  0
LINE
  5
1B368
330
18
100
AcDbEntity
  8
01
100
AcDbLine
 10
2506.673047705771
 20
-458.8596669400885
 30
-0.000000000002521
 11
2506.673047705771
 21
-448.0596669400883
 31
-0.000000000002521
  0
ARC
  5
1B369
330
18
100
AcDbEntity
  8
01
100
AcDbCircle
 10
2508.628153077016
 20
-437.7596669400886
 30
-0.000000000002521
 40
1.0
100
AcDbArc
 50
32.82854179139152
 51
90.0
  0
ARC
  5
1B36A
330
18
100
AcDbEntity
  8
01
100
AcDbCircle
 10
2508.628153077016
 20
-458.3596669400885
 30
-0.000000000002521
 40
1.0
100
AcDbArc
 50
270.0
 51
327.1714582086085
  0
LINE
  5
1B36B
330
18
100
AcDbEntity
  8
01
100
AcDbLine
 10
2508.628153077016
 20
-436.7596669400886
 30
-0.000000000002521
 11
2507.173047705771
 21
-436.7596669400886
 31
-0.000000000002521
  0
LINE
  5
1B36C
330
18
100
AcDbEntity
  8
01
100
AcDbLine
 10
2507.173047705771
 20
-459.3596669400885
 30
-0.000000000002521
 11
2508.628153077016
 21
-459.3596669400885
 31
-0.000000000002521
  0
ARC
  5
1B36D
330
18
100
AcDbEntity
  8
01
100
AcDbCircle
 10
2507.173047705771
 20
-458.8596669400885
 30
-0.000000000002521
 40
0.5
100
AcDbArc
 50
180.0
 51
270.0
  0
ARC
  5
1B36E
330
18
100
AcDbEntity
  8
01
100
AcDbCircle
 10
2507.173047705771
 20
-437.2596669400886
 30
-0.000000000002521
 40
0.5
100
AcDbArc
 50
90.0
 51
180.0
  0
LINE
  5
1B36F
330
18
100
AcDbEntity
  8
01
100
AcDbLine
 10
2509.468449725241
 20
-458.9017938099104
 30
-0.000000000002521
 11
2515.013344353995
 21
-450.3072071353407
 31
-0.000000000002521
  0
LINE
  5
1B370
330
18
100
AcDbEntity
  8
01
100
AcDbLine
 10
2515.013344353995
 20
-445.8121267448363
 30
-0.000000000002521
 11
2509.468449725241
 21
-437.2175400702662
 31
-0.000000000002521
  0
ARC
  5
1B371
330
18
100
AcDbEntity
  8
01
100
AcDbCircle
 10
2514.173047705771
 20
-449.7650802655188
 30
-0.000000000002521
 40
1.0
100
AcDbArc
 50
327.1714582086085
 51
0.0
  0
ARC
  5
1B372
330
18
100
AcDbEntity
  8
01
100
AcDbCircle
 10
2514.173047705771
 20
-446.3542536146582
 30
-0.000000000002521
 40
1.0
100
AcDbArc
 50
0.0
 51
32.82854179139152
  0
LINE
  5
1B373
330
18
100
AcDbEntity
  8
01
100
AcDbLine
 10
2515.173047705771
 20
-448.0596669400883
 30
-0.000000000002521
 11
2515.173047705771
 21
-449.7650802655188
 31
-0.000000000002521
  0
LINE
  5
1B374
330
18
100
AcDbEntity
  8
01
100
AcDbLine
 10
2515.173047705771
 20
-446.3542536146582
 30
-0.000000000002521
 11
2515.173047705771
 21
-448.0596669400883
 31
-0.000000000002521
  0
LINE
  5
1B375
330
18
100
AcDbEntity
  8
01
100
AcDbLine
 10
2509.468449725241
 20
-448.0596669400883
 30
-0.000000000002521
 11
2509.468449725241
 21
-458.9017938099104
 31
-0.000000000002521
  0
LINE
  5
1B376
330
18
100
AcDbEntity
  8
01
100
AcDbLine
 10
2509.468449725241
 20
-437.2175400702662
 30
-0.000000000002521
 11
2509.468449725241
 21
-448.0596669400883
 31
-0.000000000002521
  0
LINE
  5
1B382
330
18
100
AcDbEntity
  8
01
100
AcDbLine
 10
2361.17304772952
 20
-661.0582269970904
 30
-0.0000000000000206
 11
2505.67304772952
 21
-661.0582269970904
 31
-0.0000000000000206
  0
LINE
  5
1B383
330
18
100
AcDbEntity
  8
01
100
AcDbLine
 10
2361.17304772952
 20
-639.0582269970902
 30
-0.0000000000005819
 11
2505.67304772952
 21
-639.0582269970902
 31
-0.0000000000025014
  0
ARC
  5
1B392
330
18
100
AcDbEntity
  8
01
100
AcDbCircle
 10
2505.67304772952
 20
-640.0582255717901
 30
-0.000000000002508
 40
1.0
100
AcDbArc
 50
0.0
 51
90.0
  0
ARC
  5
1B393
330
18
100
AcDbEntity
  8
01
100
AcDbCircle
 10
2505.67304772952
 20
-660.0582255717901
 30
-0.000000000002508
 40
1.0
100
AcDbArc
 50
270.0
 51
0.0
  0
ARC
  5
1B394
330
18
100
AcDbEntity
  8
01
100
AcDbCircle
 10
2361.17304772952
 20
-640.0582269151338
 30
0.0
 40
1.0
100
AcDbArc
 50
90.0
 51
180.0
  0
ARC
  5
1B395
330
18
100
AcDbEntity
  8
01
100
AcDbCircle
 10
2361.17304772952
 20
-660.0582269151338
 30
0.0
 40
1.0
100
AcDbArc
 50
180.0
 51
270.0
  0
LINE
  5
1B427
330
18
100
AcDbEntity
  8
01
100
AcDbLine
 10
2390.173047705771
 20
-396.5596683521609
 30
0.0
 11
2390.173047705771
 21
-423.0596683521609
 31
0.0
  0
LINE
  5
1B42C
330
18
100
AcDbEntity
  8
01
100
AcDbLine
 10
2412.67304770577
 20
-400.0595453101929
 30
0.0
 11
2412.67304770577
 21
-401.5596686238174
 31
0.0
  0
LINE
  5
1B42D
330
18
100
AcDbEntity
  8
01
100
AcDbLine
 10
2367.673047705772
 20
-400.0595453101929
 30
0.0
 11
2367.673047705772
 21
-401.5596683521604
 31
0.0
  0
LINE
  5
1B42E
330
18
100
AcDbEntity
  8
01
100
AcDbLine
 10
2367.673047705772
 20
-400.0595453101929
 30
0.0
 11
2412.67304770577
 21
-400.0595453101929
 31
0.0
  0
LINE
  5
1B439
330
18
100
AcDbEntity
  8
01
100
AcDbLine
 10
2365.173047705771
 20
-401.5596683521609
 30
0.0
 11
2365.173047705771
 21
-436.7656532294278
 31
0.0
  0
LINE
  5
1B43A
330
18
100
AcDbEntity
  8
01
100
AcDbLine
 10
2415.173047705771
 20
-436.7656532294278
 30
0.0
 11
2415.173047705771
 21
-401.5596683521609
 31
0.0
  0
LINE
  5
1B43E
330
18
100
AcDbEntity
  8
01
100
AcDbLine
 10
2411.503776713473
 20
-420.5596683521609
 30
0.0
 11
2368.842318698069
 21
-420.5596683521609
 31
0.0
  0
LINE
  5
1B43F
330
18
100
AcDbEntity
  8
01
100
AcDbLine
 10
2415.173047705771
 20
-401.5596683521609
 30
0.0
 11
2365.173047705771
 21
-401.5596683521609
 31
0.0
  0
SPLINE
  5
1B441
330
18
100
AcDbEntity
  8
01
100
AcDbSpline
210
0.0
220
0.0
230
1.0
 70
     8
 71
     3
 72
    20
 73
    16
 74
     0
 42
0.000000001
 43
0.00000001
 40
0.0
 40
0.0
 40
0.0
 40
0.0
 40
0.1249999999999998
 40
0.1249999999999998
 40
0.2499999999999996
 40
0.2499999999999996
 40
0.3749999999999993
 40
0.3749999999999993
 40
0.4999999999999991
 40
0.4999999999999991
 40
0.6249999999999989
 40
0.6249999999999989
 40
0.7499999999999987
 40
0.7499999999999987
 40
1.0
 40
1.0
 40
1.0
 40
1.0
 10
2413.129528272269
 20
-423.5596683521609
 30
0.0
 10
2413.129528272269
 20
-423.3461028947291
 30
0.0
 10
2413.120222830945
 20
-423.132771020195
 30
0.0
 10
2413.083495591486
 20
-422.7202166537319
 30
0.0
 10
2413.056383348011
 20
-422.5223231666406
 30
0.0
 10
2412.983420477744
 20
-422.1428372065071
 30
0.0
 10
2412.93712298464
 20
-421.961224652746
 30
0.0
 10
2412.828464865761
 20
-421.6328920673089
 30
0.0
 10
2412.765675277137
 20
-421.4834389224412
 30
0.0
 10
2412.620944141412
 20
-421.2133121854159
 30
0.0
 10
2412.540645124757
 20
-421.0961436373183
 30
0.0
 10
2412.366741356273
 20
-420.8978661880229
 30
0.0
 10
2412.272672943207
 20
-420.8159338809957
 30
0.0
 10
2411.967395227687
 20
-420.6192891388656
 30
0.0
 10
2411.744721942266
 20
-420.5596683521609
 30
0.0
 10
2411.503776713473
 20
-420.5596683521609
 30
0.0
  0
SPLINE
  5
1B442
330
18
100
AcDbEntity
  8
01
100
AcDbSpline
210
0.0
220
0.0
230
1.0
 70
     8
 71
     3
 72
    22
 73
    18
 74
     0
 42
0.000000001
 43
0.00000001
 40
0.0
 40
0.0
 40
0.0
 40
0.0
 40
0.125
 40
0.125
 40
0.25
 40
0.25
 40
0.375
 40
0.375
 40
0.5
 40
0.5
 40
0.625
 40
0.625
 40
0.75
 40
0.75
 40
0.875
 40
0.875
 40
1.0
 40
1.0
 40
1.0
 40
1.0
 10
2368.842318698069
 20
-420.5596683521609
 30
0.0
 10
2368.721898192691
 20
-420.5596683521609
 30
0.0
 10
2368.60590427866
 20
-420.5748880775164
 30
0.0
 10
2368.382704957284
 20
-420.6377890730006
 30
0.0
 10
2368.274702133646
 20
-420.6860869615849
 30
0.0
 10
2368.072885286367
 20
-420.816475128962
 30
0.0
 10
2367.978778288726
 20
-420.8982846458149
 30
0.0
 10
2367.803593764104
 20
-421.0985016952278
 30
0.0
 10
2367.722777932766
 20
-421.2173093382813
 30
0.0
 10
2367.57984875817
 20
-421.4849467893706
 30
0.0
 10
2367.516444602805
 20
-421.6356628220736
 30
0.0
 10
2367.406892876269
 20
-421.9683458064904
 30
0.0
 10
2367.361926415024
 20
-422.146143642599
 30
0.0
 10
2367.28933743475
 20
-422.5248674513533
 30
0.0
 10
2367.26174711043
 20
-422.7277112337239
 30
0.0
 10
2367.225646763142
 20
-423.1374543453056
 30
0.0
 10
2367.216567139273
 20
-423.3464167139035
 30
0.0
 10
2367.216567139273
 20
-423.5596683521609
 30
0.0
  0
LINE
  5
1B444
330
18
100
AcDbEntity
  8
01
100
AcDbLine
 10
2413.129528272269
 20
-438.7596683521612
 30
0.0
 11
2413.129528272269
 21
-423.5596683521609
 31
0.0
  0
LINE
  5
1B445
330
18
100
AcDbEntity
  8
01
100
AcDbLine
 10
2367.216567139273
 20
-423.5596683521609
 30
0.0
 11
2367.216567139273
 21
-438.7596683521612
 31
0.0
  0
LINE
  5
1B4CA
330
18
100
AcDbEntity
  8
01
100
AcDbLine
 10
2412.67304770577
 20
-360.0582269981188
 30
0.0
 11
2412.67304770577
 21
-358.5581036844943
 31
0.0
  0
LINE
  5
1B4CB
330
18
100
AcDbEntity
  8
01
100
AcDbLine
 10
2367.673047705772
 20
-360.0582269981188
 30
0.0
 11
2367.673047705772
 21
-358.5581039561513
 31
0.0
  0
LINE
  5
1B4CC
330
18
100
AcDbEntity
  8
01
100
AcDbLine
 10
2367.673047705772
 20
-360.0582269981188
 30
0.0
 11
2412.67304770577
 21
-360.0582269981188
 31
0.0
  0
LINE
  5
1B4D7
330
18
100
AcDbEntity
  8
01
100
AcDbLine
 10
2365.173047705771
 20
-358.5581039561508
 30
0.0
 11
2365.173047705771
 21
-323.3521190788839
 31
0.0
  0
LINE
  5
1B4D8
330
18
100
AcDbEntity
  8
01
100
AcDbLine
 10
2415.173047705771
 20
-323.3521190788839
 30
0.0
 11
2415.173047705771
 21
-358.5581039561508
 31
0.0
  0
LINE
  5
1B4DC
330
18
100
AcDbEntity
  8
01
100
AcDbLine
 10
2411.503776713473
 20
-339.5581039561508
 30
0.0
 11
2368.842318698069
 21
-339.5581039561508
 31
0.0
  0
LINE
  5
1B4DD
330
18
100
AcDbEntity
  8
01
100
AcDbLine
 10
2415.173047705771
 20
-358.5581039561508
 30
0.0
 11
2365.173047705771
 21
-358.5581039561508
 31
0.0
  0
SPLINE
  5
1B4DF
330
18
100
AcDbEntity
  8
01
100
AcDbSpline
210
0.0
220
0.0
230
1.0
 70
     8
 71
     3
 72
    20
 73
    16
 74
     0
 42
0.000000001
 43
0.00000001
 40
0.0
 40
0.0
 40
0.0
 40
0.0
 40
0.1249999999999998
 40
0.1249999999999998
 40
0.2499999999999996
 40
0.2499999999999996
 40
0.3749999999999993
 40
0.3749999999999993
 40
0.4999999999999991
 40
0.4999999999999991
 40
0.6249999999999989
 40
0.6249999999999989
 40
0.7499999999999987
 40
0.7499999999999987
 40
1.0
 40
1.0
 40
1.0
 40
1.0
 10
2413.129528272269
 20
-336.5581039561508
 30
0.0
 10
2413.129528272269
 20
-336.7716694135826
 30
0.0
 10
2413.120222830945
 20
-336.9850012881167
 30
0.0
 10
2413.083495591486
 20
-337.3975556545798
 30
0.0
 10
2413.056383348011
 20
-337.5954491416711
 30
0.0
 10
2412.983420477744
 20
-337.9749351018046
 30
0.0
 10
2412.93712298464
 20
-338.1565476555658
 30
0.0
 10
2412.828464865761
 20
-338.4848802410028
 30
0.0
 10
2412.765675277137
 20
-338.6343333858705
 30
0.0
 10
2412.620944141412
 20
-338.9044601228958
 30
0.0
 10
2412.540645124757
 20
-339.0216286709934
 30
0.0
 10
2412.366741356273
 20
-339.2199061202888
 30
0.0
 10
2412.272672943207
 20
-339.3018384273161
 30
0.0
 10
2411.967395227687
 20
-339.4984831694461
 30
0.0
 10
2411.744721942266
 20
-339.5581039561508
 30
0.0
 10
2411.503776713473
 20
-339.5581039561508
 30
0.0
  0
SPLINE
  5
1B4E0
330
18
100
AcDbEntity
  8
01
100
AcDbSpline
210
0.0
220
0.0
230
1.0
 70
     8
 71
     3
 72
    22
 73
    18
 74
     0
 42
0.000000001
 43
0.00000001
 40
0.0
 40
0.0
 40
0.0
 40
0.0
 40
0.125
 40
0.125
 40
0.25
 40
0.25
 40
0.375
 40
0.375
 40
0.5
 40
0.5
 40
0.625
 40
0.625
 40
0.75
 40
0.75
 40
0.875
 40
0.875
 40
1.0
 40
1.0
 40
1.0
 40
1.0
 10
2368.842318698069
 20
-339.5581039561508
 30
0.0
 10
2368.721898192691
 20
-339.5581039561508
 30
0.0
 10
2368.60590427866
 20
-339.5428842307953
 30
0.0
 10
2368.382704957284
 20
-339.4799832353111
 30
0.0
 10
2368.274702133646
 20
-339.4316853467268
 30
0.0
 10
2368.072885286367
 20
-339.3012971793497
 30
0.0
 10
2367.978778288726
 20
-339.2194876624968
 30
0.0
 10
2367.803593764104
 20
-339.0192706130839
 30
0.0
 10
2367.722777932766
 20
-338.9004629700304
 30
0.0
 10
2367.57984875817
 20
-338.6328255189411
 30
0.0
 10
2367.516444602805
 20
-338.4821094862381
 30
0.0
 10
2367.406892876269
 20
-338.1494265018213
 30
0.0
 10
2367.361926415024
 20
-337.9716286657127
 30
0.0
 10
2367.28933743475
 20
-337.5929048569584
 30
0.0
 10
2367.26174711043
 20
-337.3900610745878
 30
0.0
 10
2367.225646763142
 20
-336.9803179630061
 30
0.0
 10
2367.216567139273
 20
-336.7713555944082
 30
0.0
 10
2367.216567139273
 20
-336.5581039561508
 30
0.0
  0
LINE
  5
1B4E2
330
18
100
AcDbEntity
  8
01
100
AcDbLine
 10
2413.129528272269
 20
-321.3581039561506
 30
0.0
 11
2413.129528272269
 21
-336.5581039561508
 31
0.0
  0
LINE
  5
1B4E3
330
18
100
AcDbEntity
  8
01
100
AcDbLine
 10
2367.216567139273
 20
-336.5581039561508
 30
0.0
 11
2367.216567139273
 21
-321.3581039561506
 31
0.0
  0
ARC
  5
1B5AE
330
18
100
AcDbEntity
  8
01
100
AcDbCircle
 10
2505.673047705771
 20
-322.0581053682234
 30
-0.000000000002521
 40
1.0
100
AcDbArc
 50
270.0
 51
0.0
  0
ARC
  5
1B5AF
330
18
100
AcDbEntity
  8
01
100
AcDbCircle
 10
2505.673047705771
 20
-302.0581053682234
 30
-0.000000000002521
 40
1.0
100
AcDbArc
 50
0.0
 51
90.0
  0
LINE
  5
1B5DA
330
18
100
AcDbEntity
  8
01
100
AcDbLine
 10
2361.173047705771
 20
-301.0581040248795
 30
-0.0000000000000336
 11
2505.673047705771
 21
-301.0581040248795
 31
-0.0000000000000336
  0
LINE
  5
1B5DB
330
18
100
AcDbEntity
  8
01
100
AcDbLine
 10
2361.173047705771
 20
-323.0581040248798
 30
-0.0000000000005949
 11
2365.285440919459
 21
-323.0581040248798
 31
-0.0000000000006495
  0
LINE
  5
1B5DC
330
18
100
AcDbEntity
  8
01
100
AcDbLine
 10
2415.06285299019
 20
-323.0581040248798
 30
-0.0000000000013107
 11
2505.673047705771
 21
-323.0581040248798
 31
-0.0000000000025144
  0
ARC
  5
1B5DD
330
18
100
AcDbEntity
  8
01
100
AcDbCircle
 10
2361.173047705771
 20
-322.0581040248798
 30
-0.000000000000013
 40
1.0
100
AcDbArc
 50
180.0
 51
270.0
  0
ARC
  5
1B5DE
330
18
100
AcDbEntity
  8
01
100
AcDbCircle
 10
2361.173047705771
 20
-302.0581040248798
 30
-0.000000000000013
 40
1.0
100
AcDbArc
 50
90.0
 51
180.0
  0
LINE
  5
1B5E4
330
18
100
AcDbEntity
  8
01
100
AcDbLine
 10
2360.173047705771
 20
-301.6581040248799
 30
-0.000000000000013
 11
2360.173047705771
 21
-322.4581040248798
 31
-0.000000000000013
  0
ARC
  5
1B5E5
330
18
100
AcDbEntity
  8
01
100
AcDbCircle
 10
2357.673047679694
 20
-301.2581040509568
 30
-0.000000000000013
 40
0.5
100
AcDbArc
 50
90.0
 51
180.0
  0
ARC
  5
1B5E6
330
18
100
AcDbEntity
  8
01
100
AcDbCircle
 10
2357.673047703443
 20
-322.858104413055
 30
-0.000000000000013
 40
0.5
100
AcDbArc
 50
180.0
 51
270.0
  0
LINE
  5
1B5E7
330
18
100
AcDbEntity
  8
01
100
AcDbLine
 10
2357.673047703443
 20
-323.358104413055
 30
-0.000000000000013
 11
2359.673047623815
 21
-323.358104413055
 31
-0.000000000000013
  0
LINE
  5
1B5E8
330
18
100
AcDbEntity
  8
01
100
AcDbLine
 10
2359.673047623815
 20
-300.7581036888586
 30
-0.000000000000013
 11
2357.673047703443
 21
-300.7581036888586
 31
-0.000000000000013
  0
ARC
  5
1B5E9
330
18
100
AcDbEntity
  8
01
100
AcDbCircle
 10
2359.673047679694
 20
-301.2581040509568
 30
-0.000000000000013
 40
0.5
100
AcDbArc
 50
0.0
 51
90.0
  0
ARC
  5
1B5EA
330
18
100
AcDbEntity
  8
01
100
AcDbCircle
 10
2359.673047679694
 20
-322.858104050957
 30
-0.000000000000013
 40
0.5
100
AcDbArc
 50
270.0
 51
0.0
  0
LINE
  5
1B5EB
330
18
100
AcDbEntity
  8
01
100
AcDbLine
 10
2357.173047679694
 20
-322.8581043310986
 30
-0.000000000000013
 11
2357.173047679694
 21
-301.258103770815
 31
-0.000000000000013
  0
LINE
  5
1B5EC
330
18
100
AcDbEntity
  8
01
100
AcDbLine
 10
2360.173047705771
 20
-301.258103770815
 30
-0.000000000000013
 11
2360.173047705771
 21
-322.8581043310986
 31
-0.000000000000013
  0
SPLINE
  5
1B5EF
330
18
100
AcDbEntity
  8
01
100
AcDbSpline
210
0.0
220
0.0
230
1.0
 70
     8
 71
     3
 72
    25
 73
    21
 74
     0
 42
0.000000001
 43
0.00000001
 40
0.0
 40
0.0
 40
0.0
 40
0.0
 40
0.0010414547670499
 40
0.0078920961784771
 40
0.0124631917519568
 40
0.0153084684371826
 40
0.0182913233871006
 40
0.0230373513888648
 40
0.0335713171085232
 40
0.0577584301918357
 40
0.1223023187146578
 40
0.2340620789408601
 40
0.3433217029835016
 40
0.4495258120597231
 40
0.5560854677349036
 40
0.663679745446913
 40
0.7725124179311238
 40
0.882590620740218
 40
0.9938134037285269
 40
1.0
 40
1.0
 40
1.0
 40
1.0
 10
2365.174076727463
 20
-323.3520065778981
 30
0.0
 10
2365.173920580918
 20
-323.3496358072208
 30
0.0
 10
2365.172737309604
 20
-323.3316702164003
 30
0.0
 10
2365.17787788772
 20
-323.3035640065369
 30
0.0
 10
2365.184989312268
 20
-323.2742633688805
 30
0.0
 10
2365.189931371644
 20
-323.2594122107718
 30
0.0
 10
2365.193350406233
 20
-323.2500501298233
 30
0.0
 10
2365.196815760039
 20
-323.2414255737709
 30
0.0
 10
2365.20008410793
 20
-323.2338893120587
 30
0.0
 10
2365.204359555325
 20
-323.2244303488027
 30
0.0
 10
2365.21776390592
 20
-323.1957383881964
 30
0.0
 10
2365.251208449505
 20
-323.1280101174242
 30
0.0
 10
2365.312187377961
 20
-323.003649346406
 30
0.0
 10
2365.392794537402
 20
-322.8361465591953
 30
0.0
 10
2365.491361920087
 20
-322.6262276809549
 30
0.0
 10
2365.607443475592
 20
-322.3716248606139
 30
0.0
 10
2365.739392411843
 20
-322.0733488449056
 30
0.0
 10
2365.886588660218
 20
-321.7261471102744
 30
0.0
 10
2365.993173702179
 20
-321.4703960401813
 30
0.0
 10
2366.052072126044
 20
-321.3198716738667
 30
0.0
 10
2366.055175632524
 20
-321.3119401654191
 30
0.0
  0
SPLINE
  5
1B5F0
330
18
100
AcDbEntity
  8
01
100
AcDbSpline
210
0.0
220
0.0
230
1.0
 70
     8
 71
     3
 72
    17
 73
    13
 74
     0
 42
0.000000001
 43
0.00000001
 40
0.0
 40
0.0
 40
0.0
 40
0.0
 40
0.1002957840704815
 40
0.2142673378537419
 40
0.327482717719165
 40
0.4389475003731197
 40
0.5489209533842896
 40
0.6589014246512871
 40
0.7684931801292328
 40
0.8773363251892716
 40
0.9681621498837771
 40
0.9999999999999999
 40
0.9999999999999999
 40
0.9999999999999999
 40
0.9999999999999999
 10
2414.27178285437
 20
-321.2225038494277
 30
0.0
 10
2414.320804042783
 20
-321.3439587275567
 30
0.0
 10
2414.425530673485
 20
-321.6034293887338
 30
0.0
 10
2414.572299000747
 20
-321.9508557252299
 30
0.0
 10
2414.711170040789
 20
-322.2727650199944
 30
0.0
 10
2414.831387242283
 20
-322.5463970689053
 30
0.0
 10
2414.93307140014
 20
-322.774072778379
 30
0.0
 10
2415.015761626785
 20
-322.9562308102546
 30
0.0
 10
2415.079366277893
 20
-323.0939766482808
 30
0.0
 10
2415.118572070302
 20
-323.177577355542
 30
0.0
 10
2415.138028321113
 20
-323.2178012674823
 30
0.0
 10
2415.137534941054
 20
-323.2168931665934
 30
0.0
 10
2415.137406882276
 20
-323.2166574653553
 30
0.0
  0
SPLINE
  5
1B5F1
330
18
100
AcDbEntity
  8
01
100
AcDbSpline
210
0.0
220
0.0
230
1.0
 70
     8
 71
     3
 72
    14
 73
    10
 74
     0
 42
0.000000001
 43
0.00000001
 40
0.0
 40
0.0
 40
0.0
 40
0.0
 40
0.2320265698766933
 40
0.8154186661720276
 40
0.8978231064032898
 40
0.9224631684713309
 40
0.9411167382161877
 40
0.9729043060323125
 40
1.0
 40
1.0
 40
1.0
 40
1.0
 10
2415.10754096249
 20
-323.1537246533939
 30
0.0
 10
2415.113564745916
 20
-323.1659489212171
 30
0.0
 10
2415.1347343277
 20
-323.2089090708611
 30
0.0
 10
2415.141452853265
 20
-323.2245888680915
 30
0.0
 10
2415.149116803997
 20
-323.2406485464645
 30
0.0
 10
2415.15651729629
 20
-323.2600184954509
 30
0.0
 10
2415.163660612036
 20
-323.2833757453424
 30
0.0
 10
2415.171218006335
 20
-323.3152255705519
 30
0.0
 10
2415.17107094151
 20
-323.3403206453062
 30
0.0
 10
2415.17100326823
 20
-323.3518683830681
 30
0.0
  0
LINE
  5
1B5F4
330
18
100
AcDbEntity
  8
01
100
AcDbLine
 10
2365.175879585455
 20
-323.3521190788839
 30
0.0
 11
2365.175982765417
 21
-323.3519009748089
 31
0.0
  0
LINE
  5
1B5F7
330
18
100
AcDbEntity
  8
01
100
AcDbLine
 10
2413.799092288792
 20
-321.0581039561508
 30
0.0
 11
2413.129528272269
 21
-321.0581039561508
 31
0.0
  0
LINE
  5
1B5FA
330
18
100
AcDbEntity
  8
01
100
AcDbLine
 10
2367.216567139273
 20
-321.0581039561508
 30
0.0
 11
2366.547003122751
 21
-321.0581039561508
 31
0.0
  0
LINE
  5
1B5FB
330
18
100
AcDbEntity
  8
01
100
AcDbLine
 10
2413.129528272269
 20
-321.0581039561508
 30
0.0
 11
2367.216567139273
 21
-321.0581039561508
 31
0.0
  0
SPLINE
  5
1B5FC
330
18
100
AcDbEntity
  8
01
100
AcDbSpline
210
0.0
220
0.0
230
1.0
 70
     8
 71
     3
 72
    10
 73
     6
 74
     0
 42
0.000000001
 43
0.00000001
 40
0.0
 40
0.0
 40
0.0
 40
0.0
 40
0.5
 40
0.5
 40
0.9131629334268441
 40
0.9131629334268441
 40
0.9131629334268441
 40
0.9131629334268441
 10
2366.319031402295
 20
-321.0581039561508
 30
0.0
 10
2366.240843104636
 20
-321.0581039561508
 30
0.0
 10
2366.167670122976
 20
-321.0923799978178
 30
0.0
 10
2366.079369855307
 20
-321.1942946184041
 30
0.0
 10
2366.056162116355
 20
-321.2552919061371
 30
0.0
 10
2366.052702695104
 20
-321.3182597065039
 30
0.0
  0
LINE
  5
1B5FD
330
18
100
AcDbEntity
  8
01
100
AcDbLine
 10
2366.547003122751
 20
-321.0581039561508
 30
0.0
 11
2366.319031402295
 21
-321.0581039561508
 31
0.0
  0
SPLINE
  5
1B5FE
330
18
100
AcDbEntity
  8
01
100
AcDbSpline
210
0.0
220
0.0
230
1.0
 70
     8
 71
     3
 72
    10
 73
     6
 74
     0
 42
0.000000001
 43
0.00000001
 40
0.0
 40
0.0
 40
0.0
 40
0.0
 40
0.5
 40
0.5
 40
0.7232990038580591
 40
0.7232990038580591
 40
0.7232990038580591
 40
0.7232990038580591
 10
2414.027064009247
 20
-321.0581039561508
 30
0.0
 10
2414.105252306907
 20
-321.0581039561508
 30
0.0
 10
2414.178425288567
 20
-321.0923799978178
 30
0.0
 10
2414.24836625234
 20
-321.1731046317799
 30
0.0
 10
2414.265067734374
 20
-321.2023743008723
 30
0.0
 10
2414.276404021039
 20
-321.2339531781496
 30
0.0
  0
LINE
  5
1B5FF
330
18
100
AcDbEntity
  8
01
100
AcDbLine
 10
2414.027064009246
 20
-321.0581039561508
 30
0.0
 11
2413.799092288792
 21
-321.0581039561508
 31
0.0
  0
LINE
  5
1B600
330
18
100
AcDbEntity
  8
01
100
AcDbLine
 10
2506.673047705771
 20
-312.0581053682234
 30
-0.000000000002521
 11
2506.673047705771
 21
-322.8581053682232
 31
-0.000000000002521
  0
LINE
  5
1B601
330
18
100
AcDbEntity
  8
01
100
AcDbLine
 10
2506.673047705771
 20
-301.2581053682233
 30
-0.000000000002521
 11
2506.673047705771
 21
-312.0581053682234
 31
-0.000000000002521
  0
ARC
  5
1B602
330
18
100
AcDbEntity
  8
01
100
AcDbCircle
 10
2508.628153077016
 20
-322.3581053682232
 30
-0.000000000002521
 40
1.0
100
AcDbArc
 50
270.0
 51
327.1714582086085
  0
ARC
  5
1B603
330
18
100
AcDbEntity
  8
01
100
AcDbCircle
 10
2508.628153077016
 20
-301.7581053682233
 30
-0.000000000002521
 40
1.0
100
AcDbArc
 50
32.82854179139152
 51
90.0
  0
LINE
  5
1B604
330
18
100
AcDbEntity
  8
01
100
AcDbLine
 10
2508.628153077016
 20
-323.3581053682232
 30
-0.000000000002521
 11
2507.173047705771
 21
-323.3581053682232
 31
-0.000000000002521
  0
LINE
  5
1B605
330
18
100
AcDbEntity
  8
01
100
AcDbLine
 10
2507.173047705771
 20
-300.7581053682233
 30
-0.000000000002521
 11
2508.628153077016
 21
-300.7581053682233
 31
-0.000000000002521
  0
ARC
  5
1B606
330
18
100
AcDbEntity
  8
01
100
AcDbCircle
 10
2507.173047705771
 20
-301.2581053682233
 30
-0.000000000002521
 40
0.5
100
AcDbArc
 50
90.0
 51
180.0
  0
ARC
  5
1B607
330
18
100
AcDbEntity
  8
01
100
AcDbCircle
 10
2507.173047705771
 20
-322.8581053682232
 30
-0.000000000002521
 40
0.5
100
AcDbArc
 50
180.0
 51
270.0
  0
LINE
  5
1B608
330
18
100
AcDbEntity
  8
01
100
AcDbLine
 10
2509.468449725241
 20
-301.2159784984013
 30
-0.000000000002521
 11
2515.013344353995
 21
-309.810565172971
 31
-0.000000000002521
  0
LINE
  5
1B609
330
18
100
AcDbEntity
  8
01
100
AcDbLine
 10
2515.013344353995
 20
-314.3056455634754
 30
-0.000000000002521
 11
2509.468449725241
 21
-322.9002322380455
 31
-0.000000000002521
  0
ARC
  5
1B60A
330
18
100
AcDbEntity
  8
01
100
AcDbCircle
 10
2514.173047705771
 20
-310.3526920427929
 30
-0.000000000002521
 40
1.0
100
AcDbArc
 50
0.0
 51
32.82854179139152
  0
ARC
  5
1B60B
330
18
100
AcDbEntity
  8
01
100
AcDbCircle
 10
2514.173047705771
 20
-313.7635186936535
 30
-0.000000000002521
 40
1.0
100
AcDbArc
 50
327.1714582086085
 51
0.0
  0
LINE
  5
1B60C
330
18
100
AcDbEntity
  8
01
100
AcDbLine
 10
2515.173047705771
 20
-312.0581053682234
 30
-0.000000000002521
 11
2515.173047705771
 21
-310.3526920427929
 31
-0.000000000002521
  0
LINE
  5
1B60D
330
18
100
AcDbEntity
  8
01
100
AcDbLine
 10
2515.173047705771
 20
-313.7635186936535
 30
-0.000000000002521
 11
2515.173047705771
 21
-312.0581053682234
 31
-0.000000000002521
  0
LINE
  5
1B60E
330
18
100
AcDbEntity
  8
01
100
AcDbLine
 10
2509.468449725241
 20
-312.0581053682234
 30
-0.000000000002521
 11
2509.468449725241
 21
-301.2159784984013
 31
-0.000000000002521
  0
LINE
  5
1B60F
330
18
100
AcDbEntity
  8
01
100
AcDbLine
 10
2509.468449725241
 20
-322.9002322380455
 30
-0.000000000002521
 11
2509.468449725241
 21
-312.0581053682234
 31
-0.000000000002521
  0
LINE
  5
1B612
330
18
100
AcDbEntity
  8
1CENTER
100
AcDbLine
 10
2185.773157343288
 20
-678.092269581972
 30
0.0
 11
2185.773157343288
 21
-665.2586683202956
 31
0.0
  0
LINE
  5
1B613
330
18
100
AcDbEntity
  8
01
100
AcDbLine
 10
2200.173280385259
 20
-627.5582269970906
 30
0.0
 11
2198.673157071634
 21
-627.5582269970906
 31
0.0
  0
LINE
  5
1B614
330
18
100
AcDbEntity
  8
01
100
AcDbLine
 10
2200.173280385259
 20
-672.5582269970897
 30
0.0
 11
2198.673157343291
 21
-672.5582269970897
 31
0.0
  0
LINE
  5
1B615
330
18
100
AcDbEntity
  8
01
100
AcDbLine
 10
2200.173280385259
 20
-672.5582269970897
 30
0.0
 11
2200.173280385259
 21
-627.5582269970906
 31
0.0
  0
CIRCLE
  5
1B616
330
18
100
AcDbEntity
  8
01
100
AcDbCircle
 10
2152.173157412019
 20
-650.0582269970902
 30
0.0
 40
11.30000033602118
  0
LINE
  5
1B617
330
18
100
AcDbEntity
  8
01
100
AcDbLine
 10
2181.274889476168
 20
-675.0582269970902
 30
0.0
 11
2180.673157343289
 21
-675.0582269970902
 31
0.0
  0
LINE
  5
1B618
330
18
100
AcDbEntity
  8
01
100
AcDbLine
 10
2198.67315734329
 20
-675.0582269970902
 30
0.0
 11
2190.27315734329
 21
-675.0582269970902
 31
0.0
  0
LINE
  5
1B619
330
18
100
AcDbEntity
  8
01
100
AcDbLine
 10
2180.673157343289
 20
-625.0582269970902
 30
0.0
 11
2198.67315734329
 21
-625.0582269970902
 31
0.0
  0
ARC
  5
1B61A
330
18
100
AcDbEntity
  8
01
100
AcDbCircle
 10
2180.673157343289
 20
-674.0582269970902
 30
0.0
 40
1.0
100
AcDbArc
 50
180.0
 51
270.0
  0
ARC
  5
1B61B
330
18
100
AcDbEntity
  8
01
100
AcDbCircle
 10
2180.673157343289
 20
-626.0582269970902
 30
0.0
 40
1.0
100
AcDbArc
 50
90.0
 51
180.0
  0
LINE
  5
1B61C
330
18
100
AcDbEntity
  8
01
100
AcDbLine
 10
2181.363483117081
 20
-675.0500005777031
 30
0.0
 11
2181.362998829235
 21
-675.0500892820829
 31
0.0
  0
ARC
  5
1B61D
330
18
100
AcDbEntity
  8
01
100
AcDbCircle
 10
2181.273157347919
 20
-674.5582269962398
 30
0.0
 40
0.5000000000000058
100
AcDbArc
 50
270.198314784385
 51
280.3512938256559
  0
ARC
  5
1B61E
330
18
100
AcDbEntity
  8
01
100
AcDbCircle
 10
2190.273157329601
 20
-674.5582269945754
 30
0.0
 40
0.4999999999999971
100
AcDbArc
 50
259.5922855874545
 51
270.0001683389
  0
SPLINE
  5
1B61F
330
18
100
AcDbEntity
  8
01
100
AcDbSpline
210
0.0
220
0.0
230
1.0
 70
     8
 71
     3
 72
    38
 73
    34
 74
     0
 42
0.000000001
 43
0.00000001
 40
0.0
 40
0.0
 40
0.0
 40
0.0
 40
0.0173749390782923
 40
0.0513148018401738
 40
0.0847913878656912
 40
0.1182855394880036
 40
0.1518525219173384
 40
0.1857856707372894
 40
0.2195841600796422
 40
0.2532016284348418
 40
0.2868627017109681
 40
0.3205304360710263
 40
0.3538734461692637
 40
0.3870048937965707
 40
0.4202652434062399
 40
0.4530916268067759
 40
0.485807108963845
 40
0.5187451618501332
 40
0.5514133267406173
 40
0.5840804282388982
 40
0.6171404199898658
 40
0.6501687453677067
 40
0.6832559283660443
 40
0.7167935557795256
 40
0.7504120706266938
 40
0.7840196915782218
 40
0.8178810062199995
 40
0.8518724271587522
 40
0.8857974801276438
 40
0.919455054481305
 40
0.9533691011650021
 40
0.9876069557249617
 40
1.0
 40
1.0
 40
1.0
 40
1.0
 10
2190.180808489786
 20
-675.0496246114591
 30
0.0
 10
2190.179746895443
 20
-675.0494240339059
 30
0.0
 10
2190.176611603682
 20
-675.0488316521224
 30
0.0
 10
2190.134043732608
 20
-675.0409580016568
 30
0.0
 10
2190.037694891517
 20
-675.0236531052889
 30
0.0
 10
2189.893486196401
 20
-674.9983620199101
 30
0.0
 10
2189.703509087611
 20
-674.9662563921075
 30
0.0
 10
2189.469801695225
 20
-674.928858538503
 30
0.0
 10
2189.194438978543
 20
-674.887638892401
 30
0.0
 10
2188.880610493832
 20
-674.8445204654655
 30
0.0
 10
2188.532479446133
 20
-674.8014031593513
 30
0.0
 10
2188.154004001484
 20
-674.7601640632357
 30
0.0
 10
2187.749421076611
 20
-674.7229839749835
 30
0.0
 10
2187.323891272992
 20
-674.6911744638538
 30
0.0
 10
2186.882756544358
 20
-674.6660346009722
 30
0.0
 10
2186.430146324994
 20
-674.649206004012
 30
0.0
 10
2185.971458272916
 20
-674.6409794412449
 30
0.0
 10
2185.511164649186
 20
-674.6413623999725
 30
0.0
 10
2185.054171724412
 20
-674.6509620346334
 30
0.0
 10
2184.605134984116
 20
-674.6691318892873
 30
0.0
 10
2184.167672806208
 20
-674.6947295254705
 30
0.0
 10
2183.747133054987
 20
-674.7270962258818
 30
0.0
 10
2183.348128817148
 20
-674.7648200862133
 30
0.0
 10
2182.973932384672
 20
-674.8060749551388
 30
0.0
 10
2182.62985303743
 20
-674.8491924793672
 30
0.0
 10
2182.320894679003
 20
-674.8921368062094
 30
0.0
 10
2182.049185121215
 20
-674.9331159364593
 30
0.0
 10
2181.818310573263
 20
-674.9703554480485
 30
0.0
 10
2181.633139687856
 20
-675.001707948969
 30
0.0
 10
2181.494176911614
 20
-675.0261814341985
 30
0.0
 10
2181.40214868589
 20
-675.0429209394252
 30
0.0
 10
2181.366353811544
 20
-675.0494542445996
 30
0.0
 10
2181.363700260109
 20
-675.0499395067055
 30
0.0
 10
2181.362995028573
 20
-675.0500684742975
 30
0.0
  0
LINE
  5
1B620
330
18
100
AcDbEntity
  8
01
100
AcDbLine
 10
2198.67315734329
 20
-625.0582269970902
 30
0.0
 11
2198.67315734329
 21
-675.0582269970902
 31
0.0
  0
SPLINE
  5
1B621
330
18
100
AcDbEntity
  8
01
100
AcDbSpline
210
0.0
220
0.0
230
1.0
 70
     8
 71
     3
 72
    20
 73
    16
 74
     0
 42
0.000000001
 43
0.00000001
 40
0.0
 40
0.0
 40
0.0
 40
0.0
 40
0.1249999999999998
 40
0.1249999999999998
 40
0.2499999999999996
 40
0.2499999999999996
 40
0.3749999999999993
 40
0.3749999999999993
 40
0.4999999999999991
 40
0.4999999999999991
 40
0.6249999999999989
 40
0.6249999999999989
 40
0.7499999999999987
 40
0.7499999999999987
 40
1.0
 40
1.0
 40
1.0
 40
1.0
 10
2176.673157343289
 20
-658.0582269970902
 30
0.0
 10
2176.886722800722
 20
-658.0582269970902
 30
0.0
 10
2177.100054675255
 20
-658.0812666783996
 30
0.0
 10
2177.512609041718
 20
-658.1703463006098
 30
0.0
 10
2177.71050252881
 20
-658.2356127894546
 30
0.0
 10
2178.089988488944
 20
-658.4057139426878
 30
0.0
 10
2178.271601042704
 20
-658.511437611177
 30
0.0
 10
2178.599933628142
 20
-658.7498311071841
 30
0.0
 10
2178.74938677301
 20
-658.8835509754
 30
0.0
 10
2179.019513510035
 20
-659.1781851935858
 30
0.0
 10
2179.136682058133
 20
-659.3356108059307
 30
0.0
 10
2179.334959507427
 20
-659.6613841993222
 30
0.0
 10
2179.416891814455
 20
-659.8306996871489
 30
0.0
 10
2179.613536556585
 20
-660.3555331365325
 30
0.0
 10
2179.673157343289
 20
-660.7078039938334
 30
0.0
 10
2179.673157343289
 20
-661.0582269970902
 30
0.0
  0
SPLINE
  5
1B622
330
18
100
AcDbEntity
  8
01
100
AcDbSpline
210
0.0
220
0.0
230
1.0
 70
     8
 71
     3
 72
    22
 73
    18
 74
     0
 42
0.000000001
 43
0.00000001
 40
0.0
 40
0.0
 40
0.0
 40
0.0
 40
0.125
 40
0.125
 40
0.25
 40
0.25
 40
0.375
 40
0.375
 40
0.5
 40
0.5
 40
0.625
 40
0.625
 40
0.75
 40
0.75
 40
0.875
 40
0.875
 40
1.0
 40
1.0
 40
1.0
 40
1.0
 10
2179.673157343289
 20
-639.0582269970902
 30
0.0
 10
2179.673157343289
 20
-639.2333627130357
 30
0.0
 10
2179.657937617934
 20
-639.4091217077959
 30
0.0
 10
2179.59503662245
 20
-639.7615490171639
 30
0.0
 10
2179.546738733865
 20
-639.9396462801998
 30
0.0
 10
2179.416350566489
 20
-640.2867467979469
 30
0.0
 10
2179.334541049635
 20
-640.4560839619272
 30
0.0
 10
2179.134324000223
 20
-640.7843863215295
 30
0.0
 10
2179.015516357169
 20
-640.9430214609666
 30
0.0
 10
2178.74787890608
 20
-641.2341466550398
 30
0.0
 10
2178.597162873377
 20
-641.3691433960549
 30
0.0
 10
2178.26447988896
 20
-641.6096627572953
 30
0.0
 10
2178.086682052851
 20
-641.7124630898198
 30
0.0
 10
2177.707958244097
 20
-641.8817369468126
 30
0.0
 10
2177.505114461727
 20
-641.9481642613747
 30
0.0
 10
2177.095371350145
 20
-642.0357470005212
 30
0.0
 10
2176.886408981547
 20
-642.0582269970902
 30
0.0
 10
2176.673157343289
 20
-642.0582269970902
 30
0.0
  0
LINE
  5
1B623
330
18
100
AcDbEntity
  8
01
100
AcDbLine
 10
2161.47315734329
 20
-658.0582269970902
 30
0.0
 11
2176.673157343289
 21
-658.0582269970902
 31
0.0
  0
LINE
  5
1B624
330
18
100
AcDbEntity
  8
01
100
AcDbLine
 10
2161.173157343289
 20
-642.3582269970894
 30
0.0
 11
2161.173157343289
 21
-643.2252182285312
 31
0.0
  0
ARC
  5
1B625
330
18
100
AcDbEntity
  8
01
100
AcDbCircle
 10
2161.47315734329
 20
-642.3582269970894
 30
0.0
 40
0.3000000000000114
100
AcDbArc
 50
90.0
 51
180.0
  0
LINE
  5
1B626
330
18
100
AcDbEntity
  8
01
100
AcDbLine
 10
2161.173157343289
 20
-656.8912357656492
 30
0.0
 11
2161.173157343289
 21
-657.75822699709
 31
0.0
  0
ARC
  5
1B627
330
18
100
AcDbEntity
  8
01
100
AcDbCircle
 10
2161.47315734329
 20
-657.75822699709
 30
0.0
 40
0.3000000000000114
100
AcDbArc
 50
180.0
 51
270.0
  0
LINE
  5
1B628
330
18
100
AcDbEntity
  8
01
100
AcDbLine
 10
2176.673157343289
 20
-642.0582269970902
 30
0.0
 11
2161.47315734329
 21
-642.0582269970902
 31
0.0
  0
LINE
  5
1B629
330
18
100
AcDbEntity
  8
01
100
AcDbLine
 10
2179.673157343289
 20
-661.0582269970902
 30
0.0
 11
2179.673157343289
 21
-674.0582269970902
 31
0.0
  0
LINE
  5
1B62A
330
18
100
AcDbEntity
  8
01
100
AcDbLine
 10
2179.673157343289
 20
-626.0582269970902
 30
0.0
 11
2179.673157343289
 21
-639.0582269970902
 31
0.0
  0
ARC
  5
1B62C
330
18
100
AcDbEntity
  8
01
100
AcDbCircle
 10
2050.173047705771
 20
-650.0582269970902
 30
0.0
 40
25.0
100
AcDbArc
 50
26.10388113734173
 51
153.8961188626585
  0
ARC
  5
1B62D
330
18
100
AcDbEntity
  8
01
100
AcDbCircle
 10
2050.173047705771
 20
-650.0582269970902
 30
0.0
 40
25.00000000000002
100
AcDbArc
 50
206.1038811373419
 51
333.8961188626582
  0
LINE
  5
1B62E
330
18
100
AcDbEntity
  8
01
100
AcDbLine
 10
2080.173047705771
 20
-660.45822699709
 30
0.0
 11
2080.173047705771
 21
-639.6582269970901
 31
0.0
  0
ARC
  5
1B62F
330
18
100
AcDbEntity
  8
01
100
AcDbCircle
 10
2082.673047731848
 20
-660.8582269710131
 30
0.0
 40
0.5
100
AcDbArc
 50
270.0
 51
0.0
  0
ARC
  5
1B630
330
18
100
AcDbEntity
  8
01
100
AcDbCircle
 10
2082.6730477081
 20
-639.2582266089149
 30
0.0
 40
0.5
100
AcDbArc
 50
0.0
 51
90.0
  0
LINE
  5
1B631
330
18
100
AcDbEntity
  8
01
100
AcDbLine
 10
2082.6730477081
 20
-638.7582266089149
 30
0.0
 11
2080.673047787728
 21
-638.7582266089149
 31
0.0
  0
LINE
  5
1B632
330
18
100
AcDbEntity
  8
01
100
AcDbLine
 10
2080.673047787728
 20
-661.3582273331114
 30
0.0
 11
2082.6730477081
 21
-661.3582273331114
 31
0.0
  0
ARC
  5
1B633
330
18
100
AcDbEntity
  8
01
100
AcDbCircle
 10
2080.673047731848
 20
-660.8582269710131
 30
0.0
 40
0.5
100
AcDbArc
 50
180.0
 51
270.0
  0
ARC
  5
1B634
330
18
100
AcDbEntity
  8
01
100
AcDbCircle
 10
2080.673047731848
 20
-639.258226971013
 30
0.0
 40
0.5
100
AcDbArc
 50
90.0
 51
180.0
  0
LINE
  5
1B635
330
18
100
AcDbEntity
  8
01
100
AcDbLine
 10
2083.173047731848
 20
-639.2582266908713
 30
0.0
 11
2083.173047731848
 21
-660.858227251155
 31
0.0
  0
LINE
  5
1B636
330
18
100
AcDbEntity
  8
01
100
AcDbLine
 10
2080.173047705771
 20
-660.858227251155
 30
0.0
 11
2080.173047705771
 21
-639.2582266908713
 31
0.0
  0
LINE
  5
1B63C
330
18
100
AcDbEntity
  8
01
100
AcDbLine
 10
1933.673047705771
 20
-660.8582256537467
 30
-0.000000000002508
 11
1933.673047705771
 21
-639.2582256537468
 31
-0.000000000002508
  0
ARC
  5
1B672
330
18
100
AcDbEntity
  8
01
100
AcDbCircle
 10
1931.717942334526
 20
-639.7582256537468
 30
-0.000000000002508
 40
1.0
100
AcDbArc
 50
90.0
 51
147.1714582086085
  0
ARC
  5
1B673
330
18
100
AcDbEntity
  8
01
100
AcDbCircle
 10
1931.717942334526
 20
-660.3582256537467
 30
-0.000000000002508
 40
1.0
100
AcDbArc
 50
212.8285417913915
 51
270.0
  0
LINE
  5
1B674
330
18
100
AcDbEntity
  8
01
100
AcDbLine
 10
1931.717942334526
 20
-638.7582256537468
 30
-0.000000000002508
 11
1933.173047705771
 21
-638.7582256537468
 31
-0.000000000002508
  0
LINE
  5
1B675
330
18
100
AcDbEntity
  8
01
100
AcDbLine
 10
1933.173047705771
 20
-661.3582256537467
 30
-0.000000000002508
 11
1931.717942334526
 21
-661.3582256537467
 31
-0.000000000002508
  0
ARC
  5
1B676
330
18
100
AcDbEntity
  8
01
100
AcDbCircle
 10
1933.173047705771
 20
-660.8582256537467
 30
-0.000000000002508
 40
0.5
100
AcDbArc
 50
270.0
 51
0.0
  0
ARC
  5
1B677
330
18
100
AcDbEntity
  8
01
100
AcDbCircle
 10
1933.173047705771
 20
-639.2582256537468
 30
-0.000000000002508
 40
0.5
100
AcDbArc
 50
0.0
 51
90.0
  0
LINE
  5
1B678
330
18
100
AcDbEntity
  8
01
100
AcDbLine
 10
1930.877645686302
 20
-660.9003525235686
 30
-0.000000000002508
 11
1925.332751057548
 21
-652.3057658489989
 31
-0.000000000002508
  0
LINE
  5
1B679
330
18
100
AcDbEntity
  8
01
100
AcDbLine
 10
1925.332751057548
 20
-647.8106854584945
 30
-0.000000000002508
 11
1930.877645686302
 21
-639.2160987839244
 31
-0.000000000002508
  0
ARC
  5
1B67A
330
18
100
AcDbEntity
  8
01
100
AcDbCircle
 10
1926.173047705771
 20
-651.763638979177
 30
-0.000000000002508
 40
1.0
100
AcDbArc
 50
180.0
 51
212.8285417913915
  0
ARC
  5
1B67B
330
18
100
AcDbEntity
  8
01
100
AcDbCircle
 10
1926.173047705771
 20
-648.3528123283164
 30
-0.000000000002508
 40
1.0
100
AcDbArc
 50
147.1714582086085
 51
180.0
  0
LINE
  5
1B67C
330
18
100
AcDbEntity
  8
01
100
AcDbLine
 10
1925.173047705771
 20
-650.0582256537465
 30
-0.000000000002508
 11
1925.173047705771
 21
-651.763638979177
 31
-0.000000000002508
  0
LINE
  5
1B67D
330
18
100
AcDbEntity
  8
01
100
AcDbLine
 10
1925.173047705771
 20
-648.3528123283164
 30
-0.000000000002508
 11
1925.173047705771
 21
-650.0582256537465
 31
-0.000000000002508
  0
LINE
  5
1B67E
330
18
100
AcDbEntity
  8
01
100
AcDbLine
 10
1930.877645686302
 20
-650.0582256537465
 30
-0.000000000002508
 11
1930.877645686302
 21
-660.9003525235686
 31
-0.000000000002508
  0
LINE
  5
1B67F
330
18
100
AcDbEntity
  8
01
100
AcDbLine
 10
1930.877645686302
 20
-639.2160987839244
 30
-0.000000000002508
 11
1930.877645686302
 21
-650.0582256537465
 31
-0.000000000002508
  0
LINE
  5
1B68A
330
18
100
AcDbEntity
  8
01
100
AcDbLine
 10
2079.173047682023
 20
-661.0582269970904
 30
-0.0000000000000206
 11
1934.673047682023
 21
-661.0582269970904
 31
-0.0000000000000206
  0
LINE
  5
1B68B
330
18
100
AcDbEntity
  8
01
100
AcDbLine
 10
2079.173047682023
 20
-639.0582269970902
 30
-0.0000000000005819
 11
1934.673047682023
 21
-639.0582269970902
 31
-0.0000000000025014
  0
ARC
  5
1B68C
330
18
100
AcDbEntity
  8
01
100
AcDbCircle
 10
1934.673047682023
 20
-640.0582255717901
 30
-0.000000000002508
 40
1.0
100
AcDbArc
 50
90.0
 51
180.0
  0
ARC
  5
1B68D
330
18
100
AcDbEntity
  8
01
100
AcDbCircle
 10
1934.673047682023
 20
-660.0582255717901
 30
-0.000000000002508
 40
1.0
100
AcDbArc
 50
180.0
 51
270.0
  0
ARC
  5
1B68E
330
18
100
AcDbEntity
  8
01
100
AcDbCircle
 10
2079.173047682023
 20
-640.0582269151338
 30
0.0
 40
1.0
100
AcDbArc
 50
0.0
 51
90.0
  0
ARC
  5
1B68F
330
18
100
AcDbEntity
  8
01
100
AcDbCircle
 10
2079.173047682023
 20
-660.0582269151338
 30
0.0
 40
1.0
100
AcDbArc
 50
270.0
 51
0.0
  0
TEXT
  5
1B843
330
18
100
AcDbEntity
  8
1TEXT
100
AcDbText
 10
2086.873292385263
 20
-406.8082269970899
 30
0.0
 40
6.0
  1
表面処理：握り
 72
     1
 11
2110.773292385263
 21
-406.8082269970899
 31
0.0
100
AcDbText
  0
TEXT
  5
1B844
330
18
100
AcDbEntity
  8
1TEXT
100
AcDbText
 10
2089.973292385263
 20
-417.0611599863768
 30
0.0
 40
6.0
  1
グレーレザー
 72
     1
 11
2110.773292385263
 21
-417.0611599863768
 31
0.0
100
AcDbText
  0
LINE
  5
1B845
330
18
100
AcDbEntity
  8
1DIM
100
AcDbLine
 10
2032.173292385263
 20
-398.5582269970899
 30
0.0
 11
2189.673292385263
 21
-398.5582269970899
 31
0.0
  0
LINE
  5
1B846
330
18
100
AcDbEntity
  8
1DIM
100
AcDbLine
 10
2032.173292385263
 20
-409.0582269970899
 30
0.0
 11
2189.673292385263
 21
-409.0582269970899
 31
0.0
  0
LINE
  5
1B849
330
18
100
AcDbEntity
  8
1DIM
100
AcDbLine
 10
2137.173292385263
 20
-398.5582269970899
 30
0.0
 11
2137.173292385263
 21
-419.5582269970899
 31
0.0
  0
TEXT
  5
1B84A
330
18
100
AcDbEntity
  8
1TEXT
100
AcDbText
 10
2152.973292385263
 20
-406.8082269970899
 30
0.0
 40
6.0
  1
コード
 72
     1
 11
2163.273292385263
 21
-406.8082269970899
 31
0.0
100
AcDbText
  0
LINE
  5
1B84B
330
18
100
AcDbEntity
  8
1DIM
100
AcDbLine
 10
2189.673292385263
 20
-430.0582269970899
 30
0.0
 11
2189.673292385263
 21
-398.5582269970899
 31
0.0
  0
TEXT
  5
1B84C
330
18
100
AcDbEntity
  8
1TEXT
100
AcDbText
 10
2033.573292385263
 20
-406.8082269970899
 30
0.0
 40
6.0
  1
表面処理：脚部
 72
     1
 11
2058.273292385263
 21
-406.8082269970899
 31
0.0
100
AcDbText
  0
LINE
  5
1B84E
330
18
100
AcDbEntity
  8
1DIM
100
AcDbLine
 10
2084.673292385263
 20
-419.5582269970899
 30
0.0
 11
2189.673292385263
 21
-419.5582269970899
 31
0.0
  0
LINE
  5
1B84F
330
18
100
AcDbEntity
  8
1DIM
100
AcDbLine
 10
2137.173292385263
 20
-419.5582269970899
 30
0.0
 11
2137.173292385263
 21
-430.0582269970899
 31
0.0
  0
LINE
  5
1B851
330
18
100
AcDbEntity
  8
1DIM
100
AcDbLine
 10
2084.673292385263
 20
-430.0582269970899
 30
0.0
 11
2084.673292385263
 21
-419.5582269970899
 31
0.0
  0
LINE
  5
1B853
330
18
100
AcDbEntity
  8
1DIM
100
AcDbLine
 10
2032.173292385263
 20
-430.0582269970899
 30
0.0
 11
2032.173292385263
 21
-419.5582269970899
 31
0.0
  0
LINE
  5
1B854
330
18
100
AcDbEntity
  8
1DIM
100
AcDbLine
 10
2032.173292385263
 20
-419.5582269970899
 30
0.0
 11
2032.173292385263
 21
-398.5582269970899
 31
0.0
  0
LINE
  5
1B855
330
18
100
AcDbEntity
  8
1DIM
100
AcDbLine
 10
2084.673292385263
 20
-419.5582269970899
 30
0.0
 11
2084.673292385263
 21
-398.5582269970899
 31
0.0
  0
LINE
  5
1B85E
330
18
100
AcDbEntity
  8
1DIM
100
AcDbLine
 10
2032.173292385263
 20
-430.0582269970899
 30
0.0
 11
2189.673292385263
 21
-430.0582269970899
 31
0.0
  0
LINE
  5
1B85F
330
18
100
AcDbEntity
  8
1DIM
100
AcDbLine
 10
2032.173292385263
 20
-430.0582269970899
 30
0.0
 11
2189.673292385263
 21
-430.0582269970899
 31
0.0
  0
TEXT
  5
1B860
330
18
100
AcDbEntity
  8
1TEXT
100
AcDbText
 10
2044.970404204553
 20
-422.6422993069419
 30
0.0
 40
6.0
  1
クローム
 72
     1
 11
2059.170404204553
 21
-422.6422993069419
 31
0.0
100
AcDbText
  0
LINE
  5
1B861
330
18
100
AcDbEntity
  8
1DIM
100
AcDbLine
 10
2032.173292385263
 20
-430.0582269970899
 30
0.0
 11
2189.673292385263
 21
-430.0582269970899
 31
0.0
  0
TEXT
  5
1B866
330
18
100
AcDbEntity
  8
1TEXT
100
AcDbText
 10
2086.473292385263
 20
-427.5611599863768
 30
0.0
 40
6.0
  1
ブラックレザー
 72
     1
 11
2110.773292385263
 21
-427.5611599863768
 31
0.0
100
AcDbText
  0
TEXT
  5
1B895
330
18
100
AcDbEntity
  8
1TEXT
100
AcDbText
 10
2141.360792385263
 20
-417.6297624725638
 30
0.0
 40
6.0
  1
1-WKC-C105-LJ
 41
0.6
 72
     1
 11
2163.273292385263
 21
-417.6297624725638
 31
0.0
100
AcDbText
  0
TEXT
  5
1B89B
330
18
100
AcDbEntity
  8
1TEXT
100
AcDbText
 10
2141.373292385263
 20
-428.1297624725638
 30
0.0
 40
6.0
  1
1-WKC-C104-LJ
 41
0.6
 72
     1
 11
2163.273292385263
 21
-428.1297624725638
 31
0.0
100
AcDbText
  0
TEXT
  5
1BC4C
330
18
100
AcDbEntity
  8
01
  6
CONTINUOUS
100
AcDbText
 10
2280.715766918694
 20
-416.1824461190762
 30
0.0
 40
4.55
  1
材質：亜鉛ダイキャスト
100
AcDbText
  0
TEXT
  5
1BC4D
330
18
100
AcDbEntity
  8
01
  6
CONTINUOUS
100
AcDbText
 10
2291.029100252027
 20
-423.7657794524096
 30
0.0
 40
4.55
  1
仕上げ：各種メッキ
100
AcDbText
  0
LINE
  5
1BC4E
330
18
100
AcDbEntity
  8
01
100
AcDbLine
 10
2328.173047705771
 20
-622.0582276952215
 30
0.0
 11
2328.173047705771
 21
-519.3367349124022
 31
0.0
1001
ACAD
1000
DSTYLE
1002
{
1070
    40
1040
1.3
1070
    45
1040
0.5
1002
}
  0
LINE
  5
1BC4F
330
18
100
AcDbEntity
  8
01
100
AcDbLine
 10
2339.173047705771
 20
-564.1869096459326
 30
0.0
 11
2339.173047705771
 21
-519.3367349124022
 31
0.0
1001
ACAD
1000
DSTYLE
1002
{
1070
    40
1040
1.3
1070
    45
1040
0.5
1002
}
  0
LINE
  5
1BC50
330
18
100
AcDbEntity
  8
01
100
AcDbLine
 10
2330.773047705771
 20
-520.6367349124022
 30
0.0
 11
2336.573047705771
 21
-520.6367349124022
 31
0.0
1001
ACAD
1000
DSTYLE
1002
{
1070
    40
1040
1.3
1070
    45
1040
0.5
1002
}
  0
LINE
  5
1BC54
330
18
100
AcDbEntity
  8
01
100
AcDbLine
 10
2408.173047705771
 20
-592.0582269970902
 30
0.0
 11
2436.473047705771
 21
-592.0582269970902
 31
0.0
1001
ACAD
1000
DSTYLE
1002
{
1070
    40
1040
1.3
1070
    45
1040
0.5
1002
}
  0
LINE
  5
1BC55
330
18
100
AcDbEntity
  8
01
100
AcDbLine
 10
2408.173047705771
 20
-666.0582269970906
 30
0.0
 11
2436.473047705771
 21
-666.0582269970906
 31
0.0
1001
ACAD
1000
DSTYLE
1002
{
1070
    40
1040
1.3
1070
    45
1040
0.5
1002
}
  0
LINE
  5
1BC56
330
18
100
AcDbEntity
  8
01
100
AcDbLine
 10
2435.173047705771
 20
-594.6582269970902
 30
0.0
 11
2435.173047705771
 21
-663.4582269970906
 31
0.0
1001
ACAD
1000
DSTYLE
1002
{
1070
    40
1040
1.3
1070
    45
1040
0.5
1002
}
  0
LINE
  5
1BC5A
330
18
100
AcDbEntity
  8
01
100
AcDbLine
 10
2408.173047705771
 20
-592.0582269970902
 30
0.0
 11
2408.173047705771
 21
-509.256867444354
 31
0.0
1001
ACAD
1000
DSTYLE
1002
{
1070
    40
1040
1.3
1070
    45
1040
0.5
1002
}
  0
LINE
  5
1BC5B
330
18
100
AcDbEntity
  8
01
100
AcDbLine
 10
2339.173047705771
 20
-564.1869096459326
 30
0.0
 11
2339.173047705771
 21
-509.256867444354
 31
0.0
1001
ACAD
1000
DSTYLE
1002
{
1070
    40
1040
1.3
1070
    45
1040
0.5
1002
}
  0
LINE
  5
1BC5C
330
18
100
AcDbEntity
  8
01
100
AcDbLine
 10
2405.573047705771
 20
-510.556867444354
 30
0.0
 11
2341.773047705771
 21
-510.556867444354
 31
0.0
1001
ACAD
1000
DSTYLE
1002
{
1070
    40
1040
1.3
1070
    45
1040
0.5
1002
}
  0
LINE
  5
1BC60
330
18
100
AcDbEntity
  8
01
100
AcDbLine
 10
2339.173047705771
 20
-564.1869096459326
 30
0.0
 11
2339.173047705771
 21
-519.3367349124022
 31
0.0
1001
ACAD
1000
DSTYLE
1002
{
1070
    40
1040
1.3
1070
    45
1040
0.5
1002
}
  0
LINE
  5
1BC61
330
18
100
AcDbEntity
  8
01
100
AcDbLine
 10
2390.173047705771
 20
-600.0582269970902
 30
0.0
 11
2390.173047705771
 21
-519.3367349124022
 31
0.0
1001
ACAD
1000
DSTYLE
1002
{
1070
    40
1040
1.3
1070
    45
1040
0.5
1002
}
  0
LINE
  5
1BC62
330
18
100
AcDbEntity
  8
01
100
AcDbLine
 10
2341.773047705771
 20
-520.6367349124022
 30
0.0
 11
2387.573047705771
 21
-520.6367349124022
 31
0.0
1001
ACAD
1000
DSTYLE
1002
{
1070
    40
1040
1.3
1070
    45
1040
0.5
1002
}
  0
LINE
  5
1BC66
330
18
100
AcDbEntity
  8
01
100
AcDbLine
 10
2207.673164045516
 20
-570.0582269970906
 30
0.0
 11
2207.673164045516
 21
-519.3367349124024
 31
0.0
1001
ACAD
1000
DSTYLE
1002
{
1070
    40
1040
1.3
1070
    45
1040
0.5
1002
}
  0
LINE
  5
1BC67
330
18
100
AcDbEntity
  8
01
100
AcDbLine
 10
2232.673164045516
 20
-570.0582269970906
 30
0.0
 11
2232.673164045516
 21
-519.3367349124024
 31
0.0
1001
ACAD
1000
DSTYLE
1002
{
1070
    40
1040
1.3
1070
    45
1040
0.5
1002
}
  0
LINE
  5
1BC68
330
18
100
AcDbEntity
  8
01
100
AcDbLine
 10
2210.273164045516
 20
-520.6367349124024
 30
0.0
 11
2230.073164045516
 21
-520.6367349124024
 31
0.0
1001
ACAD
1000
DSTYLE
1002
{
1070
    40
1040
1.3
1070
    45
1040
0.5
1002
}
  0
LINE
  5
1BC6C
330
18
100
AcDbEntity
  8
01
100
AcDbLine
 10
2225.975103648752
 20
-572.0577818526743
 30
0.0
 11
2306.26123481696
 21
-572.0577818526743
 31
0.0
1001
ACAD
1000
DSTYLE
1002
{
1070
    40
1040
1.3
1070
    45
1040
0.5
1002
}
  0
LINE
  5
1BC6D
330
18
100
AcDbEntity
  8
01
100
AcDbLine
 10
2225.975103648752
 20
-686.0577818526743
 30
0.0
 11
2306.26123481696
 21
-686.0577818526743
 31
0.0
1001
ACAD
1000
DSTYLE
1002
{
1070
    40
1040
1.3
1070
    45
1040
0.5
1002
}
  0
LINE
  5
1BC6E
330
18
100
AcDbEntity
  8
01
100
AcDbLine
 10
2304.96123481696
 20
-574.6577818526744
 30
0.0
 11
2304.96123481696
 21
-683.4577818526743
 31
0.0
1001
ACAD
1000
DSTYLE
1002
{
1070
    40
1040
1.3
1070
    45
1040
0.5
1002
}
  0
LINE
  5
1BC72
330
18
100
AcDbEntity
  8
01
100
AcDbLine
 10
2226.573164045516
 20
-564.1582269970908
 30
0.0
 11
2315.625568983185
 21
-564.1582269970908
 31
0.0
1001
ACAD
1000
DSTYLE
1002
{
1070
    40
1040
1.3
1070
    45
1040
0.5
1002
}
  0
LINE
  5
1BC73
330
18
100
AcDbEntity
  8
01
100
AcDbLine
 10
2226.500078240846
 20
-693.9577818526742
 30
0.0
 11
2315.625568983185
 21
-693.9577818526742
 31
0.0
1001
ACAD
1000
DSTYLE
1002
{
1070
    40
1040
1.3
1070
    45
1040
0.5
1002
}
  0
LINE
  5
1BC74
330
18
100
AcDbEntity
  8
01
100
AcDbLine
 10
2314.325568983184
 20
-566.7582269970908
 30
0.0
 11
2314.325568983184
 21
-691.3577818526742
 31
0.0
1001
ACAD
1000
DSTYLE
1002
{
1070
    40
1040
1.3
1070
    45
1040
0.5
1002
}
  0
LINE
  5
1BC78
330
18
100
AcDbEntity
  8
01
100
AcDbLine
 10
2390.173047705771
 20
-625.0582269970902
 30
0.0
 11
2353.873047705771
 21
-625.0582269970902
 31
0.0
1001
ACAD
1000
DSTYLE
1002
{
1070
     3
1000
φ<>
1070
    40
1040
1.3
1070
    45
1040
0.5
1002
}
  0
LINE
  5
1BC79
330
18
100
AcDbEntity
  8
01
100
AcDbLine
 10
2390.173047705771
 20
-675.0582269970902
 30
0.0
 11
2353.873047705771
 21
-675.0582269970902
 31
0.0
1001
ACAD
1000
DSTYLE
1002
{
1070
     3
1000
φ<>
1070
    40
1040
1.3
1070
    45
1040
0.5
1002
}
  0
LINE
  5
1BC7A
330
18
100
AcDbEntity
  8
01
100
AcDbLine
 10
2355.173047705771
 20
-627.6582269970902
 30
0.0
 11
2355.173047705771
 21
-672.4582269970902
 31
0.0
1001
ACAD
1000
DSTYLE
1002
{
1070
     3
1000
φ<>
1070
    40
1040
1.3
1070
    45
1040
0.5
1002
}
  0
TEXT
  5
1BC7E
330
18
100
AcDbEntity
  8
01
  6
CONTINUOUS
100
AcDbText
 10
2268.43792491314
 20
-443.9783367377875
 30
0.0
 40
4.55
  1
材質：亜鉛ダイキャスト
100
AcDbText
  0
TEXT
  5
1BC7F
330
18
100
AcDbEntity
  8
01
  6
CONTINUOUS
100
AcDbText
 10
2278.751258246473
 20
-451.5616700711208
 30
0.0
 40
4.55
  1
仕上げ：各種メッキ
100
AcDbText
  0
TEXT
  5
1BC80
330
18
100
AcDbEntity
  8
01
  6
CONTINUOUS
100
AcDbText
 10
2441.985815384232
 20
-411.9216850332956
 30
0.0
 40
4.55
  1
材質：亜鉛ダイキャスト
100
AcDbText
  0
TEXT
  5
1BC81
330
18
100
AcDbEntity
  8
01
  6
CONTINUOUS
100
AcDbText
 10
2452.299148717565
 20
-419.5050183666289
 30
0.0
 40
4.55
  1
仕上げ：各種メッキ
100
AcDbText
  0
LINE
  5
1BC82
330
18
100
AcDbEntity
  8
01
  6
BYBLOCK
100
AcDbLine
 10
2330.773047705771
 20
-521.3334028064022
 30
0.0
 11
2328.173047705771
 21
-520.6367349124022
 31
0.0
  0
LINE
  5
1BC83
330
18
100
AcDbEntity
  8
01
  6
BYBLOCK
100
AcDbLine
 10
2328.173047705771
 20
-520.6367349124022
 30
0.0
 11
2330.773047705771
 21
-519.9400670184021
 31
0.0
  0
LINE
  5
1BC84
330
18
100
AcDbEntity
  8
01
  6
BYBLOCK
100
AcDbLine
 10
2328.173047705771
 20
-520.6367349124022
 30
0.0
 11
2330.773047705771
 21
-520.6367349124022
 31
0.0
  0
LINE
  5
1BC85
330
18
100
AcDbEntity
  8
01
  6
BYBLOCK
100
AcDbLine
 10
2336.573047705771
 20
-519.9400670184021
 30
0.0
 11
2339.173047705771
 21
-520.6367349124022
 31
0.0
  0
LINE
  5
1BC86
330
18
100
AcDbEntity
  8
01
  6
BYBLOCK
100
AcDbLine
 10
2339.173047705771
 20
-520.6367349124022
 30
0.0
 11
2336.573047705771
 21
-521.3334028064022
 31
0.0
  0
LINE
  5
1BC87
330
18
100
AcDbEntity
  8
01
  6
BYBLOCK
100
AcDbLine
 10
2339.173047705771
 20
-520.6367349124022
 30
0.0
 11
2336.573047705771
 21
-520.6367349124022
 31
0.0
  0
TEXT
  5
1BC88
330
18
100
AcDbEntity
  8
01
  6
CONTINUOUS
100
AcDbText
 10
2331.398047705771
 20
-519.7267349124022
 30
0.0
 40
4.55
  1
11
100
AcDbText
1001
ACAD
1000
DSTYLE
1002
{
1070
    40
1040
1.3
1070
    45
1040
0.5
1002
}
  0
LINE
  5
1BC89
330
18
100
AcDbEntity
  8
01
  6
BYBLOCK
100
AcDbLine
 10
2434.476379811771
 20
-594.6582269970902
 30
0.0
 11
2435.173047705771
 21
-592.0582269970902
 31
0.0
  0
LINE
  5
1BC8A
330
18
100
AcDbEntity
  8
01
  6
BYBLOCK
100
AcDbLine
 10
2435.173047705771
 20
-592.0582269970902
 30
0.0
 11
2435.869715599771
 21
-594.6582269970902
 31
0.0
  0
LINE
  5
1BC8B
330
18
100
AcDbEntity
  8
01
  6
BYBLOCK
100
AcDbLine
 10
2435.173047705771
 20
-592.0582269970902
 30
0.0
 11
2435.173047705771
 21
-594.6582269970902
 31
0.0
  0
LINE
  5
1BC8C
330
18
100
AcDbEntity
  8
01
  6
BYBLOCK
100
AcDbLine
 10
2435.869715599771
 20
-663.4582269970906
 30
0.0
 11
2435.173047705771
 21
-666.0582269970906
 31
0.0
  0
LINE
  5
1BC8D
330
18
100
AcDbEntity
  8
01
  6
BYBLOCK
100
AcDbLine
 10
2435.173047705771
 20
-666.0582269970906
 30
0.0
 11
2434.476379811771
 21
-663.4582269970906
 31
0.0
  0
LINE
  5
1BC8E
330
18
100
AcDbEntity
  8
01
  6
BYBLOCK
100
AcDbLine
 10
2435.173047705771
 20
-666.0582269970906
 30
0.0
 11
2435.173047705771
 21
-663.4582269970906
 31
0.0
  0
TEXT
  5
1BC8F
330
18
100
AcDbEntity
  8
01
  6
CONTINUOUS
100
AcDbText
 10
2434.263047705771
 20
-611.0868829110714
 30
0.0
 40
4.55
  1
74
 50
90.0
100
AcDbText
1001
ACAD
1000
DSTYLE
1002
{
1070
    40
1040
1.3
1070
    45
1040
0.5
1002
}
  0
LINE
  5
1BC90
330
18
100
AcDbEntity
  8
01
  6
BYBLOCK
100
AcDbLine
 10
2405.573047705771
 20
-509.860199550354
 30
0.0
 11
2408.173047705771
 21
-510.556867444354
 31
0.0
  0
LINE
  5
1BC91
330
18
100
AcDbEntity
  8
01
  6
BYBLOCK
100
AcDbLine
 10
2408.173047705771
 20
-510.556867444354
 30
0.0
 11
2405.573047705771
 21
-511.253535338354
 31
0.0
  0
LINE
  5
1BC92
330
18
100
AcDbEntity
  8
01
  6
BYBLOCK
100
AcDbLine
 10
2408.173047705771
 20
-510.556867444354
 30
0.0
 11
2405.573047705771
 21
-510.556867444354
 31
0.0
  0
LINE
  5
1BC93
330
18
100
AcDbEntity
  8
01
  6
BYBLOCK
100
AcDbLine
 10
2341.773047705771
 20
-511.253535338354
 30
0.0
 11
2339.173047705771
 21
-510.556867444354
 31
0.0
  0
LINE
  5
1BC94
330
18
100
AcDbEntity
  8
01
  6
BYBLOCK
100
AcDbLine
 10
2339.173047705771
 20
-510.556867444354
 30
0.0
 11
2341.773047705771
 21
-509.860199550354
 31
0.0
  0
LINE
  5
1BC95
330
18
100
AcDbEntity
  8
01
  6
BYBLOCK
100
AcDbLine
 10
2339.173047705771
 20
-510.556867444354
 30
0.0
 11
2341.773047705771
 21
-510.556867444354
 31
0.0
  0
TEXT
  5
1BC96
330
18
100
AcDbEntity
  8
01
  6
CONTINUOUS
100
AcDbText
 10
2369.864529187253
 20
-509.646867444354
 30
0.0
 40
4.55
  1
69
100
AcDbText
1001
ACAD
1000
DSTYLE
1002
{
1070
    40
1040
1.3
1070
    45
1040
0.5
1002
}
  0
LINE
  5
1BC97
330
18
100
AcDbEntity
  8
01
  6
BYBLOCK
100
AcDbLine
 10
2341.773047705771
 20
-521.3334028064022
 30
0.0
 11
2339.173047705771
 21
-520.6367349124022
 31
0.0
  0
LINE
  5
1BC98
330
18
100
AcDbEntity
  8
01
  6
BYBLOCK
100
AcDbLine
 10
2339.173047705771
 20
-520.6367349124022
 30
0.0
 11
2341.773047705771
 21
-519.9400670184021
 31
0.0
  0
LINE
  5
1BC99
330
18
100
AcDbEntity
  8
01
  6
BYBLOCK
100
AcDbLine
 10
2339.173047705771
 20
-520.6367349124022
 30
0.0
 11
2341.773047705771
 21
-520.6367349124022
 31
0.0
  0
LINE
  5
1BC9A
330
18
100
AcDbEntity
  8
01
  6
BYBLOCK
100
AcDbLine
 10
2387.573047705771
 20
-519.9400670184021
 30
0.0
 11
2390.173047705771
 21
-520.6367349124022
 31
0.0
  0
LINE
  5
1BC9B
330
18
100
AcDbEntity
  8
01
  6
BYBLOCK
100
AcDbLine
 10
2390.173047705771
 20
-520.6367349124022
 30
0.0
 11
2387.573047705771
 21
-521.3334028064022
 31
0.0
  0
LINE
  5
1BC9C
330
18
100
AcDbEntity
  8
01
  6
BYBLOCK
100
AcDbLine
 10
2390.173047705771
 20
-520.6367349124022
 30
0.0
 11
2387.573047705771
 21
-520.6367349124022
 31
0.0
  0
TEXT
  5
1BC9D
330
18
100
AcDbEntity
  8
01
  6
CONTINUOUS
100
AcDbText
 10
2361.623915761327
 20
-519.7267349124022
 30
0.0
 40
4.55
  1
51
100
AcDbText
1001
ACAD
1000
DSTYLE
1002
{
1070
    40
1040
1.3
1070
    45
1040
0.5
1002
}
  0
LINE
  5
1BC9E
330
18
100
AcDbEntity
  8
01
  6
BYBLOCK
100
AcDbLine
 10
2210.273164045516
 20
-521.3334028064024
 30
0.0
 11
2207.673164045516
 21
-520.6367349124024
 31
0.0
  0
LINE
  5
1BC9F
330
18
100
AcDbEntity
  8
01
  6
BYBLOCK
100
AcDbLine
 10
2207.673164045516
 20
-520.6367349124024
 30
0.0
 11
2210.273164045516
 21
-519.9400670184024
 31
0.0
  0
LINE
  5
1BCA0
330
18
100
AcDbEntity
  8
01
  6
BYBLOCK
100
AcDbLine
 10
2207.673164045516
 20
-520.6367349124024
 30
0.0
 11
2210.273164045516
 21
-520.6367349124024
 31
0.0
  0
LINE
  5
1BCA1
330
18
100
AcDbEntity
  8
01
  6
BYBLOCK
100
AcDbLine
 10
2230.073164045516
 20
-519.9400670184024
 30
0.0
 11
2232.673164045516
 21
-520.6367349124024
 31
0.0
  0
LINE
  5
1BCA2
330
18
100
AcDbEntity
  8
01
  6
BYBLOCK
100
AcDbLine
 10
2232.673164045516
 20
-520.6367349124024
 30
0.0
 11
2230.073164045516
 21
-521.3334028064024
 31
0.0
  0
LINE
  5
1BCA3
330
18
100
AcDbEntity
  8
01
  6
BYBLOCK
100
AcDbLine
 10
2232.673164045516
 20
-520.6367349124024
 30
0.0
 11
2230.073164045516
 21
-520.6367349124024
 31
0.0
  0
TEXT
  5
1BCA4
330
18
100
AcDbEntity
  8
01
  6
CONTINUOUS
100
AcDbText
 10
2216.381497378849
 20
-519.7267349124024
 30
0.0
 40
4.55
  1
25
100
AcDbText
1001
ACAD
1000
DSTYLE
1002
{
1070
    40
1040
1.3
1070
    45
1040
0.5
1002
}
  0
LINE
  5
1BCA5
330
18
100
AcDbEntity
  8
01
  6
BYBLOCK
100
AcDbLine
 10
2304.26456692296
 20
-574.6577818526744
 30
0.0
 11
2304.96123481696
 21
-572.0577818526743
 31
0.0
  0
LINE
  5
1BCA6
330
18
100
AcDbEntity
  8
01
  6
BYBLOCK
100
AcDbLine
 10
2304.96123481696
 20
-572.0577818526743
 30
0.0
 11
2305.65790271096
 21
-574.6577818526744
 31
0.0
  0
LINE
  5
1BCA7
330
18
100
AcDbEntity
  8
01
  6
BYBLOCK
100
AcDbLine
 10
2304.96123481696
 20
-572.0577818526743
 30
0.0
 11
2304.96123481696
 21
-574.6577818526744
 31
0.0
  0
LINE
  5
1BCA8
330
18
100
AcDbEntity
  8
01
  6
BYBLOCK
100
AcDbLine
 10
2305.65790271096
 20
-683.4577818526743
 30
0.0
 11
2304.96123481696
 21
-686.0577818526743
 31
0.0
  0
LINE
  5
1BCA9
330
18
100
AcDbEntity
  8
01
  6
BYBLOCK
100
AcDbLine
 10
2304.96123481696
 20
-686.0577818526743
 30
0.0
 11
2304.26456692296
 21
-683.4577818526743
 31
0.0
  0
LINE
  5
1BCAA
330
18
100
AcDbEntity
  8
01
  6
BYBLOCK
100
AcDbLine
 10
2304.96123481696
 20
-686.0577818526743
 30
0.0
 11
2304.96123481696
 21
-683.4577818526743
 31
0.0
  0
TEXT
  5
1BCAB
330
18
100
AcDbEntity
  8
01
  6
CONTINUOUS
100
AcDbText
 10
2304.05123481696
 20
-604.4747595047529
 30
0.0
 40
4.55
  1
114
 50
90.0
100
AcDbText
1001
ACAD
1000
DSTYLE
1002
{
1070
    40
1040
1.3
1070
    45
1040
0.5
1002
}
  0
LINE
  5
1BCAC
330
18
100
AcDbEntity
  8
01
  6
BYBLOCK
100
AcDbLine
 10
2313.628901089185
 20
-566.7582269970908
 30
0.0
 11
2314.325568983184
 21
-564.1582269970908
 31
0.0
  0
LINE
  5
1BCAD
330
18
100
AcDbEntity
  8
01
  6
BYBLOCK
100
AcDbLine
 10
2314.325568983184
 20
-564.1582269970908
 30
0.0
 11
2315.022236877184
 21
-566.7582269970908
 31
0.0
  0
LINE
  5
1BCAE
330
18
100
AcDbEntity
  8
01
  6
BYBLOCK
100
AcDbLine
 10
2314.325568983184
 20
-564.1582269970908
 30
0.0
 11
2314.325568983184
 21
-566.7582269970908
 31
0.0
  0
LINE
  5
1BCAF
330
18
100
AcDbEntity
  8
01
  6
BYBLOCK
100
AcDbLine
 10
2315.022236877184
 20
-691.3577818526742
 30
0.0
 11
2314.325568983184
 21
-693.9577818526742
 31
0.0
  0
LINE
  5
1BCB0
330
18
100
AcDbEntity
  8
01
  6
BYBLOCK
100
AcDbLine
 10
2314.325568983184
 20
-693.9577818526742
 30
0.0
 11
2313.628901089185
 21
-691.3577818526742
 31
0.0
  0
LINE
  5
1BCB1
330
18
100
AcDbEntity
  8
01
  6
BYBLOCK
100
AcDbLine
 10
2314.325568983184
 20
-693.9577818526742
 30
0.0
 11
2314.325568983184
 21
-691.3577818526742
 31
0.0
  0
TEXT
  5
1BCB2
330
18
100
AcDbEntity
  8
01
  6
CONTINUOUS
100
AcDbText
 10
2313.415568983184
 20
-605.2593235075606
 30
0.0
 40
4.55
  1
130
 50
90.0
100
AcDbText
1001
ACAD
1000
DSTYLE
1002
{
1070
    40
1040
1.3
1070
    45
1040
0.5
1002
}
  0
LINE
  5
1BCB3
330
18
100
AcDbEntity
  8
01
  6
BYBLOCK
100
AcDbLine
 10
2354.476379811771
 20
-627.6582269970902
 30
0.0
 11
2355.173047705771
 21
-625.0582269970902
 31
0.0
  0
LINE
  5
1BCB4
330
18
100
AcDbEntity
  8
01
  6
BYBLOCK
100
AcDbLine
 10
2355.173047705771
 20
-625.0582269970902
 30
0.0
 11
2355.869715599771
 21
-627.6582269970902
 31
0.0
  0
LINE
  5
1BCB5
330
18
100
AcDbEntity
  8
01
  6
BYBLOCK
100
AcDbLine
 10
2355.173047705771
 20
-625.0582269970902
 30
0.0
 11
2355.173047705771
 21
-627.6582269970902
 31
0.0
  0
LINE
  5
1BCB6
330
18
100
AcDbEntity
  8
01
  6
BYBLOCK
100
AcDbLine
 10
2355.869715599771
 20
-672.4582269970902
 30
0.0
 11
2355.173047705771
 21
-675.0582269970902
 31
0.0
  0
LINE
  5
1BCB7
330
18
100
AcDbEntity
  8
01
  6
BYBLOCK
100
AcDbLine
 10
2355.173047705771
 20
-675.0582269970902
 30
0.0
 11
2354.476379811771
 21
-672.4582269970902
 31
0.0
  0
LINE
  5
1BCB8
330
18
100
AcDbEntity
  8
01
  6
BYBLOCK
100
AcDbLine
 10
2355.173047705771
 20
-675.0582269970902
 30
0.0
 11
2355.173047705771
 21
-672.4582269970902
 31
0.0
  0
TEXT
  5
1BCB9
330
18
100
AcDbEntity
  8
01
  6
CONTINUOUS
100
AcDbText
 10
2354.263047705771
 20
-658.2577299036889
 30
0.0
 40
4.55
  1
φ50
 50
90.0
100
AcDbText
1001
ACAD
1000
DSTYLE
1002
{
1070
     3
1000
φ<>
1070
    40
1040
1.3
1070
    45
1040
0.5
1002
}
  0
SOLID
  5
1BCBA
330
18
100
AcDbEntity
  8
1DIM
100
AcDbTrace
 10
2362.258721466052
 20
-416.2296577275768
 30
0.0
 11
2364.853207065736
 21
-415.7644456782845
 31
0.0
 12
2362.549843514454
 22
-417.0459659194046
 32
0.0
 13
2362.549843514454
 23
-417.0459659194046
 33
0.0
1001
ACAD
1000
DSTYLE
1002
{
1070
    40
1040
1.3
1070
    45
1040
0.5
1002
}
  0
LINE
  5
1BCBB
330
18
100
AcDbEntity
  8
1DIM
100
AcDbLine
 10
2362.404282490253
 20
-416.6378118234907
 30
0.0
 11
2339.865766918693
 21
-424.6757794524096
 31
0.0
1001
ACAD
1000
DSTYLE
1002
{
1070
    40
1040
1.3
1070
    45
1040
0.5
1002
}
  0
LINE
  5
1BCBC
330
18
100
AcDbEntity
  8
1DIM
100
AcDbLine
 10
2406.573931887831
 20
-370.5582269981188
 30
0.0
 11
2427.134322647544
 21
-370.5582269981188
 31
0.0
1001
ACAD
1000
DSTYLE
1002
{
1070
    45
1040
0.5
1070
    40
1040
1.3
1002
}
  0
LINE
  5
1BCBD
330
18
100
AcDbEntity
  8
1DIM
100
AcDbLine
 10
2408.173931887831
 20
-389.3582269981188
 30
0.0
 11
2427.134322647544
 21
-389.3582269981188
 31
0.0
1001
ACAD
1000
DSTYLE
1002
{
1070
    45
1040
0.5
1070
    40
1040
1.3
1002
}
  0
LINE
  5
1BCBE
330
18
100
AcDbEntity
  8
1DIM
100
AcDbLine
 10
2425.834322647544
 20
-373.1582269981188
 30
0.0
 11
2425.834322647544
 21
-386.7582269981187
 31
0.0
1001
ACAD
1000
DSTYLE
1002
{
1070
    45
1040
0.5
1070
    40
1040
1.3
1002
}
  0
LINE
  5
1BCC2
330
18
100
AcDbEntity
  8
1DIM
100
AcDbLine
 10
2508.628153077016
 20
-661.3582256537467
 30
0.0
 11
2531.473906012656
 21
-661.3582256537467
 31
0.0
1001
ACAD
1000
DSTYLE
1002
{
1070
     3
1000
φ<>
1070
    45
1040
0.5
1070
    40
1040
1.3
1002
}
  0
LINE
  5
1BCC3
330
18
100
AcDbEntity
  8
1DIM
100
AcDbLine
 10
2508.628153077016
 20
-638.7582256537468
 30
0.0
 11
2531.473906012656
 21
-638.7582256537468
 31
0.0
1001
ACAD
1000
DSTYLE
1002
{
1070
     3
1000
φ<>
1070
    45
1040
0.5
1070
    40
1040
1.3
1002
}
  0
LINE
  5
1BCC4
330
18
100
AcDbEntity
  8
1DIM
100
AcDbLine
 10
2530.173906012656
 20
-658.7582256537466
 30
0.0
 11
2530.173906012656
 21
-641.3582256537468
 31
0.0
1001
ACAD
1000
DSTYLE
1002
{
1070
     3
1000
φ<>
1070
    45
1040
0.5
1070
    40
1040
1.3
1002
}
  0
LINE
  5
1BCC8
330
18
100
AcDbEntity
  8
1DIM
100
AcDbLine
 10
2390.173047705771
 20
-421.5595453101929
 30
0.0
 11
2390.173047705771
 21
-485.8579900187501
 31
0.0
1001
ACAD
1000
DSTYLE
1002
{
1070
    45
1040
0.5
1070
    40
1040
1.3
1002
}
  0
LINE
  5
1BCC9
330
18
100
AcDbEntity
  8
1DIM
100
AcDbLine
 10
2515.173047705771
 20
-449.7650802655188
 30
0.0
 11
2515.173047705771
 21
-485.8579900187501
 31
0.0
1001
ACAD
1000
DSTYLE
1002
{
1070
    45
1040
0.5
1070
    40
1040
1.3
1002
}
  0
LINE
  5
1BCCA
330
18
100
AcDbEntity
  8
1DIM
100
AcDbLine
 10
2392.773047705771
 20
-484.55799001875
 30
0.0
 11
2512.573047705771
 21
-484.55799001875
 31
0.0
1001
ACAD
1000
DSTYLE
1002
{
1070
    45
1040
0.5
1070
    40
1040
1.3
1002
}
  0
LINE
  5
1BCCE
330
18
100
AcDbEntity
  8
1DIM
100
AcDbLine
 10
2357.173047679694
 20
-458.8596682573549
 30
0.0
 11
2357.173047679694
 21
-495.8595453101929
 31
0.0
1001
ACAD
1000
DSTYLE
1002
{
1070
    45
1040
0.5
1070
    40
1040
1.3
1002
}
  0
LINE
  5
1BCCF
330
18
100
AcDbEntity
  8
1DIM
100
AcDbLine
 10
2515.173047705771
 20
-449.7650802655188
 30
0.0
 11
2515.173047705771
 21
-495.8595453101929
 31
0.0
1001
ACAD
1000
DSTYLE
1002
{
1070
    45
1040
0.5
1070
    40
1040
1.3
1002
}
  0
LINE
  5
1BCD0
330
18
100
AcDbEntity
  8
1DIM
100
AcDbLine
 10
2359.773047679694
 20
-494.5595453101929
 30
0.0
 11
2512.573047705771
 21
-494.5595453101929
 31
0.0
1001
ACAD
1000
DSTYLE
1002
{
1070
    45
1040
0.5
1070
    40
1040
1.3
1002
}
  0
LINE
  5
1BCD4
330
18
100
AcDbEntity
  8
1DIM
100
AcDbLine
 10
2508.628153077016
 20
-459.3596669400885
 30
0.0
 11
2541.473906012656
 21
-459.3596669400885
 31
0.0
1001
ACAD
1000
DSTYLE
1002
{
1070
    45
1040
0.5
1070
    40
1040
1.3
1002
}
  0
LINE
  5
1BCD5
330
18
100
AcDbEntity
  8
1DIM
100
AcDbLine
 10
2492.928195703119
 20
-400.0595453101929
 30
0.0
 11
2541.473906012656
 21
-400.0595453101929
 31
0.0
1001
ACAD
1000
DSTYLE
1002
{
1070
    45
1040
0.5
1070
    40
1040
1.3
1002
}
  0
LINE
  5
1BCD6
330
18
100
AcDbEntity
  8
1DIM
100
AcDbLine
 10
2540.173906012656
 20
-456.7596669400884
 30
0.0
 11
2540.173906012656
 21
-402.6595453101929
 31
0.0
1001
ACAD
1000
DSTYLE
1002
{
1070
    45
1040
0.5
1070
    40
1040
1.3
1002
}
  0
SOLID
  5
1BCDA
330
18
100
AcDbEntity
  8
1DIM
100
AcDbTrace
 10
2354.3614957469
 20
-443.900137696136
 30
0.0
 11
2356.975365060183
 21
-443.5603362969957
 31
0.0
 12
2354.612991839231
 22
-444.7295114518416
 32
0.0
 13
2354.612991839231
 23
-444.7295114518416
 33
0.0
1001
ACAD
1000
DSTYLE
1002
{
1070
    40
1040
1.3
1070
    45
1040
0.5
1002
}
  0
LINE
  5
1BCDB
330
18
100
AcDbEntity
  8
1DIM
100
AcDbLine
 10
2354.487243793066
 20
-444.3148245739888
 30
0.0
 11
2327.58792491314
 21
-452.4716700711209
 31
0.0
1001
ACAD
1000
DSTYLE
1002
{
1070
    40
1040
1.3
1070
    45
1040
0.5
1002
}
  0
SOLID
  5
1BCDC
330
18
100
AcDbEntity
  8
1DIM
100
AcDbTrace
 10
2507.231081663852
 20
-434.0352010148807
 30
0.0
 11
2507.823255531274
 21
-436.6036845925038
 31
0.0
 12
2506.43006936124
 22
-434.3660943544567
 32
0.0
 13
2506.43006936124
 23
-434.3660943544567
 33
0.0
1001
ACAD
1000
DSTYLE
1002
{
1070
    40
1040
1.3
1070
    45
1040
0.5
1002
}
  0
LINE
  5
1BCDD
330
18
100
AcDbEntity
  8
1DIM
100
AcDbLine
 10
2506.830575512546
 20
-434.2006476846686
 30
0.0
 11
2501.135815384231
 21
-420.415018366629
 31
0.0
1001
ACAD
1000
DSTYLE
1002
{
1070
    40
1040
1.3
1070
    45
1040
0.5
1002
}
  0
TEXT
  5
1BCDE
330
18
100
AcDbEntity
  8
1DIM
  6
CONTINUOUS
100
AcDbText
 10
2323.394164285718
 20
-477.5864313142037
 30
0.0
 40
4.55
  1
材質：牛革
100
AcDbText
1001
ACADANNOTATIVE
1000
AnnotativeData
1002
{
1070
     1
1070
     0
1002
}
  0
TEXT
  5
1BCDF
330
18
100
AcDbEntity
  8
1DIM
  6
CONTINUOUS
100
AcDbText
 10
2301.402497619051
 20
-485.169764647537
 30
0.0
 40
4.55
  1
仕上げ：各種仕上げ
100
AcDbText
1001
ACADANNOTATIVE
1000
AnnotativeData
1002
{
1070
     1
1070
     0
1002
}
  0
SOLID
  5
1BCE0
330
18
100
AcDbEntity
  8
1DIM
100
AcDbTrace
 10
2406.708237815332
 20
-459.9075538071421
 30
0.0000000000563712
 11
2409.239936709598
 21
-459.1738791608925
 31
0.0000000000563712
 12
2407.083034938129
 22
-460.6889872514311
 32
0.0000000000563712
 13
2407.083034938129
 23
-460.6889872514311
 33
0.0000000000563712
1001
ACAD
1000
DSTYLE
1002
{
1070
    40
1040
1.3
1070
    45
1040
0.5
1002
}
  0
LINE
  5
1BCE1
330
18
100
AcDbEntity
  8
1DIM
100
AcDbLine
 10
2406.895636376731
 20
-460.2982705292866
 30
0.0000000000540155
 11
2353.142497619051
 21
-486.079764647537
 31
0.0
1001
ACAD
1000
DSTYLE
1002
{
1070
    40
1040
1.3
1070
    45
1040
0.5
1002
}
  0
LINE
  5
1BCE2
330
18
100
AcDbEntity
  8
1DIM
100
AcDbLine
 10
2353.142497619051
 20
-486.079764647537
 30
0.0
 11
2301.554164285718
 21
-486.079764647537
 31
0.0
1001
ACAD
1000
DSTYLE
1002
{
1070
    40
1040
1.3
1070
    45
1040
0.5
1002
}
  0
LINE
  5
1BCE3
330
18
100
AcDbEntity
  8
1DIM
100
AcDbLine
 10
2508.628153077016
 20
-436.7596669400886
 30
0.0
 11
2531.473906012656
 21
-436.7596669400886
 31
0.0
1001
ACAD
1000
DSTYLE
1002
{
1070
   271
1070
     0
1070
    45
1040
0.5
1070
    40
1040
1.3
1002
}
  0
LINE
  5
1BCE4
330
18
100
AcDbEntity
  8
1DIM
100
AcDbLine
 10
2492.928195703119
 20
-400.0595453101929
 30
0.0
 11
2531.473906012656
 21
-400.0595453101929
 31
0.0
1001
ACAD
1000
DSTYLE
1002
{
1070
   271
1070
     0
1070
    45
1040
0.5
1070
    40
1040
1.3
1002
}
  0
LINE
  5
1BCE5
330
18
100
AcDbEntity
  8
1DIM
100
AcDbLine
 10
2530.173906012656
 20
-434.1596669400885
 30
0.0
 11
2530.173906012656
 21
-402.6595453101929
 31
0.0
1001
ACAD
1000
DSTYLE
1002
{
1070
   271
1070
     0
1070
    45
1040
0.5
1070
    40
1040
1.3
1002
}
  0
LINE
  5
1BCE9
330
18
100
AcDbEntity
  8
0
  6
BYBLOCK
100
AcDbLine
 10
2425.137654753544
 20
-373.1582269981188
 30
0.0
 11
2425.834322647544
 21
-370.5582269981188
 31
0.0
  0
LINE
  5
1BCEA
330
18
100
AcDbEntity
  8
0
  6
BYBLOCK
100
AcDbLine
 10
2425.834322647544
 20
-370.5582269981188
 30
0.0
 11
2426.530990541544
 21
-373.1582269981188
 31
0.0
  0
LINE
  5
1BCEB
330
18
100
AcDbEntity
  8
0
  6
BYBLOCK
100
AcDbLine
 10
2425.834322647544
 20
-370.5582269981188
 30
0.0
 11
2425.834322647544
 21
-373.1582269981188
 31
0.0
  0
LINE
  5
1BCEC
330
18
100
AcDbEntity
  8
0
  6
BYBLOCK
100
AcDbLine
 10
2426.530990541544
 20
-386.7582269981187
 30
0.0
 11
2425.834322647544
 21
-389.3582269981188
 31
0.0
  0
LINE
  5
1BCED
330
18
100
AcDbEntity
  8
0
  6
BYBLOCK
100
AcDbLine
 10
2425.834322647544
 20
-389.3582269981188
 30
0.0
 11
2425.137654753544
 21
-386.7582269981187
 31
0.0
  0
LINE
  5
1BCEE
330
18
100
AcDbEntity
  8
0
  6
BYBLOCK
100
AcDbLine
 10
2425.834322647544
 20
-389.3582269981188
 30
0.0
 11
2425.834322647544
 21
-386.7582269981187
 31
0.0
  0
TEXT
  5
1BCEF
330
18
100
AcDbEntity
  8
1DIM
  6
CONTINUOUS
100
AcDbText
 10
2424.924322647544
 20
-382.992613572193
 30
0.0
 40
4.55
  1
19
 50
90.0
100
AcDbText
1001
ACAD
1000
DSTYLE
1002
{
1070
    45
1040
0.5
1070
    40
1040
1.3
1002
}
  0
LINE
  5
1BCF0
330
18
100
AcDbEntity
  8
0
  6
BYBLOCK
100
AcDbLine
 10
2530.870573906656
 20
-658.7582256537466
 30
0.0
 11
2530.173906012656
 21
-661.3582256537467
 31
0.0
  0
LINE
  5
1BCF1
330
18
100
AcDbEntity
  8
0
  6
BYBLOCK
100
AcDbLine
 10
2530.173906012656
 20
-661.3582256537467
 30
0.0
 11
2529.477238118656
 21
-658.7582256537466
 31
0.0
  0
LINE
  5
1BCF2
330
18
100
AcDbEntity
  8
0
  6
BYBLOCK
100
AcDbLine
 10
2530.173906012656
 20
-661.3582256537467
 30
0.0
 11
2530.173906012656
 21
-658.7582256537466
 31
0.0
  0
LINE
  5
1BCF3
330
18
100
AcDbEntity
  8
0
  6
BYBLOCK
100
AcDbLine
 10
2529.477238118656
 20
-641.3582256537468
 30
0.0
 11
2530.173906012656
 21
-638.7582256537468
 31
0.0
  0
LINE
  5
1BCF4
330
18
100
AcDbEntity
  8
0
  6
BYBLOCK
100
AcDbLine
 10
2530.173906012656
 20
-638.7582256537468
 30
0.0
 11
2530.870573906656
 21
-641.3582256537468
 31
0.0
  0
LINE
  5
1BCF5
330
18
100
AcDbEntity
  8
0
  6
BYBLOCK
100
AcDbLine
 10
2530.173906012656
 20
-638.7582256537468
 30
0.0
 11
2530.173906012656
 21
-641.3582256537468
 31
0.0
  0
TEXT
  5
1BCF6
330
18
100
AcDbEntity
  8
1DIM
  6
CONTINUOUS
100
AcDbText
 10
2529.263906012656
 20
-660.2198923204132
 30
0.0
 40
4.55
  1
φ22.5
 50
90.0
100
AcDbText
1001
ACAD
1000
DSTYLE
1002
{
1070
     3
1000
φ<>
1070
    45
1040
0.5
1070
    40
1040
1.3
1002
}
  0
LINE
  5
1BCF7
330
18
100
AcDbEntity
  8
0
  6
BYBLOCK
100
AcDbLine
 10
2392.773047705771
 20
-485.25465791275
 30
0.0
 11
2390.173047705771
 21
-484.55799001875
 31
0.0
  0
LINE
  5
1BCF8
330
18
100
AcDbEntity
  8
0
  6
BYBLOCK
100
AcDbLine
 10
2390.173047705771
 20
-484.55799001875
 30
0.0
 11
2392.773047705771
 21
-483.8613221247501
 31
0.0
  0
LINE
  5
1BCF9
330
18
100
AcDbEntity
  8
0
  6
BYBLOCK
100
AcDbLine
 10
2390.173047705771
 20
-484.55799001875
 30
0.0
 11
2392.773047705771
 21
-484.55799001875
 31
0.0
  0
LINE
  5
1BCFA
330
18
100
AcDbEntity
  8
0
  6
BYBLOCK
100
AcDbLine
 10
2512.573047705771
 20
-483.8613221247501
 30
0.0
 11
2515.173047705771
 21
-484.55799001875
 31
0.0
  0
LINE
  5
1BCFB
330
18
100
AcDbEntity
  8
0
  6
BYBLOCK
100
AcDbLine
 10
2515.173047705771
 20
-484.55799001875
 30
0.0
 11
2512.573047705771
 21
-485.25465791275
 31
0.0
  0
LINE
  5
1BCFC
330
18
100
AcDbEntity
  8
0
  6
BYBLOCK
100
AcDbLine
 10
2515.173047705771
 20
-484.55799001875
 30
0.0
 11
2512.573047705771
 21
-484.55799001875
 31
0.0
  0
TEXT
  5
1BCFD
330
18
100
AcDbEntity
  8
1DIM
  6
CONTINUOUS
100
AcDbText
 10
2447.364714372438
 20
-483.6479900187501
 30
0.0
 40
4.55
  1
125
100
AcDbText
1001
ACAD
1000
DSTYLE
1002
{
1070
    45
1040
0.5
1070
    40
1040
1.3
1002
}
  0
LINE
  5
1BCFE
330
18
100
AcDbEntity
  8
0
  6
BYBLOCK
100
AcDbLine
 10
2359.773047679694
 20
-495.2562132041929
 30
0.0
 11
2357.173047679694
 21
-494.5595453101929
 31
0.0
  0
LINE
  5
1BCFF
330
18
100
AcDbEntity
  8
0
  6
BYBLOCK
100
AcDbLine
 10
2357.173047679694
 20
-494.5595453101929
 30
0.0
 11
2359.773047679694
 21
-493.8628774161929
 31
0.0
  0
LINE
  5
1BD00
330
18
100
AcDbEntity
  8
0
  6
BYBLOCK
100
AcDbLine
 10
2357.173047679694
 20
-494.5595453101929
 30
0.0
 11
2359.773047679694
 21
-494.5595453101929
 31
0.0
  0
LINE
  5
1BD01
330
18
100
AcDbEntity
  8
0
  6
BYBLOCK
100
AcDbLine
 10
2512.573047705771
 20
-493.8628774161929
 30
0.0
 11
2515.173047705771
 21
-494.5595453101929
 31
0.0
  0
LINE
  5
1BD02
330
18
100
AcDbEntity
  8
0
  6
BYBLOCK
100
AcDbLine
 10
2515.173047705771
 20
-494.5595453101929
 30
0.0
 11
2512.573047705771
 21
-495.2562132041929
 31
0.0
  0
LINE
  5
1BD03
330
18
100
AcDbEntity
  8
0
  6
BYBLOCK
100
AcDbLine
 10
2515.173047705771
 20
-494.5595453101929
 30
0.0
 11
2512.573047705771
 21
-494.5595453101929
 31
0.0
  0
TEXT
  5
1BD04
330
18
100
AcDbEntity
  8
1DIM
  6
CONTINUOUS
100
AcDbText
 10
2430.848915748288
 20
-493.6495453101929
 30
0.0
 40
4.55
  1
158
100
AcDbText
1001
ACAD
1000
DSTYLE
1002
{
1070
    45
1040
0.5
1070
    40
1040
1.3
1002
}
  0
LINE
  5
1BD05
330
18
100
AcDbEntity
  8
0
  6
BYBLOCK
100
AcDbLine
 10
2540.870573906656
 20
-456.7596669400884
 30
0.0
 11
2540.173906012656
 21
-459.3596669400885
 31
0.0
  0
LINE
  5
1BD06
330
18
100
AcDbEntity
  8
0
  6
BYBLOCK
100
AcDbLine
 10
2540.173906012656
 20
-459.3596669400885
 30
0.0
 11
2539.477238118656
 21
-456.7596669400884
 31
0.0
  0
LINE
  5
1BD07
330
18
100
AcDbEntity
  8
0
  6
BYBLOCK
100
AcDbLine
 10
2540.173906012656
 20
-459.3596669400885
 30
0.0
 11
2540.173906012656
 21
-456.7596669400884
 31
0.0
  0
LINE
  5
1BD08
330
18
100
AcDbEntity
  8
0
  6
BYBLOCK
100
AcDbLine
 10
2539.477238118656
 20
-402.6595453101929
 30
0.0
 11
2540.173906012656
 21
-400.0595453101929
 31
0.0
  0
LINE
  5
1BD09
330
18
100
AcDbEntity
  8
0
  6
BYBLOCK
100
AcDbLine
 10
2540.173906012656
 20
-400.0595453101929
 30
0.0
 11
2540.870573906656
 21
-402.6595453101929
 31
0.0
  0
LINE
  5
1BD0A
330
18
100
AcDbEntity
  8
0
  6
BYBLOCK
100
AcDbLine
 10
2540.173906012656
 20
-400.0595453101929
 30
0.0
 11
2540.173906012656
 21
-402.6595453101929
 31
0.0
  0
TEXT
  5
1BD0B
330
18
100
AcDbEntity
  8
1DIM
  6
CONTINUOUS
100
AcDbText
 10
2539.263906012656
 20
-436.5514579769924
 30
0.0
 40
4.55
  1
59.5
 50
90.0
100
AcDbText
1001
ACAD
1000
DSTYLE
1002
{
1070
    45
1040
0.5
1070
    40
1040
1.3
1002
}
  0
LINE
  5
1BD0C
330
18
100
AcDbEntity
  8
0
  6
BYBLOCK
100
AcDbLine
 10
2530.870573906656
 20
-434.1596669400885
 30
0.0
 11
2530.173906012656
 21
-436.7596669400886
 31
0.0
  0
LINE
  5
1BD0D
330
18
100
AcDbEntity
  8
0
  6
BYBLOCK
100
AcDbLine
 10
2530.173906012656
 20
-436.7596669400886
 30
0.0
 11
2529.477238118656
 21
-434.1596669400885
 31
0.0
  0
LINE
  5
1BD0E
330
18
100
AcDbEntity
  8
0
  6
BYBLOCK
100
AcDbLine
 10
2530.173906012656
 20
-436.7596669400886
 30
0.0
 11
2530.173906012656
 21
-434.1596669400885
 31
0.0
  0
LINE
  5
1BD0F
330
18
100
AcDbEntity
  8
0
  6
BYBLOCK
100
AcDbLine
 10
2529.477238118656
 20
-402.6595453101929
 30
0.0
 11
2530.173906012656
 21
-400.0595453101929
 31
0.0
  0
LINE
  5
1BD10
330
18
100
AcDbEntity
  8
0
  6
BYBLOCK
100
AcDbLine
 10
2530.173906012656
 20
-400.0595453101929
 30
0.0
 11
2530.870573906656
 21
-402.6595453101929
 31
0.0
  0
LINE
  5
1BD11
330
18
100
AcDbEntity
  8
0
  6
BYBLOCK
100
AcDbLine
 10
2530.173906012656
 20
-400.0595453101929
 30
0.0
 11
2530.173906012656
 21
-402.6595453101929
 31
0.0
  0
TEXT
  5
1BD12
330
18
100
AcDbEntity
  8
1DIM
  6
CONTINUOUS
100
AcDbText
 10
2529.263906012656
 20
-422.2012727918072
 30
0.0
 40
4.55
  1
37
 50
90.0
100
AcDbText
1001
ACAD
1000
DSTYLE
1002
{
1070
   271
1070
     0
1070
    45
1040
0.5
1070
    40
1040
1.3
1002
}
  0
VIEWPORT
  5
57
330
15
100
AcDbEntity
 67
     1
  8
0
100
AcDbViewport
 68
     1
 10
0.0
 20
0.0
 30
0.0
 40
551.8723404255319
 41
297.0
 68
     1
 69
     1
1001
ACAD
1000
MVIEW
1002
{
1070
    16
1010
0.0
1020
0.0
1030
0.0
1010
0.0
1020
0.0
1030
1.0
1040
0.0
1040
297.0
1040
-4.171999999925333
1040
12.83903210976956
1040
50.0
1040
0.0
1040
0.0
1070
    16
1070
   100
1070
     0
1070
     1
1070
     0
1070
     0
1070
     0
1070
     0
1040
0.0
1040
0.0
1040
0.0
1040
10.0
1040
10.0
1040
10.0
1040
10.0
1070
     0
1002
{
1002
}
1002
}
  0
ENDSEC
  0
SECTION
  2
OBJECTS
  0
DICTIONARY
  5
C
330
0
100
AcDbDictionary
  3
ACAD_COLOR
350
18D
  3
ACAD_GROUP
350
D
  3
ACAD_LAYOUT
350
18E
  3
ACAD_MATERIAL
350
18C
  3
ACAD_MLEADERSTYLE
350
D9E7
  3
ACAD_MLINESTYLE
350
1B
  3
ACAD_PLOTSETTINGS
350
18F
  3
ACAD_SCALELIST
350
D9C5
  3
ACAD_VISUALSTYLE
350
D9B4
  3
ACDBHEADERROUNDTRIPXREC
350
1BD13
  3
ACDBVARIABLEDICTIONARY
350
37
  3
CONTENTDICTIONARY
350
D8
  3
DRAWINGVARIABLESDICT
350
20
  3
DWGPROPS
350
1BD16
1001
ACAD
1000
TREAT_AS_HARD
1070
     0
  0
DICTIONARY
  5
E6A6
330
2
100
AcDbDictionary
  3
ACAD_LAYERSTATES
360
E6A7
1001
ACAD
1000
TREAT_AS_HARD
1070
     1
  0
DICTIONARY
  5
DA05
330
E
100
AcDbDictionary
  3
ADSK_XREC_LAYER_RECONCILED
360
DA06
1001
ACAD
1000
TREAT_AS_HARD
1070
     1
  0
DICTIONARY
  5
DA07
330
29
100
AcDbDictionary
  3
ADSK_XREC_LAYER_RECONCILED
360
DA08
1001
ACAD
1000
TREAT_AS_HARD
1070
     1
  0
DICTIONARY
  5
DA09
330
31
100
AcDbDictionary
  3
ADSK_XREC_LAYER_RECONCILED
360
DA0A
1001
ACAD
1000
TREAT_AS_HARD
1070
     1
  0
DICTIONARY
  5
DA0F
330
243
100
AcDbDictionary
  3
ADSK_XREC_LAYER_RECONCILED
360
DA10
1001
ACAD
1000
TREAT_AS_HARD
1070
     1
  0
DICTIONARY
  5
DA15
330
24E
100
AcDbDictionary
  3
ADSK_XREC_LAYER_RECONCILED
360
DA16
1001
ACAD
1000
TREAT_AS_HARD
1070
     1
  0
DICTIONARY
  5
88F
330
18
100
AcDbDictionary
  3
ACAD_SORTENTS
360
890
1001
ACAD
1000
TREAT_AS_HARD
1070
     1
  0
DICTIONARY
  5
18D
102
{ACAD_REACTORS
330
C
102
}
330
C
100
AcDbDictionary
1001
ACAD
1000
TREAT_AS_HARD
1070
     0
  0
DICTIONARY
  5
D
102
{ACAD_REACTORS
330
C
102
}
330
C
100
AcDbDictionary
1001
ACAD
1000
TREAT_AS_HARD
1070
     0
  0
DICTIONARY
  5
18E
102
{ACAD_REACTORS
330
C
102
}
330
C
100
AcDbDictionary
1001
ACAD
1000
TREAT_AS_HARD
1070
     0
  0
DICTIONARY
  5
18C
102
{ACAD_REACTORS
330
C
102
}
330
C
100
AcDbDictionary
  3
BYBLOCK
350
D9A4
  3
BYLAYER
350
D99C
  3
GLOBAL
350
D9AC
1001
ACAD
1000
TREAT_AS_HARD
1070
     0
  0
DICTIONARY
  5
D9E7
102
{ACAD_REACTORS
330
C
102
}
330
C
100
AcDbDictionary
  3
STANDARD
350
D9E8
1001
ACAD
1000
TREAT_AS_HARD
1070
     0
  0
DICTIONARY
  5
1B
102
{ACAD_REACTORS
330
C
102
}
330
C
100
AcDbDictionary
  3
STANDARD
350
1C
1001
ACAD
1000
TREAT_AS_HARD
1070
     0
  0
DICTIONARY
  5
18F
102
{ACAD_REACTORS
330
C
102
}
330
C
100
AcDbDictionary
1001
ACAD
1000
TREAT_AS_HARD
1070
     0
  0
DICTIONARY
  5
D9C5
102
{ACAD_REACTORS
330
C
102
}
330
C
100
AcDbDictionary
  3
A0
350
D9C6
  3
A1
350
D9C7
  3
A2
350
D9C8
  3
A3
350
D9C9
  3
A4
350
D9CA
  3
A5
350
D9CB
  3
A6
350
D9CC
  3
A7
350
D9CD
  3
A8
350
D9CE
  3
A9
350
D9CF
  3
B0
350
D9D0
  3
B1
350
D9D1
  3
B2
350
D9D2
  3
B3
350
D9D3
  3
B4
350
D9D4
  3
B5
350
D9D5
  3
B6
350
D9D6
  3
B7
350
D9D7
  3
B8
350
D9D8
  3
B9
350
D9D9
  3
C0
350
D9DA
  3
C1
350
D9DB
  3
C2
350
D9DC
  3
C3
350
D9DD
  3
C4
350
D9DE
  3
C5
350
D9DF
  3
C6
350
D9E0
  3
C7
350
D9E1
  3
C8
350
D9E2
  3
C9
350
D9E3
  3
D0
350
D9E4
  3
D1
350
D9E5
  3
D2
350
D9E6
1001
ACAD
1000
TREAT_AS_HARD
1070
     0
  0
DICTIONARY
  5
D9B4
102
{ACAD_REACTORS
330
C
102
}
330
C
100
AcDbDictionary
  3
2DWIREFRAME
350
D9BA
  3
3D_HIDDEN
350
D9BC
  3
3DWIREFRAME
350
D9BB
  3
BASIC
350
D9B9
  3
BRIGHTEN
350
D9C0
  3
COLORCHANGE
350
D9C4
  3
CONCEPTUAL
350
D9BD
  3
DIM
350
D9BF
  3
EDGECOLOROFF
350
19C2F
  3
FACEPATTERN
350
D9C3
  3
FLAT
350
D9B5
  3
FLATWITHEDGES
350
D9B6
  3
GOURAUD
350
D9B7
  3
GOURAUDWITHEDGES
350
D9B8
  3
HIDDEN
350
19C7E
  3
JITTEROFF
350
19C2D
  3
LINEPATTERN
350
D9C2
  3
MODELING
350
19C84
  3
OVERHANGOFF
350
19C2E
  3
REALISTIC
350
D9BE
  3
SHADED
350
19C83
  3
SHADED_WITH_EDGES
350
19C82
  3
SHADES_OF_GRAY
350
19C7F
  3
SKETCHY
350
19C80
  3
THICKEN
350
D9C1
  3
WIREFRAME
350
19C7D
  3
X-RAY
350
19C81
1001
ACAD
1000
TREAT_AS_HARD
1070
     0
  0
DICTIONARY
  5
1BD13
102
{ACAD_REACTORS
330
C
102
}
330
C
100
AcDbDictionary
  3
COLORDICT
350
1BD14
  3
MATERIALDICT
350
1BD15
1001
ACAD
1000
TREAT_AS_HARD
1070
     0
  0
DICTIONARY
  5
37
102
{ACAD_REACTORS
330
C
102
}
330
C
100
AcDbDictionary
  3
CANNOSCALE
350
1A68D
  3
CMLEADERSTYLE
350
DA6A
  3
CTABLESTYLE
350
29E
  3
DIMADEC
350
38
  3
DIMASSOC
350
1CE
  3
HIDETEXT
350
704E
  3
INDEXCTL
350
DA6D
  3
INTERSECTIONCOLOR
350
7052
  3
INTERSECTIONDISPLAY
350
7051
  3
MSLTSCALE
350
1A6DD
  3
OBSCOLOR
350
704F
  3
OBSLTYPE
350
7050
  3
PROJECTNAME
350
1CF
  3
SORTENTS
350
DA6C
  3
XCLIPFRAME
350
19C7C
1001
ACAD
1000
TREAT_AS_HARD
1070
     0
  0
DICTIONARY
  5
D8
102
{ACAD_REACTORS
330
C
102
}
330
C
100
AcDbDictionary
1001
ACAD
1000
TREAT_AS_HARD
1070
     0
  0
DICTIONARY
  5
20
102
{ACAD_REACTORS
330
C
102
}
330
C
100
AcDbDictionary
1001
DRAWINGVARIABLESXDATA
1000
POLARANG
1000
0.261799387799149410000000
1000
POLARMODE
1000
1
1000
POLARSTYLE
1000
1
1001
ACAD
1000
TREAT_AS_HARD
1070
     0
  0
XRECORD
  5
1BD16
102
{ACAD_REACTORS
330
C
102
}
330
C
100
AcDbXrecord
  1
DWGPROPS COOKIE
  2

  3

  4

  6

  7

  8
3684
  9

300
=
301
=
302
=
303
=
304
=
305
=
306
=
307
=
308
=
309
=
 40
0.0
 41
2451318.246352917
 42
2459198.061123114
  1

 90
        0
  0
DICTIONARY
  5
E6A7
102
{ACAD_REACTORS
330
E6A6
102
}
330
E6A6
100
AcDbDictionary
1001
ACAD
1000
TREAT_AS_HARD
1070
     0
  0
ACAD_PROXY_OBJECT
  5
DA06
102
{ACAD_REACTORS
330
DA05
102
}
330
DA05
100
AcDbZombieObject
 90
      499
 91
      514
 93
       34
310
40C8804040
  0
ACAD_PROXY_OBJECT
  5
DA08
102
{ACAD_REACTORS
330
DA07
102
}
330
DA07
100
AcDbZombieObject
 90
      499
 91
      514
 93
       34
310
40C8804040
  0
ACAD_PROXY_OBJECT
  5
DA0A
102
{ACAD_REACTORS
330
DA09
102
}
330
DA09
100
AcDbZombieObject
 90
      499
 91
      514
 93
       34
310
40C8804040
  0
ACAD_PROXY_OBJECT
  5
DA10
102
{ACAD_REACTORS
330
DA0F
102
}
330
DA0F
100
AcDbZombieObject
 90
      499
 91
      514
 93
       34
310
40C8804040
  0
ACAD_PROXY_OBJECT
  5
DA16
102
{ACAD_REACTORS
330
DA15
102
}
330
DA15
100
AcDbZombieObject
 90
      499
 91
      514
 93
       34
310
40C8804040
  0
SORTENTSTABLE
  5
890
102
{ACAD_REACTORS
330
88F
102
}
330
88F
100
AcDbSortentsTable
330
18
331
0
  5
1AC7E
331
1AC7D
  5
1AC97
331
1AC7E
  5
1AC98
331
1AC7F
  5
1AC99
331
1AC83
  5
1ACBB
331
1AC84
  5
1ACBC
331
1AC85
  5
1ACBD
331
1AC86
  5
1ACBE
331
1AC87
  5
1ACBF
331
1AC88
  5
1ACC0
331
1AC89
  5
1ACC1
331
1AC8A
  5
1ACC2
331
1AC8B
  5
1ACC3
331
1AC8C
  5
1ACC4
331
1AC8D
  5
1ACC5
331
1AC8E
  5
1ACC6
331
1AC8F
  5
1ACC7
331
1AC90
  5
1ACC8
331
1AC91
  5
1ACC9
331
1AC92
  5
1ACCA
331
1AC93
  5
1ACCB
331
1AC94
  5
1ACCC
331
1AC95
  5
1ACCD
331
1AC96
  5
1ACCE
331
1AC97
  5
1ACCF
331
1AC98
  5
1ACD0
331
1AC99
  5
1ACD1
331
1AC9A
  5
1ACD2
331
1AC9B
  5
1ACD3
331
1AC9C
  5
1ACD4
331
1AC9D
  5
1ACD5
331
1AC9E
  5
1ACD6
331
1AC9F
  5
1ACD7
331
1ACA0
  5
1ACD8
331
1ACA1
  5
1ACD9
331
1ACA2
  5
1ACDA
331
1ACA3
  5
1ACDB
331
1ACA4
  5
1ACDC
331
1ACA5
  5
1ACDD
331
1ACA6
  5
1ACDE
331
1ACA7
  5
1ACDF
331
1ACA8
  5
1ACE0
331
1ACA9
  5
1ACE1
331
1ACAA
  5
1ACE2
331
1ACAB
  5
1ACE3
331
1ACAC
  5
1ACE4
331
1ACAD
  5
1ACE5
331
1ACAE
  5
1ACE6
331
1ACAF
  5
1ACE7
331
1ACB0
  5
1ACE8
331
1ACB1
  5
1ACE9
331
1ACB2
  5
1ACEB
331
1ACB3
  5
1ACEC
331
1ACB4
  5
1ACED
331
1ACB5
  5
1ACEE
331
1ACB6
  5
1ACEF
331
1ACB7
  5
1ACF0
331
1ACB8
  5
1ACF1
331
1ACB9
  5
1ACF2
331
1ACBA
  5
1ACF3
331
1ACBB
  5
1ACF4
331
1ACBC
  5
1ACF5
331
1ACBD
  5
1ACF6
331
1ACBE
  5
1ACF7
331
1ACBF
  5
1ACF9
331
1ACC0
  5
1ACFA
331
0
  5
1ACF8
331
1ACC2
  5
1AD0B
331
1ACC3
  5
1AD0C
331
1ACC4
  5
1AD0D
331
1ACC5
  5
1AD0E
331
1ACC6
  5
1AD0F
331
1ACC7
  5
1AD10
331
1ACC8
  5
1AD11
331
1ACC9
  5
1AD12
331
1ACCA
  5
1AD13
331
1ACCB
  5
1AD14
331
1ACCC
  5
1AD15
331
1ACCD
  5
1AD16
331
1ACCE
  5
1AD17
331
1ACCF
  5
1AD18
331
1ACD0
  5
1AD19
331
1ACD1
  5
1AD1A
331
1ACD2
  5
1AD1B
331
1ACD3
  5
1AD1C
331
1ACD4
  5
1AD1D
331
1ACD5
  5
1AD1E
331
1ACD6
  5
1AD1F
331
1ACD7
  5
1AD20
331
1ACD8
  5
1AD21
331
1ACD9
  5
1AD22
331
1ACDA
  5
1AD23
331
1ACDB
  5
1AD24
331
1ACDC
  5
1AD25
331
1ACDD
  5
1AD28
331
1ACDE
  5
1AD3B
331
1ACDF
  5
1AD3C
331
1ACE0
  5
1AD3D
331
1ACE1
  5
1AD3E
331
1ACE2
  5
1AD41
331
1ACE3
  5
1AD42
331
1ACE4
  5
1AD94
331
1ACE5
  5
1ADAB
331
1ACE6
  5
1B218
331
1ACE7
  5
1B219
331
1ACE8
  5
1B21D
331
1ACE9
  5
1B21E
331
1ACEB
  5
1B229
331
1ACEC
  5
1B22A
331
1ACED
  5
1B22B
331
1ACEE
  5
1B22C
331
1ACEF
  5
1B22D
331
1ACF0
  5
1B22E
331
1ACF1
  5
1B22F
331
1ACF2
  5
1B230
331
1ACF3
  5
1B231
331
1ACF4
  5
1B232
331
1ACF5
  5
1B233
331
1ACF6
  5
1B234
331
1ACF7
  5
1B2C9
331
1ACF8
  5
1B2CA
331
1ACF9
  5
1B2CB
331
1ACFA
  5
1B2CF
331
1ACFB
  5
1B2D0
331
1ACFC
  5
1B2D1
331
1ACFD
  5
1B2D2
331
1ACFE
  5
1B2D3
331
1ACFF
  5
1B2D4
331
1AD00
  5
1B2D5
331
1AD01
  5
1B2D6
331
1AD02
  5
1B2D7
331
1AD03
  5
1B2DC
331
1AD04
  5
1B313
331
1AD05
  5
1B314
331
1AD06
  5
1B318
331
1AD07
  5
1B319
331
1AD08
  5
1B31A
331
1AD09
  5
1B31B
331
1AD0A
  5
1B31C
331
1AD0B
  5
1B31D
331
1AD0C
  5
1B31E
331
1AD0D
  5
1B31F
331
1AD0E
  5
1B320
331
1AD0F
  5
1B34B
331
1AD10
  5
1B34C
331
1AD11
  5
1B34D
331
1AD12
  5
1B34E
331
1AD13
  5
1B34F
331
1AD14
  5
1B350
331
1AD15
  5
1B351
331
1AD16
  5
1B352
331
1AD17
  5
1B353
331
1AD18
  5
1B356
331
1AD19
  5
1B357
331
1AD1A
  5
1B358
331
1AD1B
  5
1B35B
331
1AD1C
  5
1B35E
331
1AD1D
  5
1B361
331
1AD1E
  5
1B362
331
1AD1F
  5
1B363
331
1AD20
  5
1B364
331
1AD21
  5
1B365
331
1AD22
  5
1B366
331
1AD23
  5
1B367
331
1AD24
  5
1B368
331
1AD25
  5
1B369
331
1AD28
  5
1B428
331
1AD3B
  5
1B429
331
1AD3C
  5
1B42B
331
1AD3D
  5
1B42C
331
1AD3E
  5
1B42E
331
1AD41
  5
1B439
331
1AD42
  5
1B43A
331
1AD94
  5
1B43E
331
1ADAB
  5
1B43F
331
0
  5
1B42D
331
1B219
  5
1B5E5
331
1B21D
  5
1B5E6
331
1B21E
  5
1B5E7
331
1B21F
  5
1B5E8
331
1B220
  5
1B5E9
331
1B221
  5
1B5EA
331
1B222
  5
1B5EB
331
1B223
  5
1B5EC
331
1B224
  5
1B5EF
331
1B225
  5
1B5F0
331
1B226
  5
1B5F1
331
1B227
  5
1B5F4
331
1B228
  5
1B5F7
331
1B229
  5
1B5FA
331
1B22A
  5
1B5FB
331
1B22B
  5
1B5FC
331
1B22C
  5
1B5FD
331
1B22D
  5
1B5FE
331
1B22E
  5
1B5FF
331
1B22F
  5
1B600
331
1B230
  5
1B601
331
1B231
  5
1B602
331
1B232
  5
1B603
331
1B233
  5
1B604
331
1B234
  5
1B605
331
1B29C
  5
1B606
331
1B29D
  5
1B607
331
1B2C8
  5
1B608
331
1B2C9
  5
1B609
331
1B2CA
  5
1B60A
331
1B2CB
  5
1B60B
331
1B2CC
  5
1B60C
331
1B2CD
  5
1B60D
331
1B2CE
  5
1B60E
331
1B2CF
  5
1B60F
331
1B2D0
  5
1B612
331
1B2D1
  5
1B613
331
1B2D2
  5
1B614
331
1B2D3
  5
1B615
331
1B2D4
  5
1B616
331
1B2D5
  5
1B617
331
1B2D6
  5
1B618
331
1B2D7
  5
1B619
331
1B2DC
  5
1B61A
331
1B313
  5
1B61B
331
1B314
  5
1B61C
331
1B315
  5
1B61D
331
1B316
  5
1B61E
331
1B317
  5
1B61F
331
1B318
  5
1B620
331
1B319
  5
1B621
331
1B31A
  5
1B622
331
1B31B
  5
1B623
331
1B31C
  5
1B624
331
1B31D
  5
1B625
331
1B31E
  5
1B626
331
1B31F
  5
1B627
331
1B320
  5
1B628
331
1B34B
  5
1B629
331
1B34C
  5
1B62A
331
1B34D
  5
1B62C
331
1B34E
  5
1B62D
331
1B34F
  5
1B62E
331
1B350
  5
1B62F
331
1B351
  5
1B630
331
1B352
  5
1B631
331
1B353
  5
1B632
331
1B356
  5
1B633
331
1B357
  5
1B634
331
1B358
  5
1B635
331
1B35B
  5
1B636
331
1B35E
  5
1B63C
331
1B361
  5
1B672
331
1B362
  5
1B676
331
1B363
  5
1B677
331
1B364
  5
1B678
331
1B365
  5
1B679
331
1B366
  5
1B67A
331
1B367
  5
1B67B
331
1B368
  5
1B67C
331
1B369
  5
1B67D
331
1B36A
  5
1B67E
331
1B36B
  5
1B67F
331
1B36C
  5
1B687
331
1B36D
  5
1B689
331
1B36E
  5
1B68A
331
1B36F
  5
1B68B
331
1B370
  5
1B68C
331
1B371
  5
1B68D
331
1B372
  5
1B68E
331
1B373
  5
1B843
331
1B374
  5
1B844
331
1B375
  5
1B845
331
1B376
  5
1B84B
331
1B382
  5
1B84C
331
1B383
  5
1B84E
331
1B392
  5
1B854
331
1B393
  5
1B855
331
1B394
  5
1B85E
331
1B395
  5
1B85F
331
1B427
  5
1B860
331
0
  5
1B673
331
0
  5
1B674
331
0
  5
1B675
331
1B42C
  5
1BC65
331
1B42D
  5
1BC66
331
1B42E
  5
1BC67
331
1B439
  5
1BC68
331
1B43A
  5
1BC69
331
1B43E
  5
1BC6A
331
1B43F
  5
1BC6B
331
1B441
  5
1BC6C
331
1B442
  5
1BC6D
331
1B444
  5
1BC6E
331
1B445
  5
1BC6F
331
1B4CA
  5
1BC70
331
1B4CB
  5
1BC71
331
1B4CC
  5
1BC72
331
1B4D7
  5
1BC73
331
1B4D8
  5
1BC74
331
1B4DC
  5
1BC75
331
1B4DD
  5
1BC76
331
1B4DF
  5
1BC77
331
1B4E0
  5
1BC78
331
1B4E2
  5
1BC79
331
1B4E3
  5
1BC7A
331
1B5AE
  5
1BC7B
331
1B5AF
  5
1BC7C
331
1B5DA
  5
1BC7D
331
1B5DB
  5
1BC7E
331
1B5DC
  5
1BC7F
331
1B5DD
  5
1BC80
331
1B5DE
  5
1BC81
331
1B5E4
  5
1BC82
331
1B5E5
  5
1BC83
331
1B5E6
  5
1BC84
331
1B5E7
  5
1BC85
331
1B5E8
  5
1BC86
331
1B5E9
  5
1BC87
331
1B5EA
  5
1BC88
331
1B5EB
  5
1BC89
331
1B5EC
  5
1BC8A
331
1B5EF
  5
1BC8B
331
1B5F0
  5
1BC8C
331
1B5F1
  5
1BC8D
331
1B5F4
  5
1BC8E
331
1B5F7
  5
1BC8F
331
1B5FA
  5
1BC90
331
1B5FB
  5
1BC91
331
1B5FC
  5
1BC92
331
1B5FD
  5
1BC93
331
1B5FE
  5
1BC94
331
1B5FF
  5
1BC95
331
1B600
  5
1BC96
331
1B601
  5
1BC97
331
1B602
  5
1BC99
331
1B603
  5
1BC9A
331
1B604
  5
1BC9C
331
1B605
  5
1BC9D
331
1B606
  5
1BC9E
331
1B607
  5
1BC9F
331
1B608
  5
1BCA0
331
1B609
  5
1BCA1
331
1B60A
  5
1BCA4
331
1B60B
  5
1BCA5
331
1B60C
  5
1BCA6
331
1B60D
  5
1BCA7
331
1B60E
  5
1BCA8
331
1B60F
  5
1BCA9
331
1B612
  5
1BCAA
331
1B613
  5
1BCAB
331
1B614
  5
1BCAC
331
1B615
  5
1BCAD
331
1B616
  5
1BCAE
331
1B617
  5
1BCAF
331
1B618
  5
1BCB0
331
1B619
  5
1BCB1
331
1B61A
  5
1BCB2
331
1B61B
  5
1BCB3
331
1B61C
  5
1BCB4
331
1B61D
  5
1BCB5
331
1B61E
  5
1BCB6
331
1B61F
  5
1BCB7
331
1B620
  5
1BCB8
331
1B621
  5
1BCBA
331
1B622
  5
1BCBB
331
1B623
  5
1BCBC
331
1B624
  5
1BCBD
331
1B625
  5
1BCBE
331
1B626
  5
1BCBF
331
1B627
  5
1BCC0
331
1B628
  5
1BCC1
331
1B629
  5
1BCC2
331
1B62A
  5
1BCC3
331
1B62C
  5
1BCC4
331
1B62D
  5
1BCC5
331
1B62E
  5
1BCC6
331
1B62F
  5
1BCC7
331
1B630
  5
1BCC8
331
1B631
  5
1BCC9
331
1B632
  5
1BCCA
331
1B633
  5
1BCCB
331
1B634
  5
1BCCC
331
1B635
  5
1BCCD
331
1B636
  5
1BCCE
331
1B63C
  5
1BCCF
331
1B672
  5
1BCD0
331
1B673
  5
1BCD1
331
1B674
  5
1BCD2
331
1B675
  5
1BCD3
331
1B676
  5
1BCD4
331
1B677
  5
1BCD5
331
1B678
  5
1BCD6
331
1B679
  5
1BCD7
331
1B67A
  5
1BCD8
331
1B67B
  5
1BCD9
331
1B67C
  5
1BCDA
331
1B67D
  5
1BCDB
331
1B67E
  5
1BCDC
331
1B67F
  5
1BCDD
331
0
  5
1BC98
331
0
  5
1BC9B
331
1B68A
  5
1BCE9
331
1B68B
  5
1BCEA
331
1B68C
  5
1BCEB
331
1B68D
  5
1BCEC
331
1B68E
  5
1BCED
331
1B68F
  5
1BCEE
331
0
  5
1BCA2
331
0
  5
1BCA3
331
1B843
  5
1BCF4
331
1B844
  5
1BCF5
331
1B845
  5
1BCF6
331
1B846
  5
1BCF7
331
1B849
  5
1BCF8
331
1B84A
  5
1BCF9
331
1B84B
  5
1BCFA
331
1B84C
  5
1BCFB
331
1B84E
  5
1BCFC
331
1B84F
  5
1BCFD
331
1B851
  5
1BCFE
331
1B853
  5
1BCFF
331
1B854
  5
1BD00
331
1B855
  5
1BD01
331
1B85E
  5
1BD02
331
1B85F
  5
1BD03
331
1B860
  5
1BD04
331
1B861
  5
1BD05
331
1B866
  5
1BD06
331
1B895
  5
1BD07
331
1B89B
  5
1BD08
331
0
  5
1BCB9
331
1BC4C
  5
1AC7B
331
1BC4D
  5
1AC7D
331
1BC4E
  5
1AC84
331
1BC4F
  5
1AC88
331
1BC50
  5
1AC89
331
0
  5
1AC85
331
0
  5
1AC86
331
0
  5
1AC87
331
1BC54
  5
1AC9D
331
1BC55
  5
1AC9E
331
1BC56
  5
1AC9F
331
0
  5
1AC8E
331
0
  5
1AC8F
331
0
  5
1AC90
331
1BC5A
  5
1ACA7
331
1BC5B
  5
1ACA8
331
1BC5C
  5
1ACA9
331
0
  5
1AC94
331
0
  5
1AC95
331
0
  5
1AC96
331
1BC60
  5
1ACB1
331
1BC61
  5
1ACB2
331
1BC62
  5
1ACB3
331
0
  5
1AC9A
331
0
  5
1AC9B
331
0
  5
1AC9C
331
1BC66
  5
1B21F
331
1BC67
  5
1B220
331
1BC68
  5
1B221
331
0
  5
1AD08
331
0
  5
1AD09
331
0
  5
1AD0A
331
1BC6C
  5
1B36A
331
1BC6D
  5
1B36B
331
1BC6E
  5
1B36C
331
0
  5
1B29C
331
0
  5
1B29D
331
0
  5
1B2C8
331
1BC72
  5
1B374
331
1BC73
  5
1B375
331
1BC74
  5
1B376
331
0
  5
1B2CC
331
0
  5
1B2CD
331
0
  5
1B2CE
331
1BC78
  5
1B441
331
1BC79
  5
1B442
331
1BC7A
  5
1B444
331
0
  5
1B315
331
0
  5
1B316
331
0
  5
1B317
331
1BC7E
  5
1BCDE
331
1BC7F
  5
1BCDF
331
1BC80
  5
1BCE2
331
1BC81
  5
1BCE3
331
1BC82
  5
1AC8A
331
1BC83
  5
1AC8B
331
1BC84
  5
1AC8C
331
1BC85
  5
1AC8D
331
1BC86
  5
1AC91
331
1BC87
  5
1AC92
331
1BC88
  5
1AC93
331
1BC89
  5
1ACA0
331
1BC8A
  5
1ACA1
331
1BC8B
  5
1ACA2
331
1BC8C
  5
1ACA3
331
1BC8D
  5
1ACA4
331
1BC8E
  5
1ACA5
331
1BC8F
  5
1ACA6
331
1BC90
  5
1ACAA
331
1BC91
  5
1ACAB
331
1BC92
  5
1ACAC
331
1BC93
  5
1ACAD
331
1BC94
  5
1ACAE
331
1BC95
  5
1ACAF
331
1BC96
  5
1ACB0
331
1BC97
  5
1ACB4
331
1BC98
  5
1ACB5
331
1BC99
  5
1ACB6
331
1BC9A
  5
1ACB7
331
1BC9B
  5
1ACB8
331
1BC9C
  5
1ACB9
331
1BC9D
  5
1ACBA
331
1BC9E
  5
1B222
331
1BC9F
  5
1B223
331
1BCA0
  5
1B224
331
1BCA1
  5
1B225
331
1BCA2
  5
1B226
331
1BCA3
  5
1B227
331
1BCA4
  5
1B228
331
1BCA5
  5
1B36D
331
1BCA6
  5
1B36E
331
1BCA7
  5
1B36F
331
1BCA8
  5
1B370
331
1BCA9
  5
1B371
331
1BCAA
  5
1B372
331
1BCAB
  5
1B373
331
1BCAC
  5
1B382
331
1BCAD
  5
1B383
331
1BCAE
  5
1B392
331
1BCAF
  5
1B393
331
1BCB0
  5
1B394
331
1BCB1
  5
1B395
331
1BCB2
  5
1B427
331
1BCB3
  5
1B445
331
1BCB4
  5
1B4CA
331
1BCB5
  5
1B4CB
331
1BCB6
  5
1B4DC
331
1BCB7
  5
1B4DD
331
1BCB8
  5
1B4DF
331
1BCB9
  5
1B4E0
331
1BCBA
  5
1AC7F
331
1BCBB
  5
1AC83
331
1BCBC
  5
1ACFB
331
1BCBD
  5
1ACFC
331
1BCBE
  5
1ACFD
331
0
  5
1ACFE
331
0
  5
1ACFF
331
0
  5
1AD00
331
1BCC2
  5
1B4E2
331
1BCC3
  5
1B4E3
331
1BCC4
  5
1B5AE
331
0
  5
1B4CC
331
0
  5
1B4D7
331
0
  5
1B4D8
331
1BCC8
  5
1B861
331
1BCC9
  5
1B866
331
1BCCA
  5
1B895
331
0
  5
1B68F
331
0
  5
1B7DC
331
0
  5
1B7E0
331
1BCCE
  5
1BC51
331
1BCCF
  5
1BC52
331
1BCD0
  5
1BC53
331
0
  5
1B846
331
0
  5
1B849
331
0
  5
1B84A
331
1BCD4
  5
1BC5B
331
1BCD5
  5
1BC5C
331
1BCD6
  5
1BC5D
331
0
  5
1B84F
331
0
  5
1B851
331
0
  5
1B853
331
1BCDA
  5
1BCE0
331
1BCDB
  5
1BCE1
331
1BCDC
  5
1BCE4
331
1BCDD
  5
1BCE5
331
1BCDE
  5
1BCEF
331
1BCDF
  5
1BCF0
331
1BCE0
  5
1BCF1
331
1BCE1
  5
1BCF2
331
1BCE2
  5
1BCF3
331
1BCE3
  5
1BD09
331
1BCE4
  5
1BD0A
331
1BCE5
  5
1BD0B
331
1BCE9
  5
1AD01
331
1BCEA
  5
1AD02
331
1BCEB
  5
1AD03
331
1BCEC
  5
1AD04
331
1BCED
  5
1AD05
331
1BCEE
  5
1AD06
331
1BCEF
  5
1AD07
331
1BCF0
  5
1B5AF
331
1BCF1
  5
1B5DA
331
1BCF2
  5
1B5DB
331
1BCF3
  5
1B5DC
331
1BCF4
  5
1B5DD
331
1BCF5
  5
1B5DE
331
1BCF6
  5
1B5E4
331
1BCF7
  5
1B89B
331
1BCF8
  5
1BB2D
331
1BCF9
  5
1BC4C
331
1BCFA
  5
1BC4D
331
1BCFB
  5
1BC4E
331
1BCFC
  5
1BC4F
331
1BCFD
  5
1BC50
331
1BCFE
  5
1BC54
331
1BCFF
  5
1BC55
331
1BD00
  5
1BC56
331
1BD01
  5
1BC57
331
1BD02
  5
1BC58
331
1BD03
  5
1BC59
331
1BD04
  5
1BC5A
331
1BD05
  5
1BC5E
331
1BD06
  5
1BC5F
331
1BD07
  5
1BC60
331
1BD08
  5
1BC61
331
1BD09
  5
1BC62
331
1BD0A
  5
1BC63
331
1BD0B
  5
1BC64
  0
MATERIAL
  5
D9A4
102
{ACAD_REACTORS
330
18C
102
}
102
{ACAD_XDICTIONARY
360
1BEB1
102
}
330
18C
100
AcDbMaterial
  1
BYBLOCK
 72
     0
 73
     2
 43
0.0208333333333333
 43
0.0
 43
0.0
 43
0.0
 43
0.0
 43
0.0208333333333333
 43
0.0
 43
0.0
 43
0.0
 43
0.0
 43
1.0
 43
0.0
 43
0.0
 43
0.0
 43
0.0
 43
1.0
 77
     0
 78
     2
 47
0.0208333333333333
 47
0.0
 47
0.0
 47
0.0
 47
0.0
 47
0.0208333333333333
 47
0.0
 47
0.0
 47
0.0
 47
0.0
 47
1.0
 47
0.0
 47
0.0
 47
0.0
 47
0.0
 47
1.0
171
     0
172
     2
 49
0.0208333333333333
 49
0.0
 49
0.0
 49
0.0
 49
0.0
 49
0.0208333333333333
 49
0.0
 49
0.0
 49
0.0
 49
0.0
 49
1.0
 49
0.0
 49
0.0
 49
0.0
 49
0.0
 49
1.0
175
     0
176
     2
142
0.0208333333333333
142
0.0
142
0.0
142
0.0
142
0.0
142
0.0208333333333333
142
0.0
142
0.0
142
0.0
142
0.0
142
1.0
142
0.0
142
0.0
142
0.0
142
0.0
142
1.0
179
     0
270
     2
144
0.0208333333333333
144
0.0
144
0.0
144
0.0
144
0.0
144
0.0208333333333333
144
0.0
144
0.0
144
0.0
144
0.0
144
1.0
144
0.0
144
0.0
144
0.0
144
0.0
144
1.0
274
     2
147
0.0208333333333333
147
0.0
147
0.0
147
0.0
147
0.0
147
0.0208333333333333
147
0.0
147
0.0
147
0.0
147
0.0
147
1.0
147
0.0
147
0.0
147
0.0
147
0.0
147
1.0
  0
MATERIAL
  5
D99C
102
{ACAD_REACTORS
330
18C
102
}
102
{ACAD_XDICTIONARY
360
1BEB3
102
}
330
18C
100
AcDbMaterial
  1
BYLAYER
 72
     0
 73
     2
 43
0.0208333333333333
 43
0.0
 43
0.0
 43
0.0
 43
0.0
 43
0.0208333333333333
 43
0.0
 43
0.0
 43
0.0
 43
0.0
 43
1.0
 43
0.0
 43
0.0
 43
0.0
 43
0.0
 43
1.0
 77
     0
 78
     2
 47
0.0208333333333333
 47
0.0
 47
0.0
 47
0.0
 47
0.0
 47
0.0208333333333333
 47
0.0
 47
0.0
 47
0.0
 47
0.0
 47
1.0
 47
0.0
 47
0.0
 47
0.0
 47
0.0
 47
1.0
171
     0
172
     2
 49
0.0208333333333333
 49
0.0
 49
0.0
 49
0.0
 49
0.0
 49
0.0208333333333333
 49
0.0
 49
0.0
 49
0.0
 49
0.0
 49
1.0
 49
0.0
 49
0.0
 49
0.0
 49
0.0
 49
1.0
175
     0
176
     2
142
0.0208333333333333
142
0.0
142
0.0
142
0.0
142
0.0
142
0.0208333333333333
142
0.0
142
0.0
142
0.0
142
0.0
142
1.0
142
0.0
142
0.0
142
0.0
142
0.0
142
1.0
179
     0
270
     2
144
0.0208333333333333
144
0.0
144
0.0
144
0.0
144
0.0
144
0.0208333333333333
144
0.0
144
0.0
144
0.0
144
0.0
144
1.0
144
0.0
144
0.0
144
0.0
144
0.0
144
1.0
274
     2
147
0.0208333333333333
147
0.0
147
0.0
147
0.0
147
0.0
147
0.0208333333333333
147
0.0
147
0.0
147
0.0
147
0.0
147
1.0
147
0.0
147
0.0
147
0.0
147
0.0
147
1.0
  0
MATERIAL
  5
D9AC
102
{ACAD_REACTORS
330
18C
102
}
102
{ACAD_XDICTIONARY
360
1BEB5
102
}
330
18C
100
AcDbMaterial
  1
GLOBAL
 72
     0
 73
     2
 43
0.0208333333333333
 43
0.0
 43
0.0
 43
0.0
 43
0.0
 43
0.0208333333333333
 43
0.0
 43
0.0
 43
0.0
 43
0.0
 43
1.0
 43
0.0
 43
0.0
 43
0.0
 43
0.0
 43
1.0
 77
     0
 78
     2
 47
0.0208333333333333
 47
0.0
 47
0.0
 47
0.0
 47
0.0
 47
0.0208333333333333
 47
0.0
 47
0.0
 47
0.0
 47
0.0
 47
1.0
 47
0.0
 47
0.0
 47
0.0
 47
0.0
 47
1.0
171
     0
172
     2
 49
0.0208333333333333
 49
0.0
 49
0.0
 49
0.0
 49
0.0
 49
0.0208333333333333
 49
0.0
 49
0.0
 49
0.0
 49
0.0
 49
1.0
 49
0.0
 49
0.0
 49
0.0
 49
0.0
 49
1.0
175
     0
176
     2
142
0.0208333333333333
142
0.0
142
0.0
142
0.0
142
0.0
142
0.0208333333333333
142
0.0
142
0.0
142
0.0
142
0.0
142
1.0
142
0.0
142
0.0
142
0.0
142
0.0
142
1.0
179
     0
270
     2
144
0.0208333333333333
144
0.0
144
0.0
144
0.0
144
0.0
144
0.0208333333333333
144
0.0
144
0.0
144
0.0
144
0.0
144
1.0
144
0.0
144
0.0
144
0.0
144
0.0
144
1.0
274
     2
147
0.0208333333333333
147
0.0
147
0.0
147
0.0
147
0.0
147
0.0208333333333333
147
0.0
147
0.0
147
0.0
147
0.0
147
1.0
147
0.0
147
0.0
147
0.0
147
0.0
147
1.0
  0
ACAD_PROXY_OBJECT
  5
D9E8
102
{ACAD_REACTORS
330
D9E7
102
}
330
D9E7
100
AcDbZombieObject
 90
      499
 91
      511
 93
      610
310
40901902A4063FBFFFFFE000000000000002040AD7A3703D0AD73F4214DD185B99185C990000000000000104090141901A00000000000004100000000000000041025764000000000000300FC0
340
12
340
0
340
F
340
0
 94
        0
1001
ACAD_MLEADERVER
1070
     2
  0
MLINESTYLE
  5
1C
102
{ACAD_REACTORS
330
1B
102
}
330
1B
100
AcDbMlineStyle
  2
STANDARD
 70
     0
  3

 62
   256
 51
90.0
 52
90.0
 71
     2
 49
0.5
 62
   256
  6
BYLAYER
 49
-0.5
 62
   256
  6
BYLAYER
  0
ACAD_PROXY_OBJECT
  5
D9C6
102
{ACAD_REACTORS
330
D9C5
102
}
330
D9C5
100
AcDbZombieObject
 90
      499
 91
      510
 93
       41
310
903313A31580
  0
ACAD_PROXY_OBJECT
  5
D9C7
102
{ACAD_REACTORS
330
D9C5
102
}
330
D9C5
100
AcDbZombieObject
 90
      499
 91
      510
 93
      105
310
903313A324000000000000004000
  0
ACAD_PROXY_OBJECT
  5
D9C8
102
{ACAD_REACTORS
330
D9C5
102
}
330
D9C5
100
AcDbZombieObject
 90
      499
 91
      510
 93
      105
310
903313A344000000000000104000
  0
ACAD_PROXY_OBJECT
  5
D9C9
102
{ACAD_REACTORS
330
D9C5
102
}
330
D9C5
100
AcDbZombieObject
 90
      499
 91
      510
 93
      105
310
903313A354000000000000144000
  0
ACAD_PROXY_OBJECT
  5
D9CA
102
{ACAD_REACTORS
330
D9C5
102
}
330
D9C5
100
AcDbZombieObject
 90
      499
 91
      510
 93
      105
310
903313A384000000000000204000
  0
ACAD_PROXY_OBJECT
  5
D9CB
102
{ACAD_REACTORS
330
D9C5
102
}
330
D9C5
100
AcDbZombieObject
 90
      499
 91
      510
 93
      113
310
904313A31304000000000000244000
  0
ACAD_PROXY_OBJECT
  5
D9CC
102
{ACAD_REACTORS
330
D9C5
102
}
330
D9C5
100
AcDbZombieObject
 90
      499
 91
      510
 93
      113
310
904313A31364000000000000304000
  0
ACAD_PROXY_OBJECT
  5
D9CD
102
{ACAD_REACTORS
330
D9C5
102
}
330
D9C5
100
AcDbZombieObject
 90
      499
 91
      510
 93
      113
310
904313A32304000000000000344000
  0
ACAD_PROXY_OBJECT
  5
D9CE
102
{ACAD_REACTORS
330
D9C5
102
}
330
D9C5
100
AcDbZombieObject
 90
      499
 91
      510
 93
      113
310
904313A333040000000000003E4000
  0
ACAD_PROXY_OBJECT
  5
D9CF
102
{ACAD_REACTORS
330
D9C5
102
}
330
D9C5
100
AcDbZombieObject
 90
      499
 91
      510
 93
      113
310
904313A34304000000000000444000
  0
ACAD_PROXY_OBJECT
  5
D9D0
102
{ACAD_REACTORS
330
D9C5
102
}
330
D9C5
100
AcDbZombieObject
 90
      499
 91
      510
 93
      113
310
904313A35304000000000000494000
  0
ACAD_PROXY_OBJECT
  5
D9D1
102
{ACAD_REACTORS
330
D9C5
102
}
330
D9C5
100
AcDbZombieObject
 90
      499
 91
      510
 93
      121
310
905313A3130304000000000000594000
  0
ACAD_PROXY_OBJECT
  5
D9D2
102
{ACAD_REACTORS
330
D9C5
102
}
330
D9C5
100
AcDbZombieObject
 90
      499
 91
      510
 93
      105
310
903323A310000000000000010100
  0
ACAD_PROXY_OBJECT
  5
D9D3
102
{ACAD_REACTORS
330
D9C5
102
}
330
D9C5
100
AcDbZombieObject
 90
      499
 91
      510
 93
      105
310
903343A310000000000000410100
  0
ACAD_PROXY_OBJECT
  5
D9D4
102
{ACAD_REACTORS
330
D9C5
102
}
330
D9C5
100
AcDbZombieObject
 90
      499
 91
      510
 93
      105
310
903383A310000000000000810100
  0
ACAD_PROXY_OBJECT
  5
D9D5
102
{ACAD_REACTORS
330
D9C5
102
}
330
D9C5
100
AcDbZombieObject
 90
      499
 91
      510
 93
      113
310
90431303A310000000000000910100
  0
ACAD_PROXY_OBJECT
  5
D9D6
102
{ACAD_REACTORS
330
D9C5
102
}
330
D9C5
100
AcDbZombieObject
 90
      499
 91
      510
 93
      121
310
9053130303A310000000000001650100
  0
ACAD_PROXY_OBJECT
  5
D9D7
102
{ACAD_REACTORS
330
D9C5
102
}
330
D9C5
100
AcDbZombieObject
 90
      499
 91
      510
 93
      257
310
90E312F31323822203D2031272D3022000000000000200FC000000000000284000
  0
ACAD_PROXY_OBJECT
  5
D9D8
102
{ACAD_REACTORS
330
D9C5
102
}
330
D9C5
100
AcDbZombieObject
 90
      499
 91
      510
 93
      249
310
90D312F363422203D2031272D3022000000000000240FC000000000000284000
  0
ACAD_PROXY_OBJECT
  5
D9D9
102
{ACAD_REACTORS
330
D9C5
102
}
330
D9C5
100
AcDbZombieObject
 90
      499
 91
      510
 93
      249
310
90D312F333222203D2031272D3022000000000000280FC000000000000284000
  0
ACAD_PROXY_OBJECT
  5
D9DA
102
{ACAD_REACTORS
330
D9C5
102
}
330
D9C5
100
AcDbZombieObject
 90
      499
 91
      510
 93
      249
310
90D312F313622203D2031272D30220000000000002C0FC000000000000284000
  0
ACAD_PROXY_OBJECT
  5
D9DB
102
{ACAD_REACTORS
330
D9C5
102
}
330
D9C5
100
AcDbZombieObject
 90
      499
 91
      510
 93
      249
310
90D332F333222203D2031272D30220000000000002E0FC000000000000284000
  0
ACAD_PROXY_OBJECT
  5
D9DC
102
{ACAD_REACTORS
330
D9C5
102
}
330
D9C5
100
AcDbZombieObject
 90
      499
 91
      510
 93
      241
310
90C312F3822203D2031272D3022000000000000300FC000000000000284000
  0
ACAD_PROXY_OBJECT
  5
D9DD
102
{ACAD_REACTORS
330
D9C5
102
}
330
D9C5
100
AcDbZombieObject
 90
      499
 91
      510
 93
      249
310
90D332F313622203D2031272D3022000000000000320FC000000000000284000
  0
ACAD_PROXY_OBJECT
  5
D9DE
102
{ACAD_REACTORS
330
D9C5
102
}
330
D9C5
100
AcDbZombieObject
 90
      499
 91
      510
 93
      241
310
90C312F3422203D2031272D3022000000000000340FC000000000000284000
  0
ACAD_PROXY_OBJECT
  5
D9DF
102
{ACAD_REACTORS
330
D9C5
102
}
330
D9C5
100
AcDbZombieObject
 90
      499
 91
      510
 93
      241
310
90C332F3822203D2031272D3022000000000000360FC000000000000284000
  0
ACAD_PROXY_OBJECT
  5
D9E0
102
{ACAD_REACTORS
330
D9C5
102
}
330
D9C5
100
AcDbZombieObject
 90
      499
 91
      510
 93
      241
310
90C312F3222203D2031272D3022000000000000380FC000000000000284000
  0
ACAD_PROXY_OBJECT
  5
D9E1
102
{ACAD_REACTORS
330
D9C5
102
}
330
D9C5
100
AcDbZombieObject
 90
      499
 91
      510
 93
      241
310
90C332F3422203D2031272D30220000000000003A0FC000000000000284000
  0
ACAD_PROXY_OBJECT
  5
D9E2
102
{ACAD_REACTORS
330
D9C5
102
}
330
D9C5
100
AcDbZombieObject
 90
      499
 91
      510
 93
      161
310
90A3122203D2031272D30224000000000000284000
  0
ACAD_PROXY_OBJECT
  5
D9E3
102
{ACAD_REACTORS
330
D9C5
102
}
330
D9C5
100
AcDbZombieObject
 90
      499
 91
      510
 93
      257
310
90E312D312F3222203D2031272D30220000000000003E0FC000000000000284000
  0
ACAD_PROXY_OBJECT
  5
D9E4
102
{ACAD_REACTORS
330
D9C5
102
}
330
D9C5
100
AcDbZombieObject
 90
      499
 91
      510
 93
      225
310
90A3322203D2031272D302200000000000002100000000000000284000
  0
ACAD_PROXY_OBJECT
  5
D9E5
102
{ACAD_REACTORS
330
D9C5
102
}
330
D9C5
100
AcDbZombieObject
 90
      499
 91
      510
 93
      225
310
90A3622203D2031272D302200000000000006100000000000000284000
  0
ACAD_PROXY_OBJECT
  5
D9E6
102
{ACAD_REACTORS
330
D9C5
102
}
330
D9C5
100
AcDbZombieObject
 90
      499
 91
      510
 93
      249
310
90D31272D3022203D2031272D30220000000000000A100000000000000284000
  0
ACAD_PROXY_OBJECT
  5
D9BA
102
{ACAD_REACTORS
330
D9B4
102
}
330
D9B4
100
AcDbZombieObject
 90
      499
 91
      509
 93
      436
310
42CC9915DA5C99599C985B595049028333333333333E3BF0000000000000FB0107901411070040501600405405064090741402480A0340
1001
ACAD
1000
AcDbSavedByObjectVersion
1070
     0
  0
ACAD_PROXY_OBJECT
  5
D9BC
102
{ACAD_REACTORS
330
D9B4
102
}
330
D9B4
100
AcDbZombieObject
 90
      499
 91
      509
 93
      500
310
424CD108121A5919195B90640502408333333333333E3BF0000000000000FB01079024090700405020000000000001110200405405064090740C02480A0340
1001
ACAD
1000
AcDbSavedByObjectVersion
1070
     0
  0
ACAD_PROXY_OBJECT
  5
D9BB
102
{ACAD_REACTORS
330
D9B4
102
}
330
D9B4
100
AcDbZombieObject
 90
      499
 91
      509
 93
      436
310
42CCD915DA5C99599C985B595059028333333333333E3BF0000000000000FB0107901411070040501600405405064090741402480A0340
1001
ACAD
1000
AcDbSavedByObjectVersion
1070
     0
  0
ACAD_PROXY_OBJECT
  5
D9B9
102
{ACAD_REACTORS
330
D9B4
102
}
330
D9B4
100
AcDbZombieObject
 90
      499
 91
      509
 93
      388
310
4150985CDA58D07406404333333333333E3BF0000000000000FB0107A41107004050150841D405064090741402480A0350
1001
ACAD
1000
AcDbSavedByObjectVersion
1070
     0
  0
ACAD_PROXY_OBJECT
  5
D9C0
102
{ACAD_REACTORS
330
D9B4
102
}
330
D9B4
100
AcDbZombieObject
 90
      499
 91
      509
 93
      428
310
42109C9A59DA1D195B90C409028333333333333E3BF0000000000000FB010790141107004050150841D405064090741402480A029950
1001
ACAD
1000
AcDbSavedByObjectVersion
1070
     0
  0
ACAD_PROXY_OBJECT
  5
D9C4
102
{ACAD_REACTORS
330
D9B4
102
}
330
D9B4
100
AcDbZombieObject
 90
      499
 91
      509
 93
      452
310
42D0DBDB1BDC90DA185B99D95104090240C333333333333E3BF0000000000000FB0108901411070040501508421405064090741402480A0350
1001
ACAD
1000
AcDbSavedByObjectVersion
1070
     0
  0
ACAD_PROXY_OBJECT
  5
D9BD
102
{ACAD_REACTORS
330
D9B4
102
}
330
D9B4
100
AcDbZombieObject
 90
      499
 91
      509
 93
      500
310
4290DBDB98D95C1D1D585B10940D028333333333333E3BF0000000000000FB0107902409070040501000000000000111010841D405064090740C02480A0340
1001
ACAD
1000
AcDbSavedByObjectVersion
1070
     0
  0
ACAD_PROXY_OBJECT
  5
D9BF
102
{ACAD_REACTORS
330
D9B4
102
}
330
D9B4
100
AcDbZombieObject
 90
      499
 91
      509
 93
      412
310
40D11A5B50B409028333333333333E3BF0000000000000FB010790141107004050150841D405064090741402480A02677FFFFFD0
1001
ACAD
1000
AcDbSavedByObjectVersion
1070
     0
  0
ACAD_PROXY_OBJECT
  5
19C2F
102
{ACAD_REACTORS
330
D9B4
102
}
330
D9B4
100
AcDbZombieObject
 90
      499
 91
      509
 93
      452
310
43115919D950DBDB1BDC93D999916409028333333333333E3BF0000000000000FB010790141107004050150841D405064090741402480A0350
1001
ACAD
1000
AcDbSavedByObjectVersion
1070
     0
  0
ACAD_PROXY_OBJECT
  5
D9C3
102
{ACAD_REACTORS
330
D9B4
102
}
330
D9B4
100
AcDbZombieObject
 90
      499
 91
      509
 93
      444
310
42D19858D95C185D1D195C9B90F409028333333333333E3BF0000000000000FB010790141107004050150841D405064090741402480A0350
1001
ACAD
1000
AcDbSavedByObjectVersion
1070
     0
  0
ACAD_PROXY_OBJECT
  5
D9B5
102
{ACAD_REACTORS
330
D9B4
102
}
330
D9B4
100
AcDbZombieObject
 90
      499
 91
      509
 93
      388
310
41119B185D240901404333333333333E3BF0000000000000F9010740A41107004050150841D405064090741402480A1B50
1001
ACAD
1000
AcDbSavedByObjectVersion
1070
     0
  0
ACAD_PROXY_OBJECT
  5
D9B6
102
{ACAD_REACTORS
330
D9B4
102
}
330
D9B4
100
AcDbZombieObject
 90
      499
 91
      509
 93
      476
310
43519B185D15DA5D1A115919D95CD0140901404333333333333E3BF0000000000000F9010740901411070040501600405405064090741402480A1B50
1001
ACAD
1000
AcDbSavedByObjectVersion
1070
     0
  0
ACAD_PROXY_OBJECT
  5
D9B7
102
{ACAD_REACTORS
330
D9B4
102
}
330
D9B4
100
AcDbZombieObject
 90
      499
 91
      509
 93
      412
310
41D1DBDD5C985D5910240902404333333333333E3BF0000000000000F9010740A411070040501641D405064090741402480A1B50
1001
ACAD
1000
AcDbSavedByObjectVersion
1070
     0
  0
ACAD_PROXY_OBJECT
  5
D9B8
102
{ACAD_REACTORS
330
D9B4
102
}
330
D9B4
100
AcDbZombieObject
 90
      499
 91
      509
 93
      500
310
4411DBDD5C985D5915DA5D1A115919D95CD0340902404333333333333E3BF0000000000000F9010740901411070040501600405405064090741402480A1B50
1001
ACAD
1000
AcDbSavedByObjectVersion
1070
     0
  0
ACAD_PROXY_OBJECT
  5
19C7E
102
{ACAD_REACTORS
330
D9B4
102
}
330
D9B4
100
AcDbZombieObject
 90
      499
 91
      509
 93
      476
310
41921A5919195B90640502408333333333333E33F0000000000000F901079024090700405020000000000001110200405405064090740C02480A0340
1001
ACAD
1000
AcDbSavedByObjectVersion
1070
     0
  0
ACAD_PROXY_OBJECT
  5
19C2D
102
{ACAD_REACTORS
330
D9B4
102
}
330
D9B4
100
AcDbZombieObject
 90
      499
 91
      509
 93
      428
310
42529A5D1D195C93D999914409028333333333333E3BF0000000000000FB010790141107004050150A41D405064090741402480A0350
1001
ACAD
1000
AcDbSavedByObjectVersion
1070
     0
  0
ACAD_PROXY_OBJECT
  5
D9C2
102
{ACAD_REACTORS
330
D9B4
102
}
330
D9B4
100
AcDbZombieObject
 90
      499
 91
      509
 93
      444
310
42D31A5B995C185D1D195C9B90E409028333333333333E3BF0000000000000FB010790141107004050750841D405064090741402483A0350
1001
ACAD
1000
AcDbSavedByObjectVersion
1070
     0
  0
ACAD_PROXY_OBJECT
  5
19C84
102
{ACAD_REACTORS
330
D9B4
102
}
330
D9B4
100
AcDbZombieObject
 90
      499
 91
      509
 93
      484
310
42135BD9195B1A5B99D0A409038333333333333E33F0000000000000F901074090290700405010000000000201990108421405064090741402480A1B40
1001
ACAD
1000
AcDbSavedByObjectVersion
1070
     0
  0
ACAD_PROXY_OBJECT
  5
19C2E
102
{ACAD_REACTORS
330
D9B4
102
}
330
D9B4
100
AcDbZombieObject
 90
      499
 91
      509
 93
      444
310
42D3DD995C9A185B99D3D999915409028333333333333E3BF0000000000000FB010790141107004050150941D405064090741402480A0350
1001
ACAD
1000
AcDbSavedByObjectVersion
1070
     0
  0
ACAD_PROXY_OBJECT
  5
D9BE
102
{ACAD_REACTORS
330
D9B4
102
}
330
D9B4
100
AcDbZombieObject
 90
      499
 91
      509
 93
      420
310
425499585B1A5CDD1A58D08409028333333333333E3BF0000000000000FB01079019070040501508421405064090741402480A1B40
1001
ACAD
1000
AcDbSavedByObjectVersion
1070
     0
  0
ACAD_PROXY_OBJECT
  5
19C83
102
{ACAD_REACTORS
330
D9B4
102
}
330
D9B4
100
AcDbZombieObject
 90
      499
 91
      509
 93
      420
310
4194DA1859195911B40902404333333333333E33F0000000000000F9010740A41107004050150800405405064090840C02480A0B40
1001
ACAD
1000
AcDbSavedByObjectVersion
1070
     0
  0
ACAD_PROXY_OBJECT
  5
19C82
102
{ACAD_REACTORS
330
D9B4
102
}
330
D9B4
100
AcDbZombieObject
 90
      499
 91
      509
 93
      516
310
4454DA18591959081DDA5D1A08195919D95CD1A40902404333333333333E33F0000000000000F901074090142907004050250800405405064090740C02480A0B40
1001
ACAD
1000
AcDbSavedByObjectVersion
1070
     0
  0
ACAD_PROXY_OBJECT
  5
19C7F
102
{ACAD_REACTORS
330
D9B4
102
}
330
D9B4
100
AcDbZombieObject
 90
      499
 91
      509
 93
      532
310
4394DA1859195CC81BD98811DC985E5174090240C333333333333E33F0000000000000F901079024090741D01000000000000111010841D405064090740C02480A0340
1001
ACAD
1000
AcDbSavedByObjectVersion
1070
     0
  0
ACAD_PROXY_OBJECT
  5
19C80
102
{ACAD_REACTORS
330
D9B4
102
}
330
D9B4
100
AcDbZombieObject
 90
      499
 91
      509
 93
      476
310
41D4DAD95D18DA1E51840502408333333333333E33F0000000000000F901079024090741D01000000000000111010B41D405064090741802480A0340
1001
ACAD
1000
AcDbSavedByObjectVersion
1070
     0
  0
ACAD_PROXY_OBJECT
  5
D9C1
102
{ACAD_REACTORS
330
D9B4
102
}
330
D9B4
100
AcDbZombieObject
 90
      499
 91
      509
 93
      412
310
41D51A1A58DAD95B90D409028333333333333E3BF0000000000000FB010790141107004050150C41D405064090741402480A0350
1001
ACAD
1000
AcDbSavedByObjectVersion
1070
     0
  0
ACAD_PROXY_OBJECT
  5
19C7D
102
{ACAD_REACTORS
330
D9B4
102
}
330
D9B4
100
AcDbZombieObject
 90
      499
 91
      509
 93
      420
310
4255DA5C99599C985B595059028333333333333E33F0000000000000F90107901411070040501600405405064090740C02480A0340
1001
ACAD
1000
AcDbSavedByObjectVersion
1070
     0
  0
ACAD_PROXY_OBJECT
  5
19C81
102
{ACAD_REACTORS
330
D9B4
102
}
330
D9B4
100
AcDbZombieObject
 90
      499
 91
      509
 93
      404
310
41560B54985E51940902404000000000000E03F0000000000000F9010740501907004050150841D405064090740C02480A1B40
1001
ACAD
1000
AcDbSavedByObjectVersion
1070
     0
  0
XRECORD
  5
1BD14
102
{ACAD_REACTORS
330
1BD13
102
}
330
1BD13
100
AcDbXrecord
340
18D
  0
XRECORD
  5
1BD15
102
{ACAD_REACTORS
330
1BD13
102
}
330
1BD13
100
AcDbXrecord
340
18C
  0
DICTIONARYVAR
  5
1A68D
102
{ACAD_REACTORS
330
37
102
}
330
37
100
DictionaryVariables
280
     0
  1
1:1
  0
DICTIONARYVAR
  5
DA6A
102
{ACAD_REACTORS
330
37
102
}
330
37
100
DictionaryVariables
280
     0
  1
Standard
  0
DICTIONARYVAR
  5
29E
102
{ACAD_REACTORS
330
37
102
}
330
37
100
DictionaryVariables
280
     0
  1
Standard
  0
DICTIONARYVAR
  5
38
102
{ACAD_REACTORS
330
37
102
}
330
37
100
DictionaryVariables
280
     0
  1
-1
  0
DICTIONARYVAR
  5
1CE
102
{ACAD_REACTORS
330
37
102
}
330
37
100
DictionaryVariables
280
     0
  1
2
  0
DICTIONARYVAR
  5
704E
102
{ACAD_REACTORS
330
37
102
}
330
37
100
DictionaryVariables
280
     0
  1
1
  0
DICTIONARYVAR
  5
DA6D
102
{ACAD_REACTORS
330
37
102
}
330
37
100
DictionaryVariables
280
     0
  1
0
  0
DICTIONARYVAR
  5
7052
102
{ACAD_REACTORS
330
37
102
}
330
37
100
DictionaryVariables
280
     0
  1
8
  0
DICTIONARYVAR
  5
7051
102
{ACAD_REACTORS
330
37
102
}
330
37
100
DictionaryVariables
280
     0
  1
1
  0
DICTIONARYVAR
  5
1A6DD
102
{ACAD_REACTORS
330
37
102
}
330
37
100
DictionaryVariables
280
     0
  1
0
  0
DICTIONARYVAR
  5
704F
102
{ACAD_REACTORS
330
37
102
}
330
37
100
DictionaryVariables
280
     0
  1
8
  0
DICTIONARYVAR
  5
7050
102
{ACAD_REACTORS
330
37
102
}
330
37
100
DictionaryVariables
280
     0
  1
2
  0
DICTIONARYVAR
  5
1CF
102
{ACAD_REACTORS
330
37
102
}
330
37
100
DictionaryVariables
280
     0
  1

  0
DICTIONARYVAR
  5
DA6C
102
{ACAD_REACTORS
330
37
102
}
330
37
100
DictionaryVariables
280
     0
  1
127
  0
DICTIONARYVAR
  5
19C7C
102
{ACAD_REACTORS
330
37
102
}
330
37
100
DictionaryVariables
280
     0
  1
2
  0
DICTIONARY
  5
1BEB1
330
D9A4
100
AcDbDictionary
  3
ACAD_XREC_ROUNDTRIP
360
1BEB2
1001
ACAD
1000
TREAT_AS_HARD
1070
     1
  0
DICTIONARY
  5
1BEB3
330
D99C
100
AcDbDictionary
  3
ACAD_XREC_ROUNDTRIP
360
1BEB4
1001
ACAD
1000
TREAT_AS_HARD
1070
     1
  0
DICTIONARY
  5
1BEB5
330
D9AC
100
AcDbDictionary
  3
ACAD_XREC_ROUNDTRIP
360
1BEB6
1001
ACAD
1000
TREAT_AS_HARD
1070
     1
  0
XRECORD
  5
1BEB2
102
{ACAD_REACTORS
330
1BEB1
102
}
330
1BEB1
100
AcDbXrecord
102
MATERIAL
148
0.0
149
0.0
149
0.0
 93
        0
 94
      127
282
     0
 72
     0
 77
     0
171
     0
175
     0
179
     0
273
     0
  0
XRECORD
  5
1BEB4
102
{ACAD_REACTORS
330
1BEB3
102
}
330
1BEB3
100
AcDbXrecord
102
MATERIAL
148
0.0
149
0.0
149
0.0
 93
        0
 94
      127
282
     0
 72
     0
 77
     0
171
     0
175
     0
179
     0
273
     0
  0
XRECORD
  5
1BEB6
102
{ACAD_REACTORS
330
1BEB5
102
}
330
1BEB5
100
AcDbXrecord
102
MATERIAL
148
0.0
149
0.0
149
0.0
 93
        0
 94
      127
282
     0
 72
     0
 77
     0
171
     0
175
     0
179
     0
273
     0
  0
ENDSEC
  0
EOF
