  0
SECTION
  2
HEADER
  9
$ACADVER
  1
AC1012
  9
$DWGCODEPAGE
  3
ansi_932
  9
$INSBASE
 10
0.0
 20
0.0
 30
0.0
  9
$EXTMIN
 10
4497.030742030909
 20
551.6795134133208
 30
0.0
  9
$EXTMAX
 10
5128.33050935142
 20
973.3795134043667
 30
0.0000000001691137
  9
$LIMMIN
 10
0.0
 20
0.0
  9
$LIMMAX
 10
420.0
 20
297.0
  9
$ORTHOMODE
 70
     0
  9
$REGENMODE
 70
     1
  9
$FILLMODE
 70
     1
  9
$QTEXTMODE
 70
     0
  9
$MIRRTEXT
 70
     0
  9
$DRAGMODE
 70
     2
  9
$LTSCALE
 40
0.5
  9
$OSMODE
 70
 14463
  9
$ATTMODE
 70
     1
  9
$TEXTSIZE
 40
4.0
  9
$TRACEWID
 40
1.0
  9
$TEXTSTYLE
  7
STANDARD
  9
$CLAYER
  8
1TEXT
  9
$CELTYPE
  6
BYLAYER
  9
$CECOLOR
 62
   256
  9
$CELTSCALE
 40
1.0
  9
$DELOBJ
 70
     1
  9
$DISPSILH
 70
     0
  9
$DIMSCALE
 40
1.0
  9
$DIMASZ
 40
2.0
  9
$DIMEXO
 40
0.0
  9
$DIMDLI
 40
7.0
  9
$DIMRND
 40
0.0
  9
$DIMDLE
 40
0.0
  9
$DIMEXE
 40
1.0
  9
$DIMTP
 40
0.0
  9
$DIMTM
 40
0.0
  9
$DIMTXT
 40
3.5
  9
$DIMCEN
 40
0.0
  9
$DIMTSZ
 40
0.0
  9
$DIMTOL
 70
     0
  9
$DIMLIM
 70
     0
  9
$DIMTIH
 70
     0
  9
$DIMTOH
 70
     0
  9
$DIMSE1
 70
     0
  9
$DIMSE2
 70
     0
  9
$DIMTAD
 70
     1
  9
$DIMZIN
 70
     8
  9
$DIMBLK
  1

  9
$DIMASO
 70
     1
  9
$DIMSHO
 70
     1
  9
$DIMPOST
  1
 
  9
$DIMAPOST
  1

  9
$DIMALT
 70
     0
  9
$DIMALTD
 70
     2
  9
$DIMALTF
 40
25.4
  9
$DIMLFAC
 40
1.0
  9
$DIMTOFL
 70
     1
  9
$DIMTVP
 40
0.0
  9
$DIMTIX
 70
     0
  9
$DIMSOXD
 70
     0
  9
$DIMSAH
 70
     1
  9
$DIMBLK1
  1
OPEN30
  9
$DIMBLK2
  1
OPEN30
  9
$DIMSTYLE
  2
NEWX10
  9
$DIMCLRD
 70
   256
  9
$DIMCLRE
 70
   256
  9
$DIMCLRT
 70
   201
  9
$DIMTFAC
 40
0.7
  9
$DIMGAP
 40
0.7
  9
$DIMJUST
 70
     0
  9
$DIMSD1
 70
     0
  9
$DIMSD2
 70
     0
  9
$DIMTOLJ
 70
     1
  9
$DIMTZIN
 70
     8
  9
$DIMALTZ
 70
     0
  9
$DIMALTTZ
 70
     0
  9
$DIMFIT
 70
     2
  9
$DIMUPT
 70
     0
  9
$DIMUNIT
 70
     2
  9
$DIMDEC
 70
     2
  9
$DIMTDEC
 70
     4
  9
$DIMALTU
 70
     2
  9
$DIMALTTD
 70
     2
  9
$DIMTXSTY
  7
STANDARD
  9
$DIMAUNIT
 70
     0
  9
$LUNITS
 70
     2
  9
$LUPREC
 70
     4
  9
$SKETCHINC
 40
1.0
  9
$FILLETRAD
 40
0.0
  9
$AUNITS
 70
     0
  9
$AUPREC
 70
     2
  9
$MENU
  1
acad
  9
$ELEVATION
 40
0.0
  9
$PELEVATION
 40
0.0
  9
$THICKNESS
 40
0.0
  9
$LIMCHECK
 70
     0
  9
$CHAMFERA
 40
10.0
  9
$CHAMFERB
 40
10.0
  9
$CHAMFERC
 40
20.0
  9
$CHAMFERD
 40
0.0
  9
$SKPOLY
 70
     0
  9
$TDCREATE
 40
2451318.621352917
  9
$TDUPDATE
 40
2458159.443051273
  9
$TDINDWG
 40
1.4862600116
  9
$TDUSRTIMER
 40
1.4862600116
  9
$USRTIMER
 70
     1
  9
$ANGBASE
 50
0.0
  9
$ANGDIR
 70
     0
  9
$PDMODE
 70
     0
  9
$PDSIZE
 40
0.0
  9
$PLINEWID
 40
0.0
  9
$COORDS
 70
     2
  9
$SPLFRAME
 70
     0
  9
$SPLINETYPE
 70
     6
  9
$SPLINESEGS
 70
     8
  9
$ATTDIA
 70
     0
  9
$ATTREQ
 70
     1
  9
$HANDLING
 70
     1
  9
$HANDSEED
  5
FF30
  9
$SURFTAB1
 70
     6
  9
$SURFTAB2
 70
     6
  9
$SURFTYPE
 70
     6
  9
$SURFU
 70
     6
  9
$SURFV
 70
     6
  9
$UCSNAME
  2

  9
$UCSORG
 10
0.0
 20
0.0
 30
0.0
  9
$UCSXDIR
 10
1.0
 20
0.0
 30
0.0
  9
$UCSYDIR
 10
0.0
 20
1.0
 30
0.0
  9
$PUCSNAME
  2

  9
$PUCSORG
 10
0.0
 20
0.0
 30
0.0
  9
$PUCSXDIR
 10
1.0
 20
0.0
 30
0.0
  9
$PUCSYDIR
 10
0.0
 20
1.0
 30
0.0
  9
$USERI1
 70
     0
  9
$USERI2
 70
     0
  9
$USERI3
 70
     0
  9
$USERI4
 70
     0
  9
$USERI5
 70
     0
  9
$USERR1
 40
0.0
  9
$USERR2
 40
0.0
  9
$USERR3
 40
0.0
  9
$USERR4
 40
0.0
  9
$USERR5
 40
0.0
  9
$WORLDVIEW
 70
     1
  9
$SHADEDGE
 70
     3
  9
$SHADEDIF
 70
    70
  9
$TILEMODE
 70
     1
  9
$MAXACTVP
 70
    48
  9
$PINSBASE
 10
0.0
 20
0.0
 30
0.0
  9
$PLIMCHECK
 70
     0
  9
$PEXTMIN
 10
1.000000000000000E+20
 20
1.000000000000000E+20
 30
1.000000000000000E+20
  9
$PEXTMAX
 10
-1.000000000000000E+20
 20
-1.000000000000000E+20
 30
-1.000000000000000E+20
  9
$PLIMMIN
 10
0.0
 20
0.0
  9
$PLIMMAX
 10
420.0
 20
297.0
  9
$UNITMODE
 70
     0
  9
$VISRETAIN
 70
     1
  9
$PLINEGEN
 70
     0
  9
$PSLTSCALE
 70
     1
  9
$TREEDEPTH
 70
  3020
  9
$PICKSTYLE
 70
     1
  9
$CMLSTYLE
  2
STANDARD
  9
$CMLJUST
 70
     0
  9
$CMLSCALE
 40
20.0
  9
$SAVEIMAGES
 70
     1
  0
ENDSEC
  0
SECTION
  2
CLASSES
  0
CLASS
  1
DICTIONARYVAR
  2
AcDbDictionaryVar
  3
ObjectDBX Classes
 90
        0
280
     0
281
     0
  0
CLASS
  1
IDBUFFER
  2
AcDbIdBuffer
  3
ObjectDBX Classes
 90
    32768
280
     0
281
     0
  0
CLASS
  1
LWPOLYLINE
  2
AcDbPolyline
  3
ObjectDBX Classes
 90
    32768
280
     0
281
     1
  0
CLASS
  1
ACDBDICTIONARYWDFLT
  2
AcDbDictionaryWithDefault
  3
ObjectDBX Classes
 90
    32768
280
     0
281
     0
  0
CLASS
  1
ACDBPLACEHOLDER
  2
AcDbPlaceHolder
  3
ObjectDBX Classes
 90
        0
280
     0
281
     0
  0
CLASS
  1
LAYOUT
  2
AcDbLayout
  3
ObjectDBX Classes
 90
        0
280
     0
281
     0
  0
CLASS
  1
TABLESTYLE
  2
AcDbTableStyle
  3
ObjectDBX Classes
 90
     4095
280
     0
281
     0
  0
CLASS
  1
SORTENTSTABLE
  2
AcDbSortentsTable
  3
ObjectDBX Classes
 90
    32768
280
     0
281
     0
  0
CLASS
  1
MATERIAL
  2
AcDbMaterial
  3
ObjectDBX Classes
 90
     1153
280
     0
281
     0
  0
CLASS
  1
VISUALSTYLE
  2
AcDbVisualStyle
  3
ObjectDBX Classes
 90
     4095
280
     0
281
     0
  0
CLASS
  1
SCALE
  2
AcDbScale
  3
ObjectDBX Classes
 90
     1153
280
     0
281
     0
  0
CLASS
  1
MLEADERSTYLE
  2
AcDbMLeaderStyle
  3
ACDB_MLEADERSTYLE_CLASS
 90
     4095
280
     0
281
     0
  0
CLASS
  1
CELLSTYLEMAP
  2
AcDbCellStyleMap
  3
ObjectDBX Classes
 90
     1152
280
     0
281
     0
  0
CLASS
  1
SUN
  2
AcDbSun
  3
SCENEOE
 90
     1153
280
     0
281
     0
  0
CLASS
  1
XRECORD
  2
AcDbXrecord
  3
ObjectDBX Classes
 90
    32768
280
     0
281
     0
  0
CLASS
  1
HATCH
  2
AcDbHatch
  3
ObjectDBX Classes
 90
    32768
280
     0
281
     1
  0
ENDSEC
  0
SECTION
  2
TABLES
  0
TABLE
  2
VPORT
  5
8
330
0
100
AcDbSymbolTable
 70
     1
  0
VPORT
  5
952D
330
8
100
AcDbSymbolTableRecord
100
AcDbViewportTableRecord
  2
*ACTIVE
 70
     0
 10
0.0
 20
0.0
 11
1.0
 21
1.0
 12
4812.680625691164
 22
762.5295134088437
 13
0.0
 23
0.0
 14
10.0
 24
10.0
 15
10.0
 25
10.0
 16
0.0
 26
0.0
 36
1.0
 17
0.0
 27
0.0
 37
0.0
 40
452.7726315693334
 41
1.871481028151775
 42
50.0
 43
0.0
 44
0.0
 50
0.0
 51
0.0
 71
    16
 72
   100
 73
     1
 74
     1
 75
     0
 76
     0
 77
     0
 78
     0
1001
ACAD_NAV_VCDISPLAY
1070
     3
  0
ENDTAB
  0
TABLE
  2
LTYPE
  5
5
330
0
100
AcDbSymbolTable
 70
     3
  0
LTYPE
  5
12
330
5
100
AcDbSymbolTableRecord
100
AcDbLinetypeTableRecord
  2
BYBLOCK
 70
     0
  3

 72
    65
 73
     0
 40
0.0
  0
LTYPE
  5
13
330
5
100
AcDbSymbolTableRecord
100
AcDbLinetypeTableRecord
  2
BYLAYER
 70
     0
  3

 72
    65
 73
     0
 40
0.0
  0
LTYPE
  5
14
330
5
100
AcDbSymbolTableRecord
100
AcDbLinetypeTableRecord
  2
CONTINUOUS
 70
     0
  3
Solid line
 72
    65
 73
     0
 40
0.0
  0
LTYPE
  5
2C03
330
5
100
AcDbSymbolTableRecord
100
AcDbLinetypeTableRecord
  2
HIDDEN
 70
     0
  3
Hidden __ __ __ __ __ __ __ __ __ __ __ __ __ _
 72
    65
 73
     2
 40
9.524999999999999
 49
6.35
 74
     0
 49
-3.175
 74
     0
  0
LTYPE
  5
9837
330
5
100
AcDbSymbolTableRecord
100
AcDbLinetypeTableRecord
  2
CENTER2
 70
     0
  3
Center (.5x) ___ _ ___ _ ___ _ ___ _ ___ _ ___
 72
    65
 73
     4
 40
28.575
 49
19.05
 74
     0
 49
-3.175
 74
     0
 49
3.175
 74
     0
 49
-3.175
 74
     0
  0
ENDTAB
  0
TABLE
  2
LAYER
  5
2
102
{ACAD_XDICTIONARY
360
96D9
102
}
330
0
100
AcDbSymbolTable
 70
     6
  0
LAYER
  5
E
102
{ACAD_XDICTIONARY
360
9593
102
}
330
2
100
AcDbSymbolTableRecord
100
AcDbLayerTableRecord
  2
0
 70
     0
 62
     7
  6
CONTINUOUS
  0
LAYER
  5
29
102
{ACAD_XDICTIONARY
360
9595
102
}
330
2
100
AcDbSymbolTableRecord
100
AcDbLayerTableRecord
  2
1CENTER
 70
     0
 62
     7
  6
CENTER2
  0
LAYER
  5
31
102
{ACAD_XDICTIONARY
360
9597
102
}
330
2
100
AcDbSymbolTableRecord
100
AcDbLayerTableRecord
  2
1TEXT
 70
     0
 62
     7
  6
CONTINUOUS
  0
LAYER
  5
243
102
{ACAD_XDICTIONARY
360
959D
102
}
330
2
100
AcDbSymbolTableRecord
100
AcDbLayerTableRecord
  2
01
 70
     0
 62
     1
  6
CONTINUOUS
  0
LAYER
  5
24E
102
{ACAD_XDICTIONARY
360
95A3
102
}
330
2
100
AcDbSymbolTableRecord
100
AcDbLayerTableRecord
  2
1DIM
 70
     0
 62
     7
  6
CONTINUOUS
  0
LAYER
  5
2C05
102
{ACAD_XDICTIONARY
360
95AF
102
}
330
2
100
AcDbSymbolTableRecord
100
AcDbLayerTableRecord
  2
1HIDDEN
 70
     0
 62
     7
  6
HIDDEN
  0
ENDTAB
  0
TABLE
  2
STYLE
  5
3
330
0
100
AcDbSymbolTable
 70
     1
  0
STYLE
  5
F
330
3
100
AcDbSymbolTableRecord
100
AcDbTextStyleTableRecord
  2
STANDARD
 70
     0
 40
0.0
 41
1.0
 50
0.0
 71
     0
 42
4.0
  3
txt.shx
  4
extfont.shx
  0
ENDTAB
  0
TABLE
  2
VIEW
  5
6
330
0
100
AcDbSymbolTable
 70
     0
  0
ENDTAB
  0
TABLE
  2
UCS
  5
7
330
0
100
AcDbSymbolTable
 70
     0
  0
ENDTAB
  0
TABLE
  2
APPID
  5
9
330
0
100
AcDbSymbolTable
 70
    14
  0
APPID
  5
10
330
9
100
AcDbSymbolTableRecord
100
AcDbRegAppTableRecord
  2
ACAD
 70
     0
  0
APPID
  5
21
330
9
100
AcDbSymbolTableRecord
100
AcDbRegAppTableRecord
  2
DRAWINGVARIABLESXDATA
 70
     0
  0
APPID
  5
64
330
9
100
AcDbSymbolTableRecord
100
AcDbRegAppTableRecord
  2
CONTENTTABDATA
 70
     0
  0
APPID
  5
65
330
9
100
AcDbSymbolTableRecord
100
AcDbRegAppTableRecord
  2
CONTENTCURRENTTAB
 70
     0
  0
APPID
  5
66
330
9
100
AcDbSymbolTableRecord
100
AcDbRegAppTableRecord
  2
CONTENTBLOCKDESCRIPTION
 70
     0
  0
APPID
  5
67
330
9
100
AcDbSymbolTableRecord
100
AcDbRegAppTableRecord
  2
CONTENTBLOCKICON
 70
     0
  0
APPID
  5
68
330
9
100
AcDbSymbolTableRecord
100
AcDbRegAppTableRecord
  2
CONTENTLONGBLOCKNAME
 70
     0
  0
APPID
  5
2AE
330
9
100
AcDbSymbolTableRecord
100
AcDbRegAppTableRecord
  2
ACAD_PSEXT
 70
     0
  0
APPID
  5
9585
330
9
100
AcDbSymbolTableRecord
100
AcDbRegAppTableRecord
  2
ACAD_MLEADERVER
 70
     0
  0
APPID
  5
A2E3
330
9
100
AcDbSymbolTableRecord
100
AcDbRegAppTableRecord
  2
ACADANNOTATIVE
 70
     0
  0
APPID
  5
A2E4
330
9
100
AcDbSymbolTableRecord
100
AcDbRegAppTableRecord
  2
ACDBBLOCKREPETAG
 70
     0
  0
APPID
  5
AEB1
330
9
100
AcDbSymbolTableRecord
100
AcDbRegAppTableRecord
  2
ACAD_NAV_VCDISPLAY
 70
     0
  0
APPID
  5
B6A4
330
9
100
AcDbSymbolTableRecord
100
AcDbRegAppTableRecord
  2
ACAECLAYERSTANDARD
 70
     0
  0
APPID
  5
E1EF
330
9
100
AcDbSymbolTableRecord
100
AcDbRegAppTableRecord
  2
ACAD_EXEMPT_FROM_CAD_STAND
 70
     0
  0
ENDTAB
  0
TABLE
  2
DIMSTYLE
  5
A
330
0
100
AcDbSymbolTable
 70
     1
  0
DIMSTYLE
105
48
330
A
100
AcDbSymbolTableRecord
100
AcDbDimStyleTableRecord
  2
NEWX10
 70
     0
  3
 
  4

  5

  6
OPEN30
  7
OPEN30
 40
1.0
 41
2.0
 42
0.0
 43
7.0
 44
1.0
 45
0.0
 46
0.0
 47
0.0
 48
0.0
140
3.5
141
0.0
142
0.0
143
25.4
144
1.0
145
0.0
146
0.7
147
0.7
 71
     0
 72
     0
 73
     0
 74
     0
 75
     0
 76
     0
 77
     1
 78
     8
170
     0
171
     2
172
     1
173
     1
174
     0
175
     0
176
   256
177
   256
178
   201
179
     2
270
     2
271
     2
272
     4
273
     2
274
     2
340
F
275
     0
280
     0
281
     0
282
     0
283
     1
284
     8
285
     0
286
     0
287
     2
288
     0
  0
ENDTAB
  0
TABLE
  2
BLOCK_RECORD
  5
1
330
0
100
AcDbSymbolTable
 70
     8
  0
BLOCK_RECORD
  5
18
102
{ACAD_XDICTIONARY
360
88F
102
}
330
1
100
AcDbSymbolTableRecord
100
AcDbBlockTableRecord
  2
*MODEL_SPACE
  0
BLOCK_RECORD
  5
15
330
1
100
AcDbSymbolTableRecord
100
AcDbBlockTableRecord
  2
*PAPER_SPACE
  0
BLOCK_RECORD
  5
42
330
1
100
AcDbSymbolTableRecord
100
AcDbBlockTableRecord
  2
_OPEN30
  0
BLOCK_RECORD
  5
A333
330
1
100
AcDbSymbolTableRecord
100
AcDbBlockTableRecord
  2
A3WAKUKAWAJUN2017_HYOUDAI_
  0
BLOCK_RECORD
  5
FD90
330
1
100
AcDbSymbolTableRecord
100
AcDbBlockTableRecord
  2
*X29
  0
BLOCK_RECORD
  5
FDDE
330
1
100
AcDbSymbolTableRecord
100
AcDbBlockTableRecord
  2
*X30
  0
BLOCK_RECORD
  5
FE30
330
1
100
AcDbSymbolTableRecord
100
AcDbBlockTableRecord
  2
*X31
  0
BLOCK_RECORD
  5
FE81
330
1
100
AcDbSymbolTableRecord
100
AcDbBlockTableRecord
  2
*X32
  0
BLOCK_RECORD
  5
FEBE
330
1
100
AcDbSymbolTableRecord
100
AcDbBlockTableRecord
  2
*X33
  0
BLOCK_RECORD
  5
FEFE
330
1
100
AcDbSymbolTableRecord
100
AcDbBlockTableRecord
  2
*X34
  0
ENDTAB
  0
ENDSEC
  0
SECTION
  2
BLOCKS
  0
BLOCK
  5
19
330
18
100
AcDbEntity
  8
0
100
AcDbBlockBegin
  2
*MODEL_SPACE
 70
     0
 10
0.0
 20
0.0
 30
0.0
  3
*MODEL_SPACE
  1

  0
ENDBLK
  5
1A
330
18
100
AcDbEntity
  8
0
100
AcDbBlockEnd
  0
BLOCK
  5
16
330
15
100
AcDbEntity
 67
     1
  8
0
100
AcDbBlockBegin
  2
*PAPER_SPACE
 70
     0
 10
0.0
 20
0.0
 30
0.0
  3
*PAPER_SPACE
  1

  0
ENDBLK
  5
17
330
15
100
AcDbEntity
 67
     1
  8
0
100
AcDbBlockEnd
  0
BLOCK
  5
43
330
42
100
AcDbEntity
  8
0
100
AcDbBlockBegin
  2
_OPEN30
 70
     0
 10
0.0
 20
0.0
 30
0.0
  3
_OPEN30
  1

  0
LINE
  5
44
330
42
100
AcDbEntity
  8
0
  6
BYBLOCK
 62
     0
100
AcDbLine
 10
-1.0
 20
0.26794919
 30
0.0
 11
0.0
 21
0.0
 31
0.0
  0
LINE
  5
45
330
42
100
AcDbEntity
  8
0
  6
BYBLOCK
 62
     0
100
AcDbLine
 10
0.0
 20
0.0
 30
0.0
 11
-1.0
 21
-0.26794919
 31
0.0
  0
LINE
  5
46
330
42
100
AcDbEntity
  8
0
  6
BYBLOCK
 62
     0
100
AcDbLine
 10
0.0
 20
0.0
 30
0.0
 11
-1.0
 21
0.0
 31
0.0
  0
ENDBLK
  5
47
330
42
100
AcDbEntity
  8
0
100
AcDbBlockEnd
  0
BLOCK
  5
AA56
330
A333
100
AcDbEntity
  8
0
100
AcDbBlockBegin
  2
A3WAKUKAWAJUN2017_HYOUDAI_
 70
     0
 10
0.0
 20
0.0
 30
0.0
  3
A3WAKUKAWAJUN2017_HYOUDAI_
  1

  0
LINE
  5
A335
330
A333
100
AcDbEntity
  8
0
100
AcDbLine
 10
13.26299999998673
 20
-0.0001000000000317
 30
0.0
 11
9.236999999990758
 21
8.999899999990987
 31
0.0
1001
ACAD
1000
ASC_BOUNDS
1002
{
1070
    19
1005
A376
1002
}
  0
LINE
  5
A336
330
A333
100
AcDbEntity
  8
0
100
AcDbLine
 10
5.657999999994331
 20
0.9999999999989768
 30
0.0
 11
9.236999999990758
 21
8.999999999991019
 31
0.0
1001
ACAD
1000
ASC_BOUNDS
1002
{
1070
    19
1005
A376
1002
}
  0
LINE
  5
A337
330
A333
100
AcDbEntity
  8
0
100
AcDbLine
 10
18.59199999998134
 20
-0.2368999999997641
 30
0.0
 11
16.46099999998353
 21
5.432899999994561
 31
0.0
1001
ACAD
1000
ASC_BOUNDS
1002
{
1070
    19
1005
A377
1002
}
  0
LINE
  5
A338
330
A333
100
AcDbEntity
  8
0
100
AcDbLine
 10
18.59199999998134
 20
-0.2368999999997641
 30
0.0
 11
22.38199999997767
 21
8.763099999991255
 31
0.0
1001
ACAD
1000
ASC_BOUNDS
1002
{
1070
    19
1005
A377
1002
}
  0
LINE
  5
A339
330
A333
100
AcDbEntity
  8
0
100
AcDbLine
 10
14.32899999998563
 20
-0.2368999999997641
 30
0.0
 11
16.46099999998353
 21
5.432899999994561
 31
0.0
1001
ACAD
1000
ASC_BOUNDS
1002
{
1070
    19
1005
A377
1002
}
  0
LINE
  5
A33A
330
A333
100
AcDbEntity
  8
0
100
AcDbLine
 10
14.32899999998563
 20
-0.2368999999997641
 30
0.0
 11
10.53899999998941
 21
8.763099999991255
 31
0.0
1001
ACAD
1000
ASC_BOUNDS
1002
{
1070
    19
1005
A377
1002
}
  0
LINE
  5
A33B
330
A333
100
AcDbEntity
  8
0
100
AcDbLine
 10
19.53899999998043
 20
-0.0001000000000317
 30
0.0
 11
23.56599999997638
 21
8.999899999990987
 31
0.0
1001
ACAD
1000
ASC_BOUNDS
1002
{
1070
    19
1005
A378
1002
}
  0
LINE
  5
A33C
330
A333
100
AcDbEntity
  8
0
100
AcDbLine
 10
26.97358892824991
 20
1.383099999991202
 30
0.0
 11
23.56599999997638
 21
8.999899999990987
 31
0.0
1001
ACAD
1000
ASC_BOUNDS
1002
{
1070
    19
1005
A378
1002
}
  0
LINE
  5
A33D
330
A333
100
AcDbEntity
  8
0
100
AcDbLine
 10
5.657999999994331
 20
0.9999999999989768
 30
0.0
 11
3.181999999996833
 21
4.668599999995308
 31
0.0
1001
ACAD
1000
ASC_BOUNDS
1002
{
1070
    19
1005
A376
1002
}
  0
LINE
  5
A33E
330
A333
100
AcDbEntity
  8
0
100
AcDbLine
 10
4.617999999995391
 20
-0.0001000000000317
 30
0.0
 11
1.420999999998571
 21
4.736799999995242
 31
0.0
1001
ACAD
1000
ASC_BOUNDS
1002
{
1070
    19
1005
A376
1002
}
  0
LINE
  5
A33F
330
A333
100
AcDbEntity
  8
0
100
AcDbLine
 10
1.420999999998571
 20
8.763099999991255
 30
0.0
 11
1.420999999998571
 21
0.0
 31
0.0
1001
ACAD
1000
ASC_BOUNDS
1002
{
1070
    19
1005
A37B
1002
}
  0
LINE
  5
A340
330
A333
100
AcDbEntity
  8
0
100
AcDbLine
 10
0.0
 20
8.763099999991255
 30
0.0
 11
0.0
 21
0.0
 31
0.0
1001
ACAD
1000
ASC_BOUNDS
1002
{
1070
    19
1005
A37B
1002
}
  0
LINE
  5
A341
330
A333
100
AcDbEntity
  8
0
100
AcDbLine
 10
6.766999999993232
 20
-0.0001000000000317
 30
0.0
 11
7.826999999992154
 21
2.368399999997621
 31
0.0
1001
ACAD
1000
ASC_BOUNDS
1002
{
1070
    19
1005
A376
1002
}
  0
LINE
  5
A342
330
A333
100
AcDbEntity
  8
0
100
AcDbLine
 10
0.0
 20
0.0
 30
0.0
 11
1.420999999998571
 21
0.0
 31
0.0
1001
ACAD
1000
ASC_BOUNDS
1002
{
1070
    19
1005
A37B
1002
}
  0
LINE
  5
A343
330
A333
100
AcDbEntity
  8
0
100
AcDbLine
 10
4.617999999995391
 20
0.0
 30
0.0
 11
6.766999999993232
 21
0.0
 31
0.0
1001
ACAD
1000
ASC_BOUNDS
1002
{
1070
    19
1005
A376
1002
}
  0
LINE
  5
A344
330
A333
100
AcDbEntity
  8
0
100
AcDbLine
 10
11.70599999998831
 20
-0.0001000000000317
 30
0.0
 11
10.64699999998936
 21
2.368399999997621
 31
0.0
1001
ACAD
1000
ASC_BOUNDS
1002
{
1070
    19
1005
A376
1002
}
  0
LINE
  5
A345
330
A333
100
AcDbEntity
  8
0
100
AcDbLine
 10
7.826999999992154
 20
2.368399999997621
 30
0.0
 11
10.64699999998936
 21
2.368399999997621
 31
0.0
1001
ACAD
1000
ASC_BOUNDS
1002
{
1070
    19
1005
A376
1002
}
  0
LINE
  5
A346
330
A333
100
AcDbEntity
  8
0
100
AcDbLine
 10
11.70599999998831
 20
0.0
 30
0.0
 11
13.26299999998673
 21
0.0
 31
0.0
1001
ACAD
1000
ASC_BOUNDS
1002
{
1070
    19
1005
A376
1002
}
  0
LINE
  5
A347
330
A333
100
AcDbEntity
  8
0
100
AcDbLine
 10
22.15599999997789
 20
2.368399999997621
 30
0.0
 11
24.97599999997499
 21
2.368399999997621
 31
0.0
1001
ACAD
1000
ASC_BOUNDS
1002
{
1070
    19
1005
A378
1002
}
  0
LINE
  5
A348
330
A333
100
AcDbEntity
  8
0
100
AcDbLine
 10
19.53899999998043
 20
0.0
 30
0.0
 11
21.09599999997886
 21
0.0
 31
0.0
1001
ACAD
1000
ASC_BOUNDS
1002
{
1070
    19
1005
A378
1002
}
  0
LINE
  5
A349
330
A333
100
AcDbEntity
  8
0
100
AcDbLine
 10
21.09599999997886
 20
-0.0001000000000317
 30
0.0
 11
22.15599999997789
 21
2.368399999997621
 31
0.0
1001
ACAD
1000
ASC_BOUNDS
1002
{
1070
    19
1005
A378
1002
}
  0
LINE
  5
A34A
330
A333
100
AcDbEntity
  8
0
100
AcDbLine
 10
26.02015566812236
 20
0.0330999999912365
 30
0.0
 11
24.97599999997499
 21
2.368399999997621
 31
0.0
1001
ACAD
1000
ASC_BOUNDS
1002
{
1070
    19
1005
A378
1002
}
  0
LINE
  5
A34B
330
A333
100
AcDbEntity
  8
0
100
AcDbLine
 10
14.32399999998563
 20
3.315799999996671
 30
0.0
 11
16.46099999998353
 21
8.999899999990987
 31
0.0
1001
ACAD
1000
ASC_BOUNDS
1002
{
1070
    19
1005
A377
1002
}
  0
LINE
  5
A34C
330
A333
100
AcDbEntity
  8
0
100
AcDbLine
 10
6.432999999993513
 20
8.763099999991255
 30
0.0
 11
3.181999999996833
 21
4.668599999995308
 31
0.0
1001
ACAD
1000
ASC_BOUNDS
1002
{
1070
    19
1005
A376
1002
}
  0
LINE
  5
A34D
330
A333
100
AcDbEntity
  8
0
100
AcDbLine
 10
4.617999999995391
 20
8.763099999991255
 30
0.0
 11
1.420999999998571
 21
4.736799999995242
 31
0.0
1001
ACAD
1000
ASC_BOUNDS
1002
{
1070
    19
1005
A376
1002
}
  0
LINE
  5
A34E
330
A333
100
AcDbEntity
  8
0
100
AcDbLine
 10
0.0
 20
8.763099999991255
 30
0.0
 11
1.420999999998571
 21
8.763099999991255
 31
0.0
1001
ACAD
1000
ASC_BOUNDS
1002
{
1070
    19
1005
A37B
1002
}
  0
LINE
  5
A34F
330
A333
100
AcDbEntity
  8
0
100
AcDbLine
 10
4.617999999995391
 20
8.763099999991255
 30
0.0
 11
6.432999999993513
 21
8.763099999991255
 31
0.0
1001
ACAD
1000
ASC_BOUNDS
1002
{
1070
    19
1005
A376
1002
}
  0
LINE
  5
A350
330
A333
100
AcDbEntity
  8
0
100
AcDbLine
 10
14.32399999998563
 20
3.315799999996671
 30
0.0
 11
12.02999999998792
 21
8.763099999991255
 31
0.0
1001
ACAD
1000
ASC_BOUNDS
1002
{
1070
    19
1005
A377
1002
}
  0
LINE
  5
A351
330
A333
100
AcDbEntity
  8
0
100
AcDbLine
 10
10.06399999998996
 20
3.670999999996297
 30
0.0
 11
9.236999999990758
 21
5.5200999999945
 31
0.0
1001
ACAD
1000
ASC_BOUNDS
1002
{
1070
    19
1005
A376
1002
}
  0
LINE
  5
A352
330
A333
100
AcDbEntity
  8
0
100
AcDbLine
 10
8.409999999991555
 20
3.670999999996297
 30
0.0
 11
9.236999999990758
 21
5.5200999999945
 31
0.0
1001
ACAD
1000
ASC_BOUNDS
1002
{
1070
    19
1005
A376
1002
}
  0
LINE
  5
A353
330
A333
100
AcDbEntity
  8
0
100
AcDbLine
 10
8.409999999991555
 20
3.670999999996297
 30
0.0
 11
10.06399999998996
 21
3.670999999996297
 31
0.0
1001
ACAD
1000
ASC_BOUNDS
1002
{
1070
    19
1005
A376
1002
}
  0
LINE
  5
A354
330
A333
100
AcDbEntity
  8
0
100
AcDbLine
 10
10.53899999998941
 20
8.763099999991255
 30
0.0
 11
12.02999999998792
 21
8.763099999991255
 31
0.0
1001
ACAD
1000
ASC_BOUNDS
1002
{
1070
    19
1005
A377
1002
}
  0
LINE
  5
A355
330
A333
100
AcDbEntity
  8
0
100
AcDbLine
 10
22.7389999999773
 20
3.670999999996297
 30
0.0
 11
23.56599999997638
 21
5.5200999999945
 31
0.0
1001
ACAD
1000
ASC_BOUNDS
1002
{
1070
    19
1005
A378
1002
}
  0
LINE
  5
A356
330
A333
100
AcDbEntity
  8
0
100
AcDbLine
 10
22.7389999999773
 20
3.670999999996297
 30
0.0
 11
24.39299999997559
 21
3.670999999996297
 31
0.0
1001
ACAD
1000
ASC_BOUNDS
1002
{
1070
    19
1005
A378
1002
}
  0
LINE
  5
A357
330
A333
100
AcDbEntity
  8
0
100
AcDbLine
 10
18.59799999998143
 20
3.315799999996671
 30
0.0
 11
20.89099999997916
 21
8.763099999991255
 31
0.0
1001
ACAD
1000
ASC_BOUNDS
1002
{
1070
    19
1005
A377
1002
}
  0
LINE
  5
A358
330
A333
100
AcDbEntity
  8
0
100
AcDbLine
 10
18.59799999998143
 20
3.315799999996671
 30
0.0
 11
16.46099999998353
 21
8.999899999990987
 31
0.0
1001
ACAD
1000
ASC_BOUNDS
1002
{
1070
    19
1005
A377
1002
}
  0
LINE
  5
A359
330
A333
100
AcDbEntity
  8
0
100
AcDbLine
 10
20.89099999997916
 20
8.763099999991255
 30
0.0
 11
22.38199999997767
 21
8.763099999991255
 31
0.0
1001
ACAD
1000
ASC_BOUNDS
1002
{
1070
    19
1005
A377
1002
}
  0
LINE
  5
A35A
330
A333
100
AcDbEntity
  8
0
100
AcDbLine
 10
24.39299999997559
 20
3.670999999996297
 30
0.0
 11
23.56599999997638
 21
5.5200999999945
 31
0.0
1001
ACAD
1000
ASC_BOUNDS
1002
{
1070
    19
1005
A378
1002
}
  0
LINE
  5
A35B
330
A333
100
AcDbEntity
  8
0
100
AcDbLine
 10
44.99999999995498
 20
-0.2368999999997641
 30
0.0
 11
40.02599999995994
 21
5.341799999994635
 31
0.0
1001
ACAD
1000
ASC_BOUNDS
1002
{
1070
    19
1005
A37A
1002
}
  0
LINE
  5
A35C
330
A333
100
AcDbEntity
  8
0
100
AcDbLine
 10
40.02599999995994
 20
5.341799999994635
 30
0.0
 11
40.02599999995994
 21
0.0
 31
0.0
1001
ACAD
1000
ASC_BOUNDS
1002
{
1070
    19
1005
A37A
1002
}
  0
LINE
  5
A35D
330
A333
100
AcDbEntity
  8
0
100
AcDbLine
 10
38.60499999996136
 20
8.999999999991019
 30
0.0
 11
38.60499999996136
 21
0.0
 31
0.0
1001
ACAD
1000
ASC_BOUNDS
1002
{
1070
    19
1005
A37A
1002
}
  0
LINE
  5
A35E
330
A333
100
AcDbEntity
  8
0
100
AcDbLine
 10
44.99999999995498
 20
8.763099999991255
 30
0.0
 11
44.99999999995498
 21
-0.2368999999997641
 31
0.0
1001
ACAD
1000
ASC_BOUNDS
1002
{
1070
    19
1005
A37A
1002
}
  0
LINE
  5
A35F
330
A333
100
AcDbEntity
  8
0
100
AcDbLine
 10
38.60499999996136
 20
0.0
 30
0.0
 11
40.02599999995994
 21
0.0
 31
0.0
1001
ACAD
1000
ASC_BOUNDS
1002
{
1070
    19
1005
A37A
1002
}
  0
LINE
  5
A360
330
A333
100
AcDbEntity
  8
0
100
AcDbLine
 10
43.57899999995641
 20
3.421199999996588
 30
0.0
 11
38.60499999996136
 21
8.999899999990987
 31
0.0
1001
ACAD
1000
ASC_BOUNDS
1002
{
1070
    19
1005
A37A
1002
}
  0
LINE
  5
A361
330
A333
100
AcDbEntity
  8
0
100
AcDbLine
 10
43.57899999995641
 20
8.763099999991255
 30
0.0
 11
43.57899999995641
 21
3.421199999996588
 31
0.0
1001
ACAD
1000
ASC_BOUNDS
1002
{
1070
    19
1005
A37A
1002
}
  0
LINE
  5
A362
330
A333
100
AcDbEntity
  8
0
100
AcDbLine
 10
43.57899999995641
 20
8.763099999991255
 30
0.0
 11
44.99999999995498
 21
8.763099999991255
 31
0.0
1001
ACAD
1000
ASC_BOUNDS
1002
{
1070
    19
1005
A37A
1002
}
  0
LINE
  5
A363
330
A333
100
AcDbEntity
  8
0
100
AcDbLine
 10
37.67199999996831
 20
8.763099999991255
 30
0.0
 11
36.23199999996837
 21
8.763099999991255
 31
0.0
  0
LINE
  5
A364
330
A333
100
AcDbEntity
  8
0
100
AcDbLine
 10
31.64199999996833
 20
8.763099999991255
 30
0.0
 11
31.64199999996833
 21
2.481619422925121
 31
0.0
  0
LINE
  5
A365
330
A333
100
AcDbEntity
  8
0
100
AcDbLine
 10
37.67199999996831
 20
8.763099999991255
 30
0.0
 11
37.67199999996831
 21
2.481619422925121
 31
0.0
  0
LINE
  5
A366
330
A333
100
AcDbEntity
  8
0
100
AcDbLine
 10
36.23199999996837
 20
8.763099999991255
 30
0.0
 11
36.23199999996837
 21
2.481619422925064
 31
0.0
  0
LINE
  5
A367
330
A333
100
AcDbEntity
  8
0
100
AcDbLine
 10
33.08199999996839
 20
8.763099999991255
 30
0.0
 11
33.08199999996839
 21
2.481619422925121
 31
0.0
  0
ARC
  5
A368
330
A333
100
AcDbEntity
  8
0
100
AcDbCircle
 10
34.65699999996832
 20
3.183099999991214
 30
0.0
 40
3.420000000000007
100
AcDbArc
 50
240.0000000000255
 51
299.9999999999766
  0
ARC
  5
A369
330
A333
100
AcDbEntity
  8
0
100
AcDbCircle
 10
34.65699999996832
 20
3.183099999991214
 30
0.0
 40
1.97999999999999
100
AcDbArc
 50
240.000000000026
 51
299.9999999999703
  0
LINE
  5
A36A
330
A333
100
AcDbEntity
  8
0
100
AcDbLine
 10
33.08199999996828
 20
8.763099999991255
 30
0.0
 11
31.64199999996833
 21
8.763099999991255
 31
0.0
  0
ARC
  5
A36B
330
A333
100
AcDbEntity
  8
0
100
AcDbCircle
 10
35.06199999996829
 20
2.481619422925064
 30
0.0
 40
1.17
100
AcDbArc
 50
299.9999999999699
 51
0.0
  0
ARC
  5
A36C
330
A333
100
AcDbEntity
  8
0
100
AcDbCircle
 10
34.25199999996835
 20
2.481619422925121
 30
0.0
 40
1.17
100
AcDbArc
 50
180.0
 51
240.0000000000238
  0
ARC
  5
A36D
330
A333
100
AcDbEntity
  8
0
100
AcDbCircle
 10
35.06199999996841
 20
2.481619422925121
 30
0.0
 40
2.61
100
AcDbArc
 50
299.9999999999756
 51
0.0
  0
ARC
  5
A36E
330
A333
100
AcDbEntity
  8
0
100
AcDbCircle
 10
34.25199999996835
 20
2.481619422925121
 30
0.0
 40
2.61
100
AcDbArc
 50
180.0
 51
240.0000000000244
  0
LINE
  5
A36F
330
A333
100
AcDbEntity
  8
0
100
AcDbLine
 10
29.30199999996933
 20
8.763099999991255
 30
0.0
 11
30.74199999996927
 21
8.763099999991255
 31
0.0
1001
ACAD
1000
ASC_BOUNDS
1002
{
1070
    19
1005
A378
1002
}
  0
LINE
  5
A370
330
A333
100
AcDbEntity
  8
0
100
AcDbLine
 10
30.74199999996927
 20
8.763099999991255
 30
0.0
 11
30.74199999996927
 21
2.373099999991211
 31
0.0
1001
ACAD
1000
ASC_BOUNDS
1002
{
1070
    19
1005
A378
1002
}
  0
LINE
  5
A371
330
A333
100
AcDbEntity
  8
0
100
AcDbLine
 10
26.02015566812236
 20
0.0330999999912365
 30
0.0
 11
28.40199999996923
 21
0.0330999999912365
 31
0.0
1001
ACAD
1000
ASC_BOUNDS
1002
{
1070
    19
1005
A378
1002
}
  0
LINE
  5
A372
330
A333
100
AcDbEntity
  8
0
100
AcDbLine
 10
29.30199999996933
 20
8.763099999991255
 30
0.0
 11
29.30199999996933
 21
2.283099999991236
 31
0.0
1001
ACAD
1000
ASC_BOUNDS
1002
{
1070
    19
1005
A378
1002
}
  0
LINE
  5
A373
330
A333
100
AcDbEntity
  8
0
100
AcDbLine
 10
26.97358892824991
 20
1.383099999991202
 30
0.0
 11
28.40199999996923
 21
1.383099999991202
 31
0.0
1001
ACAD
1000
ASC_BOUNDS
1002
{
1070
    19
1005
A378
1002
}
  0
ARC
  5
A374
330
A333
100
AcDbEntity
  8
0
100
AcDbCircle
 10
28.40199999996923
 20
2.283099999991236
 30
0.0
 40
0.9
100
AcDbArc
 50
270.0
 51
0.0
1001
ACAD
1000
ASC_BOUNDS
1002
{
1070
    19
1005
A378
1002
}
  0
ARC
  5
A375
330
A333
100
AcDbEntity
  8
0
100
AcDbCircle
 10
28.40199999996923
 20
2.373099999991211
 30
0.0
 40
2.34
100
AcDbArc
 50
270.0
 51
0.0
1001
ACAD
1000
ASC_BOUNDS
1002
{
1070
    19
1005
A378
1002
}
  0
INSERT
  5
A376
330
A333
100
AcDbEntity
  8
0
100
AcDbBlockReference
  2
*X29
 10
0.0
 20
0.0
 30
0.0
1001
ACAD
1000
HATCH
1002
{
1070
    19
1000
ANSI37
1040
0.15
1040
0.0
1000
ASC_BOUNDS
1070
     2
1070
     2
1070
    12
1005
A335
1005
A336
1005
A33D
1005
A34C
1005
A34F
1005
A34D
1005
A33E
1005
A343
1005
A341
1005
A345
1005
A344
1005
A346
1070
     2
1070
     3
1005
A351
1005
A353
1005
A352
1000
ASC_SEEDPOINT
1011
3.614004224891801
1021
2.996669441146025
1031
0.0
1000
R14_HATCH_DATA
1000
A376
1011
1.0
1021
0.0
1031
0.0
1011
0.0
1021
1.0
1031
0.0
1011
0.0
1021
0.0
1031
1.0
1040
0.0
1010
0.0
1020
0.0
1030
1.0
1000
ANSI37
1070
     0
1070
     1
1071
        2
1071
        7
1070
     0
1070
     1
1071
       17
1040
13.26299999998673
1040
-0.0001000000000317
1040
9.236999999990758
1040
8.999899999990987
1040
9.236999999990758
1040
8.999999999991019
1040
5.657999999994331
1040
0.9999999999989768
1040
3.181999999996833
1040
4.668599999995308
1040
6.432999999993513
1040
8.763099999991255
1040
4.617999999995391
1040
8.763099999991255
1040
1.420999999998571
1040
4.736799999995242
1040
4.617999999995391
1040
-0.0001000000000317
1040
4.617999999995391
1040
0.0
1040
6.766999999993232
1040
0.0
1040
6.766999999993232
1040
-0.0001000000000317
1040
7.826999999992154
1040
2.368399999997621
1040
10.64699999998936
1040
2.368399999997621
1040
11.70599999998831
1040
-0.0001000000000317
1040
11.70599999998831
1040
0.0
1040
13.26299999998673
1040
0.0
1071
       12
1005
A335
1005
A336
1005
A33D
1005
A34C
1005
A34F
1005
A34D
1005
A33E
1005
A343
1005
A341
1005
A345
1005
A344
1005
A346
1071
       22
1070
     0
1070
     1
1071
        3
1040
9.236999999990758
1040
5.5200999999945
1040
10.06399999998996
1040
3.670999999996297
1040
8.409999999991555
1040
3.670999999996297
1071
        3
1005
A351
1005
A353
1005
A352
1070
     0
1070
     1
1040
0.0
1040
0.15
1070
     0
1070
     2
1040
0.7853981633974483
1040
49.29960901727088
1040
-10.17736998311392
1040
-0.3367596045400932
1040
0.3367596045400932
1070
     0
1040
2.356194490192345
1040
49.29960901727088
1040
-10.17736998311392
1040
-0.3367596045400932
1040
-0.3367596045400932
1070
     0
1040
0.0110235143455945
1071
        2
1040
3.614004224891801
1040
2.996669441146025
1040
0.0
1040
3.614004224891801
1040
2.996669441146025
1040
0.0
1002
}
  0
INSERT
  5
A377
330
A333
100
AcDbEntity
  8
0
100
AcDbBlockReference
  2
*X30
 10
0.0
 20
0.0
 30
0.0
1001
ACAD
1000
HATCH
1002
{
1070
    19
1000
ANSI37
1040
0.15
1040
0.0
1000
ASC_BOUNDS
1070
     1
1070
     2
1070
    10
1005
A337
1005
A338
1005
A359
1005
A357
1005
A358
1005
A34B
1005
A350
1005
A354
1005
A33A
1005
A339
1000
ASC_SEEDPOINT
1011
14.73245321214324
1021
2.798246178283421
1031
0.0
1000
R14_HATCH_DATA
1000
A377
1011
1.0
1021
0.0
1031
0.0
1011
0.0
1021
1.0
1031
0.0
1011
0.0
1021
0.0
1031
1.0
1040
0.0
1010
0.0
1020
0.0
1030
1.0
1000
ANSI37
1070
     0
1070
     1
1071
        1
1071
        7
1070
     0
1070
     1
1071
       10
1040
16.46099999998353
1040
5.432899999994561
1040
18.59199999998134
1040
-0.2368999999997641
1040
22.38199999997767
1040
8.763099999991255
1040
20.89099999997916
1040
8.763099999991255
1040
18.59799999998143
1040
3.315799999996671
1040
16.46099999998353
1040
8.999899999990987
1040
14.32399999998563
1040
3.315799999996671
1040
12.02999999998792
1040
8.763099999991255
1040
10.53899999998941
1040
8.763099999991255
1040
14.32899999998563
1040
-0.2368999999997641
1071
       10
1005
A337
1005
A338
1005
A359
1005
A357
1005
A358
1005
A34B
1005
A350
1005
A354
1005
A33A
1005
A339
1070
     0
1070
     1
1040
0.0
1040
0.15
1070
     0
1070
     2
1040
0.7853981633974483
1040
49.29960901727088
1040
-10.17736998311392
1040
-0.3367596045400932
1040
0.3367596045400932
1070
     0
1040
2.356194490192345
1040
49.29960901727088
1040
-10.17736998311392
1040
-0.3367596045400932
1040
-0.3367596045400932
1070
     0
1040
0.0110235143455945
1071
        1
1040
14.73245321214324
1040
2.798246178283421
1040
0.0
1002
}
  0
INSERT
  5
A378
330
A333
100
AcDbEntity
  8
0
100
AcDbBlockReference
  2
*X31
 10
0.0
 20
0.0
 30
0.0
1001
ACAD
1000
HATCH
1002
{
1070
    19
1000
ANSI37
1040
0.15
1040
0.0
1000
ASC_BOUNDS
1070
     2
1070
     2
1070
    13
1005
A33B
1005
A348
1005
A349
1005
A347
1005
A34A
1005
A371
1005
A375
1005
A370
1005
A36F
1005
A372
1005
A374
1005
A373
1005
A33C
1070
     2
1070
     3
1005
A355
1005
A35A
1005
A356
1000
ASC_SEEDPOINT
1011
21.97929957367762
1021
3.294304244259308
1031
0.0
1000
R14_HATCH_DATA
1000
A378
1011
1.0
1021
0.0
1031
0.0
1011
0.0
1021
1.0
1031
0.0
1011
0.0
1021
0.0
1031
1.0
1040
0.0
1010
0.0
1020
0.0
1030
1.0
1000
ANSI37
1070
     0
1070
     1
1071
        2
1071
        7
1070
     1
1070
     1
1071
       15
1040
23.56599999997638
1040
8.999899999990987
1040
0.0
1040
19.53899999998043
1040
-0.0001000000000317
1040
0.0
1040
19.53899999998043
1040
0.0
1040
0.0
1040
21.09599999997886
1040
0.0
1040
0.0
1040
21.09599999997886
1040
-0.0001000000000317
1040
0.0
1040
22.15599999997789
1040
2.368399999997621
1040
0.0
1040
24.97599999997499
1040
2.368399999997621
1040
0.0
1040
26.02015566812236
1040
0.0330999999912365
1040
0.0
1040
28.40199999996923
1040
0.0330999999912365
1040
0.414213562373095
1040
30.74199999996923
1040
2.373099999991211
1040
0.0
1040
30.74199999996927
1040
8.763099999991255
1040
0.0
1040
29.30199999996933
1040
8.763099999991255
1040
0.0
1040
29.30199999996933
1040
2.283099999991236
1040
-0.414213562373095
1040
28.40199999996923
1040
1.383099999991237
1040
0.0
1040
26.97358892824991
1040
1.383099999991202
1040
0.0
1071
       13
1005
A33B
1005
A348
1005
A349
1005
A347
1005
A34A
1005
A371
1005
A375
1005
A370
1005
A36F
1005
A372
1005
A374
1005
A373
1005
A33C
1071
       22
1070
     0
1070
     1
1071
        3
1040
22.7389999999773
1040
3.670999999996297
1040
23.56599999997638
1040
5.5200999999945
1040
24.39299999997559
1040
3.670999999996297
1071
        3
1005
A355
1005
A35A
1005
A356
1070
     0
1070
     1
1040
0.0
1040
0.15
1070
     0
1070
     2
1040
0.7853981633974483
1040
49.29960901727088
1040
-10.17736998311392
1040
-0.3367596045400932
1040
0.3367596045400932
1070
     0
1040
2.356194490192345
1040
49.29960901727088
1040
-10.17736998311392
1040
-0.3367596045400932
1040
-0.3367596045400932
1070
     0
1040
0.0110235143455945
1071
        2
1040
21.97929957367762
1040
3.294304244259308
1040
0.0
1040
21.97929957367762
1040
3.294304244259308
1040
0.0
1002
}
  0
INSERT
  5
A379
330
A333
100
AcDbEntity
  8
0
100
AcDbBlockReference
  2
*X32
 10
0.0
 20
0.0
 30
0.0
1001
ACAD
1000
HATCH
1002
{
1070
    19
1000
ANSI37
1040
0.15
1040
0.0
1000
R14_HATCH_DATA
1000
A379
1011
1.0
1021
0.0
1031
0.0
1011
0.0
1021
1.0
1031
0.0
1011
0.0
1021
0.0
1031
1.0
1040
0.0
1010
0.0
1020
0.0
1030
1.0
1000
ANSI37
1070
     0
1070
     1
1071
        1
1071
        7
1070
     1
1070
     1
1071
       12
1040
31.64199999996833
1040
2.481619422925121
1040
0.2679491924310942
1040
32.94699999997067
1040
0.2212931190493919
1040
0.2679491924301353
1040
36.36699999995983
1040
0.2212931190459813
1040
0.2679491924321411
1040
37.67199999996831
1040
2.481619422928361
1040
0.0
1040
37.67199999996831
1040
8.763099999991255
1040
0.0
1040
36.23199999996837
1040
8.763099999991255
1040
0.0
1040
36.23199999996837
1040
2.481619422925064
1040
-0.2679491924310291
1040
35.64699999996708
1040
1.468369700498386
1040
-0.267949192430519
1040
33.66699999997093
1040
1.468369700497703
1040
-0.267949192431809
1040
33.08199999996839
1040
2.481619422926997
1040
0.0
1040
33.08199999996839
1040
8.763099999991255
1040
0.0
1040
31.64199999996833
1040
8.763099999991255
1040
0.0
1071
        0
1070
     0
1070
     1
1040
0.0
1040
0.15
1070
     0
1070
     2
1040
0.7853981633974483
1040
49.29960901727088
1040
-10.17736998311392
1040
-0.3367596045400932
1040
0.3367596045400932
1070
     0
1040
2.356194490192345
1040
49.29960901727088
1040
-10.17736998311392
1040
-0.3367596045400932
1040
-0.3367596045400932
1070
     0
1040
0.0110235143455945
1071
        1
1040
32.30357378967278
1040
3.988785755459219
1040
0.0
1002
}
  0
INSERT
  5
A37A
330
A333
100
AcDbEntity
  8
0
100
AcDbBlockReference
  2
*X33
 10
0.0
 20
0.0
 30
0.0
1001
ACAD
1000
HATCH
1002
{
1070
    19
1000
ANSI37
1040
0.15
1040
0.0
1000
ASC_BOUNDS
1070
     1
1070
     2
1070
     8
1005
A35B
1005
A35E
1005
A362
1005
A361
1005
A360
1005
A35D
1005
A35F
1005
A35C
1000
ASC_SEEDPOINT
1011
39.74896370716704
1021
4.484843821435049
1031
0.0
1000
R14_HATCH_DATA
1000
A37A
1011
1.0
1021
0.0
1031
0.0
1011
0.0
1021
1.0
1031
0.0
1011
0.0
1021
0.0
1031
1.0
1040
0.0
1010
0.0
1020
0.0
1030
1.0
1000
ANSI37
1070
     0
1070
     1
1071
        1
1071
        7
1070
     0
1070
     1
1071
        9
1040
40.02599999995994
1040
5.341799999994635
1040
44.99999999995498
1040
-0.2368999999997641
1040
44.99999999995498
1040
8.763099999991255
1040
43.57899999995641
1040
8.763099999991255
1040
43.57899999995641
1040
3.421199999996588
1040
38.60499999996136
1040
8.999899999990987
1040
38.60499999996136
1040
8.999999999991019
1040
38.60499999996136
1040
0.0
1040
40.02599999995994
1040
0.0
1071
        8
1005
A35B
1005
A35E
1005
A362
1005
A361
1005
A360
1005
A35D
1005
A35F
1005
A35C
1070
     0
1070
     1
1040
0.0
1040
0.15
1070
     0
1070
     2
1040
0.7853981633974483
1040
49.29960901727088
1040
-10.17736998311392
1040
-0.3367596045400932
1040
0.3367596045400932
1070
     0
1040
2.356194490192345
1040
49.29960901727088
1040
-10.17736998311392
1040
-0.3367596045400932
1040
-0.3367596045400932
1070
     0
1040
0.0110235143455945
1071
        1
1040
39.74896370716704
1040
4.484843821435049
1040
0.0
1002
}
  0
INSERT
  5
A37B
330
A333
100
AcDbEntity
  8
0
100
AcDbBlockReference
  2
*X34
 10
0.0
 20
0.0
 30
0.0
1001
ACAD
1000
HATCH
1002
{
1070
    19
1000
ANSI37
1040
0.15
1040
0.0
1000
ASC_BOUNDS
1070
     1
1070
     2
1070
     4
1005
A33F
1005
A34E
1005
A340
1005
A342
1000
ASC_SEEDPOINT
1011
1.079051535452663
1021
4.148538732891836
1031
0.0
1000
R14_HATCH_DATA
1000
A37B
1011
1.0
1021
0.0
1031
0.0
1011
0.0
1021
1.0
1031
0.0
1011
0.0
1021
0.0
1031
1.0
1040
0.0
1010
0.0
1020
0.0
1030
1.0
1000
ANSI37
1070
     0
1070
     1
1071
        1
1071
        7
1070
     0
1070
     1
1071
        4
1040
1.420999999998571
1040
0.0
1040
1.420999999998571
1040
8.763099999991255
1040
0.0
1040
8.763099999991255
1040
0.0
1040
0.0
1071
        4
1005
A33F
1005
A34E
1005
A340
1005
A342
1070
     0
1070
     1
1040
0.0
1040
0.15
1070
     0
1070
     2
1040
0.7853981633974483
1040
49.29960901727088
1040
-10.17736998311392
1040
-0.3367596045400932
1040
0.3367596045400932
1070
     0
1040
2.356194490192345
1040
49.29960901727088
1040
-10.17736998311392
1040
-0.3367596045400932
1040
-0.3367596045400932
1070
     0
1040
0.0053004257112761
1071
        1
1040
1.079051535452663
1040
4.148538732891836
1040
0.0
1002
}
  0
ENDBLK
  5
AA57
330
A333
100
AcDbEntity
  8
0
100
AcDbBlockEnd
  0
BLOCK
  5
FF1E
330
FD90
100
AcDbEntity
  8
0
100
AcDbBlockBegin
  2
*X29
 70
     1
 10
0.0
 20
0.0
 30
0.0
  3
*X29
  1

  0
LINE
  5
FD91
330
FD90
100
AcDbEntity
  8
0
  6
CONTINUOUS
100
AcDbLine
 10
3.418023043697893
 20
7.251849696850613
 30
0.0
 11
4.929273346838536
 21
8.763099999991255
 31
0.0
  0
LINE
  5
FD92
330
FD90
100
AcDbEntity
  8
0
  6
CONTINUOUS
100
AcDbLine
 10
1.483656411257782
 20
4.643963855330318
 30
0.0
 11
5.60279255591872
 21
8.763099999991255
 31
0.0
  0
LINE
  5
FD93
330
FD90
100
AcDbEntity
  8
0
  6
CONTINUOUS
100
AcDbLine
 10
1.755053947328235
 20
4.241842182320584
 30
0.0
 11
6.276311764998907
 21
8.763099999991255
 31
0.0
  0
LINE
  5
FD94
330
FD90
100
AcDbEntity
  8
0
  6
CONTINUOUS
100
AcDbLine
 10
2.026451483398688
 20
3.839720509310849
 30
0.0
 11
4.441040904851878
 21
6.254309930764039
 31
0.0
  0
LINE
  5
FD95
330
FD90
100
AcDbEntity
  8
0
  6
CONTINUOUS
100
AcDbLine
 10
2.297849019469139
 20
3.437598836301114
 30
0.0
 11
3.321765168359338
 21
4.461514985191313
 31
0.0
  0
LINE
  5
FD96
330
FD90
100
AcDbEntity
  8
0
  6
CONTINUOUS
100
AcDbLine
 10
2.569246555539591
 20
3.03547716329138
 30
0.0
 11
3.593163397972743
 21
4.059394005724531
 31
0.0
  0
LINE
  5
FD97
330
FD90
100
AcDbEntity
  8
0
  6
CONTINUOUS
100
AcDbLine
 10
2.840644091610043
 20
2.633355490281646
 30
0.0
 11
3.864561627586149
 21
3.657273026257751
 31
0.0
  0
LINE
  5
FD98
330
FD90
100
AcDbEntity
  8
0
  6
CONTINUOUS
100
AcDbLine
 10
3.112041627680496
 20
2.231233817271911
 30
0.0
 11
4.135959857199554
 21
3.25515204679097
 31
0.0
  0
LINE
  5
FD99
330
FD90
100
AcDbEntity
  8
0
  6
CONTINUOUS
100
AcDbLine
 10
3.383439163750948
 20
1.829112144262177
 30
0.0
 11
4.40735808681296
 21
2.853031067324189
 31
0.0
  0
LINE
  5
FD9A
330
FD90
100
AcDbEntity
  8
0
  6
CONTINUOUS
100
AcDbLine
 10
3.654836699821399
 20
1.426990471252442
 30
0.0
 11
4.678756316426365
 21
2.450910087857407
 31
0.0
  0
LINE
  5
FD9B
330
FD90
100
AcDbEntity
  8
0
  6
CONTINUOUS
100
AcDbLine
 10
3.926234235891853
 20
1.024868798242709
 30
0.0
 11
4.95015454603977
 21
2.048789108390626
 31
0.0
  0
LINE
  5
FD9C
330
FD90
100
AcDbEntity
  8
0
  6
CONTINUOUS
100
AcDbLine
 10
4.197631771962304
 20
0.6227471252329737
 30
0.0
 11
5.221552775653176
 21
1.646668128923846
 31
0.0
  0
LINE
  5
FD9D
330
FD90
100
AcDbEntity
  8
0
  6
CONTINUOUS
100
AcDbLine
 10
8.715877546767851
 20
7.835069736359266
 30
0.0
 11
9.435953450375058
 21
8.555145639966472
 31
0.0
  0
LINE
  5
FD9E
330
FD90
100
AcDbEntity
  8
0
  6
CONTINUOUS
100
AcDbLine
 10
8.170620868422267
 20
6.616293848933497
 30
0.0
 11
9.644120833743461
 21
8.08979381425469
 31
0.0
  0
LINE
  5
FD9F
330
FD90
100
AcDbEntity
  8
0
  6
CONTINUOUS
100
AcDbLine
 10
7.625364190076684
 20
5.397517961507727
 30
0.0
 11
9.852288217111864
 21
7.624441988542907
 31
0.0
  0
LINE
  5
FDA0
330
FD90
100
AcDbEntity
  8
0
  6
CONTINUOUS
100
AcDbLine
 10
7.080107511731101
 20
4.178742074081957
 30
0.0
 11
10.06045560048027
 21
7.159090162831124
 31
0.0
  0
LINE
  5
FDA1
330
FD90
100
AcDbEntity
  8
0
  6
CONTINUOUS
100
AcDbLine
 10
6.534850833385518
 20
2.959966186656187
 30
0.0
 11
10.26862298384867
 21
6.693738337119342
 31
0.0
  0
LINE
  5
FDA2
330
FD90
100
AcDbEntity
  8
0
  6
CONTINUOUS
100
AcDbLine
 10
4.469029308032756
 20
0.2206254522232385
 30
0.0
 11
5.492951005266582
 21
1.244547149457064
 31
0.0
  0
LINE
  5
FDA3
330
FD90
100
AcDbEntity
  8
0
  6
CONTINUOUS
100
AcDbLine
 10
5.989594155039935
 20
1.741190299230417
 30
0.0
 11
8.806950407233131
 21
4.558546551423613
 31
0.0
  0
LINE
  5
FDA4
330
FD90
100
AcDbEntity
  8
0
  6
CONTINUOUS
100
AcDbLine
 10
9.401251593263643
 20
5.152847737454126
 30
0.0
 11
10.47679036721708
 21
6.228386511407559
 31
0.0
  0
LINE
  5
FDA5
330
FD90
100
AcDbEntity
  8
0
  6
CONTINUOUS
100
AcDbLine
 10
4.921837203428691
 20
-0.0000858614610131
 30
0.0
 11
8.592923064886001
 21
3.670999999996297
 31
0.0
  0
LINE
  5
FDA6
330
FD90
100
AcDbEntity
  8
0
  6
CONTINUOUS
100
AcDbLine
 10
9.609390446785305
 20
4.6874673818956
 30
0.0
 11
10.68495775058548
 21
5.763034685695775
 31
0.0
  0
LINE
  5
FDA7
330
FD90
100
AcDbEntity
  8
0
  6
CONTINUOUS
100
AcDbLine
 10
5.595387755019432
 20
-0.0000545189504582
 30
0.0
 11
7.716137258923768
 21
2.120694984953879
 31
0.0
  0
LINE
  5
FDA8
330
FD90
100
AcDbEntity
  8
0
  6
CONTINUOUS
100
AcDbLine
 10
6.268938306610172
 20
-0.000023176439905
 30
0.0
 11
7.170485805526503
 21
0.9015243224764267
 31
0.0
  0
LINE
  5
FDA9
330
FD90
100
AcDbEntity
  8
0
  6
CONTINUOUS
100
AcDbLine
 10
7.963842273967511
 20
2.368399999997621
 30
0.0
 11
9.266442273966188
 21
3.670999999996297
 31
0.0
  0
LINE
  5
FDAA
330
FD90
100
AcDbEntity
  8
0
  6
CONTINUOUS
100
AcDbLine
 10
8.637361483047696
 20
2.368399999997621
 30
0.0
 11
9.939961483046375
 21
3.670999999996297
 31
0.0
  0
LINE
  5
FDAB
330
FD90
100
AcDbEntity
  8
0
  6
CONTINUOUS
100
AcDbLine
 10
9.817529300306965
 20
4.222087026337075
 30
0.0
 11
10.89312513395388
 21
5.297682859983993
 31
0.0
  0
LINE
  5
FDAC
330
FD90
100
AcDbEntity
  8
0
  6
CONTINUOUS
100
AcDbLine
 10
10.02566815382863
 20
3.756706670778549
 30
0.0
 11
11.10129251732229
 21
4.832331034272211
 31
0.0
  0
LINE
  5
FDAD
330
FD90
100
AcDbEntity
  8
0
  6
CONTINUOUS
100
AcDbLine
 10
9.310880692127883
 20
2.368399999997621
 30
0.0
 11
11.30945990069069
 21
4.366979208560428
 31
0.0
  0
LINE
  5
FDAE
330
FD90
100
AcDbEntity
  8
0
  6
CONTINUOUS
100
AcDbLine
 10
9.98439990120807
 20
2.36839999999762
 30
0.0
 11
11.5176272840591
 21
3.901627382848645
 31
0.0
  0
LINE
  5
FDAF
330
FD90
100
AcDbEntity
  8
0
  6
CONTINUOUS
100
AcDbLine
 10
10.65037369446246
 20
2.36085458417182
 30
0.0
 11
11.7257946674275
 21
3.436275557136862
 31
0.0
  0
LINE
  5
FDB0
330
FD90
100
AcDbEntity
  8
0
  6
CONTINUOUS
100
AcDbLine
 10
10.85847197087848
 20
1.895433651507656
 30
0.0
 11
11.9339620507959
 21
2.97092373142508
 31
0.0
  0
LINE
  5
FDB1
330
FD90
100
AcDbEntity
  8
0
  6
CONTINUOUS
100
AcDbLine
 10
11.0665702472945
 20
1.430012718843491
 30
0.0
 11
12.14212943416431
 21
2.505571905713296
 31
0.0
  0
LINE
  5
FDB2
330
FD90
100
AcDbEntity
  8
0
  6
CONTINUOUS
100
AcDbLine
 10
11.27466852371052
 20
0.9645917861793256
 30
0.0
 11
12.35029681753271
 21
2.040220080001513
 31
0.0
  0
LINE
  5
FDB3
330
FD90
100
AcDbEntity
  8
0
  6
CONTINUOUS
100
AcDbLine
 10
11.48276680012654
 20
0.4991708535151611
 30
0.0
 11
12.55846420090111
 21
1.57486825428973
 31
0.0
  0
LINE
  5
FDB4
330
FD90
100
AcDbEntity
  8
0
  6
CONTINUOUS
100
AcDbLine
 10
11.69086507654257
 20
0.0337499208509957
 30
0.0
 11
12.76663158426952
 21
1.109516428577947
 31
0.0
  0
LINE
  5
FDB5
330
FD90
100
AcDbEntity
  8
0
  6
CONTINUOUS
100
AcDbLine
 10
12.33057447873954
 20
-0.0000598860322123
 30
0.0
 11
12.97479896763792
 21
0.6441646028661663
 31
0.0
  0
LINE
  5
FDB6
330
FD90
100
AcDbEntity
  8
0
  6
CONTINUOUS
100
AcDbLine
 10
13.00413694809395
 20
-0.0000166257579952
 30
0.0
 11
13.18296635100632
 21
0.1788127771543824
 31
0.0
  0
LINE
  5
FDB7
330
FD90
100
AcDbEntity
  8
0
  6
CONTINUOUS
100
AcDbLine
 10
4.772852165289667
 20
-0.000092794222212
 30
0.0
 11
4.296495091028902
 21
0.4762642800385528
 31
0.0
  0
LINE
  5
FDB8
330
FD90
100
AcDbEntity
  8
0
  6
CONTINUOUS
100
AcDbLine
 10
5.446340034776103
 20
-0.0000614546284616
 30
0.0
 11
2.898195908335625
 21
2.548082671812017
 31
0.0
  0
LINE
  5
FDB9
330
FD90
100
AcDbEntity
  8
0
  6
CONTINUOUS
100
AcDbLine
 10
6.119827904262539
 20
-0.0000301150347113
 30
0.0
 11
1.499896725642348
 21
4.61990106358548
 31
0.0
  0
LINE
  5
FDBA
330
FD90
100
AcDbEntity
  8
0
  6
CONTINUOUS
100
AcDbLine
 10
6.775136745476159
 20
0.0181802528318542
 30
0.0
 11
5.699826040202669
 21
1.093490958105344
 31
0.0
  0
LINE
  5
FDBB
330
FD90
100
AcDbEntity
  8
0
  6
CONTINUOUS
100
AcDbLine
 10
6.983376846288489
 20
0.4834593610997118
 30
0.0
 11
5.908008617934405
 21
1.558827589453796
 31
0.0
  0
LINE
  5
FDBC
330
FD90
100
AcDbEntity
  8
0
  6
CONTINUOUS
100
AcDbLine
 10
5.377063484962296
 20
1.416253513345719
 30
0.0
 11
1.702276957014131
 21
5.091040041293883
 31
0.0
  0
LINE
  5
FDBD
330
FD90
100
AcDbEntity
  8
0
  6
CONTINUOUS
100
AcDbLine
 10
3.978745891735324
 20
3.488090315652877
 30
0.0
 11
2.000373521109399
 21
5.466462686278803
 31
0.0
  0
LINE
  5
FDBE
330
FD90
100
AcDbEntity
  8
0
  6
CONTINUOUS
100
AcDbLine
 10
7.191616947100819
 20
0.948738469367568
 30
0.0
 11
6.11619119566614
 21
2.024164220802247
 31
0.0
  0
LINE
  5
FDBF
330
FD90
100
AcDbEntity
  8
0
  6
CONTINUOUS
100
AcDbLine
 10
7.399857047913149
 20
1.414017577635424
 30
0.0
 11
6.324373773397875
 21
2.489500852150698
 31
0.0
  0
LINE
  5
FDC0
330
FD90
100
AcDbEntity
  8
0
  6
CONTINUOUS
100
AcDbLine
 10
7.608097148725479
 20
1.879296685903281
 30
0.0
 11
6.53255635112961
 21
2.95483748349915
 31
0.0
  0
LINE
  5
FDC1
330
FD90
100
AcDbEntity
  8
0
  6
CONTINUOUS
100
AcDbLine
 10
7.816337249537808
 20
2.344575794171138
 30
0.0
 11
6.740738928861345
 21
3.420174114847601
 31
0.0
  0
LINE
  5
FDC2
330
FD90
100
AcDbEntity
  8
0
  6
CONTINUOUS
100
AcDbLine
 10
3.310241080789734
 20
4.830114335678653
 30
0.0
 11
2.298470085204666
 21
5.84188533126372
 31
0.0
  0
LINE
  5
FDC3
330
FD90
100
AcDbEntity
  8
0
  6
CONTINUOUS
100
AcDbLine
 10
3.60832983563551
 20
5.205544789913063
 30
0.0
 11
2.596566649299935
 21
6.217307976248638
 31
0.0
  0
LINE
  5
FDC4
330
FD90
100
AcDbEntity
  8
0
  6
CONTINUOUS
100
AcDbLine
 10
3.906418590481286
 20
5.580975244147473
 30
0.0
 11
2.894663213395203
 21
6.592730621233557
 31
0.0
  0
LINE
  5
FDC5
330
FD90
100
AcDbEntity
  8
0
  6
CONTINUOUS
100
AcDbLine
 10
4.204507345327062
 20
5.956405698381884
 30
0.0
 11
3.192759777490472
 21
6.968153266218474
 31
0.0
  0
LINE
  5
FDC6
330
FD90
100
AcDbEntity
  8
0
  6
CONTINUOUS
100
AcDbLine
 10
8.466032252791512
 20
2.368399999997621
 30
0.0
 11
6.948921506593081
 21
3.885510746196053
 31
0.0
  0
LINE
  5
FDC7
330
FD90
100
AcDbEntity
  8
0
  6
CONTINUOUS
100
AcDbLine
 10
9.139551461871699
 20
2.36839999999762
 30
0.0
 11
7.157104084324816
 21
4.350847377544504
 31
0.0
  0
LINE
  5
FDC8
330
FD90
100
AcDbEntity
  8
0
  6
CONTINUOUS
100
AcDbLine
 10
4.502596100172839
 20
6.331836152616295
 30
0.0
 11
3.49085634158574
 21
7.343575911203393
 31
0.0
  0
LINE
  5
FDC9
330
FD90
100
AcDbEntity
  8
0
  6
CONTINUOUS
100
AcDbLine
 10
4.800684855018615
 20
6.707266606850705
 30
0.0
 11
3.788952905681008
 21
7.718998556188312
 31
0.0
  0
LINE
  5
FDCA
330
FD90
100
AcDbEntity
  8
0
  6
CONTINUOUS
100
AcDbLine
 10
12.18154012887317
 20
-0.0000694579236642
 30
0.0
 11
11.32140332908496
 21
0.8600673418645499
 31
0.0
  0
LINE
  5
FDCB
330
FD90
100
AcDbEntity
  8
0
  6
CONTINUOUS
100
AcDbLine
 10
12.85501608323566
 20
-0.0000262032059659
 30
0.0
 11
10.77672456435345
 21
2.078265315676246
 31
0.0
  0
LINE
  5
FDCC
330
FD90
100
AcDbEntity
  8
0
  6
CONTINUOUS
100
AcDbLine
 10
9.813070670951886
 20
2.36839999999762
 30
0.0
 11
8.51047067095321
 21
3.670999999996297
 31
0.0
  0
LINE
  5
FDCD
330
FD90
100
AcDbEntity
  8
0
  6
CONTINUOUS
100
AcDbLine
 10
10.48658988003207
 20
2.36839999999762
 30
0.0
 11
9.183989880033396
 21
3.670999999996297
 31
0.0
  0
LINE
  5
FDCE
330
FD90
100
AcDbEntity
  8
0
  6
CONTINUOUS
100
AcDbLine
 10
8.441048632286794
 20
3.740422038662712
 30
0.0
 11
7.365286662056551
 21
4.816184008892956
 31
0.0
  0
LINE
  5
FDCF
330
FD90
100
AcDbEntity
  8
0
  6
CONTINUOUS
100
AcDbLine
 10
8.649187485808454
 20
4.205802394221237
 30
0.0
 11
7.573469239788285
 21
5.281520640241407
 31
0.0
  0
LINE
  5
FDD0
330
FD90
100
AcDbEntity
  8
0
  6
CONTINUOUS
100
AcDbLine
 10
5.098773609864391
 20
7.082697061085115
 30
0.0
 11
4.087049469776277
 21
8.09442120117323
 31
0.0
  0
LINE
  5
FDD1
330
FD90
100
AcDbEntity
  8
0
  6
CONTINUOUS
100
AcDbLine
 10
5.396862364710167
 20
7.458127515319526
 30
0.0
 11
4.385146033871544
 21
8.469843846158149
 31
0.0
  0
LINE
  5
FDD2
330
FD90
100
AcDbEntity
  8
0
  6
CONTINUOUS
100
AcDbLine
 10
13.04801363231285
 20
0.4804954567970334
 30
0.0
 11
9.85750908911358
 21
3.670999999996297
 31
0.0
  0
LINE
  5
FDD3
330
FD90
100
AcDbEntity
  8
0
  6
CONTINUOUS
100
AcDbLine
 10
8.857326339330116
 20
4.671182749779763
 30
0.0
 11
7.781651817520021
 21
5.746857271589858
 31
0.0
  0
LINE
  5
FDD4
330
FD90
100
AcDbEntity
  8
0
  6
CONTINUOUS
100
AcDbLine
 10
5.694951119555943
 20
7.833557969553937
 30
0.0
 11
4.765409089118624
 21
8.763099999991255
 31
0.0
  0
LINE
  5
FDD5
330
FD90
100
AcDbEntity
  8
0
  6
CONTINUOUS
100
AcDbLine
 10
12.50286117236978
 20
1.699167125820288
 30
0.0
 11
9.68611877250287
 21
4.515909525687196
 31
0.0
  0
LINE
  5
FDD6
330
FD90
100
AcDbEntity
  8
0
  6
CONTINUOUS
100
AcDbLine
 10
9.065465192851777
 20
5.136563105338288
 30
0.0
 11
7.989834395251757
 21
6.21219390293831
 31
0.0
  0
LINE
  5
FDD7
330
FD90
100
AcDbEntity
  8
0
  6
CONTINUOUS
100
AcDbLine
 10
5.993039874401719
 20
8.208988423788346
 30
0.0
 11
5.43892829819881
 21
8.763099999991255
 31
0.0
  0
LINE
  5
FDD8
330
FD90
100
AcDbEntity
  8
0
  6
CONTINUOUS
100
AcDbLine
 10
11.95770871242671
 20
2.917838794843543
 30
0.0
 11
8.19801697298349
 21
6.677530534286761
 31
0.0
  0
LINE
  5
FDD9
330
FD90
100
AcDbEntity
  8
0
  6
CONTINUOUS
100
AcDbLine
 10
6.291128629247495
 20
8.584418878022756
 30
0.0
 11
6.112447507278997
 21
8.763099999991255
 31
0.0
  0
LINE
  5
FDDA
330
FD90
100
AcDbEntity
  8
0
  6
CONTINUOUS
100
AcDbLine
 10
11.41255625248364
 20
4.136510463866797
 30
0.0
 11
8.406199550715227
 21
7.142867165635211
 31
0.0
  0
LINE
  5
FDDB
330
FD90
100
AcDbEntity
  8
0
  6
CONTINUOUS
100
AcDbLine
 10
10.86740379254057
 20
5.355182132890051
 30
0.0
 11
8.614382128446962
 21
7.608203796983664
 31
0.0
  0
LINE
  5
FDDC
330
FD90
100
AcDbEntity
  8
0
  6
CONTINUOUS
100
AcDbLine
 10
10.3222513325975
 20
6.573853801913305
 30
0.0
 11
8.822564706178696
 21
8.073540428332114
 31
0.0
  0
LINE
  5
FDDD
330
FD90
100
AcDbEntity
  8
0
  6
CONTINUOUS
100
AcDbLine
 10
9.777098872654436
 20
7.792525470936562
 30
0.0
 11
9.030747283910433
 21
8.538877059680566
 31
0.0
  0
ENDBLK
  5
FF1F
330
FD90
100
AcDbEntity
  8
0
100
AcDbBlockEnd
  0
BLOCK
  5
FF20
330
FDDE
100
AcDbEntity
  8
0
100
AcDbBlockBegin
  2
*X30
 70
     1
 10
0.0
 20
0.0
 30
0.0
  3
*X30
  1

  0
LINE
  5
FDDF
330
FDDE
100
AcDbEntity
  8
0
  6
CONTINUOUS
100
AcDbLine
 10
10.67292308101235
 20
8.445076852443387
 30
0.0
 11
10.99094622856022
 21
8.763099999991255
 31
0.0
  0
LINE
  5
FDE0
330
FDDE
100
AcDbEntity
  8
0
  6
CONTINUOUS
100
AcDbLine
 10
10.87250383178748
 20
7.971138394138331
 30
0.0
 11
11.6644654376404
 21
8.763099999991255
 31
0.0
  0
LINE
  5
FDE1
330
FDDE
100
AcDbEntity
  8
0
  6
CONTINUOUS
100
AcDbLine
 10
11.07208458256261
 20
7.497199935833273
 30
0.0
 11
12.12126590876355
 21
8.546381262034211
 31
0.0
  0
LINE
  5
FDE2
330
FDDE
100
AcDbEntity
  8
0
  6
CONTINUOUS
100
AcDbLine
 10
11.27166533333774
 20
7.023261477528216
 30
0.0
 11
12.32085164573666
 21
8.072447789927136
 31
0.0
  0
LINE
  5
FDE3
330
FDDE
100
AcDbEntity
  8
0
  6
CONTINUOUS
100
AcDbLine
 10
11.47124608411287
 20
6.549323019223158
 30
0.0
 11
12.52043738270977
 21
7.59851431782006
 31
0.0
  0
LINE
  5
FDE4
330
FDDE
100
AcDbEntity
  8
0
  6
CONTINUOUS
100
AcDbLine
 10
11.670826834888
 20
6.075384560918101
 30
0.0
 11
12.72002311968288
 21
7.124580845712984
 31
0.0
  0
LINE
  5
FDE5
330
FDDE
100
AcDbEntity
  8
0
  6
CONTINUOUS
100
AcDbLine
 10
11.87040758566313
 20
5.601446102613043
 30
0.0
 11
12.91960885665599
 21
6.650647373605907
 31
0.0
  0
LINE
  5
FDE6
330
FDDE
100
AcDbEntity
  8
0
  6
CONTINUOUS
100
AcDbLine
 10
12.06998833643825
 20
5.127507644307986
 30
0.0
 11
13.1191945936291
 21
6.176713901498832
 31
0.0
  0
LINE
  5
FDE7
330
FDDE
100
AcDbEntity
  8
0
  6
CONTINUOUS
100
AcDbLine
 10
12.26956908721338
 20
4.65356918600293
 30
0.0
 11
13.31878033060221
 21
5.702780429391757
 31
0.0
  0
LINE
  5
FDE8
330
FDDE
100
AcDbEntity
  8
0
  6
CONTINUOUS
100
AcDbLine
 10
12.46914983798851
 20
4.179630727697873
 30
0.0
 11
13.51836606757532
 21
5.228846957284683
 31
0.0
  0
LINE
  5
FDE9
330
FDDE
100
AcDbEntity
  8
0
  6
CONTINUOUS
100
AcDbLine
 10
12.66873058876364
 20
3.705692269392816
 30
0.0
 11
13.71795180454843
 21
4.754913485177607
 31
0.0
  0
LINE
  5
FDEA
330
FDDE
100
AcDbEntity
  8
0
  6
CONTINUOUS
100
AcDbLine
 10
12.86831133953877
 20
3.231753811087759
 30
0.0
 11
13.91753754152154
 21
4.280980013070531
 31
0.0
  0
LINE
  5
FDEB
330
FDDE
100
AcDbEntity
  8
0
  6
CONTINUOUS
100
AcDbLine
 10
13.0678920903139
 20
2.757815352782702
 30
0.0
 11
14.11712327849465
 21
3.807046540963456
 31
0.0
  0
LINE
  5
FDEC
330
FDDE
100
AcDbEntity
  8
0
  6
CONTINUOUS
100
AcDbLine
 10
13.26747284108903
 20
2.283876894477644
 30
0.0
 11
14.31670901546777
 21
3.333113068856379
 31
0.0
  0
LINE
  5
FDED
330
FDDE
100
AcDbEntity
  8
0
  6
CONTINUOUS
100
AcDbLine
 10
16.36767838827179
 20
8.751678487061342
 30
0.0
 11
16.50332410898388
 21
8.887324207773432
 31
0.0
  0
LINE
  5
FDEE
330
FDDE
100
AcDbEntity
  8
0
  6
CONTINUOUS
100
AcDbLine
 10
15.96190732182191
 20
7.67238821153127
 30
0.0
 11
16.68735328004734
 21
8.397834169756699
 31
0.0
  0
LINE
  5
FDEF
330
FDDE
100
AcDbEntity
  8
0
  6
CONTINUOUS
100
AcDbLine
 10
15.55613625537202
 20
6.593097936001196
 30
0.0
 11
16.87138245111079
 21
7.908344131739965
 31
0.0
  0
LINE
  5
FDF0
330
FDDE
100
AcDbEntity
  8
0
  6
CONTINUOUS
100
AcDbLine
 10
15.15036518892213
 20
5.513807660471122
 30
0.0
 11
17.05541162217424
 21
7.418854093723231
 31
0.0
  0
LINE
  5
FDF1
330
FDDE
100
AcDbEntity
  8
0
  6
CONTINUOUS
100
AcDbLine
 10
14.74459412247225
 20
4.434517384941048
 30
0.0
 11
17.2394407932377
 21
6.929364055706499
 31
0.0
  0
LINE
  5
FDF2
330
FDDE
100
AcDbEntity
  8
0
  6
CONTINUOUS
100
AcDbLine
 10
14.33882305602236
 20
3.355227109410975
 30
0.0
 11
17.42346996430115
 21
6.439874017689766
 31
0.0
  0
LINE
  5
FDF3
330
FDDE
100
AcDbEntity
  8
0
  6
CONTINUOUS
100
AcDbLine
 10
13.46705359186416
 20
1.809938436172586
 30
0.0
 11
16.0819338255367
 21
4.424818669845129
 31
0.0
  0
LINE
  5
FDF4
330
FDDE
100
AcDbEntity
  8
0
  6
CONTINUOUS
100
AcDbLine
 10
16.63283254238972
 20
4.975717386698149
 30
0.0
 11
17.60749913536461
 21
5.950383979673033
 31
0.0
  0
LINE
  5
FDF5
330
FDDE
100
AcDbEntity
  8
0
  6
CONTINUOUS
100
AcDbLine
 10
13.66663434263929
 20
1.335999977867529
 30
0.0
 11
15.67604797733754
 21
3.345413612565779
 31
0.0
  0
LINE
  5
FDF6
330
FDDE
100
AcDbEntity
  8
0
  6
CONTINUOUS
100
AcDbLine
 10
13.86621509341442
 20
0.8620615195624723
 30
0.0
 11
15.27016212913838
 21
2.26600855528643
 31
0.0
  0
LINE
  5
FDF7
330
FDDE
100
AcDbEntity
  8
0
  6
CONTINUOUS
100
AcDbLine
 10
16.81682257348267
 20
4.486188208710908
 30
0.0
 11
17.79152830642806
 21
5.460893941656299
 31
0.0
  0
LINE
  5
FDF8
330
FDDE
100
AcDbEntity
  8
0
  6
CONTINUOUS
100
AcDbLine
 10
17.00081260457561
 20
3.996659030723667
 30
0.0
 11
17.97555747749151
 21
4.971403903639565
 31
0.0
  0
LINE
  5
FDF9
330
FDDE
100
AcDbEntity
  8
0
  6
CONTINUOUS
100
AcDbLine
 10
20.74362343514722
 20
8.412989070375462
 30
0.0
 11
21.09373436476302
 21
8.763099999991256
 31
0.0
  0
LINE
  5
FDFA
330
FDDE
100
AcDbEntity
  8
0
  6
CONTINUOUS
100
AcDbLine
 10
20.25401257174777
 20
7.249858997895826
 30
0.0
 11
21.7672535738432
 21
8.763099999991255
 31
0.0
  0
LINE
  5
FDFB
330
FDDE
100
AcDbEntity
  8
0
  6
CONTINUOUS
100
AcDbLine
 10
14.06579584418955
 20
0.3881230612574149
 30
0.0
 11
14.86427628093921
 21
1.186603498007082
 31
0.0
  0
LINE
  5
FDFC
330
FDDE
100
AcDbEntity
  8
0
  6
CONTINUOUS
100
AcDbLine
 10
14.26537659496467
 20
-0.0858153970476412
 30
0.0
 11
14.45839043274005
 21
0.1071984407277329
 31
0.0
  0
LINE
  5
FDFD
330
FDDE
100
AcDbEntity
  8
0
  6
CONTINUOUS
100
AcDbLine
 10
17.18480263566856
 20
3.507129852736426
 30
0.0
 11
18.15958664855496
 21
4.481913865622833
 31
0.0
  0
LINE
  5
FDFE
330
FDDE
100
AcDbEntity
  8
0
  6
CONTINUOUS
100
AcDbLine
 10
17.3687926667615
 20
3.017600674749186
 30
0.0
 11
18.34361581961842
 21
3.9924238276061
 31
0.0
  0
LINE
  5
FDFF
330
FDDE
100
AcDbEntity
  8
0
  6
CONTINUOUS
100
AcDbLine
 10
19.76440170834832
 20
6.086728925416191
 30
0.0
 11
22.33924590259489
 21
8.661573119662755
 31
0.0
  0
LINE
  5
FE00
330
FDDE
100
AcDbEntity
  8
0
  6
CONTINUOUS
100
AcDbLine
 10
19.27479084494887
 20
4.923598852936555
 30
0.0
 11
21.84929622842713
 21
7.498104236414807
 31
0.0
  0
LINE
  5
FE01
330
FDDE
100
AcDbEntity
  8
0
  6
CONTINUOUS
100
AcDbLine
 10
17.55278269785445
 20
2.528071496761945
 30
0.0
 11
18.52764499068187
 21
3.502933789589366
 31
0.0
  0
LINE
  5
FE02
330
FDDE
100
AcDbEntity
  8
0
  6
CONTINUOUS
100
AcDbLine
 10
18.78517998154942
 20
3.760468780456919
 30
0.0
 11
21.35934655425936
 21
6.33463535316686
 31
0.0
  0
LINE
  5
FE03
330
FDDE
100
AcDbEntity
  8
0
  6
CONTINUOUS
100
AcDbLine
 10
17.73677272894739
 20
2.038542318774704
 30
0.0
 11
20.8693968800916
 21
5.171166469918914
 31
0.0
  0
LINE
  5
FE04
330
FDDE
100
AcDbEntity
  8
0
  6
CONTINUOUS
100
AcDbLine
 10
17.92076276004034
 20
1.549013140787464
 30
0.0
 11
20.37944720592384
 21
4.007697586670968
 31
0.0
  0
LINE
  5
FE05
330
FDDE
100
AcDbEntity
  8
0
  6
CONTINUOUS
100
AcDbLine
 10
18.10475279113329
 20
1.059483962800223
 30
0.0
 11
19.88949753175608
 21
2.84422870342302
 31
0.0
  0
LINE
  5
FE06
330
FDDE
100
AcDbEntity
  8
0
  6
CONTINUOUS
100
AcDbLine
 10
18.28874282222623
 20
0.5699547848129822
 30
0.0
 11
19.39954785758832
 21
1.680759820175074
 31
0.0
  0
LINE
  5
FE07
330
FDDE
100
AcDbEntity
  8
0
  6
CONTINUOUS
100
AcDbLine
 10
18.47273285331918
 20
0.0804256068257416
 30
0.0
 11
18.90959818342056
 21
0.517290936927127
 31
0.0
  0
LINE
  5
FE08
330
FDDE
100
AcDbEntity
  8
0
  6
CONTINUOUS
100
AcDbLine
 10
14.3590401358224
 20
-0.1570118376323384
 30
0.0
 11
14.24903296539946
 21
-0.0470046672093929
 31
0.0
  0
LINE
  5
FE09
330
FDDE
100
AcDbEntity
  8
0
  6
CONTINUOUS
100
AcDbLine
 10
14.54309291258661
 20
0.332454594683643
 30
0.0
 11
13.75908329123172
 21
1.116464216038529
 31
0.0
  0
LINE
  5
FE0A
330
FDDE
100
AcDbEntity
  8
0
  6
CONTINUOUS
100
AcDbLine
 10
14.72714568935081
 20
0.8219210269996244
 30
0.0
 11
13.26913361706399
 21
2.27993309928645
 31
0.0
  0
LINE
  5
FE0B
330
FDDE
100
AcDbEntity
  8
0
  6
CONTINUOUS
100
AcDbLine
 10
14.91119846611502
 20
1.311387459315606
 30
0.0
 11
12.77918394289625
 21
3.443401982534371
 31
0.0
  0
LINE
  5
FE0C
330
FDDE
100
AcDbEntity
  8
0
  6
CONTINUOUS
100
AcDbLine
 10
15.09525124287922
 20
1.800853891631587
 30
0.0
 11
12.28923426872852
 21
4.606870865782293
 31
0.0
  0
LINE
  5
FE0D
330
FDDE
100
AcDbEntity
  8
0
  6
CONTINUOUS
100
AcDbLine
 10
15.27930401964343
 20
2.290320323947569
 30
0.0
 11
11.79928459456078
 21
5.770339749030213
 31
0.0
  0
LINE
  5
FE0E
330
FDDE
100
AcDbEntity
  8
0
  6
CONTINUOUS
100
AcDbLine
 10
15.46335679640763
 20
2.77978675626355
 30
0.0
 11
14.48885470994921
 21
3.754288842721972
 31
0.0
  0
LINE
  5
FE0F
330
FDDE
100
AcDbEntity
  8
0
  6
CONTINUOUS
100
AcDbLine
 10
13.88507249233704
 20
4.358071060334137
 30
0.0
 11
11.30933492039305
 21
6.933808632278135
 31
0.0
  0
LINE
  5
FE10
330
FDDE
100
AcDbEntity
  8
0
  6
CONTINUOUS
100
AcDbLine
 10
18.75840522805855
 20
0.1582575336928151
 30
0.0
 11
18.25383727664818
 21
0.6628254851031863
 31
0.0
  0
LINE
  5
FE11
330
FDDE
100
AcDbEntity
  8
0
  6
CONTINUOUS
100
AcDbLine
 10
15.64740957317184
 20
3.269253188579531
 30
0.0
 11
14.67288388101266
 21
4.243778880738705
 31
0.0
  0
LINE
  5
FE12
330
FDDE
100
AcDbEntity
  8
0
  6
CONTINUOUS
100
AcDbLine
 10
13.39509276772158
 20
5.521569994029786
 30
0.0
 11
10.81938524622531
 21
8.097277515526056
 31
0.0
  0
LINE
  5
FE13
330
FDDE
100
AcDbEntity
  8
0
  6
CONTINUOUS
100
AcDbLine
 10
18.95798597883369
 20
0.6321959919978686
 30
0.0
 11
17.84825644852853
 21
1.741925522303024
 31
0.0
  0
LINE
  5
FE14
330
FDDE
100
AcDbEntity
  8
0
  6
CONTINUOUS
100
AcDbLine
 10
19.15756672960882
 20
1.106134450302922
 30
0.0
 11
17.44267562040888
 21
2.821025559502861
 31
0.0
  0
LINE
  5
FE15
330
FDDE
100
AcDbEntity
  8
0
  6
CONTINUOUS
100
AcDbLine
 10
15.83146234993604
 20
3.758719620895513
 30
0.0
 11
14.85691305207612
 21
4.733268918755439
 31
0.0
  0
LINE
  5
FE16
330
FDDE
100
AcDbEntity
  8
0
  6
CONTINUOUS
100
AcDbLine
 10
16.01551512670025
 20
4.248186053211494
 30
0.0
 11
15.04094222313957
 21
5.222758956772172
 31
0.0
  0
LINE
  5
FE17
330
FDDE
100
AcDbEntity
  8
0
  6
CONTINUOUS
100
AcDbLine
 10
12.90511304310612
 20
6.685068927725435
 30
0.0
 11
10.8270819708403
 21
8.763099999991255
 31
0.0
  0
LINE
  5
FE18
330
FDDE
100
AcDbEntity
  8
0
  6
CONTINUOUS
100
AcDbLine
 10
12.41513331849066
 20
7.848567861421083
 30
0.0
 11
11.50060117992049
 21
8.763099999991255
 31
0.0
  0
LINE
  5
FE19
330
FDDE
100
AcDbEntity
  8
0
  6
CONTINUOUS
100
AcDbLine
 10
19.35714748038395
 20
1.580072908607975
 30
0.0
 11
17.03709479228923
 21
3.900125596702697
 31
0.0
  0
LINE
  5
FE1A
330
FDDE
100
AcDbEntity
  8
0
  6
CONTINUOUS
100
AcDbLine
 10
19.55672823115909
 20
2.054011366913028
 30
0.0
 11
16.63151396416958
 21
4.979225633902534
 31
0.0
  0
LINE
  5
FE1B
330
FDDE
100
AcDbEntity
  8
0
  6
CONTINUOUS
100
AcDbLine
 10
16.19956790346445
 20
4.737652485527476
 30
0.0
 11
15.22497139420302
 21
5.712248994788904
 31
0.0
  0
LINE
  5
FE1C
330
FDDE
100
AcDbEntity
  8
0
  6
CONTINUOUS
100
AcDbLine
 10
16.38362068022866
 20
5.227118917843457
 30
0.0
 11
15.40900056526648
 21
6.201739032805637
 31
0.0
  0
LINE
  5
FE1D
330
FDDE
100
AcDbEntity
  8
0
  6
CONTINUOUS
100
AcDbLine
 10
19.75630898193422
 20
2.527949825218081
 30
0.0
 11
18.70774536448286
 21
3.576513442669441
 31
0.0
  0
LINE
  5
FE1E
330
FDDE
100
AcDbEntity
  8
0
  6
CONTINUOUS
100
AcDbLine
 10
19.95588973270936
 20
3.001888283523134
 30
0.0
 11
18.90726987211446
 21
4.050508144118028
 31
0.0
  0
LINE
  5
FE1F
330
FDDE
100
AcDbEntity
  8
0
  6
CONTINUOUS
100
AcDbLine
 10
20.15547048348449
 20
3.475826741828186
 30
0.0
 11
19.10679437974606
 21
4.524502845566614
 31
0.0
  0
LINE
  5
FE20
330
FDDE
100
AcDbEntity
  8
0
  6
CONTINUOUS
100
AcDbLine
 10
20.35505123425962
 20
3.94976520013324
 30
0.0
 11
19.30631888737766
 21
4.998497547015201
 31
0.0
  0
LINE
  5
FE21
330
FDDE
100
AcDbEntity
  8
0
  6
CONTINUOUS
100
AcDbLine
 10
20.55463198503475
 20
4.423703658438292
 30
0.0
 11
19.50584339500926
 21
5.472492248463787
 31
0.0
  0
LINE
  5
FE22
330
FDDE
100
AcDbEntity
  8
0
  6
CONTINUOUS
100
AcDbLine
 10
18.37481191085755
 20
3.909446896294752
 30
0.0
 11
15.59302973632993
 21
6.691229070822371
 31
0.0
  0
LINE
  5
FE23
330
FDDE
100
AcDbEntity
  8
0
  6
CONTINUOUS
100
AcDbLine
 10
17.96904084440766
 20
4.988737171824825
 30
0.0
 11
15.77705890739338
 21
7.180719108839104
 31
0.0
  0
LINE
  5
FE24
330
FDDE
100
AcDbEntity
  8
0
  6
CONTINUOUS
100
AcDbLine
 10
17.56326977795777
 20
6.068027447354899
 30
0.0
 11
15.96108807845684
 21
7.670209146855838
 31
0.0
  0
LINE
  5
FE25
330
FDDE
100
AcDbEntity
  8
0
  6
CONTINUOUS
100
AcDbLine
 10
17.15749871150789
 20
7.147317722884972
 30
0.0
 11
16.14511724952029
 21
8.15969918487257
 31
0.0
  0
LINE
  5
FE26
330
FDDE
100
AcDbEntity
  8
0
  6
CONTINUOUS
100
AcDbLine
 10
16.751727645058
 20
8.226607998415046
 30
0.0
 11
16.32914642058374
 21
8.649189222889303
 31
0.0
  0
LINE
  5
FE27
330
FDDE
100
AcDbEntity
  8
0
  6
CONTINUOUS
100
AcDbLine
 10
20.75421273580989
 20
4.897642116743345
 30
0.0
 11
19.70536790264086
 21
5.946486949912374
 31
0.0
  0
LINE
  5
FE28
330
FDDE
100
AcDbEntity
  8
0
  6
CONTINUOUS
100
AcDbLine
 10
20.95379348658502
 20
5.371580575048398
 30
0.0
 11
19.90489241027246
 21
6.42048165136096
 31
0.0
  0
LINE
  5
FE29
330
FDDE
100
AcDbEntity
  8
0
  6
CONTINUOUS
100
AcDbLine
 10
21.15337423736015
 20
5.845519033353452
 30
0.0
 11
20.10441691790406
 21
6.894476352809547
 31
0.0
  0
LINE
  5
FE2A
330
FDDE
100
AcDbEntity
  8
0
  6
CONTINUOUS
100
AcDbLine
 10
21.35295498813529
 20
6.319457491658505
 30
0.0
 11
20.30394142553566
 21
7.368471054258134
 31
0.0
  0
LINE
  5
FE2B
330
FDDE
100
AcDbEntity
  8
0
  6
CONTINUOUS
100
AcDbLine
 10
21.55253573891042
 20
6.793395949963558
 30
0.0
 11
20.50346593316726
 21
7.842465755706721
 31
0.0
  0
LINE
  5
FE2C
330
FDDE
100
AcDbEntity
  8
0
  6
CONTINUOUS
100
AcDbLine
 10
21.75211648968556
 20
7.267334408268612
 30
0.0
 11
20.70299044079886
 21
8.316460457155308
 31
0.0
  0
LINE
  5
FE2D
330
FDDE
100
AcDbEntity
  8
0
  6
CONTINUOUS
100
AcDbLine
 10
21.95169724046069
 20
7.741272866573663
 30
0.0
 11
20.9298701070431
 21
8.763099999991256
 31
0.0
  0
LINE
  5
FE2E
330
FDDE
100
AcDbEntity
  8
0
  6
CONTINUOUS
100
AcDbLine
 10
22.15127799123582
 20
8.215211324878716
 30
0.0
 11
21.60338931612328
 21
8.763099999991256
 31
0.0
  0
LINE
  5
FE2F
330
FDDE
100
AcDbEntity
  8
0
  6
CONTINUOUS
100
AcDbLine
 10
22.35085874201096
 20
8.689149783183769
 30
0.0
 11
22.27690852520347
 21
8.763099999991255
 31
0.0
  0
ENDBLK
  5
FF21
330
FDDE
100
AcDbEntity
  8
0
100
AcDbBlockEnd
  0
BLOCK
  5
FF22
330
FE30
100
AcDbEntity
  8
0
100
AcDbBlockBegin
  2
*X31
 70
     1
 10
0.0
 20
0.0
 30
0.0
  3
*X31
  1

  0
LINE
  5
FE31
330
FE30
100
AcDbEntity
  8
0
  6
CONTINUOUS
100
AcDbLine
 10
23.19462913593892
 20
8.169917934846424
 30
0.0
 11
23.70775465517246
 21
8.683043454079957
 31
0.0
  0
LINE
  5
FE32
330
FE30
100
AcDbEntity
  8
0
  6
CONTINUOUS
100
AcDbLine
 10
22.64923161835078
 20
6.951001208178088
 30
0.0
 11
23.9159364069932
 21
8.217705996820516
 31
0.0
  0
LINE
  5
FE33
330
FE30
100
AcDbEntity
  8
0
  6
CONTINUOUS
100
AcDbLine
 10
22.10383410076263
 20
5.732084481509751
 30
0.0
 11
24.12411815881395
 21
7.752368539561078
 31
0.0
  0
LINE
  5
FE34
330
FE30
100
AcDbEntity
  8
0
  6
CONTINUOUS
100
AcDbLine
 10
21.55843658317447
 20
4.513167754841414
 30
0.0
 11
24.3322999106347
 21
7.287031082301639
 31
0.0
  0
LINE
  5
FE35
330
FE30
100
AcDbEntity
  8
0
  6
CONTINUOUS
100
AcDbLine
 10
21.01303906558632
 20
3.294251028173077
 30
0.0
 11
24.54048166245544
 21
6.821693625042199
 31
0.0
  0
LINE
  5
FE36
330
FE30
100
AcDbEntity
  8
0
  6
CONTINUOUS
100
AcDbLine
 10
20.46764154799817
 20
2.075334301504738
 30
0.0
 11
23.28571549467848
 21
4.89340824818505
 31
0.0
  0
LINE
  5
FE37
330
FE30
100
AcDbEntity
  8
0
  6
CONTINUOUS
100
AcDbLine
 10
19.92224403041002
 20
0.8564175748364002
 30
0.0
 11
22.74075865492779
 21
3.674932199354171
 31
0.0
  0
LINE
  5
FE38
330
FE30
100
AcDbEntity
  8
0
  6
CONTINUOUS
100
AcDbLine
 10
23.67305085490148
 20
5.280743608408048
 30
0.0
 11
24.74866341427619
 21
6.356356167782759
 31
0.0
  0
LINE
  5
FE39
330
FE30
100
AcDbEntity
  8
0
  6
CONTINUOUS
100
AcDbLine
 10
23.88118970842314
 20
4.815363252849522
 30
0.0
 11
24.95684516609694
 21
5.89101871052332
 31
0.0
  0
LINE
  5
FE3A
330
FE30
100
AcDbEntity
  8
0
  6
CONTINUOUS
100
AcDbLine
 10
19.73925852647308
 20
-0.0000871381807288
 30
0.0
 11
23.4103456646501
 21
3.670999999996297
 31
0.0
  0
LINE
  5
FE3B
330
FE30
100
AcDbEntity
  8
0
  6
CONTINUOUS
100
AcDbLine
 10
24.0893285619448
 20
4.349982897290997
 30
0.0
 11
25.16502691791769
 21
5.42568125326388
 31
0.0
  0
LINE
  5
FE3C
330
FE30
100
AcDbEntity
  8
0
  6
CONTINUOUS
100
AcDbLine
 10
20.41282099582748
 20
-0.0000438779065108
 30
0.0
 11
21.64944178675636
 21
1.236576913022366
 31
0.0
  0
LINE
  5
FE3D
330
FE30
100
AcDbEntity
  8
0
  6
CONTINUOUS
100
AcDbLine
 10
22.78126487373161
 20
2.36839999999762
 30
0.0
 11
24.08386487373029
 21
3.670999999996297
 31
0.0
  0
LINE
  5
FE3E
330
FE30
100
AcDbEntity
  8
0
  6
CONTINUOUS
100
AcDbLine
 10
24.29746741546646
 20
3.884602541732471
 30
0.0
 11
25.37320866973843
 21
4.960343796004441
 31
0.0
  0
LINE
  5
FE3F
330
FE30
100
AcDbEntity
  8
0
  6
CONTINUOUS
100
AcDbLine
 10
21.08638346518189
 20
-0.0000006176322938
 30
0.0
 11
21.10379033335899
 21
0.0174062505448083
 31
0.0
  0
LINE
  5
FE40
330
FE30
100
AcDbEntity
  8
0
  6
CONTINUOUS
100
AcDbLine
 10
23.4547840828118
 20
2.36839999999762
 30
0.0
 11
25.58139042155918
 21
4.495006338745002
 31
0.0
  0
LINE
  5
FE41
330
FE30
100
AcDbEntity
  8
0
  6
CONTINUOUS
100
AcDbLine
 10
29.30199999996933
 20
8.215615917155148
 30
0.0
 11
29.84948408280543
 21
8.763099999991255
 31
0.0
  0
LINE
  5
FE42
330
FE30
100
AcDbEntity
  8
0
  6
CONTINUOUS
100
AcDbLine
 10
24.12830329189199
 20
2.36839999999762
 30
0.0
 11
25.78957217337993
 21
4.029668881485562
 31
0.0
  0
LINE
  5
FE43
330
FE30
100
AcDbEntity
  8
0
  6
CONTINUOUS
100
AcDbLine
 10
29.30199999996933
 20
7.54209670807496
 30
0.0
 11
30.52300329188562
 21
8.763099999991255
 31
0.0
  0
LINE
  5
FE44
330
FE30
100
AcDbEntity
  8
0
  6
CONTINUOUS
100
AcDbLine
 10
24.80182250097217
 20
2.36839999999762
 30
0.0
 11
25.99775392520067
 21
3.564331424226122
 31
0.0
  0
LINE
  5
FE45
330
FE30
100
AcDbEntity
  8
0
  6
CONTINUOUS
100
AcDbLine
 10
29.30199999996933
 20
6.868577498994774
 30
0.0
 11
30.74199999996926
 21
8.308577498994712
 31
0.0
  0
LINE
  5
FE46
330
FE30
100
AcDbEntity
  8
0
  6
CONTINUOUS
100
AcDbLine
 10
25.13028238392013
 20
2.023340673865392
 30
0.0
 11
26.20593567702142
 21
3.098993966966683
 31
0.0
  0
LINE
  5
FE47
330
FE30
100
AcDbEntity
  8
0
  6
CONTINUOUS
100
AcDbLine
 10
25.33838066033617
 20
1.557919741201244
 30
0.0
 11
26.41411742884217
 21
2.633656509707244
 31
0.0
  0
LINE
  5
FE48
330
FE30
100
AcDbEntity
  8
0
  6
CONTINUOUS
100
AcDbLine
 10
25.54647893675221
 20
1.092498808537098
 30
0.0
 11
26.62229918066291
 21
2.168319052447804
 31
0.0
  0
LINE
  5
FE49
330
FE30
100
AcDbEntity
  8
0
  6
CONTINUOUS
100
AcDbLine
 10
25.75457721316825
 20
0.62707787587295
 30
0.0
 11
26.83048093248366
 21
1.702981595188365
 31
0.0
  0
LINE
  5
FE4A
330
FE30
100
AcDbEntity
  8
0
  6
CONTINUOUS
100
AcDbLine
 10
29.30199999996933
 20
6.195058289914587
 30
0.0
 11
30.74199999996926
 21
7.635058289914522
 31
0.0
  0
LINE
  5
FE4B
330
FE30
100
AcDbEntity
  8
0
  6
CONTINUOUS
100
AcDbLine
 10
29.30199999996933
 20
5.521539080834401
 30
0.0
 11
30.74199999996926
 21
6.961539080834331
 31
0.0
  0
LINE
  5
FE4C
330
FE30
100
AcDbEntity
  8
0
  6
CONTINUOUS
100
AcDbLine
 10
29.30199999996933
 20
4.848019871754214
 30
0.0
 11
30.74199999996925
 21
6.288019871754143
 31
0.0
  0
LINE
  5
FE4D
330
FE30
100
AcDbEntity
  8
0
  6
CONTINUOUS
100
AcDbLine
 10
29.30199999996933
 20
4.174500662674028
 30
0.0
 11
30.74199999996925
 21
5.614500662673953
 31
0.0
  0
LINE
  5
FE4E
330
FE30
100
AcDbEntity
  8
0
  6
CONTINUOUS
100
AcDbLine
 10
25.96267548958429
 20
0.1616569432088024
 30
0.0
 11
27.18411854636669
 21
1.383099999991207
 31
0.0
  0
LINE
  5
FE4F
330
FE30
100
AcDbEntity
  8
0
  6
CONTINUOUS
100
AcDbLine
 10
29.30199999996933
 20
3.500981453593841
 30
0.0
 11
30.74199999996925
 21
4.940981453593762
 31
0.0
  0
LINE
  5
FE50
330
FE30
100
AcDbEntity
  8
0
  6
CONTINUOUS
100
AcDbLine
 10
26.50763775544691
 20
0.0330999999912356
 30
0.0
 11
27.85763775544689
 21
1.383099999991223
 31
0.0
  0
LINE
  5
FE51
330
FE30
100
AcDbEntity
  8
0
  6
CONTINUOUS
100
AcDbLine
 10
29.30199999996933
 20
2.827462244513656
 30
0.0
 11
30.74199999996925
 21
4.267462244513574
 31
0.0
  0
LINE
  5
FE52
330
FE30
100
AcDbEntity
  8
0
  6
CONTINUOUS
100
AcDbLine
 10
27.18115696452709
 20
0.0330999999912356
 30
0.0
 11
28.55073879889363
 21
1.402681834357775
 31
0.0
  0
LINE
  5
FE53
330
FE30
100
AcDbEntity
  8
0
  6
CONTINUOUS
100
AcDbLine
 10
29.28241816560272
 20
2.134361201066866
 30
0.0
 11
30.74199999996924
 21
3.593943035433383
 31
0.0
  0
LINE
  5
FE54
330
FE30
100
AcDbEntity
  8
0
  6
CONTINUOUS
100
AcDbLine
 10
27.85467617360728
 20
0.0330999999912356
 30
0.0
 11
30.74199999996924
 21
2.920423826353195
 31
0.0
  0
LINE
  5
FE55
330
FE30
100
AcDbEntity
  8
0
  6
CONTINUOUS
100
AcDbLine
 10
28.53897559587887
 20
0.0438802131826428
 30
0.0
 11
30.73121978677781
 21
2.236124404081585
 31
0.0
  0
LINE
  5
FE56
330
FE30
100
AcDbEntity
  8
0
  6
CONTINUOUS
100
AcDbLine
 10
29.45140055588722
 20
0.2827859641107988
 30
0.0
 11
30.49231403584965
 21
1.323699444073236
 31
0.0
  0
LINE
  5
FE57
330
FE30
100
AcDbEntity
  8
0
  6
CONTINUOUS
100
AcDbLine
 10
19.59027867740337
 20
-0.0000967065718083
 30
0.0
 11
19.55485265190471
 21
0.035329318926844
 31
0.0
  0
LINE
  5
FE58
330
FE30
100
AcDbEntity
  8
0
  6
CONTINUOUS
100
AcDbLine
 10
20.26375463176586
 20
-0.0000534518541091
 30
0.0
 11
19.76305575737534
 21
0.5006454225364014
 31
0.0
  0
LINE
  5
FE59
330
FE30
100
AcDbEntity
  8
0
  6
CONTINUOUS
100
AcDbLine
 10
20.93723058612834
 20
-0.0000101971364099
 30
0.0
 11
19.97125886284597
 21
0.965961526145958
 31
0.0
  0
LINE
  5
FE5A
330
FE30
100
AcDbEntity
  8
0
  6
CONTINUOUS
100
AcDbLine
 10
21.25514828313686
 20
0.355591314935257
 30
0.0
 11
20.1794619683166
 21
1.431277629755512
 31
0.0
  0
LINE
  5
FE5B
330
FE30
100
AcDbEntity
  8
0
  6
CONTINUOUS
100
AcDbLine
 10
21.46338838394921
 20
0.8208704232030986
 30
0.0
 11
20.38766507378723
 21
1.896593733365069
 31
0.0
  0
LINE
  5
FE5C
330
FE30
100
AcDbEntity
  8
0
  6
CONTINUOUS
100
AcDbLine
 10
21.67162848476155
 20
1.28614953147094
 30
0.0
 11
20.59586817925786
 21
2.361909836974626
 31
0.0
  0
LINE
  5
FE5D
330
FE30
100
AcDbEntity
  8
0
  6
CONTINUOUS
100
AcDbLine
 10
21.8798685855739
 20
1.751428639738782
 30
0.0
 11
20.80407128472849
 21
2.827225940584183
 31
0.0
  0
LINE
  5
FE5E
330
FE30
100
AcDbEntity
  8
0
  6
CONTINUOUS
100
AcDbLine
 10
22.08810868638624
 20
2.216707748006623
 30
0.0
 11
21.01227439019912
 21
3.292542044193739
 31
0.0
  0
LINE
  5
FE5F
330
FE30
100
AcDbEntity
  8
0
  6
CONTINUOUS
100
AcDbLine
 10
22.60993564347543
 20
2.36839999999762
 30
0.0
 11
21.22047749566975
 21
3.757858147803296
 31
0.0
  0
LINE
  5
FE60
330
FE30
100
AcDbEntity
  8
0
  6
CONTINUOUS
100
AcDbLine
 10
23.28345485255561
 20
2.36839999999762
 30
0.0
 11
21.42868060114038
 21
4.223174251412853
 31
0.0
  0
LINE
  5
FE61
330
FE30
100
AcDbEntity
  8
0
  6
CONTINUOUS
100
AcDbLine
 10
26.29227406164219
 20
0.0330999999912356
 30
0.0
 11
25.80009199592872
 21
0.5252820657046957
 31
0.0
  0
LINE
  5
FE62
330
FE30
100
AcDbEntity
  8
0
  6
CONTINUOUS
100
AcDbLine
 10
23.9569740616358
 20
2.36839999999762
 30
0.0
 11
21.63688370661101
 21
4.688490355022409
 31
0.0
  0
LINE
  5
FE63
330
FE30
100
AcDbEntity
  8
0
  6
CONTINUOUS
100
AcDbLine
 10
26.96579327072237
 20
0.0330999999912356
 30
0.0
 11
25.2554132311971
 21
1.743480039516508
 31
0.0
  0
LINE
  5
FE64
330
FE30
100
AcDbEntity
  8
0
  6
CONTINUOUS
100
AcDbLine
 10
24.63049327071599
 20
2.36839999999762
 30
0.0
 11
23.32789327071731
 21
3.670999999996297
 31
0.0
  0
LINE
  5
FE65
330
FE30
100
AcDbEntity
  8
0
  6
CONTINUOUS
100
AcDbLine
 10
22.92098674744635
 20
4.077906523267254
 30
0.0
 11
21.84508681208164
 21
5.153806458631966
 31
0.0
  0
LINE
  5
FE66
330
FE30
100
AcDbEntity
  8
0
  6
CONTINUOUS
100
AcDbLine
 10
27.63931247980256
 20
0.0330999999912356
 30
0.0
 11
24.0014124797975
 21
3.670999999996297
 31
0.0
  0
LINE
  5
FE67
330
FE30
100
AcDbEntity
  8
0
  6
CONTINUOUS
100
AcDbLine
 10
23.129125600968
 20
4.5432868788258
 30
0.0
 11
22.05328991755227
 21
5.619122562241522
 31
0.0
  0
LINE
  5
FE68
330
FE30
100
AcDbEntity
  8
0
  6
CONTINUOUS
100
AcDbLine
 10
28.31283168888275
 20
0.0330999999912356
 30
0.0
 11
24.16488385994816
 21
4.181047828925828
 31
0.0
  0
LINE
  5
FE69
330
FE30
100
AcDbEntity
  8
0
  6
CONTINUOUS
100
AcDbLine
 10
23.33726445448964
 20
5.008667234384345
 30
0.0
 11
22.2614930230229
 21
6.084438665851079
 31
0.0
  0
LINE
  5
FE6A
330
FE30
100
AcDbEntity
  8
0
  6
CONTINUOUS
100
AcDbLine
 10
28.92085740005492
 20
0.0985934978992438
 30
0.0
 11
27.63635089796295
 21
1.383099999991217
 31
0.0
  0
LINE
  5
FE6B
330
FE30
100
AcDbEntity
  8
0
  6
CONTINUOUS
100
AcDbLine
 10
26.43704649509776
 20
2.582404402856405
 30
0.0
 11
23.61992702019732
 21
5.399523877756844
 31
0.0
  0
LINE
  5
FE6C
330
FE30
100
AcDbEntity
  8
0
  6
CONTINUOUS
100
AcDbLine
 10
23.54540330801128
 20
5.47404758994289
 30
0.0
 11
22.46969612849353
 21
6.549754769460635
 31
0.0
  0
LINE
  5
FE6D
330
FE30
100
AcDbEntity
  8
0
  6
CONTINUOUS
100
AcDbLine
 10
29.42225615078443
 20
0.2707139562499279
 30
0.0
 11
28.30987010704312
 21
1.383099999991234
 31
0.0
  0
LINE
  5
FE6E
330
FE30
100
AcDbEntity
  8
0
  6
CONTINUOUS
100
AcDbLine
 10
25.89179548232307
 20
3.801174624711282
 30
0.0
 11
22.67789923396416
 21
7.015070873070191
 31
0.0
  0
LINE
  5
FE6F
330
FE30
100
AcDbEntity
  8
0
  6
CONTINUOUS
100
AcDbLine
 10
29.83624534690007
 20
0.5302439692144705
 30
0.0
 11
28.85811781497101
 21
1.508371501143527
 31
0.0
  0
LINE
  5
FE70
330
FE30
100
AcDbEntity
  8
0
  6
CONTINUOUS
100
AcDbLine
 10
25.34654446954838
 20
5.01994484656616
 30
0.0
 11
22.88610233943479
 21
7.480386976679748
 31
0.0
  0
LINE
  5
FE71
330
FE30
100
AcDbEntity
  8
0
  6
CONTINUOUS
100
AcDbLine
 10
30.17865975401872
 20
0.8613487711760022
 30
0.0
 11
29.18888744090175
 21
1.851121084292977
 31
0.0
  0
LINE
  5
FE72
330
FE30
100
AcDbEntity
  8
0
  6
CONTINUOUS
100
AcDbLine
 10
24.80129345677369
 20
6.238715068421037
 30
0.0
 11
23.09430544490542
 21
7.945703080289305
 31
0.0
  0
LINE
  5
FE73
330
FE30
100
AcDbEntity
  8
0
  6
CONTINUOUS
100
AcDbLine
 10
30.45496647202376
 20
1.258561262251155
 30
0.0
 11
29.30199999996933
 21
2.411527734305588
 31
0.0
  0
LINE
  5
FE74
330
FE30
100
AcDbEntity
  8
0
  6
CONTINUOUS
100
AcDbLine
 10
24.256042443999
 20
7.457485290275915
 30
0.0
 11
23.30250855037605
 21
8.411019183898862
 31
0.0
  0
LINE
  5
FE75
330
FE30
100
AcDbEntity
  8
0
  6
CONTINUOUS
100
AcDbLine
 10
30.64868582078271
 20
1.738361122572387
 30
0.0
 11
29.30199999996933
 21
3.085046943385775
 31
0.0
  0
LINE
  5
FE76
330
FE30
100
AcDbEntity
  8
0
  6
CONTINUOUS
100
AcDbLine
 10
23.71079143122431
 20
8.676255512130794
 30
0.0
 11
23.51071165584668
 21
8.876335287508416
 31
0.0
  0
LINE
  5
FE77
330
FE30
100
AcDbEntity
  8
0
  6
CONTINUOUS
100
AcDbLine
 10
30.73802122914428
 20
2.322544923291007
 30
0.0
 11
29.30199999996933
 21
3.758566152465961
 31
0.0
  0
LINE
  5
FE78
330
FE30
100
AcDbEntity
  8
0
  6
CONTINUOUS
100
AcDbLine
 10
30.74199999996924
 20
2.992085361546236
 30
0.0
 11
29.30199999996933
 21
4.432085361546148
 31
0.0
  0
LINE
  5
FE79
330
FE30
100
AcDbEntity
  8
0
  6
CONTINUOUS
100
AcDbLine
 10
30.74199999996924
 20
3.665604570626419
 30
0.0
 11
29.30199999996933
 21
5.105604570626333
 31
0.0
  0
LINE
  5
FE7A
330
FE30
100
AcDbEntity
  8
0
  6
CONTINUOUS
100
AcDbLine
 10
30.74199999996925
 20
4.339123779706602
 30
0.0
 11
29.30199999996933
 21
5.77912377970652
 31
0.0
  0
LINE
  5
FE7B
330
FE30
100
AcDbEntity
  8
0
  6
CONTINUOUS
100
AcDbLine
 10
30.74199999996925
 20
5.012642988786785
 30
0.0
 11
29.30199999996933
 21
6.452642988786707
 31
0.0
  0
LINE
  5
FE7C
330
FE30
100
AcDbEntity
  8
0
  6
CONTINUOUS
100
AcDbLine
 10
30.74199999996925
 20
5.68616219786697
 30
0.0
 11
29.30199999996933
 21
7.126162197866894
 31
0.0
  0
LINE
  5
FE7D
330
FE30
100
AcDbEntity
  8
0
  6
CONTINUOUS
100
AcDbLine
 10
30.74199999996925
 20
6.359681406947153
 30
0.0
 11
29.30199999996933
 21
7.799681406947081
 31
0.0
  0
LINE
  5
FE7E
330
FE30
100
AcDbEntity
  8
0
  6
CONTINUOUS
100
AcDbLine
 10
30.74199999996926
 20
7.033200616027337
 30
0.0
 11
29.30199999996933
 21
8.473200616027269
 31
0.0
  0
LINE
  5
FE7F
330
FE30
100
AcDbEntity
  8
0
  6
CONTINUOUS
100
AcDbLine
 10
30.74199999996926
 20
7.706719825107518
 30
0.0
 11
29.68561982508552
 21
8.763099999991255
 31
0.0
  0
LINE
  5
FE80
330
FE30
100
AcDbEntity
  8
0
  6
CONTINUOUS
100
AcDbLine
 10
30.74199999996926
 20
8.380239034187703
 30
0.0
 11
30.35913903416571
 21
8.763099999991255
 31
0.0
  0
ENDBLK
  5
FF23
330
FE30
100
AcDbEntity
  8
0
100
AcDbBlockEnd
  0
BLOCK
  5
FF24
330
FE81
100
AcDbEntity
  8
0
100
AcDbBlockBegin
  2
*X32
 70
     1
 10
0.0
 20
0.0
 30
0.0
  3
*X32
  1

  0
LINE
  5
FE82
330
FE81
100
AcDbEntity
  8
0
  6
CONTINUOUS
100
AcDbLine
 10
31.64199999996833
 20
8.535058289913598
 30
0.0
 11
31.87004171004599
 21
8.763099999991255
 31
0.0
  0
LINE
  5
FE83
330
FE81
100
AcDbEntity
  8
0
  6
CONTINUOUS
100
AcDbLine
 10
31.64199999996833
 20
7.861539080833412
 30
0.0
 11
32.54356091912618
 21
8.763099999991255
 31
0.0
  0
LINE
  5
FE84
330
FE81
100
AcDbEntity
  8
0
  6
CONTINUOUS
100
AcDbLine
 10
31.64199999996833
 20
7.188019871753226
 30
0.0
 11
33.08199999996839
 21
8.628019871753281
 31
0.0
  0
LINE
  5
FE85
330
FE81
100
AcDbEntity
  8
0
  6
CONTINUOUS
100
AcDbLine
 10
31.64199999996833
 20
6.51450066267304
 30
0.0
 11
33.08199999996839
 21
7.954500662673095
 31
0.0
  0
LINE
  5
FE86
330
FE81
100
AcDbEntity
  8
0
  6
CONTINUOUS
100
AcDbLine
 10
31.64199999996833
 20
5.840981453592853
 30
0.0
 11
33.08199999996839
 21
7.280981453592908
 31
0.0
  0
LINE
  5
FE87
330
FE81
100
AcDbEntity
  8
0
  6
CONTINUOUS
100
AcDbLine
 10
31.64199999996833
 20
5.167462244512667
 30
0.0
 11
33.08199999996839
 21
6.607462244512721
 31
0.0
  0
LINE
  5
FE88
330
FE81
100
AcDbEntity
  8
0
  6
CONTINUOUS
100
AcDbLine
 10
31.64199999996833
 20
4.493943035432481
 30
0.0
 11
33.08199999996839
 21
5.933943035432535
 31
0.0
  0
LINE
  5
FE89
330
FE81
100
AcDbEntity
  8
0
  6
CONTINUOUS
100
AcDbLine
 10
31.64199999996833
 20
3.820423826352293
 30
0.0
 11
33.08199999996839
 21
5.260423826352348
 31
0.0
  0
LINE
  5
FE8A
330
FE81
100
AcDbEntity
  8
0
  6
CONTINUOUS
100
AcDbLine
 10
31.64199999996833
 20
3.146904617272106
 30
0.0
 11
33.08199999996839
 21
4.586904617272161
 31
0.0
  0
LINE
  5
FE8B
330
FE81
100
AcDbEntity
  8
0
  6
CONTINUOUS
100
AcDbLine
 10
36.23199999996837
 20
8.410423826352325
 30
0.0
 11
36.5846761736073
 21
8.763099999991255
 31
0.0
  0
LINE
  5
FE8C
330
FE81
100
AcDbEntity
  8
0
  6
CONTINUOUS
100
AcDbLine
 10
36.23199999996837
 20
7.73690461727214
 30
0.0
 11
37.25819538268748
 21
8.763099999991255
 31
0.0
  0
LINE
  5
FE8D
330
FE81
100
AcDbEntity
  8
0
  6
CONTINUOUS
100
AcDbLine
 10
31.64257403601376
 20
2.473959444237348
 30
0.0
 11
33.08199999996839
 21
3.913385408191974
 31
0.0
  0
LINE
  5
FE8E
330
FE81
100
AcDbEntity
  8
0
  6
CONTINUOUS
100
AcDbLine
 10
36.23199999996837
 20
7.063385408191953
 30
0.0
 11
37.67199999996831
 21
8.503385408191894
 31
0.0
  0
LINE
  5
FE8F
330
FE81
100
AcDbEntity
  8
0
  6
CONTINUOUS
100
AcDbLine
 10
31.72013636841932
 20
1.87800256756272
 30
0.0
 11
33.08199999996839
 21
3.239866199111788
 31
0.0
  0
LINE
  5
FE90
330
FE81
100
AcDbEntity
  8
0
  6
CONTINUOUS
100
AcDbLine
 10
36.23199999996837
 20
6.389866199111767
 30
0.0
 11
37.67199999996831
 21
7.829866199111708
 31
0.0
  0
LINE
  5
FE91
330
FE81
100
AcDbEntity
  8
0
  6
CONTINUOUS
100
AcDbLine
 10
31.89042734314753
 20
1.374774333210744
 30
0.0
 11
33.08199999996839
 21
2.566346990031601
 31
0.0
  0
LINE
  5
FE92
330
FE81
100
AcDbEntity
  8
0
  6
CONTINUOUS
100
AcDbLine
 10
36.23199999996837
 20
5.71634699003158
 30
0.0
 11
37.67199999996831
 21
7.156346990031521
 31
0.0
  0
LINE
  5
FE93
330
FE81
100
AcDbEntity
  8
0
  6
CONTINUOUS
100
AcDbLine
 10
32.14210568064475
 20
0.952933461627778
 30
0.0
 11
33.18745552475986
 21
1.998283305742888
 31
0.0
  0
LINE
  5
FE94
330
FE81
100
AcDbEntity
  8
0
  6
CONTINUOUS
100
AcDbLine
 10
36.23199999996837
 20
5.042827780951393
 30
0.0
 11
37.67199999996831
 21
6.482827780951334
 31
0.0
  0
LINE
  5
FE95
330
FE81
100
AcDbEntity
  8
0
  6
CONTINUOUS
100
AcDbLine
 10
32.45820639400955
 20
0.5955149659123915
 30
0.0
 11
33.47242681921943
 21
1.60973539112227
 31
0.0
  0
LINE
  5
FE96
330
FE81
100
AcDbEntity
  8
0
  6
CONTINUOUS
100
AcDbLine
 10
36.23199999996837
 20
4.369308571871207
 30
0.0
 11
37.67199999996831
 21
5.809308571871147
 31
0.0
  0
LINE
  5
FE97
330
FE81
100
AcDbEntity
  8
0
  6
CONTINUOUS
100
AcDbLine
 10
32.83432456621412
 20
0.2981139290367771
 30
0.0
 11
33.89722476612215
 21
1.361014128944803
 31
0.0
  0
LINE
  5
FE98
330
FE81
100
AcDbEntity
  8
0
  6
CONTINUOUS
100
AcDbLine
 10
36.23199999996837
 20
3.69578936279102
 30
0.0
 11
37.67199999996831
 21
5.135789362790962
 31
0.0
  0
LINE
  5
FE99
330
FE81
100
AcDbEntity
  8
0
  6
CONTINUOUS
100
AcDbLine
 10
33.2711633111245
 20
0.0614334648669672
 30
0.0
 11
34.43247338014423
 21
1.222743533886696
 31
0.0
  0
LINE
  5
FE9A
330
FE81
100
AcDbEntity
  8
0
  6
CONTINUOUS
100
AcDbLine
 10
36.23199999996837
 20
3.022270153710834
 30
0.0
 11
37.67199999996831
 21
4.462270153710775
 31
0.0
  0
LINE
  5
FE9B
330
FE81
100
AcDbEntity
  8
0
  6
CONTINUOUS
100
AcDbLine
 10
33.76515245874577
 20
-0.1180965965919523
 30
0.0
 11
35.1587445516215
 21
1.27549549628378
 31
0.0
  0
LINE
  5
FE9C
330
FE81
100
AcDbEntity
  8
0
  6
CONTINUOUS
100
AcDbLine
 10
36.21639478609585
 20
2.333145730758136
 30
0.0
 11
37.67199999996831
 21
3.788750944630588
 31
0.0
  0
LINE
  5
FE9D
330
FE81
100
AcDbEntity
  8
0
  6
CONTINUOUS
100
AcDbLine
 10
34.34060583368432
 20
-0.2161624307335863
 30
0.0
 11
37.67199999996831
 21
3.115231735550401
 31
0.0
  0
LINE
  5
FE9E
330
FE81
100
AcDbEntity
  8
0
  6
CONTINUOUS
100
AcDbLine
 10
35.01698193613905
 20
-0.2133055373590427
 30
0.0
 11
37.66876712070525
 21
2.438479647207154
 31
0.0
  0
LINE
  5
FE9F
330
FE81
100
AcDbEntity
  8
0
  6
CONTINUOUS
100
AcDbLine
 10
35.90743367693304
 20
0.0036269943547609
 30
0.0
 11
37.51723902192366
 21
1.613432339345381
 31
0.0
  0
LINE
  5
FEA0
330
FE81
100
AcDbEntity
  8
0
  6
CONTINUOUS
100
AcDbLine
 10
32.55309425579761
 20
0.5074718966376706
 30
0.0
 11
32.27784730925847
 21
0.7827188431768102
 31
0.0
  0
LINE
  5
FEA1
330
FE81
100
AcDbEntity
  8
0
  6
CONTINUOUS
100
AcDbLine
 10
33.87496468909684
 20
-0.1408793275813673
 30
0.0
 11
31.67993083278052
 21
2.054154528734943
 31
0.0
  0
LINE
  5
FEA2
330
FE81
100
AcDbEntity
  8
0
  6
CONTINUOUS
100
AcDbLine
 10
34.64362813207632
 20
-0.2360235614806649
 30
0.0
 11
31.64199999996833
 21
2.765604570627322
 31
0.0
  0
LINE
  5
FEA3
330
FE81
100
AcDbEntity
  8
0
  6
CONTINUOUS
100
AcDbLine
 10
35.25801106796118
 20
-0.1768872882853429
 30
0.0
 11
31.64199999996833
 21
3.439123779707508
 31
0.0
  0
LINE
  5
FEA4
330
FE81
100
AcDbEntity
  8
0
  6
CONTINUOUS
100
AcDbLine
 10
35.79065650332146
 20
-0.0360135145654361
 30
0.0
 11
34.54143210838231
 21
1.213210880373721
 31
0.0
  0
LINE
  5
FEA5
330
FE81
100
AcDbEntity
  8
0
  6
CONTINUOUS
100
AcDbLine
 10
33.08199999996839
 20
2.67264298878764
 30
0.0
 11
31.64199999996833
 21
4.112642988787695
 31
0.0
  0
LINE
  5
FEA6
330
FE81
100
AcDbEntity
  8
0
  6
CONTINUOUS
100
AcDbLine
 10
36.25975597779143
 20
0.1684062200447833
 30
0.0
 11
35.15395110240023
 21
1.274211095435983
 31
0.0
  0
LINE
  5
FEA7
330
FE81
100
AcDbEntity
  8
0
  6
CONTINUOUS
100
AcDbLine
 10
33.08199999996839
 20
3.346162197867826
 30
0.0
 11
31.64199999996833
 21
4.786162197867881
 31
0.0
  0
LINE
  5
FEA8
330
FE81
100
AcDbEntity
  8
0
  6
CONTINUOUS
100
AcDbLine
 10
36.67226329638774
 20
0.4294181105286579
 30
0.0
 11
35.63766478748767
 21
1.464016619428737
 31
0.0
  0
LINE
  5
FEA9
330
FE81
100
AcDbEntity
  8
0
  6
CONTINUOUS
100
AcDbLine
 10
33.08199999996839
 20
4.019681406948012
 30
0.0
 11
31.64199999996833
 21
5.459681406948068
 31
0.0
  0
LINE
  5
FEAA
330
FE81
100
AcDbEntity
  8
0
  6
CONTINUOUS
100
AcDbLine
 10
37.01677749710036
 20
0.7584231188962329
 30
0.0
 11
35.99563422741351
 21
1.779566388583076
 31
0.0
  0
LINE
  5
FEAB
330
FE81
100
AcDbEntity
  8
0
  6
CONTINUOUS
100
AcDbLine
 10
33.08199999996839
 20
4.693200616028199
 30
0.0
 11
31.64199999996833
 21
6.133200616028255
 31
0.0
  0
LINE
  5
FEAC
330
FE81
100
AcDbEntity
  8
0
  6
CONTINUOUS
100
AcDbLine
 10
37.29859977568887
 20
1.1501200493879
 30
0.0
 11
36.20680593341555
 21
2.241913891661226
 31
0.0
  0
LINE
  5
FEAD
330
FE81
100
AcDbEntity
  8
0
  6
CONTINUOUS
100
AcDbLine
 10
33.08199999996839
 20
5.366719825108386
 30
0.0
 11
31.64199999996833
 21
6.80671982510844
 31
0.0
  0
LINE
  5
FEAE
330
FE81
100
AcDbEntity
  8
0
  6
CONTINUOUS
100
AcDbLine
 10
37.5148623517228
 20
1.607376682434161
 30
0.0
 11
36.23199999996837
 21
2.890239034188594
 31
0.0
  0
LINE
  5
FEAF
330
FE81
100
AcDbEntity
  8
0
  6
CONTINUOUS
100
AcDbLine
 10
33.08199999996839
 20
6.040239034188573
 30
0.0
 11
31.64199999996833
 21
7.480239034188627
 31
0.0
  0
LINE
  5
FEB0
330
FE81
100
AcDbEntity
  8
0
  6
CONTINUOUS
100
AcDbLine
 10
37.64705163358367
 20
2.148706609653477
 30
0.0
 11
36.23199999996837
 21
3.56375824326878
 31
0.0
  0
LINE
  5
FEB1
330
FE81
100
AcDbEntity
  8
0
  6
CONTINUOUS
100
AcDbLine
 10
33.08199999996839
 20
6.713758243268758
 30
0.0
 11
31.64199999996833
 21
8.153758243268815
 31
0.0
  0
LINE
  5
FEB2
330
FE81
100
AcDbEntity
  8
0
  6
CONTINUOUS
100
AcDbLine
 10
37.67199999996831
 20
2.797277452349026
 30
0.0
 11
36.23199999996837
 21
4.237277452348967
 31
0.0
  0
LINE
  5
FEB3
330
FE81
100
AcDbEntity
  8
0
  6
CONTINUOUS
100
AcDbLine
 10
37.67199999996831
 20
3.470796661429213
 30
0.0
 11
36.23199999996837
 21
4.910796661429154
 31
0.0
  0
LINE
  5
FEB4
330
FE81
100
AcDbEntity
  8
0
  6
CONTINUOUS
100
AcDbLine
 10
37.67199999996831
 20
4.144315870509399
 30
0.0
 11
36.23199999996837
 21
5.58431587050934
 31
0.0
  0
LINE
  5
FEB5
330
FE81
100
AcDbEntity
  8
0
  6
CONTINUOUS
100
AcDbLine
 10
33.08199999996839
 20
7.387277452348945
 30
0.0
 11
31.70617745232608
 21
8.763099999991255
 31
0.0
  0
LINE
  5
FEB6
330
FE81
100
AcDbEntity
  8
0
  6
CONTINUOUS
100
AcDbLine
 10
33.08199999996839
 20
8.060796661429132
 30
0.0
 11
32.37969666140626
 21
8.763099999991255
 31
0.0
  0
LINE
  5
FEB7
330
FE81
100
AcDbEntity
  8
0
  6
CONTINUOUS
100
AcDbLine
 10
33.08199999996839
 20
8.734315870509318
 30
0.0
 11
33.05321587048645
 21
8.763099999991255
 31
0.0
  0
LINE
  5
FEB8
330
FE81
100
AcDbEntity
  8
0
  6
CONTINUOUS
100
AcDbLine
 10
37.67199999996831
 20
4.817835079589585
 30
0.0
 11
36.23199999996837
 21
6.257835079589526
 31
0.0
  0
LINE
  5
FEB9
330
FE81
100
AcDbEntity
  8
0
  6
CONTINUOUS
100
AcDbLine
 10
37.67199999996831
 20
5.491354288669771
 30
0.0
 11
36.23199999996837
 21
6.931354288669713
 31
0.0
  0
LINE
  5
FEBA
330
FE81
100
AcDbEntity
  8
0
  6
CONTINUOUS
100
AcDbLine
 10
37.67199999996831
 20
6.164873497749958
 30
0.0
 11
36.23199999996837
 21
7.6048734977499
 31
0.0
  0
LINE
  5
FEBB
330
FE81
100
AcDbEntity
  8
0
  6
CONTINUOUS
100
AcDbLine
 10
37.67199999996831
 20
6.838392706830144
 30
0.0
 11
36.23199999996837
 21
8.278392706830086
 31
0.0
  0
LINE
  5
FEBC
330
FE81
100
AcDbEntity
  8
0
  6
CONTINUOUS
100
AcDbLine
 10
37.67199999996831
 20
7.511911915910332
 30
0.0
 11
36.42081191588738
 21
8.763099999991255
 31
0.0
  0
LINE
  5
FEBD
330
FE81
100
AcDbEntity
  8
0
  6
CONTINUOUS
100
AcDbLine
 10
37.67199999996831
 20
8.185431124990519
 30
0.0
 11
37.09433112496757
 21
8.763099999991255
 31
0.0
  0
ENDBLK
  5
FF25
330
FE81
100
AcDbEntity
  8
0
100
AcDbBlockEnd
  0
BLOCK
  5
FF26
330
FEBE
100
AcDbEntity
  8
0
100
AcDbBlockBegin
  2
*X33
 70
     1
 10
0.0
 20
0.0
 30
0.0
  3
*X33
  1

  0
LINE
  5
FEBF
330
FEBE
100
AcDbEntity
  8
0
  6
CONTINUOUS
100
AcDbLine
 10
38.60499999996136
 20
8.762866199104765
 30
0.0
 11
38.71672554182345
 21
8.874591740966855
 31
0.0
  0
LINE
  5
FEC0
330
FEBE
100
AcDbEntity
  8
0
  6
CONTINUOUS
100
AcDbLine
 10
38.60499999996136
 20
8.089346990024577
 30
0.0
 11
39.03418785440363
 21
8.518534844466847
 31
0.0
  0
LINE
  5
FEC1
330
FEBE
100
AcDbEntity
  8
0
  6
CONTINUOUS
100
AcDbLine
 10
38.60499999996136
 20
7.41582778094439
 30
0.0
 11
39.35165016698382
 21
8.16247794796684
 31
0.0
  0
LINE
  5
FEC2
330
FEBE
100
AcDbEntity
  8
0
  6
CONTINUOUS
100
AcDbLine
 10
38.60499999996136
 20
6.742308571864204
 30
0.0
 11
39.66911247956399
 21
7.806421051466834
 31
0.0
  0
LINE
  5
FEC3
330
FEBE
100
AcDbEntity
  8
0
  6
CONTINUOUS
100
AcDbLine
 10
38.60499999996136
 20
6.068789362784018
 30
0.0
 11
39.98657479214418
 21
7.450364154966827
 31
0.0
  0
LINE
  5
FEC4
330
FEBE
100
AcDbEntity
  8
0
  6
CONTINUOUS
100
AcDbLine
 10
38.60499999996136
 20
5.395270153703832
 30
0.0
 11
40.30403710472435
 21
7.09430725846682
 31
0.0
  0
LINE
  5
FEC5
330
FEBE
100
AcDbEntity
  8
0
  6
CONTINUOUS
100
AcDbLine
 10
38.60499999996136
 20
4.721750944623645
 30
0.0
 11
40.62149941730453
 21
6.738250361966813
 31
0.0
  0
LINE
  5
FEC6
330
FEBE
100
AcDbEntity
  8
0
  6
CONTINUOUS
100
AcDbLine
 10
38.60499999996136
 20
4.048231735543458
 30
0.0
 11
40.93896172988471
 21
6.382193465466806
 31
0.0
  0
LINE
  5
FEC7
330
FEBE
100
AcDbEntity
  8
0
  6
CONTINUOUS
100
AcDbLine
 10
38.60499999996136
 20
3.374712526463272
 30
0.0
 11
40.02599999995994
 21
4.795712526461843
 31
0.0
  0
LINE
  5
FEC8
330
FEBE
100
AcDbEntity
  8
0
  6
CONTINUOUS
100
AcDbLine
 10
38.60499999996136
 20
2.701193317383085
 30
0.0
 11
40.02599999995994
 21
4.122193317381657
 31
0.0
  0
LINE
  5
FEC9
330
FEBE
100
AcDbEntity
  8
0
  6
CONTINUOUS
100
AcDbLine
 10
40.28339754687704
 20
5.053110073378947
 30
0.0
 11
41.25642404246489
 21
6.026136568966799
 31
0.0
  0
LINE
  5
FECA
330
FEBE
100
AcDbEntity
  8
0
  6
CONTINUOUS
100
AcDbLine
 10
40.60085985945722
 20
4.697053176878939
 30
0.0
 11
41.57388635504507
 21
5.670079672466793
 31
0.0
  0
LINE
  5
FECB
330
FEBE
100
AcDbEntity
  8
0
  6
CONTINUOUS
100
AcDbLine
 10
43.57899999995641
 20
8.348712526458318
 30
0.0
 11
43.99338747348935
 21
8.763099999991255
 31
0.0
  0
LINE
  5
FECC
330
FEBE
100
AcDbEntity
  8
0
  6
CONTINUOUS
100
AcDbLine
 10
43.57899999995641
 20
7.675193317378131
 30
0.0
 11
44.66690668256953
 21
8.763099999991255
 31
0.0
  0
LINE
  5
FECD
330
FEBE
100
AcDbEntity
  8
0
  6
CONTINUOUS
100
AcDbLine
 10
38.60499999996136
 20
2.027674108302898
 30
0.0
 11
40.02599999995994
 21
3.44867410830147
 31
0.0
  0
LINE
  5
FECE
330
FEBE
100
AcDbEntity
  8
0
  6
CONTINUOUS
100
AcDbLine
 10
38.60499999996136
 20
1.354154899222712
 30
0.0
 11
40.02599999995994
 21
2.775154899221284
 31
0.0
  0
LINE
  5
FECF
330
FEBE
100
AcDbEntity
  8
0
  6
CONTINUOUS
100
AcDbLine
 10
38.60499999996136
 20
0.6806356901425255
 30
0.0
 11
40.02599999995994
 21
2.101635690141098
 31
0.0
  0
LINE
  5
FED0
330
FEBE
100
AcDbEntity
  8
0
  6
CONTINUOUS
100
AcDbLine
 10
38.60499999996136
 20
0.0071164810623383
 30
0.0
 11
40.02599999995994
 21
1.428116481060911
 31
0.0
  0
LINE
  5
FED1
330
FEBE
100
AcDbEntity
  8
0
  6
CONTINUOUS
100
AcDbLine
 10
40.9183221720374
 20
4.340996280378933
 30
0.0
 11
41.89134866762525
 21
5.314022775966786
 31
0.0
  0
LINE
  5
FED2
330
FEBE
100
AcDbEntity
  8
0
  6
CONTINUOUS
100
AcDbLine
 10
41.23578448461758
 20
3.984939383878926
 30
0.0
 11
42.20881098020543
 21
4.957965879466778
 31
0.0
  0
LINE
  5
FED3
330
FEBE
100
AcDbEntity
  8
0
  6
CONTINUOUS
100
AcDbLine
 10
41.55324679719776
 20
3.628882487378919
 30
0.0
 11
42.52627329278561
 21
4.601908982966772
 31
0.0
  0
LINE
  5
FED4
330
FEBE
100
AcDbEntity
  8
0
  6
CONTINUOUS
100
AcDbLine
 10
41.87070910977793
 20
3.272825590878912
 30
0.0
 11
42.84373560536579
 21
4.245852086466765
 31
0.0
  0
LINE
  5
FED5
330
FEBE
100
AcDbEntity
  8
0
  6
CONTINUOUS
100
AcDbLine
 10
43.57899999995641
 20
7.001674108297943
 30
0.0
 11
44.99999999995498
 21
8.422674108296516
 31
0.0
  0
LINE
  5
FED6
330
FEBE
100
AcDbEntity
  8
0
  6
CONTINUOUS
100
AcDbLine
 10
43.57899999995641
 20
6.328154899217758
 30
0.0
 11
44.99999999995498
 21
7.749154899216329
 31
0.0
  0
LINE
  5
FED7
330
FEBE
100
AcDbEntity
  8
0
  6
CONTINUOUS
100
AcDbLine
 10
43.57899999995641
 20
5.654635690137571
 30
0.0
 11
44.99999999995498
 21
7.075635690136142
 31
0.0
  0
LINE
  5
FED8
330
FEBE
100
AcDbEntity
  8
0
  6
CONTINUOUS
100
AcDbLine
 10
43.57899999995641
 20
4.981116481057384
 30
0.0
 11
44.99999999995498
 21
6.402116481055955
 31
0.0
  0
LINE
  5
FED9
330
FEBE
100
AcDbEntity
  8
0
  6
CONTINUOUS
100
AcDbLine
 10
39.27140272797921
 20
-0.0000000000000009
 30
0.0
 11
40.02599999995994
 21
0.7545972719807246
 31
0.0
  0
LINE
  5
FEDA
330
FEBE
100
AcDbEntity
  8
0
  6
CONTINUOUS
100
AcDbLine
 10
39.9449219370594
 20
-0.0000000000000009
 30
0.0
 11
40.02599999995994
 21
0.0810780629005379
 31
0.0
  0
LINE
  5
FEDB
330
FEBE
100
AcDbEntity
  8
0
  6
CONTINUOUS
100
AcDbLine
 10
42.18817142235812
 20
2.916768694378905
 30
0.0
 11
43.16119791794597
 21
3.889795189966758
 31
0.0
  0
LINE
  5
FEDC
330
FEBE
100
AcDbEntity
  8
0
  6
CONTINUOUS
100
AcDbLine
 10
42.50563373493829
 20
2.560711797878898
 30
0.0
 11
43.47866023052615
 21
3.533738293466751
 31
0.0
  0
LINE
  5
FEDD
330
FEBE
100
AcDbEntity
  8
0
  6
CONTINUOUS
100
AcDbLine
 10
43.57899999995641
 20
4.307597271977198
 30
0.0
 11
44.99999999995498
 21
5.728597271975769
 31
0.0
  0
LINE
  5
FEDE
330
FEBE
100
AcDbEntity
  8
0
  6
CONTINUOUS
100
AcDbLine
 10
43.57899999995641
 20
3.634078062897011
 30
0.0
 11
44.99999999995498
 21
5.055078062895582
 31
0.0
  0
LINE
  5
FEDF
330
FEBE
100
AcDbEntity
  8
0
  6
CONTINUOUS
100
AcDbLine
 10
42.82309604751848
 20
2.204654901378891
 30
0.0
 11
44.99999999995498
 21
4.381558853815395
 31
0.0
  0
LINE
  5
FEE0
330
FEBE
100
AcDbEntity
  8
0
  6
CONTINUOUS
100
AcDbLine
 10
43.14055836009865
 20
1.848598004878885
 30
0.0
 11
44.99999999995498
 21
3.70803964473521
 31
0.0
  0
LINE
  5
FEE1
330
FEBE
100
AcDbEntity
  8
0
  6
CONTINUOUS
100
AcDbLine
 10
43.45802067267883
 20
1.492541108378878
 30
0.0
 11
44.99999999995498
 21
3.034520435655023
 31
0.0
  0
LINE
  5
FEE2
330
FEBE
100
AcDbEntity
  8
0
  6
CONTINUOUS
100
AcDbLine
 10
43.77548298525902
 20
1.136484211878871
 30
0.0
 11
44.99999999995498
 21
2.361001226574837
 31
0.0
  0
LINE
  5
FEE3
330
FEBE
100
AcDbEntity
  8
0
  6
CONTINUOUS
100
AcDbLine
 10
44.09294529783919
 20
0.7804273153788639
 30
0.0
 11
44.99999999995498
 21
1.687482017494649
 31
0.0
  0
LINE
  5
FEE4
330
FEBE
100
AcDbEntity
  8
0
  6
CONTINUOUS
100
AcDbLine
 10
44.41040761041938
 20
0.4243704188788566
 30
0.0
 11
44.99999999995498
 21
1.013962808414463
 31
0.0
  0
LINE
  5
FEE5
330
FEBE
100
AcDbEntity
  8
0
  6
CONTINUOUS
100
AcDbLine
 10
44.72786992299955
 20
0.0683135223788494
 30
0.0
 11
44.99999999995498
 21
0.340443599334276
 31
0.0
  0
LINE
  5
FEE6
330
FEBE
100
AcDbEntity
  8
0
  6
CONTINUOUS
100
AcDbLine
 10
39.12223903415696
 20
-0.0000000000000009
 30
0.0
 11
38.60499999996136
 21
0.5172390341955961
 31
0.0
  0
LINE
  5
FEE7
330
FEBE
100
AcDbEntity
  8
0
  6
CONTINUOUS
100
AcDbLine
 10
39.79575824323715
 20
-0.0000000000000009
 30
0.0
 11
38.60499999996136
 21
1.190758243275783
 31
0.0
  0
LINE
  5
FEE8
330
FEBE
100
AcDbEntity
  8
0
  6
CONTINUOUS
100
AcDbLine
 10
40.02599999995994
 20
0.443277452357397
 30
0.0
 11
38.60499999996136
 21
1.864277452355969
 31
0.0
  0
LINE
  5
FEE9
330
FEBE
100
AcDbEntity
  8
0
  6
CONTINUOUS
100
AcDbLine
 10
40.02599999995994
 20
1.116796661437583
 30
0.0
 11
38.60499999996136
 21
2.537796661436155
 31
0.0
  0
LINE
  5
FEEA
330
FEBE
100
AcDbEntity
  8
0
  6
CONTINUOUS
100
AcDbLine
 10
40.02599999995994
 20
1.79031587051777
 30
0.0
 11
38.60499999996136
 21
3.211315870516341
 31
0.0
  0
LINE
  5
FEEB
330
FEBE
100
AcDbEntity
  8
0
  6
CONTINUOUS
100
AcDbLine
 10
40.02599999995994
 20
2.463835079597956
 30
0.0
 11
38.60499999996136
 21
3.884835079596527
 31
0.0
  0
LINE
  5
FEEC
330
FEBE
100
AcDbEntity
  8
0
  6
CONTINUOUS
100
AcDbLine
 10
40.02599999995994
 20
3.137354288678143
 30
0.0
 11
38.60499999996136
 21
4.558354288676714
 31
0.0
  0
LINE
  5
FEED
330
FEBE
100
AcDbEntity
  8
0
  6
CONTINUOUS
100
AcDbLine
 10
40.02599999995994
 20
3.810873497758329
 30
0.0
 11
38.60499999996136
 21
5.2318734977569
 31
0.0
  0
LINE
  5
FEEE
330
FEBE
100
AcDbEntity
  8
0
  6
CONTINUOUS
100
AcDbLine
 10
40.02599999995994
 20
4.484392706838515
 30
0.0
 11
38.60499999996136
 21
5.905392706837086
 31
0.0
  0
LINE
  5
FEEF
330
FEBE
100
AcDbEntity
  8
0
  6
CONTINUOUS
100
AcDbLine
 10
44.99999999995498
 20
0.183911915923658
 30
0.0
 11
41.53858364506288
 21
3.64532827081576
 31
0.0
  0
LINE
  5
FEF0
330
FEBE
100
AcDbEntity
  8
0
  6
CONTINUOUS
100
AcDbLine
 10
40.02599999995994
 20
5.157911915918703
 30
0.0
 11
38.60499999996136
 21
6.578911915917274
 31
0.0
  0
LINE
  5
FEF1
330
FEBE
100
AcDbEntity
  8
0
  6
CONTINUOUS
100
AcDbLine
 10
44.99999999995498
 20
0.8574311250038447
 30
0.0
 11
38.60499999996136
 21
7.25243112499746
 31
0.0
  0
LINE
  5
FEF2
330
FEBE
100
AcDbEntity
  8
0
  6
CONTINUOUS
100
AcDbLine
 10
44.99999999995498
 20
1.530950334084031
 30
0.0
 11
38.60499999996136
 21
7.925950334077647
 31
0.0
  0
LINE
  5
FEF3
330
FEBE
100
AcDbEntity
  8
0
  6
CONTINUOUS
100
AcDbLine
 10
44.99999999995498
 20
2.204469543164218
 30
0.0
 11
43.57899999995641
 21
3.625469543162789
 31
0.0
  0
LINE
  5
FEF4
330
FEBE
100
AcDbEntity
  8
0
  6
CONTINUOUS
100
AcDbLine
 10
41.89876730984767
 20
5.305702233271528
 30
0.0
 11
38.60499999996136
 21
8.599469543157834
 31
0.0
  0
LINE
  5
FEF5
330
FEBE
100
AcDbEntity
  8
0
  6
CONTINUOUS
100
AcDbLine
 10
44.99999999995498
 20
2.877988752244405
 30
0.0
 11
43.57899999995641
 21
4.298988752242975
 31
0.0
  0
LINE
  5
FEF6
330
FEBE
100
AcDbEntity
  8
0
  6
CONTINUOUS
100
AcDbLine
 10
44.99999999995498
 20
3.551507961324591
 30
0.0
 11
43.57899999995641
 21
4.972507961323163
 31
0.0
  0
LINE
  5
FEF7
330
FEBE
100
AcDbEntity
  8
0
  6
CONTINUOUS
100
AcDbLine
 10
44.99999999995498
 20
4.225027170404777
 30
0.0
 11
43.57899999995641
 21
5.646027170403348
 31
0.0
  0
LINE
  5
FEF8
330
FEBE
100
AcDbEntity
  8
0
  6
CONTINUOUS
100
AcDbLine
 10
44.99999999995498
 20
4.898546379484964
 30
0.0
 11
43.57899999995641
 21
6.319546379483535
 31
0.0
  0
LINE
  5
FEF9
330
FEBE
100
AcDbEntity
  8
0
  6
CONTINUOUS
100
AcDbLine
 10
44.99999999995498
 20
5.572065588565151
 30
0.0
 11
43.57899999995641
 21
6.993065588563722
 31
0.0
  0
LINE
  5
FEFA
330
FEBE
100
AcDbEntity
  8
0
  6
CONTINUOUS
100
AcDbLine
 10
44.99999999995498
 20
6.245584797645336
 30
0.0
 11
43.57899999995641
 21
7.666584797643908
 31
0.0
  0
LINE
  5
FEFB
330
FEBE
100
AcDbEntity
  8
0
  6
CONTINUOUS
100
AcDbLine
 10
44.99999999995498
 20
6.919104006725522
 30
0.0
 11
43.57899999995641
 21
8.340104006724093
 31
0.0
  0
LINE
  5
FEFC
330
FEBE
100
AcDbEntity
  8
0
  6
CONTINUOUS
100
AcDbLine
 10
44.99999999995498
 20
7.592623215805709
 30
0.0
 11
43.82952321576943
 21
8.763099999991255
 31
0.0
  0
LINE
  5
FEFD
330
FEBE
100
AcDbEntity
  8
0
  6
CONTINUOUS
100
AcDbLine
 10
44.99999999995498
 20
8.266142424885896
 30
0.0
 11
44.50304242484962
 21
8.763099999991255
 31
0.0
  0
ENDBLK
  5
FF27
330
FEBE
100
AcDbEntity
  8
0
100
AcDbBlockEnd
  0
BLOCK
  5
FF28
330
FEFE
100
AcDbEntity
  8
0
100
AcDbBlockBegin
  2
*X34
 70
     1
 10
0.0
 20
0.0
 30
0.0
  3
*X34
  1

  0
LINE
  5
FEFF
330
FEFE
100
AcDbEntity
  8
0
  6
CONTINUOUS
100
AcDbLine
 10
0.0
 20
8.548461116714023
 30
0.0
 11
0.2146388832772324
 21
8.763099999991255
 31
0.0
  0
LINE
  5
FF00
330
FEFE
100
AcDbEntity
  8
0
  6
CONTINUOUS
100
AcDbLine
 10
-0.0000000000000002
 20
7.874941907633837
 30
0.0
 11
0.8881580923574184
 21
8.763099999991255
 31
0.0
  0
LINE
  5
FF01
330
FEFE
100
AcDbEntity
  8
0
  6
CONTINUOUS
100
AcDbLine
 10
0.0
 20
7.20142269855365
 30
0.0
 11
1.420999999998572
 21
8.622422698552223
 31
0.0
  0
LINE
  5
FF02
330
FEFE
100
AcDbEntity
  8
0
  6
CONTINUOUS
100
AcDbLine
 10
-0.0000000000000001
 20
6.527903489473465
 30
0.0
 11
1.420999999998571
 21
7.948903489472036
 31
0.0
  0
LINE
  5
FF03
330
FEFE
100
AcDbEntity
  8
0
  6
CONTINUOUS
100
AcDbLine
 10
-0.0000000000000002
 20
5.854384280393278
 30
0.0
 11
1.420999999998571
 21
7.275384280391849
 31
0.0
  0
LINE
  5
FF04
330
FEFE
100
AcDbEntity
  8
0
  6
CONTINUOUS
100
AcDbLine
 10
-0.0000000000000002
 20
5.180865071313091
 30
0.0
 11
1.420999999998571
 21
6.601865071311663
 31
0.0
  0
LINE
  5
FF05
330
FEFE
100
AcDbEntity
  8
0
  6
CONTINUOUS
100
AcDbLine
 10
0.0
 20
4.507345862232905
 30
0.0
 11
1.420999999998571
 21
5.928345862231477
 31
0.0
  0
LINE
  5
FF06
330
FEFE
100
AcDbEntity
  8
0
  6
CONTINUOUS
100
AcDbLine
 10
-0.0000000000000003
 20
3.833826653152718
 30
0.0
 11
1.420999999998571
 21
5.25482665315129
 31
0.0
  0
LINE
  5
FF07
330
FEFE
100
AcDbEntity
  8
0
  6
CONTINUOUS
100
AcDbLine
 10
-0.0000000000000002
 20
3.160307444072532
 30
0.0
 11
1.420999999998571
 21
4.581307444071103
 31
0.0
  0
LINE
  5
FF08
330
FEFE
100
AcDbEntity
  8
0
  6
CONTINUOUS
100
AcDbLine
 10
-0.0000000000000001
 20
2.486788234992345
 30
0.0
 11
1.420999999998571
 21
3.907788234990917
 31
0.0
  0
LINE
  5
FF09
330
FEFE
100
AcDbEntity
  8
0
  6
CONTINUOUS
100
AcDbLine
 10
-0.0000000000000006
 20
1.813269025912159
 30
0.0
 11
1.420999999998571
 21
3.234269025910731
 31
0.0
  0
LINE
  5
FF0A
330
FEFE
100
AcDbEntity
  8
0
  6
CONTINUOUS
100
AcDbLine
 10
0.0
 20
1.139749816831973
 30
0.0
 11
1.420999999998571
 21
2.560749816830544
 31
0.0
  0
LINE
  5
FF0B
330
FEFE
100
AcDbEntity
  8
0
  6
CONTINUOUS
100
AcDbLine
 10
0.0000000000000002
 20
0.466230607751787
 30
0.0
 11
1.420999999998571
 21
1.887230607750358
 31
0.0
  0
LINE
  5
FF0C
330
FEFE
100
AcDbEntity
  8
0
  6
CONTINUOUS
100
AcDbLine
 10
0.2072886013284003
 20
-0.0000000000000009
 30
0.0
 11
1.420999999998571
 21
1.213711398670171
 31
0.0
  0
LINE
  5
FF0D
330
FEFE
100
AcDbEntity
  8
0
  6
CONTINUOUS
100
AcDbLine
 10
0.8808078104085864
 20
-0.0000000000000009
 30
0.0
 11
1.420999999998571
 21
0.5401921895899839
 31
0.0
  0
LINE
  5
FF0E
330
FEFE
100
AcDbEntity
  8
0
  6
CONTINUOUS
100
AcDbLine
 10
0.0581249075061505
 20
-0.0000000000000009
 30
0.0
 11
-0.0000000000000002
 21
0.0581249075061496
 31
0.0
  0
LINE
  5
FF0F
330
FEFE
100
AcDbEntity
  8
0
  6
CONTINUOUS
100
AcDbLine
 10
0.7316441165863372
 20
-0.0000000000000009
 30
0.0
 11
-0.0000000000000002
 21
0.7316441165863363
 31
0.0
  0
LINE
  5
FF10
330
FEFE
100
AcDbEntity
  8
0
  6
CONTINUOUS
100
AcDbLine
 10
1.405163325666523
 20
-0.0000000000000009
 30
0.0
 11
-0.0000000000000002
 21
1.405163325666523
 31
0.0
  0
LINE
  5
FF11
330
FEFE
100
AcDbEntity
  8
0
  6
CONTINUOUS
100
AcDbLine
 10
1.420999999998572
 20
0.6576825347481381
 30
0.0
 11
-0.0000000000000001
 21
2.07868253474671
 31
0.0
  0
LINE
  5
FF12
330
FEFE
100
AcDbEntity
  8
0
  6
CONTINUOUS
100
AcDbLine
 10
1.420999999998571
 20
1.331201743828324
 30
0.0
 11
-0.0000000000000001
 21
2.752201743826896
 31
0.0
  0
LINE
  5
FF13
330
FEFE
100
AcDbEntity
  8
0
  6
CONTINUOUS
100
AcDbLine
 10
1.420999999998571
 20
2.004720952908511
 30
0.0
 11
-0.0000000000000002
 21
3.425720952907082
 31
0.0
  0
LINE
  5
FF14
330
FEFE
100
AcDbEntity
  8
0
  6
CONTINUOUS
100
AcDbLine
 10
1.420999999998571
 20
2.678240161988697
 30
0.0
 11
-0.0000000000000001
 21
4.099240161987269
 31
0.0
  0
LINE
  5
FF15
330
FEFE
100
AcDbEntity
  8
0
  6
CONTINUOUS
100
AcDbLine
 10
1.420999999998572
 20
3.351759371068884
 30
0.0
 11
0.0
 21
4.772759371067455
 31
0.0
  0
LINE
  5
FF16
330
FEFE
100
AcDbEntity
  8
0
  6
CONTINUOUS
100
AcDbLine
 10
1.420999999998571
 20
4.02527858014907
 30
0.0
 11
-0.0000000000000003
 21
5.446278580147642
 31
0.0
  0
LINE
  5
FF17
330
FEFE
100
AcDbEntity
  8
0
  6
CONTINUOUS
100
AcDbLine
 10
1.420999999998571
 20
4.698797789229257
 30
0.0
 11
0.0
 21
6.119797789227828
 31
0.0
  0
LINE
  5
FF18
330
FEFE
100
AcDbEntity
  8
0
  6
CONTINUOUS
100
AcDbLine
 10
1.420999999998571
 20
5.372316998309444
 30
0.0
 11
-0.0000000000000001
 21
6.793316998308015
 31
0.0
  0
LINE
  5
FF19
330
FEFE
100
AcDbEntity
  8
0
  6
CONTINUOUS
100
AcDbLine
 10
1.420999999998572
 20
6.045836207389629
 30
0.0
 11
-0.0000000000000004
 21
7.466836207388202
 31
0.0
  0
LINE
  5
FF1A
330
FEFE
100
AcDbEntity
  8
0
  6
CONTINUOUS
100
AcDbLine
 10
1.420999999998571
 20
6.719355416469816
 30
0.0
 11
0.0
 21
8.140355416468388
 31
0.0
  0
LINE
  5
FF1B
330
FEFE
100
AcDbEntity
  8
0
  6
CONTINUOUS
100
AcDbLine
 10
1.420999999998571
 20
7.392874625550003
 30
0.0
 11
0.0507746255573185
 21
8.763099999991255
 31
0.0
  0
LINE
  5
FF1C
330
FEFE
100
AcDbEntity
  8
0
  6
CONTINUOUS
100
AcDbLine
 10
1.420999999998571
 20
8.06639383463019
 30
0.0
 11
0.7242938346375052
 21
8.763099999991255
 31
0.0
  0
LINE
  5
FF1D
330
FEFE
100
AcDbEntity
  8
0
  6
CONTINUOUS
100
AcDbLine
 10
1.420999999998571
 20
8.739913043710375
 30
0.0
 11
1.397813043717691
 21
8.763099999991255
 31
0.0
  0
ENDBLK
  5
FF29
330
FEFE
100
AcDbEntity
  8
0
100
AcDbBlockEnd
  0
ENDSEC
  0
SECTION
  2
ENTITIES
  0
LINE
  5
ED2B
330
18
100
AcDbEntity
  8
01
100
AcDbLine
 10
4609.030621691165
 20
671.6795134133215
 30
0.0000000001127424
 11
4635.030621691165
 21
671.6795134133215
 31
0.0000000001127424
  0
LINE
  5
ED2C
330
18
100
AcDbEntity
  8
01
100
AcDbLine
 10
4644.530621691165
 20
677.1795134133215
 30
0.0000000001127424
 11
4599.530621691165
 21
677.1795134133215
 31
0.0000000001127424
  0
LINE
  5
ED2D
330
18
100
AcDbEntity
  8
01
100
AcDbLine
 10
4622.030621691165
 20
699.6795134133215
 30
0.0000000001127424
 11
4622.030621691165
 21
654.6795134133215
 31
0.0000000001127424
  0
LINE
  5
ED2E
330
18
100
AcDbEntity
  8
01
100
AcDbLine
 10
4939.530517351423
 20
677.1795134133215
 30
0.0000000001127424
 11
4984.530517351423
 21
677.1795134133215
 31
0.0000000001127424
  0
LINE
  5
ED2F
330
18
100
AcDbEntity
  8
01
100
AcDbLine
 10
4962.030517351423
 20
699.6795134133215
 30
0.0000000001127424
 11
4962.030517351423
 21
654.6795134133215
 31
0.0000000001127424
  0
LINE
  5
ED30
330
18
100
AcDbEntity
  8
01
100
AcDbLine
 10
4959.530625757261
 20
932.6333965640708
 30
0.0000000000564898
 11
4959.530625757261
 21
920.1333736198678
 31
0.0000000000564898
  0
LINE
  5
ED31
330
18
100
AcDbEntity
  8
01
100
AcDbLine
 10
4964.530625757261
 20
932.6333965640727
 30
0.0000000000564898
 11
4964.530625757261
 21
920.133373619866
 31
0.0000000000564898
  0
LINE
  5
ED32
330
18
100
AcDbEntity
  8
01
100
AcDbLine
 10
4772.030625691166
 20
697.1795134133197
 30
0.0000000001127424
 11
4772.030625691163
 21
657.1795134133192
 31
0.0000000001127424
  0
LINE
  5
ED33
330
18
100
AcDbEntity
  8
01
100
AcDbLine
 10
4772.030625691166
 20
657.1795134133192
 30
0.0000000001127424
 11
4766.230625691167
 21
657.1795134133197
 31
0.0000000001127424
  0
ARC
  5
ED34
330
18
100
AcDbEntity
  8
01
100
AcDbCircle
 10
4766.230625691167
 20
657.6795134133197
 30
0.0000000001127424
 40
0.5
100
AcDbArc
 50
180.0
 51
270.0
  0
LINE
  5
ED35
330
18
100
AcDbEntity
  8
01
100
AcDbLine
 10
4772.030625691166
 20
697.1795134133197
 30
0.0000000001127424
 11
4766.230625691167
 21
697.1795134133188
 31
0.0000000001127424
  0
ARC
  5
ED36
330
18
100
AcDbEntity
  8
01
100
AcDbCircle
 10
4766.230625691167
 20
696.6795134133188
 30
0.0000000001127424
 40
0.5
100
AcDbArc
 50
90.0
 51
180.0
  0
LINE
  5
ED37
330
18
100
AcDbEntity
  8
01
100
AcDbLine
 10
4770.530625691166
 20
657.1795134133124
 30
0.0000000001127424
 11
4772.030625691166
 21
657.1795134133124
 31
0.0000000001127424
  0
LINE
  5
ED39
330
18
100
AcDbEntity
  8
01
100
AcDbLine
 10
4962.03050935142
 20
876.6795134133217
 30
0.0000000001127424
 11
4962.03050935142
 21
850.1795134133217
 31
0.0000000001127424
  0
LINE
  5
ED3A
330
18
100
AcDbEntity
  8
01
100
AcDbLine
 10
4962.03050935142
 20
906.6795134112645
 30
0.0000000001127424
 11
4962.03050935142
 21
935.970786502905
 31
0.0000000001127424
  0
LINE
  5
EDCC
330
18
100
AcDbEntity
  8
01
100
AcDbLine
 10
4942.030625302603
 20
871.6795134122929
 30
0.0000000001127424
 11
4982.030625302603
 21
871.6795134122935
 31
0.0000000001127424
  0
LINE
  5
EDCD
330
18
100
AcDbEntity
  8
01
100
AcDbLine
 10
4981.530625302603
 20
865.3795134122931
 30
0.0000000001127424
 11
4942.530625302603
 21
865.3795134122927
 31
0.0000000001127424
  0
CIRCLE
  5
EDCE
330
18
100
AcDbEntity
  8
01
100
AcDbCircle
 10
4962.030538112841
 20
677.1794896526333
 30
0.0000000001128561
 40
19.99999999999963
  0
LINE
  5
EDCF
330
18
100
AcDbEntity
  8
01
100
AcDbLine
 10
4942.030625302603
 20
871.6795134122929
 30
0.0000000001127424
 11
4942.030625302603
 21
865.8795134122927
 31
0.0000000001127424
  0
ARC
  5
EDD0
330
18
100
AcDbEntity
  8
01
100
AcDbCircle
 10
4942.530625302603
 20
865.8795134122931
 30
0.0000000001127424
 40
0.5
100
AcDbArc
 50
180.0
 51
270.0
  0
CIRCLE
  5
EDD1
330
18
100
AcDbEntity
  8
01
100
AcDbCircle
 10
4962.0305384353
 20
671.6794898567614
 30
0.0000000001128561
 40
3.75
  0
CIRCLE
  5
EDD2
330
18
100
AcDbEntity
  8
01
100
AcDbCircle
 10
4962.0305384353
 20
671.6794896526335
 30
0.0000000001128561
 40
3.5000005
  0
LINE
  5
EDD3
330
18
100
AcDbEntity
  8
01
100
AcDbLine
 10
4961.0305384353
 20
668.3253868526335
 30
0.0000000001128561
 11
4961.0305384353
 21
675.0335936526335
 31
0.0000000001128561
  0
LINE
  5
EDD4
330
18
100
AcDbEntity
  8
01
100
AcDbLine
 10
4963.0305384353
 20
668.3253868526335
 30
0.0000000001128561
 11
4963.0305384353
 21
675.0335936526335
 31
0.0000000001128561
  0
ARC
  5
EDD5
330
18
100
AcDbEntity
  8
01
100
AcDbCircle
 10
4962.030615760457
 20
869.5295080344179
 30
0.0000000001126288
 40
6.0
100
AcDbArc
 50
234.3146660000189
 51
256.8165180000145
  0
LINE
  5
EDD6
330
18
100
AcDbEntity
  8
01
100
AcDbLine
 10
4958.530615760457
 20
864.6561080344177
 30
0.0000000001126288
 11
4958.530615760456
 21
865.3795134122929
 31
0.0000000001126288
  0
LINE
  5
EDD7
330
18
100
AcDbEntity
  8
01
100
AcDbLine
 10
4965.530615760457
 20
864.6561080344177
 30
0.0000000001126288
 11
4965.530615760457
 21
865.3795134122929
 31
0.0000000001126288
  0
LINE
  5
EDD8
330
18
100
AcDbEntity
  8
01
100
AcDbLine
 10
4963.030615760457
 20
863.9789595750153
 30
0.0000000001126288
 11
4963.030615760457
 21
865.3795134122929
 31
0.0000000001126288
  0
ARC
  5
EDD9
330
18
100
AcDbEntity
  8
01
100
AcDbCircle
 10
4960.730612760457
 20
863.9797380344178
 30
0.0000000001126288
 40
0.30000001
100
AcDbArc
 50
256.8165180001219
 51
0.0
  0
ARC
  5
EDDA
330
18
100
AcDbEntity
  8
01
100
AcDbCircle
 10
4963.330614760457
 20
863.9797380344178
 30
0.0000000001126288
 40
0.30000001
100
AcDbArc
 50
179.9999969999697
 51
283.1834799999676
  0
LINE
  5
EDDB
330
18
100
AcDbEntity
  8
01
100
AcDbLine
 10
4961.030615760457
 20
863.9797380344178
 30
0.0000000001126288
 11
4961.030615760457
 21
865.3795134122929
 31
0.0000000001126288
  0
ARC
  5
EDDC
330
18
100
AcDbEntity
  8
01
100
AcDbCircle
 10
4962.030615760457
 20
869.5295080344179
 30
0.0000000001126288
 40
6.0
100
AcDbArc
 50
283.1834825033476
 51
305.6853299999988
  0
LINE
  5
EDDD
330
18
100
AcDbEntity
  8
01
100
AcDbLine
 10
4982.030625302603
 20
871.6795134122935
 30
0.0000000001127424
 11
4982.030625302603
 21
865.8795134122931
 31
0.0000000001127424
  0
ARC
  5
EDDE
330
18
100
AcDbEntity
  8
01
100
AcDbCircle
 10
4981.530625302603
 20
865.8795134122931
 30
0.0000000001127424
 40
0.5
100
AcDbArc
 50
270.0
 51
0.0
  0
LINE
  5
EDDF
330
18
100
AcDbEntity
  8
01
100
AcDbLine
 10
4812.030625691166
 20
697.1795134133215
 30
0.0000000001127427
 11
4812.030625691162
 21
657.1795134133215
 31
0.0000000001127427
  0
LINE
  5
EE2B
330
18
100
AcDbEntity
  8
01
100
AcDbLine
 10
4609.030621691165
 20
671.6795134133215
 30
0.0000000001127424
 11
4635.030621691165
 21
671.6795134133215
 31
0.0000000001127424
  0
LINE
  5
EE2C
330
18
100
AcDbEntity
  8
01
100
AcDbLine
 10
4644.530621691165
 20
677.1795134133215
 30
0.0000000001127424
 11
4599.530621691165
 21
677.1795134133215
 31
0.0000000001127424
  0
LINE
  5
EE2D
330
18
100
AcDbEntity
  8
01
100
AcDbLine
 10
4622.030621691165
 20
699.6795134133215
 30
0.0000000001127424
 11
4622.030621691165
 21
654.6795134133215
 31
0.0000000001127424
  0
LINE
  5
EE2F
330
18
100
AcDbEntity
  8
01
100
AcDbLine
 10
4962.03050935142
 20
906.679513411264
 30
0.0000000001127424
 11
4962.03050935142
 21
936.3078374141219
 31
0.0000000001127424
  0
LINE
  5
EE32
330
18
100
AcDbEntity
  8
01
100
AcDbLine
 10
4765.730625691167
 20
657.6795134133215
 30
0.0000000001127427
 11
4765.730625691167
 21
696.679513413321
 31
0.0000000001127427
  0
CIRCLE
  5
EE33
330
18
100
AcDbEntity
  8
01
100
AcDbCircle
 10
4622.030621691163
 20
677.1795134133215
 30
0.0000000001127424
 40
20.00000000000007
  0
ARC
  5
EE34
330
18
100
AcDbEntity
  8
01
100
AcDbCircle
 10
4624.030621691165
 20
680.7107093474156
 30
0.0000000001127424
 40
0.5000000000000013
100
AcDbArc
 50
0.0
 51
77.51311018581228
  0
ARC
  5
EE35
330
18
100
AcDbEntity
  8
01
100
AcDbCircle
 10
4620.030621691165
 20
662.6483174792272
 30
0.0000000001127424
 40
0.5000000000000029
100
AcDbArc
 50
180.0
 51
257.5131101858123
  0
ARC
  5
EE36
330
18
100
AcDbEntity
  8
01
100
AcDbCircle
 10
4624.030621691165
 20
662.6483174792272
 30
0.0000000001127424
 40
0.5000000000000013
100
AcDbArc
 50
282.4868898141877
 51
0.0
  0
ARC
  5
EE37
330
18
100
AcDbEntity
  8
01
100
AcDbCircle
 10
4622.030621691165
 20
671.6795134133215
 30
0.0000000001127424
 40
9.749999999999995
100
AcDbArc
 50
77.51311018586458
 51
102.4868898141354
  0
ARC
  5
EE38
330
18
100
AcDbEntity
  8
01
100
AcDbCircle
 10
4620.030621691165
 20
680.7107093474156
 30
0.0000000001127424
 40
0.5000000000000029
100
AcDbArc
 50
102.4868898141877
 51
180.0
  0
ARC
  5
EE39
330
18
100
AcDbEntity
  8
01
100
AcDbCircle
 10
4622.030621691165
 20
671.6795134133215
 30
0.0000000001127424
 40
9.75
100
AcDbArc
 50
257.5131101858646
 51
282.4868898141354
  0
LINE
  5
EE3A
330
18
100
AcDbEntity
  8
01
100
AcDbLine
 10
4624.530621691165
 20
680.7107093474156
 30
0.0000000001127424
 11
4624.530621691165
 21
662.6483174792272
 31
0.0000000001127424
  0
LINE
  5
EE3B
330
18
100
AcDbEntity
  8
01
100
AcDbLine
 10
4619.530621691165
 20
662.6483174792272
 30
0.0000000001127424
 11
4619.530621691165
 21
680.7107093474156
 31
0.0000000001127424
  0
SPLINE
  5
EE3C
330
18
100
AcDbEntity
  8
01
100
AcDbSpline
210
0.0
220
0.0
230
1.0
 70
     8
 71
     3
 72
    18
 73
    14
 74
     0
 42
0.0000000001
 43
0.0000000001
 40
0.0
 40
0.0
 40
0.0
 40
0.0
 40
0.2500000000000002
 40
0.2500000000000002
 40
0.375
 40
0.375
 40
0.4999999999999998
 40
0.4999999999999998
 40
0.6249999999999996
 40
0.6249999999999996
 40
0.7499999999999993
 40
0.7499999999999993
 40
1.0
 40
1.0
 40
1.0
 40
1.0
 10
4625.719810880354
 20
662.6544160107242
 30
0.0000000001127424
 10
4625.526549823078
 20
662.5754166856875
 30
0.0000000001127424
 10
4625.33422821135
 20
662.5041491511179
 30
0.0000000001127424
 10
4625.05490275289
 20
662.4098920399442
 30
0.0000000001127424
 10
4624.965409610382
 20
662.3812588147566
 30
0.0000000001127424
 10
4624.794132402591
 20
662.3289237389558
 30
0.0000000001127424
 10
4624.711482989421
 20
662.3049915740353
 30
0.0000000001127424
 10
4624.56000984998
 20
662.2629921576886
 30
0.0000000001127424
 10
4624.491338279024
 20
662.2449302901291
 30
0.0000000001127424
 10
4624.368970304764
 20
662.2138591519686
 30
0.0000000001127424
 10
4624.315130068147
 20
662.2008276193617
 30
0.0000000001127424
 10
4624.185775780917
 20
662.170272514601
 30
0.0000000001127424
 10
4624.138729799273
 20
662.160144726033
 30
0.0000000001127424
 10
4624.138729799273
 20
662.160144726033
 30
0.0000000001127424
  0
SPLINE
  5
EE3D
330
18
100
AcDbEntity
  8
01
100
AcDbSpline
210
0.0
220
0.0
230
1.0
 70
     8
 71
     3
 72
    18
 73
    14
 74
     0
 42
0.0000000001
 43
0.0000000001
 40
0.0
 40
0.0
 40
0.0
 40
0.0
 40
0.2500000000000002
 40
0.2500000000000002
 40
0.3750000000000002
 40
0.3750000000000002
 40
0.5000000000000002
 40
0.5000000000000002
 40
0.6250000000000002
 40
0.6250000000000002
 40
0.7500000000000001
 40
0.7500000000000001
 40
1.0
 40
1.0
 40
1.0
 40
1.0
 10
4618.341432501976
 20
680.7046108159188
 30
0.0000000001127424
 10
4618.534693559252
 20
680.7836101409555
 30
0.0000000001127424
 10
4618.72701517098
 20
680.8548776755249
 30
0.0000000001127424
 10
4619.006340629439
 20
680.9491347866986
 30
0.0000000001127424
 10
4619.095833771948
 20
680.9777680118864
 30
0.0000000001127424
 10
4619.267110979739
 20
681.0301030876869
 30
0.0000000001127424
 10
4619.349760392909
 20
681.0540352526077
 30
0.0000000001127424
 10
4619.50123353235
 20
681.0960346689542
 30
0.0000000001127424
 10
4619.569905103306
 20
681.1140965365137
 30
0.0000000001127424
 10
4619.692273077566
 20
681.1451676746744
 30
0.0000000001127424
 10
4619.746113314182
 20
681.1581992072813
 30
0.0000000001127424
 10
4619.875467601413
 20
681.1887543120417
 30
0.0000000001127424
 10
4619.922513583057
 20
681.1988821006098
 30
0.0000000001127424
 10
4619.922513583057
 20
681.1988821006098
 30
0.0000000001127424
  0
SPLINE
  5
EE3E
330
18
100
AcDbEntity
  8
01
100
AcDbSpline
210
0.0
220
0.0
230
1.0
 70
     8
 71
     3
 72
    16
 73
    12
 74
     0
 42
0.0000000001
 43
0.0000000001
 40
0.0
 40
0.0
 40
0.0
 40
0.0
 40
0.1249999999999998
 40
0.1249999999999998
 40
0.2499999999999997
 40
0.2499999999999997
 40
0.4999999999999998
 40
0.4999999999999998
 40
0.7499999999999999
 40
0.7499999999999999
 40
1.0
 40
1.0
 40
1.0
 40
1.0
 10
4619.922513583057
 20
662.160144726033
 30
0.0000000001127424
 10
4619.922513583057
 20
662.160144726033
 30
0.0000000001127424
 10
4619.91109806093
 20
662.1626526820239
 30
0.0000000001127424
 10
4619.866665004589
 20
662.1726574631841
 30
0.0000000001127424
 10
4619.832969404036
 20
662.1803141282337
 30
0.0000000001127424
 10
4619.703622082574
 20
662.2108586327663
 30
0.0000000001127424
 10
4619.577166202267
 20
662.2419587865434
 30
0.0000000001127424
 10
4619.276220001271
 20
662.3253617949149
 30
0.0000000001127424
 10
4619.099426566505
 20
662.3785107244375
 30
0.0000000001127424
 10
4618.729730294501
 20
662.503203051041
 30
0.0000000001127424
 10
4618.534659136267
 20
662.5754307567718
 30
0.0000000001127424
 10
4618.341432501976
 20
662.6544160107242
 30
0.0000000001127424
  0
SPLINE
  5
EE3F
330
18
100
AcDbEntity
  8
01
100
AcDbSpline
210
0.0
220
0.0
230
1.0
 70
     8
 71
     3
 72
    16
 73
    12
 74
     0
 42
0.0000000001
 43
0.0000000001
 40
0.0
 40
0.0
 40
0.0
 40
0.0
 40
0.1249999999999997
 40
0.1249999999999997
 40
0.2499999999999993
 40
0.2499999999999993
 40
0.4999999999999996
 40
0.4999999999999996
 40
0.7499999999999998
 40
0.7499999999999998
 40
1.0
 40
1.0
 40
1.0
 40
1.0
 10
4624.138729799273
 20
681.1988821006098
 30
0.0000000001127424
 10
4624.138729799273
 20
681.1988821006098
 30
0.0000000001127424
 10
4624.1501453214
 20
681.1963741446189
 30
0.0000000001127424
 10
4624.194578377741
 20
681.1863693634587
 30
0.0000000001127424
 10
4624.228273978294
 20
681.1787126984091
 30
0.0000000001127424
 10
4624.357621299756
 20
681.1481681938765
 30
0.0000000001127424
 10
4624.484077180063
 20
681.1170680400996
 30
0.0000000001127424
 10
4624.785023381059
 20
681.0336650317281
 30
0.0000000001127424
 10
4624.961816815826
 20
680.9805161022055
 30
0.0000000001127424
 10
4625.331513087829
 20
680.855823775602
 30
0.0000000001127424
 10
4625.526584246063
 20
680.7835960698712
 30
0.0000000001127424
 10
4625.719810880354
 20
680.7046108159188
 30
0.0000000001127424
  0
ARC
  5
EE40
330
18
100
AcDbEntity
  8
01
100
AcDbCircle
 10
4622.030621691165
 20
671.6795134133215
 30
0.0000000001127424
 40
9.750000000000005
100
AcDbArc
 50
112.2332717982963
 51
247.7667282017037
  0
ARC
  5
EE41
330
18
100
AcDbEntity
  8
01
100
AcDbCircle
 10
4622.030621691165
 20
671.6795134133215
 30
0.0000000001127424
 40
9.750000000000009
100
AcDbArc
 50
292.2332717982963
 51
67.7667282017037
  0
CIRCLE
  5
EE42
330
18
100
AcDbEntity
  8
01
100
AcDbCircle
 10
4622.030621691165
 20
671.6795134133215
 30
0.0000000001127424
 40
10.3
  0
SPLINE
  5
EE43
330
18
100
AcDbEntity
  8
01
100
AcDbSpline
210
0.0
220
0.0
230
1.0
 70
    24
 71
     1
 72
     4
 73
     2
 74
     0
 42
0.0000000001
 43
0.0000000001
 40
0.1160848018737504
 40
0.1160848018737504
 40
1.0
 40
1.0
 10
4765.730625691167
 20
661.9295134133142
 30
0.0000000001127427
 10
4751.030600880154
 20
661.9295134133142
 30
0.0000000001127427
  0
SPLINE
  5
EE44
330
18
100
AcDbEntity
  8
01
100
AcDbSpline
210
0.0
220
0.0
230
1.0
 70
    24
 71
     1
 72
     4
 73
     2
 74
     0
 42
0.0000000001
 43
0.0000000001
 40
0.0
 40
0.0
 40
0.8839151981262495
 40
0.8839151981262495
 10
4751.030600880154
 20
681.4295134133142
 30
0.0000000001127427
 10
4765.730625691166
 20
681.4295134133142
 30
0.0000000001127427
  0
ARC
  5
EE45
330
18
100
AcDbEntity
  8
01
100
AcDbCircle
 10
4751.030600880154
 20
662.9295134133142
 30
0.0000000001127427
 40
1.0
100
AcDbArc
 50
180.0
 51
270.0
  0
ARC
  5
EE46
330
18
100
AcDbEntity
  8
01
100
AcDbCircle
 10
4751.030600880154
 20
680.4295134133142
 30
0.0000000001127427
 40
1.0
100
AcDbArc
 50
90.0
 51
180.0
  0
LINE
  5
EE47
330
18
100
AcDbEntity
  8
01
100
AcDbLine
 10
4764.530600880154
 20
680.241785308086
 30
0.0000000001127427
 11
4764.530600880154
 21
663.1172415185424
 31
0.0000000001127427
  0
SPLINE
  5
EE48
330
18
100
AcDbEntity
  8
01
100
AcDbSpline
210
0.0
220
0.0
230
1.0
 70
     8
 71
     3
 72
    14
 73
    10
 74
     0
 42
0.0000000001
 43
0.0000000001
 40
0.0
 40
0.0
 40
0.0
 40
0.0
 40
0.25
 40
0.25
 40
0.5
 40
0.5
 40
0.75
 40
0.75
 40
1.0
 40
1.0
 40
1.0
 40
1.0
 10
4763.530600880154
 20
680.7107093474083
 30
0.0000000001127427
 10
4763.670568557907
 20
680.7107093474083
 30
0.0000000001127427
 10
4763.808989832052
 20
680.7010733921015
 30
0.0000000001127427
 10
4764.059040172007
 20
680.66199248316
 30
0.0000000001127427
 10
4764.171357734836
 20
680.6321863482863
 30
0.0000000001127427
 10
4764.352405105923
 20
680.5512666115023
 30
0.0000000001127427
 10
4764.420205742227
 20
680.5008770753107
 30
0.0000000001127427
 10
4764.50982465877
 20
680.381507486296
 30
0.0000000001127427
 10
4764.530600880154
 20
680.3147080355845
 30
0.0000000001127427
 10
4764.530600880154
 20
680.241785308086
 30
0.0000000001127427
  0
SPLINE
  5
EE49
330
18
100
AcDbEntity
  8
01
100
AcDbSpline
210
0.0
220
0.0
230
1.0
 70
     8
 71
     3
 72
    14
 73
    10
 74
     0
 42
0.0000000001
 43
0.0000000001
 40
0.0
 40
0.0
 40
0.0
 40
0.0
 40
0.25
 40
0.25
 40
0.5
 40
0.5
 40
0.75
 40
0.75
 40
1.0
 40
1.0
 40
1.0
 40
1.0
 10
4764.530600880154
 20
663.1172415185424
 30
0.0000000001127427
 10
4764.530600880154
 20
663.044324831408
 30
0.0000000001127427
 10
4764.509240472893
 20
662.9765401355471
 30
0.0000000001127427
 10
4764.420101281217
 20
662.8582132615834
 30
0.0000000001127427
 10
4764.351168651063
 20
662.8071004068152
 30
0.0000000001127427
 10
4764.171121210697
 20
662.7268428146615
 30
0.0000000001127427
 10
4764.058415537202
 20
662.696879994955
 30
0.0000000001127427
 10
4763.807844923582
 20
662.6578316194209
 30
0.0000000001127427
 10
4763.670458774264
 20
662.6483174792199
 30
0.0000000001127427
 10
4763.530600880154
 20
662.6483174792199
 30
0.0000000001127427
  0
LINE
  5
EE4A
330
18
100
AcDbEntity
  8
01
100
AcDbLine
 10
4763.530600880154
 20
662.6483174792199
 30
0.0000000001127427
 11
4751.030600880154
 21
662.6483174792199
 31
0.0000000001127427
  0
LINE
  5
EE4B
330
18
100
AcDbEntity
  8
01
100
AcDbLine
 10
4751.030600880154
 20
680.7107093474083
 30
0.0000000001127427
 11
4763.530600880154
 21
680.7107093474083
 31
0.0000000001127427
  0
SPLINE
  5
EE4C
330
18
100
AcDbEntity
  8
01
100
AcDbSpline
210
0.0
220
0.0
230
1.0
 70
     8
 71
     3
 72
    14
 73
    10
 74
     0
 42
0.0000000001
 43
0.0000000001
 40
0.0
 40
0.0
 40
0.0
 40
0.0
 40
0.2500000000000001
 40
0.2500000000000001
 40
0.5000000000000002
 40
0.5000000000000002
 40
0.7500000000000003
 40
0.7500000000000003
 40
1.0
 40
1.0
 40
1.0
 40
1.0
 10
4751.030600880154
 20
680.7107093474083
 30
0.0000000001127427
 10
4750.893391965226
 20
680.7107093474083
 30
0.0000000001127427
 10
4750.758388419715
 20
680.6993345373132
 30
0.0000000001127427
 10
4750.511051961062
 20
680.6563796699929
 30
0.0000000001127427
 10
4750.400550531696
 20
680.6251353428884
 30
0.0000000001127427
 10
4750.218356858169
 20
680.5479498254972
 30
0.0000000001127427
 10
4750.149363755783
 20
680.5036092102378
 30
0.0000000001127427
 10
4750.054596217297
 20
680.4056275588596
 30
0.0000000001127427
 10
4750.030600880154
 20
680.3531341358428
 30
0.0000000001127427
 10
4750.030600880154
 20
680.2999832380974
 30
0.0000000001127427
  0
SPLINE
  5
EE4D
330
18
100
AcDbEntity
  8
01
100
AcDbSpline
210
0.0
220
0.0
230
1.0
 70
     8
 71
     3
 72
    14
 73
    10
 74
     0
 42
0.0000000001
 43
0.0000000001
 40
0.0
 40
0.0
 40
0.0
 40
0.0
 40
0.2500000000000001
 40
0.2500000000000001
 40
0.5000000000000002
 40
0.5000000000000002
 40
0.7500000000000003
 40
0.7500000000000003
 40
1.0
 40
1.0
 40
1.0
 40
1.0
 10
4751.030600880154
 20
662.6483174792199
 30
0.0000000001127427
 10
4750.893391965226
 20
662.6483174792199
 30
0.0000000001127427
 10
4750.758388419715
 20
662.6596922893152
 30
0.0000000001127427
 10
4750.511051961062
 20
662.7026471566355
 30
0.0000000001127427
 10
4750.400550531696
 20
662.7338914837401
 30
0.0000000001127427
 10
4750.218356858169
 20
662.8110770011313
 30
0.0000000001127427
 10
4750.149363755783
 20
662.8554176163907
 30
0.0000000001127427
 10
4750.054596217297
 20
662.9533992677689
 30
0.0000000001127427
 10
4750.030600880154
 20
663.0058926907855
 30
0.0000000001127427
 10
4750.030600880154
 20
663.0590435885308
 30
0.0000000001127427
  0
LINE
  5
EE4E
330
18
100
AcDbEntity
  8
01
100
AcDbLine
 10
4750.030600880154
 20
680.2999832380974
 30
0.0000000001127427
 11
4750.030600880154
 21
663.0590435885308
 31
0.0000000001127427
  0
LINE
  5
EE4F
330
18
100
AcDbEntity
  8
01
100
AcDbLine
 10
4750.030600880154
 20
663.0590435885308
 30
0.0000000001127427
 11
4750.030600880154
 21
662.9295134133142
 31
0.0000000001127427
  0
LINE
  5
EE50
330
18
100
AcDbEntity
  8
01
100
AcDbLine
 10
4942.530625434809
 20
917.9795134122928
 30
0.0000000001127424
 11
4981.530625434809
 21
917.979513412293
 31
0.0000000001127424
  0
LINE
  5
EE51
330
18
100
AcDbEntity
  8
01
100
AcDbLine
 10
4982.030625434809
 20
911.6795134122929
 30
0.0000000001127424
 11
4942.030625434809
 21
911.6795134122924
 31
0.0000000001127424
  0
LINE
  5
EE52
330
18
100
AcDbEntity
  8
01
100
AcDbLine
 10
4982.030625434809
 20
911.6795134122929
 30
0.0000000001127424
 11
4982.030625434809
 21
917.479513412293
 31
0.0000000001127424
  0
ARC
  5
EE53
330
18
100
AcDbEntity
  8
01
100
AcDbCircle
 10
4981.530625434809
 20
917.4795134122928
 30
0.0000000001127424
 40
0.5
100
AcDbArc
 50
0.0
 51
90.0
  0
LINE
  5
EE54
330
18
100
AcDbEntity
  8
01
100
AcDbLine
 10
4942.030625434809
 20
911.6795134122924
 30
0.0000000001127424
 11
4942.030625434809
 21
917.4795134122928
 31
0.0000000001127424
  0
ARC
  5
EE55
330
18
100
AcDbEntity
  8
01
100
AcDbCircle
 10
4942.530625434809
 20
917.4795134122928
 30
0.0000000001127424
 40
0.5
100
AcDbArc
 50
90.0
 51
180.0
  0
LINE
  5
EE56
330
18
100
AcDbEntity
  8
01
100
AcDbLine
 10
4958.530637656022
 20
919.1795100790926
 30
0.0000000000565071
 11
4952.780637656017
 21
919.1795100790937
 31
0.0000000000565071
  0
LINE
  5
EE57
330
18
100
AcDbEntity
  8
01
100
AcDbLine
 10
4959.530637656024
 20
932.6795330232992
 30
0.0000000000565071
 11
4959.530637656022
 21
920.1795100790926
 31
0.0000000000565071
  0
LINE
  5
EE58
330
18
100
AcDbEntity
  8
01
100
AcDbLine
 10
4964.530637656024
 20
932.6795330232974
 30
0.0000000000565071
 11
4964.530637656024
 21
920.1795100790944
 31
0.0000000000565071
  0
ARC
  5
EE59
330
18
100
AcDbEntity
  8
01
100
AcDbCircle
 10
4963.530637656025
 20
932.6795330232992
 30
0.0000000000565071
 40
1.0
100
AcDbArc
 50
0.0000000000521102
 51
90.0
  0
ARC
  5
EE5A
330
18
100
AcDbEntity
  8
01
100
AcDbCircle
 10
4960.530637656025
 20
932.6795330232992
 30
0.0000000000565071
 40
1.0
100
AcDbArc
 50
90.0
 51
180.0
  0
LINE
  5
EE5B
330
18
100
AcDbEntity
  8
01
100
AcDbLine
 10
4963.530637656024
 20
933.679533023301
 30
0.0000000000565071
 11
4960.530637656025
 21
933.679533023301
 31
0.0000000000565071
  0
LINE
  5
EE5C
330
18
100
AcDbEntity
  8
01
100
AcDbLine
 10
4971.280637656016
 20
919.1795100790944
 30
0.0000000000565071
 11
4965.530637656024
 21
919.1795100790944
 31
0.0000000000565071
  0
ARC
  5
EE5D
330
18
100
AcDbEntity
  8
01
100
AcDbCircle
 10
4965.530637656025
 20
920.1795100790944
 30
0.0000000000565071
 40
1.0
100
AcDbArc
 50
180.0
 51
270.0
  0
ARC
  5
EE5E
330
18
100
AcDbEntity
  8
01
100
AcDbCircle
 10
4958.530637656023
 20
920.1795100790926
 30
0.0000000000565071
 40
1.0
100
AcDbArc
 50
270.0
 51
0.0
  0
LINE
  5
EE5F
330
18
100
AcDbEntity
  8
01
100
AcDbLine
 10
4952.280637656016
 20
918.6795100790939
 30
0.0000000001127646
 11
4952.280637656016
 21
917.979513412293
 31
0.0000000001127424
  0
ARC
  5
EE60
330
18
100
AcDbEntity
  8
01
100
AcDbCircle
 10
4952.780637656017
 20
918.6795100790939
 30
0.0000000001127646
 40
0.5
100
AcDbArc
 50
90.0
 51
180.0
  0
LINE
  5
EE61
330
18
100
AcDbEntity
  8
01
100
AcDbLine
 10
4971.780637656016
 20
918.6795100790939
 30
0.0000000001127646
 11
4971.780637656016
 21
917.979513412293
 31
0.0000000001127424
  0
ARC
  5
EE62
330
18
100
AcDbEntity
  8
01
100
AcDbCircle
 10
4971.280637656016
 20
918.6795100790939
 30
0.0000000001127646
 40
0.5
100
AcDbArc
 50
0.0
 51
90.0
  0
LINE
  5
EE64
330
18
100
AcDbEntity
  8
01
100
AcDbLine
 10
4818.330625691166
 20
657.6795182775113
 30
0.0000000000564849
 11
4818.330625691166
 21
696.6795182775109
 31
0.0000000000564849
  0
LINE
  5
EE65
330
18
100
AcDbEntity
  8
01
100
AcDbLine
 10
4812.030625691162
 20
657.1795182775111
 30
0.0000000000564849
 11
4817.830625691166
 21
657.1795182775113
 31
0.0000000000564849
  0
ARC
  5
EE66
330
18
100
AcDbEntity
  8
01
100
AcDbCircle
 10
4817.830625691166
 20
657.6795182775113
 30
0.0000000000564849
 40
0.5
100
AcDbArc
 50
270.0
 51
0.0
  0
LINE
  5
EE67
330
18
100
AcDbEntity
  8
01
100
AcDbLine
 10
4812.030625691166
 20
697.1795182775113
 30
0.0000000000564849
 11
4817.830625691166
 21
697.1795182775109
 31
0.0000000000564849
  0
ARC
  5
EE68
330
18
100
AcDbEntity
  8
01
100
AcDbCircle
 10
4817.830625691166
 20
696.6795182775109
 30
0.0000000000564849
 40
0.5
100
AcDbArc
 50
0.0
 51
90.0
  0
LINE
  5
EE69
330
18
100
AcDbEntity
  8
01
100
AcDbLine
 10
4819.072609380127
 20
675.1795147342598
 30
0.0000000001127388
 11
4818.330625691166
 21
675.1795147342596
 31
0.0000000001127388
  0
LINE
  5
EE6A
330
18
100
AcDbEntity
  8
01
100
AcDbLine
 10
4819.072609380127
 20
668.1795147342598
 30
0.0000000001127388
 11
4818.330625691166
 21
668.1795147342598
 31
0.0000000001127388
  0
ARC
  5
EE6B
330
18
100
AcDbEntity
  8
01
100
AcDbCircle
 10
4814.199209380126
 20
671.6795147342598
 30
0.0000000001127388
 40
6.0
100
AcDbArc
 50
324.3146699999792
 51
35.68533471265081
  0
LINE
  5
EFFC
330
18
100
AcDbEntity
  8
01
100
AcDbLine
 10
4906.03050935142
 20
699.6795134133213
 30
0.0000000001127424
 11
4920.03050935142
 21
699.6795134133213
 31
0.0000000001127424
  0
LINE
  5
EFFD
330
18
100
AcDbEntity
  8
01
100
AcDbLine
 10
4911.03139353348
 20
911.6795134122926
 30
0.0000000001127424
 11
5064.785773688513
 21
911.6795134122926
 31
0.0000000001127424
  0
LINE
  5
EFFF
330
18
100
AcDbEntity
  8
01
  6
BYBLOCK
100
AcDbLine
 10
4911.03139353348
 20
911.6795134122926
 30
0.0000000001127424
 11
4911.03139353348
 21
871.6795134122926
 31
0.0000000001127424
  0
LINE
  5
F003
330
18
100
AcDbEntity
  8
01
100
AcDbLine
 10
4962.030509351418
 20
906.679513411264
 30
0.0000000001127424
 11
4962.030509351418
 21
937.5975936005129
 31
0.0000000001127424
  0
LINE
  5
F004
330
18
100
AcDbEntity
  8
01
  6
BYBLOCK
100
AcDbLine
 10
4912.53050935142
 20
707.5795134133214
 30
0.0000000001127424
 11
4912.53050935142
 21
577.7795134133214
 31
0.0000000001127424
  0
LINE
  5
F005
330
18
100
AcDbEntity
  8
01
  6
BYBLOCK
100
AcDbLine
 10
4912.53050935142
 20
578.6795134133213
 30
0.0000000001127424
 11
4915.03050935142
 21
578.6795134133213
 31
0.0000000001127424
  0
LINE
  5
F006
330
18
100
AcDbEntity
  8
01
  6
BYBLOCK
100
AcDbLine
 10
4915.03050935142
 20
578.6795134133213
 30
0.0000000001127424
 11
4915.03050935142
 21
595.1824571384736
 31
0.0000000001127424
  0
LINE
  5
F007
330
18
100
AcDbEntity
  8
01
  6
BYBLOCK
100
AcDbLine
 10
4911.03050935142
 20
707.5795134133214
 30
0.0000000001127424
 11
4911.03050935142
 21
577.7795134133214
 31
0.0000000001127424
  0
LINE
  5
F008
330
18
100
AcDbEntity
  8
01
  6
BYBLOCK
100
AcDbLine
 10
4911.03050935142
 20
577.7795134133214
 30
0.0000000001127424
 11
4912.53050935142
 21
577.7795134133214
 31
0.0000000001127424
  0
LINE
  5
F009
330
18
100
AcDbEntity
  8
01
  6
BYBLOCK
100
AcDbLine
 10
4912.53050935142
 20
706.6795134133213
 30
0.0000000001127424
 11
4915.03050935142
 21
706.6795134133213
 31
0.0000000001127424
  0
LINE
  5
F00A
330
18
100
AcDbEntity
  8
01
  6
BYBLOCK
100
AcDbLine
 10
4911.03050935142
 20
707.5795134133214
 30
0.0000000001127424
 11
4912.53050935142
 21
707.5795134133214
 31
0.0000000001127424
  0
LINE
  5
F00B
330
18
100
AcDbEntity
  8
01
  6
BYBLOCK
100
AcDbLine
 10
4912.53050935142
 20
682.6795134133213
 30
0.0000000001127424
 11
4913.73050935142
 21
682.6795134133213
 31
0.0000000001127424
  0
LINE
  5
F00C
330
18
100
AcDbEntity
  8
01
  6
BYBLOCK
100
AcDbLine
 10
4913.73050935142
 20
688.3795134133215
 30
0.0000000001127424
 11
4913.73050935142
 21
596.9795134133215
 31
0.0000000001127424
  0
LINE
  5
F00D
330
18
100
AcDbEntity
  8
01
  6
BYBLOCK
100
AcDbLine
 10
4913.83050935142
 20
578.6795134133213
 30
0.0000000001127424
 11
4913.83050935142
 21
595.2795134133214
 31
0.0000000001127424
  0
LINE
  5
F00E
330
18
100
AcDbEntity
  8
01
  6
BYBLOCK
100
AcDbLine
 10
4913.83050935142
 20
595.2795134133214
 30
0.0000000001127424
 11
4912.881981213995
 21
596.2280415507453
 31
0.0000000001127424
  0
LINE
  5
F00F
330
18
100
AcDbEntity
  8
01
  6
BYBLOCK
100
AcDbLine
 10
4914.679037488843
 20
596.0309852758976
 30
0.0000000001127424
 11
4913.73050935142
 21
596.9795134133215
 31
0.0000000001127424
  0
ARC
  5
F010
330
18
100
AcDbEntity
  8
01
  6
BYBLOCK
100
AcDbCircle
 10
4913.83050935142
 20
595.1824571384736
 30
0.0000000001127424
 40
1.2
100
AcDbArc
 50
0.0
 51
45.00000000005527
  0
ARC
  5
F011
330
18
100
AcDbEntity
  8
01
  6
BYBLOCK
100
AcDbCircle
 10
4913.73050935142
 20
597.0765696881692
 30
0.0000000001127424
 40
1.2
100
AcDbArc
 50
180.0
 51
225.0000000000553
  0
LINE
  5
F012
330
18
100
AcDbEntity
  8
01
  6
BYBLOCK
100
AcDbLine
 10
4915.03050935142
 20
706.6795134133213
 30
0.0000000001127424
 11
4915.03050935142
 21
690.1765696881691
 31
0.0000000001127424
  0
LINE
  5
F013
330
18
100
AcDbEntity
  8
01
  6
BYBLOCK
100
AcDbLine
 10
4913.83050935142
 20
706.6795134133213
 30
0.0000000001127424
 11
4913.83050935142
 21
690.0795134133214
 31
0.0000000001127424
  0
LINE
  5
F014
330
18
100
AcDbEntity
  8
01
  6
BYBLOCK
100
AcDbLine
 10
4913.83050935142
 20
690.0795134133214
 30
0.0000000001127424
 11
4912.881981213995
 21
689.1309852758975
 31
0.0000000001127424
  0
LINE
  5
F015
330
18
100
AcDbEntity
  8
01
  6
BYBLOCK
100
AcDbLine
 10
4914.679037488843
 20
689.3280415507452
 30
0.0000000001127424
 11
4913.73050935142
 21
688.3795134133213
 31
0.0000000001127424
  0
ARC
  5
F016
330
18
100
AcDbEntity
  8
01
  6
BYBLOCK
100
AcDbCircle
 10
4913.83050935142
 20
690.1765696881691
 30
0.0000000001127424
 40
1.2
100
AcDbArc
 50
314.9999999999447
 51
0.0
  0
ARC
  5
F017
330
18
100
AcDbEntity
  8
01
  6
BYBLOCK
100
AcDbCircle
 10
4913.73050935142
 20
688.2824571384735
 30
0.0000000001127424
 40
1.2
100
AcDbArc
 50
134.9999999999447
 51
180.0
  0
CIRCLE
  5
F018
330
18
100
AcDbEntity
  8
01
  6
HIDDEN
100
AcDbCircle
 10
4962.03050935142
 20
671.6795134133213
 30
0.0000000001127424
 40
4.75
  0
LINE
  5
F019
330
18
100
AcDbEntity
  8
01
  6
BYBLOCK
100
AcDbLine
 10
4913.73050935142
 20
605.679513413321
 30
0.0000000001127424
 11
4942.821136639121
 21
605.6795134133213
 31
0.0000000001127424
  0
ARC
  5
F01A
330
18
100
AcDbEntity
  8
01
  6
BYBLOCK
100
AcDbCircle
 10
4914.13139353348
 20
895.2407639552926
 30
0.0000000001127424
 40
1.6
100
AcDbArc
 50
115.944479772022
 51
180.0
  0
ARC
  5
F01B
330
18
100
AcDbEntity
  8
01
  6
BYBLOCK
100
AcDbCircle
 10
4914.13139353348
 20
888.1182628692927
 30
0.0000000001127424
 40
1.6
100
AcDbArc
 50
180.0
 51
244.055520227978
  0
ARC
  5
F01C
330
18
100
AcDbEntity
  8
01
  6
BYBLOCK
100
AcDbCircle
 10
4913.431393533479
 20
886.8407639552927
 30
0.0000000001127424
 40
1.6
100
AcDbArc
 50
0.0
 51
64.05552022797804
  0
ARC
  5
F01D
330
18
100
AcDbEntity
  8
01
  6
BYBLOCK
100
AcDbCircle
 10
4913.431393533479
 20
896.5182628692926
 30
0.0000000001127424
 40
1.6
100
AcDbArc
 50
295.944479772022
 51
0.0
  0
LINE
  5
F01E
330
18
100
AcDbEntity
  8
01
  6
BYBLOCK
100
AcDbLine
 10
4915.03139353348
 20
896.5182628692926
 30
0.0000000001127424
 11
4915.03139353348
 21
903.8795134122927
 31
0.0000000001127424
  0
LINE
  5
F01F
330
18
100
AcDbEntity
  8
01
  6
BYBLOCK
100
AcDbLine
 10
4914.13139353348
 20
888.2795134122925
 30
0.0000000001127424
 11
4914.13139353348
 21
895.0795134122927
 31
0.0000000001127424
  0
LINE
  5
F020
330
18
100
AcDbEntity
  8
01
  6
BYBLOCK
100
AcDbLine
 10
4915.03139353348
 20
879.6795134122926
 30
0.0000000001127424
 11
4915.03139353348
 21
886.8407639552927
 31
0.0000000001127424
  0
LINE
  5
F021
330
18
100
AcDbEntity
  8
01
  6
BYBLOCK
100
AcDbLine
 10
4913.431393533479
 20
896.6795134122926
 30
0.0000000001127424
 11
4913.43139353348
 21
903.8795134122927
 31
0.0000000001127424
  0
LINE
  5
F022
330
18
100
AcDbEntity
  8
01
  6
BYBLOCK
100
AcDbLine
 10
4913.431393533479
 20
886.6795134122926
 30
0.0000000001127424
 11
4913.431393533479
 21
879.5795134122927
 31
0.0000000001127424
  0
ARC
  5
F023
330
18
100
AcDbEntity
  8
01
  6
BYBLOCK
100
AcDbCircle
 10
4978.431393533479
 20
899.5795134122927
 30
0.0000000001127424
 40
1.6
100
AcDbArc
 50
0.0
 51
90.0
  0
LINE
  5
F024
330
18
100
AcDbEntity
  8
01
  6
BYBLOCK
100
AcDbLine
 10
4912.53139353348
 20
904.0795134122927
 30
0.0000000001127424
 11
4912.53139353348
 21
879.2795134122928
 31
0.0000000001127424
  0
LINE
  5
F025
330
18
100
AcDbEntity
  8
01
  6
BYBLOCK
100
AcDbLine
 10
4978.431393533479
 20
901.1795134122926
 30
0.0000000001127424
 11
4915.03139353348
 21
901.1795134122926
 31
0.0000000001127424
  0
LINE
  5
F026
330
18
100
AcDbEntity
  8
01
  6
BYBLOCK
100
AcDbLine
 10
4978.431393533479
 20
883.9795134122926
 30
0.0000000001127424
 11
4978.431393533479
 21
901.1795134122926
 31
0.0000000001127424
  0
LINE
  5
F027
330
18
100
AcDbEntity
  8
01
  6
BYBLOCK
100
AcDbLine
 10
4980.03139353348
 20
882.3795134122927
 30
0.0000000001127424
 11
4980.03139353348
 21
899.5795134122927
 31
0.0000000001127424
  0
LINE
  5
F028
330
18
100
AcDbEntity
  8
01
  6
BYBLOCK
100
AcDbLine
 10
4912.53139353348
 20
903.8795134122927
 30
0.0000000001127424
 11
4915.03139353348
 21
903.8795134122927
 31
0.0000000001127424
  0
LINE
  5
F029
330
18
100
AcDbEntity
  8
01
  6
BYBLOCK
100
AcDbLine
 10
4915.03139353348
 20
879.6795134122926
 30
0.0000000001127424
 11
4913.431393533479
 21
879.6795134122926
 31
0.0000000001127424
  0
LINE
  5
F02A
330
18
100
AcDbEntity
  8
01
  6
BYBLOCK
100
AcDbLine
 10
4913.431393533479
 20
879.5795134122927
 30
0.0000000001127424
 11
4912.53139353348
 21
879.5795134122927
 31
0.0000000001127424
  0
ARC
  5
F02B
330
18
100
AcDbEntity
  8
01
  6
BYBLOCK
100
AcDbCircle
 10
4909.731988460879
 20
885.9795134122933
 30
0.0000000001127424
 40
0.3000000000000051
100
AcDbArc
 50
232.8678058729389
 51
270.0
  0
LINE
  5
F02C
330
18
100
AcDbEntity
  8
01
  6
BYBLOCK
100
AcDbLine
 10
4910.53139353348
 20
885.6795134122933
 30
0.0000000001127424
 11
4909.731988460879
 21
885.6795134122933
 31
0.0000000001127424
  0
LINE
  5
F02D
330
18
100
AcDbEntity
  8
01
  6
BYBLOCK
100
AcDbLine
 10
4900.13139353348
 20
895.3525022784975
 30
0.0000000001127424
 11
4900.13139353348
 21
895.1818802229484
 31
0.0000000001127424
  0
ARC
  5
F02E
330
18
100
AcDbEntity
  8
01
  6
BYBLOCK
100
AcDbCircle
 10
4900.431393533479
 20
895.1818802229484
 30
0.0000000001127424
 40
0.3
100
AcDbArc
 50
180.0
 51
217.7405295629614
  0
ARC
  5
F02F
330
18
100
AcDbEntity
  8
01
  6
BYBLOCK
100
AcDbCircle
 10
4939.733694132764
 20
925.6025831668892
 30
0.0000000001127424
 40
50.00000000000002
100
AcDbArc
 50
217.7405295629665
 51
232.8678058729428
  0
LINE
  5
F030
330
18
100
AcDbEntity
  8
01
  6
BYBLOCK
100
AcDbLine
 10
4899.931393533479
 20
896.4795134122928
 30
0.0000000001127424
 11
4899.931393533479
 21
897.1795134122926
 31
0.0000000001127424
  0
ARC
  5
F031
330
18
100
AcDbEntity
  8
01
  6
BYBLOCK
100
AcDbCircle
 10
4900.431393533479
 20
897.1795134122926
 30
0.0000000001127424
 40
0.5000000000000142
100
AcDbArc
 50
90.0
 51
180.0
  0
LINE
  5
F032
330
18
100
AcDbEntity
  8
01
  6
BYBLOCK
100
AcDbLine
 10
4910.53139353348
 20
897.6795134122926
 30
0.0000000001127424
 11
4900.431393533479
 21
897.6795134122926
 31
0.0000000001127424
  0
LINE
  5
F033
330
18
100
AcDbEntity
  8
01
  6
BYBLOCK
100
AcDbLine
 10
4899.931393533479
 20
896.1008337558524
 30
0.0000000001127424
 11
4899.931393533479
 21
896.4795134122928
 31
0.0000000001127424
  0
SPLINE
  5
F034
330
18
100
AcDbEntity
  8
01
  6
BYBLOCK
100
AcDbSpline
210
0.0
220
0.0
230
1.0
 70
     8
 71
     3
 72
     8
 73
     4
 74
     0
 42
0.0000000001
 43
0.0000000001
 40
0.0
 40
0.0
 40
0.0
 40
0.0
 40
1.0
 40
1.0
 40
1.0
 40
1.0
 10
4899.957126074744
 20
895.8241833264033
 30
0.0000000001127424
 10
4899.939658188633
 20
895.9172695222837
 30
0.0000000001127424
 10
4899.931393533479
 20
896.0105355331752
 30
0.0000000001127424
 10
4899.931393533479
 20
896.1008337558528
 30
0.0000000001127424
  0
ARC
  5
F035
330
18
100
AcDbEntity
  8
01
  6
BYBLOCK
100
AcDbCircle
 10
4901.431393533479
 20
896.1008337558524
 30
0.0000000001127424
 40
1.499999999999998
100
AcDbArc
 50
190.628112987605
 51
225.0000000000553
  0
LINE
  5
F036
330
18
100
AcDbEntity
  8
01
  6
BYBLOCK
100
AcDbLine
 10
4911.03139353348
 20
898.5295134122928
 30
0.0000000001127424
 11
4910.53139353348
 21
898.5295134122928
 31
0.0000000001127424
  0
LINE
  5
F037
330
18
100
AcDbEntity
  8
01
  6
BYBLOCK
100
AcDbLine
 10
4910.53139353348
 20
884.8295134122927
 30
0.0000000001127424
 11
4911.03139353348
 21
884.8295134122927
 31
0.0000000001127424
  0
LINE
  5
F038
330
18
100
AcDbEntity
  8
01
  6
BYBLOCK
100
AcDbLine
 10
4910.53139353348
 20
884.8295134122927
 30
0.0000000001127424
 11
4910.53139353348
 21
898.5295134122928
 31
0.0000000001127424
  0
LINE
  5
F039
330
18
100
AcDbEntity
  8
01
  6
BYBLOCK
100
AcDbLine
 10
4911.03139353348
 20
904.0795134122927
 30
0.0000000001127424
 11
4912.53139353348
 21
904.0795134122927
 31
0.0000000001127424
  0
LINE
  5
F03A
330
18
100
AcDbEntity
  8
01
  6
BYBLOCK
100
AcDbLine
 10
4911.03139353348
 20
879.2795134122928
 30
0.0000000001127424
 11
4912.53139353348
 21
879.2795134122928
 31
0.0000000001127424
  0
LINE
  5
F03B
330
18
100
AcDbEntity
  8
01
  6
BYBLOCK
100
AcDbLine
 10
4911.03139353348
 20
879.2795134122928
 30
0.0000000001127424
 11
4911.03139353348
 21
904.0795134122927
 31
0.0000000001127424
  0
LINE
  5
F03C
330
18
100
AcDbEntity
  8
01
  6
BYBLOCK
100
AcDbLine
 10
4980.03139353348
 20
883.9795134122926
 30
0.0000000001127424
 11
4915.03139353348
 21
883.9795134122926
 31
0.0000000001127424
  0
LINE
  5
F03D
330
18
100
AcDbEntity
  8
01
  6
BYBLOCK
100
AcDbLine
 10
4980.03139353348
 20
882.3795134122927
 30
0.0000000001127424
 11
4929.63139353348
 21
882.3795134122927
 31
0.0000000001127424
  0
LINE
  5
F03E
330
18
100
AcDbEntity
  8
01
  6
BYBLOCK
100
AcDbLine
 10
4932.468651833683
 20
882.3795134122927
 30
0.0000000001127424
 11
4915.03139353348
 21
882.3795134122927
 31
0.0000000001127424
  0
LINE
  5
F03F
330
18
100
AcDbEntity
  8
01
  6
BYBLOCK
100
AcDbLine
 10
4909.584946924073
 20
885.8259600216993
 30
0.0000000001127424
 11
4900.370733361699
 21
895.0401735840724
 31
0.0000000001127424
  0
ARC
  5
F040
330
18
100
AcDbEntity
  8
01
  6
BYBLOCK
100
AcDbCircle
 10
4909.938500314666
 20
886.1795134122926
 30
0.0000000001127424
 40
0.5
100
AcDbArc
 50
224.9999999999908
 51
270.0
  0
LINE
  5
F041
330
18
100
AcDbEntity
  8
01
  6
BYBLOCK
100
AcDbLine
 10
4910.53139353348
 20
885.6795134122926
 30
0.0000000001127424
 11
4909.938500314666
 21
885.6795134122926
 31
0.0000000001127424
  0
LINE
  5
F043
330
18
100
AcDbEntity
  8
01
  6
BYBLOCK
100
AcDbLine
 10
4900.03050935142
 20
652.7111836803374
 30
0.0000000001127424
 11
4900.03050935142
 21
634.6478431463315
 31
0.0000000001127424
  0
LINE
  5
F044
330
18
100
AcDbEntity
  8
01
  6
BYBLOCK
100
AcDbLine
 10
4904.323402570233
 20
653.6795134133345
 30
0.0000000001127424
 11
4911.03050935142
 21
653.6795134133345
 31
0.0000000001127424
  0
LINE
  5
F045
330
18
100
AcDbEntity
  8
01
  6
BYBLOCK
100
AcDbLine
 10
4904.323402570233
 20
633.6795134133345
 30
0.0000000001127424
 11
4911.03050935142
 21
633.6795134133345
 31
0.0000000001127424
  0
LINE
  5
F046
330
18
100
AcDbEntity
  8
01
  6
BYBLOCK
100
AcDbLine
 10
4909.823402570234
 20
648.9295134133345
 30
0.0000000001127424
 11
4909.823402570233
 21
638.4295134133345
 31
0.0000000001127424
  0
ARC
  5
F047
330
18
100
AcDbEntity
  8
01
  6
BYBLOCK
100
AcDbCircle
 10
4904.323402570233
 20
643.6795134133345
 30
0.0000000001127424
 40
10.00000000000009
100
AcDbArc
 50
53.13010235413383
 51
115.4224671781395
  0
ARC
  5
F048
330
18
100
AcDbEntity
  8
01
  6
BYBLOCK
100
AcDbCircle
 10
4904.323402570233
 20
643.6795134133347
 30
0.0000000001127424
 40
10.00000000000009
100
AcDbArc
 50
244.5775328218606
 51
306.8698976458662
  0
LINE
  5
F049
330
18
100
AcDbEntity
  8
01
  6
BYBLOCK
100
AcDbLine
 10
4910.323402570234
 20
651.6795134133345
 30
0.0000000001127424
 11
4910.323402570234
 21
635.6795134133345
 31
0.0000000001127424
  0
LINE
  5
F04A
330
18
100
AcDbEntity
  8
01
  6
BYBLOCK
100
AcDbLine
 10
4900.03050935142
 20
648.9295134133345
 30
0.0000000001127424
 11
4909.823402570234
 21
648.9295134133345
 31
0.0000000001127424
  0
LINE
  5
F04B
330
18
100
AcDbEntity
  8
01
  6
BYBLOCK
100
AcDbLine
 10
4900.03050935142
 20
638.4295134133345
 30
0.0000000001127424
 11
4909.823402570234
 21
638.4295134133345
 31
0.0000000001127424
  0
LINE
  5
F04C
330
18
100
AcDbEntity
  8
01
  6
BYBLOCK
100
AcDbLine
 10
4785.630625691165
 20
707.5795134133207
 30
0.0000000001127424
 11
4798.430625691164
 21
707.5795134133207
 31
0.0000000001127424
  0
LINE
  5
F04D
330
18
100
AcDbEntity
  8
01
  6
BYBLOCK
100
AcDbLine
 10
4785.630625691165
 20
577.7795134133207
 30
0.0000000001127424
 11
4798.430625691164
 21
577.7795134133207
 31
0.0000000001127424
  0
LINE
  5
F04E
330
18
100
AcDbEntity
  8
01
  6
BYBLOCK
100
AcDbLine
 10
4779.630625691165
 20
701.5795134133207
 30
0.0000000001127424
 11
4779.630625691165
 21
583.7795134133207
 31
0.0000000001127424
  0
LINE
  5
F04F
330
18
100
AcDbEntity
  8
01
  6
BYBLOCK
100
AcDbLine
 10
4804.430625691164
 20
701.5795134133207
 30
0.0000000001127424
 11
4804.430625691164
 21
583.7795134133207
 31
0.0000000001127424
  0
ARC
  5
F050
330
18
100
AcDbEntity
  8
01
  6
BYBLOCK
100
AcDbCircle
 10
4785.630625691165
 20
583.7795134133207
 30
0.0000000001127424
 40
6.0
100
AcDbArc
 50
180.0
 51
270.0
  0
ARC
  5
F051
330
18
100
AcDbEntity
  8
01
  6
BYBLOCK
100
AcDbCircle
 10
4798.430625691164
 20
583.7795134133207
 30
0.0000000001127424
 40
6.0
100
AcDbArc
 50
270.0
 51
0.0
  0
ARC
  5
F052
330
18
100
AcDbEntity
  8
01
  6
BYBLOCK
100
AcDbCircle
 10
4785.630625691165
 20
701.5795134133207
 30
0.0000000001127424
 40
6.0
100
AcDbArc
 50
90.0
 51
180.0
  0
ARC
  5
F053
330
18
100
AcDbEntity
  8
01
  6
BYBLOCK
100
AcDbCircle
 10
4798.430625691164
 20
701.5795134133207
 30
0.0000000001127424
 40
6.0
100
AcDbArc
 50
0.0
 51
90.0
  0
CIRCLE
  5
F054
330
18
100
AcDbEntity
  8
01
  6
BYBLOCK
100
AcDbCircle
 10
4792.030625691164
 20
585.6795134133208
 30
0.0000000001127424
 40
2.75
  0
CIRCLE
  5
F055
330
18
100
AcDbEntity
  8
01
  6
BYBLOCK
100
AcDbCircle
 10
4792.030625691164
 20
585.6795134133208
 30
0.0000000001127424
 40
4.25
  0
CIRCLE
  5
F056
330
18
100
AcDbEntity
  8
01
  6
BYBLOCK
100
AcDbCircle
 10
4792.030625691164
 20
699.6795134133206
 30
0.0000000001127424
 40
2.75
  0
CIRCLE
  5
F057
330
18
100
AcDbEntity
  8
01
  6
BYBLOCK
100
AcDbCircle
 10
4792.030625691164
 20
699.6795134133206
 30
0.0000000001127424
 40
4.25
  0
LINE
  5
F058
330
18
100
AcDbEntity
  8
1CENTER
100
AcDbLine
 10
4797.90565109907
 20
585.6795134133206
 30
0.0000000001127424
 11
4786.155600283259
 21
585.6795134133206
 31
0.0000000001127424
  0
LINE
  5
F059
330
18
100
AcDbEntity
  8
1CENTER
100
AcDbLine
 10
4792.030625691164
 20
591.554538821227
 30
0.0000000001127424
 11
4792.030625691164
 21
579.8044880054144
 31
0.0000000001127424
  0
LINE
  5
F05A
330
18
100
AcDbEntity
  8
1CENTER
100
AcDbLine
 10
4797.90565109907
 20
699.6795134133206
 30
0.0000000001127424
 11
4786.155600283259
 21
699.6795134133206
 31
0.0000000001127424
  0
LINE
  5
F05B
330
18
100
AcDbEntity
  8
1CENTER
100
AcDbLine
 10
4792.030625691164
 20
705.554538821227
 30
0.0000000001127424
 11
4792.030625691164
 21
693.8044880054144
 31
0.0000000001127424
  0
ARC
  5
F05C
330
18
100
AcDbEntity
  8
01
  6
BYBLOCK
100
AcDbCircle
 10
4792.030625691164
 20
643.6795134133208
 30
0.0000000001127424
 40
10.15
100
AcDbArc
 50
231.9925780701392
 51
308.0074219298607
  0
LINE
  5
F05D
330
18
100
AcDbEntity
  8
01
  6
BYBLOCK
100
AcDbLine
 10
4785.780625691164
 20
651.6770130225736
 30
0.0000000001127424
 11
4785.780625691164
 21
635.682013804068
 31
0.0000000001127424
  0
LINE
  5
F05E
330
18
100
AcDbEntity
  8
01
  6
BYBLOCK
100
AcDbLine
 10
4798.280625691164
 20
651.6770130225736
 30
0.0000000001127424
 11
4798.280625691164
 21
635.682013804068
 31
0.0000000001127424
  0
ARC
  5
F05F
330
18
100
AcDbEntity
  8
01
  6
BYBLOCK
100
AcDbCircle
 10
4792.030625691164
 20
643.6795134133208
 30
0.0000000001127424
 40
10.15
100
AcDbArc
 50
51.99257807013929
 51
128.0074219298607
  0
LINE
  5
F060
330
18
100
AcDbEntity
  8
01
  6
BYBLOCK
100
AcDbLine
 10
4787.530625691164
 20
648.9295134133208
 30
0.0000000001127424
 11
4787.530625691164
 21
638.4295134133208
 31
0.0000000001127424
  0
LINE
  5
F061
330
18
100
AcDbEntity
  8
01
  6
BYBLOCK
100
AcDbLine
 10
4797.530625691164
 20
648.9295134133208
 30
0.0000000001127424
 11
4797.530625691164
 21
638.4295134133208
 31
0.0000000001127424
  0
LINE
  5
F062
330
18
100
AcDbEntity
  8
01
  6
BYBLOCK
100
AcDbLine
 10
4788.030625691164
 20
653.0080985150391
 30
0.0000000001127424
 11
4788.030625691164
 21
648.9295134133206
 31
0.0000000001127424
  0
LINE
  5
F063
330
18
100
AcDbEntity
  8
01
  6
BYBLOCK
100
AcDbLine
 10
4786.530625691164
 20
648.9295134133206
 30
0.0000000001127424
 11
4786.530625691164
 21
638.4295134133208
 31
0.0000000001127424
  0
LINE
  5
F064
330
18
100
AcDbEntity
  8
01
  6
BYBLOCK
100
AcDbLine
 10
4788.030625691164
 20
638.4295134133208
 30
0.0000000001127424
 11
4788.030625691164
 21
634.3509283116025
 31
0.0000000001127424
  0
LINE
  5
F065
330
18
100
AcDbEntity
  8
01
  6
BYBLOCK
100
AcDbLine
 10
4786.530625691164
 20
648.9295134133208
 30
0.0000000001127424
 11
4797.530625691164
 21
648.9295134133208
 31
0.0000000001127424
  0
LINE
  5
F066
330
18
100
AcDbEntity
  8
01
  6
BYBLOCK
100
AcDbLine
 10
4786.530625691164
 20
638.4295134133208
 30
0.0000000001127424
 11
4797.530625691164
 21
638.4295134133208
 31
0.0000000001127424
  0
LINE
  5
F068
330
18
100
AcDbEntity
  8
01
100
AcDbLine
 10
4772.030742030907
 20
741.679513413321
 30
0.0000000001127424
 11
4772.030742030907
 21
551.6795134133208
 31
0.0000000001127424
  0
LINE
  5
F069
330
18
100
AcDbEntity
  8
01
100
AcDbLine
 10
4774.15902741334
 20
621.6795134133208
 30
0.0000000001127424
 11
4751.530742030907
 21
621.6795134133208
 31
0.0000000001127424
  0
LINE
  5
F06A
330
18
100
AcDbEntity
  8
01
100
AcDbLine
 10
4906.030509351707
 20
585.67951341361
 30
0.0000000001127424
 11
4920.030509351707
 21
585.67951341361
 31
0.0000000001127424
  0
LINE
  5
F06B
330
18
100
AcDbEntity
  8
01
100
AcDbLine
 10
4973.342397618961
 20
671.6795134133213
 30
0.0000000001127424
 11
4950.718621083877
 21
671.6795134133213
 31
0.0000000001127424
  0
LINE
  5
F06C
330
18
100
AcDbEntity
  8
01
100
AcDbLine
 10
4962.03050935142
 20
682.991401680863
 30
0.0000000001127424
 11
4962.03050935142
 21
660.3676251457796
 31
0.0000000001127424
  0
LINE
  5
F06D
330
18
100
AcDbEntity
  8
01
  6
BYBLOCK
100
AcDbLine
 10
4684.030742030911
 20
652.7111836803374
 30
0.0000000001127424
 11
4684.030742030911
 21
634.6478431463315
 31
0.0000000001127424
  0
LINE
  5
F06E
330
18
100
AcDbEntity
  8
01
  6
BYBLOCK
100
AcDbLine
 10
4679.737848812098
 20
653.6795134133345
 30
0.0000000001127424
 11
4673.030742030911
 21
653.6795134133345
 31
0.0000000001127424
  0
LINE
  5
F06F
330
18
100
AcDbEntity
  8
01
  6
BYBLOCK
100
AcDbLine
 10
4679.737848812098
 20
633.6795134133345
 30
0.0000000001127424
 11
4673.030742030911
 21
633.6795134133345
 31
0.0000000001127424
  0
ARC
  5
F070
330
18
100
AcDbEntity
  8
01
  6
BYBLOCK
100
AcDbCircle
 10
4679.737848812098
 20
643.6795134133345
 30
0.0000000001127424
 40
10.00000000000009
100
AcDbArc
 50
64.57753282186054
 51
90.0
  0
LINE
  5
F071
330
18
100
AcDbEntity
  8
01
  6
CONTINUOUS
100
AcDbLine
 10
4683.530742030911
 20
635.3647192205037
 30
0.0000000001127424
 11
4673.030742030911
 21
635.3647192205037
 31
0.0000000001127424
  0
ARC
  5
F072
330
18
100
AcDbEntity
  8
01
  6
CONTINUOUS
100
AcDbCircle
 10
4683.569322277825
 20
635.8268584513105
 30
0.0000000001127424
 40
0.4637468103423796
100
AcDbArc
 50
265.2279066161988
 51
354.2577450626242
  0
LINE
  5
F073
330
18
100
AcDbEntity
  8
01
  6
CONTINUOUS
100
AcDbLine
 10
4684.030742030911
 20
651.1628281868825
 30
0.0000000001127424
 11
4684.030742030911
 21
636.1961986397866
 31
0.0000000001127424
  0
ARC
  5
F074
330
18
100
AcDbEntity
  8
01
  6
CONTINUOUS
100
AcDbCircle
 10
4683.569322277825
 20
651.5321683753589
 30
0.0000000001127424
 40
0.4637468103423387
100
AcDbArc
 50
5.742254937375811
 51
94.77209338380122
  0
ARC
  5
F075
330
18
100
AcDbEntity
  8
01
  6
BYBLOCK
100
AcDbCircle
 10
4679.737848812098
 20
643.6795134133347
 30
0.0000000001127424
 40
10.00000000000009
100
AcDbArc
 50
270.0
 51
295.4224671781395
  0
LINE
  5
F076
330
18
100
AcDbEntity
  8
01
  6
CONTINUOUS
100
AcDbLine
 10
4673.030742030911
 20
651.9943076061656
 30
0.0000000001127424
 11
4683.530742030911
 21
651.9943076061656
 31
0.0000000001127424
  0
LINE
  5
F077
330
18
100
AcDbEntity
  8
01
100
AcDbLine
 10
4980.03050935142
 20
639.0288649862184
 30
0.0000000001127424
 11
4980.03050935142
 21
606.8795134133213
 31
0.0000000001127424
  0
ARC
  5
F078
330
18
100
AcDbEntity
  8
01
100
AcDbCircle
 10
4979.03050935142
 20
606.6795134133213
 30
0.0000000001127424
 40
1.0
100
AcDbArc
 50
270.0
 51
0.0
  0
LINE
  5
F079
330
18
100
AcDbEntity
  8
01
100
AcDbLine
 10
4942.821136639122
 20
605.6795134133213
 30
0.0000000001127424
 11
4979.03050935142
 21
605.6795134133215
 31
0.0000000001127424
  0
LINE
  5
F07A
330
18
100
AcDbEntity
  8
01
100
AcDbLine
 10
4652.030742030911
 20
621.6795134133213
 30
0.0000000001127424
 11
4592.030742030911
 21
621.6795134133213
 31
0.0000000001127424
  0
LINE
  5
F07B
330
18
100
AcDbEntity
  8
01
100
AcDbLine
 10
4622.030742030911
 20
651.6795134133213
 30
0.0000000001127424
 11
4622.030742030911
 21
591.6795134133213
 31
0.0000000001127424
  0
LINE
  5
F07C
330
18
100
AcDbEntity
  8
01
  6
BYBLOCK
100
AcDbLine
 10
4980.03050935142
 20
668.4616323808996
 30
0.0000000001128561
 11
4980.03050935142
 21
639.0288649862184
 31
0.0000000001127424
  0
LINE
  5
F07D
330
18
100
AcDbEntity
  8
01
  6
BYBLOCK
100
AcDbLine
 10
4913.73050935142
 20
679.6795134133213
 30
0.0000000001127424
 11
4942.187406273437
 21
679.6795134133213
 31
0.0000000001128561
  0
ARC
  5
F07E
330
18
100
AcDbEntity
  8
1HIDDEN
100
AcDbCircle
 10
4979.03050935142
 20
678.6795134133213
 30
0.0000000001127424
 40
1.0
100
AcDbArc
 50
0.0
 51
90.0
  0
LINE
  5
F07F
330
18
100
AcDbEntity
  8
1HIDDEN
100
AcDbLine
 10
4942.187406273437
 20
679.6795134133213
 30
0.0000000001128561
 11
4979.03050935142
 21
679.6795134133213
 31
0.0000000001127424
  0
LINE
  5
F080
330
18
100
AcDbEntity
  8
1HIDDEN
100
AcDbLine
 10
4980.03050935142
 20
678.6795134133213
 30
0.0000000001127424
 11
4980.03050935142
 21
668.4616323808996
 31
0.0000000001128561
  0
LINE
  5
F081
330
18
100
AcDbEntity
  8
01
100
AcDbLine
 10
4678.030742030911
 20
699.6795134133213
 30
0.0000000001127424
 11
4664.030742030911
 21
699.6795134133213
 31
0.0000000001127424
  0
LINE
  5
F082
330
18
100
AcDbEntity
  8
01
  6
BYBLOCK
100
AcDbLine
 10
4671.530742030911
 20
707.5795134133214
 30
0.0000000001127424
 11
4671.530742030911
 21
577.7795134133214
 31
0.0000000001127424
  0
LINE
  5
F083
330
18
100
AcDbEntity
  8
01
  6
BYBLOCK
100
AcDbLine
 10
4671.530742030911
 20
578.6795134133213
 30
0.0000000001127424
 11
4669.030742030911
 21
578.6795134133213
 31
0.0000000001127424
  0
LINE
  5
F084
330
18
100
AcDbEntity
  8
01
  6
BYBLOCK
100
AcDbLine
 10
4669.030742030911
 20
578.6795134133213
 30
0.0000000001127424
 11
4669.030742030911
 21
595.1824571384736
 31
0.0000000001127424
  0
LINE
  5
F085
330
18
100
AcDbEntity
  8
01
  6
BYBLOCK
100
AcDbLine
 10
4673.030742030911
 20
707.5795134133214
 30
0.0000000001127424
 11
4673.030742030911
 21
577.7795134133214
 31
0.0000000001127424
  0
LINE
  5
F086
330
18
100
AcDbEntity
  8
01
  6
BYBLOCK
100
AcDbLine
 10
4673.030742030911
 20
577.7795134133214
 30
0.0000000001127424
 11
4671.530742030911
 21
577.7795134133214
 31
0.0000000001127424
  0
LINE
  5
F087
330
18
100
AcDbEntity
  8
01
  6
BYBLOCK
100
AcDbLine
 10
4671.530742030911
 20
706.6795134133213
 30
0.0000000001127424
 11
4669.030742030911
 21
706.6795134133213
 31
0.0000000001127424
  0
LINE
  5
F088
330
18
100
AcDbEntity
  8
01
  6
BYBLOCK
100
AcDbLine
 10
4673.030742030911
 20
707.5795134133214
 30
0.0000000001127424
 11
4671.530742030911
 21
707.5795134133214
 31
0.0000000001127424
  0
LINE
  5
F089
330
18
100
AcDbEntity
  8
01
  6
BYBLOCK
100
AcDbLine
 10
4671.530742030911
 20
682.6795134133213
 30
0.0000000001127424
 11
4670.330742030911
 21
682.6795134133213
 31
0.0000000001127424
  0
LINE
  5
F08A
330
18
100
AcDbEntity
  8
01
  6
BYBLOCK
100
AcDbLine
 10
4670.330742030911
 20
688.3795134133215
 30
0.0000000001127424
 11
4670.330742030911
 21
596.9795134133215
 31
0.0000000001127424
  0
LINE
  5
F08B
330
18
100
AcDbEntity
  8
01
  6
BYBLOCK
100
AcDbLine
 10
4670.230742030911
 20
578.6795134133213
 30
0.0000000001127424
 11
4670.230742030911
 21
595.2795134133214
 31
0.0000000001127424
  0
LINE
  5
F08C
330
18
100
AcDbEntity
  8
01
  6
BYBLOCK
100
AcDbLine
 10
4670.230742030911
 20
595.2795134133214
 30
0.0000000001127424
 11
4671.179270168335
 21
596.2280415507453
 31
0.0000000001127424
  0
LINE
  5
F08D
330
18
100
AcDbEntity
  8
01
  6
BYBLOCK
100
AcDbLine
 10
4669.382213893487
 20
596.0309852758976
 30
0.0000000001127424
 11
4670.330742030911
 21
596.9795134133215
 31
0.0000000001127424
  0
ARC
  5
F08E
330
18
100
AcDbEntity
  8
01
  6
BYBLOCK
100
AcDbCircle
 10
4670.230742030911
 20
595.1824571384736
 30
0.0000000001127424
 40
1.2
100
AcDbArc
 50
134.9999999999447
 51
180.0
  0
ARC
  5
F08F
330
18
100
AcDbEntity
  8
01
  6
BYBLOCK
100
AcDbCircle
 10
4670.330742030911
 20
597.0765696881692
 30
0.0000000001127424
 40
1.2
100
AcDbArc
 50
314.9999999999447
 51
0.0
  0
LINE
  5
F090
330
18
100
AcDbEntity
  8
01
  6
BYBLOCK
100
AcDbLine
 10
4669.030742030911
 20
706.6795134133213
 30
0.0000000001127424
 11
4669.030742030911
 21
690.1765696881691
 31
0.0000000001127424
  0
LINE
  5
F091
330
18
100
AcDbEntity
  8
01
  6
BYBLOCK
100
AcDbLine
 10
4670.230742030911
 20
706.6795134133213
 30
0.0000000001127424
 11
4670.230742030911
 21
690.0795134133214
 31
0.0000000001127424
  0
LINE
  5
F092
330
18
100
AcDbEntity
  8
01
  6
BYBLOCK
100
AcDbLine
 10
4670.230742030911
 20
690.0795134133214
 30
0.0000000001127424
 11
4671.179270168335
 21
689.1309852758975
 31
0.0000000001127424
  0
LINE
  5
F093
330
18
100
AcDbEntity
  8
01
  6
BYBLOCK
100
AcDbLine
 10
4669.382213893487
 20
689.3280415507452
 30
0.0000000001127424
 11
4670.330742030911
 21
688.3795134133213
 31
0.0000000001127424
  0
ARC
  5
F094
330
18
100
AcDbEntity
  8
01
  6
BYBLOCK
100
AcDbCircle
 10
4670.230742030911
 20
690.1765696881691
 30
0.0000000001127424
 40
1.2
100
AcDbArc
 50
180.0
 51
225.0000000000553
  0
ARC
  5
F095
330
18
100
AcDbEntity
  8
01
  6
BYBLOCK
100
AcDbCircle
 10
4670.330742030911
 20
688.2824571384735
 30
0.0000000001127424
 40
1.2
100
AcDbArc
 50
0.0
 51
45.00000000005527
  0
LINE
  5
F096
330
18
100
AcDbEntity
  8
01
  6
BYBLOCK
100
AcDbLine
 10
4670.330742030911
 20
605.679513413321
 30
0.0000000001127424
 11
4641.24011474321
 21
605.6795134133213
 31
0.0000000001127424
  0
LINE
  5
F097
330
18
100
AcDbEntity
  8
01
  6
BYBLOCK
100
AcDbLine
 10
4679.737848812098
 20
653.6795134133345
 30
0.0000000001127424
 11
4673.030742030911
 21
653.6795134133345
 31
0.0000000001127424
  0
LINE
  5
F098
330
18
100
AcDbEntity
  8
01
  6
BYBLOCK
100
AcDbLine
 10
4679.737848812098
 20
633.6795134133345
 30
0.0000000001127424
 11
4673.030742030911
 21
633.6795134133345
 31
0.0000000001127424
  0
LINE
  5
F099
330
18
100
AcDbEntity
  8
01
100
AcDbLine
 10
4678.030742030624
 20
585.67951341361
 30
0.0000000001127424
 11
4664.030742030624
 21
585.67951341361
 31
0.0000000001127424
  0
LINE
  5
F09A
330
18
100
AcDbEntity
  8
01
  6
BYBLOCK
100
AcDbLine
 10
4604.030742030911
 20
668.4616323808996
 30
0.0000000001128561
 11
4604.030742030911
 21
639.0288649862184
 31
0.0000000001127424
  0
LINE
  5
F09B
330
18
100
AcDbEntity
  8
01
  6
BYBLOCK
100
AcDbLine
 10
4670.330742030911
 20
679.6795134133213
 30
0.0000000001127424
 11
4641.873845108894
 21
679.6795134133213
 31
0.0000000001128561
  0
TEXT
  5
F09E
330
18
100
AcDbEntity
  8
1TEXT
100
AcDbText
 10
4604.030641691164
 20
903.1795134133213
 30
0.0000000001127424
 40
20.0
  1
2-A5C-X-LJ
100
AcDbText
  0
TEXT
  5
F09F
330
18
100
AcDbEntity
  8
1TEXT
100
AcDbText
 10
4616.230641691165
 20
864.9295134133213
 30
0.0000000001127424
 40
6.0
  1
表面処理
 72
     1
 11
4630.130641691165
 21
864.9295134133213
 31
0.0000000001127424
100
AcDbText
  0
TEXT
  5
F0A0
330
18
100
AcDbEntity
  8
1TEXT
100
AcDbText
 10
4615.930641691165
 20
854.6765804240345
 30
0.0000000001127424
 40
6.0
  1
クローム
 72
     1
 11
4630.130641691165
 21
854.6765804240345
 31
0.0000000001127424
100
AcDbText
  0
LINE
  5
F0A1
330
18
100
AcDbEntity
  8
1DIM
100
AcDbLine
 10
4604.030641691164
 20
873.1795134133213
 30
0.0000000001127424
 11
4709.030641691164
 21
873.1795134133213
 31
0.0000000001127424
  0
LINE
  5
F0A2
330
18
100
AcDbEntity
  8
1DIM
100
AcDbLine
 10
4604.030641691164
 20
862.6795134133213
 30
0.0000000001127424
 11
4709.030641691164
 21
862.6795134133213
 31
0.0000000001127424
  0
LINE
  5
F0A3
330
18
100
AcDbEntity
  8
1DIM
100
AcDbLine
 10
4604.030641691164
 20
852.1795134133213
 30
0.0000000001127424
 11
4709.030641691164
 21
852.1795134133213
 31
0.0000000001127424
  0
LINE
  5
F0A4
330
18
100
AcDbEntity
  8
1DIM
100
AcDbLine
 10
4604.030641691164
 20
852.1795134133213
 30
0.0000000001127424
 11
4709.030641691164
 21
852.1795134133213
 31
0.0000000001127424
  0
LINE
  5
F0A5
330
18
100
AcDbEntity
  8
1DIM
100
AcDbLine
 10
4656.530641691164
 20
873.1795134133213
 30
0.0000000001127424
 11
4656.530641691164
 21
852.1795134133213
 31
0.0000000001127424
  0
TEXT
  5
F0A6
330
18
100
AcDbEntity
  8
1TEXT
100
AcDbText
 10
4662.316058357831
 20
854.1079779378474
 30
0.0000000001127424
 40
6.0
  1
2-A5C-C-LJ
 41
0.6999999999999998
 72
     1
 11
4682.630641691165
 21
854.1079779378474
 31
0.0000000001127424
100
AcDbText
  0
TEXT
  5
F0A7
330
18
100
AcDbEntity
  8
1TEXT
100
AcDbText
 10
4672.330641691165
 20
864.9295134133213
 30
0.0000000001127424
 40
6.0
  1
コード
 72
     1
 11
4682.630641691165
 21
864.9295134133213
 31
0.0000000001127424
100
AcDbText
  0
LINE
  5
F0A8
330
18
100
AcDbEntity
  8
1DIM
100
AcDbLine
 10
4709.030641691164
 20
852.1795134133213
 30
0.0000000001127424
 11
4709.030641691164
 21
873.1795134133213
 31
0.0000000001127424
  0
LINE
  5
F0A9
330
18
100
AcDbEntity
  8
1DIM
100
AcDbLine
 10
4604.030641691164
 20
852.1795134133213
 30
0.0000000001127424
 11
4709.030641691164
 21
852.1795134133213
 31
0.0000000001127424
  0
LINE
  5
F0AA
330
18
100
AcDbEntity
  8
1DIM
100
AcDbLine
 10
4656.530641691164
 20
852.1795134133213
 30
0.0000000001127424
 11
4656.530641691164
 21
841.6795134133213
 31
0.0000000001127424
  0
LINE
  5
F0AB
330
18
100
AcDbEntity
  8
1DIM
100
AcDbLine
 10
4604.030641691164
 20
841.6795134133213
 30
0.0000000001127424
 11
4709.030641691164
 21
841.6795134133213
 31
0.0000000001127424
  0
TEXT
  5
F0AC
330
18
100
AcDbEntity
  8
1TEXT
100
AcDbText
 10
4605.330641691165
 20
844.213142995965
 30
0.0000000001127424
 40
6.0
  1
サテンニッケル
 72
     1
 11
4630.130641691165
 21
844.213142995965
 31
0.0000000001127424
100
AcDbText
  0
LINE
  5
F0AD
330
18
100
AcDbEntity
  8
1DIM
100
AcDbLine
 10
4604.030641691164
 20
841.6795134133213
 30
0.0000000001127424
 11
4604.030641691164
 21
852.1795134133213
 31
0.0000000001127424
  0
LINE
  5
F0AE
330
18
100
AcDbEntity
  8
1DIM
100
AcDbLine
 10
4709.030641691164
 20
841.6795134133213
 30
0.0000000001127424
 11
4709.030641691164
 21
852.1795134133213
 31
0.0000000001127424
  0
TEXT
  5
F0AF
330
18
100
AcDbEntity
  8
1TEXT
100
AcDbText
 10
4662.316058357831
 20
843.6079779378474
 30
0.0000000001127424
 40
6.0
  1
2-A5C-N-LJ
 41
0.6999999999999998
 72
     1
 11
4682.630641691165
 21
843.6079779378474
 31
0.0000000001127424
100
AcDbText
  0
LINE
  5
F0B0
330
18
100
AcDbEntity
  8
1DIM
100
AcDbLine
 10
4604.030641691164
 20
852.1795134133213
 30
0.0000000001127424
 11
4604.030641691164
 21
873.1795134133213
 31
0.0000000001127424
  0
LINE
  5
F0B1
330
18
100
AcDbEntity
  8
1DIM
100
AcDbLine
 10
4656.530641691164
 20
841.6795134133213
 30
0.0000000001127424
 11
4656.530641691164
 21
831.1795134133213
 31
0.0000000001127424
  0
LINE
  5
F0B2
330
18
100
AcDbEntity
  8
1DIM
100
AcDbLine
 10
4604.030641691164
 20
831.1795134133213
 30
0.0000000001127424
 11
4709.030641691164
 21
831.1795134133213
 31
0.0000000001127424
  0
TEXT
  5
F0B3
330
18
100
AcDbEntity
  8
1TEXT
100
AcDbText
 10
4605.930641691165
 20
833.713142995965
 30
0.0000000001127424
 40
6.0
  1
パールブラック
 72
     1
 11
4630.130641691165
 21
833.713142995965
 31
0.0000000001127424
100
AcDbText
  0
LINE
  5
F0B4
330
18
100
AcDbEntity
  8
1DIM
100
AcDbLine
 10
4604.030641691164
 20
831.1795134133213
 30
0.0000000001127424
 11
4604.030641691164
 21
841.6795134133213
 31
0.0000000001127424
  0
LINE
  5
F0B5
330
18
100
AcDbEntity
  8
1DIM
100
AcDbLine
 10
4709.030641691164
 20
831.1795134133213
 30
0.0000000001127424
 11
4709.030641691164
 21
841.6795134133213
 31
0.0000000001127424
  0
TEXT
  5
F0B6
330
18
100
AcDbEntity
  8
1TEXT
100
AcDbText
 10
4660.201475024498
 20
833.1079779378474
 30
0.0000000001127424
 40
6.0
  1
2-A5C-GQ-LJ
 41
0.6999999999999998
 72
     1
 11
4682.630641691165
 21
833.1079779378474
 31
0.0000000001127424
100
AcDbText
  0
LINE
  5
F0B8
330
18
100
AcDbEntity
  8
01
100
AcDbLine
 10
4809.902223968989
 20
621.6795134133213
 30
0.0000000001127424
 11
4832.53050935142
 21
621.6795134133213
 31
0.0000000001127424
  0
LINE
  5
F0B9
330
18
100
AcDbEntity
  8
01
  6
BYBLOCK
100
AcDbLine
 10
4911.031277193737
 20
871.6781951002185
 30
0.0000000001127424
 11
5064.785657348768
 21
871.6781951002185
 31
0.0000000001127424
  0
LINE
  5
F0BA
330
18
100
AcDbEntity
  8
01
100
AcDbLine
 10
4962.03050935142
 20
876.6781951002185
 30
0.0000000001127424
 11
4962.03050935142
 21
850.1781951002185
 31
0.0000000001127424
  0
LINE
  5
F0C0
330
18
100
AcDbEntity
  8
01
100
AcDbLine
 10
4812.036740917153
 20
741.9290666639859
 30
0.0000000001127424
 11
4812.036740917153
 21
551.9290666639859
 31
0.0000000001127424
  0
LINE
  5
F0C1
330
18
100
AcDbEntity
  8
01
100
AcDbLine
 10
4932.03050935142
 20
621.6795134133213
 30
0.0000000001127424
 11
4992.03050935142
 21
621.6795134133213
 31
0.0000000001127424
  0
LINE
  5
F0C2
330
18
100
AcDbEntity
  8
01
100
AcDbLine
 10
4962.03050935142
 20
651.6795134133213
 30
0.0000000001127424
 11
4962.03050935142
 21
591.6795134133213
 31
0.0000000001127424
  0
LINE
  5
F0C3
330
18
100
AcDbEntity
  8
1CENTER
100
AcDbLine
 10
4809.902223968988
 20
621.6795134133213
 30
0.0000000001127424
 11
4832.53050935142
 21
621.6795134133213
 31
0.0000000001127424
  0
LINE
  5
F0C4
330
18
100
AcDbEntity
  8
01
100
AcDbLine
 10
4812.030509351421
 20
599.1795134133213
 30
0.0000000001127424
 11
4812.03050935142
 21
644.1795134133213
 31
0.0000000001127424
  0
LINE
  5
F0C5
330
18
100
AcDbEntity
  8
01
100
AcDbLine
 10
4812.03050935142
 20
644.1795134133213
 30
0.0000000001127424
 11
4813.23050935142
 21
644.1795134133213
 31
0.0000000001127424
  0
LINE
  5
F0C6
330
18
100
AcDbEntity
  8
01
100
AcDbLine
 10
4812.030509351421
 20
599.1795134133213
 30
0.0000000001127424
 11
4813.23050935142
 21
599.1795134133213
 31
0.0000000001127424
  0
LINE
  5
F0C7
330
18
100
AcDbEntity
  8
01
100
AcDbLine
 10
4873.730509351421
 20
623.5547466214643
 30
0.0000000001127424
 11
4873.730509351421
 21
619.8042802051773
 31
0.0000000001127424
  0
ARC
  5
F0C8
330
18
100
AcDbEntity
  8
01
100
AcDbCircle
 10
4856.730509351421
 20
653.3045134133213
 30
0.0000000001127424
 40
38.12500000000023
100
AcDbArc
 50
275.9502382106966
 51
295.5295428747946
  0
ARC
  5
F0C9
330
18
100
AcDbEntity
  8
01
100
AcDbCircle
 10
4872.730509351421
 20
619.8042802051773
 30
0.0000000001127424
 40
1.0
100
AcDbArc
 50
295.5295428747946
 51
0.0
  0
ARC
  5
F0CA
330
18
100
AcDbEntity
  8
01
100
AcDbCircle
 10
4856.730509351421
 20
590.0545134133213
 30
0.0000000001127424
 40
38.12500000000023
100
AcDbArc
 50
64.47045712520543
 51
84.04976178930337
  0
ARC
  5
F0CB
330
18
100
AcDbEntity
  8
01
100
AcDbCircle
 10
4872.730509351421
 20
623.5547466214643
 30
0.0000000001127424
 40
1.0
100
AcDbArc
 50
0.0
 51
64.47045712520543
  0
LINE
  5
F0CC
330
18
100
AcDbEntity
  8
01
100
AcDbLine
 10
4813.23050935142
 20
596.6795134133213
 30
0.0000000001127424
 11
4813.23050935142
 21
646.6795134133213
 31
0.0000000001127424
  0
LINE
  5
F0CD
330
18
100
AcDbEntity
  8
01
100
AcDbLine
 10
4813.23050935142
 20
596.6795134133213
 30
0.0000000001127424
 11
4813.976923819509
 21
596.6795134133213
 31
0.0000000001127424
  0
ARC
  5
F0CE
330
18
100
AcDbEntity
  8
01
100
AcDbCircle
 10
4869.49422241899
 20
530.8428734858376
 30
0.0000000001127424
 40
85.0
100
AcDbArc
 50
95.95023821069663
 51
128.0871138498746
  0
ARC
  5
F0CF
330
18
100
AcDbEntity
  8
01
100
AcDbCircle
 10
4813.976923819509
 20
601.6795134133213
 30
0.0000000001127424
 40
5.0
100
AcDbArc
 50
270.0
 51
308.0871138498746
  0
LINE
  5
F0D0
330
18
100
AcDbEntity
  8
01
100
AcDbLine
 10
4813.23050935142
 20
646.6795134133213
 30
0.0000000001127424
 11
4813.976923819509
 21
646.6795134133213
 31
0.0000000001127424
  0
ARC
  5
F0D1
330
18
100
AcDbEntity
  8
01
100
AcDbCircle
 10
4869.49422241899
 20
712.516153340805
 30
0.0000000001127424
 40
85.0
100
AcDbArc
 50
231.9128861501254
 51
264.0715720573474
  0
ARC
  5
F0D2
330
18
100
AcDbEntity
  8
01
100
AcDbCircle
 10
4813.976923819509
 20
641.6795134133213
 30
0.0000000001127424
 40
5.0
100
AcDbArc
 50
51.91288615012537
 51
90.0
  0
LINE
  5
F0D3
330
18
100
AcDbEntity
  8
1CENTER
100
AcDbLine
 10
4962.03050935142
 20
876.6781951002185
 30
0.0000000001127424
 11
4962.03050935142
 21
850.1781951002185
 31
0.0000000001127424
  0
LINE
  5
F0D4
330
18
100
AcDbEntity
  8
1CENTER
100
AcDbLine
 10
4962.03050935142
 20
873.9596542573227
 30
0.0000000001127424
 11
4962.03050935142
 21
826.1811412230268
 31
0.0000000001127424
  0
LINE
  5
F0D5
330
18
100
AcDbEntity
  8
01
100
AcDbLine
 10
4939.53050935142
 20
871.6781951002185
 30
0.0000000001127424
 11
4984.53050935142
 21
871.6781951002185
 31
0.0000000001127424
  0
LINE
  5
F0D6
330
18
100
AcDbEntity
  8
01
100
AcDbLine
 10
4984.53050935142
 20
871.6781951002185
 30
0.0000000001127424
 11
4984.53050935142
 21
870.4781951002187
 31
0.0000000001127424
  0
LINE
  5
F0D7
330
18
100
AcDbEntity
  8
01
100
AcDbLine
 10
4939.53050935142
 20
871.6781951002185
 30
0.0000000001127424
 11
4939.530509351421
 21
870.4781951002187
 31
0.0000000001127424
  0
LINE
  5
F0D8
330
18
100
AcDbEntity
  8
1CENTER
100
AcDbLine
 10
4962.03050935142
 20
872.1596542573225
 30
0.0000000001127424
 11
4962.03050935142
 21
861.8552603321987
 31
0.0000000001127424
  0
LINE
  5
F0D9
330
18
100
AcDbEntity
  8
01
100
AcDbLine
 10
5087.03050935142
 20
831.9781951002187
 30
0.0000000001127424
 11
5087.03050935142
 21
811.9781951002187
 31
0.0000000001127424
  0
LINE
  5
F0DA
330
18
100
AcDbEntity
  8
01
100
AcDbLine
 10
4990.486390288484
 20
870.4781951002187
 30
0.0000000001127424
 11
4982.030625302603
 21
870.4781951002187
 31
0.0000000001127424
  0
LINE
  5
F0DB
330
18
100
AcDbEntity
  8
01
100
AcDbLine
 10
4942.030625302603
 20
870.4781951002187
 30
0.0000000001127424
 11
4931.03050935142
 21
870.4781951002187
 31
0.0000000001127424
  0
LINE
  5
F0DC
330
18
100
AcDbEntity
  8
01
100
AcDbLine
 10
5085.03050935142
 20
809.9781951002187
 30
0.0000000001127424
 11
4956.388740126004
 21
809.9781951002187
 31
0.0000000001127424
  0
ARC
  5
F0DD
330
18
100
AcDbEntity
  8
01
100
AcDbCircle
 10
4956.388740126004
 20
811.9781951002187
 30
0.0000000001127424
 40
2.0
100
AcDbArc
 50
201.6379412293865
 51
270.0
  0
ARC
  5
F0DE
330
18
100
AcDbEntity
  8
01
100
AcDbCircle
 10
5085.03050935142
 20
811.9781951002187
 30
0.0000000001127424
 40
2.0
100
AcDbArc
 50
270.0
 51
0.0
  0
LINE
  5
F0DF
330
18
100
AcDbEntity
  8
01
100
AcDbLine
 10
5085.03050935142
 20
833.9781951002187
 30
0.0000000001127424
 11
4985.770364778221
 21
833.9781951002187
 31
0.0000000001127424
  0
ARC
  5
F0E0
330
18
100
AcDbEntity
  8
01
100
AcDbCircle
 10
4985.770364778221
 20
839.9781951002187
 30
0.0000000001127424
 40
6.0
100
AcDbArc
 50
159.9999999999651
 51
270.0
  0
ARC
  5
F0E1
330
18
100
AcDbEntity
  8
01
100
AcDbCircle
 10
5085.03050935142
 20
831.9781951002187
 30
0.0000000001127424
 40
2.0
100
AcDbArc
 50
0.0
 51
90.0
  0
LINE
  5
F0E2
330
18
100
AcDbEntity
  8
01
100
AcDbLine
 10
4990.486390288484
 20
870.4781951002187
 30
0.0000000001127424
 11
4980.132209053505
 21
842.0303159601726
 31
0.0000000001127424
  0
LINE
  5
F0E3
330
18
100
AcDbEntity
  8
01
100
AcDbLine
 10
4954.529675105604
 20
811.2407147615477
 30
0.0000000001127424
 11
4931.03050935142
 21
870.4781951002187
 31
0.0000000001127424
  0
LINE
  5
F0E5
330
18
100
AcDbEntity
  8
1CENTER
100
AcDbLine
 10
4962.03050935142
 20
651.9238234141922
 30
0.0000000001127424
 11
4962.03050935142
 21
591.4352034124495
 31
0.0000000001127424
  0
LINE
  5
F0E6
330
18
100
AcDbEntity
  8
01
100
AcDbLine
 10
5086.03050935142
 20
619.1795134133208
 30
0.0000000001127424
 11
4957.03050935142
 21
619.1795134133213
 31
0.0000000001127424
  0
LINE
  5
F0E7
330
18
100
AcDbEntity
  8
01
100
AcDbLine
 10
5086.03050935142
 20
624.1795134133208
 30
0.0000000001127424
 11
4957.03050935142
 21
624.1795134133213
 31
0.0000000001127424
  0
ARC
  5
F0E8
330
18
100
AcDbEntity
  8
01
100
AcDbCircle
 10
5086.03050935142
 20
623.1795134133208
 30
0.0000000001127424
 40
1.0
100
AcDbArc
 50
0.0
 51
90.0
  0
LINE
  5
F0E9
330
18
100
AcDbEntity
  8
01
100
AcDbLine
 10
5087.03050935142
 20
616.1795134133208
 30
0.0000000001127424
 11
5087.03050935142
 21
627.1795134133208
 31
0.0000000001127424
  0
ARC
  5
F0EA
330
18
100
AcDbEntity
  8
01
100
AcDbCircle
 10
5086.03050935142
 20
620.1795134133208
 30
0.0000000001127424
 40
1.0
100
AcDbArc
 50
270.0
 51
0.0
  0
ARC
  5
F0EB
330
18
100
AcDbEntity
  8
01
100
AcDbCircle
 10
5086.03050935142
 20
616.1795134133208
 30
0.0000000001127424
 40
1.0
100
AcDbArc
 50
270.0
 51
0.0
  0
ARC
  5
F0EC
330
18
100
AcDbEntity
  8
01
100
AcDbCircle
 10
4962.03050935142
 20
621.6795134133213
 30
0.0000000001127424
 40
25.0
100
AcDbArc
 50
33.94497425281912
 51
141.6240321487666
  0
ARC
  5
F0ED
330
18
100
AcDbEntity
  8
01
100
AcDbCircle
 10
4962.03050935142
 20
621.6795134133213
 30
0.0000000001127424
 40
25.0
100
AcDbArc
 50
218.3759678512334
 51
326.0550257471809
  0
LINE
  5
F0EE
330
18
100
AcDbEntity
  8
01
100
AcDbLine
 10
4931.03050935142
 20
626.1486712027568
 30
0.0000000001127424
 11
4931.030509351419
 21
617.2103556238853
 31
0.0000000001127424
  0
LINE
  5
F0EF
330
18
100
AcDbEntity
  8
01
100
AcDbLine
 10
4931.1745209019
 20
626.6656661488523
 30
0.0000000001127424
 11
4957.03050935142
 21
624.1795134133213
 31
0.0000000001127424
  0
LINE
  5
F0F0
330
18
100
AcDbEntity
  8
01
100
AcDbLine
 10
4957.03050935142
 20
619.1795134133213
 30
0.0000000001127424
 11
4931.174520901899
 21
616.6933606777907
 31
0.0000000001127424
  0
LINE
  5
F0F1
330
18
100
AcDbEntity
  8
01
100
AcDbLine
 10
5086.03050935142
 20
628.1795134133208
 30
0.0000000001127424
 11
4970.207843996317
 21
628.1795134133208
 31
0.0000000001127424
  0
ARC
  5
F0F2
330
18
100
AcDbEntity
  8
01
100
AcDbCircle
 10
5086.03050935142
 20
627.1795134133208
 30
0.0000000001127424
 40
1.0
100
AcDbArc
 50
0.0
 51
90.0
  0
LINE
  5
F0F3
330
18
100
AcDbEntity
  8
01
100
AcDbLine
 10
5086.03050935142
 20
615.1795134133208
 30
0.0000000001127424
 11
4970.207843996317
 21
615.1795134133208
 31
0.0000000001127424
  0
ARC
  5
F0F4
330
18
100
AcDbEntity
  8
01
100
AcDbCircle
 10
4903.233965150306
 20
668.2409394010051
 30
0.0000000001127424
 40
50.0
100
AcDbArc
 50
304.3771656009302
 51
321.6240321487666
  0
ARC
  5
F0F5
330
18
100
AcDbEntity
  8
01
100
AcDbCircle
 10
4932.03050935142
 20
626.1486712027568
 30
0.0000000001127424
 40
1.0
100
AcDbArc
 50
124.3771656009302
 51
180.0
  0
ARC
  5
F0F6
330
18
100
AcDbEntity
  8
01
100
AcDbCircle
 10
4903.233965150306
 20
575.118087425637
 30
0.0000000001127424
 40
50.0
100
AcDbArc
 50
38.37596785123343
 51
55.62283439906979
  0
ARC
  5
F0F7
330
18
100
AcDbEntity
  8
01
100
AcDbCircle
 10
4932.03050935142
 20
617.2103556238853
 30
0.0000000001127424
 40
1.0
100
AcDbArc
 50
180.0
 51
235.6228343990698
  0
ARC
  5
F0F8
330
18
100
AcDbEntity
  8
01
100
AcDbCircle
 10
5024.248576458031
 20
663.559247480257
 30
0.0000000001127424
 40
50.0
100
AcDbArc
 50
213.9449742528191
 51
225.0395474536832
  0
ARC
  5
F0F9
330
18
100
AcDbEntity
  8
01
100
AcDbCircle
 10
5024.248576458031
 20
579.7997793463846
 30
0.0000000001127424
 40
50.0
100
AcDbArc
 50
134.9604525463168
 51
146.0550257471809
  0
ELLIPSE
  5
F0FA
330
18
100
AcDbEntity
  8
01
100
AcDbEllipse
 10
4962.03050935142
 20
604.1853534100528
 30
0.0000000001127424
 11
3.0
 21
0.0
 31
0.0
210
0.0
220
0.0
230
1.0
 40
0.5076362672574533
 41
3.141592653589793
 42
6.283185307179586
  0
ELLIPSE
  5
F0FB
330
18
100
AcDbEntity
  8
01
100
AcDbEllipse
 10
4962.03050935142
 20
604.1853534100528
 30
0.0000000001127424
 11
3.0
 21
0.0
 31
0.0
210
0.0
220
0.0
230
1.0
 40
0.4694530151218335
 41
6.283185307179586
 42
9.42477796076938
  0
LINE
  5
F0FC
330
18
100
AcDbEntity
  8
1CENTER
100
AcDbLine
 10
4826.536740917153
 20
615.3001167082766
 30
0.0000000001127424
 11
4826.536740917153
 21
597.6971864469347
 31
0.0000000001127424
  0
LINE
  5
F0FD
330
18
100
AcDbEntity
  8
01
100
AcDbLine
 10
4774.15902741334
 20
621.6795134133213
 30
0.0000000001127424
 11
4751.530742030909
 21
621.6795134133213
 31
0.0000000001127424
  0
LINE
  5
F0FE
330
18
100
AcDbEntity
  8
1CENTER
100
AcDbLine
 10
4774.15902741334
 20
621.6795134133213
 30
0.0000000001127424
 11
4751.530742030909
 21
621.6795134133213
 31
0.0000000001127424
  0
LINE
  5
F0FF
330
18
100
AcDbEntity
  8
01
100
AcDbLine
 10
4772.030742030908
 20
599.1795134133213
 30
0.0000000001127424
 11
4772.030742030909
 21
644.1795134133213
 31
0.0000000001127424
  0
LINE
  5
F100
330
18
100
AcDbEntity
  8
01
100
AcDbLine
 10
4772.030742030909
 20
644.1795134133213
 30
0.0000000001127424
 11
4770.830742030909
 21
644.1795134133213
 31
0.0000000001127424
  0
LINE
  5
F101
330
18
100
AcDbEntity
  8
01
100
AcDbLine
 10
4772.030742030908
 20
599.1795134133213
 30
0.0000000001127424
 11
4770.830742030909
 21
599.1795134133213
 31
0.0000000001127424
  0
LINE
  5
F102
330
18
100
AcDbEntity
  8
01
100
AcDbLine
 10
4710.330742030908
 20
623.5547466214643
 30
0.0000000001127424
 11
4710.330742030908
 21
619.8042802051773
 31
0.0000000001127424
  0
ARC
  5
F103
330
18
100
AcDbEntity
  8
01
100
AcDbCircle
 10
4727.330742030908
 20
653.3045134133213
 30
0.0000000001127424
 40
38.12500000000023
100
AcDbArc
 50
244.4704571252054
 51
264.0497617893558
  0
ARC
  5
F104
330
18
100
AcDbEntity
  8
01
100
AcDbCircle
 10
4711.330742030908
 20
619.8042802051773
 30
0.0000000001127424
 40
1.0
100
AcDbArc
 50
180.0
 51
244.4704571252054
  0
ARC
  5
F105
330
18
100
AcDbEntity
  8
01
100
AcDbCircle
 10
4727.330742030908
 20
590.0545134133213
 30
0.0000000001127424
 40
38.12500000000023
100
AcDbArc
 50
95.95023821064412
 51
115.5295428747946
  0
ARC
  5
F106
330
18
100
AcDbEntity
  8
01
100
AcDbCircle
 10
4711.330742030908
 20
623.5547466214643
 30
0.0000000001127424
 40
1.0
100
AcDbArc
 50
115.5295428747946
 51
180.0
  0
LINE
  5
F107
330
18
100
AcDbEntity
  8
01
100
AcDbLine
 10
4770.830742030909
 20
596.6795134133213
 30
0.0000000001127424
 11
4770.830742030909
 21
646.6795134133213
 31
0.0000000001127424
  0
LINE
  5
F108
330
18
100
AcDbEntity
  8
01
100
AcDbLine
 10
4770.830742030909
 20
596.6795134133213
 30
0.0000000001127424
 11
4770.08432756282
 21
596.6795134133213
 31
0.0000000001127424
  0
ARC
  5
F109
330
18
100
AcDbEntity
  8
01
100
AcDbCircle
 10
4714.567028963339
 20
530.8428734858376
 30
0.0000000001127424
 40
85.0
100
AcDbArc
 50
51.91288615012537
 51
84.04976178935588
  0
ARC
  5
F10A
330
18
100
AcDbEntity
  8
01
100
AcDbCircle
 10
4770.08432756282
 20
601.6795134133213
 30
0.0000000001127424
 40
5.0
100
AcDbArc
 50
231.9128861501254
 51
270.0
  0
LINE
  5
F10B
330
18
100
AcDbEntity
  8
01
100
AcDbLine
 10
4770.830742030909
 20
646.6795134133213
 30
0.0000000001127424
 11
4770.08432756282
 21
646.6795134133213
 31
0.0000000001127424
  0
ARC
  5
F10C
330
18
100
AcDbEntity
  8
01
100
AcDbCircle
 10
4714.567028963339
 20
712.516153340805
 30
0.0000000001127424
 40
85.0
100
AcDbArc
 50
275.9284279426001
 51
308.0871138498746
  0
ARC
  5
F10D
330
18
100
AcDbEntity
  8
01
100
AcDbCircle
 10
4770.08432756282
 20
641.6795134133213
 30
0.0000000001127424
 40
5.0
100
AcDbArc
 50
90.0
 51
128.0871138498746
  0
LINE
  5
F10E
330
18
100
AcDbEntity
  8
1CENTER
100
AcDbLine
 10
4757.524510465176
 20
615.3001167082766
 30
0.0000000001127424
 11
4757.524510465176
 21
597.6971864469347
 31
0.0000000001127424
  0
LINE
  5
F10F
330
18
100
AcDbEntity
  8
01
100
AcDbLine
 10
4652.030742030909
 20
621.6795134133213
 30
0.0000000001127424
 11
4592.030742030909
 21
621.6795134133213
 31
0.0000000001127424
  0
LINE
  5
F110
330
18
100
AcDbEntity
  8
01
100
AcDbLine
 10
4498.030742030909
 20
619.1795134133208
 30
0.0000000001127424
 11
4627.030742030909
 21
619.1795134133213
 31
0.0000000001127424
  0
LINE
  5
F111
330
18
100
AcDbEntity
  8
01
100
AcDbLine
 10
4498.030742030909
 20
624.1795134133208
 30
0.0000000001127424
 11
4627.030742030909
 21
624.1795134133213
 31
0.0000000001127424
  0
ARC
  5
F112
330
18
100
AcDbEntity
  8
01
100
AcDbCircle
 10
4498.030742030909
 20
623.1795134133208
 30
0.0000000001127424
 40
1.0
100
AcDbArc
 50
90.0
 51
180.0
  0
LINE
  5
F113
330
18
100
AcDbEntity
  8
01
100
AcDbLine
 10
4497.030742030909
 20
616.1795134133208
 30
0.0000000001127424
 11
4497.030742030909
 21
627.1795134133208
 31
0.0000000001127424
  0
ARC
  5
F114
330
18
100
AcDbEntity
  8
01
100
AcDbCircle
 10
4498.030742030909
 20
620.1795134133208
 30
0.0000000001127424
 40
1.0
100
AcDbArc
 50
180.0
 51
270.0
  0
ARC
  5
F115
330
18
100
AcDbEntity
  8
01
100
AcDbCircle
 10
4498.030742030909
 20
616.1795134133208
 30
0.0000000001127424
 40
1.0
100
AcDbArc
 50
180.0
 51
270.0
  0
ARC
  5
F116
330
18
100
AcDbEntity
  8
01
100
AcDbCircle
 10
4622.030742030909
 20
621.6795134133213
 30
0.0000000001127424
 40
25.0
100
AcDbArc
 50
38.37596785124364
 51
146.0550257471809
  0
ARC
  5
F117
330
18
100
AcDbEntity
  8
01
100
AcDbCircle
 10
4622.030742030909
 20
621.6795134133213
 30
0.0000000001127424
 40
25.0
100
AcDbArc
 50
213.9449742528191
 51
321.6240321487563
  0
LINE
  5
F118
330
18
100
AcDbEntity
  8
01
100
AcDbLine
 10
4653.030742030909
 20
626.1486712027568
 30
0.0000000001127424
 11
4653.03074203091
 21
617.2103556238853
 31
0.0000000001127424
  0
LINE
  5
F119
330
18
100
AcDbEntity
  8
01
100
AcDbLine
 10
4652.886730480429
 20
626.6656661488523
 30
0.0000000001127424
 11
4627.030742030909
 21
624.1795134133213
 31
0.0000000001127424
  0
LINE
  5
F11A
330
18
100
AcDbEntity
  8
01
100
AcDbLine
 10
4627.030742030909
 20
619.1795134133213
 30
0.0000000001127424
 11
4652.88673048043
 21
616.6933606777907
 31
0.0000000001127424
  0
LINE
  5
F11B
330
18
100
AcDbEntity
  8
01
100
AcDbLine
 10
4498.030742030909
 20
628.1795134133208
 30
0.0000000001127424
 11
4613.853407386012
 21
628.1795134133208
 31
0.0000000001127424
  0
ARC
  5
F11C
330
18
100
AcDbEntity
  8
01
100
AcDbCircle
 10
4498.030742030909
 20
627.1795134133208
 30
0.0000000001127424
 40
1.0
100
AcDbArc
 50
90.0
 51
180.0
  0
LINE
  5
F11D
330
18
100
AcDbEntity
  8
01
100
AcDbLine
 10
4498.030742030909
 20
615.1795134133208
 30
0.0000000001127424
 11
4613.853407386012
 21
615.1795134133208
 31
0.0000000001127424
  0
ARC
  5
F11E
330
18
100
AcDbEntity
  8
01
100
AcDbCircle
 10
4680.827286232023
 20
668.2409394010051
 30
0.0000000001127424
 40
50.0
100
AcDbArc
 50
218.3759678512436
 51
235.6228343990735
  0
ARC
  5
F11F
330
18
100
AcDbEntity
  8
01
100
AcDbCircle
 10
4652.030742030909
 20
626.1486712027568
 30
0.0000000001127424
 40
1.0
100
AcDbArc
 50
0.0
 51
55.62283439907347
  0
ARC
  5
F120
330
18
100
AcDbEntity
  8
01
100
AcDbCircle
 10
4680.827286232023
 20
575.118087425637
 30
0.0000000001127424
 40
50.0
100
AcDbArc
 50
124.3771656009265
 51
141.6240321487564
  0
ARC
  5
F121
330
18
100
AcDbEntity
  8
01
100
AcDbCircle
 10
4652.030742030909
 20
617.2103556238853
 30
0.0000000001127424
 40
1.0
100
AcDbArc
 50
304.3771656009265
 51
0.0
  0
ARC
  5
F122
330
18
100
AcDbEntity
  8
01
100
AcDbCircle
 10
4559.812674924298
 20
663.559247480257
 30
0.0000000001127424
 40
50.0
100
AcDbArc
 50
314.9604525462523
 51
326.0550257471809
  0
ARC
  5
F123
330
18
100
AcDbEntity
  8
01
100
AcDbCircle
 10
4559.812674924298
 20
579.7997793463846
 30
0.0000000001127424
 40
50.0
100
AcDbArc
 50
33.94497425281912
 51
45.03954745374773
  0
ELLIPSE
  5
F124
330
18
100
AcDbEntity
  8
01
100
AcDbEllipse
 10
4622.030742030909
 20
604.1853534100528
 30
0.0000000001127424
 11
-3.0
 21
0.0
 31
0.0
210
0.0
220
0.0
230
-1.0
 40
0.5076362672574533
 41
3.141592653589793
 42
6.283185307179586
  0
ELLIPSE
  5
F125
330
18
100
AcDbEntity
  8
01
100
AcDbEllipse
 10
4622.030742030909
 20
604.1853534100528
 30
0.0000000001127424
 11
-3.0
 21
0.0
 31
0.0
210
0.0
220
0.0
230
-1.0
 40
0.4694530151218335
 41
6.283185307179586
 42
9.42477796076938
  0
LINE
  5
F126
330
18
100
AcDbEntity
  8
01
100
AcDbLine
 10
4962.03050935142
 20
906.6795134043668
 30
0.0000000001127424
 11
4962.03050935142
 21
933.1795134043668
 31
0.0000000001127424
  0
LINE
  5
F127
330
18
100
AcDbEntity
  8
1CENTER
100
AcDbLine
 10
4962.03050935142
 20
906.6795134043668
 30
0.0000000001127424
 11
4962.03050935142
 21
933.1795134043668
 31
0.0000000001127424
  0
LINE
  5
F128
330
18
100
AcDbEntity
  8
1CENTER
100
AcDbLine
 10
4962.03050935142
 20
909.3980542472627
 30
0.0000000001127424
 11
4962.03050935142
 21
947.1759685443311
 31
0.0000000001127424
  0
LINE
  5
F129
330
18
100
AcDbEntity
  8
01
100
AcDbLine
 10
4984.53050935142
 20
911.6795134043668
 30
0.0000000001127424
 11
4984.53050935142
 21
912.8795134043667
 31
0.0000000001127424
  0
LINE
  5
F12A
330
18
100
AcDbEntity
  8
01
100
AcDbLine
 10
4939.53050935142
 20
911.6795134043668
 30
0.0000000001127424
 11
4939.530509351421
 21
912.8795134043667
 31
0.0000000001127424
  0
LINE
  5
F12B
330
18
100
AcDbEntity
  8
1CENTER
100
AcDbLine
 10
4962.03050935142
 20
911.1980542472629
 30
0.0000000001127424
 11
4962.03050935142
 21
921.5024481723867
 31
0.0000000001127424
  0
LINE
  5
F12C
330
18
100
AcDbEntity
  8
01
100
AcDbLine
 10
5087.03050935142
 20
951.3795134043667
 30
0.0000000001127424
 11
5087.03050935142
 21
971.3795134043667
 31
0.0000000001127424
  0
LINE
  5
F12D
330
18
100
AcDbEntity
  8
01
100
AcDbLine
 10
4990.486390288484
 20
912.8795134043667
 30
0.0000000001127424
 11
4982.030625434809
 21
912.8795134043669
 31
0.0000000001127424
  0
LINE
  5
F12E
330
18
100
AcDbEntity
  8
01
100
AcDbLine
 10
4942.030625434808
 20
912.8795134043667
 30
0.0000000001127424
 11
4931.03050935142
 21
912.8795134043667
 31
0.0000000001127424
  0
LINE
  5
F12F
330
18
100
AcDbEntity
  8
01
100
AcDbLine
 10
5085.03050935142
 20
973.3795134043667
 30
0.0000000001127424
 11
4956.388740126004
 21
973.3795134043667
 31
0.0000000001127424
  0
ARC
  5
F130
330
18
100
AcDbEntity
  8
01
100
AcDbCircle
 10
4956.388740126004
 20
971.3795134043667
 30
0.0000000001127424
 40
2.0
100
AcDbArc
 50
90.0
 51
158.3620587706075
  0
ARC
  5
F131
330
18
100
AcDbEntity
  8
01
100
AcDbCircle
 10
5085.03050935142
 20
971.3795134043667
 30
0.0000000001127424
 40
2.0
100
AcDbArc
 50
0.0
 51
90.0
  0
LINE
  5
F132
330
18
100
AcDbEntity
  8
01
100
AcDbLine
 10
5085.03050935142
 20
949.3795134043667
 30
0.0000000001127424
 11
4985.770364778221
 21
949.3795134043667
 31
0.0000000001127424
  0
ARC
  5
F133
330
18
100
AcDbEntity
  8
01
100
AcDbCircle
 10
4985.770364778221
 20
943.3795134043667
 30
0.0000000001127424
 40
6.0
100
AcDbArc
 50
90.0
 51
200.0000000000287
  0
ARC
  5
F134
330
18
100
AcDbEntity
  8
01
100
AcDbCircle
 10
5085.03050935142
 20
951.3795134043667
 30
0.0000000001127424
 40
2.0
100
AcDbArc
 50
270.0
 51
0.0
  0
LINE
  5
F135
330
18
100
AcDbEntity
  8
01
100
AcDbLine
 10
4990.486390288484
 20
912.8795134043667
 30
0.0000000001127424
 11
4980.132209053505
 21
941.3273925444128
 31
0.0000000001127424
  0
LINE
  5
F136
330
18
100
AcDbEntity
  8
01
100
AcDbLine
 10
4954.529675105604
 20
972.1169937430377
 30
0.0000000001127424
 11
4931.03050935142
 21
912.8795134043667
 31
0.0000000001127424
  0
LINE
  5
FC6A
330
18
100
AcDbEntity
  8
01
100
AcDbLine
 10
4602.030621691161
 20
677.1795134133215
 30
0.0000000001127424
 11
4602.030621691161
 21
705.9795134133215
 31
0.0000000001127424
1001
ACAD
1000
DSTYLE
1002
{
1070
     3
1000
φ<>
1070
    40
1040
1.3
1070
    45
1040
0.5
1070
   271
1070
     4
1070
   272
1070
     2
1002
}
  0
LINE
  5
FC6B
330
18
100
AcDbEntity
  8
01
100
AcDbLine
 10
4642.030621691161
 20
677.1795134133215
 30
0.0000000001127424
 11
4642.030621691161
 21
705.9795134133215
 31
0.0000000001127424
1001
ACAD
1000
DSTYLE
1002
{
1070
     3
1000
φ<>
1070
    40
1040
1.3
1070
    45
1040
0.5
1070
   271
1070
     4
1070
   272
1070
     2
1002
}
  0
LINE
  5
FC6C
330
18
100
AcDbEntity
  8
01
100
AcDbLine
 10
4604.630621691162
 20
704.6795134133215
 30
0.0000000001127424
 11
4639.430621691161
 21
704.6795134133215
 31
0.0000000001127424
1001
ACAD
1000
DSTYLE
1002
{
1070
     3
1000
φ<>
1070
    40
1040
1.3
1070
    45
1040
0.5
1070
   271
1070
     4
1070
   272
1070
     2
1002
}
  0
LINE
  5
FC70
330
18
100
AcDbEntity
  8
01
100
AcDbLine
 10
4772.030625691166
 20
697.1795134133215
 30
0.0000000001127424
 11
4772.030625691166
 21
728.9795134133215
 31
0.0000000001127424
1001
ACAD
1000
DSTYLE
1002
{
1070
    40
1040
1.3
1070
    45
1040
0.5
1070
   341
1005
0
1002
}
  0
LINE
  5
FC71
330
18
100
AcDbEntity
  8
01
100
AcDbLine
 10
4750.030240125447
 20
681.6795084133225
 30
0.0000000001127424
 11
4750.030240125447
 21
728.9795134133215
 31
0.0000000001127424
1001
ACAD
1000
DSTYLE
1002
{
1070
    40
1040
1.3
1070
    45
1040
0.5
1070
   341
1005
0
1002
}
  0
LINE
  5
FC72
330
18
100
AcDbEntity
  8
01
100
AcDbLine
 10
4769.430625691166
 20
727.6795134133215
 30
0.0000000001127424
 11
4752.630240125447
 21
727.6795134133215
 31
0.0000000001127424
1001
ACAD
1000
DSTYLE
1002
{
1070
    40
1040
1.3
1070
    45
1040
0.5
1070
   341
1005
0
1002
}
  0
LINE
  5
FC76
330
18
100
AcDbEntity
  8
01
100
AcDbLine
 10
4942.03050902896
 20
677.1795134133215
 30
0.0000000001127424
 11
4942.03050902896
 21
705.9795134133215
 31
0.0000000001127424
1001
ACAD
1000
DSTYLE
1002
{
1070
     3
1000
φ<>
1070
    40
1040
1.3
1070
    45
1040
0.5
1070
   271
1070
     4
1070
   272
1070
     2
1002
}
  0
LINE
  5
FC77
330
18
100
AcDbEntity
  8
01
100
AcDbLine
 10
4982.03050902896
 20
677.1795134133215
 30
0.0000000001127424
 11
4982.03050902896
 21
705.9795134133215
 31
0.0000000001127424
1001
ACAD
1000
DSTYLE
1002
{
1070
     3
1000
φ<>
1070
    40
1040
1.3
1070
    45
1040
0.5
1070
   271
1070
     4
1070
   272
1070
     2
1002
}
  0
LINE
  5
FC78
330
18
100
AcDbEntity
  8
01
100
AcDbLine
 10
4944.630509028961
 20
704.6795134133215
 30
0.0000000001127424
 11
4979.43050902896
 21
704.6795134133215
 31
0.0000000001127424
1001
ACAD
1000
DSTYLE
1002
{
1070
     3
1000
φ<>
1070
    40
1040
1.3
1070
    45
1040
0.5
1070
   271
1070
     4
1070
   272
1070
     2
1002
}
  0
LINE
  5
FC7C
330
18
100
AcDbEntity
  8
01
100
AcDbLine
 10
4602.030621691161
 20
677.1795134133215
 30
0.0000000001127424
 11
4602.030621691161
 21
705.9795134133215
 31
0.0000000001127424
1001
ACAD
1000
DSTYLE
1002
{
1070
     3
1000
φ<>
1070
    40
1040
1.3
1070
    45
1040
0.5
1070
   271
1070
     4
1070
   272
1070
     2
1002
}
  0
LINE
  5
FC7D
330
18
100
AcDbEntity
  8
01
100
AcDbLine
 10
4642.030621691161
 20
677.1795134133215
 30
0.0000000001127424
 11
4642.030621691161
 21
705.9795134133215
 31
0.0000000001127424
1001
ACAD
1000
DSTYLE
1002
{
1070
     3
1000
φ<>
1070
    40
1040
1.3
1070
    45
1040
0.5
1070
   271
1070
     4
1070
   272
1070
     2
1002
}
  0
LINE
  5
FC7E
330
18
100
AcDbEntity
  8
01
100
AcDbLine
 10
4604.630621691162
 20
704.6795134133215
 30
0.0000000001127424
 11
4639.430621691161
 21
704.6795134133215
 31
0.0000000001127424
1001
ACAD
1000
DSTYLE
1002
{
1070
     3
1000
φ<>
1070
    40
1040
1.3
1070
    45
1040
0.5
1070
   271
1070
     4
1070
   272
1070
     2
1002
}
  0
LINE
  5
FC82
330
18
100
AcDbEntity
  8
01
100
AcDbLine
 10
4772.030625691166
 20
697.1795134133215
 30
0.0000000001127424
 11
4772.030625691166
 21
728.9795134133215
 31
0.0000000001127424
1001
ACAD
1000
DSTYLE
1002
{
1070
    40
1040
1.3
1070
    45
1040
0.5
1070
   341
1005
0
1002
}
  0
LINE
  5
FC83
330
18
100
AcDbEntity
  8
01
100
AcDbLine
 10
4750.030600880154
 20
680.2999832380974
 30
0.0000000001127424
 11
4750.030600880154
 21
728.9795134133215
 31
0.0000000001127424
1001
ACAD
1000
DSTYLE
1002
{
1070
    40
1040
1.3
1070
    45
1040
0.5
1070
   341
1005
0
1002
}
  0
LINE
  5
FC84
330
18
100
AcDbEntity
  8
01
100
AcDbLine
 10
4769.430625691166
 20
727.6795134133215
 30
0.0000000001127424
 11
4752.630600880155
 21
727.6795134133215
 31
0.0000000001127424
1001
ACAD
1000
DSTYLE
1002
{
1070
    40
1040
1.3
1070
    45
1040
0.5
1070
   341
1005
0
1002
}
  0
LINE
  5
FC88
330
18
100
AcDbEntity
  8
01
100
AcDbLine
 10
4812.030625691165
 20
697.1795134133215
 30
0.0
 11
4812.030625691165
 21
728.9795134133215
 31
0.0
1001
ACAD
1000
DSTYLE
1002
{
1070
    40
1040
1.3
1070
    45
1040
0.5
1070
   271
1070
     1
1070
   341
1005
0
1002
}
  0
LINE
  5
FC89
330
18
100
AcDbEntity
  8
01
100
AcDbLine
 10
4820.199209380126
 20
671.6795149810137
 30
0.0
 11
4820.199209380126
 21
728.9795134133215
 31
0.0
1001
ACAD
1000
DSTYLE
1002
{
1070
    40
1040
1.3
1070
    45
1040
0.5
1070
   271
1070
     1
1070
   341
1005
0
1002
}
  0
LINE
  5
FC8A
330
18
100
AcDbEntity
  8
01
100
AcDbLine
 10
4814.630625691166
 20
727.6795134133215
 30
0.0
 11
4817.599209380126
 21
727.6795134133215
 31
0.0
1001
ACAD
1000
DSTYLE
1002
{
1070
    40
1040
1.3
1070
    45
1040
0.5
1070
   271
1070
     1
1070
   341
1005
0
1002
}
  0
TEXT
  5
FC8E
330
18
100
AcDbEntity
  8
01
  6
CONTINUOUS
100
AcDbText
 10
4859.367006745399
 20
819.4105514492965
 30
0.0000000001127424
 40
4.55
  1
材質：亜鉛ダイキャスト
100
AcDbText
  0
TEXT
  5
FC8F
330
18
100
AcDbEntity
  8
01
  6
CONTINUOUS
100
AcDbText
 10
4869.680340078732
 20
811.8272181159631
 30
0.0000000001127424
 40
4.55
  1
仕上げ：各種メッキ
100
AcDbText
  0
LINE
  5
FC90
330
18
100
AcDbEntity
  8
01
100
AcDbLine
 10
4900.03050935142
 20
649.67951271519
 30
0.0000000001127424
 11
4900.03050935142
 21
752.4010054980092
 31
0.0000000001127424
1001
ACAD
1000
DSTYLE
1002
{
1070
    40
1040
1.3
1070
    45
1040
0.5
1002
}
  0
LINE
  5
FC91
330
18
100
AcDbEntity
  8
01
100
AcDbLine
 10
4911.03050935142
 20
707.5508307644789
 30
0.0000000001127424
 11
4911.03050935142
 21
752.4010054980092
 31
0.0000000001127424
1001
ACAD
1000
DSTYLE
1002
{
1070
    40
1040
1.3
1070
    45
1040
0.5
1002
}
  0
LINE
  5
FC92
330
18
100
AcDbEntity
  8
01
100
AcDbLine
 10
4902.63050935142
 20
751.1010054980093
 30
0.0000000001127424
 11
4908.430509351419
 21
751.1010054980093
 31
0.0000000001127424
1001
ACAD
1000
DSTYLE
1002
{
1070
    40
1040
1.3
1070
    45
1040
0.5
1002
}
  0
LINE
  5
FC96
330
18
100
AcDbEntity
  8
01
100
AcDbLine
 10
4980.03050935142
 20
679.6795134133213
 30
0.0000000001127424
 11
5008.33050935142
 21
679.6795134133213
 31
0.0000000001127424
1001
ACAD
1000
DSTYLE
1002
{
1070
    40
1040
1.3
1070
    45
1040
0.5
1002
}
  0
LINE
  5
FC97
330
18
100
AcDbEntity
  8
01
100
AcDbLine
 10
4980.03050935142
 20
605.6795134133208
 30
0.0000000001127424
 11
5008.33050935142
 21
605.6795134133208
 31
0.0000000001127424
1001
ACAD
1000
DSTYLE
1002
{
1070
    40
1040
1.3
1070
    45
1040
0.5
1002
}
  0
LINE
  5
FC98
330
18
100
AcDbEntity
  8
01
100
AcDbLine
 10
5007.03050935142
 20
677.0795134133213
 30
0.0000000001127424
 11
5007.03050935142
 21
608.2795134133208
 31
0.0000000001127424
1001
ACAD
1000
DSTYLE
1002
{
1070
    40
1040
1.3
1070
    45
1040
0.5
1002
}
  0
LINE
  5
FC9C
330
18
100
AcDbEntity
  8
01
100
AcDbLine
 10
4980.03050935142
 20
679.6795134133213
 30
0.0000000001127424
 11
4980.03050935142
 21
762.4808729660574
 31
0.0000000001127424
1001
ACAD
1000
DSTYLE
1002
{
1070
    40
1040
1.3
1070
    45
1040
0.5
1002
}
  0
LINE
  5
FC9D
330
18
100
AcDbEntity
  8
01
100
AcDbLine
 10
4911.03050935142
 20
707.5508307644789
 30
0.0000000001127424
 11
4911.03050935142
 21
762.4808729660574
 31
0.0000000001127424
1001
ACAD
1000
DSTYLE
1002
{
1070
    40
1040
1.3
1070
    45
1040
0.5
1002
}
  0
LINE
  5
FC9E
330
18
100
AcDbEntity
  8
01
100
AcDbLine
 10
4977.430509351419
 20
761.1808729660574
 30
0.0000000001127424
 11
4913.63050935142
 21
761.1808729660574
 31
0.0000000001127424
1001
ACAD
1000
DSTYLE
1002
{
1070
    40
1040
1.3
1070
    45
1040
0.5
1002
}
  0
LINE
  5
FCA2
330
18
100
AcDbEntity
  8
01
100
AcDbLine
 10
4911.03050935142
 20
707.5508307644789
 30
0.0000000001127424
 11
4911.03050935142
 21
752.4010054980092
 31
0.0000000001127424
1001
ACAD
1000
DSTYLE
1002
{
1070
    40
1040
1.3
1070
    45
1040
0.5
1002
}
  0
LINE
  5
FCA3
330
18
100
AcDbEntity
  8
01
100
AcDbLine
 10
4962.03050935142
 20
671.6795134133213
 30
0.0000000001127424
 11
4962.03050935142
 21
752.4010054980092
 31
0.0000000001127424
1001
ACAD
1000
DSTYLE
1002
{
1070
    40
1040
1.3
1070
    45
1040
0.5
1002
}
  0
LINE
  5
FCA4
330
18
100
AcDbEntity
  8
01
100
AcDbLine
 10
4913.63050935142
 20
751.1010054980093
 30
0.0000000001127424
 11
4959.430509351419
 21
751.1010054980093
 31
0.0000000001127424
1001
ACAD
1000
DSTYLE
1002
{
1070
    40
1040
1.3
1070
    45
1040
0.5
1002
}
  0
LINE
  5
FCA8
330
18
100
AcDbEntity
  8
01
100
AcDbLine
 10
4779.530625691164
 20
701.6795134133208
 30
0.0000000001127424
 11
4779.530625691164
 21
752.401005498009
 31
0.0000000001127424
1001
ACAD
1000
DSTYLE
1002
{
1070
    40
1040
1.3
1070
    45
1040
0.5
1002
}
  0
LINE
  5
FCA9
330
18
100
AcDbEntity
  8
01
100
AcDbLine
 10
4804.530625691164
 20
701.6795134133208
 30
0.0000000001127424
 11
4804.530625691164
 21
752.401005498009
 31
0.0000000001127424
1001
ACAD
1000
DSTYLE
1002
{
1070
    40
1040
1.3
1070
    45
1040
0.5
1002
}
  0
LINE
  5
FCAA
330
18
100
AcDbEntity
  8
01
100
AcDbLine
 10
4782.130625691165
 20
751.101005498009
 30
0.0000000001127424
 11
4801.930625691164
 21
751.101005498009
 31
0.0000000001127424
1001
ACAD
1000
DSTYLE
1002
{
1070
    40
1040
1.3
1070
    45
1040
0.5
1002
}
  0
LINE
  5
FCAE
330
18
100
AcDbEntity
  8
01
100
AcDbLine
 10
4797.8325652944
 20
699.6799585577371
 30
0.0000000001691137
 11
4878.118696462609
 21
699.679958557737
 31
0.0000000001691137
1001
ACAD
1000
DSTYLE
1002
{
1070
    40
1040
1.3
1070
    45
1040
0.5
1002
}
  0
LINE
  5
FCAF
330
18
100
AcDbEntity
  8
01
100
AcDbLine
 10
4797.8325652944
 20
585.6799585577371
 30
0.0000000001691137
 11
4878.118696462609
 21
585.679958557737
 31
0.0000000001691137
1001
ACAD
1000
DSTYLE
1002
{
1070
    40
1040
1.3
1070
    45
1040
0.5
1002
}
  0
LINE
  5
FCB0
330
18
100
AcDbEntity
  8
01
100
AcDbLine
 10
4876.818696462608
 20
697.079958557737
 30
0.0000000001691137
 11
4876.818696462608
 21
588.279958557737
 31
0.0000000001691137
1001
ACAD
1000
DSTYLE
1002
{
1070
    40
1040
1.3
1070
    45
1040
0.5
1002
}
  0
LINE
  5
FCB4
330
18
100
AcDbEntity
  8
01
100
AcDbLine
 10
4798.430625691164
 20
707.5795134133207
 30
0.0000000001691137
 11
4887.483030628833
 21
707.5795134133206
 31
0.0000000001691137
1001
ACAD
1000
DSTYLE
1002
{
1070
    40
1040
1.3
1070
    45
1040
0.5
1002
}
  0
LINE
  5
FCB5
330
18
100
AcDbEntity
  8
01
100
AcDbLine
 10
4798.357539886494
 20
577.7799585577372
 30
0.0000000001691137
 11
4887.483030628833
 21
577.7799585577371
 31
0.0000000001691137
1001
ACAD
1000
DSTYLE
1002
{
1070
    40
1040
1.3
1070
    45
1040
0.5
1002
}
  0
LINE
  5
FCB6
330
18
100
AcDbEntity
  8
01
100
AcDbLine
 10
4886.183030628833
 20
704.9795134133205
 30
0.0000000001691137
 11
4886.183030628833
 21
580.3799585577372
 31
0.0000000001691137
1001
ACAD
1000
DSTYLE
1002
{
1070
    40
1040
1.3
1070
    45
1040
0.5
1002
}
  0
LINE
  5
FCBA
330
18
100
AcDbEntity
  8
01
100
AcDbLine
 10
4962.03050935142
 20
646.6795134133213
 30
0.0000000001127424
 11
4925.73050935142
 21
646.6795134133213
 31
0.0000000001127424
1001
ACAD
1000
DSTYLE
1002
{
1070
     3
1000
φ<>
1070
    40
1040
1.3
1070
    45
1040
0.5
1002
}
  0
LINE
  5
FCBB
330
18
100
AcDbEntity
  8
01
100
AcDbLine
 10
4962.03050935142
 20
596.6795134133222
 30
0.0000000001127424
 11
4925.73050935142
 21
596.6795134133222
 31
0.0000000001127424
1001
ACAD
1000
DSTYLE
1002
{
1070
     3
1000
φ<>
1070
    40
1040
1.3
1070
    45
1040
0.5
1002
}
  0
LINE
  5
FCBC
330
18
100
AcDbEntity
  8
01
100
AcDbLine
 10
4927.03050935142
 20
644.0795134133213
 30
0.0000000001127424
 11
4927.03050935142
 21
599.2795134133222
 31
0.0000000001127424
1001
ACAD
1000
DSTYLE
1002
{
1070
     3
1000
φ<>
1070
    40
1040
1.3
1070
    45
1040
0.5
1002
}
  0
LINE
  5
FCC0
330
18
100
AcDbEntity
  8
01
  6
BYBLOCK
100
AcDbLine
 10
4604.630621691162
 20
703.9828455193215
 30
0.0000000001127424
 11
4602.030621691161
 21
704.6795134133215
 31
0.0000000001127424
  0
LINE
  5
FCC1
330
18
100
AcDbEntity
  8
01
  6
BYBLOCK
100
AcDbLine
 10
4602.030621691161
 20
704.6795134133215
 30
0.0000000001127424
 11
4604.630621691162
 21
705.3761813073215
 31
0.0000000001127424
  0
LINE
  5
FCC2
330
18
100
AcDbEntity
  8
01
  6
BYBLOCK
100
AcDbLine
 10
4602.030621691161
 20
704.6795134133215
 30
0.0000000001127424
 11
4604.630621691162
 21
704.6795134133215
 31
0.0000000001127424
  0
LINE
  5
FCC3
330
18
100
AcDbEntity
  8
01
  6
BYBLOCK
100
AcDbLine
 10
4639.430621691161
 20
705.3761813073215
 30
0.0000000001127424
 11
4642.030621691161
 21
704.6795134133215
 31
0.0000000001127424
  0
LINE
  5
FCC4
330
18
100
AcDbEntity
  8
01
  6
BYBLOCK
100
AcDbLine
 10
4642.030621691161
 20
704.6795134133215
 30
0.0000000001127424
 11
4639.430621691161
 21
703.9828455193215
 31
0.0000000001127424
  0
LINE
  5
FCC5
330
18
100
AcDbEntity
  8
01
  6
BYBLOCK
100
AcDbLine
 10
4642.030621691161
 20
704.6795134133215
 30
0.0000000001127424
 11
4639.430621691161
 21
704.6795134133215
 31
0.0000000001127424
  0
TEXT
  5
FCC6
330
18
100
AcDbEntity
  8
01
  6
CONTINUOUS
100
AcDbText
 10
4615.186663357828
 20
705.5895134133215
 30
0.0000000001127424
 40
4.55
  1
φ40
100
AcDbText
1001
ACAD
1000
DSTYLE
1002
{
1070
     3
1000
φ<>
1070
    40
1040
1.3
1070
    45
1040
0.5
1070
   271
1070
     4
1070
   272
1070
     2
1002
}
  0
LINE
  5
FCC7
330
18
100
AcDbEntity
  8
01
  6
BYBLOCK
100
AcDbLine
 10
4769.430625691166
 20
728.3761813073215
 30
0.0000000001127424
 11
4772.030625691166
 21
727.6795134133215
 31
0.0000000001127424
  0
LINE
  5
FCC8
330
18
100
AcDbEntity
  8
01
  6
BYBLOCK
100
AcDbLine
 10
4772.030625691166
 20
727.6795134133215
 30
0.0000000001127424
 11
4769.430625691166
 21
726.9828455193215
 31
0.0000000001127424
  0
LINE
  5
FCC9
330
18
100
AcDbEntity
  8
01
  6
BYBLOCK
100
AcDbLine
 10
4772.030625691166
 20
727.6795134133215
 30
0.0000000001127424
 11
4769.430625691166
 21
727.6795134133215
 31
0.0000000001127424
  0
LINE
  5
FCCA
330
18
100
AcDbEntity
  8
01
  6
BYBLOCK
100
AcDbLine
 10
4752.630240125447
 20
726.9828455193215
 30
0.0000000001127424
 11
4750.030240125447
 21
727.6795134133215
 31
0.0000000001127424
  0
LINE
  5
FCCB
330
18
100
AcDbEntity
  8
01
  6
BYBLOCK
100
AcDbLine
 10
4750.030240125447
 20
727.6795134133215
 30
0.0000000001127424
 11
4752.630240125447
 21
728.3761813073215
 31
0.0000000001127424
  0
LINE
  5
FCCC
330
18
100
AcDbEntity
  8
01
  6
BYBLOCK
100
AcDbLine
 10
4750.030240125447
 20
727.6795134133215
 30
0.0000000001127424
 11
4752.630240125447
 21
727.6795134133215
 31
0.0000000001127424
  0
TEXT
  5
FCCD
330
18
100
AcDbEntity
  8
01
  6
CONTINUOUS
100
AcDbText
 10
4757.238766241639
 20
728.5895134133215
 30
0.0000000001127424
 40
4.55
  1
22
100
AcDbText
1001
ACAD
1000
DSTYLE
1002
{
1070
    40
1040
1.3
1070
    45
1040
0.5
1070
   341
1005
0
1002
}
  0
LINE
  5
FCCE
330
18
100
AcDbEntity
  8
01
  6
BYBLOCK
100
AcDbLine
 10
4944.630509028961
 20
703.9828455193215
 30
0.0000000001127424
 11
4942.03050902896
 21
704.6795134133215
 31
0.0000000001127424
  0
LINE
  5
FCCF
330
18
100
AcDbEntity
  8
01
  6
BYBLOCK
100
AcDbLine
 10
4942.03050902896
 20
704.6795134133215
 30
0.0000000001127424
 11
4944.630509028961
 21
705.3761813073215
 31
0.0000000001127424
  0
LINE
  5
FCD0
330
18
100
AcDbEntity
  8
01
  6
BYBLOCK
100
AcDbLine
 10
4942.03050902896
 20
704.6795134133215
 30
0.0000000001127424
 11
4944.630509028961
 21
704.6795134133215
 31
0.0000000001127424
  0
LINE
  5
FCD1
330
18
100
AcDbEntity
  8
01
  6
BYBLOCK
100
AcDbLine
 10
4979.43050902896
 20
705.3761813073215
 30
0.0000000001127424
 11
4982.03050902896
 21
704.6795134133215
 31
0.0000000001127424
  0
LINE
  5
FCD2
330
18
100
AcDbEntity
  8
01
  6
BYBLOCK
100
AcDbLine
 10
4982.03050902896
 20
704.6795134133215
 30
0.0000000001127424
 11
4979.43050902896
 21
703.9828455193215
 31
0.0000000001127424
  0
LINE
  5
FCD3
330
18
100
AcDbEntity
  8
01
  6
BYBLOCK
100
AcDbLine
 10
4982.03050902896
 20
704.6795134133215
 30
0.0000000001127424
 11
4979.43050902896
 21
704.6795134133215
 31
0.0000000001127424
  0
TEXT
  5
FCD4
330
18
100
AcDbEntity
  8
01
  6
CONTINUOUS
100
AcDbText
 10
4955.186550695627
 20
705.5895134133215
 30
0.0000000001127424
 40
4.55
  1
φ40
100
AcDbText
1001
ACAD
1000
DSTYLE
1002
{
1070
     3
1000
φ<>
1070
    40
1040
1.3
1070
    45
1040
0.5
1070
   271
1070
     4
1070
   272
1070
     2
1002
}
  0
LINE
  5
FCD5
330
18
100
AcDbEntity
  8
01
  6
BYBLOCK
100
AcDbLine
 10
4604.630621691162
 20
703.9828455193215
 30
0.0000000001127424
 11
4602.030621691161
 21
704.6795134133215
 31
0.0000000001127424
  0
LINE
  5
FCD6
330
18
100
AcDbEntity
  8
01
  6
BYBLOCK
100
AcDbLine
 10
4602.030621691161
 20
704.6795134133215
 30
0.0000000001127424
 11
4604.630621691162
 21
705.3761813073215
 31
0.0000000001127424
  0
LINE
  5
FCD7
330
18
100
AcDbEntity
  8
01
  6
BYBLOCK
100
AcDbLine
 10
4602.030621691161
 20
704.6795134133215
 30
0.0000000001127424
 11
4604.630621691162
 21
704.6795134133215
 31
0.0000000001127424
  0
LINE
  5
FCD8
330
18
100
AcDbEntity
  8
01
  6
BYBLOCK
100
AcDbLine
 10
4639.430621691161
 20
705.3761813073215
 30
0.0000000001127424
 11
4642.030621691161
 21
704.6795134133215
 31
0.0000000001127424
  0
LINE
  5
FCD9
330
18
100
AcDbEntity
  8
01
  6
BYBLOCK
100
AcDbLine
 10
4642.030621691161
 20
704.6795134133215
 30
0.0000000001127424
 11
4639.430621691161
 21
703.9828455193215
 31
0.0000000001127424
  0
LINE
  5
FCDA
330
18
100
AcDbEntity
  8
01
  6
BYBLOCK
100
AcDbLine
 10
4642.030621691161
 20
704.6795134133215
 30
0.0000000001127424
 11
4639.430621691161
 21
704.6795134133215
 31
0.0000000001127424
  0
TEXT
  5
FCDB
330
18
100
AcDbEntity
  8
01
  6
CONTINUOUS
100
AcDbText
 10
4615.186663357828
 20
705.5895134133215
 30
0.0000000001127424
 40
4.55
  1
φ40
100
AcDbText
1001
ACAD
1000
DSTYLE
1002
{
1070
     3
1000
φ<>
1070
    40
1040
1.3
1070
    45
1040
0.5
1070
   271
1070
     4
1070
   272
1070
     2
1002
}
  0
LINE
  5
FCDC
330
18
100
AcDbEntity
  8
01
  6
BYBLOCK
100
AcDbLine
 10
4769.430625691166
 20
728.3761813073215
 30
0.0000000001127424
 11
4772.030625691166
 21
727.6795134133215
 31
0.0000000001127424
  0
LINE
  5
FCDD
330
18
100
AcDbEntity
  8
01
  6
BYBLOCK
100
AcDbLine
 10
4772.030625691166
 20
727.6795134133215
 30
0.0000000001127424
 11
4769.430625691166
 21
726.9828455193215
 31
0.0000000001127424
  0
LINE
  5
FCDE
330
18
100
AcDbEntity
  8
01
  6
BYBLOCK
100
AcDbLine
 10
4772.030625691166
 20
727.6795134133215
 30
0.0000000001127424
 11
4769.430625691166
 21
727.6795134133215
 31
0.0000000001127424
  0
LINE
  5
FCDF
330
18
100
AcDbEntity
  8
01
  6
BYBLOCK
100
AcDbLine
 10
4752.630600880155
 20
726.9828455193215
 30
0.0000000001127424
 11
4750.030600880154
 21
727.6795134133215
 31
0.0000000001127424
  0
LINE
  5
FCE0
330
18
100
AcDbEntity
  8
01
  6
BYBLOCK
100
AcDbLine
 10
4750.030600880154
 20
727.6795134133215
 30
0.0000000001127424
 11
4752.630600880155
 21
728.3761813073215
 31
0.0000000001127424
  0
LINE
  5
FCE1
330
18
100
AcDbEntity
  8
01
  6
BYBLOCK
100
AcDbLine
 10
4750.030600880154
 20
727.6795134133215
 30
0.0000000001127424
 11
4752.630600880155
 21
727.6795134133215
 31
0.0000000001127424
  0
TEXT
  5
FCE2
330
18
100
AcDbEntity
  8
01
  6
CONTINUOUS
100
AcDbText
 10
4757.238946618993
 20
728.5895134133215
 30
0.0000000001127424
 40
4.55
  1
22
100
AcDbText
1001
ACAD
1000
DSTYLE
1002
{
1070
    40
1040
1.3
1070
    45
1040
0.5
1070
   341
1005
0
1002
}
  0
LINE
  5
FCE3
330
18
100
AcDbEntity
  8
01
  6
BYBLOCK
100
AcDbLine
 10
4814.630625691166
 20
726.9828455193215
 30
0.0
 11
4812.030625691165
 21
727.6795134133215
 31
0.0
  0
LINE
  5
FCE4
330
18
100
AcDbEntity
  8
01
  6
BYBLOCK
100
AcDbLine
 10
4812.030625691165
 20
727.6795134133215
 30
0.0
 11
4814.630625691166
 21
728.3761813073215
 31
0.0
  0
LINE
  5
FCE5
330
18
100
AcDbEntity
  8
01
  6
BYBLOCK
100
AcDbLine
 10
4812.030625691165
 20
727.6795134133215
 30
0.0
 11
4814.630625691166
 21
727.6795134133215
 31
0.0
  0
LINE
  5
FCE6
330
18
100
AcDbEntity
  8
01
  6
BYBLOCK
100
AcDbLine
 10
4817.599209380126
 20
728.3761813073215
 30
0.0
 11
4820.199209380126
 21
727.6795134133215
 31
0.0
  0
LINE
  5
FCE7
330
18
100
AcDbEntity
  8
01
  6
BYBLOCK
100
AcDbLine
 10
4820.199209380126
 20
727.6795134133215
 30
0.0
 11
4817.599209380126
 21
726.9828455193215
 31
0.0
  0
LINE
  5
FCE8
330
18
100
AcDbEntity
  8
01
  6
BYBLOCK
100
AcDbLine
 10
4820.199209380126
 20
727.6795134133215
 30
0.0
 11
4817.599209380126
 21
727.6795134133215
 31
0.0
  0
TEXT
  5
FCE9
330
18
100
AcDbEntity
  8
01
  6
CONTINUOUS
100
AcDbText
 10
4814.598250868979
 20
728.5895134133215
 30
0.0
 40
4.55
  1
8
100
AcDbText
1001
ACAD
1000
DSTYLE
1002
{
1070
    40
1040
1.3
1070
    45
1040
0.5
1070
   271
1070
     1
1070
   341
1005
0
1002
}
  0
LINE
  5
FCEA
330
18
100
AcDbEntity
  8
01
  6
BYBLOCK
100
AcDbLine
 10
4902.63050935142
 20
750.4043376040092
 30
0.0000000001127424
 11
4900.03050935142
 21
751.1010054980093
 31
0.0000000001127424
  0
LINE
  5
FCEB
330
18
100
AcDbEntity
  8
01
  6
BYBLOCK
100
AcDbLine
 10
4900.03050935142
 20
751.1010054980093
 30
0.0000000001127424
 11
4902.63050935142
 21
751.7976733920093
 31
0.0000000001127424
  0
LINE
  5
FCEC
330
18
100
AcDbEntity
  8
01
  6
BYBLOCK
100
AcDbLine
 10
4900.03050935142
 20
751.1010054980093
 30
0.0000000001127424
 11
4902.63050935142
 21
751.1010054980093
 31
0.0000000001127424
  0
LINE
  5
FCED
330
18
100
AcDbEntity
  8
01
  6
BYBLOCK
100
AcDbLine
 10
4908.430509351419
 20
751.7976733920093
 30
0.0000000001127424
 11
4911.03050935142
 21
751.1010054980093
 31
0.0000000001127424
  0
LINE
  5
FCEE
330
18
100
AcDbEntity
  8
01
  6
BYBLOCK
100
AcDbLine
 10
4911.03050935142
 20
751.1010054980093
 30
0.0000000001127424
 11
4908.430509351419
 21
750.4043376040092
 31
0.0000000001127424
  0
LINE
  5
FCEF
330
18
100
AcDbEntity
  8
01
  6
BYBLOCK
100
AcDbLine
 10
4911.03050935142
 20
751.1010054980093
 30
0.0000000001127424
 11
4908.430509351419
 21
751.1010054980093
 31
0.0000000001127424
  0
TEXT
  5
FCF0
330
18
100
AcDbEntity
  8
01
  6
CONTINUOUS
100
AcDbText
 10
4903.25550935142
 20
752.0110054980092
 30
0.0000000001127424
 40
4.55
  1
11
100
AcDbText
1001
ACAD
1000
DSTYLE
1002
{
1070
    40
1040
1.3
1070
    45
1040
0.5
1002
}
  0
LINE
  5
FCF1
330
18
100
AcDbEntity
  8
01
  6
BYBLOCK
100
AcDbLine
 10
5006.33384145742
 20
677.0795134133213
 30
0.0000000001127424
 11
5007.03050935142
 21
679.6795134133213
 31
0.0000000001127424
  0
LINE
  5
FCF2
330
18
100
AcDbEntity
  8
01
  6
BYBLOCK
100
AcDbLine
 10
5007.03050935142
 20
679.6795134133213
 30
0.0000000001127424
 11
5007.72717724542
 21
677.0795134133213
 31
0.0000000001127424
  0
LINE
  5
FCF3
330
18
100
AcDbEntity
  8
01
  6
BYBLOCK
100
AcDbLine
 10
5007.03050935142
 20
679.6795134133213
 30
0.0000000001127424
 11
5007.03050935142
 21
677.0795134133213
 31
0.0000000001127424
  0
LINE
  5
FCF4
330
18
100
AcDbEntity
  8
01
  6
BYBLOCK
100
AcDbLine
 10
5007.72717724542
 20
608.2795134133208
 30
0.0000000001127424
 11
5007.03050935142
 21
605.6795134133208
 31
0.0000000001127424
  0
LINE
  5
FCF5
330
18
100
AcDbEntity
  8
01
  6
BYBLOCK
100
AcDbLine
 10
5007.03050935142
 20
605.6795134133208
 30
0.0000000001127424
 11
5006.33384145742
 21
608.2795134133208
 31
0.0000000001127424
  0
LINE
  5
FCF6
330
18
100
AcDbEntity
  8
01
  6
BYBLOCK
100
AcDbLine
 10
5007.03050935142
 20
605.6795134133208
 30
0.0000000001127424
 11
5007.03050935142
 21
608.2795134133208
 31
0.0000000001127424
  0
TEXT
  5
FCF7
330
18
100
AcDbEntity
  8
01
  6
CONTINUOUS
100
AcDbText
 10
5006.12050935142
 20
660.6508574993395
 30
0.0000000001127424
 40
4.55
  1
74
 50
90.0
100
AcDbText
1001
ACAD
1000
DSTYLE
1002
{
1070
    40
1040
1.3
1070
    45
1040
0.5
1002
}
  0
LINE
  5
FCF8
330
18
100
AcDbEntity
  8
01
  6
BYBLOCK
100
AcDbLine
 10
4977.430509351419
 20
761.8775408600575
 30
0.0000000001127424
 11
4980.03050935142
 21
761.1808729660574
 31
0.0000000001127424
  0
LINE
  5
FCF9
330
18
100
AcDbEntity
  8
01
  6
BYBLOCK
100
AcDbLine
 10
4980.03050935142
 20
761.1808729660574
 30
0.0000000001127424
 11
4977.430509351419
 21
760.4842050720574
 31
0.0000000001127424
  0
LINE
  5
FCFA
330
18
100
AcDbEntity
  8
01
  6
BYBLOCK
100
AcDbLine
 10
4980.03050935142
 20
761.1808729660574
 30
0.0000000001127424
 11
4977.430509351419
 21
761.1808729660574
 31
0.0000000001127424
  0
LINE
  5
FCFB
330
18
100
AcDbEntity
  8
01
  6
BYBLOCK
100
AcDbLine
 10
4913.63050935142
 20
760.4842050720574
 30
0.0000000001127424
 11
4911.03050935142
 21
761.1808729660574
 31
0.0000000001127424
  0
LINE
  5
FCFC
330
18
100
AcDbEntity
  8
01
  6
BYBLOCK
100
AcDbLine
 10
4911.03050935142
 20
761.1808729660574
 30
0.0000000001127424
 11
4913.63050935142
 21
761.8775408600575
 31
0.0000000001127424
  0
LINE
  5
FCFD
330
18
100
AcDbEntity
  8
01
  6
BYBLOCK
100
AcDbLine
 10
4911.03050935142
 20
761.1808729660574
 30
0.0000000001127424
 11
4913.63050935142
 21
761.1808729660574
 31
0.0000000001127424
  0
TEXT
  5
FCFE
330
18
100
AcDbEntity
  8
01
  6
CONTINUOUS
100
AcDbText
 10
4941.721990832902
 20
762.0908729660574
 30
0.0000000001127424
 40
4.55
  1
69
100
AcDbText
1001
ACAD
1000
DSTYLE
1002
{
1070
    40
1040
1.3
1070
    45
1040
0.5
1002
}
  0
LINE
  5
FCFF
330
18
100
AcDbEntity
  8
01
  6
BYBLOCK
100
AcDbLine
 10
4913.63050935142
 20
750.4043376040092
 30
0.0000000001127424
 11
4911.03050935142
 21
751.1010054980093
 31
0.0000000001127424
  0
LINE
  5
FD00
330
18
100
AcDbEntity
  8
01
  6
BYBLOCK
100
AcDbLine
 10
4911.03050935142
 20
751.1010054980093
 30
0.0000000001127424
 11
4913.63050935142
 21
751.7976733920093
 31
0.0000000001127424
  0
LINE
  5
FD01
330
18
100
AcDbEntity
  8
01
  6
BYBLOCK
100
AcDbLine
 10
4911.03050935142
 20
751.1010054980093
 30
0.0000000001127424
 11
4913.63050935142
 21
751.1010054980093
 31
0.0000000001127424
  0
LINE
  5
FD02
330
18
100
AcDbEntity
  8
01
  6
BYBLOCK
100
AcDbLine
 10
4959.430509351419
 20
751.7976733920093
 30
0.0000000001127424
 11
4962.03050935142
 21
751.1010054980093
 31
0.0000000001127424
  0
LINE
  5
FD03
330
18
100
AcDbEntity
  8
01
  6
BYBLOCK
100
AcDbLine
 10
4962.03050935142
 20
751.1010054980093
 30
0.0000000001127424
 11
4959.430509351419
 21
750.4043376040092
 31
0.0000000001127424
  0
LINE
  5
FD04
330
18
100
AcDbEntity
  8
01
  6
BYBLOCK
100
AcDbLine
 10
4962.03050935142
 20
751.1010054980093
 30
0.0000000001127424
 11
4959.430509351419
 21
751.1010054980093
 31
0.0000000001127424
  0
TEXT
  5
FD05
330
18
100
AcDbEntity
  8
01
  6
CONTINUOUS
100
AcDbText
 10
4933.481377406975
 20
752.0110054980092
 30
0.0000000001127424
 40
4.55
  1
51
100
AcDbText
1001
ACAD
1000
DSTYLE
1002
{
1070
    40
1040
1.3
1070
    45
1040
0.5
1002
}
  0
LINE
  5
FD06
330
18
100
AcDbEntity
  8
01
  6
BYBLOCK
100
AcDbLine
 10
4782.130625691165
 20
750.404337604009
 30
0.0000000001127424
 11
4779.530625691164
 21
751.101005498009
 31
0.0000000001127424
  0
LINE
  5
FD07
330
18
100
AcDbEntity
  8
01
  6
BYBLOCK
100
AcDbLine
 10
4779.530625691164
 20
751.101005498009
 30
0.0000000001127424
 11
4782.130625691165
 21
751.7976733920091
 31
0.0000000001127424
  0
LINE
  5
FD08
330
18
100
AcDbEntity
  8
01
  6
BYBLOCK
100
AcDbLine
 10
4779.530625691164
 20
751.101005498009
 30
0.0000000001127424
 11
4782.130625691165
 21
751.101005498009
 31
0.0000000001127424
  0
LINE
  5
FD09
330
18
100
AcDbEntity
  8
01
  6
BYBLOCK
100
AcDbLine
 10
4801.930625691164
 20
751.7976733920091
 30
0.0000000001127424
 11
4804.530625691164
 21
751.101005498009
 31
0.0000000001127424
  0
LINE
  5
FD0A
330
18
100
AcDbEntity
  8
01
  6
BYBLOCK
100
AcDbLine
 10
4804.530625691164
 20
751.101005498009
 30
0.0000000001127424
 11
4801.930625691164
 21
750.404337604009
 31
0.0000000001127424
  0
LINE
  5
FD0B
330
18
100
AcDbEntity
  8
01
  6
BYBLOCK
100
AcDbLine
 10
4804.530625691164
 20
751.101005498009
 30
0.0000000001127424
 11
4801.930625691164
 21
751.101005498009
 31
0.0000000001127424
  0
TEXT
  5
FD0C
330
18
100
AcDbEntity
  8
01
  6
CONTINUOUS
100
AcDbText
 10
4788.238959024497
 20
752.011005498009
 30
0.0000000001127424
 40
4.55
  1
25
100
AcDbText
1001
ACAD
1000
DSTYLE
1002
{
1070
    40
1040
1.3
1070
    45
1040
0.5
1002
}
  0
LINE
  5
FD0D
330
18
100
AcDbEntity
  8
01
  6
BYBLOCK
100
AcDbLine
 10
4876.122028568609
 20
697.079958557737
 30
0.0000000001691137
 11
4876.818696462608
 21
699.679958557737
 31
0.0000000001691137
  0
LINE
  5
FD0E
330
18
100
AcDbEntity
  8
01
  6
BYBLOCK
100
AcDbLine
 10
4876.818696462608
 20
699.679958557737
 30
0.0000000001691137
 11
4877.515364356608
 21
697.079958557737
 31
0.0000000001691137
  0
LINE
  5
FD0F
330
18
100
AcDbEntity
  8
01
  6
BYBLOCK
100
AcDbLine
 10
4876.818696462608
 20
699.679958557737
 30
0.0000000001691137
 11
4876.818696462608
 21
697.079958557737
 31
0.0000000001691137
  0
LINE
  5
FD10
330
18
100
AcDbEntity
  8
01
  6
BYBLOCK
100
AcDbLine
 10
4877.515364356608
 20
588.279958557737
 30
0.0000000001691137
 11
4876.818696462608
 21
585.679958557737
 31
0.0000000001691137
  0
LINE
  5
FD11
330
18
100
AcDbEntity
  8
01
  6
BYBLOCK
100
AcDbLine
 10
4876.818696462608
 20
585.679958557737
 30
0.0000000001691137
 11
4876.122028568609
 21
588.279958557737
 31
0.0000000001691137
  0
LINE
  5
FD12
330
18
100
AcDbEntity
  8
01
  6
BYBLOCK
100
AcDbLine
 10
4876.818696462608
 20
585.679958557737
 30
0.0000000001691137
 11
4876.818696462608
 21
588.279958557737
 31
0.0000000001691137
  0
TEXT
  5
FD13
330
18
100
AcDbEntity
  8
01
  6
CONTINUOUS
100
AcDbText
 10
4875.908696462608
 20
667.2629809056589
 30
0.0000000001691137
 40
4.55
  1
114
 50
90.0
100
AcDbText
1001
ACAD
1000
DSTYLE
1002
{
1070
    40
1040
1.3
1070
    45
1040
0.5
1002
}
  0
LINE
  5
FD14
330
18
100
AcDbEntity
  8
01
  6
BYBLOCK
100
AcDbLine
 10
4885.486362734833
 20
704.9795134133205
 30
0.0000000001691137
 11
4886.183030628833
 21
707.5795134133206
 31
0.0000000001691137
  0
LINE
  5
FD15
330
18
100
AcDbEntity
  8
01
  6
BYBLOCK
100
AcDbLine
 10
4886.183030628833
 20
707.5795134133206
 30
0.0000000001691137
 11
4886.879698522833
 21
704.9795134133205
 31
0.0000000001691137
  0
LINE
  5
FD16
330
18
100
AcDbEntity
  8
01
  6
BYBLOCK
100
AcDbLine
 10
4886.183030628833
 20
707.5795134133206
 30
0.0000000001691137
 11
4886.183030628833
 21
704.9795134133205
 31
0.0000000001691137
  0
LINE
  5
FD17
330
18
100
AcDbEntity
  8
01
  6
BYBLOCK
100
AcDbLine
 10
4886.879698522833
 20
580.3799585577372
 30
0.0000000001691137
 11
4886.183030628833
 21
577.7799585577371
 31
0.0000000001691137
  0
LINE
  5
FD18
330
18
100
AcDbEntity
  8
01
  6
BYBLOCK
100
AcDbLine
 10
4886.183030628833
 20
577.7799585577371
 30
0.0000000001691137
 11
4885.486362734833
 21
580.3799585577372
 31
0.0000000001691137
  0
LINE
  5
FD19
330
18
100
AcDbEntity
  8
01
  6
BYBLOCK
100
AcDbLine
 10
4886.183030628833
 20
577.7799585577371
 30
0.0000000001691137
 11
4886.183030628833
 21
580.3799585577372
 31
0.0000000001691137
  0
TEXT
  5
FD1A
330
18
100
AcDbEntity
  8
01
  6
CONTINUOUS
100
AcDbText
 10
4885.273030628832
 20
666.4784169028508
 30
0.0000000001691137
 40
4.55
  1
130
 50
90.0
100
AcDbText
1001
ACAD
1000
DSTYLE
1002
{
1070
    40
1040
1.3
1070
    45
1040
0.5
1002
}
  0
LINE
  5
FD1B
330
18
100
AcDbEntity
  8
01
  6
BYBLOCK
100
AcDbLine
 10
4926.33384145742
 20
644.0795134133213
 30
0.0000000001127424
 11
4927.03050935142
 21
646.6795134133213
 31
0.0000000001127424
  0
LINE
  5
FD1C
330
18
100
AcDbEntity
  8
01
  6
BYBLOCK
100
AcDbLine
 10
4927.03050935142
 20
646.6795134133213
 30
0.0000000001127424
 11
4927.72717724542
 21
644.0795134133213
 31
0.0000000001127424
  0
LINE
  5
FD1D
330
18
100
AcDbEntity
  8
01
  6
BYBLOCK
100
AcDbLine
 10
4927.03050935142
 20
646.6795134133213
 30
0.0000000001127424
 11
4927.03050935142
 21
644.0795134133213
 31
0.0000000001127424
  0
LINE
  5
FD1E
330
18
100
AcDbEntity
  8
01
  6
BYBLOCK
100
AcDbLine
 10
4927.72717724542
 20
599.2795134133222
 30
0.0000000001127424
 11
4927.03050935142
 21
596.6795134133222
 31
0.0000000001127424
  0
LINE
  5
FD1F
330
18
100
AcDbEntity
  8
01
  6
BYBLOCK
100
AcDbLine
 10
4927.03050935142
 20
596.6795134133222
 30
0.0000000001127424
 11
4926.33384145742
 21
599.2795134133222
 31
0.0000000001127424
  0
LINE
  5
FD20
330
18
100
AcDbEntity
  8
01
  6
BYBLOCK
100
AcDbLine
 10
4927.03050935142
 20
596.6795134133222
 30
0.0000000001127424
 11
4927.03050935142
 21
599.2795134133222
 31
0.0000000001127424
  0
TEXT
  5
FD21
330
18
100
AcDbEntity
  8
01
  6
CONTINUOUS
100
AcDbText
 10
4926.120509351419
 20
613.4800105067216
 30
0.0000000001127424
 40
4.55
  1
φ50
 50
90.0
100
AcDbText
1001
ACAD
1000
DSTYLE
1002
{
1070
     3
1000
φ<>
1070
    40
1040
1.3
1070
    45
1040
0.5
1002
}
  0
LINE
  5
FD22
330
18
100
AcDbEntity
  8
1DIM
100
AcDbLine
 10
4592.030629691164
 20
621.6795134133215
 30
0.0000000001127424
 11
4577.036777288876
 21
621.6795134133215
 31
0.0000000001127424
1001
ACAD
1000
DSTYLE
1002
{
1070
    40
1040
1.3
1070
    45
1040
0.5
1070
   341
1005
0
1002
}
  0
LINE
  5
FD23
330
18
100
AcDbEntity
  8
1DIM
100
AcDbLine
 10
4599.530621691165
 20
677.1795134133215
 30
0.0000000001127424
 11
4577.036777288876
 21
677.1795134133215
 31
0.0000000001127424
1001
ACAD
1000
DSTYLE
1002
{
1070
    40
1040
1.3
1070
    45
1040
0.5
1070
   341
1005
0
1002
}
  0
LINE
  5
FD24
330
18
100
AcDbEntity
  8
1DIM
100
AcDbLine
 10
4578.336777288876
 20
624.2795134133215
 30
0.0000000001127424
 11
4578.336777288876
 21
674.5795134133215
 31
0.0000000001127424
1001
ACAD
1000
DSTYLE
1002
{
1070
    40
1040
1.3
1070
    45
1040
0.5
1070
   341
1005
0
1002
}
  0
LINE
  5
FD28
330
18
100
AcDbEntity
  8
1DIM
100
AcDbLine
 10
4592.030629691164
 20
621.6795134133215
 30
0.0000000001127424
 11
4577.036777288876
 21
621.6795134133215
 31
0.0000000001127424
1001
ACAD
1000
DSTYLE
1002
{
1070
    40
1040
1.3
1070
    45
1040
0.5
1070
   341
1005
0
1002
}
  0
LINE
  5
FD29
330
18
100
AcDbEntity
  8
1DIM
100
AcDbLine
 10
4599.530621691165
 20
677.1795134133215
 30
0.0000000001127424
 11
4577.036777288876
 21
677.1795134133215
 31
0.0000000001127424
1001
ACAD
1000
DSTYLE
1002
{
1070
    40
1040
1.3
1070
    45
1040
0.5
1070
   341
1005
0
1002
}
  0
LINE
  5
FD2A
330
18
100
AcDbEntity
  8
1DIM
100
AcDbLine
 10
4578.336777288876
 20
624.2795134133215
 30
0.0000000001127424
 11
4578.336777288876
 21
674.5795134133215
 31
0.0000000001127424
1001
ACAD
1000
DSTYLE
1002
{
1070
    40
1040
1.3
1070
    45
1040
0.5
1070
   341
1005
0
1002
}
  0
SOLID
  5
FD2E
330
18
100
AcDbEntity
  8
1DIM
100
AcDbTrace
 10
4959.493025449908
 20
845.4549113412409
 30
0.0000000001127424
 11
4961.77111059148
 21
846.7808471864178
 31
0.0000000001127424
 12
4960.046198434375
 22
844.7877451247945
 32
0.0000000001127424
 13
4960.046198434375
 23
844.7877451247945
 33
0.0000000001127424
1001
ACAD
1000
DSTYLE
1002
{
1070
    40
1040
1.3
1070
    45
1040
0.5
1002
}
  0
LINE
  5
FD2F
330
18
100
AcDbEntity
  8
1DIM
100
AcDbLine
 10
4959.769611942142
 20
845.1213282330176
 30
0.0000000001127424
 11
4918.517006745398
 21
810.9172181159632
 31
0.0000000001127424
1001
ACAD
1000
DSTYLE
1002
{
1070
    40
1040
1.3
1070
    45
1040
0.5
1002
}
  0
LINE
  5
FD30
330
18
100
AcDbEntity
  8
1DIM
100
AcDbLine
 10
4978.431393533479
 20
901.1795134122926
 30
0.0000000001127424
 11
4998.991784293193
 21
901.1795134122926
 31
0.0000000001127424
1001
ACAD
1000
DSTYLE
1002
{
1070
    45
1040
0.5
1070
    40
1040
1.3
1002
}
  0
LINE
  5
FD31
330
18
100
AcDbEntity
  8
1DIM
100
AcDbLine
 10
4980.03139353348
 20
882.3795134122927
 30
0.0000000001127424
 11
4998.991784293193
 21
882.3795134122927
 31
0.0000000001127424
1001
ACAD
1000
DSTYLE
1002
{
1070
    45
1040
0.5
1070
    40
1040
1.3
1002
}
  0
LINE
  5
FD32
330
18
100
AcDbEntity
  8
1DIM
100
AcDbLine
 10
4997.691784293193
 20
898.5795134122926
 30
0.0000000001127424
 11
4997.691784293193
 21
884.9795134122927
 31
0.0000000001127424
1001
ACAD
1000
DSTYLE
1002
{
1070
    45
1040
0.5
1070
    40
1040
1.3
1002
}
  0
LINE
  5
FD36
330
18
100
AcDbEntity
  8
1DIM
100
AcDbLine
 10
4962.03050935142
 20
850.1781951002185
 30
0.0000000001127424
 11
4962.03050935142
 21
785.3781951002186
 31
0.0000000001127424
1001
ACAD
1000
DSTYLE
1002
{
1070
    40
1040
1.3
1070
    45
1040
0.5
1002
}
  0
LINE
  5
FD37
330
18
100
AcDbEntity
  8
1DIM
100
AcDbLine
 10
5087.03050935142
 20
811.9781951002187
 30
0.0000000001127424
 11
5087.03050935142
 21
785.3781951002186
 31
0.0000000001127424
1001
ACAD
1000
DSTYLE
1002
{
1070
    40
1040
1.3
1070
    45
1040
0.5
1002
}
  0
LINE
  5
FD38
330
18
100
AcDbEntity
  8
1DIM
100
AcDbLine
 10
4964.63050935142
 20
786.6781951002185
 30
0.0000000001127424
 11
5084.430509351419
 21
786.6781951002185
 31
0.0000000001127424
1001
ACAD
1000
DSTYLE
1002
{
1070
    40
1040
1.3
1070
    45
1040
0.5
1002
}
  0
LINE
  5
FD3C
330
18
100
AcDbEntity
  8
1DIM
100
AcDbLine
 10
4931.03050935142
 20
870.4781951002187
 30
0.0000000001127424
 11
4931.03050935142
 21
775.3781951002186
 31
0.0000000001127424
1001
ACAD
1000
DSTYLE
1002
{
1070
    40
1040
1.3
1070
    45
1040
0.5
1002
}
  0
LINE
  5
FD3D
330
18
100
AcDbEntity
  8
1DIM
100
AcDbLine
 10
5087.03050935142
 20
811.9781951002187
 30
0.0000000001127424
 11
5087.03050935142
 21
775.3781951002186
 31
0.0000000001127424
1001
ACAD
1000
DSTYLE
1002
{
1070
    40
1040
1.3
1070
    45
1040
0.5
1002
}
  0
LINE
  5
FD3E
330
18
100
AcDbEntity
  8
1DIM
100
AcDbLine
 10
4933.63050935142
 20
776.6781951002185
 30
0.0000000001127424
 11
5084.430509351419
 21
776.6781951002185
 31
0.0000000001127424
1001
ACAD
1000
DSTYLE
1002
{
1070
    40
1040
1.3
1070
    45
1040
0.5
1002
}
  0
LINE
  5
FD42
330
18
100
AcDbEntity
  8
1DIM
100
AcDbLine
 10
5085.03050935142
 20
833.9781951002187
 30
0.0000000001127424
 11
5118.33050935142
 21
833.9781951002187
 31
0.0000000001127424
1001
ACAD
1000
DSTYLE
1002
{
1070
    40
1040
1.3
1070
    45
1040
0.5
1002
}
  0
LINE
  5
FD43
330
18
100
AcDbEntity
  8
1DIM
100
AcDbLine
 10
5064.785657348768
 20
871.6781951002185
 30
0.0000000001127424
 11
5118.33050935142
 21
871.6781951002185
 31
0.0000000001127424
1001
ACAD
1000
DSTYLE
1002
{
1070
    40
1040
1.3
1070
    45
1040
0.5
1002
}
  0
LINE
  5
FD44
330
18
100
AcDbEntity
  8
1DIM
100
AcDbLine
 10
5117.03050935142
 20
836.5781951002187
 30
0.0000000001127424
 11
5117.03050935142
 21
869.0781951002185
 31
0.0000000001127424
1001
ACAD
1000
DSTYLE
1002
{
1070
    40
1040
1.3
1070
    45
1040
0.5
1002
}
  0
LINE
  5
FD48
330
18
100
AcDbEntity
  8
1DIM
100
AcDbLine
 10
5085.03050935142
 20
809.9781951002187
 30
0.0000000001127424
 11
5128.33050935142
 21
809.9781951002187
 31
0.0000000001127424
1001
ACAD
1000
DSTYLE
1002
{
1070
    40
1040
1.3
1070
    45
1040
0.5
1002
}
  0
LINE
  5
FD49
330
18
100
AcDbEntity
  8
1DIM
100
AcDbLine
 10
5064.785657348768
 20
871.6781951002185
 30
0.0000000001127424
 11
5128.33050935142
 21
871.6781951002185
 31
0.0000000001127424
1001
ACAD
1000
DSTYLE
1002
{
1070
    40
1040
1.3
1070
    45
1040
0.5
1002
}
  0
LINE
  5
FD4A
330
18
100
AcDbEntity
  8
1DIM
100
AcDbLine
 10
5127.03050935142
 20
812.5781951002187
 30
0.0000000001127424
 11
5127.03050935142
 21
869.0781951002185
 31
0.0000000001127424
1001
ACAD
1000
DSTYLE
1002
{
1070
    40
1040
1.3
1070
    45
1040
0.5
1002
}
  0
LINE
  5
FD4E
330
18
100
AcDbEntity
  8
1DIM
100
AcDbLine
 10
5086.03050935142
 20
615.1795134133208
 30
0.0000000001127424
 11
5118.33050935142
 21
615.1795134133208
 31
0.0000000001127424
1001
ACAD
1000
DSTYLE
1002
{
1070
    40
1040
1.3
1070
    45
1040
0.5
1002
}
  0
LINE
  5
FD4F
330
18
100
AcDbEntity
  8
1DIM
100
AcDbLine
 10
5086.03050935142
 20
628.1795134133208
 30
0.0000000001127424
 11
5118.33050935142
 21
628.1795134133208
 31
0.0000000001127424
1001
ACAD
1000
DSTYLE
1002
{
1070
    40
1040
1.3
1070
    45
1040
0.5
1002
}
  0
LINE
  5
FD50
330
18
100
AcDbEntity
  8
1DIM
100
AcDbLine
 10
5117.03050935142
 20
617.7795134133208
 30
0.0000000001127424
 11
5117.03050935142
 21
625.5795134133208
 31
0.0000000001127424
1001
ACAD
1000
DSTYLE
1002
{
1070
    40
1040
1.3
1070
    45
1040
0.5
1002
}
  0
LINE
  5
FD54
330
18
100
AcDbEntity
  8
0
  6
BYBLOCK
100
AcDbLine
 10
4579.033445182876
 20
624.2795134133215
 30
0.0000000001127424
 11
4578.336777288876
 21
621.6795134133215
 31
0.0000000001127424
  0
LINE
  5
FD55
330
18
100
AcDbEntity
  8
0
  6
BYBLOCK
100
AcDbLine
 10
4578.336777288876
 20
621.6795134133215
 30
0.0000000001127424
 11
4577.640109394876
 21
624.2795134133215
 31
0.0000000001127424
  0
LINE
  5
FD56
330
18
100
AcDbEntity
  8
0
  6
BYBLOCK
100
AcDbLine
 10
4578.336777288876
 20
621.6795134133215
 30
0.0000000001127424
 11
4578.336777288876
 21
624.2795134133215
 31
0.0000000001127424
  0
LINE
  5
FD57
330
18
100
AcDbEntity
  8
0
  6
BYBLOCK
100
AcDbLine
 10
4577.640109394876
 20
674.5795134133215
 30
0.0000000001127424
 11
4578.336777288876
 21
677.1795134133215
 31
0.0000000001127424
  0
LINE
  5
FD58
330
18
100
AcDbEntity
  8
0
  6
BYBLOCK
100
AcDbLine
 10
4578.336777288876
 20
677.1795134133215
 30
0.0000000001127424
 11
4579.033445182876
 21
674.5795134133215
 31
0.0000000001127424
  0
LINE
  5
FD59
330
18
100
AcDbEntity
  8
0
  6
BYBLOCK
100
AcDbLine
 10
4578.336777288876
 20
677.1795134133215
 30
0.0000000001127424
 11
4578.336777288876
 21
674.5795134133215
 31
0.0000000001127424
  0
TEXT
  5
FD5A
330
18
100
AcDbEntity
  8
1DIM
  6
CONTINUOUS
100
AcDbText
 10
4577.426777288875
 20
642.5729161910999
 30
0.0000000001127424
 40
4.55
  1
55.5
 50
90.0
100
AcDbText
1001
ACAD
1000
DSTYLE
1002
{
1070
    40
1040
1.3
1070
    45
1040
0.5
1070
   341
1005
0
1002
}
  0
LINE
  5
FD5B
330
18
100
AcDbEntity
  8
0
  6
BYBLOCK
100
AcDbLine
 10
4579.033445182876
 20
624.2795134133215
 30
0.0000000001127424
 11
4578.336777288876
 21
621.6795134133215
 31
0.0000000001127424
  0
LINE
  5
FD5C
330
18
100
AcDbEntity
  8
0
  6
BYBLOCK
100
AcDbLine
 10
4578.336777288876
 20
621.6795134133215
 30
0.0000000001127424
 11
4577.640109394876
 21
624.2795134133215
 31
0.0000000001127424
  0
LINE
  5
FD5D
330
18
100
AcDbEntity
  8
0
  6
BYBLOCK
100
AcDbLine
 10
4578.336777288876
 20
621.6795134133215
 30
0.0000000001127424
 11
4578.336777288876
 21
624.2795134133215
 31
0.0000000001127424
  0
LINE
  5
FD5E
330
18
100
AcDbEntity
  8
0
  6
BYBLOCK
100
AcDbLine
 10
4577.640109394876
 20
674.5795134133215
 30
0.0000000001127424
 11
4578.336777288876
 21
677.1795134133215
 31
0.0000000001127424
  0
LINE
  5
FD5F
330
18
100
AcDbEntity
  8
0
  6
BYBLOCK
100
AcDbLine
 10
4578.336777288876
 20
677.1795134133215
 30
0.0000000001127424
 11
4579.033445182876
 21
674.5795134133215
 31
0.0000000001127424
  0
LINE
  5
FD60
330
18
100
AcDbEntity
  8
0
  6
BYBLOCK
100
AcDbLine
 10
4578.336777288876
 20
677.1795134133215
 30
0.0000000001127424
 11
4578.336777288876
 21
674.5795134133215
 31
0.0000000001127424
  0
TEXT
  5
FD61
330
18
100
AcDbEntity
  8
1DIM
  6
CONTINUOUS
100
AcDbText
 10
4577.426777288875
 20
642.5729161910999
 30
0.0000000001127424
 40
4.55
  1
55.5
 50
90.0
100
AcDbText
1001
ACAD
1000
DSTYLE
1002
{
1070
    40
1040
1.3
1070
    45
1040
0.5
1070
   341
1005
0
1002
}
  0
LINE
  5
FD62
330
18
100
AcDbEntity
  8
0
  6
BYBLOCK
100
AcDbLine
 10
4996.995116399193
 20
898.5795134122926
 30
0.0000000001127424
 11
4997.691784293193
 21
901.1795134122926
 31
0.0000000001127424
  0
LINE
  5
FD63
330
18
100
AcDbEntity
  8
0
  6
BYBLOCK
100
AcDbLine
 10
4997.691784293193
 20
901.1795134122926
 30
0.0000000001127424
 11
4998.388452187192
 21
898.5795134122926
 31
0.0000000001127424
  0
LINE
  5
FD64
330
18
100
AcDbEntity
  8
0
  6
BYBLOCK
100
AcDbLine
 10
4997.691784293193
 20
901.1795134122926
 30
0.0000000001127424
 11
4997.691784293193
 21
898.5795134122926
 31
0.0000000001127424
  0
LINE
  5
FD65
330
18
100
AcDbEntity
  8
0
  6
BYBLOCK
100
AcDbLine
 10
4998.388452187192
 20
884.9795134122927
 30
0.0000000001127424
 11
4997.691784293193
 21
882.3795134122927
 31
0.0000000001127424
  0
LINE
  5
FD66
330
18
100
AcDbEntity
  8
0
  6
BYBLOCK
100
AcDbLine
 10
4997.691784293193
 20
882.3795134122927
 30
0.0000000001127424
 11
4996.995116399193
 21
884.9795134122927
 31
0.0000000001127424
  0
LINE
  5
FD67
330
18
100
AcDbEntity
  8
0
  6
BYBLOCK
100
AcDbLine
 10
4997.691784293193
 20
882.3795134122927
 30
0.0000000001127424
 11
4997.691784293193
 21
884.9795134122927
 31
0.0000000001127424
  0
TEXT
  5
FD68
330
18
100
AcDbEntity
  8
1DIM
  6
CONTINUOUS
100
AcDbText
 10
4996.781784293193
 20
888.7451268382183
 30
0.0000000001127424
 40
4.55
  1
19
 50
90.0
100
AcDbText
1001
ACAD
1000
DSTYLE
1002
{
1070
    45
1040
0.5
1070
    40
1040
1.3
1002
}
  0
LINE
  5
FD69
330
18
100
AcDbEntity
  8
0
  6
BYBLOCK
100
AcDbLine
 10
4964.63050935142
 20
785.9815272062185
 30
0.0000000001127424
 11
4962.03050935142
 21
786.6781951002185
 31
0.0000000001127424
  0
LINE
  5
FD6A
330
18
100
AcDbEntity
  8
0
  6
BYBLOCK
100
AcDbLine
 10
4962.03050935142
 20
786.6781951002185
 30
0.0000000001127424
 11
4964.63050935142
 21
787.3748629942186
 31
0.0000000001127424
  0
LINE
  5
FD6B
330
18
100
AcDbEntity
  8
0
  6
BYBLOCK
100
AcDbLine
 10
4962.03050935142
 20
786.6781951002185
 30
0.0000000001127424
 11
4964.63050935142
 21
786.6781951002185
 31
0.0000000001127424
  0
LINE
  5
FD6C
330
18
100
AcDbEntity
  8
0
  6
BYBLOCK
100
AcDbLine
 10
5084.430509351419
 20
787.3748629942186
 30
0.0000000001127424
 11
5087.03050935142
 21
786.6781951002185
 31
0.0000000001127424
  0
LINE
  5
FD6D
330
18
100
AcDbEntity
  8
0
  6
BYBLOCK
100
AcDbLine
 10
5087.03050935142
 20
786.6781951002185
 30
0.0000000001127424
 11
5084.430509351419
 21
785.9815272062185
 31
0.0000000001127424
  0
LINE
  5
FD6E
330
18
100
AcDbEntity
  8
0
  6
BYBLOCK
100
AcDbLine
 10
5087.03050935142
 20
786.6781951002185
 30
0.0000000001127424
 11
5084.430509351419
 21
786.6781951002185
 31
0.0000000001127424
  0
TEXT
  5
FD6F
330
18
100
AcDbEntity
  8
1DIM
  6
CONTINUOUS
100
AcDbText
 10
5019.222176018086
 20
787.5881951002185
 30
0.0000000001127424
 40
4.55
  1
125
100
AcDbText
1001
ACAD
1000
DSTYLE
1002
{
1070
    40
1040
1.3
1070
    45
1040
0.5
1002
}
  0
LINE
  5
FD70
330
18
100
AcDbEntity
  8
0
  6
BYBLOCK
100
AcDbLine
 10
4933.63050935142
 20
775.9815272062185
 30
0.0000000001127424
 11
4931.03050935142
 21
776.6781951002185
 31
0.0000000001127424
  0
LINE
  5
FD71
330
18
100
AcDbEntity
  8
0
  6
BYBLOCK
100
AcDbLine
 10
4931.03050935142
 20
776.6781951002185
 30
0.0000000001127424
 11
4933.63050935142
 21
777.3748629942186
 31
0.0000000001127424
  0
LINE
  5
FD72
330
18
100
AcDbEntity
  8
0
  6
BYBLOCK
100
AcDbLine
 10
4931.03050935142
 20
776.6781951002185
 30
0.0000000001127424
 11
4933.63050935142
 21
776.6781951002185
 31
0.0000000001127424
  0
LINE
  5
FD73
330
18
100
AcDbEntity
  8
0
  6
BYBLOCK
100
AcDbLine
 10
5084.430509351419
 20
777.3748629942186
 30
0.0000000001127424
 11
5087.03050935142
 21
776.6781951002185
 31
0.0000000001127424
  0
LINE
  5
FD74
330
18
100
AcDbEntity
  8
0
  6
BYBLOCK
100
AcDbLine
 10
5087.03050935142
 20
776.6781951002185
 30
0.0000000001127424
 11
5084.430509351419
 21
775.9815272062185
 31
0.0000000001127424
  0
LINE
  5
FD75
330
18
100
AcDbEntity
  8
0
  6
BYBLOCK
100
AcDbLine
 10
5087.03050935142
 20
776.6781951002185
 30
0.0000000001127424
 11
5084.430509351419
 21
776.6781951002185
 31
0.0000000001127424
  0
TEXT
  5
FD76
330
18
100
AcDbEntity
  8
1DIM
  6
CONTINUOUS
100
AcDbText
 10
5003.706377406976
 20
777.5881951002185
 30
0.0000000001127424
 40
4.55
  1
156
100
AcDbText
1001
ACAD
1000
DSTYLE
1002
{
1070
    40
1040
1.3
1070
    45
1040
0.5
1002
}
  0
LINE
  5
FD77
330
18
100
AcDbEntity
  8
0
  6
BYBLOCK
100
AcDbLine
 10
5117.72717724542
 20
836.5781951002187
 30
0.0000000001127424
 11
5117.03050935142
 21
833.9781951002187
 31
0.0000000001127424
  0
LINE
  5
FD78
330
18
100
AcDbEntity
  8
0
  6
BYBLOCK
100
AcDbLine
 10
5117.03050935142
 20
833.9781951002187
 30
0.0000000001127424
 11
5116.33384145742
 21
836.5781951002187
 31
0.0000000001127424
  0
LINE
  5
FD79
330
18
100
AcDbEntity
  8
0
  6
BYBLOCK
100
AcDbLine
 10
5117.03050935142
 20
833.9781951002187
 30
0.0000000001127424
 11
5117.03050935142
 21
836.5781951002187
 31
0.0000000001127424
  0
LINE
  5
FD7A
330
18
100
AcDbEntity
  8
0
  6
BYBLOCK
100
AcDbLine
 10
5116.33384145742
 20
869.0781951002185
 30
0.0000000001127424
 11
5117.03050935142
 21
871.6781951002185
 31
0.0000000001127424
  0
LINE
  5
FD7B
330
18
100
AcDbEntity
  8
0
  6
BYBLOCK
100
AcDbLine
 10
5117.03050935142
 20
871.6781951002185
 30
0.0000000001127424
 11
5117.72717724542
 21
869.0781951002185
 31
0.0000000001127424
  0
LINE
  5
FD7C
330
18
100
AcDbEntity
  8
0
  6
BYBLOCK
100
AcDbLine
 10
5117.03050935142
 20
871.6781951002185
 30
0.0000000001127424
 11
5117.03050935142
 21
869.0781951002185
 31
0.0000000001127424
  0
TEXT
  5
FD7D
330
18
100
AcDbEntity
  8
1DIM
  6
CONTINUOUS
100
AcDbText
 10
5116.120509351419
 20
846.0031951002193
 30
0.0000000001127424
 40
4.55
  1
37.5
 50
90.0
100
AcDbText
1001
ACAD
1000
DSTYLE
1002
{
1070
    40
1040
1.3
1070
    45
1040
0.5
1002
}
  0
LINE
  5
FD7E
330
18
100
AcDbEntity
  8
0
  6
BYBLOCK
100
AcDbLine
 10
5127.72717724542
 20
812.5781951002187
 30
0.0000000001127424
 11
5127.03050935142
 21
809.9781951002187
 31
0.0000000001127424
  0
LINE
  5
FD7F
330
18
100
AcDbEntity
  8
0
  6
BYBLOCK
100
AcDbLine
 10
5127.03050935142
 20
809.9781951002187
 30
0.0000000001127424
 11
5126.33384145742
 21
812.5781951002187
 31
0.0000000001127424
  0
LINE
  5
FD80
330
18
100
AcDbEntity
  8
0
  6
BYBLOCK
100
AcDbLine
 10
5127.03050935142
 20
809.9781951002187
 30
0.0000000001127424
 11
5127.03050935142
 21
812.5781951002187
 31
0.0000000001127424
  0
LINE
  5
FD81
330
18
100
AcDbEntity
  8
0
  6
BYBLOCK
100
AcDbLine
 10
5126.33384145742
 20
869.0781951002185
 30
0.0000000001127424
 11
5127.03050935142
 21
871.6781951002185
 31
0.0000000001127424
  0
LINE
  5
FD82
330
18
100
AcDbEntity
  8
0
  6
BYBLOCK
100
AcDbLine
 10
5127.03050935142
 20
871.6781951002185
 30
0.0000000001127424
 11
5127.72717724542
 21
869.0781951002185
 31
0.0000000001127424
  0
LINE
  5
FD83
330
18
100
AcDbEntity
  8
0
  6
BYBLOCK
100
AcDbLine
 10
5127.03050935142
 20
871.6781951002185
 30
0.0000000001127424
 11
5127.03050935142
 21
869.0781951002185
 31
0.0000000001127424
  0
TEXT
  5
FD84
330
18
100
AcDbEntity
  8
1DIM
  6
CONTINUOUS
100
AcDbText
 10
5126.120509351419
 20
834.7457298224417
 30
0.0000000001127424
 40
4.55
  1
61.5
 50
90.0
100
AcDbText
1001
ACAD
1000
DSTYLE
1002
{
1070
    40
1040
1.3
1070
    45
1040
0.5
1002
}
  0
LINE
  5
FD85
330
18
100
AcDbEntity
  8
0
  6
BYBLOCK
100
AcDbLine
 10
5117.72717724542
 20
617.7795134133208
 30
0.0000000001127424
 11
5117.03050935142
 21
615.1795134133208
 31
0.0000000001127424
  0
LINE
  5
FD86
330
18
100
AcDbEntity
  8
0
  6
BYBLOCK
100
AcDbLine
 10
5117.03050935142
 20
615.1795134133208
 30
0.0000000001127424
 11
5116.33384145742
 21
617.7795134133208
 31
0.0000000001127424
  0
LINE
  5
FD87
330
18
100
AcDbEntity
  8
0
  6
BYBLOCK
100
AcDbLine
 10
5117.03050935142
 20
615.1795134133208
 30
0.0000000001127424
 11
5117.03050935142
 21
617.7795134133208
 31
0.0000000001127424
  0
LINE
  5
FD88
330
18
100
AcDbEntity
  8
0
  6
BYBLOCK
100
AcDbLine
 10
5116.33384145742
 20
625.5795134133208
 30
0.0000000001127424
 11
5117.03050935142
 21
628.1795134133208
 31
0.0000000001127424
  0
LINE
  5
FD89
330
18
100
AcDbEntity
  8
0
  6
BYBLOCK
100
AcDbLine
 10
5117.03050935142
 20
628.1795134133208
 30
0.0000000001127424
 11
5117.72717724542
 21
625.5795134133208
 31
0.0000000001127424
  0
LINE
  5
FD8A
330
18
100
AcDbEntity
  8
0
  6
BYBLOCK
100
AcDbLine
 10
5117.03050935142
 20
628.1795134133208
 30
0.0000000001127424
 11
5117.03050935142
 21
625.5795134133208
 31
0.0000000001127424
  0
TEXT
  5
FD8B
330
18
100
AcDbEntity
  8
1DIM
  6
CONTINUOUS
100
AcDbText
 10
5116.12050935142
 20
618.646180079988
 30
0.0000000001127424
 40
4.55
  1
13
 50
90.0
100
AcDbText
1001
ACAD
1000
DSTYLE
1002
{
1070
    40
1040
1.3
1070
    45
1040
0.5
1002
}
  0
VIEWPORT
  5
57
330
15
100
AcDbEntity
 67
     1
  8
0
100
AcDbViewport
 68
     1
 10
0.0
 20
0.0
 30
0.0
 40
555.8298653610772
 41
297.0
 68
     1
 69
     1
1001
ACAD
1000
MVIEW
1002
{
1070
    16
1010
0.0
1020
0.0
1030
0.0
1010
0.0
1020
0.0
1030
1.0
1040
0.0
1040
297.0
1040
5.728000000000009
1040
25.339
1040
50.0
1040
0.0
1040
0.0
1070
    16
1070
   100
1070
     0
1070
     1
1070
     0
1070
     0
1070
     0
1070
     0
1040
0.0
1040
0.0
1040
0.0
1040
10.0
1040
10.0
1040
10.0
1040
10.0
1070
     0
1002
{
1002
}
1002
}
  0
ENDSEC
  0
SECTION
  2
OBJECTS
  0
DICTIONARY
  5
C
330
0
100
AcDbDictionary
  3
ACAD_CIP_PREVIOUS_PRODUCT_INFO
350
AEA8
  3
ACAD_COLOR
350
18D
  3
ACAD_GROUP
350
D
  3
ACAD_LAYOUT
350
18E
  3
ACAD_MATERIAL
350
18C
  3
ACAD_MLEADERSTYLE
350
9583
  3
ACAD_MLINESTYLE
350
1B
  3
ACAD_PLOTSETTINGS
350
18F
  3
ACAD_SCALELIST
350
9561
  3
ACAD_VISUALSTYLE
350
9550
  3
ACDBHEADERROUNDTRIPXREC
350
FD8C
  3
ACDBVARIABLEDICTIONARY
350
37
  3
CONTENTDICTIONARY
350
D8
  3
DRAWINGVARIABLESDICT
350
20
  3
DWGPROPS
350
FD8F
1001
ACAD
1000
TREAT_AS_HARD
1070
     0
  0
DICTIONARY
  5
96D9
330
2
100
AcDbDictionary
  3
ACAD_LAYERSTATES
360
96DA
1001
ACAD
1000
TREAT_AS_HARD
1070
     1
  0
DICTIONARY
  5
9593
330
E
100
AcDbDictionary
  3
ADSK_XREC_LAYER_RECONCILED
360
9594
1001
ACAD
1000
TREAT_AS_HARD
1070
     1
  0
DICTIONARY
  5
9595
330
29
100
AcDbDictionary
  3
ADSK_XREC_LAYER_RECONCILED
360
9596
1001
ACAD
1000
TREAT_AS_HARD
1070
     1
  0
DICTIONARY
  5
9597
330
31
100
AcDbDictionary
  3
ADSK_XREC_LAYER_RECONCILED
360
9598
1001
ACAD
1000
TREAT_AS_HARD
1070
     1
  0
DICTIONARY
  5
959D
330
243
100
AcDbDictionary
  3
ADSK_XREC_LAYER_RECONCILED
360
959E
1001
ACAD
1000
TREAT_AS_HARD
1070
     1
  0
DICTIONARY
  5
95A3
330
24E
100
AcDbDictionary
  3
ADSK_XREC_LAYER_RECONCILED
360
95A4
1001
ACAD
1000
TREAT_AS_HARD
1070
     1
  0
DICTIONARY
  5
95AF
330
2C05
100
AcDbDictionary
  3
ADSK_XREC_LAYER_RECONCILED
360
95B0
1001
ACAD
1000
TREAT_AS_HARD
1070
     1
  0
DICTIONARY
  5
88F
330
18
100
AcDbDictionary
  3
ACAD_SORTENTS
360
890
1001
ACAD
1000
TREAT_AS_HARD
1070
     1
  0
XRECORD
  5
AEA8
102
{ACAD_REACTORS
330
C
102
}
330
C
100
AcDbXrecord
300
ACDLT
300
2012
300
ACDLT_F_S
  0
DICTIONARY
  5
18D
102
{ACAD_REACTORS
330
C
102
}
330
C
100
AcDbDictionary
1001
ACAD
1000
TREAT_AS_HARD
1070
     0
  0
DICTIONARY
  5
D
102
{ACAD_REACTORS
330
C
102
}
330
C
100
AcDbDictionary
1001
ACAD
1000
TREAT_AS_HARD
1070
     0
  0
DICTIONARY
  5
18E
102
{ACAD_REACTORS
330
C
102
}
330
C
100
AcDbDictionary
1001
ACAD
1000
TREAT_AS_HARD
1070
     0
  0
DICTIONARY
  5
18C
102
{ACAD_REACTORS
330
C
102
}
330
C
100
AcDbDictionary
  3
BYBLOCK
350
9540
  3
BYLAYER
350
9538
  3
GLOBAL
350
9548
1001
ACAD
1000
TREAT_AS_HARD
1070
     0
  0
DICTIONARY
  5
9583
102
{ACAD_REACTORS
330
C
102
}
330
C
100
AcDbDictionary
  3
STANDARD
350
9584
1001
ACAD
1000
TREAT_AS_HARD
1070
     0
  0
DICTIONARY
  5
1B
102
{ACAD_REACTORS
330
C
102
}
330
C
100
AcDbDictionary
  3
STANDARD
350
1C
1001
ACAD
1000
TREAT_AS_HARD
1070
     0
  0
DICTIONARY
  5
18F
102
{ACAD_REACTORS
330
C
102
}
330
C
100
AcDbDictionary
1001
ACAD
1000
TREAT_AS_HARD
1070
     0
  0
DICTIONARY
  5
9561
102
{ACAD_REACTORS
330
C
102
}
330
C
100
AcDbDictionary
  3
A0
350
9562
  3
A1
350
9563
  3
A2
350
9564
  3
A3
350
9565
  3
A4
350
9566
  3
A5
350
9567
  3
A6
350
9568
  3
A7
350
9569
  3
A8
350
956A
  3
A9
350
956B
  3
B0
350
956C
  3
B1
350
956D
  3
B2
350
956E
  3
B3
350
956F
  3
B4
350
9570
  3
B5
350
9571
  3
B6
350
9572
  3
B7
350
9573
  3
B8
350
9574
  3
B9
350
9575
  3
C0
350
9576
  3
C1
350
9577
  3
C2
350
9578
  3
C3
350
9579
  3
C4
350
957A
  3
C5
350
957B
  3
C6
350
957C
  3
C7
350
957D
  3
C8
350
957E
  3
C9
350
957F
  3
D0
350
9580
  3
D1
350
9581
  3
D2
350
9582
1001
ACAD
1000
TREAT_AS_HARD
1070
     0
  0
DICTIONARY
  5
9550
102
{ACAD_REACTORS
330
C
102
}
330
C
100
AcDbDictionary
  3
2DWIREFRAME
350
9556
  3
3D_HIDDEN
350
9558
  3
3DWIREFRAME
350
9557
  3
BASIC
350
9555
  3
BRIGHTEN
350
955C
  3
COLORCHANGE
350
9560
  3
CONCEPTUAL
350
9559
  3
DIM
350
955B
  3
EDGECOLOROFF
350
A211
  3
FACEPATTERN
350
955F
  3
FLAT
350
9551
  3
FLATWITHEDGES
350
9552
  3
GOURAUD
350
9553
  3
GOURAUDWITHEDGES
350
9554
  3
HIDDEN
350
A260
  3
JITTEROFF
350
A20F
  3
LINEPATTERN
350
955E
  3
MODELING
350
A266
  3
OVERHANGOFF
350
A210
  3
REALISTIC
350
955A
  3
SHADED
350
A265
  3
SHADED_WITH_EDGES
350
A264
  3
SHADES_OF_GRAY
350
A261
  3
SKETCHY
350
A262
  3
THICKEN
350
955D
  3
WIREFRAME
350
A25F
  3
X-RAY
350
A263
1001
ACAD
1000
TREAT_AS_HARD
1070
     0
  0
DICTIONARY
  5
FD8C
102
{ACAD_REACTORS
330
C
102
}
330
C
100
AcDbDictionary
  3
COLORDICT
350
FD8D
  3
MATERIALDICT
350
FD8E
1001
ACAD
1000
TREAT_AS_HARD
1070
     0
  0
DICTIONARY
  5
37
102
{ACAD_REACTORS
330
C
102
}
330
C
100
AcDbDictionary
  3
CANNOSCALE
350
AAE0
  3
CMLEADERSTYLE
350
9627
  3
CTABLESTYLE
350
29E
  3
DIMADEC
350
38
  3
DIMASSOC
350
1CE
  3
HIDETEXT
350
704E
  3
INDEXCTL
350
962A
  3
INTERSECTIONCOLOR
350
7052
  3
INTERSECTIONDISPLAY
350
7051
  3
MSLTSCALE
350
AB30
  3
OBSCOLOR
350
704F
  3
OBSLTYPE
350
7050
  3
PROJECTNAME
350
1CF
  3
SORTENTS
350
9629
  3
XCLIPFRAME
350
FBC9
1001
ACAD
1000
TREAT_AS_HARD
1070
     0
  0
DICTIONARY
  5
D8
102
{ACAD_REACTORS
330
C
102
}
330
C
100
AcDbDictionary
1001
ACAD
1000
TREAT_AS_HARD
1070
     0
  0
DICTIONARY
  5
20
102
{ACAD_REACTORS
330
C
102
}
330
C
100
AcDbDictionary
1001
DRAWINGVARIABLESXDATA
1000
POLARANG
1000
0.261799387799149410000000
1000
POLARMODE
1000
1
1000
POLARSTYLE
1000
1
1001
ACAD
1000
TREAT_AS_HARD
1070
     0
  0
XRECORD
  5
FD8F
102
{ACAD_REACTORS
330
C
102
}
330
C
100
AcDbXrecord
  1
DWGPROPS COOKIE
  2

  3

  4

  6

  7

  8
3684
  9

300
=
301
=
302
=
303
=
304
=
305
=
306
=
307
=
308
=
309
=
 40
0.0
 41
2451318.246352917
 42
2458159.068051273
  1

 90
        0
  0
DICTIONARY
  5
96DA
102
{ACAD_REACTORS
330
96D9
102
}
330
96D9
100
AcDbDictionary
1001
ACAD
1000
TREAT_AS_HARD
1070
     0
  0
ACAD_PROXY_OBJECT
  5
9594
102
{ACAD_REACTORS
330
9593
102
}
330
9593
100
AcDbZombieObject
 90
      499
 91
      514
 93
       34
310
40C8804040
  0
ACAD_PROXY_OBJECT
  5
9596
102
{ACAD_REACTORS
330
9595
102
}
330
9595
100
AcDbZombieObject
 90
      499
 91
      514
 93
       34
310
40C8804040
  0
ACAD_PROXY_OBJECT
  5
9598
102
{ACAD_REACTORS
330
9597
102
}
330
9597
100
AcDbZombieObject
 90
      499
 91
      514
 93
       34
310
40C8804040
  0
ACAD_PROXY_OBJECT
  5
959E
102
{ACAD_REACTORS
330
959D
102
}
330
959D
100
AcDbZombieObject
 90
      499
 91
      514
 93
       34
310
40C8804040
  0
ACAD_PROXY_OBJECT
  5
95A4
102
{ACAD_REACTORS
330
95A3
102
}
330
95A3
100
AcDbZombieObject
 90
      499
 91
      514
 93
       34
310
40C8804040
  0
ACAD_PROXY_OBJECT
  5
95B0
102
{ACAD_REACTORS
330
95AF
102
}
330
95AF
100
AcDbZombieObject
 90
      499
 91
      514
 93
       34
310
40C8804040
  0
SORTENTSTABLE
  5
890
102
{ACAD_REACTORS
330
88F
102
}
330
88F
100
AcDbSortentsTable
330
18
331
ED2B
  5
ED39
331
ED2C
  5
ED3A
331
ED2D
  5
EDC8
331
ED2E
  5
EDCC
331
ED2F
  5
EDCD
331
ED30
  5
EDCE
331
ED31
  5
EDCF
331
ED32
  5
EDD0
331
ED33
  5
EDD1
331
ED34
  5
EDD5
331
ED35
  5
EDD6
331
ED36
  5
EDD7
331
ED37
  5
EDD8
331
ED39
  5
EE33
331
ED3A
  5
EE34
331
0
  5
EE3F
331
EDCC
  5
EE53
331
EDCD
  5
EE54
331
EDCE
  5
EE55
331
EDCF
  5
EE56
331
EDD0
  5
EE57
331
EDD1
  5
EE58
331
EDD2
  5
EE59
331
EDD3
  5
EE5A
331
EDD4
  5
EE5B
331
EDD5
  5
EE5C
331
EDD6
  5
EE5D
331
EDD7
  5
EE5E
331
EDD8
  5
EE5F
331
EDD9
  5
EE60
331
EDDA
  5
EE61
331
EDDB
  5
EE62
331
EDDC
  5
EE64
331
EDDD
  5
EE65
331
EDDE
  5
EE66
331
EDDF
  5
EE67
331
EE2B
  5
F005
331
EE2C
  5
F007
331
EE2D
  5
F008
331
EE2F
  5
F016
331
0
  5
F006
331
EE32
  5
F024
331
EE33
  5
F025
331
EE34
  5
F026
331
EE35
  5
F027
331
EE36
  5
F028
331
EE37
  5
F02C
331
EE38
  5
F02D
331
EE39
  5
F02E
331
EE3A
  5
F02F
331
EE3B
  5
F030
331
EE3C
  5
F031
331
EE3D
  5
F035
331
EE3E
  5
F036
331
EE3F
  5
F037
331
EE40
  5
F03B
331
EE41
  5
F03C
331
EE42
  5
F03D
331
EE43
  5
F041
331
EE44
  5
F042
331
EE45
  5
F043
331
EE46
  5
F044
331
EE47
  5
F045
331
EE48
  5
F046
331
EE49
  5
F047
331
EE4A
  5
F048
331
EE4B
  5
F049
331
EE4C
  5
F04A
331
EE4D
  5
F04B
331
EE4E
  5
F04C
331
EE4F
  5
F04D
331
EE50
  5
F04E
331
EE51
  5
F04F
331
EE52
  5
F050
331
EE53
  5
F051
331
EE54
  5
F052
331
EE55
  5
F053
331
EE56
  5
F054
331
EE57
  5
F055
331
EE58
  5
F056
331
EE59
  5
F057
331
EE5A
  5
F058
331
EE5B
  5
F059
331
EE5C
  5
F05A
331
EE5D
  5
F05C
331
EE5E
  5
F05D
331
EE5F
  5
F05E
331
EE60
  5
F05F
331
EE61
  5
F060
331
EE62
  5
F061
331
EE64
  5
F06D
331
EE65
  5
F06E
331
EE66
  5
F06F
331
EE67
  5
F070
331
EE68
  5
F071
331
EE69
  5
F072
331
EE6A
  5
F073
331
EE6B
  5
F074
331
0
  5
F05B
331
EFFC
  5
F083
331
EFFD
  5
F084
331
EFFF
  5
F085
331
F003
  5
F0A6
331
F004
  5
F0A7
331
F005
  5
F0A8
331
F006
  5
F0A9
331
F007
  5
F0AA
331
F008
  5
F0AE
331
F009
  5
F0AF
331
F00A
  5
F0B0
331
F00B
  5
F0B1
331
F00C
  5
F0B2
331
F00D
  5
F0B3
331
F00E
  5
F0B4
331
F00F
  5
F0B5
331
F010
  5
F0B6
331
F011
  5
F0B8
331
F012
  5
F0B9
331
F013
  5
F0BA
331
F014
  5
F0BB
331
F015
  5
F0BC
331
F016
  5
F0BD
331
F017
  5
F0BE
331
F018
  5
F0BF
331
F019
  5
F0C0
331
F01A
  5
F0C1
331
F01B
  5
F0C2
331
F01C
  5
F0C3
331
F01D
  5
F0C4
331
F01E
  5
F0C5
331
F01F
  5
F0C6
331
F020
  5
F0C7
331
F021
  5
F0C8
331
F022
  5
F0C9
331
F023
  5
F0CA
331
F024
  5
F0CB
331
F025
  5
F0CC
331
F026
  5
F0CE
331
F027
  5
F0CF
331
F028
  5
F0D0
331
F029
  5
F0D1
331
F02A
  5
F0D2
331
F02B
  5
F0D3
331
F02C
  5
F0D4
331
F02D
  5
F0D5
331
F02E
  5
F0D6
331
F02F
  5
F0D7
331
F030
  5
F0D8
331
F031
  5
F0D9
331
F032
  5
F0DA
331
F033
  5
F0DB
331
F034
  5
F0DC
331
F035
  5
F0DD
331
F036
  5
F0DE
331
F037
  5
F0E2
331
F038
  5
F0E3
331
F039
  5
F0E5
331
F03A
  5
F0E6
331
F03B
  5
F0EA
331
F03C
  5
F0EB
331
F03D
  5
F0EC
331
F03E
  5
F0F0
331
F03F
  5
F0F1
331
F040
  5
F0F2
331
F041
  5
F0F3
331
0
  5
F0CD
331
F043
  5
F0FE
331
F044
  5
F0FF
331
F045
  5
F100
331
F046
  5
F101
331
F047
  5
F102
331
F048
  5
F103
331
F049
  5
F104
331
F04A
  5
F105
331
F04B
  5
F106
331
F04C
  5
F107
331
F04D
  5
F108
331
F04E
  5
F109
331
F04F
  5
F10A
331
F050
  5
F10B
331
F051
  5
F10F
331
F052
  5
F110
331
F053
  5
F111
331
F054
  5
F112
331
F055
  5
F113
331
F056
  5
F114
331
F057
  5
F115
331
F058
  5
F116
331
F059
  5
F117
331
F05A
  5
F118
331
F05B
  5
F119
331
F05C
  5
F11A
331
F05D
  5
F11B
331
F05E
  5
F11C
331
F05F
  5
F11D
331
F060
  5
F11E
331
F061
  5
F11F
331
F062
  5
F120
331
F063
  5
F121
331
F064
  5
F122
331
F065
  5
F123
331
F066
  5
F124
331
F068
  5
F12F
331
F069
  5
F130
331
F06A
  5
F131
331
F06B
  5
F132
331
F06C
  5
F133
331
F06D
  5
F134
331
F06E
  5
F135
331
F06F
  5
F136
331
F070
  5
FC6A
331
F071
  5
FC6B
331
F072
  5
FC6C
331
F073
  5
FC6D
331
F074
  5
FC6E
331
F075
  5
FC6F
331
F076
  5
FC70
331
F077
  5
FC71
331
F078
  5
FC72
331
F079
  5
FC73
331
F07A
  5
FC74
331
F07B
  5
FC75
331
F07C
  5
FC76
331
F07D
  5
FC77
331
F07E
  5
FC78
331
F07F
  5
FC79
331
F080
  5
FC7A
331
F081
  5
FC7B
331
F082
  5
FC7C
331
F083
  5
FC7D
331
F084
  5
FC7E
331
F085
  5
FC7F
331
F086
  5
FC80
331
F087
  5
FC81
331
F088
  5
FC82
331
F089
  5
FC83
331
F08A
  5
FC84
331
F08B
  5
FC85
331
F08C
  5
FC86
331
F08D
  5
FC87
331
F08E
  5
FC88
331
F08F
  5
FC89
331
F090
  5
FC8A
331
F091
  5
FC8B
331
F092
  5
FC8C
331
F093
  5
FC8D
331
F094
  5
FC8E
331
F095
  5
FC8F
331
F096
  5
FC90
331
F097
  5
FC91
331
F098
  5
FC92
331
F099
  5
FC93
331
F09A
  5
FC94
331
F09B
  5
FC95
331
F09E
  5
FCAF
331
F09F
  5
FCB0
331
F0A0
  5
FCB1
331
F0A1
  5
FCB2
331
F0A2
  5
FCB3
331
F0A3
  5
FCB4
331
F0A4
  5
FCB5
331
F0A5
  5
FCB6
331
F0A6
  5
FCB7
331
F0A7
  5
FCB8
331
F0A8
  5
FCB9
331
F0A9
  5
FCBA
331
F0AA
  5
FCBB
331
F0AB
  5
FCBC
331
F0AC
  5
FCBD
331
F0AD
  5
FCBE
331
F0AE
  5
FCBF
331
F0AF
  5
FCC0
331
F0B0
  5
FCC1
331
F0B1
  5
FCC2
331
F0B2
  5
FCC6
331
F0B3
  5
FCC7
331
F0B4
  5
FCC8
331
F0B5
  5
FCCC
331
F0B6
  5
FCCD
331
F0B8
  5
FCE1
331
F0B9
  5
FCE2
331
F0BA
  5
FCE3
331
0
  5
FCA7
331
0
  5
FCA8
331
0
  5
FCA9
331
0
  5
FCAA
331
0
  5
FCAB
331
F0C0
  5
FD16
331
F0C1
  5
FD17
331
F0C2
  5
FD18
331
F0C3
  5
FD19
331
F0C4
  5
FD1A
331
F0C5
  5
FD1B
331
F0C6
  5
FD1C
331
F0C7
  5
FD1D
331
F0C8
  5
FD1E
331
F0C9
  5
FD1F
331
F0CA
  5
FD20
331
F0CB
  5
FD21
331
F0CC
  5
FD22
331
F0CD
  5
FD23
331
F0CE
  5
FD24
331
F0CF
  5
FD25
331
F0D0
  5
FD26
331
F0D1
  5
FD27
331
F0D2
  5
FD28
331
F0D3
  5
FD29
331
F0D4
  5
FD2A
331
F0D5
  5
FD2B
331
F0D6
  5
FD2C
331
F0D7
  5
FD2D
331
F0D8
  5
FD2E
331
F0D9
  5
FD2F
331
F0DA
  5
FD30
331
F0DB
  5
FD31
331
F0DC
  5
FD32
331
F0DD
  5
FD33
331
F0DE
  5
FD34
331
F0DF
  5
FD35
331
F0E0
  5
FD36
331
F0E1
  5
FD37
331
F0E2
  5
FD38
331
F0E3
  5
FD39
331
F0E5
  5
FD3A
331
F0E6
  5
FD3B
331
F0E7
  5
FD3C
331
F0E8
  5
FD3D
331
F0E9
  5
FD3E
331
F0EA
  5
FD3F
331
F0EB
  5
FD40
331
F0EC
  5
FD41
331
F0ED
  5
FD42
331
F0EE
  5
FD43
331
F0EF
  5
FD44
331
F0F0
  5
FD45
331
F0F1
  5
FD46
331
F0F2
  5
FD47
331
F0F3
  5
FD48
331
F0F4
  5
FD49
331
F0F5
  5
FD4A
331
F0F6
  5
FD4B
331
F0F7
  5
FD4C
331
F0F8
  5
FD4D
331
F0F9
  5
FD4E
331
F0FA
  5
FD4F
331
F0FB
  5
FD50
331
F0FC
  5
FD51
331
F0FD
  5
FD52
331
F0FE
  5
FD53
331
F0FF
  5
FD54
331
F100
  5
FD55
331
F101
  5
FD56
331
F102
  5
FD57
331
F103
  5
FD58
331
F104
  5
FD59
331
F105
  5
FD5A
331
F106
  5
FD5B
331
F107
  5
FD5C
331
F108
  5
FD5D
331
F109
  5
FD5E
331
F10A
  5
FD5F
331
F10B
  5
FD60
331
F10C
  5
FD61
331
F10D
  5
FD62
331
F10E
  5
FD63
331
F10F
  5
FD64
331
F110
  5
FD65
331
F111
  5
FD66
331
F112
  5
FD67
331
F113
  5
FD68
331
F114
  5
FD69
331
F115
  5
FD6A
331
F116
  5
FD6B
331
F117
  5
FD6C
331
F118
  5
FD6D
331
F119
  5
FD6E
331
F11A
  5
FD6F
331
F11B
  5
FD70
331
F11C
  5
FD71
331
F11D
  5
FD72
331
F11E
  5
FD73
331
F11F
  5
FD74
331
F120
  5
FD75
331
F121
  5
FD76
331
F122
  5
FD77
331
F123
  5
FD78
331
F124
  5
FD79
331
F125
  5
FD7A
331
F126
  5
FD7B
331
F127
  5
FD7C
331
F128
  5
FD7D
331
F129
  5
FD7E
331
F12A
  5
FD7F
331
F12B
  5
FD80
331
F12C
  5
FD81
331
F12D
  5
FD82
331
F12E
  5
FD83
331
F12F
  5
FD84
331
F130
  5
FD85
331
F131
  5
FD86
331
F132
  5
FD87
331
F133
  5
FD88
331
F134
  5
FD89
331
F135
  5
FD8A
331
F136
  5
FD8B
331
FC6A
  5
ED2B
331
FC6B
  5
ED2C
331
FC6C
  5
ED2D
331
0
  5
ED2E
331
0
  5
ED2F
331
0
  5
ED30
331
FC70
  5
EDD9
331
FC71
  5
EDDD
331
FC72
  5
EDDE
331
0
  5
EDD2
331
0
  5
EDD3
331
0
  5
EDD4
331
FC76
  5
EE35
331
FC77
  5
EE36
331
FC78
  5
EE37
331
0
  5
EDDA
331
0
  5
EDDB
331
0
  5
EDDC
331
FC7C
  5
EE68
331
FC7D
  5
EE69
331
FC7E
  5
EE6A
331
0
  5
EE42
331
0
  5
EE43
331
0
  5
EE44
331
FC82
  5
F009
331
FC83
  5
F00A
331
FC84
  5
F00B
331
0
  5
EE4B
331
0
  5
EE4C
331
0
  5
EE4D
331
FC88
  5
F062
331
FC89
  5
F063
331
FC8A
  5
F064
331
0
  5
F018
331
0
  5
F019
331
0
  5
F01A
331
FC8E
  5
F075
331
FC8F
  5
F076
331
FC90
  5
F079
331
FC91
  5
F07A
331
FC92
  5
F07B
331
0
  5
F029
331
0
  5
F02A
331
0
  5
F02B
331
FC96
  5
F086
331
FC97
  5
F087
331
FC98
  5
F088
331
0
  5
F032
331
0
  5
F033
331
0
  5
F034
331
FC9C
  5
F090
331
FC9D
  5
F091
331
FC9E
  5
F092
331
0
  5
F038
331
0
  5
F039
331
0
  5
F03A
331
FCA2
  5
F09A
331
FCA3
  5
F09B
331
FCA4
  5
F09E
331
0
  5
F03E
331
0
  5
F03F
331
0
  5
F040
331
FCA8
  5
F125
331
FCA9
  5
F126
331
FCAA
  5
F127
331
0
  5
F0AB
331
0
  5
F0AC
331
0
  5
F0AD
331
FCAE
  5
FC96
331
FCAF
  5
FC97
331
FCB0
  5
FC98
331
0
  5
F0E7
331
0
  5
F0E8
331
0
  5
F0E9
331
FCB4
  5
FCA0
331
FCB5
  5
FCA1
331
FCB6
  5
FCA2
331
0
  5
F0ED
331
0
  5
F0EE
331
0
  5
F0EF
331
FCBA
  5
FCCE
331
FCBB
  5
FCD2
331
FCBC
  5
FCD3
331
0
  5
F10C
331
0
  5
F10D
331
0
  5
F10E
331
FCC0
  5
ED31
331
FCC1
  5
ED32
331
FCC2
  5
ED33
331
FCC3
  5
ED34
331
FCC4
  5
ED35
331
FCC5
  5
ED36
331
FCC6
  5
ED37
331
FCC7
  5
EDDF
331
FCC8
  5
EE2B
331
FCC9
  5
EE2C
331
FCCA
  5
EE2D
331
FCCB
  5
EE2F
331
FCCC
  5
EE31
331
FCCD
  5
EE32
331
FCCE
  5
EE38
331
FCCF
  5
EE39
331
FCD0
  5
EE3A
331
FCD1
  5
EE3B
331
FCD2
  5
EE3C
331
FCD3
  5
EE3D
331
FCD4
  5
EE3E
331
FCD5
  5
EE6B
331
FCD6
  5
EFFA
331
FCD7
  5
EFFC
331
FCD8
  5
EFFD
331
FCD9
  5
EFFF
331
FCDA
  5
F003
331
FCDB
  5
F004
331
FCDC
  5
F00C
331
FCDD
  5
F00D
331
FCDE
  5
F00E
331
FCDF
  5
F00F
331
FCE0
  5
F013
331
FCE1
  5
F014
331
FCE2
  5
F015
331
FCE3
  5
F065
331
FCE4
  5
F066
331
FCE5
  5
F068
331
FCE6
  5
F069
331
FCE7
  5
F06A
331
FCE8
  5
F06B
331
FCE9
  5
F06C
331
FCEA
  5
F07C
331
FCEB
  5
F07D
331
FCEC
  5
F07E
331
FCED
  5
F07F
331
FCEE
  5
F080
331
FCEF
  5
F081
331
FCF0
  5
F082
331
FCF1
  5
F089
331
FCF2
  5
F08A
331
FCF3
  5
F08B
331
FCF4
  5
F08C
331
FCF5
  5
F08D
331
FCF6
  5
F08E
331
FCF7
  5
F08F
331
FCF8
  5
F093
331
FCF9
  5
F094
331
FCFA
  5
F095
331
FCFB
  5
F096
331
FCFC
  5
F097
331
FCFD
  5
F098
331
FCFE
  5
F099
331
FCFF
  5
F09F
331
FD00
  5
F0A0
331
FD01
  5
F0A1
331
FD02
  5
F0A2
331
FD03
  5
F0A3
331
FD04
  5
F0A4
331
FD05
  5
F0A5
331
FD06
  5
F128
331
FD07
  5
F129
331
FD08
  5
F12A
331
FD09
  5
F12B
331
FD0A
  5
F12C
331
FD0B
  5
F12D
331
FD0C
  5
F12E
331
FD0D
  5
FC99
331
FD0E
  5
FC9A
331
FD0F
  5
FC9B
331
FD10
  5
FC9C
331
FD11
  5
FC9D
331
FD12
  5
FC9E
331
FD13
  5
FC9F
331
FD14
  5
FCA3
331
FD15
  5
FCA4
331
FD16
  5
FCA5
331
FD17
  5
FCA6
331
FD18
  5
FCAC
331
FD19
  5
FCAD
331
FD1A
  5
FCAE
331
FD1B
  5
FCD4
331
FD1C
  5
FCD8
331
FD1D
  5
FCD9
331
FD1E
  5
FCDA
331
FD1F
  5
FCDE
331
FD20
  5
FCDF
331
FD21
  5
FCE0
331
FD22
  5
EE40
331
FD23
  5
EE41
331
FD24
  5
EE45
331
0
  5
EE46
331
0
  5
EE47
331
0
  5
EE48
331
FD28
  5
F017
331
FD29
  5
F01B
331
FD2A
  5
F01C
331
0
  5
F010
331
0
  5
F011
331
0
  5
F012
331
FD2E
  5
F077
331
FD2F
  5
F078
331
FD30
  5
F0F4
331
FD31
  5
F0F5
331
FD32
  5
F0F6
331
0
  5
F0DF
331
0
  5
F0E0
331
0
  5
F0E1
331
FD36
  5
FCE4
331
FD37
  5
FCE5
331
FD38
  5
FCE6
331
0
  5
FCC3
331
0
  5
FCC4
331
0
  5
FCC5
331
FD3C
  5
FCEE
331
FD3D
  5
FCEF
331
FD3E
  5
FCF0
331
0
  5
FCC9
331
0
  5
FCCA
331
0
  5
FCCB
331
FD42
  5
FCF8
331
FD43
  5
FCF9
331
FD44
  5
FCFA
331
0
  5
FCCF
331
0
  5
FCD0
331
0
  5
FCD1
331
FD48
  5
FD02
331
FD49
  5
FD03
331
FD4A
  5
FD04
331
0
  5
FCD5
331
0
  5
FCD6
331
0
  5
FCD7
331
FD4E
  5
FD0C
331
FD4F
  5
FD0D
331
FD50
  5
FD0E
331
0
  5
FCDB
331
0
  5
FCDC
331
0
  5
FCDD
331
FD54
  5
EE49
331
FD55
  5
EE4A
331
FD56
  5
EE4E
331
FD57
  5
EE4F
331
FD58
  5
EE50
331
FD59
  5
EE51
331
FD5A
  5
EE52
331
FD5B
  5
F01D
331
FD5C
  5
F01E
331
FD5D
  5
F01F
331
FD5E
  5
F020
331
FD5F
  5
F021
331
FD60
  5
F022
331
FD61
  5
F023
331
FD62
  5
F0F7
331
FD63
  5
F0F8
331
FD64
  5
F0F9
331
FD65
  5
F0FA
331
FD66
  5
F0FB
331
FD67
  5
F0FC
331
FD68
  5
F0FD
331
FD69
  5
FCE7
331
FD6A
  5
FCE8
331
FD6B
  5
FCE9
331
FD6C
  5
FCEA
331
FD6D
  5
FCEB
331
FD6E
  5
FCEC
331
FD6F
  5
FCED
331
FD70
  5
FCF1
331
FD71
  5
FCF2
331
FD72
  5
FCF3
331
FD73
  5
FCF4
331
FD74
  5
FCF5
331
FD75
  5
FCF6
331
FD76
  5
FCF7
331
FD77
  5
FCFB
331
FD78
  5
FCFC
331
FD79
  5
FCFD
331
FD7A
  5
FCFE
331
FD7B
  5
FCFF
331
FD7C
  5
FD00
331
FD7D
  5
FD01
331
FD7E
  5
FD05
331
FD7F
  5
FD06
331
FD80
  5
FD07
331
FD81
  5
FD08
331
FD82
  5
FD09
331
FD83
  5
FD0A
331
FD84
  5
FD0B
331
FD85
  5
FD0F
331
FD86
  5
FD10
331
FD87
  5
FD11
331
FD88
  5
FD12
331
FD89
  5
FD13
331
FD8A
  5
FD14
331
FD8B
  5
FD15
  0
MATERIAL
  5
9540
102
{ACAD_REACTORS
330
18C
102
}
102
{ACAD_XDICTIONARY
360
FF2A
102
}
330
18C
100
AcDbMaterial
  1
BYBLOCK
 72
     0
 73
     2
 43
0.0208333333333333
 43
0.0
 43
0.0
 43
0.0
 43
0.0
 43
0.0208333333333333
 43
0.0
 43
0.0
 43
0.0
 43
0.0
 43
1.0
 43
0.0
 43
0.0
 43
0.0
 43
0.0
 43
1.0
 77
     0
 78
     2
 47
0.0208333333333333
 47
0.0
 47
0.0
 47
0.0
 47
0.0
 47
0.0208333333333333
 47
0.0
 47
0.0
 47
0.0
 47
0.0
 47
1.0
 47
0.0
 47
0.0
 47
0.0
 47
0.0
 47
1.0
171
     0
172
     2
 49
0.0208333333333333
 49
0.0
 49
0.0
 49
0.0
 49
0.0
 49
0.0208333333333333
 49
0.0
 49
0.0
 49
0.0
 49
0.0
 49
1.0
 49
0.0
 49
0.0
 49
0.0
 49
0.0
 49
1.0
175
     0
176
     2
142
0.0208333333333333
142
0.0
142
0.0
142
0.0
142
0.0
142
0.0208333333333333
142
0.0
142
0.0
142
0.0
142
0.0
142
1.0
142
0.0
142
0.0
142
0.0
142
0.0
142
1.0
179
     0
270
     2
144
0.0208333333333333
144
0.0
144
0.0
144
0.0
144
0.0
144
0.0208333333333333
144
0.0
144
0.0
144
0.0
144
0.0
144
1.0
144
0.0
144
0.0
144
0.0
144
0.0
144
1.0
274
     2
147
0.0208333333333333
147
0.0
147
0.0
147
0.0
147
0.0
147
0.0208333333333333
147
0.0
147
0.0
147
0.0
147
0.0
147
1.0
147
0.0
147
0.0
147
0.0
147
0.0
147
1.0
  0
MATERIAL
  5
9538
102
{ACAD_REACTORS
330
18C
102
}
102
{ACAD_XDICTIONARY
360
FF2C
102
}
330
18C
100
AcDbMaterial
  1
BYLAYER
 72
     0
 73
     2
 43
0.0208333333333333
 43
0.0
 43
0.0
 43
0.0
 43
0.0
 43
0.0208333333333333
 43
0.0
 43
0.0
 43
0.0
 43
0.0
 43
1.0
 43
0.0
 43
0.0
 43
0.0
 43
0.0
 43
1.0
 77
     0
 78
     2
 47
0.0208333333333333
 47
0.0
 47
0.0
 47
0.0
 47
0.0
 47
0.0208333333333333
 47
0.0
 47
0.0
 47
0.0
 47
0.0
 47
1.0
 47
0.0
 47
0.0
 47
0.0
 47
0.0
 47
1.0
171
     0
172
     2
 49
0.0208333333333333
 49
0.0
 49
0.0
 49
0.0
 49
0.0
 49
0.0208333333333333
 49
0.0
 49
0.0
 49
0.0
 49
0.0
 49
1.0
 49
0.0
 49
0.0
 49
0.0
 49
0.0
 49
1.0
175
     0
176
     2
142
0.0208333333333333
142
0.0
142
0.0
142
0.0
142
0.0
142
0.0208333333333333
142
0.0
142
0.0
142
0.0
142
0.0
142
1.0
142
0.0
142
0.0
142
0.0
142
0.0
142
1.0
179
     0
270
     2
144
0.0208333333333333
144
0.0
144
0.0
144
0.0
144
0.0
144
0.0208333333333333
144
0.0
144
0.0
144
0.0
144
0.0
144
1.0
144
0.0
144
0.0
144
0.0
144
0.0
144
1.0
274
     2
147
0.0208333333333333
147
0.0
147
0.0
147
0.0
147
0.0
147
0.0208333333333333
147
0.0
147
0.0
147
0.0
147
0.0
147
1.0
147
0.0
147
0.0
147
0.0
147
0.0
147
1.0
  0
MATERIAL
  5
9548
102
{ACAD_REACTORS
330
18C
102
}
102
{ACAD_XDICTIONARY
360
FF2E
102
}
330
18C
100
AcDbMaterial
  1
GLOBAL
 72
     0
 73
     2
 43
0.0208333333333333
 43
0.0
 43
0.0
 43
0.0
 43
0.0
 43
0.0208333333333333
 43
0.0
 43
0.0
 43
0.0
 43
0.0
 43
1.0
 43
0.0
 43
0.0
 43
0.0
 43
0.0
 43
1.0
 77
     0
 78
     2
 47
0.0208333333333333
 47
0.0
 47
0.0
 47
0.0
 47
0.0
 47
0.0208333333333333
 47
0.0
 47
0.0
 47
0.0
 47
0.0
 47
1.0
 47
0.0
 47
0.0
 47
0.0
 47
0.0
 47
1.0
171
     0
172
     2
 49
0.0208333333333333
 49
0.0
 49
0.0
 49
0.0
 49
0.0
 49
0.0208333333333333
 49
0.0
 49
0.0
 49
0.0
 49
0.0
 49
1.0
 49
0.0
 49
0.0
 49
0.0
 49
0.0
 49
1.0
175
     0
176
     2
142
0.0208333333333333
142
0.0
142
0.0
142
0.0
142
0.0
142
0.0208333333333333
142
0.0
142
0.0
142
0.0
142
0.0
142
1.0
142
0.0
142
0.0
142
0.0
142
0.0
142
1.0
179
     0
270
     2
144
0.0208333333333333
144
0.0
144
0.0
144
0.0
144
0.0
144
0.0208333333333333
144
0.0
144
0.0
144
0.0
144
0.0
144
1.0
144
0.0
144
0.0
144
0.0
144
0.0
144
1.0
274
     2
147
0.0208333333333333
147
0.0
147
0.0
147
0.0
147
0.0
147
0.0208333333333333
147
0.0
147
0.0
147
0.0
147
0.0
147
1.0
147
0.0
147
0.0
147
0.0
147
0.0
147
1.0
  0
ACAD_PROXY_OBJECT
  5
9584
102
{ACAD_REACTORS
330
9583
102
}
330
9583
100
AcDbZombieObject
 90
      499
 91
      511
 93
      610
310
40901902A4063FBFFFFFE000000000000002040AD7A3703D0AD73F4214DD185B99185C990000000000000104090141901A00000000000004100000000000000041025764000000000000300FC0
340
12
340
0
340
F
340
0
 94
        0
1001
ACAD_MLEADERVER
1070
     2
  0
MLINESTYLE
  5
1C
102
{ACAD_REACTORS
330
1B
102
}
330
1B
100
AcDbMlineStyle
  2
STANDARD
 70
     0
  3

 62
   256
 51
90.0
 52
90.0
 71
     2
 49
0.5
 62
   256
  6
BYLAYER
 49
-0.5
 62
   256
  6
BYLAYER
  0
ACAD_PROXY_OBJECT
  5
9562
102
{ACAD_REACTORS
330
9561
102
}
330
9561
100
AcDbZombieObject
 90
      499
 91
      510
 93
       41
310
903313A31580
  0
ACAD_PROXY_OBJECT
  5
9563
102
{ACAD_REACTORS
330
9561
102
}
330
9561
100
AcDbZombieObject
 90
      499
 91
      510
 93
      105
310
903313A324000000000000004000
  0
ACAD_PROXY_OBJECT
  5
9564
102
{ACAD_REACTORS
330
9561
102
}
330
9561
100
AcDbZombieObject
 90
      499
 91
      510
 93
      105
310
903313A344000000000000104000
  0
ACAD_PROXY_OBJECT
  5
9565
102
{ACAD_REACTORS
330
9561
102
}
330
9561
100
AcDbZombieObject
 90
      499
 91
      510
 93
      105
310
903313A354000000000000144000
  0
ACAD_PROXY_OBJECT
  5
9566
102
{ACAD_REACTORS
330
9561
102
}
330
9561
100
AcDbZombieObject
 90
      499
 91
      510
 93
      105
310
903313A384000000000000204000
  0
ACAD_PROXY_OBJECT
  5
9567
102
{ACAD_REACTORS
330
9561
102
}
330
9561
100
AcDbZombieObject
 90
      499
 91
      510
 93
      113
310
904313A31304000000000000244000
  0
ACAD_PROXY_OBJECT
  5
9568
102
{ACAD_REACTORS
330
9561
102
}
330
9561
100
AcDbZombieObject
 90
      499
 91
      510
 93
      113
310
904313A31364000000000000304000
  0
ACAD_PROXY_OBJECT
  5
9569
102
{ACAD_REACTORS
330
9561
102
}
330
9561
100
AcDbZombieObject
 90
      499
 91
      510
 93
      113
310
904313A32304000000000000344000
  0
ACAD_PROXY_OBJECT
  5
956A
102
{ACAD_REACTORS
330
9561
102
}
330
9561
100
AcDbZombieObject
 90
      499
 91
      510
 93
      113
310
904313A333040000000000003E4000
  0
ACAD_PROXY_OBJECT
  5
956B
102
{ACAD_REACTORS
330
9561
102
}
330
9561
100
AcDbZombieObject
 90
      499
 91
      510
 93
      113
310
904313A34304000000000000444000
  0
ACAD_PROXY_OBJECT
  5
956C
102
{ACAD_REACTORS
330
9561
102
}
330
9561
100
AcDbZombieObject
 90
      499
 91
      510
 93
      113
310
904313A35304000000000000494000
  0
ACAD_PROXY_OBJECT
  5
956D
102
{ACAD_REACTORS
330
9561
102
}
330
9561
100
AcDbZombieObject
 90
      499
 91
      510
 93
      121
310
905313A3130304000000000000594000
  0
ACAD_PROXY_OBJECT
  5
956E
102
{ACAD_REACTORS
330
9561
102
}
330
9561
100
AcDbZombieObject
 90
      499
 91
      510
 93
      105
310
903323A310000000000000010100
  0
ACAD_PROXY_OBJECT
  5
956F
102
{ACAD_REACTORS
330
9561
102
}
330
9561
100
AcDbZombieObject
 90
      499
 91
      510
 93
      105
310
903343A310000000000000410100
  0
ACAD_PROXY_OBJECT
  5
9570
102
{ACAD_REACTORS
330
9561
102
}
330
9561
100
AcDbZombieObject
 90
      499
 91
      510
 93
      105
310
903383A310000000000000810100
  0
ACAD_PROXY_OBJECT
  5
9571
102
{ACAD_REACTORS
330
9561
102
}
330
9561
100
AcDbZombieObject
 90
      499
 91
      510
 93
      113
310
90431303A310000000000000910100
  0
ACAD_PROXY_OBJECT
  5
9572
102
{ACAD_REACTORS
330
9561
102
}
330
9561
100
AcDbZombieObject
 90
      499
 91
      510
 93
      121
310
9053130303A310000000000001650100
  0
ACAD_PROXY_OBJECT
  5
9573
102
{ACAD_REACTORS
330
9561
102
}
330
9561
100
AcDbZombieObject
 90
      499
 91
      510
 93
      257
310
90E312F31323822203D2031272D3022000000000000200FC000000000000284000
  0
ACAD_PROXY_OBJECT
  5
9574
102
{ACAD_REACTORS
330
9561
102
}
330
9561
100
AcDbZombieObject
 90
      499
 91
      510
 93
      249
310
90D312F363422203D2031272D3022000000000000240FC000000000000284000
  0
ACAD_PROXY_OBJECT
  5
9575
102
{ACAD_REACTORS
330
9561
102
}
330
9561
100
AcDbZombieObject
 90
      499
 91
      510
 93
      249
310
90D312F333222203D2031272D3022000000000000280FC000000000000284000
  0
ACAD_PROXY_OBJECT
  5
9576
102
{ACAD_REACTORS
330
9561
102
}
330
9561
100
AcDbZombieObject
 90
      499
 91
      510
 93
      249
310
90D312F313622203D2031272D30220000000000002C0FC000000000000284000
  0
ACAD_PROXY_OBJECT
  5
9577
102
{ACAD_REACTORS
330
9561
102
}
330
9561
100
AcDbZombieObject
 90
      499
 91
      510
 93
      249
310
90D332F333222203D2031272D30220000000000002E0FC000000000000284000
  0
ACAD_PROXY_OBJECT
  5
9578
102
{ACAD_REACTORS
330
9561
102
}
330
9561
100
AcDbZombieObject
 90
      499
 91
      510
 93
      241
310
90C312F3822203D2031272D3022000000000000300FC000000000000284000
  0
ACAD_PROXY_OBJECT
  5
9579
102
{ACAD_REACTORS
330
9561
102
}
330
9561
100
AcDbZombieObject
 90
      499
 91
      510
 93
      249
310
90D332F313622203D2031272D3022000000000000320FC000000000000284000
  0
ACAD_PROXY_OBJECT
  5
957A
102
{ACAD_REACTORS
330
9561
102
}
330
9561
100
AcDbZombieObject
 90
      499
 91
      510
 93
      241
310
90C312F3422203D2031272D3022000000000000340FC000000000000284000
  0
ACAD_PROXY_OBJECT
  5
957B
102
{ACAD_REACTORS
330
9561
102
}
330
9561
100
AcDbZombieObject
 90
      499
 91
      510
 93
      241
310
90C332F3822203D2031272D3022000000000000360FC000000000000284000
  0
ACAD_PROXY_OBJECT
  5
957C
102
{ACAD_REACTORS
330
9561
102
}
330
9561
100
AcDbZombieObject
 90
      499
 91
      510
 93
      241
310
90C312F3222203D2031272D3022000000000000380FC000000000000284000
  0
ACAD_PROXY_OBJECT
  5
957D
102
{ACAD_REACTORS
330
9561
102
}
330
9561
100
AcDbZombieObject
 90
      499
 91
      510
 93
      241
310
90C332F3422203D2031272D30220000000000003A0FC000000000000284000
  0
ACAD_PROXY_OBJECT
  5
957E
102
{ACAD_REACTORS
330
9561
102
}
330
9561
100
AcDbZombieObject
 90
      499
 91
      510
 93
      161
310
90A3122203D2031272D30224000000000000284000
  0
ACAD_PROXY_OBJECT
  5
957F
102
{ACAD_REACTORS
330
9561
102
}
330
9561
100
AcDbZombieObject
 90
      499
 91
      510
 93
      257
310
90E312D312F3222203D2031272D30220000000000003E0FC000000000000284000
  0
ACAD_PROXY_OBJECT
  5
9580
102
{ACAD_REACTORS
330
9561
102
}
330
9561
100
AcDbZombieObject
 90
      499
 91
      510
 93
      225
310
90A3322203D2031272D302200000000000002100000000000000284000
  0
ACAD_PROXY_OBJECT
  5
9581
102
{ACAD_REACTORS
330
9561
102
}
330
9561
100
AcDbZombieObject
 90
      499
 91
      510
 93
      225
310
90A3622203D2031272D302200000000000006100000000000000284000
  0
ACAD_PROXY_OBJECT
  5
9582
102
{ACAD_REACTORS
330
9561
102
}
330
9561
100
AcDbZombieObject
 90
      499
 91
      510
 93
      249
310
90D31272D3022203D2031272D30220000000000000A100000000000000284000
  0
ACAD_PROXY_OBJECT
  5
9556
102
{ACAD_REACTORS
330
9550
102
}
330
9550
100
AcDbZombieObject
 90
      499
 91
      509
 93
      436
310
42CC9915DA5C99599C985B595049028333333333333E3BF0000000000000FB0107901411070040501600405405064090741402480A0340
1001
ACAD
1000
AcDbSavedByObjectVersion
1070
     0
  0
ACAD_PROXY_OBJECT
  5
9558
102
{ACAD_REACTORS
330
9550
102
}
330
9550
100
AcDbZombieObject
 90
      499
 91
      509
 93
      500
310
424CD108121A5919195B90640502408333333333333E3BF0000000000000FB01079024090700405020000000000001110200405405064090740C02480A0340
1001
ACAD
1000
AcDbSavedByObjectVersion
1070
     0
  0
ACAD_PROXY_OBJECT
  5
9557
102
{ACAD_REACTORS
330
9550
102
}
330
9550
100
AcDbZombieObject
 90
      499
 91
      509
 93
      436
310
42CCD915DA5C99599C985B595059028333333333333E3BF0000000000000FB0107901411070040501600405405064090741402480A0340
1001
ACAD
1000
AcDbSavedByObjectVersion
1070
     0
  0
ACAD_PROXY_OBJECT
  5
9555
102
{ACAD_REACTORS
330
9550
102
}
330
9550
100
AcDbZombieObject
 90
      499
 91
      509
 93
      388
310
4150985CDA58D07406404333333333333E3BF0000000000000FB0107A41107004050150841D405064090741402480A0350
1001
ACAD
1000
AcDbSavedByObjectVersion
1070
     0
  0
ACAD_PROXY_OBJECT
  5
955C
102
{ACAD_REACTORS
330
9550
102
}
330
9550
100
AcDbZombieObject
 90
      499
 91
      509
 93
      428
310
42109C9A59DA1D195B90C409028333333333333E3BF0000000000000FB010790141107004050150841D405064090741402480A029950
1001
ACAD
1000
AcDbSavedByObjectVersion
1070
     0
  0
ACAD_PROXY_OBJECT
  5
9560
102
{ACAD_REACTORS
330
9550
102
}
330
9550
100
AcDbZombieObject
 90
      499
 91
      509
 93
      452
310
42D0DBDB1BDC90DA185B99D95104090240C333333333333E3BF0000000000000FB0108901411070040501508421405064090741402480A0350
1001
ACAD
1000
AcDbSavedByObjectVersion
1070
     0
  0
ACAD_PROXY_OBJECT
  5
9559
102
{ACAD_REACTORS
330
9550
102
}
330
9550
100
AcDbZombieObject
 90
      499
 91
      509
 93
      500
310
4290DBDB98D95C1D1D585B10940D028333333333333E3BF0000000000000FB0107902409070040501000000000000111010841D405064090740C02480A0340
1001
ACAD
1000
AcDbSavedByObjectVersion
1070
     0
  0
ACAD_PROXY_OBJECT
  5
955B
102
{ACAD_REACTORS
330
9550
102
}
330
9550
100
AcDbZombieObject
 90
      499
 91
      509
 93
      412
310
40D11A5B50B409028333333333333E3BF0000000000000FB010790141107004050150841D405064090741402480A02677FFFFFD0
1001
ACAD
1000
AcDbSavedByObjectVersion
1070
     0
  0
ACAD_PROXY_OBJECT
  5
A211
102
{ACAD_REACTORS
330
9550
102
}
330
9550
100
AcDbZombieObject
 90
      499
 91
      509
 93
      452
310
43115919D950DBDB1BDC93D999916409028333333333333E3BF0000000000000FB010790141107004050150841D405064090741402480A0350
1001
ACAD
1000
AcDbSavedByObjectVersion
1070
     0
  0
ACAD_PROXY_OBJECT
  5
955F
102
{ACAD_REACTORS
330
9550
102
}
330
9550
100
AcDbZombieObject
 90
      499
 91
      509
 93
      444
310
42D19858D95C185D1D195C9B90F409028333333333333E3BF0000000000000FB010790141107004050150841D405064090741402480A0350
1001
ACAD
1000
AcDbSavedByObjectVersion
1070
     0
  0
ACAD_PROXY_OBJECT
  5
9551
102
{ACAD_REACTORS
330
9550
102
}
330
9550
100
AcDbZombieObject
 90
      499
 91
      509
 93
      388
310
41119B185D240901404333333333333E3BF0000000000000F9010740A41107004050150841D405064090741402480A1B50
1001
ACAD
1000
AcDbSavedByObjectVersion
1070
     0
  0
ACAD_PROXY_OBJECT
  5
9552
102
{ACAD_REACTORS
330
9550
102
}
330
9550
100
AcDbZombieObject
 90
      499
 91
      509
 93
      476
310
43519B185D15DA5D1A115919D95CD0140901404333333333333E3BF0000000000000F9010740901411070040501600405405064090741402480A1B50
1001
ACAD
1000
AcDbSavedByObjectVersion
1070
     0
  0
ACAD_PROXY_OBJECT
  5
9553
102
{ACAD_REACTORS
330
9550
102
}
330
9550
100
AcDbZombieObject
 90
      499
 91
      509
 93
      412
310
41D1DBDD5C985D5910240902404333333333333E3BF0000000000000F9010740A411070040501641D405064090741402480A1B50
1001
ACAD
1000
AcDbSavedByObjectVersion
1070
     0
  0
ACAD_PROXY_OBJECT
  5
9554
102
{ACAD_REACTORS
330
9550
102
}
330
9550
100
AcDbZombieObject
 90
      499
 91
      509
 93
      500
310
4411DBDD5C985D5915DA5D1A115919D95CD0340902404333333333333E3BF0000000000000F9010740901411070040501600405405064090741402480A1B50
1001
ACAD
1000
AcDbSavedByObjectVersion
1070
     0
  0
ACAD_PROXY_OBJECT
  5
A260
102
{ACAD_REACTORS
330
9550
102
}
330
9550
100
AcDbZombieObject
 90
      499
 91
      509
 93
      476
310
41921A5919195B90640502408333333333333E3BF0000000000000FB01079024090700405020000000000001110200405405064090740C02480A0340
1001
ACAD
1000
AcDbSavedByObjectVersion
1070
     0
  0
ACAD_PROXY_OBJECT
  5
A20F
102
{ACAD_REACTORS
330
9550
102
}
330
9550
100
AcDbZombieObject
 90
      499
 91
      509
 93
      428
310
42529A5D1D195C93D999914409028333333333333E3BF0000000000000FB010790141107004050150A41D405064090741402480A0350
1001
ACAD
1000
AcDbSavedByObjectVersion
1070
     0
  0
ACAD_PROXY_OBJECT
  5
955E
102
{ACAD_REACTORS
330
9550
102
}
330
9550
100
AcDbZombieObject
 90
      499
 91
      509
 93
      444
310
42D31A5B995C185D1D195C9B90E409028333333333333E3BF0000000000000FB010790141107004050750841D405064090741402483A0350
1001
ACAD
1000
AcDbSavedByObjectVersion
1070
     0
  0
ACAD_PROXY_OBJECT
  5
A266
102
{ACAD_REACTORS
330
9550
102
}
330
9550
100
AcDbZombieObject
 90
      499
 91
      509
 93
      484
310
42135BD9195B1A5B99D0A409028333333333333E3BF0000000000000F901074090290700405010000000000201990108421405064090741402480A1B40
1001
ACAD
1000
AcDbSavedByObjectVersion
1070
     0
  0
ACAD_PROXY_OBJECT
  5
A210
102
{ACAD_REACTORS
330
9550
102
}
330
9550
100
AcDbZombieObject
 90
      499
 91
      509
 93
      444
310
42D3DD995C9A185B99D3D999915409028333333333333E3BF0000000000000FB010790141107004050150941D405064090741402480A0350
1001
ACAD
1000
AcDbSavedByObjectVersion
1070
     0
  0
ACAD_PROXY_OBJECT
  5
955A
102
{ACAD_REACTORS
330
9550
102
}
330
9550
100
AcDbZombieObject
 90
      499
 91
      509
 93
      420
310
425499585B1A5CDD1A58D08409028333333333333E3BF0000000000000FB01079019070040501508421405064090741402480A1B40
1001
ACAD
1000
AcDbSavedByObjectVersion
1070
     0
  0
ACAD_PROXY_OBJECT
  5
A265
102
{ACAD_REACTORS
330
9550
102
}
330
9550
100
AcDbZombieObject
 90
      499
 91
      509
 93
      420
310
4194DA1859195911B40902404333333333333E3BF0000000000000F9010740A41107004050150800405405064090840C02480A0B40
1001
ACAD
1000
AcDbSavedByObjectVersion
1070
     0
  0
ACAD_PROXY_OBJECT
  5
A264
102
{ACAD_REACTORS
330
9550
102
}
330
9550
100
AcDbZombieObject
 90
      499
 91
      509
 93
      516
310
4454DA18591959081DDA5D1A08195919D95CD1A40902404333333333333E3BF0000000000000F901074090142907004050250800405405064090740C02480A0B40
1001
ACAD
1000
AcDbSavedByObjectVersion
1070
     0
  0
ACAD_PROXY_OBJECT
  5
A261
102
{ACAD_REACTORS
330
9550
102
}
330
9550
100
AcDbZombieObject
 90
      499
 91
      509
 93
      532
310
4394DA1859195CC81BD98811DC985E5174090240C333333333333E3BF0000000000000FB01079024090741D01000000000000111010841D405064090740C02480A0340
1001
ACAD
1000
AcDbSavedByObjectVersion
1070
     0
  0
ACAD_PROXY_OBJECT
  5
A262
102
{ACAD_REACTORS
330
9550
102
}
330
9550
100
AcDbZombieObject
 90
      499
 91
      509
 93
      476
310
41D4DAD95D18DA1E51840502408333333333333E3BF0000000000000FB01079024090741D01000000000000111010B41D405064090741802480A0340
1001
ACAD
1000
AcDbSavedByObjectVersion
1070
     0
  0
ACAD_PROXY_OBJECT
  5
955D
102
{ACAD_REACTORS
330
9550
102
}
330
9550
100
AcDbZombieObject
 90
      499
 91
      509
 93
      412
310
41D51A1A58DAD95B90D409028333333333333E3BF0000000000000FB010790141107004050150C41D405064090741402480A0350
1001
ACAD
1000
AcDbSavedByObjectVersion
1070
     0
  0
ACAD_PROXY_OBJECT
  5
A25F
102
{ACAD_REACTORS
330
9550
102
}
330
9550
100
AcDbZombieObject
 90
      499
 91
      509
 93
      420
310
4255DA5C99599C985B595059028333333333333E3BF0000000000000FB0107901411070040501600405405064090740C02480A0340
1001
ACAD
1000
AcDbSavedByObjectVersion
1070
     0
  0
ACAD_PROXY_OBJECT
  5
A263
102
{ACAD_REACTORS
330
9550
102
}
330
9550
100
AcDbZombieObject
 90
      499
 91
      509
 93
      404
310
41560B54985E51940902404000000000000E03F0000000000000FB010740501907004050150841D405064090740C02480A1B40
1001
ACAD
1000
AcDbSavedByObjectVersion
1070
     0
  0
XRECORD
  5
FD8D
102
{ACAD_REACTORS
330
FD8C
102
}
330
FD8C
100
AcDbXrecord
340
18D
  0
XRECORD
  5
FD8E
102
{ACAD_REACTORS
330
FD8C
102
}
330
FD8C
100
AcDbXrecord
340
18C
  0
DICTIONARYVAR
  5
AAE0
102
{ACAD_REACTORS
330
37
102
}
330
37
100
DictionaryVariables
280
     0
  1
1:1
  0
DICTIONARYVAR
  5
9627
102
{ACAD_REACTORS
330
37
102
}
330
37
100
DictionaryVariables
280
     0
  1
Standard
  0
DICTIONARYVAR
  5
29E
102
{ACAD_REACTORS
330
37
102
}
330
37
100
DictionaryVariables
280
     0
  1
Standard
  0
DICTIONARYVAR
  5
38
102
{ACAD_REACTORS
330
37
102
}
330
37
100
DictionaryVariables
280
     0
  1
-1
  0
DICTIONARYVAR
  5
1CE
102
{ACAD_REACTORS
330
37
102
}
330
37
100
DictionaryVariables
280
     0
  1
2
  0
DICTIONARYVAR
  5
704E
102
{ACAD_REACTORS
330
37
102
}
330
37
100
DictionaryVariables
280
     0
  1
1
  0
DICTIONARYVAR
  5
962A
102
{ACAD_REACTORS
330
37
102
}
330
37
100
DictionaryVariables
280
     0
  1
0
  0
DICTIONARYVAR
  5
7052
102
{ACAD_REACTORS
330
37
102
}
330
37
100
DictionaryVariables
280
     0
  1
8
  0
DICTIONARYVAR
  5
7051
102
{ACAD_REACTORS
330
37
102
}
330
37
100
DictionaryVariables
280
     0
  1
1
  0
DICTIONARYVAR
  5
AB30
102
{ACAD_REACTORS
330
37
102
}
330
37
100
DictionaryVariables
280
     0
  1
0
  0
DICTIONARYVAR
  5
704F
102
{ACAD_REACTORS
330
37
102
}
330
37
100
DictionaryVariables
280
     0
  1
8
  0
DICTIONARYVAR
  5
7050
102
{ACAD_REACTORS
330
37
102
}
330
37
100
DictionaryVariables
280
     0
  1
2
  0
DICTIONARYVAR
  5
1CF
102
{ACAD_REACTORS
330
37
102
}
330
37
100
DictionaryVariables
280
     0
  1

  0
DICTIONARYVAR
  5
9629
102
{ACAD_REACTORS
330
37
102
}
330
37
100
DictionaryVariables
280
     0
  1
127
  0
DICTIONARYVAR
  5
FBC9
102
{ACAD_REACTORS
330
37
102
}
330
37
100
DictionaryVariables
280
     0
  1
2
  0
DICTIONARY
  5
FF2A
330
9540
100
AcDbDictionary
  3
ACAD_XREC_ROUNDTRIP
360
FF2B
1001
ACAD
1000
TREAT_AS_HARD
1070
     1
  0
DICTIONARY
  5
FF2C
330
9538
100
AcDbDictionary
  3
ACAD_XREC_ROUNDTRIP
360
FF2D
1001
ACAD
1000
TREAT_AS_HARD
1070
     1
  0
DICTIONARY
  5
FF2E
330
9548
100
AcDbDictionary
  3
ACAD_XREC_ROUNDTRIP
360
FF2F
1001
ACAD
1000
TREAT_AS_HARD
1070
     1
  0
XRECORD
  5
FF2B
102
{ACAD_REACTORS
330
FF2A
102
}
330
FF2A
100
AcDbXrecord
102
MATERIAL
148
0.0
149
0.0
149
0.0
 93
        0
 94
      127
282
     0
 72
     0
 77
     0
171
     0
175
     0
179
     0
273
     0
  0
XRECORD
  5
FF2D
102
{ACAD_REACTORS
330
FF2C
102
}
330
FF2C
100
AcDbXrecord
102
MATERIAL
148
0.0
149
0.0
149
0.0
 93
        0
 94
      127
282
     0
 72
     0
 77
     0
171
     0
175
     0
179
     0
273
     0
  0
XRECORD
  5
FF2F
102
{ACAD_REACTORS
330
FF2E
102
}
330
FF2E
100
AcDbXrecord
102
MATERIAL
148
0.0
149
0.0
149
0.0
 93
        0
 94
      127
282
     0
 72
     0
 77
     0
171
     0
175
     0
179
     0
273
     0
  0
ENDSEC
  0
EOF
