  0
SECTION
  2
HEADER
  9
$ACADVER
  1
AC1012
  9
$DWGCODEPAGE
  3
ansi_932
  9
$INSBASE
 10
0.0
 20
0.0
 30
0.0
  9
$EXTMIN
 10
1916.441508346599
 20
-723.3776782739054
 30
0.0
  9
$EXTMAX
 10
2547.307072007641
 20
-300.3888518482426
 30
0.0000000000023235
  9
$LIMMIN
 10
0.0
 20
0.0
  9
$LIMMAX
 10
420.0
 20
297.0
  9
$ORTHOMODE
 70
     0
  9
$REGENMODE
 70
     1
  9
$FILLMODE
 70
     1
  9
$QTEXTMODE
 70
     0
  9
$MIRRTEXT
 70
     0
  9
$DRAGMODE
 70
     2
  9
$LTSCALE
 40
0.5
  9
$OSMODE
 70
 14463
  9
$ATTMODE
 70
     1
  9
$TEXTSIZE
 40
4.0
  9
$TRACEWID
 40
1.0
  9
$TEXTSTYLE
  7
STANDARD
  9
$CLAYER
  8
1TEXT
  9
$CELTYPE
  6
BYLAYER
  9
$CECOLOR
 62
   256
  9
$CELTSCALE
 40
1.0
  9
$DELOBJ
 70
     1
  9
$DISPSILH
 70
     0
  9
$DIMSCALE
 40
1.0
  9
$DIMASZ
 40
2.0
  9
$DIMEXO
 40
0.0
  9
$DIMDLI
 40
7.0
  9
$DIMRND
 40
0.0
  9
$DIMDLE
 40
0.0
  9
$DIMEXE
 40
1.0
  9
$DIMTP
 40
0.0
  9
$DIMTM
 40
0.0
  9
$DIMTXT
 40
3.5
  9
$DIMCEN
 40
0.0
  9
$DIMTSZ
 40
0.0
  9
$DIMTOL
 70
     0
  9
$DIMLIM
 70
     0
  9
$DIMTIH
 70
     0
  9
$DIMTOH
 70
     0
  9
$DIMSE1
 70
     0
  9
$DIMSE2
 70
     0
  9
$DIMTAD
 70
     1
  9
$DIMZIN
 70
     8
  9
$DIMBLK
  1

  9
$DIMASO
 70
     1
  9
$DIMSHO
 70
     1
  9
$DIMPOST
  1
 
  9
$DIMAPOST
  1

  9
$DIMALT
 70
     0
  9
$DIMALTD
 70
     2
  9
$DIMALTF
 40
25.4
  9
$DIMLFAC
 40
1.0
  9
$DIMTOFL
 70
     1
  9
$DIMTVP
 40
0.0
  9
$DIMTIX
 70
     0
  9
$DIMSOXD
 70
     0
  9
$DIMSAH
 70
     1
  9
$DIMBLK1
  1
OPEN30
  9
$DIMBLK2
  1
OPEN30
  9
$DIMSTYLE
  2
NEWX10
  9
$DIMCLRD
 70
   256
  9
$DIMCLRE
 70
   256
  9
$DIMCLRT
 70
   201
  9
$DIMTFAC
 40
0.7
  9
$DIMGAP
 40
0.7
  9
$DIMJUST
 70
     0
  9
$DIMSD1
 70
     0
  9
$DIMSD2
 70
     0
  9
$DIMTOLJ
 70
     1
  9
$DIMTZIN
 70
     8
  9
$DIMALTZ
 70
     0
  9
$DIMALTTZ
 70
     0
  9
$DIMFIT
 70
     3
  9
$DIMUPT
 70
     0
  9
$DIMUNIT
 70
     2
  9
$DIMDEC
 70
     2
  9
$DIMTDEC
 70
     4
  9
$DIMALTU
 70
     2
  9
$DIMALTTD
 70
     2
  9
$DIMTXSTY
  7
STANDARD
  9
$DIMAUNIT
 70
     0
  9
$LUNITS
 70
     2
  9
$LUPREC
 70
     4
  9
$SKETCHINC
 40
1.0
  9
$FILLETRAD
 40
0.0
  9
$AUNITS
 70
     0
  9
$AUPREC
 70
     2
  9
$MENU
  1
acad
  9
$ELEVATION
 40
0.0
  9
$PELEVATION
 40
0.0
  9
$THICKNESS
 40
0.0
  9
$LIMCHECK
 70
     0
  9
$CHAMFERA
 40
10.0
  9
$CHAMFERB
 40
10.0
  9
$CHAMFERC
 40
20.0
  9
$CHAMFERD
 40
0.0
  9
$SKPOLY
 70
     0
  9
$TDCREATE
 40
2451318.621352917
  9
$TDUPDATE
 40
2458159.548244213
  9
$TDINDWG
 40
1.6455118634
  9
$TDUSRTIMER
 40
1.6455118634
  9
$USRTIMER
 70
     1
  9
$ANGBASE
 50
0.0
  9
$ANGDIR
 70
     0
  9
$PDMODE
 70
     0
  9
$PDSIZE
 40
0.0
  9
$PLINEWID
 40
0.0
  9
$COORDS
 70
     2
  9
$SPLFRAME
 70
     0
  9
$SPLINETYPE
 70
     6
  9
$SPLINESEGS
 70
     8
  9
$ATTDIA
 70
     0
  9
$ATTREQ
 70
     1
  9
$HANDLING
 70
     1
  9
$HANDSEED
  5
1B11D
  9
$SURFTAB1
 70
     6
  9
$SURFTAB2
 70
     6
  9
$SURFTYPE
 70
     6
  9
$SURFU
 70
     6
  9
$SURFV
 70
     6
  9
$UCSNAME
  2

  9
$UCSORG
 10
0.0
 20
0.0
 30
0.0
  9
$UCSXDIR
 10
1.0
 20
0.0
 30
0.0
  9
$UCSYDIR
 10
0.0
 20
1.0
 30
0.0
  9
$PUCSNAME
  2

  9
$PUCSORG
 10
0.0
 20
0.0
 30
0.0
  9
$PUCSXDIR
 10
1.0
 20
0.0
 30
0.0
  9
$PUCSYDIR
 10
0.0
 20
1.0
 30
0.0
  9
$USERI1
 70
     0
  9
$USERI2
 70
     0
  9
$USERI3
 70
     0
  9
$USERI4
 70
     0
  9
$USERI5
 70
     0
  9
$USERR1
 40
0.0
  9
$USERR2
 40
0.0
  9
$USERR3
 40
0.0
  9
$USERR4
 40
0.0
  9
$USERR5
 40
0.0
  9
$WORLDVIEW
 70
     1
  9
$SHADEDGE
 70
     3
  9
$SHADEDIF
 70
    70
  9
$TILEMODE
 70
     1
  9
$MAXACTVP
 70
    48
  9
$PINSBASE
 10
0.0
 20
0.0
 30
0.0
  9
$PLIMCHECK
 70
     0
  9
$PEXTMIN
 10
1.000000000000000E+20
 20
1.000000000000000E+20
 30
1.000000000000000E+20
  9
$PEXTMAX
 10
-1.000000000000000E+20
 20
-1.000000000000000E+20
 30
-1.000000000000000E+20
  9
$PLIMMIN
 10
0.0
 20
0.0
  9
$PLIMMAX
 10
420.0
 20
297.0
  9
$UNITMODE
 70
     0
  9
$VISRETAIN
 70
     1
  9
$PLINEGEN
 70
     0
  9
$PSLTSCALE
 70
     1
  9
$TREEDEPTH
 70
  3020
  9
$PICKSTYLE
 70
     1
  9
$CMLSTYLE
  2
STANDARD
  9
$CMLJUST
 70
     0
  9
$CMLSCALE
 40
20.0
  9
$SAVEIMAGES
 70
     1
  0
ENDSEC
  0
SECTION
  2
CLASSES
  0
CLASS
  1
DICTIONARYVAR
  2
AcDbDictionaryVar
  3
ObjectDBX Classes
 90
        0
280
     0
281
     0
  0
CLASS
  1
IDBUFFER
  2
AcDbIdBuffer
  3
ObjectDBX Classes
 90
    32768
280
     0
281
     0
  0
CLASS
  1
LWPOLYLINE
  2
AcDbPolyline
  3
ObjectDBX Classes
 90
    32768
280
     0
281
     1
  0
CLASS
  1
ACDBDICTIONARYWDFLT
  2
AcDbDictionaryWithDefault
  3
ObjectDBX Classes
 90
    32768
280
     0
281
     0
  0
CLASS
  1
ACDBPLACEHOLDER
  2
AcDbPlaceHolder
  3
ObjectDBX Classes
 90
        0
280
     0
281
     0
  0
CLASS
  1
LAYOUT
  2
AcDbLayout
  3
ObjectDBX Classes
 90
        0
280
     0
281
     0
  0
CLASS
  1
TABLESTYLE
  2
AcDbTableStyle
  3
ObjectDBX Classes
 90
     4095
280
     0
281
     0
  0
CLASS
  1
SORTENTSTABLE
  2
AcDbSortentsTable
  3
ObjectDBX Classes
 90
    32768
280
     0
281
     0
  0
CLASS
  1
MATERIAL
  2
AcDbMaterial
  3
ObjectDBX Classes
 90
     1153
280
     0
281
     0
  0
CLASS
  1
VISUALSTYLE
  2
AcDbVisualStyle
  3
ObjectDBX Classes
 90
     4095
280
     0
281
     0
  0
CLASS
  1
SCALE
  2
AcDbScale
  3
ObjectDBX Classes
 90
     1153
280
     0
281
     0
  0
CLASS
  1
MLEADERSTYLE
  2
AcDbMLeaderStyle
  3
ACDB_MLEADERSTYLE_CLASS
 90
     4095
280
     0
281
     0
  0
CLASS
  1
CELLSTYLEMAP
  2
AcDbCellStyleMap
  3
ObjectDBX Classes
 90
     1152
280
     0
281
     0
  0
CLASS
  1
SUN
  2
AcDbSun
  3
SCENEOE
 90
     1153
280
     0
281
     0
  0
CLASS
  1
XRECORD
  2
AcDbXrecord
  3
ObjectDBX Classes
 90
    32768
280
     0
281
     0
  0
CLASS
  1
HATCH
  2
AcDbHatch
  3
ObjectDBX Classes
 90
    32768
280
     0
281
     1
  0
ENDSEC
  0
SECTION
  2
TABLES
  0
TABLE
  2
VPORT
  5
8
330
0
100
AcDbSymbolTable
 70
     1
  0
VPORT
  5
D991
330
8
100
AcDbSymbolTableRecord
100
AcDbViewportTableRecord
  2
*ACTIVE
 70
     0
 10
0.0
 20
0.0
 11
1.0
 21
1.0
 12
2231.87429017712
 22
-511.883265061074
 13
0.0
 23
0.0
 14
10.0
 24
10.0
 15
10.0
 25
10.0
 16
0.0
 26
0.0
 36
1.0
 17
0.0
 27
0.0
 37
0.0
 40
454.1564241622908
 41
1.871481028151775
 42
50.0
 43
0.0
 44
0.0
 50
0.0
 51
0.0
 71
    16
 72
   100
 73
     1
 74
     1
 75
     0
 76
     0
 77
     0
 78
     0
  0
ENDTAB
  0
TABLE
  2
LTYPE
  5
5
330
0
100
AcDbSymbolTable
 70
     3
  0
LTYPE
  5
12
330
5
100
AcDbSymbolTableRecord
100
AcDbLinetypeTableRecord
  2
BYBLOCK
 70
     0
  3

 72
    65
 73
     0
 40
0.0
  0
LTYPE
  5
13
330
5
100
AcDbSymbolTableRecord
100
AcDbLinetypeTableRecord
  2
BYLAYER
 70
     0
  3

 72
    65
 73
     0
 40
0.0
  0
LTYPE
  5
14
330
5
100
AcDbSymbolTableRecord
100
AcDbLinetypeTableRecord
  2
CONTINUOUS
 70
     0
  3
Solid line
 72
    65
 73
     0
 40
0.0
  0
LTYPE
  5
2C03
330
5
100
AcDbSymbolTableRecord
100
AcDbLinetypeTableRecord
  2
HIDDEN
 70
     0
  3
Hidden __ __ __ __ __ __ __ __ __ __ __ __ __ _
 72
    65
 73
     2
 40
9.524999999999999
 49
6.35
 74
     0
 49
-3.175
 74
     0
  0
LTYPE
  5
13839
330
5
100
AcDbSymbolTableRecord
100
AcDbLinetypeTableRecord
  2
CENTER2
 70
     0
  3
Center (.5x) ___ _ ___ _ ___ _ ___ _ ___ _ ___
 72
    65
 73
     4
 40
28.575
 49
19.05
 74
     0
 49
-3.175
 74
     0
 49
3.175
 74
     0
 49
-3.175
 74
     0
  0
ENDTAB
  0
TABLE
  2
LAYER
  5
2
102
{ACAD_XDICTIONARY
360
E6A6
102
}
330
0
100
AcDbSymbolTable
 70
     6
  0
LAYER
  5
E
102
{ACAD_XDICTIONARY
360
DA05
102
}
330
2
100
AcDbSymbolTableRecord
100
AcDbLayerTableRecord
  2
0
 70
     0
 62
     7
  6
CONTINUOUS
  0
LAYER
  5
29
102
{ACAD_XDICTIONARY
360
DA07
102
}
330
2
100
AcDbSymbolTableRecord
100
AcDbLayerTableRecord
  2
1CENTER
 70
     0
 62
     7
  6
CENTER2
  0
LAYER
  5
31
102
{ACAD_XDICTIONARY
360
DA09
102
}
330
2
100
AcDbSymbolTableRecord
100
AcDbLayerTableRecord
  2
1TEXT
 70
     0
 62
     7
  6
CONTINUOUS
  0
LAYER
  5
243
102
{ACAD_XDICTIONARY
360
DA0F
102
}
330
2
100
AcDbSymbolTableRecord
100
AcDbLayerTableRecord
  2
01
 70
     0
 62
     1
  6
CONTINUOUS
  0
LAYER
  5
24E
102
{ACAD_XDICTIONARY
360
DA15
102
}
330
2
100
AcDbSymbolTableRecord
100
AcDbLayerTableRecord
  2
1DIM
 70
     0
 62
     7
  6
CONTINUOUS
  0
LAYER
  5
2C05
102
{ACAD_XDICTIONARY
360
DA23
102
}
330
2
100
AcDbSymbolTableRecord
100
AcDbLayerTableRecord
  2
1HIDDEN
 70
     0
 62
     7
  6
HIDDEN
  0
ENDTAB
  0
TABLE
  2
STYLE
  5
3
330
0
100
AcDbSymbolTable
 70
     1
  0
STYLE
  5
F
330
3
100
AcDbSymbolTableRecord
100
AcDbTextStyleTableRecord
  2
STANDARD
 70
     0
 40
0.0
 41
1.0
 50
0.0
 71
     0
 42
4.0
  3
txt.shx
  4
extfont.shx
  0
ENDTAB
  0
TABLE
  2
VIEW
  5
6
330
0
100
AcDbSymbolTable
 70
     0
  0
ENDTAB
  0
TABLE
  2
UCS
  5
7
330
0
100
AcDbSymbolTable
 70
     5
  0
UCS
  5
1A790
330
7
100
AcDbSymbolTableRecord
100
AcDbUCSTableRecord
  2
U
 70
     0
 10
0.0
 20
0.0
 30
0.0
 11
1.0
 21
0.0
 31
0.0
 12
0.0
 22
2.220446049250313E-16
 32
1.0
 79
     0
146
0.0
  0
UCS
  5
1A791
330
7
100
AcDbSymbolTableRecord
100
AcDbUCSTableRecord
  2
L
 70
     0
 10
0.0
 20
0.0
 30
0.0
 11
-2.220446049250313E-16
 21
-1.0
 31
2.220446049250313E-16
 12
0.0
 22
2.220446049250313E-16
 32
1.0
 79
     0
146
0.0
  0
UCS
  5
1A792
330
7
100
AcDbSymbolTableRecord
100
AcDbUCSTableRecord
  2
R
 70
     0
 10
0.0
 20
0.0
 30
0.0
 11
3.445052403072690E-16
 21
1.0
 31
-2.220446049250313E-16
 12
0.0
 22
2.220446049250313E-16
 32
1.0
 79
     0
146
0.0
  0
UCS
  5
1A793
330
7
100
AcDbSymbolTableRecord
100
AcDbUCSTableRecord
  2
ISOME
 70
     0
 10
0.0
 20
0.0
 30
0.0
 11
0.7071450863198264
 21
-0.7070684729403536
 31
-3.830824619477369E-5
 12
0.4082704059428736
 22
0.408270407740115
 32
0.8164744636514737
 79
     0
146
0.0
  0
UCS
  5
1A794
330
7
100
AcDbSymbolTableRecord
100
AcDbUCSTableRecord
  2
PERSPECTIVE
 70
     0
 10
0.0
 20
0.0
 30
0.0
 11
0.8191477691768962
 21
-0.5735823260466402
 31
-0.0004974931557765183
 12
0.1584844715982971
 22
0.225502028986108
 32
0.961265575782966
 79
     0
146
0.0
  0
ENDTAB
  0
TABLE
  2
APPID
  5
9
330
0
100
AcDbSymbolTable
 70
    13
  0
APPID
  5
10
330
9
100
AcDbSymbolTableRecord
100
AcDbRegAppTableRecord
  2
ACAD
 70
     0
  0
APPID
  5
21
330
9
100
AcDbSymbolTableRecord
100
AcDbRegAppTableRecord
  2
DRAWINGVARIABLESXDATA
 70
     0
  0
APPID
  5
64
330
9
100
AcDbSymbolTableRecord
100
AcDbRegAppTableRecord
  2
CONTENTTABDATA
 70
     0
  0
APPID
  5
65
330
9
100
AcDbSymbolTableRecord
100
AcDbRegAppTableRecord
  2
CONTENTCURRENTTAB
 70
     0
  0
APPID
  5
66
330
9
100
AcDbSymbolTableRecord
100
AcDbRegAppTableRecord
  2
CONTENTBLOCKDESCRIPTION
 70
     0
  0
APPID
  5
67
330
9
100
AcDbSymbolTableRecord
100
AcDbRegAppTableRecord
  2
CONTENTBLOCKICON
 70
     0
  0
APPID
  5
68
330
9
100
AcDbSymbolTableRecord
100
AcDbRegAppTableRecord
  2
CONTENTLONGBLOCKNAME
 70
     0
  0
APPID
  5
2AE
330
9
100
AcDbSymbolTableRecord
100
AcDbRegAppTableRecord
  2
ACAD_PSEXT
 70
     0
  0
APPID
  5
D9E9
330
9
100
AcDbSymbolTableRecord
100
AcDbRegAppTableRecord
  2
ACAD_MLEADERVER
 70
     0
  0
APPID
  5
19D01
330
9
100
AcDbSymbolTableRecord
100
AcDbRegAppTableRecord
  2
ACADANNOTATIVE
 70
     0
  0
APPID
  5
19D02
330
9
100
AcDbSymbolTableRecord
100
AcDbRegAppTableRecord
  2
ACDBBLOCKREPETAG
 70
     0
  0
APPID
  5
1A67E
330
9
100
AcDbSymbolTableRecord
100
AcDbRegAppTableRecord
  2
ACAD_OBJECT_CHANGE_GUID
 70
     0
  0
APPID
  5
1A858
330
9
100
AcDbSymbolTableRecord
100
AcDbRegAppTableRecord
  2
ACAECLAYERSTANDARD
 70
     0
  0
ENDTAB
  0
TABLE
  2
DIMSTYLE
  5
A
330
0
100
AcDbSymbolTable
 70
     1
  0
DIMSTYLE
105
48
330
A
100
AcDbSymbolTableRecord
100
AcDbDimStyleTableRecord
  2
NEWX10
 70
     0
  3
 
  4

  5

  6
OPEN30
  7
OPEN30
 40
1.0
 41
2.0
 42
0.0
 43
7.0
 44
1.0
 45
0.0
 46
0.0
 47
0.0
 48
0.0
140
3.5
141
0.0
142
0.0
143
25.4
144
1.0
145
0.0
146
0.7
147
0.7
 71
     0
 72
     0
 73
     0
 74
     0
 75
     0
 76
     0
 77
     1
 78
     8
170
     0
171
     2
172
     1
173
     1
174
     0
175
     0
176
   256
177
   256
178
   201
179
     1
270
     2
271
     2
272
     4
273
     2
274
     2
340
F
275
     0
280
     0
281
     0
282
     0
283
     1
284
     8
285
     0
286
     0
287
     3
288
     0
  0
ENDTAB
  0
TABLE
  2
BLOCK_RECORD
  5
1
330
0
100
AcDbSymbolTable
 70
     8
  0
BLOCK_RECORD
  5
18
102
{ACAD_XDICTIONARY
360
88F
102
}
330
1
100
AcDbSymbolTableRecord
100
AcDbBlockTableRecord
  2
*MODEL_SPACE
  0
BLOCK_RECORD
  5
15
330
1
100
AcDbSymbolTableRecord
100
AcDbBlockTableRecord
  2
*PAPER_SPACE
  0
BLOCK_RECORD
  5
42
330
1
100
AcDbSymbolTableRecord
100
AcDbBlockTableRecord
  2
_OPEN30
  0
BLOCK_RECORD
  5
19D51
330
1
100
AcDbSymbolTableRecord
100
AcDbBlockTableRecord
  2
A3WAKUKAWAJUN2017_HYOUDAI_
  0
BLOCK_RECORD
  5
1AF7D
330
1
100
AcDbSymbolTableRecord
100
AcDbBlockTableRecord
  2
*X50
  0
BLOCK_RECORD
  5
1AFCB
330
1
100
AcDbSymbolTableRecord
100
AcDbBlockTableRecord
  2
*X51
  0
BLOCK_RECORD
  5
1B01D
330
1
100
AcDbSymbolTableRecord
100
AcDbBlockTableRecord
  2
*X52
  0
BLOCK_RECORD
  5
1B06E
330
1
100
AcDbSymbolTableRecord
100
AcDbBlockTableRecord
  2
*X53
  0
BLOCK_RECORD
  5
1B0AB
330
1
100
AcDbSymbolTableRecord
100
AcDbBlockTableRecord
  2
*X54
  0
BLOCK_RECORD
  5
1B0EB
330
1
100
AcDbSymbolTableRecord
100
AcDbBlockTableRecord
  2
*X55
  0
ENDTAB
  0
ENDSEC
  0
SECTION
  2
BLOCKS
  0
BLOCK
  5
19
330
18
100
AcDbEntity
  8
0
100
AcDbBlockBegin
  2
*MODEL_SPACE
 70
     0
 10
0.0
 20
0.0
 30
0.0
  3
*MODEL_SPACE
  1

  0
ENDBLK
  5
1A
330
18
100
AcDbEntity
  8
0
100
AcDbBlockEnd
  0
BLOCK
  5
16
330
15
100
AcDbEntity
 67
     1
  8
0
100
AcDbBlockBegin
  2
*PAPER_SPACE
 70
     0
 10
0.0
 20
0.0
 30
0.0
  3
*PAPER_SPACE
  1

  0
ENDBLK
  5
17
330
15
100
AcDbEntity
 67
     1
  8
0
100
AcDbBlockEnd
  0
BLOCK
  5
43
330
42
100
AcDbEntity
  8
0
100
AcDbBlockBegin
  2
_OPEN30
 70
     0
 10
0.0
 20
0.0
 30
0.0
  3
_OPEN30
  1

  0
LINE
  5
44
330
42
100
AcDbEntity
  8
0
  6
BYBLOCK
 62
     0
100
AcDbLine
 10
-1.0
 20
0.26794919
 30
0.0
 11
0.0
 21
0.0
 31
0.0
  0
LINE
  5
45
330
42
100
AcDbEntity
  8
0
  6
BYBLOCK
 62
     0
100
AcDbLine
 10
0.0
 20
0.0
 30
0.0
 11
-1.0
 21
-0.26794919
 31
0.0
  0
LINE
  5
46
330
42
100
AcDbEntity
  8
0
  6
BYBLOCK
 62
     0
100
AcDbLine
 10
0.0
 20
0.0
 30
0.0
 11
-1.0
 21
0.0
 31
0.0
  0
ENDBLK
  5
47
330
42
100
AcDbEntity
  8
0
100
AcDbBlockEnd
  0
BLOCK
  5
1A474
330
19D51
100
AcDbEntity
  8
0
100
AcDbBlockBegin
  2
A3WAKUKAWAJUN2017_HYOUDAI_
 70
     0
 10
0.0
 20
0.0
 30
0.0
  3
A3WAKUKAWAJUN2017_HYOUDAI_
  1

  0
LINE
  5
19D53
330
19D51
100
AcDbEntity
  8
0
100
AcDbLine
 10
13.26299999998673
 20
-0.0001000000000317
 30
0.0
 11
9.236999999990758
 21
8.999899999990987
 31
0.0
1001
ACAD
1000
ASC_BOUNDS
1002
{
1070
    19
1005
19D94
1002
}
  0
LINE
  5
19D54
330
19D51
100
AcDbEntity
  8
0
100
AcDbLine
 10
5.657999999994331
 20
0.9999999999989768
 30
0.0
 11
9.236999999990758
 21
8.999999999991019
 31
0.0
1001
ACAD
1000
ASC_BOUNDS
1002
{
1070
    19
1005
19D94
1002
}
  0
LINE
  5
19D55
330
19D51
100
AcDbEntity
  8
0
100
AcDbLine
 10
18.59199999998134
 20
-0.2368999999997641
 30
0.0
 11
16.46099999998353
 21
5.432899999994561
 31
0.0
1001
ACAD
1000
ASC_BOUNDS
1002
{
1070
    19
1005
19D95
1002
}
  0
LINE
  5
19D56
330
19D51
100
AcDbEntity
  8
0
100
AcDbLine
 10
18.59199999998134
 20
-0.2368999999997641
 30
0.0
 11
22.38199999997767
 21
8.763099999991255
 31
0.0
1001
ACAD
1000
ASC_BOUNDS
1002
{
1070
    19
1005
19D95
1002
}
  0
LINE
  5
19D57
330
19D51
100
AcDbEntity
  8
0
100
AcDbLine
 10
14.32899999998563
 20
-0.2368999999997641
 30
0.0
 11
16.46099999998353
 21
5.432899999994561
 31
0.0
1001
ACAD
1000
ASC_BOUNDS
1002
{
1070
    19
1005
19D95
1002
}
  0
LINE
  5
19D58
330
19D51
100
AcDbEntity
  8
0
100
AcDbLine
 10
14.32899999998563
 20
-0.2368999999997641
 30
0.0
 11
10.53899999998941
 21
8.763099999991255
 31
0.0
1001
ACAD
1000
ASC_BOUNDS
1002
{
1070
    19
1005
19D95
1002
}
  0
LINE
  5
19D59
330
19D51
100
AcDbEntity
  8
0
100
AcDbLine
 10
19.53899999998043
 20
-0.0001000000000317
 30
0.0
 11
23.56599999997638
 21
8.999899999990987
 31
0.0
1001
ACAD
1000
ASC_BOUNDS
1002
{
1070
    19
1005
19D96
1002
}
  0
LINE
  5
19D5A
330
19D51
100
AcDbEntity
  8
0
100
AcDbLine
 10
26.97358892824991
 20
1.383099999991202
 30
0.0
 11
23.56599999997638
 21
8.999899999990987
 31
0.0
1001
ACAD
1000
ASC_BOUNDS
1002
{
1070
    19
1005
19D96
1002
}
  0
LINE
  5
19D5B
330
19D51
100
AcDbEntity
  8
0
100
AcDbLine
 10
5.657999999994331
 20
0.9999999999989768
 30
0.0
 11
3.181999999996833
 21
4.668599999995308
 31
0.0
1001
ACAD
1000
ASC_BOUNDS
1002
{
1070
    19
1005
19D94
1002
}
  0
LINE
  5
19D5C
330
19D51
100
AcDbEntity
  8
0
100
AcDbLine
 10
4.617999999995391
 20
-0.0001000000000317
 30
0.0
 11
1.420999999998571
 21
4.736799999995242
 31
0.0
1001
ACAD
1000
ASC_BOUNDS
1002
{
1070
    19
1005
19D94
1002
}
  0
LINE
  5
19D5D
330
19D51
100
AcDbEntity
  8
0
100
AcDbLine
 10
1.420999999998571
 20
8.763099999991255
 30
0.0
 11
1.420999999998571
 21
0.0
 31
0.0
1001
ACAD
1000
ASC_BOUNDS
1002
{
1070
    19
1005
19D99
1002
}
  0
LINE
  5
19D5E
330
19D51
100
AcDbEntity
  8
0
100
AcDbLine
 10
0.0
 20
8.763099999991255
 30
0.0
 11
0.0
 21
0.0
 31
0.0
1001
ACAD
1000
ASC_BOUNDS
1002
{
1070
    19
1005
19D99
1002
}
  0
LINE
  5
19D5F
330
19D51
100
AcDbEntity
  8
0
100
AcDbLine
 10
6.766999999993232
 20
-0.0001000000000317
 30
0.0
 11
7.826999999992154
 21
2.368399999997621
 31
0.0
1001
ACAD
1000
ASC_BOUNDS
1002
{
1070
    19
1005
19D94
1002
}
  0
LINE
  5
19D60
330
19D51
100
AcDbEntity
  8
0
100
AcDbLine
 10
0.0
 20
0.0
 30
0.0
 11
1.420999999998571
 21
0.0
 31
0.0
1001
ACAD
1000
ASC_BOUNDS
1002
{
1070
    19
1005
19D99
1002
}
  0
LINE
  5
19D61
330
19D51
100
AcDbEntity
  8
0
100
AcDbLine
 10
4.617999999995391
 20
0.0
 30
0.0
 11
6.766999999993232
 21
0.0
 31
0.0
1001
ACAD
1000
ASC_BOUNDS
1002
{
1070
    19
1005
19D94
1002
}
  0
LINE
  5
19D62
330
19D51
100
AcDbEntity
  8
0
100
AcDbLine
 10
11.70599999998831
 20
-0.0001000000000317
 30
0.0
 11
10.64699999998936
 21
2.368399999997621
 31
0.0
1001
ACAD
1000
ASC_BOUNDS
1002
{
1070
    19
1005
19D94
1002
}
  0
LINE
  5
19D63
330
19D51
100
AcDbEntity
  8
0
100
AcDbLine
 10
7.826999999992154
 20
2.368399999997621
 30
0.0
 11
10.64699999998936
 21
2.368399999997621
 31
0.0
1001
ACAD
1000
ASC_BOUNDS
1002
{
1070
    19
1005
19D94
1002
}
  0
LINE
  5
19D64
330
19D51
100
AcDbEntity
  8
0
100
AcDbLine
 10
11.70599999998831
 20
0.0
 30
0.0
 11
13.26299999998673
 21
0.0
 31
0.0
1001
ACAD
1000
ASC_BOUNDS
1002
{
1070
    19
1005
19D94
1002
}
  0
LINE
  5
19D65
330
19D51
100
AcDbEntity
  8
0
100
AcDbLine
 10
22.15599999997789
 20
2.368399999997621
 30
0.0
 11
24.97599999997499
 21
2.368399999997621
 31
0.0
1001
ACAD
1000
ASC_BOUNDS
1002
{
1070
    19
1005
19D96
1002
}
  0
LINE
  5
19D66
330
19D51
100
AcDbEntity
  8
0
100
AcDbLine
 10
19.53899999998043
 20
0.0
 30
0.0
 11
21.09599999997886
 21
0.0
 31
0.0
1001
ACAD
1000
ASC_BOUNDS
1002
{
1070
    19
1005
19D96
1002
}
  0
LINE
  5
19D67
330
19D51
100
AcDbEntity
  8
0
100
AcDbLine
 10
21.09599999997886
 20
-0.0001000000000317
 30
0.0
 11
22.15599999997789
 21
2.368399999997621
 31
0.0
1001
ACAD
1000
ASC_BOUNDS
1002
{
1070
    19
1005
19D96
1002
}
  0
LINE
  5
19D68
330
19D51
100
AcDbEntity
  8
0
100
AcDbLine
 10
26.02015566812236
 20
0.0330999999912365
 30
0.0
 11
24.97599999997499
 21
2.368399999997621
 31
0.0
1001
ACAD
1000
ASC_BOUNDS
1002
{
1070
    19
1005
19D96
1002
}
  0
LINE
  5
19D69
330
19D51
100
AcDbEntity
  8
0
100
AcDbLine
 10
14.32399999998563
 20
3.315799999996671
 30
0.0
 11
16.46099999998353
 21
8.999899999990987
 31
0.0
1001
ACAD
1000
ASC_BOUNDS
1002
{
1070
    19
1005
19D95
1002
}
  0
LINE
  5
19D6A
330
19D51
100
AcDbEntity
  8
0
100
AcDbLine
 10
6.432999999993513
 20
8.763099999991255
 30
0.0
 11
3.181999999996833
 21
4.668599999995308
 31
0.0
1001
ACAD
1000
ASC_BOUNDS
1002
{
1070
    19
1005
19D94
1002
}
  0
LINE
  5
19D6B
330
19D51
100
AcDbEntity
  8
0
100
AcDbLine
 10
4.617999999995391
 20
8.763099999991255
 30
0.0
 11
1.420999999998571
 21
4.736799999995242
 31
0.0
1001
ACAD
1000
ASC_BOUNDS
1002
{
1070
    19
1005
19D94
1002
}
  0
LINE
  5
19D6C
330
19D51
100
AcDbEntity
  8
0
100
AcDbLine
 10
0.0
 20
8.763099999991255
 30
0.0
 11
1.420999999998571
 21
8.763099999991255
 31
0.0
1001
ACAD
1000
ASC_BOUNDS
1002
{
1070
    19
1005
19D99
1002
}
  0
LINE
  5
19D6D
330
19D51
100
AcDbEntity
  8
0
100
AcDbLine
 10
4.617999999995391
 20
8.763099999991255
 30
0.0
 11
6.432999999993513
 21
8.763099999991255
 31
0.0
1001
ACAD
1000
ASC_BOUNDS
1002
{
1070
    19
1005
19D94
1002
}
  0
LINE
  5
19D6E
330
19D51
100
AcDbEntity
  8
0
100
AcDbLine
 10
14.32399999998563
 20
3.315799999996671
 30
0.0
 11
12.02999999998792
 21
8.763099999991255
 31
0.0
1001
ACAD
1000
ASC_BOUNDS
1002
{
1070
    19
1005
19D95
1002
}
  0
LINE
  5
19D6F
330
19D51
100
AcDbEntity
  8
0
100
AcDbLine
 10
10.06399999998996
 20
3.670999999996297
 30
0.0
 11
9.236999999990758
 21
5.5200999999945
 31
0.0
1001
ACAD
1000
ASC_BOUNDS
1002
{
1070
    19
1005
19D94
1002
}
  0
LINE
  5
19D70
330
19D51
100
AcDbEntity
  8
0
100
AcDbLine
 10
8.409999999991555
 20
3.670999999996297
 30
0.0
 11
9.236999999990758
 21
5.5200999999945
 31
0.0
1001
ACAD
1000
ASC_BOUNDS
1002
{
1070
    19
1005
19D94
1002
}
  0
LINE
  5
19D71
330
19D51
100
AcDbEntity
  8
0
100
AcDbLine
 10
8.409999999991555
 20
3.670999999996297
 30
0.0
 11
10.06399999998996
 21
3.670999999996297
 31
0.0
1001
ACAD
1000
ASC_BOUNDS
1002
{
1070
    19
1005
19D94
1002
}
  0
LINE
  5
19D72
330
19D51
100
AcDbEntity
  8
0
100
AcDbLine
 10
10.53899999998941
 20
8.763099999991255
 30
0.0
 11
12.02999999998792
 21
8.763099999991255
 31
0.0
1001
ACAD
1000
ASC_BOUNDS
1002
{
1070
    19
1005
19D95
1002
}
  0
LINE
  5
19D73
330
19D51
100
AcDbEntity
  8
0
100
AcDbLine
 10
22.7389999999773
 20
3.670999999996297
 30
0.0
 11
23.56599999997638
 21
5.5200999999945
 31
0.0
1001
ACAD
1000
ASC_BOUNDS
1002
{
1070
    19
1005
19D96
1002
}
  0
LINE
  5
19D74
330
19D51
100
AcDbEntity
  8
0
100
AcDbLine
 10
22.7389999999773
 20
3.670999999996297
 30
0.0
 11
24.39299999997559
 21
3.670999999996297
 31
0.0
1001
ACAD
1000
ASC_BOUNDS
1002
{
1070
    19
1005
19D96
1002
}
  0
LINE
  5
19D75
330
19D51
100
AcDbEntity
  8
0
100
AcDbLine
 10
18.59799999998143
 20
3.315799999996671
 30
0.0
 11
20.89099999997916
 21
8.763099999991255
 31
0.0
1001
ACAD
1000
ASC_BOUNDS
1002
{
1070
    19
1005
19D95
1002
}
  0
LINE
  5
19D76
330
19D51
100
AcDbEntity
  8
0
100
AcDbLine
 10
18.59799999998143
 20
3.315799999996671
 30
0.0
 11
16.46099999998353
 21
8.999899999990987
 31
0.0
1001
ACAD
1000
ASC_BOUNDS
1002
{
1070
    19
1005
19D95
1002
}
  0
LINE
  5
19D77
330
19D51
100
AcDbEntity
  8
0
100
AcDbLine
 10
20.89099999997916
 20
8.763099999991255
 30
0.0
 11
22.38199999997767
 21
8.763099999991255
 31
0.0
1001
ACAD
1000
ASC_BOUNDS
1002
{
1070
    19
1005
19D95
1002
}
  0
LINE
  5
19D78
330
19D51
100
AcDbEntity
  8
0
100
AcDbLine
 10
24.39299999997559
 20
3.670999999996297
 30
0.0
 11
23.56599999997638
 21
5.5200999999945
 31
0.0
1001
ACAD
1000
ASC_BOUNDS
1002
{
1070
    19
1005
19D96
1002
}
  0
LINE
  5
19D79
330
19D51
100
AcDbEntity
  8
0
100
AcDbLine
 10
44.99999999995498
 20
-0.2368999999997641
 30
0.0
 11
40.02599999995994
 21
5.341799999994635
 31
0.0
1001
ACAD
1000
ASC_BOUNDS
1002
{
1070
    19
1005
19D98
1002
}
  0
LINE
  5
19D7A
330
19D51
100
AcDbEntity
  8
0
100
AcDbLine
 10
40.02599999995994
 20
5.341799999994635
 30
0.0
 11
40.02599999995994
 21
0.0
 31
0.0
1001
ACAD
1000
ASC_BOUNDS
1002
{
1070
    19
1005
19D98
1002
}
  0
LINE
  5
19D7B
330
19D51
100
AcDbEntity
  8
0
100
AcDbLine
 10
38.60499999996136
 20
8.999999999991019
 30
0.0
 11
38.60499999996136
 21
0.0
 31
0.0
1001
ACAD
1000
ASC_BOUNDS
1002
{
1070
    19
1005
19D98
1002
}
  0
LINE
  5
19D7C
330
19D51
100
AcDbEntity
  8
0
100
AcDbLine
 10
44.99999999995498
 20
8.763099999991255
 30
0.0
 11
44.99999999995498
 21
-0.2368999999997641
 31
0.0
1001
ACAD
1000
ASC_BOUNDS
1002
{
1070
    19
1005
19D98
1002
}
  0
LINE
  5
19D7D
330
19D51
100
AcDbEntity
  8
0
100
AcDbLine
 10
38.60499999996136
 20
0.0
 30
0.0
 11
40.02599999995994
 21
0.0
 31
0.0
1001
ACAD
1000
ASC_BOUNDS
1002
{
1070
    19
1005
19D98
1002
}
  0
LINE
  5
19D7E
330
19D51
100
AcDbEntity
  8
0
100
AcDbLine
 10
43.57899999995641
 20
3.421199999996588
 30
0.0
 11
38.60499999996136
 21
8.999899999990987
 31
0.0
1001
ACAD
1000
ASC_BOUNDS
1002
{
1070
    19
1005
19D98
1002
}
  0
LINE
  5
19D7F
330
19D51
100
AcDbEntity
  8
0
100
AcDbLine
 10
43.57899999995641
 20
8.763099999991255
 30
0.0
 11
43.57899999995641
 21
3.421199999996588
 31
0.0
1001
ACAD
1000
ASC_BOUNDS
1002
{
1070
    19
1005
19D98
1002
}
  0
LINE
  5
19D80
330
19D51
100
AcDbEntity
  8
0
100
AcDbLine
 10
43.57899999995641
 20
8.763099999991255
 30
0.0
 11
44.99999999995498
 21
8.763099999991255
 31
0.0
1001
ACAD
1000
ASC_BOUNDS
1002
{
1070
    19
1005
19D98
1002
}
  0
LINE
  5
19D81
330
19D51
100
AcDbEntity
  8
0
100
AcDbLine
 10
37.67199999996831
 20
8.763099999991255
 30
0.0
 11
36.23199999996837
 21
8.763099999991255
 31
0.0
  0
LINE
  5
19D82
330
19D51
100
AcDbEntity
  8
0
100
AcDbLine
 10
31.64199999996833
 20
8.763099999991255
 30
0.0
 11
31.64199999996833
 21
2.481619422925121
 31
0.0
  0
LINE
  5
19D83
330
19D51
100
AcDbEntity
  8
0
100
AcDbLine
 10
37.67199999996831
 20
8.763099999991255
 30
0.0
 11
37.67199999996831
 21
2.481619422925121
 31
0.0
  0
LINE
  5
19D84
330
19D51
100
AcDbEntity
  8
0
100
AcDbLine
 10
36.23199999996837
 20
8.763099999991255
 30
0.0
 11
36.23199999996837
 21
2.481619422925064
 31
0.0
  0
LINE
  5
19D85
330
19D51
100
AcDbEntity
  8
0
100
AcDbLine
 10
33.08199999996839
 20
8.763099999991255
 30
0.0
 11
33.08199999996839
 21
2.481619422925121
 31
0.0
  0
ARC
  5
19D86
330
19D51
100
AcDbEntity
  8
0
100
AcDbCircle
 10
34.65699999996832
 20
3.183099999991214
 30
0.0
 40
3.420000000000007
100
AcDbArc
 50
240.0000000000255
 51
299.9999999999766
  0
ARC
  5
19D87
330
19D51
100
AcDbEntity
  8
0
100
AcDbCircle
 10
34.65699999996832
 20
3.183099999991214
 30
0.0
 40
1.97999999999999
100
AcDbArc
 50
240.000000000026
 51
299.9999999999703
  0
LINE
  5
19D88
330
19D51
100
AcDbEntity
  8
0
100
AcDbLine
 10
33.08199999996828
 20
8.763099999991255
 30
0.0
 11
31.64199999996833
 21
8.763099999991255
 31
0.0
  0
ARC
  5
19D89
330
19D51
100
AcDbEntity
  8
0
100
AcDbCircle
 10
35.06199999996829
 20
2.481619422925064
 30
0.0
 40
1.17
100
AcDbArc
 50
299.9999999999699
 51
0.0
  0
ARC
  5
19D8A
330
19D51
100
AcDbEntity
  8
0
100
AcDbCircle
 10
34.25199999996835
 20
2.481619422925121
 30
0.0
 40
1.17
100
AcDbArc
 50
180.0
 51
240.0000000000238
  0
ARC
  5
19D8B
330
19D51
100
AcDbEntity
  8
0
100
AcDbCircle
 10
35.06199999996841
 20
2.481619422925121
 30
0.0
 40
2.61
100
AcDbArc
 50
299.9999999999756
 51
0.0
  0
ARC
  5
19D8C
330
19D51
100
AcDbEntity
  8
0
100
AcDbCircle
 10
34.25199999996835
 20
2.481619422925121
 30
0.0
 40
2.61
100
AcDbArc
 50
180.0
 51
240.0000000000244
  0
LINE
  5
19D8D
330
19D51
100
AcDbEntity
  8
0
100
AcDbLine
 10
29.30199999996933
 20
8.763099999991255
 30
0.0
 11
30.74199999996927
 21
8.763099999991255
 31
0.0
1001
ACAD
1000
ASC_BOUNDS
1002
{
1070
    19
1005
19D96
1002
}
  0
LINE
  5
19D8E
330
19D51
100
AcDbEntity
  8
0
100
AcDbLine
 10
30.74199999996927
 20
8.763099999991255
 30
0.0
 11
30.74199999996927
 21
2.373099999991211
 31
0.0
1001
ACAD
1000
ASC_BOUNDS
1002
{
1070
    19
1005
19D96
1002
}
  0
LINE
  5
19D8F
330
19D51
100
AcDbEntity
  8
0
100
AcDbLine
 10
26.02015566812236
 20
0.0330999999912365
 30
0.0
 11
28.40199999996923
 21
0.0330999999912365
 31
0.0
1001
ACAD
1000
ASC_BOUNDS
1002
{
1070
    19
1005
19D96
1002
}
  0
LINE
  5
19D90
330
19D51
100
AcDbEntity
  8
0
100
AcDbLine
 10
29.30199999996933
 20
8.763099999991255
 30
0.0
 11
29.30199999996933
 21
2.283099999991236
 31
0.0
1001
ACAD
1000
ASC_BOUNDS
1002
{
1070
    19
1005
19D96
1002
}
  0
LINE
  5
19D91
330
19D51
100
AcDbEntity
  8
0
100
AcDbLine
 10
26.97358892824991
 20
1.383099999991202
 30
0.0
 11
28.40199999996923
 21
1.383099999991202
 31
0.0
1001
ACAD
1000
ASC_BOUNDS
1002
{
1070
    19
1005
19D96
1002
}
  0
ARC
  5
19D92
330
19D51
100
AcDbEntity
  8
0
100
AcDbCircle
 10
28.40199999996923
 20
2.283099999991236
 30
0.0
 40
0.9
100
AcDbArc
 50
270.0
 51
0.0
1001
ACAD
1000
ASC_BOUNDS
1002
{
1070
    19
1005
19D96
1002
}
  0
ARC
  5
19D93
330
19D51
100
AcDbEntity
  8
0
100
AcDbCircle
 10
28.40199999996923
 20
2.373099999991211
 30
0.0
 40
2.34
100
AcDbArc
 50
270.0
 51
0.0
1001
ACAD
1000
ASC_BOUNDS
1002
{
1070
    19
1005
19D96
1002
}
  0
INSERT
  5
19D94
330
19D51
100
AcDbEntity
  8
0
100
AcDbBlockReference
  2
*X50
 10
0.0
 20
0.0
 30
0.0
1001
ACAD
1000
HATCH
1002
{
1070
    19
1000
ANSI37
1040
0.15
1040
0.0
1000
ASC_BOUNDS
1070
     2
1070
     2
1070
    12
1005
19D53
1005
19D54
1005
19D5B
1005
19D6A
1005
19D6D
1005
19D6B
1005
19D5C
1005
19D61
1005
19D5F
1005
19D63
1005
19D62
1005
19D64
1070
     2
1070
     3
1005
19D6F
1005
19D71
1005
19D70
1000
ASC_SEEDPOINT
1011
3.614004224891801
1021
2.996669441146025
1031
0.0
1000
R14_HATCH_DATA
1000
19D94
1011
1.0
1021
0.0
1031
0.0
1011
0.0
1021
1.0
1031
0.0
1011
0.0
1021
0.0
1031
1.0
1040
0.0
1010
0.0
1020
0.0
1030
1.0
1000
ANSI37
1070
     0
1070
     1
1071
        2
1071
        7
1070
     0
1070
     1
1071
       17
1040
13.26299999998673
1040
-0.0001000000000317
1040
9.236999999990758
1040
8.999899999990987
1040
9.236999999990758
1040
8.999999999991019
1040
5.657999999994331
1040
0.9999999999989768
1040
3.181999999996833
1040
4.668599999995308
1040
6.432999999993513
1040
8.763099999991255
1040
4.617999999995391
1040
8.763099999991255
1040
1.420999999998571
1040
4.736799999995242
1040
4.617999999995391
1040
-0.0001000000000317
1040
4.617999999995391
1040
0.0
1040
6.766999999993232
1040
0.0
1040
6.766999999993232
1040
-0.0001000000000317
1040
7.826999999992154
1040
2.368399999997621
1040
10.64699999998936
1040
2.368399999997621
1040
11.70599999998831
1040
-0.0001000000000317
1040
11.70599999998831
1040
0.0
1040
13.26299999998673
1040
0.0
1071
       12
1005
19D53
1005
19D54
1005
19D5B
1005
19D6A
1005
19D6D
1005
19D6B
1005
19D5C
1005
19D61
1005
19D5F
1005
19D63
1005
19D62
1005
19D64
1071
       22
1070
     0
1070
     1
1071
        3
1040
9.236999999990758
1040
5.5200999999945
1040
10.06399999998996
1040
3.670999999996297
1040
8.409999999991555
1040
3.670999999996297
1071
        3
1005
19D6F
1005
19D71
1005
19D70
1070
     0
1070
     1
1040
0.0
1040
0.15
1070
     0
1070
     2
1040
0.7853981633974483
1040
49.29960901727088
1040
-10.17736998311392
1040
-0.3367596045400932
1040
0.3367596045400932
1070
     0
1040
2.356194490192345
1040
49.29960901727088
1040
-10.17736998311392
1040
-0.3367596045400932
1040
-0.3367596045400932
1070
     0
1040
0.0110235143455945
1071
        2
1040
3.614004224891801
1040
2.996669441146025
1040
0.0
1040
3.614004224891801
1040
2.996669441146025
1040
0.0
1002
}
  0
INSERT
  5
19D95
330
19D51
100
AcDbEntity
  8
0
100
AcDbBlockReference
  2
*X51
 10
0.0
 20
0.0
 30
0.0
1001
ACAD
1000
HATCH
1002
{
1070
    19
1000
ANSI37
1040
0.15
1040
0.0
1000
ASC_BOUNDS
1070
     1
1070
     2
1070
    10
1005
19D55
1005
19D56
1005
19D77
1005
19D75
1005
19D76
1005
19D69
1005
19D6E
1005
19D72
1005
19D58
1005
19D57
1000
ASC_SEEDPOINT
1011
14.73245321214324
1021
2.798246178283421
1031
0.0
1000
R14_HATCH_DATA
1000
19D95
1011
1.0
1021
0.0
1031
0.0
1011
0.0
1021
1.0
1031
0.0
1011
0.0
1021
0.0
1031
1.0
1040
0.0
1010
0.0
1020
0.0
1030
1.0
1000
ANSI37
1070
     0
1070
     1
1071
        1
1071
        7
1070
     0
1070
     1
1071
       10
1040
16.46099999998353
1040
5.432899999994561
1040
18.59199999998134
1040
-0.2368999999997641
1040
22.38199999997767
1040
8.763099999991255
1040
20.89099999997916
1040
8.763099999991255
1040
18.59799999998143
1040
3.315799999996671
1040
16.46099999998353
1040
8.999899999990987
1040
14.32399999998563
1040
3.315799999996671
1040
12.02999999998792
1040
8.763099999991255
1040
10.53899999998941
1040
8.763099999991255
1040
14.32899999998563
1040
-0.2368999999997641
1071
       10
1005
19D55
1005
19D56
1005
19D77
1005
19D75
1005
19D76
1005
19D69
1005
19D6E
1005
19D72
1005
19D58
1005
19D57
1070
     0
1070
     1
1040
0.0
1040
0.15
1070
     0
1070
     2
1040
0.7853981633974483
1040
49.29960901727088
1040
-10.17736998311392
1040
-0.3367596045400932
1040
0.3367596045400932
1070
     0
1040
2.356194490192345
1040
49.29960901727088
1040
-10.17736998311392
1040
-0.3367596045400932
1040
-0.3367596045400932
1070
     0
1040
0.0110235143455945
1071
        1
1040
14.73245321214324
1040
2.798246178283421
1040
0.0
1002
}
  0
INSERT
  5
19D96
330
19D51
100
AcDbEntity
  8
0
100
AcDbBlockReference
  2
*X52
 10
0.0
 20
0.0
 30
0.0
1001
ACAD
1000
HATCH
1002
{
1070
    19
1000
ANSI37
1040
0.15
1040
0.0
1000
ASC_BOUNDS
1070
     2
1070
     2
1070
    13
1005
19D59
1005
19D66
1005
19D67
1005
19D65
1005
19D68
1005
19D8F
1005
19D93
1005
19D8E
1005
19D8D
1005
19D90
1005
19D92
1005
19D91
1005
19D5A
1070
     2
1070
     3
1005
19D73
1005
19D78
1005
19D74
1000
ASC_SEEDPOINT
1011
21.97929957367762
1021
3.294304244259308
1031
0.0
1000
R14_HATCH_DATA
1000
19D96
1011
1.0
1021
0.0
1031
0.0
1011
0.0
1021
1.0
1031
0.0
1011
0.0
1021
0.0
1031
1.0
1040
0.0
1010
0.0
1020
0.0
1030
1.0
1000
ANSI37
1070
     0
1070
     1
1071
        2
1071
        7
1070
     1
1070
     1
1071
       15
1040
23.56599999997638
1040
8.999899999990987
1040
0.0
1040
19.53899999998043
1040
-0.0001000000000317
1040
0.0
1040
19.53899999998043
1040
0.0
1040
0.0
1040
21.09599999997886
1040
0.0
1040
0.0
1040
21.09599999997886
1040
-0.0001000000000317
1040
0.0
1040
22.15599999997789
1040
2.368399999997621
1040
0.0
1040
24.97599999997499
1040
2.368399999997621
1040
0.0
1040
26.02015566812236
1040
0.0330999999912365
1040
0.0
1040
28.40199999996923
1040
0.0330999999912365
1040
0.414213562373095
1040
30.74199999996923
1040
2.373099999991211
1040
0.0
1040
30.74199999996927
1040
8.763099999991255
1040
0.0
1040
29.30199999996933
1040
8.763099999991255
1040
0.0
1040
29.30199999996933
1040
2.283099999991236
1040
-0.414213562373095
1040
28.40199999996923
1040
1.383099999991237
1040
0.0
1040
26.97358892824991
1040
1.383099999991202
1040
0.0
1071
       13
1005
19D59
1005
19D66
1005
19D67
1005
19D65
1005
19D68
1005
19D8F
1005
19D93
1005
19D8E
1005
19D8D
1005
19D90
1005
19D92
1005
19D91
1005
19D5A
1071
       22
1070
     0
1070
     1
1071
        3
1040
22.7389999999773
1040
3.670999999996297
1040
23.56599999997638
1040
5.5200999999945
1040
24.39299999997559
1040
3.670999999996297
1071
        3
1005
19D73
1005
19D78
1005
19D74
1070
     0
1070
     1
1040
0.0
1040
0.15
1070
     0
1070
     2
1040
0.7853981633974483
1040
49.29960901727088
1040
-10.17736998311392
1040
-0.3367596045400932
1040
0.3367596045400932
1070
     0
1040
2.356194490192345
1040
49.29960901727088
1040
-10.17736998311392
1040
-0.3367596045400932
1040
-0.3367596045400932
1070
     0
1040
0.0110235143455945
1071
        2
1040
21.97929957367762
1040
3.294304244259308
1040
0.0
1040
21.97929957367762
1040
3.294304244259308
1040
0.0
1002
}
  0
INSERT
  5
19D97
330
19D51
100
AcDbEntity
  8
0
100
AcDbBlockReference
  2
*X53
 10
0.0
 20
0.0
 30
0.0
1001
ACAD
1000
HATCH
1002
{
1070
    19
1000
ANSI37
1040
0.15
1040
0.0
1000
R14_HATCH_DATA
1000
19D97
1011
1.0
1021
0.0
1031
0.0
1011
0.0
1021
1.0
1031
0.0
1011
0.0
1021
0.0
1031
1.0
1040
0.0
1010
0.0
1020
0.0
1030
1.0
1000
ANSI37
1070
     0
1070
     1
1071
        1
1071
        7
1070
     1
1070
     1
1071
       12
1040
31.64199999996833
1040
2.481619422925121
1040
0.2679491924310942
1040
32.94699999997067
1040
0.2212931190493919
1040
0.2679491924301353
1040
36.36699999995983
1040
0.2212931190459813
1040
0.2679491924321411
1040
37.67199999996831
1040
2.481619422928361
1040
0.0
1040
37.67199999996831
1040
8.763099999991255
1040
0.0
1040
36.23199999996837
1040
8.763099999991255
1040
0.0
1040
36.23199999996837
1040
2.481619422925064
1040
-0.2679491924310291
1040
35.64699999996708
1040
1.468369700498386
1040
-0.267949192430519
1040
33.66699999997093
1040
1.468369700497703
1040
-0.267949192431809
1040
33.08199999996839
1040
2.481619422926997
1040
0.0
1040
33.08199999996839
1040
8.763099999991255
1040
0.0
1040
31.64199999996833
1040
8.763099999991255
1040
0.0
1071
        0
1070
     0
1070
     1
1040
0.0
1040
0.15
1070
     0
1070
     2
1040
0.7853981633974483
1040
49.29960901727088
1040
-10.17736998311392
1040
-0.3367596045400932
1040
0.3367596045400932
1070
     0
1040
2.356194490192345
1040
49.29960901727088
1040
-10.17736998311392
1040
-0.3367596045400932
1040
-0.3367596045400932
1070
     0
1040
0.0110235143455945
1071
        1
1040
32.30357378967278
1040
3.988785755459219
1040
0.0
1002
}
  0
INSERT
  5
19D98
330
19D51
100
AcDbEntity
  8
0
100
AcDbBlockReference
  2
*X54
 10
0.0
 20
0.0
 30
0.0
1001
ACAD
1000
HATCH
1002
{
1070
    19
1000
ANSI37
1040
0.15
1040
0.0
1000
ASC_BOUNDS
1070
     1
1070
     2
1070
     8
1005
19D79
1005
19D7C
1005
19D80
1005
19D7F
1005
19D7E
1005
19D7B
1005
19D7D
1005
19D7A
1000
ASC_SEEDPOINT
1011
39.74896370716704
1021
4.484843821435049
1031
0.0
1000
R14_HATCH_DATA
1000
19D98
1011
1.0
1021
0.0
1031
0.0
1011
0.0
1021
1.0
1031
0.0
1011
0.0
1021
0.0
1031
1.0
1040
0.0
1010
0.0
1020
0.0
1030
1.0
1000
ANSI37
1070
     0
1070
     1
1071
        1
1071
        7
1070
     0
1070
     1
1071
        9
1040
40.02599999995994
1040
5.341799999994635
1040
44.99999999995498
1040
-0.2368999999997641
1040
44.99999999995498
1040
8.763099999991255
1040
43.57899999995641
1040
8.763099999991255
1040
43.57899999995641
1040
3.421199999996588
1040
38.60499999996136
1040
8.999899999990987
1040
38.60499999996136
1040
8.999999999991019
1040
38.60499999996136
1040
0.0
1040
40.02599999995994
1040
0.0
1071
        8
1005
19D79
1005
19D7C
1005
19D80
1005
19D7F
1005
19D7E
1005
19D7B
1005
19D7D
1005
19D7A
1070
     0
1070
     1
1040
0.0
1040
0.15
1070
     0
1070
     2
1040
0.7853981633974483
1040
49.29960901727088
1040
-10.17736998311392
1040
-0.3367596045400932
1040
0.3367596045400932
1070
     0
1040
2.356194490192345
1040
49.29960901727088
1040
-10.17736998311392
1040
-0.3367596045400932
1040
-0.3367596045400932
1070
     0
1040
0.0110235143455945
1071
        1
1040
39.74896370716704
1040
4.484843821435049
1040
0.0
1002
}
  0
INSERT
  5
19D99
330
19D51
100
AcDbEntity
  8
0
100
AcDbBlockReference
  2
*X55
 10
0.0
 20
0.0
 30
0.0
1001
ACAD
1000
HATCH
1002
{
1070
    19
1000
ANSI37
1040
0.15
1040
0.0
1000
ASC_BOUNDS
1070
     1
1070
     2
1070
     4
1005
19D5D
1005
19D6C
1005
19D5E
1005
19D60
1000
ASC_SEEDPOINT
1011
1.079051535452663
1021
4.148538732891836
1031
0.0
1000
R14_HATCH_DATA
1000
19D99
1011
1.0
1021
0.0
1031
0.0
1011
0.0
1021
1.0
1031
0.0
1011
0.0
1021
0.0
1031
1.0
1040
0.0
1010
0.0
1020
0.0
1030
1.0
1000
ANSI37
1070
     0
1070
     1
1071
        1
1071
        7
1070
     0
1070
     1
1071
        4
1040
1.420999999998571
1040
0.0
1040
1.420999999998571
1040
8.763099999991255
1040
0.0
1040
8.763099999991255
1040
0.0
1040
0.0
1071
        4
1005
19D5D
1005
19D6C
1005
19D5E
1005
19D60
1070
     0
1070
     1
1040
0.0
1040
0.15
1070
     0
1070
     2
1040
0.7853981633974483
1040
49.29960901727088
1040
-10.17736998311392
1040
-0.3367596045400932
1040
0.3367596045400932
1070
     0
1040
2.356194490192345
1040
49.29960901727088
1040
-10.17736998311392
1040
-0.3367596045400932
1040
-0.3367596045400932
1070
     0
1040
0.0053004257112761
1071
        1
1040
1.079051535452663
1040
4.148538732891836
1040
0.0
1002
}
  0
ENDBLK
  5
1A475
330
19D51
100
AcDbEntity
  8
0
100
AcDbBlockEnd
  0
BLOCK
  5
1B10B
330
1AF7D
100
AcDbEntity
  8
0
100
AcDbBlockBegin
  2
*X50
 70
     1
 10
0.0
 20
0.0
 30
0.0
  3
*X50
  1

  0
LINE
  5
1AF7E
330
1AF7D
100
AcDbEntity
  8
0
  6
CONTINUOUS
100
AcDbLine
 10
3.418023043697893
 20
7.251849696850613
 30
0.0
 11
4.929273346838536
 21
8.763099999991255
 31
0.0
  0
LINE
  5
1AF7F
330
1AF7D
100
AcDbEntity
  8
0
  6
CONTINUOUS
100
AcDbLine
 10
1.483656411257782
 20
4.643963855330318
 30
0.0
 11
5.60279255591872
 21
8.763099999991255
 31
0.0
  0
LINE
  5
1AF80
330
1AF7D
100
AcDbEntity
  8
0
  6
CONTINUOUS
100
AcDbLine
 10
1.755053947328235
 20
4.241842182320584
 30
0.0
 11
6.276311764998907
 21
8.763099999991255
 31
0.0
  0
LINE
  5
1AF81
330
1AF7D
100
AcDbEntity
  8
0
  6
CONTINUOUS
100
AcDbLine
 10
2.026451483398688
 20
3.839720509310849
 30
0.0
 11
4.441040904851878
 21
6.254309930764039
 31
0.0
  0
LINE
  5
1AF82
330
1AF7D
100
AcDbEntity
  8
0
  6
CONTINUOUS
100
AcDbLine
 10
2.297849019469139
 20
3.437598836301114
 30
0.0
 11
3.321765168359338
 21
4.461514985191313
 31
0.0
  0
LINE
  5
1AF83
330
1AF7D
100
AcDbEntity
  8
0
  6
CONTINUOUS
100
AcDbLine
 10
2.569246555539591
 20
3.03547716329138
 30
0.0
 11
3.593163397972743
 21
4.059394005724531
 31
0.0
  0
LINE
  5
1AF84
330
1AF7D
100
AcDbEntity
  8
0
  6
CONTINUOUS
100
AcDbLine
 10
2.840644091610043
 20
2.633355490281646
 30
0.0
 11
3.864561627586149
 21
3.657273026257751
 31
0.0
  0
LINE
  5
1AF85
330
1AF7D
100
AcDbEntity
  8
0
  6
CONTINUOUS
100
AcDbLine
 10
3.112041627680496
 20
2.231233817271911
 30
0.0
 11
4.135959857199554
 21
3.25515204679097
 31
0.0
  0
LINE
  5
1AF86
330
1AF7D
100
AcDbEntity
  8
0
  6
CONTINUOUS
100
AcDbLine
 10
3.383439163750948
 20
1.829112144262177
 30
0.0
 11
4.40735808681296
 21
2.853031067324189
 31
0.0
  0
LINE
  5
1AF87
330
1AF7D
100
AcDbEntity
  8
0
  6
CONTINUOUS
100
AcDbLine
 10
3.654836699821399
 20
1.426990471252442
 30
0.0
 11
4.678756316426365
 21
2.450910087857407
 31
0.0
  0
LINE
  5
1AF88
330
1AF7D
100
AcDbEntity
  8
0
  6
CONTINUOUS
100
AcDbLine
 10
3.926234235891853
 20
1.024868798242709
 30
0.0
 11
4.95015454603977
 21
2.048789108390626
 31
0.0
  0
LINE
  5
1AF89
330
1AF7D
100
AcDbEntity
  8
0
  6
CONTINUOUS
100
AcDbLine
 10
4.197631771962304
 20
0.6227471252329737
 30
0.0
 11
5.221552775653176
 21
1.646668128923846
 31
0.0
  0
LINE
  5
1AF8A
330
1AF7D
100
AcDbEntity
  8
0
  6
CONTINUOUS
100
AcDbLine
 10
8.715877546767851
 20
7.835069736359266
 30
0.0
 11
9.435953450375058
 21
8.555145639966472
 31
0.0
  0
LINE
  5
1AF8B
330
1AF7D
100
AcDbEntity
  8
0
  6
CONTINUOUS
100
AcDbLine
 10
8.170620868422267
 20
6.616293848933497
 30
0.0
 11
9.644120833743461
 21
8.08979381425469
 31
0.0
  0
LINE
  5
1AF8C
330
1AF7D
100
AcDbEntity
  8
0
  6
CONTINUOUS
100
AcDbLine
 10
7.625364190076684
 20
5.397517961507727
 30
0.0
 11
9.852288217111864
 21
7.624441988542907
 31
0.0
  0
LINE
  5
1AF8D
330
1AF7D
100
AcDbEntity
  8
0
  6
CONTINUOUS
100
AcDbLine
 10
7.080107511731101
 20
4.178742074081957
 30
0.0
 11
10.06045560048027
 21
7.159090162831124
 31
0.0
  0
LINE
  5
1AF8E
330
1AF7D
100
AcDbEntity
  8
0
  6
CONTINUOUS
100
AcDbLine
 10
6.534850833385518
 20
2.959966186656187
 30
0.0
 11
10.26862298384867
 21
6.693738337119342
 31
0.0
  0
LINE
  5
1AF8F
330
1AF7D
100
AcDbEntity
  8
0
  6
CONTINUOUS
100
AcDbLine
 10
4.469029308032756
 20
0.2206254522232385
 30
0.0
 11
5.492951005266582
 21
1.244547149457064
 31
0.0
  0
LINE
  5
1AF90
330
1AF7D
100
AcDbEntity
  8
0
  6
CONTINUOUS
100
AcDbLine
 10
5.989594155039935
 20
1.741190299230417
 30
0.0
 11
8.806950407233131
 21
4.558546551423613
 31
0.0
  0
LINE
  5
1AF91
330
1AF7D
100
AcDbEntity
  8
0
  6
CONTINUOUS
100
AcDbLine
 10
9.401251593263643
 20
5.152847737454126
 30
0.0
 11
10.47679036721708
 21
6.228386511407559
 31
0.0
  0
LINE
  5
1AF92
330
1AF7D
100
AcDbEntity
  8
0
  6
CONTINUOUS
100
AcDbLine
 10
4.921837203428691
 20
-0.0000858614610131
 30
0.0
 11
8.592923064886001
 21
3.670999999996297
 31
0.0
  0
LINE
  5
1AF93
330
1AF7D
100
AcDbEntity
  8
0
  6
CONTINUOUS
100
AcDbLine
 10
9.609390446785305
 20
4.6874673818956
 30
0.0
 11
10.68495775058548
 21
5.763034685695775
 31
0.0
  0
LINE
  5
1AF94
330
1AF7D
100
AcDbEntity
  8
0
  6
CONTINUOUS
100
AcDbLine
 10
5.595387755019432
 20
-0.0000545189504582
 30
0.0
 11
7.716137258923768
 21
2.120694984953879
 31
0.0
  0
LINE
  5
1AF95
330
1AF7D
100
AcDbEntity
  8
0
  6
CONTINUOUS
100
AcDbLine
 10
6.268938306610172
 20
-0.000023176439905
 30
0.0
 11
7.170485805526503
 21
0.9015243224764267
 31
0.0
  0
LINE
  5
1AF96
330
1AF7D
100
AcDbEntity
  8
0
  6
CONTINUOUS
100
AcDbLine
 10
7.963842273967511
 20
2.368399999997621
 30
0.0
 11
9.266442273966188
 21
3.670999999996297
 31
0.0
  0
LINE
  5
1AF97
330
1AF7D
100
AcDbEntity
  8
0
  6
CONTINUOUS
100
AcDbLine
 10
8.637361483047696
 20
2.368399999997621
 30
0.0
 11
9.939961483046375
 21
3.670999999996297
 31
0.0
  0
LINE
  5
1AF98
330
1AF7D
100
AcDbEntity
  8
0
  6
CONTINUOUS
100
AcDbLine
 10
9.817529300306965
 20
4.222087026337075
 30
0.0
 11
10.89312513395388
 21
5.297682859983993
 31
0.0
  0
LINE
  5
1AF99
330
1AF7D
100
AcDbEntity
  8
0
  6
CONTINUOUS
100
AcDbLine
 10
10.02566815382863
 20
3.756706670778549
 30
0.0
 11
11.10129251732229
 21
4.832331034272211
 31
0.0
  0
LINE
  5
1AF9A
330
1AF7D
100
AcDbEntity
  8
0
  6
CONTINUOUS
100
AcDbLine
 10
9.310880692127883
 20
2.368399999997621
 30
0.0
 11
11.30945990069069
 21
4.366979208560428
 31
0.0
  0
LINE
  5
1AF9B
330
1AF7D
100
AcDbEntity
  8
0
  6
CONTINUOUS
100
AcDbLine
 10
9.98439990120807
 20
2.36839999999762
 30
0.0
 11
11.5176272840591
 21
3.901627382848645
 31
0.0
  0
LINE
  5
1AF9C
330
1AF7D
100
AcDbEntity
  8
0
  6
CONTINUOUS
100
AcDbLine
 10
10.65037369446246
 20
2.36085458417182
 30
0.0
 11
11.7257946674275
 21
3.436275557136862
 31
0.0
  0
LINE
  5
1AF9D
330
1AF7D
100
AcDbEntity
  8
0
  6
CONTINUOUS
100
AcDbLine
 10
10.85847197087848
 20
1.895433651507656
 30
0.0
 11
11.9339620507959
 21
2.97092373142508
 31
0.0
  0
LINE
  5
1AF9E
330
1AF7D
100
AcDbEntity
  8
0
  6
CONTINUOUS
100
AcDbLine
 10
11.0665702472945
 20
1.430012718843491
 30
0.0
 11
12.14212943416431
 21
2.505571905713296
 31
0.0
  0
LINE
  5
1AF9F
330
1AF7D
100
AcDbEntity
  8
0
  6
CONTINUOUS
100
AcDbLine
 10
11.27466852371052
 20
0.9645917861793256
 30
0.0
 11
12.35029681753271
 21
2.040220080001513
 31
0.0
  0
LINE
  5
1AFA0
330
1AF7D
100
AcDbEntity
  8
0
  6
CONTINUOUS
100
AcDbLine
 10
11.48276680012654
 20
0.4991708535151611
 30
0.0
 11
12.55846420090111
 21
1.57486825428973
 31
0.0
  0
LINE
  5
1AFA1
330
1AF7D
100
AcDbEntity
  8
0
  6
CONTINUOUS
100
AcDbLine
 10
11.69086507654257
 20
0.0337499208509957
 30
0.0
 11
12.76663158426952
 21
1.109516428577947
 31
0.0
  0
LINE
  5
1AFA2
330
1AF7D
100
AcDbEntity
  8
0
  6
CONTINUOUS
100
AcDbLine
 10
12.33057447873954
 20
-0.0000598860322123
 30
0.0
 11
12.97479896763792
 21
0.6441646028661663
 31
0.0
  0
LINE
  5
1AFA3
330
1AF7D
100
AcDbEntity
  8
0
  6
CONTINUOUS
100
AcDbLine
 10
13.00413694809395
 20
-0.0000166257579952
 30
0.0
 11
13.18296635100632
 21
0.1788127771543824
 31
0.0
  0
LINE
  5
1AFA4
330
1AF7D
100
AcDbEntity
  8
0
  6
CONTINUOUS
100
AcDbLine
 10
4.772852165289667
 20
-0.000092794222212
 30
0.0
 11
4.296495091028902
 21
0.4762642800385528
 31
0.0
  0
LINE
  5
1AFA5
330
1AF7D
100
AcDbEntity
  8
0
  6
CONTINUOUS
100
AcDbLine
 10
5.446340034776103
 20
-0.0000614546284616
 30
0.0
 11
2.898195908335625
 21
2.548082671812017
 31
0.0
  0
LINE
  5
1AFA6
330
1AF7D
100
AcDbEntity
  8
0
  6
CONTINUOUS
100
AcDbLine
 10
6.119827904262539
 20
-0.0000301150347113
 30
0.0
 11
1.499896725642348
 21
4.61990106358548
 31
0.0
  0
LINE
  5
1AFA7
330
1AF7D
100
AcDbEntity
  8
0
  6
CONTINUOUS
100
AcDbLine
 10
6.775136745476159
 20
0.0181802528318542
 30
0.0
 11
5.699826040202669
 21
1.093490958105344
 31
0.0
  0
LINE
  5
1AFA8
330
1AF7D
100
AcDbEntity
  8
0
  6
CONTINUOUS
100
AcDbLine
 10
6.983376846288489
 20
0.4834593610997118
 30
0.0
 11
5.908008617934405
 21
1.558827589453796
 31
0.0
  0
LINE
  5
1AFA9
330
1AF7D
100
AcDbEntity
  8
0
  6
CONTINUOUS
100
AcDbLine
 10
5.377063484962296
 20
1.416253513345719
 30
0.0
 11
1.702276957014131
 21
5.091040041293883
 31
0.0
  0
LINE
  5
1AFAA
330
1AF7D
100
AcDbEntity
  8
0
  6
CONTINUOUS
100
AcDbLine
 10
3.978745891735324
 20
3.488090315652877
 30
0.0
 11
2.000373521109399
 21
5.466462686278803
 31
0.0
  0
LINE
  5
1AFAB
330
1AF7D
100
AcDbEntity
  8
0
  6
CONTINUOUS
100
AcDbLine
 10
7.191616947100819
 20
0.948738469367568
 30
0.0
 11
6.11619119566614
 21
2.024164220802247
 31
0.0
  0
LINE
  5
1AFAC
330
1AF7D
100
AcDbEntity
  8
0
  6
CONTINUOUS
100
AcDbLine
 10
7.399857047913149
 20
1.414017577635424
 30
0.0
 11
6.324373773397875
 21
2.489500852150698
 31
0.0
  0
LINE
  5
1AFAD
330
1AF7D
100
AcDbEntity
  8
0
  6
CONTINUOUS
100
AcDbLine
 10
7.608097148725479
 20
1.879296685903281
 30
0.0
 11
6.53255635112961
 21
2.95483748349915
 31
0.0
  0
LINE
  5
1AFAE
330
1AF7D
100
AcDbEntity
  8
0
  6
CONTINUOUS
100
AcDbLine
 10
7.816337249537808
 20
2.344575794171138
 30
0.0
 11
6.740738928861345
 21
3.420174114847601
 31
0.0
  0
LINE
  5
1AFAF
330
1AF7D
100
AcDbEntity
  8
0
  6
CONTINUOUS
100
AcDbLine
 10
3.310241080789734
 20
4.830114335678653
 30
0.0
 11
2.298470085204666
 21
5.84188533126372
 31
0.0
  0
LINE
  5
1AFB0
330
1AF7D
100
AcDbEntity
  8
0
  6
CONTINUOUS
100
AcDbLine
 10
3.60832983563551
 20
5.205544789913063
 30
0.0
 11
2.596566649299935
 21
6.217307976248638
 31
0.0
  0
LINE
  5
1AFB1
330
1AF7D
100
AcDbEntity
  8
0
  6
CONTINUOUS
100
AcDbLine
 10
3.906418590481286
 20
5.580975244147473
 30
0.0
 11
2.894663213395203
 21
6.592730621233557
 31
0.0
  0
LINE
  5
1AFB2
330
1AF7D
100
AcDbEntity
  8
0
  6
CONTINUOUS
100
AcDbLine
 10
4.204507345327062
 20
5.956405698381884
 30
0.0
 11
3.192759777490472
 21
6.968153266218474
 31
0.0
  0
LINE
  5
1AFB3
330
1AF7D
100
AcDbEntity
  8
0
  6
CONTINUOUS
100
AcDbLine
 10
8.466032252791512
 20
2.368399999997621
 30
0.0
 11
6.948921506593081
 21
3.885510746196053
 31
0.0
  0
LINE
  5
1AFB4
330
1AF7D
100
AcDbEntity
  8
0
  6
CONTINUOUS
100
AcDbLine
 10
9.139551461871699
 20
2.36839999999762
 30
0.0
 11
7.157104084324816
 21
4.350847377544504
 31
0.0
  0
LINE
  5
1AFB5
330
1AF7D
100
AcDbEntity
  8
0
  6
CONTINUOUS
100
AcDbLine
 10
4.502596100172839
 20
6.331836152616295
 30
0.0
 11
3.49085634158574
 21
7.343575911203393
 31
0.0
  0
LINE
  5
1AFB6
330
1AF7D
100
AcDbEntity
  8
0
  6
CONTINUOUS
100
AcDbLine
 10
4.800684855018615
 20
6.707266606850705
 30
0.0
 11
3.788952905681008
 21
7.718998556188312
 31
0.0
  0
LINE
  5
1AFB7
330
1AF7D
100
AcDbEntity
  8
0
  6
CONTINUOUS
100
AcDbLine
 10
12.18154012887317
 20
-0.0000694579236642
 30
0.0
 11
11.32140332908496
 21
0.8600673418645499
 31
0.0
  0
LINE
  5
1AFB8
330
1AF7D
100
AcDbEntity
  8
0
  6
CONTINUOUS
100
AcDbLine
 10
12.85501608323566
 20
-0.0000262032059659
 30
0.0
 11
10.77672456435345
 21
2.078265315676246
 31
0.0
  0
LINE
  5
1AFB9
330
1AF7D
100
AcDbEntity
  8
0
  6
CONTINUOUS
100
AcDbLine
 10
9.813070670951886
 20
2.36839999999762
 30
0.0
 11
8.51047067095321
 21
3.670999999996297
 31
0.0
  0
LINE
  5
1AFBA
330
1AF7D
100
AcDbEntity
  8
0
  6
CONTINUOUS
100
AcDbLine
 10
10.48658988003207
 20
2.36839999999762
 30
0.0
 11
9.183989880033396
 21
3.670999999996297
 31
0.0
  0
LINE
  5
1AFBB
330
1AF7D
100
AcDbEntity
  8
0
  6
CONTINUOUS
100
AcDbLine
 10
8.441048632286794
 20
3.740422038662712
 30
0.0
 11
7.365286662056551
 21
4.816184008892956
 31
0.0
  0
LINE
  5
1AFBC
330
1AF7D
100
AcDbEntity
  8
0
  6
CONTINUOUS
100
AcDbLine
 10
8.649187485808454
 20
4.205802394221237
 30
0.0
 11
7.573469239788285
 21
5.281520640241407
 31
0.0
  0
LINE
  5
1AFBD
330
1AF7D
100
AcDbEntity
  8
0
  6
CONTINUOUS
100
AcDbLine
 10
5.098773609864391
 20
7.082697061085115
 30
0.0
 11
4.087049469776277
 21
8.09442120117323
 31
0.0
  0
LINE
  5
1AFBE
330
1AF7D
100
AcDbEntity
  8
0
  6
CONTINUOUS
100
AcDbLine
 10
5.396862364710167
 20
7.458127515319526
 30
0.0
 11
4.385146033871544
 21
8.469843846158149
 31
0.0
  0
LINE
  5
1AFBF
330
1AF7D
100
AcDbEntity
  8
0
  6
CONTINUOUS
100
AcDbLine
 10
13.04801363231285
 20
0.4804954567970334
 30
0.0
 11
9.85750908911358
 21
3.670999999996297
 31
0.0
  0
LINE
  5
1AFC0
330
1AF7D
100
AcDbEntity
  8
0
  6
CONTINUOUS
100
AcDbLine
 10
8.857326339330116
 20
4.671182749779763
 30
0.0
 11
7.781651817520021
 21
5.746857271589858
 31
0.0
  0
LINE
  5
1AFC1
330
1AF7D
100
AcDbEntity
  8
0
  6
CONTINUOUS
100
AcDbLine
 10
5.694951119555943
 20
7.833557969553937
 30
0.0
 11
4.765409089118624
 21
8.763099999991255
 31
0.0
  0
LINE
  5
1AFC2
330
1AF7D
100
AcDbEntity
  8
0
  6
CONTINUOUS
100
AcDbLine
 10
12.50286117236978
 20
1.699167125820288
 30
0.0
 11
9.68611877250287
 21
4.515909525687196
 31
0.0
  0
LINE
  5
1AFC3
330
1AF7D
100
AcDbEntity
  8
0
  6
CONTINUOUS
100
AcDbLine
 10
9.065465192851777
 20
5.136563105338288
 30
0.0
 11
7.989834395251757
 21
6.21219390293831
 31
0.0
  0
LINE
  5
1AFC4
330
1AF7D
100
AcDbEntity
  8
0
  6
CONTINUOUS
100
AcDbLine
 10
5.993039874401719
 20
8.208988423788346
 30
0.0
 11
5.43892829819881
 21
8.763099999991255
 31
0.0
  0
LINE
  5
1AFC5
330
1AF7D
100
AcDbEntity
  8
0
  6
CONTINUOUS
100
AcDbLine
 10
11.95770871242671
 20
2.917838794843543
 30
0.0
 11
8.19801697298349
 21
6.677530534286761
 31
0.0
  0
LINE
  5
1AFC6
330
1AF7D
100
AcDbEntity
  8
0
  6
CONTINUOUS
100
AcDbLine
 10
6.291128629247495
 20
8.584418878022756
 30
0.0
 11
6.112447507278997
 21
8.763099999991255
 31
0.0
  0
LINE
  5
1AFC7
330
1AF7D
100
AcDbEntity
  8
0
  6
CONTINUOUS
100
AcDbLine
 10
11.41255625248364
 20
4.136510463866797
 30
0.0
 11
8.406199550715227
 21
7.142867165635211
 31
0.0
  0
LINE
  5
1AFC8
330
1AF7D
100
AcDbEntity
  8
0
  6
CONTINUOUS
100
AcDbLine
 10
10.86740379254057
 20
5.355182132890051
 30
0.0
 11
8.614382128446962
 21
7.608203796983664
 31
0.0
  0
LINE
  5
1AFC9
330
1AF7D
100
AcDbEntity
  8
0
  6
CONTINUOUS
100
AcDbLine
 10
10.3222513325975
 20
6.573853801913305
 30
0.0
 11
8.822564706178696
 21
8.073540428332114
 31
0.0
  0
LINE
  5
1AFCA
330
1AF7D
100
AcDbEntity
  8
0
  6
CONTINUOUS
100
AcDbLine
 10
9.777098872654436
 20
7.792525470936562
 30
0.0
 11
9.030747283910433
 21
8.538877059680566
 31
0.0
  0
ENDBLK
  5
1B10C
330
1AF7D
100
AcDbEntity
  8
0
100
AcDbBlockEnd
  0
BLOCK
  5
1B10D
330
1AFCB
100
AcDbEntity
  8
0
100
AcDbBlockBegin
  2
*X51
 70
     1
 10
0.0
 20
0.0
 30
0.0
  3
*X51
  1

  0
LINE
  5
1AFCC
330
1AFCB
100
AcDbEntity
  8
0
  6
CONTINUOUS
100
AcDbLine
 10
10.67292308101235
 20
8.445076852443387
 30
0.0
 11
10.99094622856022
 21
8.763099999991255
 31
0.0
  0
LINE
  5
1AFCD
330
1AFCB
100
AcDbEntity
  8
0
  6
CONTINUOUS
100
AcDbLine
 10
10.87250383178748
 20
7.971138394138331
 30
0.0
 11
11.6644654376404
 21
8.763099999991255
 31
0.0
  0
LINE
  5
1AFCE
330
1AFCB
100
AcDbEntity
  8
0
  6
CONTINUOUS
100
AcDbLine
 10
11.07208458256261
 20
7.497199935833273
 30
0.0
 11
12.12126590876355
 21
8.546381262034211
 31
0.0
  0
LINE
  5
1AFCF
330
1AFCB
100
AcDbEntity
  8
0
  6
CONTINUOUS
100
AcDbLine
 10
11.27166533333774
 20
7.023261477528216
 30
0.0
 11
12.32085164573666
 21
8.072447789927136
 31
0.0
  0
LINE
  5
1AFD0
330
1AFCB
100
AcDbEntity
  8
0
  6
CONTINUOUS
100
AcDbLine
 10
11.47124608411287
 20
6.549323019223158
 30
0.0
 11
12.52043738270977
 21
7.59851431782006
 31
0.0
  0
LINE
  5
1AFD1
330
1AFCB
100
AcDbEntity
  8
0
  6
CONTINUOUS
100
AcDbLine
 10
11.670826834888
 20
6.075384560918101
 30
0.0
 11
12.72002311968288
 21
7.124580845712984
 31
0.0
  0
LINE
  5
1AFD2
330
1AFCB
100
AcDbEntity
  8
0
  6
CONTINUOUS
100
AcDbLine
 10
11.87040758566313
 20
5.601446102613043
 30
0.0
 11
12.91960885665599
 21
6.650647373605907
 31
0.0
  0
LINE
  5
1AFD3
330
1AFCB
100
AcDbEntity
  8
0
  6
CONTINUOUS
100
AcDbLine
 10
12.06998833643825
 20
5.127507644307986
 30
0.0
 11
13.1191945936291
 21
6.176713901498832
 31
0.0
  0
LINE
  5
1AFD4
330
1AFCB
100
AcDbEntity
  8
0
  6
CONTINUOUS
100
AcDbLine
 10
12.26956908721338
 20
4.65356918600293
 30
0.0
 11
13.31878033060221
 21
5.702780429391757
 31
0.0
  0
LINE
  5
1AFD5
330
1AFCB
100
AcDbEntity
  8
0
  6
CONTINUOUS
100
AcDbLine
 10
12.46914983798851
 20
4.179630727697873
 30
0.0
 11
13.51836606757532
 21
5.228846957284683
 31
0.0
  0
LINE
  5
1AFD6
330
1AFCB
100
AcDbEntity
  8
0
  6
CONTINUOUS
100
AcDbLine
 10
12.66873058876364
 20
3.705692269392816
 30
0.0
 11
13.71795180454843
 21
4.754913485177607
 31
0.0
  0
LINE
  5
1AFD7
330
1AFCB
100
AcDbEntity
  8
0
  6
CONTINUOUS
100
AcDbLine
 10
12.86831133953877
 20
3.231753811087759
 30
0.0
 11
13.91753754152154
 21
4.280980013070531
 31
0.0
  0
LINE
  5
1AFD8
330
1AFCB
100
AcDbEntity
  8
0
  6
CONTINUOUS
100
AcDbLine
 10
13.0678920903139
 20
2.757815352782702
 30
0.0
 11
14.11712327849465
 21
3.807046540963456
 31
0.0
  0
LINE
  5
1AFD9
330
1AFCB
100
AcDbEntity
  8
0
  6
CONTINUOUS
100
AcDbLine
 10
13.26747284108903
 20
2.283876894477644
 30
0.0
 11
14.31670901546777
 21
3.333113068856379
 31
0.0
  0
LINE
  5
1AFDA
330
1AFCB
100
AcDbEntity
  8
0
  6
CONTINUOUS
100
AcDbLine
 10
16.36767838827179
 20
8.751678487061342
 30
0.0
 11
16.50332410898388
 21
8.887324207773432
 31
0.0
  0
LINE
  5
1AFDB
330
1AFCB
100
AcDbEntity
  8
0
  6
CONTINUOUS
100
AcDbLine
 10
15.96190732182191
 20
7.67238821153127
 30
0.0
 11
16.68735328004734
 21
8.397834169756699
 31
0.0
  0
LINE
  5
1AFDC
330
1AFCB
100
AcDbEntity
  8
0
  6
CONTINUOUS
100
AcDbLine
 10
15.55613625537202
 20
6.593097936001196
 30
0.0
 11
16.87138245111079
 21
7.908344131739965
 31
0.0
  0
LINE
  5
1AFDD
330
1AFCB
100
AcDbEntity
  8
0
  6
CONTINUOUS
100
AcDbLine
 10
15.15036518892213
 20
5.513807660471122
 30
0.0
 11
17.05541162217424
 21
7.418854093723231
 31
0.0
  0
LINE
  5
1AFDE
330
1AFCB
100
AcDbEntity
  8
0
  6
CONTINUOUS
100
AcDbLine
 10
14.74459412247225
 20
4.434517384941048
 30
0.0
 11
17.2394407932377
 21
6.929364055706499
 31
0.0
  0
LINE
  5
1AFDF
330
1AFCB
100
AcDbEntity
  8
0
  6
CONTINUOUS
100
AcDbLine
 10
14.33882305602236
 20
3.355227109410975
 30
0.0
 11
17.42346996430115
 21
6.439874017689766
 31
0.0
  0
LINE
  5
1AFE0
330
1AFCB
100
AcDbEntity
  8
0
  6
CONTINUOUS
100
AcDbLine
 10
13.46705359186416
 20
1.809938436172586
 30
0.0
 11
16.0819338255367
 21
4.424818669845129
 31
0.0
  0
LINE
  5
1AFE1
330
1AFCB
100
AcDbEntity
  8
0
  6
CONTINUOUS
100
AcDbLine
 10
16.63283254238972
 20
4.975717386698149
 30
0.0
 11
17.60749913536461
 21
5.950383979673033
 31
0.0
  0
LINE
  5
1AFE2
330
1AFCB
100
AcDbEntity
  8
0
  6
CONTINUOUS
100
AcDbLine
 10
13.66663434263929
 20
1.335999977867529
 30
0.0
 11
15.67604797733754
 21
3.345413612565779
 31
0.0
  0
LINE
  5
1AFE3
330
1AFCB
100
AcDbEntity
  8
0
  6
CONTINUOUS
100
AcDbLine
 10
13.86621509341442
 20
0.8620615195624723
 30
0.0
 11
15.27016212913838
 21
2.26600855528643
 31
0.0
  0
LINE
  5
1AFE4
330
1AFCB
100
AcDbEntity
  8
0
  6
CONTINUOUS
100
AcDbLine
 10
16.81682257348267
 20
4.486188208710908
 30
0.0
 11
17.79152830642806
 21
5.460893941656299
 31
0.0
  0
LINE
  5
1AFE5
330
1AFCB
100
AcDbEntity
  8
0
  6
CONTINUOUS
100
AcDbLine
 10
17.00081260457561
 20
3.996659030723667
 30
0.0
 11
17.97555747749151
 21
4.971403903639565
 31
0.0
  0
LINE
  5
1AFE6
330
1AFCB
100
AcDbEntity
  8
0
  6
CONTINUOUS
100
AcDbLine
 10
20.74362343514722
 20
8.412989070375462
 30
0.0
 11
21.09373436476302
 21
8.763099999991256
 31
0.0
  0
LINE
  5
1AFE7
330
1AFCB
100
AcDbEntity
  8
0
  6
CONTINUOUS
100
AcDbLine
 10
20.25401257174777
 20
7.249858997895826
 30
0.0
 11
21.7672535738432
 21
8.763099999991255
 31
0.0
  0
LINE
  5
1AFE8
330
1AFCB
100
AcDbEntity
  8
0
  6
CONTINUOUS
100
AcDbLine
 10
14.06579584418955
 20
0.3881230612574149
 30
0.0
 11
14.86427628093921
 21
1.186603498007082
 31
0.0
  0
LINE
  5
1AFE9
330
1AFCB
100
AcDbEntity
  8
0
  6
CONTINUOUS
100
AcDbLine
 10
14.26537659496467
 20
-0.0858153970476412
 30
0.0
 11
14.45839043274005
 21
0.1071984407277329
 31
0.0
  0
LINE
  5
1AFEA
330
1AFCB
100
AcDbEntity
  8
0
  6
CONTINUOUS
100
AcDbLine
 10
17.18480263566856
 20
3.507129852736426
 30
0.0
 11
18.15958664855496
 21
4.481913865622833
 31
0.0
  0
LINE
  5
1AFEB
330
1AFCB
100
AcDbEntity
  8
0
  6
CONTINUOUS
100
AcDbLine
 10
17.3687926667615
 20
3.017600674749186
 30
0.0
 11
18.34361581961842
 21
3.9924238276061
 31
0.0
  0
LINE
  5
1AFEC
330
1AFCB
100
AcDbEntity
  8
0
  6
CONTINUOUS
100
AcDbLine
 10
19.76440170834832
 20
6.086728925416191
 30
0.0
 11
22.33924590259489
 21
8.661573119662755
 31
0.0
  0
LINE
  5
1AFED
330
1AFCB
100
AcDbEntity
  8
0
  6
CONTINUOUS
100
AcDbLine
 10
19.27479084494887
 20
4.923598852936555
 30
0.0
 11
21.84929622842713
 21
7.498104236414807
 31
0.0
  0
LINE
  5
1AFEE
330
1AFCB
100
AcDbEntity
  8
0
  6
CONTINUOUS
100
AcDbLine
 10
17.55278269785445
 20
2.528071496761945
 30
0.0
 11
18.52764499068187
 21
3.502933789589366
 31
0.0
  0
LINE
  5
1AFEF
330
1AFCB
100
AcDbEntity
  8
0
  6
CONTINUOUS
100
AcDbLine
 10
18.78517998154942
 20
3.760468780456919
 30
0.0
 11
21.35934655425936
 21
6.33463535316686
 31
0.0
  0
LINE
  5
1AFF0
330
1AFCB
100
AcDbEntity
  8
0
  6
CONTINUOUS
100
AcDbLine
 10
17.73677272894739
 20
2.038542318774704
 30
0.0
 11
20.8693968800916
 21
5.171166469918914
 31
0.0
  0
LINE
  5
1AFF1
330
1AFCB
100
AcDbEntity
  8
0
  6
CONTINUOUS
100
AcDbLine
 10
17.92076276004034
 20
1.549013140787464
 30
0.0
 11
20.37944720592384
 21
4.007697586670968
 31
0.0
  0
LINE
  5
1AFF2
330
1AFCB
100
AcDbEntity
  8
0
  6
CONTINUOUS
100
AcDbLine
 10
18.10475279113329
 20
1.059483962800223
 30
0.0
 11
19.88949753175608
 21
2.84422870342302
 31
0.0
  0
LINE
  5
1AFF3
330
1AFCB
100
AcDbEntity
  8
0
  6
CONTINUOUS
100
AcDbLine
 10
18.28874282222623
 20
0.5699547848129822
 30
0.0
 11
19.39954785758832
 21
1.680759820175074
 31
0.0
  0
LINE
  5
1AFF4
330
1AFCB
100
AcDbEntity
  8
0
  6
CONTINUOUS
100
AcDbLine
 10
18.47273285331918
 20
0.0804256068257416
 30
0.0
 11
18.90959818342056
 21
0.517290936927127
 31
0.0
  0
LINE
  5
1AFF5
330
1AFCB
100
AcDbEntity
  8
0
  6
CONTINUOUS
100
AcDbLine
 10
14.3590401358224
 20
-0.1570118376323384
 30
0.0
 11
14.24903296539946
 21
-0.0470046672093929
 31
0.0
  0
LINE
  5
1AFF6
330
1AFCB
100
AcDbEntity
  8
0
  6
CONTINUOUS
100
AcDbLine
 10
14.54309291258661
 20
0.332454594683643
 30
0.0
 11
13.75908329123172
 21
1.116464216038529
 31
0.0
  0
LINE
  5
1AFF7
330
1AFCB
100
AcDbEntity
  8
0
  6
CONTINUOUS
100
AcDbLine
 10
14.72714568935081
 20
0.8219210269996244
 30
0.0
 11
13.26913361706399
 21
2.27993309928645
 31
0.0
  0
LINE
  5
1AFF8
330
1AFCB
100
AcDbEntity
  8
0
  6
CONTINUOUS
100
AcDbLine
 10
14.91119846611502
 20
1.311387459315606
 30
0.0
 11
12.77918394289625
 21
3.443401982534371
 31
0.0
  0
LINE
  5
1AFF9
330
1AFCB
100
AcDbEntity
  8
0
  6
CONTINUOUS
100
AcDbLine
 10
15.09525124287922
 20
1.800853891631587
 30
0.0
 11
12.28923426872852
 21
4.606870865782293
 31
0.0
  0
LINE
  5
1AFFA
330
1AFCB
100
AcDbEntity
  8
0
  6
CONTINUOUS
100
AcDbLine
 10
15.27930401964343
 20
2.290320323947569
 30
0.0
 11
11.79928459456078
 21
5.770339749030213
 31
0.0
  0
LINE
  5
1AFFB
330
1AFCB
100
AcDbEntity
  8
0
  6
CONTINUOUS
100
AcDbLine
 10
15.46335679640763
 20
2.77978675626355
 30
0.0
 11
14.48885470994921
 21
3.754288842721972
 31
0.0
  0
LINE
  5
1AFFC
330
1AFCB
100
AcDbEntity
  8
0
  6
CONTINUOUS
100
AcDbLine
 10
13.88507249233704
 20
4.358071060334137
 30
0.0
 11
11.30933492039305
 21
6.933808632278135
 31
0.0
  0
LINE
  5
1AFFD
330
1AFCB
100
AcDbEntity
  8
0
  6
CONTINUOUS
100
AcDbLine
 10
18.75840522805855
 20
0.1582575336928151
 30
0.0
 11
18.25383727664818
 21
0.6628254851031863
 31
0.0
  0
LINE
  5
1AFFE
330
1AFCB
100
AcDbEntity
  8
0
  6
CONTINUOUS
100
AcDbLine
 10
15.64740957317184
 20
3.269253188579531
 30
0.0
 11
14.67288388101266
 21
4.243778880738705
 31
0.0
  0
LINE
  5
1AFFF
330
1AFCB
100
AcDbEntity
  8
0
  6
CONTINUOUS
100
AcDbLine
 10
13.39509276772158
 20
5.521569994029786
 30
0.0
 11
10.81938524622531
 21
8.097277515526056
 31
0.0
  0
LINE
  5
1B000
330
1AFCB
100
AcDbEntity
  8
0
  6
CONTINUOUS
100
AcDbLine
 10
18.95798597883369
 20
0.6321959919978686
 30
0.0
 11
17.84825644852853
 21
1.741925522303024
 31
0.0
  0
LINE
  5
1B001
330
1AFCB
100
AcDbEntity
  8
0
  6
CONTINUOUS
100
AcDbLine
 10
19.15756672960882
 20
1.106134450302922
 30
0.0
 11
17.44267562040888
 21
2.821025559502861
 31
0.0
  0
LINE
  5
1B002
330
1AFCB
100
AcDbEntity
  8
0
  6
CONTINUOUS
100
AcDbLine
 10
15.83146234993604
 20
3.758719620895513
 30
0.0
 11
14.85691305207612
 21
4.733268918755439
 31
0.0
  0
LINE
  5
1B003
330
1AFCB
100
AcDbEntity
  8
0
  6
CONTINUOUS
100
AcDbLine
 10
16.01551512670025
 20
4.248186053211494
 30
0.0
 11
15.04094222313957
 21
5.222758956772172
 31
0.0
  0
LINE
  5
1B004
330
1AFCB
100
AcDbEntity
  8
0
  6
CONTINUOUS
100
AcDbLine
 10
12.90511304310612
 20
6.685068927725435
 30
0.0
 11
10.8270819708403
 21
8.763099999991255
 31
0.0
  0
LINE
  5
1B005
330
1AFCB
100
AcDbEntity
  8
0
  6
CONTINUOUS
100
AcDbLine
 10
12.41513331849066
 20
7.848567861421083
 30
0.0
 11
11.50060117992049
 21
8.763099999991255
 31
0.0
  0
LINE
  5
1B006
330
1AFCB
100
AcDbEntity
  8
0
  6
CONTINUOUS
100
AcDbLine
 10
19.35714748038395
 20
1.580072908607975
 30
0.0
 11
17.03709479228923
 21
3.900125596702697
 31
0.0
  0
LINE
  5
1B007
330
1AFCB
100
AcDbEntity
  8
0
  6
CONTINUOUS
100
AcDbLine
 10
19.55672823115909
 20
2.054011366913028
 30
0.0
 11
16.63151396416958
 21
4.979225633902534
 31
0.0
  0
LINE
  5
1B008
330
1AFCB
100
AcDbEntity
  8
0
  6
CONTINUOUS
100
AcDbLine
 10
16.19956790346445
 20
4.737652485527476
 30
0.0
 11
15.22497139420302
 21
5.712248994788904
 31
0.0
  0
LINE
  5
1B009
330
1AFCB
100
AcDbEntity
  8
0
  6
CONTINUOUS
100
AcDbLine
 10
16.38362068022866
 20
5.227118917843457
 30
0.0
 11
15.40900056526648
 21
6.201739032805637
 31
0.0
  0
LINE
  5
1B00A
330
1AFCB
100
AcDbEntity
  8
0
  6
CONTINUOUS
100
AcDbLine
 10
19.75630898193422
 20
2.527949825218081
 30
0.0
 11
18.70774536448286
 21
3.576513442669441
 31
0.0
  0
LINE
  5
1B00B
330
1AFCB
100
AcDbEntity
  8
0
  6
CONTINUOUS
100
AcDbLine
 10
19.95588973270936
 20
3.001888283523134
 30
0.0
 11
18.90726987211446
 21
4.050508144118028
 31
0.0
  0
LINE
  5
1B00C
330
1AFCB
100
AcDbEntity
  8
0
  6
CONTINUOUS
100
AcDbLine
 10
20.15547048348449
 20
3.475826741828186
 30
0.0
 11
19.10679437974606
 21
4.524502845566614
 31
0.0
  0
LINE
  5
1B00D
330
1AFCB
100
AcDbEntity
  8
0
  6
CONTINUOUS
100
AcDbLine
 10
20.35505123425962
 20
3.94976520013324
 30
0.0
 11
19.30631888737766
 21
4.998497547015201
 31
0.0
  0
LINE
  5
1B00E
330
1AFCB
100
AcDbEntity
  8
0
  6
CONTINUOUS
100
AcDbLine
 10
20.55463198503475
 20
4.423703658438292
 30
0.0
 11
19.50584339500926
 21
5.472492248463787
 31
0.0
  0
LINE
  5
1B00F
330
1AFCB
100
AcDbEntity
  8
0
  6
CONTINUOUS
100
AcDbLine
 10
18.37481191085755
 20
3.909446896294752
 30
0.0
 11
15.59302973632993
 21
6.691229070822371
 31
0.0
  0
LINE
  5
1B010
330
1AFCB
100
AcDbEntity
  8
0
  6
CONTINUOUS
100
AcDbLine
 10
17.96904084440766
 20
4.988737171824825
 30
0.0
 11
15.77705890739338
 21
7.180719108839104
 31
0.0
  0
LINE
  5
1B011
330
1AFCB
100
AcDbEntity
  8
0
  6
CONTINUOUS
100
AcDbLine
 10
17.56326977795777
 20
6.068027447354899
 30
0.0
 11
15.96108807845684
 21
7.670209146855838
 31
0.0
  0
LINE
  5
1B012
330
1AFCB
100
AcDbEntity
  8
0
  6
CONTINUOUS
100
AcDbLine
 10
17.15749871150789
 20
7.147317722884972
 30
0.0
 11
16.14511724952029
 21
8.15969918487257
 31
0.0
  0
LINE
  5
1B013
330
1AFCB
100
AcDbEntity
  8
0
  6
CONTINUOUS
100
AcDbLine
 10
16.751727645058
 20
8.226607998415046
 30
0.0
 11
16.32914642058374
 21
8.649189222889303
 31
0.0
  0
LINE
  5
1B014
330
1AFCB
100
AcDbEntity
  8
0
  6
CONTINUOUS
100
AcDbLine
 10
20.75421273580989
 20
4.897642116743345
 30
0.0
 11
19.70536790264086
 21
5.946486949912374
 31
0.0
  0
LINE
  5
1B015
330
1AFCB
100
AcDbEntity
  8
0
  6
CONTINUOUS
100
AcDbLine
 10
20.95379348658502
 20
5.371580575048398
 30
0.0
 11
19.90489241027246
 21
6.42048165136096
 31
0.0
  0
LINE
  5
1B016
330
1AFCB
100
AcDbEntity
  8
0
  6
CONTINUOUS
100
AcDbLine
 10
21.15337423736015
 20
5.845519033353452
 30
0.0
 11
20.10441691790406
 21
6.894476352809547
 31
0.0
  0
LINE
  5
1B017
330
1AFCB
100
AcDbEntity
  8
0
  6
CONTINUOUS
100
AcDbLine
 10
21.35295498813529
 20
6.319457491658505
 30
0.0
 11
20.30394142553566
 21
7.368471054258134
 31
0.0
  0
LINE
  5
1B018
330
1AFCB
100
AcDbEntity
  8
0
  6
CONTINUOUS
100
AcDbLine
 10
21.55253573891042
 20
6.793395949963558
 30
0.0
 11
20.50346593316726
 21
7.842465755706721
 31
0.0
  0
LINE
  5
1B019
330
1AFCB
100
AcDbEntity
  8
0
  6
CONTINUOUS
100
AcDbLine
 10
21.75211648968556
 20
7.267334408268612
 30
0.0
 11
20.70299044079886
 21
8.316460457155308
 31
0.0
  0
LINE
  5
1B01A
330
1AFCB
100
AcDbEntity
  8
0
  6
CONTINUOUS
100
AcDbLine
 10
21.95169724046069
 20
7.741272866573663
 30
0.0
 11
20.9298701070431
 21
8.763099999991256
 31
0.0
  0
LINE
  5
1B01B
330
1AFCB
100
AcDbEntity
  8
0
  6
CONTINUOUS
100
AcDbLine
 10
22.15127799123582
 20
8.215211324878716
 30
0.0
 11
21.60338931612328
 21
8.763099999991256
 31
0.0
  0
LINE
  5
1B01C
330
1AFCB
100
AcDbEntity
  8
0
  6
CONTINUOUS
100
AcDbLine
 10
22.35085874201096
 20
8.689149783183769
 30
0.0
 11
22.27690852520347
 21
8.763099999991255
 31
0.0
  0
ENDBLK
  5
1B10E
330
1AFCB
100
AcDbEntity
  8
0
100
AcDbBlockEnd
  0
BLOCK
  5
1B10F
330
1B01D
100
AcDbEntity
  8
0
100
AcDbBlockBegin
  2
*X52
 70
     1
 10
0.0
 20
0.0
 30
0.0
  3
*X52
  1

  0
LINE
  5
1B01E
330
1B01D
100
AcDbEntity
  8
0
  6
CONTINUOUS
100
AcDbLine
 10
23.19462913593892
 20
8.169917934846424
 30
0.0
 11
23.70775465517246
 21
8.683043454079957
 31
0.0
  0
LINE
  5
1B01F
330
1B01D
100
AcDbEntity
  8
0
  6
CONTINUOUS
100
AcDbLine
 10
22.64923161835078
 20
6.951001208178088
 30
0.0
 11
23.9159364069932
 21
8.217705996820516
 31
0.0
  0
LINE
  5
1B020
330
1B01D
100
AcDbEntity
  8
0
  6
CONTINUOUS
100
AcDbLine
 10
22.10383410076263
 20
5.732084481509751
 30
0.0
 11
24.12411815881395
 21
7.752368539561078
 31
0.0
  0
LINE
  5
1B021
330
1B01D
100
AcDbEntity
  8
0
  6
CONTINUOUS
100
AcDbLine
 10
21.55843658317447
 20
4.513167754841414
 30
0.0
 11
24.3322999106347
 21
7.287031082301639
 31
0.0
  0
LINE
  5
1B022
330
1B01D
100
AcDbEntity
  8
0
  6
CONTINUOUS
100
AcDbLine
 10
21.01303906558632
 20
3.294251028173077
 30
0.0
 11
24.54048166245544
 21
6.821693625042199
 31
0.0
  0
LINE
  5
1B023
330
1B01D
100
AcDbEntity
  8
0
  6
CONTINUOUS
100
AcDbLine
 10
20.46764154799817
 20
2.075334301504738
 30
0.0
 11
23.28571549467848
 21
4.89340824818505
 31
0.0
  0
LINE
  5
1B024
330
1B01D
100
AcDbEntity
  8
0
  6
CONTINUOUS
100
AcDbLine
 10
19.92224403041002
 20
0.8564175748364002
 30
0.0
 11
22.74075865492779
 21
3.674932199354171
 31
0.0
  0
LINE
  5
1B025
330
1B01D
100
AcDbEntity
  8
0
  6
CONTINUOUS
100
AcDbLine
 10
23.67305085490148
 20
5.280743608408048
 30
0.0
 11
24.74866341427619
 21
6.356356167782759
 31
0.0
  0
LINE
  5
1B026
330
1B01D
100
AcDbEntity
  8
0
  6
CONTINUOUS
100
AcDbLine
 10
23.88118970842314
 20
4.815363252849522
 30
0.0
 11
24.95684516609694
 21
5.89101871052332
 31
0.0
  0
LINE
  5
1B027
330
1B01D
100
AcDbEntity
  8
0
  6
CONTINUOUS
100
AcDbLine
 10
19.73925852647308
 20
-0.0000871381807288
 30
0.0
 11
23.4103456646501
 21
3.670999999996297
 31
0.0
  0
LINE
  5
1B028
330
1B01D
100
AcDbEntity
  8
0
  6
CONTINUOUS
100
AcDbLine
 10
24.0893285619448
 20
4.349982897290997
 30
0.0
 11
25.16502691791769
 21
5.42568125326388
 31
0.0
  0
LINE
  5
1B029
330
1B01D
100
AcDbEntity
  8
0
  6
CONTINUOUS
100
AcDbLine
 10
20.41282099582748
 20
-0.0000438779065108
 30
0.0
 11
21.64944178675636
 21
1.236576913022366
 31
0.0
  0
LINE
  5
1B02A
330
1B01D
100
AcDbEntity
  8
0
  6
CONTINUOUS
100
AcDbLine
 10
22.78126487373161
 20
2.36839999999762
 30
0.0
 11
24.08386487373029
 21
3.670999999996297
 31
0.0
  0
LINE
  5
1B02B
330
1B01D
100
AcDbEntity
  8
0
  6
CONTINUOUS
100
AcDbLine
 10
24.29746741546646
 20
3.884602541732471
 30
0.0
 11
25.37320866973843
 21
4.960343796004441
 31
0.0
  0
LINE
  5
1B02C
330
1B01D
100
AcDbEntity
  8
0
  6
CONTINUOUS
100
AcDbLine
 10
21.08638346518189
 20
-0.0000006176322938
 30
0.0
 11
21.10379033335899
 21
0.0174062505448083
 31
0.0
  0
LINE
  5
1B02D
330
1B01D
100
AcDbEntity
  8
0
  6
CONTINUOUS
100
AcDbLine
 10
23.4547840828118
 20
2.36839999999762
 30
0.0
 11
25.58139042155918
 21
4.495006338745002
 31
0.0
  0
LINE
  5
1B02E
330
1B01D
100
AcDbEntity
  8
0
  6
CONTINUOUS
100
AcDbLine
 10
29.30199999996933
 20
8.215615917155148
 30
0.0
 11
29.84948408280543
 21
8.763099999991255
 31
0.0
  0
LINE
  5
1B02F
330
1B01D
100
AcDbEntity
  8
0
  6
CONTINUOUS
100
AcDbLine
 10
24.12830329189199
 20
2.36839999999762
 30
0.0
 11
25.78957217337993
 21
4.029668881485562
 31
0.0
  0
LINE
  5
1B030
330
1B01D
100
AcDbEntity
  8
0
  6
CONTINUOUS
100
AcDbLine
 10
29.30199999996933
 20
7.54209670807496
 30
0.0
 11
30.52300329188562
 21
8.763099999991255
 31
0.0
  0
LINE
  5
1B031
330
1B01D
100
AcDbEntity
  8
0
  6
CONTINUOUS
100
AcDbLine
 10
24.80182250097217
 20
2.36839999999762
 30
0.0
 11
25.99775392520067
 21
3.564331424226122
 31
0.0
  0
LINE
  5
1B032
330
1B01D
100
AcDbEntity
  8
0
  6
CONTINUOUS
100
AcDbLine
 10
29.30199999996933
 20
6.868577498994774
 30
0.0
 11
30.74199999996926
 21
8.308577498994712
 31
0.0
  0
LINE
  5
1B033
330
1B01D
100
AcDbEntity
  8
0
  6
CONTINUOUS
100
AcDbLine
 10
25.13028238392013
 20
2.023340673865392
 30
0.0
 11
26.20593567702142
 21
3.098993966966683
 31
0.0
  0
LINE
  5
1B034
330
1B01D
100
AcDbEntity
  8
0
  6
CONTINUOUS
100
AcDbLine
 10
25.33838066033617
 20
1.557919741201244
 30
0.0
 11
26.41411742884217
 21
2.633656509707244
 31
0.0
  0
LINE
  5
1B035
330
1B01D
100
AcDbEntity
  8
0
  6
CONTINUOUS
100
AcDbLine
 10
25.54647893675221
 20
1.092498808537098
 30
0.0
 11
26.62229918066291
 21
2.168319052447804
 31
0.0
  0
LINE
  5
1B036
330
1B01D
100
AcDbEntity
  8
0
  6
CONTINUOUS
100
AcDbLine
 10
25.75457721316825
 20
0.62707787587295
 30
0.0
 11
26.83048093248366
 21
1.702981595188365
 31
0.0
  0
LINE
  5
1B037
330
1B01D
100
AcDbEntity
  8
0
  6
CONTINUOUS
100
AcDbLine
 10
29.30199999996933
 20
6.195058289914587
 30
0.0
 11
30.74199999996926
 21
7.635058289914522
 31
0.0
  0
LINE
  5
1B038
330
1B01D
100
AcDbEntity
  8
0
  6
CONTINUOUS
100
AcDbLine
 10
29.30199999996933
 20
5.521539080834401
 30
0.0
 11
30.74199999996926
 21
6.961539080834331
 31
0.0
  0
LINE
  5
1B039
330
1B01D
100
AcDbEntity
  8
0
  6
CONTINUOUS
100
AcDbLine
 10
29.30199999996933
 20
4.848019871754214
 30
0.0
 11
30.74199999996925
 21
6.288019871754143
 31
0.0
  0
LINE
  5
1B03A
330
1B01D
100
AcDbEntity
  8
0
  6
CONTINUOUS
100
AcDbLine
 10
29.30199999996933
 20
4.174500662674028
 30
0.0
 11
30.74199999996925
 21
5.614500662673953
 31
0.0
  0
LINE
  5
1B03B
330
1B01D
100
AcDbEntity
  8
0
  6
CONTINUOUS
100
AcDbLine
 10
25.96267548958429
 20
0.1616569432088024
 30
0.0
 11
27.18411854636669
 21
1.383099999991207
 31
0.0
  0
LINE
  5
1B03C
330
1B01D
100
AcDbEntity
  8
0
  6
CONTINUOUS
100
AcDbLine
 10
29.30199999996933
 20
3.500981453593841
 30
0.0
 11
30.74199999996925
 21
4.940981453593762
 31
0.0
  0
LINE
  5
1B03D
330
1B01D
100
AcDbEntity
  8
0
  6
CONTINUOUS
100
AcDbLine
 10
26.50763775544691
 20
0.0330999999912356
 30
0.0
 11
27.85763775544689
 21
1.383099999991223
 31
0.0
  0
LINE
  5
1B03E
330
1B01D
100
AcDbEntity
  8
0
  6
CONTINUOUS
100
AcDbLine
 10
29.30199999996933
 20
2.827462244513656
 30
0.0
 11
30.74199999996925
 21
4.267462244513574
 31
0.0
  0
LINE
  5
1B03F
330
1B01D
100
AcDbEntity
  8
0
  6
CONTINUOUS
100
AcDbLine
 10
27.18115696452709
 20
0.0330999999912356
 30
0.0
 11
28.55073879889363
 21
1.402681834357775
 31
0.0
  0
LINE
  5
1B040
330
1B01D
100
AcDbEntity
  8
0
  6
CONTINUOUS
100
AcDbLine
 10
29.28241816560272
 20
2.134361201066866
 30
0.0
 11
30.74199999996924
 21
3.593943035433383
 31
0.0
  0
LINE
  5
1B041
330
1B01D
100
AcDbEntity
  8
0
  6
CONTINUOUS
100
AcDbLine
 10
27.85467617360728
 20
0.0330999999912356
 30
0.0
 11
30.74199999996924
 21
2.920423826353195
 31
0.0
  0
LINE
  5
1B042
330
1B01D
100
AcDbEntity
  8
0
  6
CONTINUOUS
100
AcDbLine
 10
28.53897559587887
 20
0.0438802131826428
 30
0.0
 11
30.73121978677781
 21
2.236124404081585
 31
0.0
  0
LINE
  5
1B043
330
1B01D
100
AcDbEntity
  8
0
  6
CONTINUOUS
100
AcDbLine
 10
29.45140055588722
 20
0.2827859641107988
 30
0.0
 11
30.49231403584965
 21
1.323699444073236
 31
0.0
  0
LINE
  5
1B044
330
1B01D
100
AcDbEntity
  8
0
  6
CONTINUOUS
100
AcDbLine
 10
19.59027867740337
 20
-0.0000967065718083
 30
0.0
 11
19.55485265190471
 21
0.035329318926844
 31
0.0
  0
LINE
  5
1B045
330
1B01D
100
AcDbEntity
  8
0
  6
CONTINUOUS
100
AcDbLine
 10
20.26375463176586
 20
-0.0000534518541091
 30
0.0
 11
19.76305575737534
 21
0.5006454225364014
 31
0.0
  0
LINE
  5
1B046
330
1B01D
100
AcDbEntity
  8
0
  6
CONTINUOUS
100
AcDbLine
 10
20.93723058612834
 20
-0.0000101971364099
 30
0.0
 11
19.97125886284597
 21
0.965961526145958
 31
0.0
  0
LINE
  5
1B047
330
1B01D
100
AcDbEntity
  8
0
  6
CONTINUOUS
100
AcDbLine
 10
21.25514828313686
 20
0.355591314935257
 30
0.0
 11
20.1794619683166
 21
1.431277629755512
 31
0.0
  0
LINE
  5
1B048
330
1B01D
100
AcDbEntity
  8
0
  6
CONTINUOUS
100
AcDbLine
 10
21.46338838394921
 20
0.8208704232030986
 30
0.0
 11
20.38766507378723
 21
1.896593733365069
 31
0.0
  0
LINE
  5
1B049
330
1B01D
100
AcDbEntity
  8
0
  6
CONTINUOUS
100
AcDbLine
 10
21.67162848476155
 20
1.28614953147094
 30
0.0
 11
20.59586817925786
 21
2.361909836974626
 31
0.0
  0
LINE
  5
1B04A
330
1B01D
100
AcDbEntity
  8
0
  6
CONTINUOUS
100
AcDbLine
 10
21.8798685855739
 20
1.751428639738782
 30
0.0
 11
20.80407128472849
 21
2.827225940584183
 31
0.0
  0
LINE
  5
1B04B
330
1B01D
100
AcDbEntity
  8
0
  6
CONTINUOUS
100
AcDbLine
 10
22.08810868638624
 20
2.216707748006623
 30
0.0
 11
21.01227439019912
 21
3.292542044193739
 31
0.0
  0
LINE
  5
1B04C
330
1B01D
100
AcDbEntity
  8
0
  6
CONTINUOUS
100
AcDbLine
 10
22.60993564347543
 20
2.36839999999762
 30
0.0
 11
21.22047749566975
 21
3.757858147803296
 31
0.0
  0
LINE
  5
1B04D
330
1B01D
100
AcDbEntity
  8
0
  6
CONTINUOUS
100
AcDbLine
 10
23.28345485255561
 20
2.36839999999762
 30
0.0
 11
21.42868060114038
 21
4.223174251412853
 31
0.0
  0
LINE
  5
1B04E
330
1B01D
100
AcDbEntity
  8
0
  6
CONTINUOUS
100
AcDbLine
 10
26.29227406164219
 20
0.0330999999912356
 30
0.0
 11
25.80009199592872
 21
0.5252820657046957
 31
0.0
  0
LINE
  5
1B04F
330
1B01D
100
AcDbEntity
  8
0
  6
CONTINUOUS
100
AcDbLine
 10
23.9569740616358
 20
2.36839999999762
 30
0.0
 11
21.63688370661101
 21
4.688490355022409
 31
0.0
  0
LINE
  5
1B050
330
1B01D
100
AcDbEntity
  8
0
  6
CONTINUOUS
100
AcDbLine
 10
26.96579327072237
 20
0.0330999999912356
 30
0.0
 11
25.2554132311971
 21
1.743480039516508
 31
0.0
  0
LINE
  5
1B051
330
1B01D
100
AcDbEntity
  8
0
  6
CONTINUOUS
100
AcDbLine
 10
24.63049327071599
 20
2.36839999999762
 30
0.0
 11
23.32789327071731
 21
3.670999999996297
 31
0.0
  0
LINE
  5
1B052
330
1B01D
100
AcDbEntity
  8
0
  6
CONTINUOUS
100
AcDbLine
 10
22.92098674744635
 20
4.077906523267254
 30
0.0
 11
21.84508681208164
 21
5.153806458631966
 31
0.0
  0
LINE
  5
1B053
330
1B01D
100
AcDbEntity
  8
0
  6
CONTINUOUS
100
AcDbLine
 10
27.63931247980256
 20
0.0330999999912356
 30
0.0
 11
24.0014124797975
 21
3.670999999996297
 31
0.0
  0
LINE
  5
1B054
330
1B01D
100
AcDbEntity
  8
0
  6
CONTINUOUS
100
AcDbLine
 10
23.129125600968
 20
4.5432868788258
 30
0.0
 11
22.05328991755227
 21
5.619122562241522
 31
0.0
  0
LINE
  5
1B055
330
1B01D
100
AcDbEntity
  8
0
  6
CONTINUOUS
100
AcDbLine
 10
28.31283168888275
 20
0.0330999999912356
 30
0.0
 11
24.16488385994816
 21
4.181047828925828
 31
0.0
  0
LINE
  5
1B056
330
1B01D
100
AcDbEntity
  8
0
  6
CONTINUOUS
100
AcDbLine
 10
23.33726445448964
 20
5.008667234384345
 30
0.0
 11
22.2614930230229
 21
6.084438665851079
 31
0.0
  0
LINE
  5
1B057
330
1B01D
100
AcDbEntity
  8
0
  6
CONTINUOUS
100
AcDbLine
 10
28.92085740005492
 20
0.0985934978992438
 30
0.0
 11
27.63635089796295
 21
1.383099999991217
 31
0.0
  0
LINE
  5
1B058
330
1B01D
100
AcDbEntity
  8
0
  6
CONTINUOUS
100
AcDbLine
 10
26.43704649509776
 20
2.582404402856405
 30
0.0
 11
23.61992702019732
 21
5.399523877756844
 31
0.0
  0
LINE
  5
1B059
330
1B01D
100
AcDbEntity
  8
0
  6
CONTINUOUS
100
AcDbLine
 10
23.54540330801128
 20
5.47404758994289
 30
0.0
 11
22.46969612849353
 21
6.549754769460635
 31
0.0
  0
LINE
  5
1B05A
330
1B01D
100
AcDbEntity
  8
0
  6
CONTINUOUS
100
AcDbLine
 10
29.42225615078443
 20
0.2707139562499279
 30
0.0
 11
28.30987010704312
 21
1.383099999991234
 31
0.0
  0
LINE
  5
1B05B
330
1B01D
100
AcDbEntity
  8
0
  6
CONTINUOUS
100
AcDbLine
 10
25.89179548232307
 20
3.801174624711282
 30
0.0
 11
22.67789923396416
 21
7.015070873070191
 31
0.0
  0
LINE
  5
1B05C
330
1B01D
100
AcDbEntity
  8
0
  6
CONTINUOUS
100
AcDbLine
 10
29.83624534690007
 20
0.5302439692144705
 30
0.0
 11
28.85811781497101
 21
1.508371501143527
 31
0.0
  0
LINE
  5
1B05D
330
1B01D
100
AcDbEntity
  8
0
  6
CONTINUOUS
100
AcDbLine
 10
25.34654446954838
 20
5.01994484656616
 30
0.0
 11
22.88610233943479
 21
7.480386976679748
 31
0.0
  0
LINE
  5
1B05E
330
1B01D
100
AcDbEntity
  8
0
  6
CONTINUOUS
100
AcDbLine
 10
30.17865975401872
 20
0.8613487711760022
 30
0.0
 11
29.18888744090175
 21
1.851121084292977
 31
0.0
  0
LINE
  5
1B05F
330
1B01D
100
AcDbEntity
  8
0
  6
CONTINUOUS
100
AcDbLine
 10
24.80129345677369
 20
6.238715068421037
 30
0.0
 11
23.09430544490542
 21
7.945703080289305
 31
0.0
  0
LINE
  5
1B060
330
1B01D
100
AcDbEntity
  8
0
  6
CONTINUOUS
100
AcDbLine
 10
30.45496647202376
 20
1.258561262251155
 30
0.0
 11
29.30199999996933
 21
2.411527734305588
 31
0.0
  0
LINE
  5
1B061
330
1B01D
100
AcDbEntity
  8
0
  6
CONTINUOUS
100
AcDbLine
 10
24.256042443999
 20
7.457485290275915
 30
0.0
 11
23.30250855037605
 21
8.411019183898862
 31
0.0
  0
LINE
  5
1B062
330
1B01D
100
AcDbEntity
  8
0
  6
CONTINUOUS
100
AcDbLine
 10
30.64868582078271
 20
1.738361122572387
 30
0.0
 11
29.30199999996933
 21
3.085046943385775
 31
0.0
  0
LINE
  5
1B063
330
1B01D
100
AcDbEntity
  8
0
  6
CONTINUOUS
100
AcDbLine
 10
23.71079143122431
 20
8.676255512130794
 30
0.0
 11
23.51071165584668
 21
8.876335287508416
 31
0.0
  0
LINE
  5
1B064
330
1B01D
100
AcDbEntity
  8
0
  6
CONTINUOUS
100
AcDbLine
 10
30.73802122914428
 20
2.322544923291007
 30
0.0
 11
29.30199999996933
 21
3.758566152465961
 31
0.0
  0
LINE
  5
1B065
330
1B01D
100
AcDbEntity
  8
0
  6
CONTINUOUS
100
AcDbLine
 10
30.74199999996924
 20
2.992085361546236
 30
0.0
 11
29.30199999996933
 21
4.432085361546148
 31
0.0
  0
LINE
  5
1B066
330
1B01D
100
AcDbEntity
  8
0
  6
CONTINUOUS
100
AcDbLine
 10
30.74199999996924
 20
3.665604570626419
 30
0.0
 11
29.30199999996933
 21
5.105604570626333
 31
0.0
  0
LINE
  5
1B067
330
1B01D
100
AcDbEntity
  8
0
  6
CONTINUOUS
100
AcDbLine
 10
30.74199999996925
 20
4.339123779706602
 30
0.0
 11
29.30199999996933
 21
5.77912377970652
 31
0.0
  0
LINE
  5
1B068
330
1B01D
100
AcDbEntity
  8
0
  6
CONTINUOUS
100
AcDbLine
 10
30.74199999996925
 20
5.012642988786785
 30
0.0
 11
29.30199999996933
 21
6.452642988786707
 31
0.0
  0
LINE
  5
1B069
330
1B01D
100
AcDbEntity
  8
0
  6
CONTINUOUS
100
AcDbLine
 10
30.74199999996925
 20
5.68616219786697
 30
0.0
 11
29.30199999996933
 21
7.126162197866894
 31
0.0
  0
LINE
  5
1B06A
330
1B01D
100
AcDbEntity
  8
0
  6
CONTINUOUS
100
AcDbLine
 10
30.74199999996925
 20
6.359681406947153
 30
0.0
 11
29.30199999996933
 21
7.799681406947081
 31
0.0
  0
LINE
  5
1B06B
330
1B01D
100
AcDbEntity
  8
0
  6
CONTINUOUS
100
AcDbLine
 10
30.74199999996926
 20
7.033200616027337
 30
0.0
 11
29.30199999996933
 21
8.473200616027269
 31
0.0
  0
LINE
  5
1B06C
330
1B01D
100
AcDbEntity
  8
0
  6
CONTINUOUS
100
AcDbLine
 10
30.74199999996926
 20
7.706719825107518
 30
0.0
 11
29.68561982508552
 21
8.763099999991255
 31
0.0
  0
LINE
  5
1B06D
330
1B01D
100
AcDbEntity
  8
0
  6
CONTINUOUS
100
AcDbLine
 10
30.74199999996926
 20
8.380239034187703
 30
0.0
 11
30.35913903416571
 21
8.763099999991255
 31
0.0
  0
ENDBLK
  5
1B110
330
1B01D
100
AcDbEntity
  8
0
100
AcDbBlockEnd
  0
BLOCK
  5
1B111
330
1B06E
100
AcDbEntity
  8
0
100
AcDbBlockBegin
  2
*X53
 70
     1
 10
0.0
 20
0.0
 30
0.0
  3
*X53
  1

  0
LINE
  5
1B06F
330
1B06E
100
AcDbEntity
  8
0
  6
CONTINUOUS
100
AcDbLine
 10
31.64199999996833
 20
8.535058289913598
 30
0.0
 11
31.87004171004599
 21
8.763099999991255
 31
0.0
  0
LINE
  5
1B070
330
1B06E
100
AcDbEntity
  8
0
  6
CONTINUOUS
100
AcDbLine
 10
31.64199999996833
 20
7.861539080833412
 30
0.0
 11
32.54356091912618
 21
8.763099999991255
 31
0.0
  0
LINE
  5
1B071
330
1B06E
100
AcDbEntity
  8
0
  6
CONTINUOUS
100
AcDbLine
 10
31.64199999996833
 20
7.188019871753226
 30
0.0
 11
33.08199999996839
 21
8.628019871753281
 31
0.0
  0
LINE
  5
1B072
330
1B06E
100
AcDbEntity
  8
0
  6
CONTINUOUS
100
AcDbLine
 10
31.64199999996833
 20
6.51450066267304
 30
0.0
 11
33.08199999996839
 21
7.954500662673095
 31
0.0
  0
LINE
  5
1B073
330
1B06E
100
AcDbEntity
  8
0
  6
CONTINUOUS
100
AcDbLine
 10
31.64199999996833
 20
5.840981453592853
 30
0.0
 11
33.08199999996839
 21
7.280981453592908
 31
0.0
  0
LINE
  5
1B074
330
1B06E
100
AcDbEntity
  8
0
  6
CONTINUOUS
100
AcDbLine
 10
31.64199999996833
 20
5.167462244512667
 30
0.0
 11
33.08199999996839
 21
6.607462244512721
 31
0.0
  0
LINE
  5
1B075
330
1B06E
100
AcDbEntity
  8
0
  6
CONTINUOUS
100
AcDbLine
 10
31.64199999996833
 20
4.493943035432481
 30
0.0
 11
33.08199999996839
 21
5.933943035432535
 31
0.0
  0
LINE
  5
1B076
330
1B06E
100
AcDbEntity
  8
0
  6
CONTINUOUS
100
AcDbLine
 10
31.64199999996833
 20
3.820423826352293
 30
0.0
 11
33.08199999996839
 21
5.260423826352348
 31
0.0
  0
LINE
  5
1B077
330
1B06E
100
AcDbEntity
  8
0
  6
CONTINUOUS
100
AcDbLine
 10
31.64199999996833
 20
3.146904617272106
 30
0.0
 11
33.08199999996839
 21
4.586904617272161
 31
0.0
  0
LINE
  5
1B078
330
1B06E
100
AcDbEntity
  8
0
  6
CONTINUOUS
100
AcDbLine
 10
36.23199999996837
 20
8.410423826352325
 30
0.0
 11
36.5846761736073
 21
8.763099999991255
 31
0.0
  0
LINE
  5
1B079
330
1B06E
100
AcDbEntity
  8
0
  6
CONTINUOUS
100
AcDbLine
 10
36.23199999996837
 20
7.73690461727214
 30
0.0
 11
37.25819538268748
 21
8.763099999991255
 31
0.0
  0
LINE
  5
1B07A
330
1B06E
100
AcDbEntity
  8
0
  6
CONTINUOUS
100
AcDbLine
 10
31.64257403601376
 20
2.473959444237348
 30
0.0
 11
33.08199999996839
 21
3.913385408191974
 31
0.0
  0
LINE
  5
1B07B
330
1B06E
100
AcDbEntity
  8
0
  6
CONTINUOUS
100
AcDbLine
 10
36.23199999996837
 20
7.063385408191953
 30
0.0
 11
37.67199999996831
 21
8.503385408191894
 31
0.0
  0
LINE
  5
1B07C
330
1B06E
100
AcDbEntity
  8
0
  6
CONTINUOUS
100
AcDbLine
 10
31.72013636841932
 20
1.87800256756272
 30
0.0
 11
33.08199999996839
 21
3.239866199111788
 31
0.0
  0
LINE
  5
1B07D
330
1B06E
100
AcDbEntity
  8
0
  6
CONTINUOUS
100
AcDbLine
 10
36.23199999996837
 20
6.389866199111767
 30
0.0
 11
37.67199999996831
 21
7.829866199111708
 31
0.0
  0
LINE
  5
1B07E
330
1B06E
100
AcDbEntity
  8
0
  6
CONTINUOUS
100
AcDbLine
 10
31.89042734314753
 20
1.374774333210744
 30
0.0
 11
33.08199999996839
 21
2.566346990031601
 31
0.0
  0
LINE
  5
1B07F
330
1B06E
100
AcDbEntity
  8
0
  6
CONTINUOUS
100
AcDbLine
 10
36.23199999996837
 20
5.71634699003158
 30
0.0
 11
37.67199999996831
 21
7.156346990031521
 31
0.0
  0
LINE
  5
1B080
330
1B06E
100
AcDbEntity
  8
0
  6
CONTINUOUS
100
AcDbLine
 10
32.14210568064475
 20
0.952933461627778
 30
0.0
 11
33.18745552475986
 21
1.998283305742888
 31
0.0
  0
LINE
  5
1B081
330
1B06E
100
AcDbEntity
  8
0
  6
CONTINUOUS
100
AcDbLine
 10
36.23199999996837
 20
5.042827780951393
 30
0.0
 11
37.67199999996831
 21
6.482827780951334
 31
0.0
  0
LINE
  5
1B082
330
1B06E
100
AcDbEntity
  8
0
  6
CONTINUOUS
100
AcDbLine
 10
32.45820639400955
 20
0.5955149659123915
 30
0.0
 11
33.47242681921943
 21
1.60973539112227
 31
0.0
  0
LINE
  5
1B083
330
1B06E
100
AcDbEntity
  8
0
  6
CONTINUOUS
100
AcDbLine
 10
36.23199999996837
 20
4.369308571871207
 30
0.0
 11
37.67199999996831
 21
5.809308571871147
 31
0.0
  0
LINE
  5
1B084
330
1B06E
100
AcDbEntity
  8
0
  6
CONTINUOUS
100
AcDbLine
 10
32.83432456621412
 20
0.2981139290367771
 30
0.0
 11
33.89722476612215
 21
1.361014128944803
 31
0.0
  0
LINE
  5
1B085
330
1B06E
100
AcDbEntity
  8
0
  6
CONTINUOUS
100
AcDbLine
 10
36.23199999996837
 20
3.69578936279102
 30
0.0
 11
37.67199999996831
 21
5.135789362790962
 31
0.0
  0
LINE
  5
1B086
330
1B06E
100
AcDbEntity
  8
0
  6
CONTINUOUS
100
AcDbLine
 10
33.2711633111245
 20
0.0614334648669672
 30
0.0
 11
34.43247338014423
 21
1.222743533886696
 31
0.0
  0
LINE
  5
1B087
330
1B06E
100
AcDbEntity
  8
0
  6
CONTINUOUS
100
AcDbLine
 10
36.23199999996837
 20
3.022270153710834
 30
0.0
 11
37.67199999996831
 21
4.462270153710775
 31
0.0
  0
LINE
  5
1B088
330
1B06E
100
AcDbEntity
  8
0
  6
CONTINUOUS
100
AcDbLine
 10
33.76515245874577
 20
-0.1180965965919523
 30
0.0
 11
35.1587445516215
 21
1.27549549628378
 31
0.0
  0
LINE
  5
1B089
330
1B06E
100
AcDbEntity
  8
0
  6
CONTINUOUS
100
AcDbLine
 10
36.21639478609585
 20
2.333145730758136
 30
0.0
 11
37.67199999996831
 21
3.788750944630588
 31
0.0
  0
LINE
  5
1B08A
330
1B06E
100
AcDbEntity
  8
0
  6
CONTINUOUS
100
AcDbLine
 10
34.34060583368432
 20
-0.2161624307335863
 30
0.0
 11
37.67199999996831
 21
3.115231735550401
 31
0.0
  0
LINE
  5
1B08B
330
1B06E
100
AcDbEntity
  8
0
  6
CONTINUOUS
100
AcDbLine
 10
35.01698193613905
 20
-0.2133055373590427
 30
0.0
 11
37.66876712070525
 21
2.438479647207154
 31
0.0
  0
LINE
  5
1B08C
330
1B06E
100
AcDbEntity
  8
0
  6
CONTINUOUS
100
AcDbLine
 10
35.90743367693304
 20
0.0036269943547609
 30
0.0
 11
37.51723902192366
 21
1.613432339345381
 31
0.0
  0
LINE
  5
1B08D
330
1B06E
100
AcDbEntity
  8
0
  6
CONTINUOUS
100
AcDbLine
 10
32.55309425579761
 20
0.5074718966376706
 30
0.0
 11
32.27784730925847
 21
0.7827188431768102
 31
0.0
  0
LINE
  5
1B08E
330
1B06E
100
AcDbEntity
  8
0
  6
CONTINUOUS
100
AcDbLine
 10
33.87496468909684
 20
-0.1408793275813673
 30
0.0
 11
31.67993083278052
 21
2.054154528734943
 31
0.0
  0
LINE
  5
1B08F
330
1B06E
100
AcDbEntity
  8
0
  6
CONTINUOUS
100
AcDbLine
 10
34.64362813207632
 20
-0.2360235614806649
 30
0.0
 11
31.64199999996833
 21
2.765604570627322
 31
0.0
  0
LINE
  5
1B090
330
1B06E
100
AcDbEntity
  8
0
  6
CONTINUOUS
100
AcDbLine
 10
35.25801106796118
 20
-0.1768872882853429
 30
0.0
 11
31.64199999996833
 21
3.439123779707508
 31
0.0
  0
LINE
  5
1B091
330
1B06E
100
AcDbEntity
  8
0
  6
CONTINUOUS
100
AcDbLine
 10
35.79065650332146
 20
-0.0360135145654361
 30
0.0
 11
34.54143210838231
 21
1.213210880373721
 31
0.0
  0
LINE
  5
1B092
330
1B06E
100
AcDbEntity
  8
0
  6
CONTINUOUS
100
AcDbLine
 10
33.08199999996839
 20
2.67264298878764
 30
0.0
 11
31.64199999996833
 21
4.112642988787695
 31
0.0
  0
LINE
  5
1B093
330
1B06E
100
AcDbEntity
  8
0
  6
CONTINUOUS
100
AcDbLine
 10
36.25975597779143
 20
0.1684062200447833
 30
0.0
 11
35.15395110240023
 21
1.274211095435983
 31
0.0
  0
LINE
  5
1B094
330
1B06E
100
AcDbEntity
  8
0
  6
CONTINUOUS
100
AcDbLine
 10
33.08199999996839
 20
3.346162197867826
 30
0.0
 11
31.64199999996833
 21
4.786162197867881
 31
0.0
  0
LINE
  5
1B095
330
1B06E
100
AcDbEntity
  8
0
  6
CONTINUOUS
100
AcDbLine
 10
36.67226329638774
 20
0.4294181105286579
 30
0.0
 11
35.63766478748767
 21
1.464016619428737
 31
0.0
  0
LINE
  5
1B096
330
1B06E
100
AcDbEntity
  8
0
  6
CONTINUOUS
100
AcDbLine
 10
33.08199999996839
 20
4.019681406948012
 30
0.0
 11
31.64199999996833
 21
5.459681406948068
 31
0.0
  0
LINE
  5
1B097
330
1B06E
100
AcDbEntity
  8
0
  6
CONTINUOUS
100
AcDbLine
 10
37.01677749710036
 20
0.7584231188962329
 30
0.0
 11
35.99563422741351
 21
1.779566388583076
 31
0.0
  0
LINE
  5
1B098
330
1B06E
100
AcDbEntity
  8
0
  6
CONTINUOUS
100
AcDbLine
 10
33.08199999996839
 20
4.693200616028199
 30
0.0
 11
31.64199999996833
 21
6.133200616028255
 31
0.0
  0
LINE
  5
1B099
330
1B06E
100
AcDbEntity
  8
0
  6
CONTINUOUS
100
AcDbLine
 10
37.29859977568887
 20
1.1501200493879
 30
0.0
 11
36.20680593341555
 21
2.241913891661226
 31
0.0
  0
LINE
  5
1B09A
330
1B06E
100
AcDbEntity
  8
0
  6
CONTINUOUS
100
AcDbLine
 10
33.08199999996839
 20
5.366719825108386
 30
0.0
 11
31.64199999996833
 21
6.80671982510844
 31
0.0
  0
LINE
  5
1B09B
330
1B06E
100
AcDbEntity
  8
0
  6
CONTINUOUS
100
AcDbLine
 10
37.5148623517228
 20
1.607376682434161
 30
0.0
 11
36.23199999996837
 21
2.890239034188594
 31
0.0
  0
LINE
  5
1B09C
330
1B06E
100
AcDbEntity
  8
0
  6
CONTINUOUS
100
AcDbLine
 10
33.08199999996839
 20
6.040239034188573
 30
0.0
 11
31.64199999996833
 21
7.480239034188627
 31
0.0
  0
LINE
  5
1B09D
330
1B06E
100
AcDbEntity
  8
0
  6
CONTINUOUS
100
AcDbLine
 10
37.64705163358367
 20
2.148706609653477
 30
0.0
 11
36.23199999996837
 21
3.56375824326878
 31
0.0
  0
LINE
  5
1B09E
330
1B06E
100
AcDbEntity
  8
0
  6
CONTINUOUS
100
AcDbLine
 10
33.08199999996839
 20
6.713758243268758
 30
0.0
 11
31.64199999996833
 21
8.153758243268815
 31
0.0
  0
LINE
  5
1B09F
330
1B06E
100
AcDbEntity
  8
0
  6
CONTINUOUS
100
AcDbLine
 10
37.67199999996831
 20
2.797277452349026
 30
0.0
 11
36.23199999996837
 21
4.237277452348967
 31
0.0
  0
LINE
  5
1B0A0
330
1B06E
100
AcDbEntity
  8
0
  6
CONTINUOUS
100
AcDbLine
 10
37.67199999996831
 20
3.470796661429213
 30
0.0
 11
36.23199999996837
 21
4.910796661429154
 31
0.0
  0
LINE
  5
1B0A1
330
1B06E
100
AcDbEntity
  8
0
  6
CONTINUOUS
100
AcDbLine
 10
37.67199999996831
 20
4.144315870509399
 30
0.0
 11
36.23199999996837
 21
5.58431587050934
 31
0.0
  0
LINE
  5
1B0A2
330
1B06E
100
AcDbEntity
  8
0
  6
CONTINUOUS
100
AcDbLine
 10
33.08199999996839
 20
7.387277452348945
 30
0.0
 11
31.70617745232608
 21
8.763099999991255
 31
0.0
  0
LINE
  5
1B0A3
330
1B06E
100
AcDbEntity
  8
0
  6
CONTINUOUS
100
AcDbLine
 10
33.08199999996839
 20
8.060796661429132
 30
0.0
 11
32.37969666140626
 21
8.763099999991255
 31
0.0
  0
LINE
  5
1B0A4
330
1B06E
100
AcDbEntity
  8
0
  6
CONTINUOUS
100
AcDbLine
 10
33.08199999996839
 20
8.734315870509318
 30
0.0
 11
33.05321587048645
 21
8.763099999991255
 31
0.0
  0
LINE
  5
1B0A5
330
1B06E
100
AcDbEntity
  8
0
  6
CONTINUOUS
100
AcDbLine
 10
37.67199999996831
 20
4.817835079589585
 30
0.0
 11
36.23199999996837
 21
6.257835079589526
 31
0.0
  0
LINE
  5
1B0A6
330
1B06E
100
AcDbEntity
  8
0
  6
CONTINUOUS
100
AcDbLine
 10
37.67199999996831
 20
5.491354288669771
 30
0.0
 11
36.23199999996837
 21
6.931354288669713
 31
0.0
  0
LINE
  5
1B0A7
330
1B06E
100
AcDbEntity
  8
0
  6
CONTINUOUS
100
AcDbLine
 10
37.67199999996831
 20
6.164873497749958
 30
0.0
 11
36.23199999996837
 21
7.6048734977499
 31
0.0
  0
LINE
  5
1B0A8
330
1B06E
100
AcDbEntity
  8
0
  6
CONTINUOUS
100
AcDbLine
 10
37.67199999996831
 20
6.838392706830144
 30
0.0
 11
36.23199999996837
 21
8.278392706830086
 31
0.0
  0
LINE
  5
1B0A9
330
1B06E
100
AcDbEntity
  8
0
  6
CONTINUOUS
100
AcDbLine
 10
37.67199999996831
 20
7.511911915910332
 30
0.0
 11
36.42081191588738
 21
8.763099999991255
 31
0.0
  0
LINE
  5
1B0AA
330
1B06E
100
AcDbEntity
  8
0
  6
CONTINUOUS
100
AcDbLine
 10
37.67199999996831
 20
8.185431124990519
 30
0.0
 11
37.09433112496757
 21
8.763099999991255
 31
0.0
  0
ENDBLK
  5
1B112
330
1B06E
100
AcDbEntity
  8
0
100
AcDbBlockEnd
  0
BLOCK
  5
1B113
330
1B0AB
100
AcDbEntity
  8
0
100
AcDbBlockBegin
  2
*X54
 70
     1
 10
0.0
 20
0.0
 30
0.0
  3
*X54
  1

  0
LINE
  5
1B0AC
330
1B0AB
100
AcDbEntity
  8
0
  6
CONTINUOUS
100
AcDbLine
 10
38.60499999996136
 20
8.762866199104765
 30
0.0
 11
38.71672554182345
 21
8.874591740966855
 31
0.0
  0
LINE
  5
1B0AD
330
1B0AB
100
AcDbEntity
  8
0
  6
CONTINUOUS
100
AcDbLine
 10
38.60499999996136
 20
8.089346990024577
 30
0.0
 11
39.03418785440363
 21
8.518534844466847
 31
0.0
  0
LINE
  5
1B0AE
330
1B0AB
100
AcDbEntity
  8
0
  6
CONTINUOUS
100
AcDbLine
 10
38.60499999996136
 20
7.41582778094439
 30
0.0
 11
39.35165016698382
 21
8.16247794796684
 31
0.0
  0
LINE
  5
1B0AF
330
1B0AB
100
AcDbEntity
  8
0
  6
CONTINUOUS
100
AcDbLine
 10
38.60499999996136
 20
6.742308571864204
 30
0.0
 11
39.66911247956399
 21
7.806421051466834
 31
0.0
  0
LINE
  5
1B0B0
330
1B0AB
100
AcDbEntity
  8
0
  6
CONTINUOUS
100
AcDbLine
 10
38.60499999996136
 20
6.068789362784018
 30
0.0
 11
39.98657479214418
 21
7.450364154966827
 31
0.0
  0
LINE
  5
1B0B1
330
1B0AB
100
AcDbEntity
  8
0
  6
CONTINUOUS
100
AcDbLine
 10
38.60499999996136
 20
5.395270153703832
 30
0.0
 11
40.30403710472435
 21
7.09430725846682
 31
0.0
  0
LINE
  5
1B0B2
330
1B0AB
100
AcDbEntity
  8
0
  6
CONTINUOUS
100
AcDbLine
 10
38.60499999996136
 20
4.721750944623645
 30
0.0
 11
40.62149941730453
 21
6.738250361966813
 31
0.0
  0
LINE
  5
1B0B3
330
1B0AB
100
AcDbEntity
  8
0
  6
CONTINUOUS
100
AcDbLine
 10
38.60499999996136
 20
4.048231735543458
 30
0.0
 11
40.93896172988471
 21
6.382193465466806
 31
0.0
  0
LINE
  5
1B0B4
330
1B0AB
100
AcDbEntity
  8
0
  6
CONTINUOUS
100
AcDbLine
 10
38.60499999996136
 20
3.374712526463272
 30
0.0
 11
40.02599999995994
 21
4.795712526461843
 31
0.0
  0
LINE
  5
1B0B5
330
1B0AB
100
AcDbEntity
  8
0
  6
CONTINUOUS
100
AcDbLine
 10
38.60499999996136
 20
2.701193317383085
 30
0.0
 11
40.02599999995994
 21
4.122193317381657
 31
0.0
  0
LINE
  5
1B0B6
330
1B0AB
100
AcDbEntity
  8
0
  6
CONTINUOUS
100
AcDbLine
 10
40.28339754687704
 20
5.053110073378947
 30
0.0
 11
41.25642404246489
 21
6.026136568966799
 31
0.0
  0
LINE
  5
1B0B7
330
1B0AB
100
AcDbEntity
  8
0
  6
CONTINUOUS
100
AcDbLine
 10
40.60085985945722
 20
4.697053176878939
 30
0.0
 11
41.57388635504507
 21
5.670079672466793
 31
0.0
  0
LINE
  5
1B0B8
330
1B0AB
100
AcDbEntity
  8
0
  6
CONTINUOUS
100
AcDbLine
 10
43.57899999995641
 20
8.348712526458318
 30
0.0
 11
43.99338747348935
 21
8.763099999991255
 31
0.0
  0
LINE
  5
1B0B9
330
1B0AB
100
AcDbEntity
  8
0
  6
CONTINUOUS
100
AcDbLine
 10
43.57899999995641
 20
7.675193317378131
 30
0.0
 11
44.66690668256953
 21
8.763099999991255
 31
0.0
  0
LINE
  5
1B0BA
330
1B0AB
100
AcDbEntity
  8
0
  6
CONTINUOUS
100
AcDbLine
 10
38.60499999996136
 20
2.027674108302898
 30
0.0
 11
40.02599999995994
 21
3.44867410830147
 31
0.0
  0
LINE
  5
1B0BB
330
1B0AB
100
AcDbEntity
  8
0
  6
CONTINUOUS
100
AcDbLine
 10
38.60499999996136
 20
1.354154899222712
 30
0.0
 11
40.02599999995994
 21
2.775154899221284
 31
0.0
  0
LINE
  5
1B0BC
330
1B0AB
100
AcDbEntity
  8
0
  6
CONTINUOUS
100
AcDbLine
 10
38.60499999996136
 20
0.6806356901425255
 30
0.0
 11
40.02599999995994
 21
2.101635690141098
 31
0.0
  0
LINE
  5
1B0BD
330
1B0AB
100
AcDbEntity
  8
0
  6
CONTINUOUS
100
AcDbLine
 10
38.60499999996136
 20
0.0071164810623383
 30
0.0
 11
40.02599999995994
 21
1.428116481060911
 31
0.0
  0
LINE
  5
1B0BE
330
1B0AB
100
AcDbEntity
  8
0
  6
CONTINUOUS
100
AcDbLine
 10
40.9183221720374
 20
4.340996280378933
 30
0.0
 11
41.89134866762525
 21
5.314022775966786
 31
0.0
  0
LINE
  5
1B0BF
330
1B0AB
100
AcDbEntity
  8
0
  6
CONTINUOUS
100
AcDbLine
 10
41.23578448461758
 20
3.984939383878926
 30
0.0
 11
42.20881098020543
 21
4.957965879466778
 31
0.0
  0
LINE
  5
1B0C0
330
1B0AB
100
AcDbEntity
  8
0
  6
CONTINUOUS
100
AcDbLine
 10
41.55324679719776
 20
3.628882487378919
 30
0.0
 11
42.52627329278561
 21
4.601908982966772
 31
0.0
  0
LINE
  5
1B0C1
330
1B0AB
100
AcDbEntity
  8
0
  6
CONTINUOUS
100
AcDbLine
 10
41.87070910977793
 20
3.272825590878912
 30
0.0
 11
42.84373560536579
 21
4.245852086466765
 31
0.0
  0
LINE
  5
1B0C2
330
1B0AB
100
AcDbEntity
  8
0
  6
CONTINUOUS
100
AcDbLine
 10
43.57899999995641
 20
7.001674108297943
 30
0.0
 11
44.99999999995498
 21
8.422674108296516
 31
0.0
  0
LINE
  5
1B0C3
330
1B0AB
100
AcDbEntity
  8
0
  6
CONTINUOUS
100
AcDbLine
 10
43.57899999995641
 20
6.328154899217758
 30
0.0
 11
44.99999999995498
 21
7.749154899216329
 31
0.0
  0
LINE
  5
1B0C4
330
1B0AB
100
AcDbEntity
  8
0
  6
CONTINUOUS
100
AcDbLine
 10
43.57899999995641
 20
5.654635690137571
 30
0.0
 11
44.99999999995498
 21
7.075635690136142
 31
0.0
  0
LINE
  5
1B0C5
330
1B0AB
100
AcDbEntity
  8
0
  6
CONTINUOUS
100
AcDbLine
 10
43.57899999995641
 20
4.981116481057384
 30
0.0
 11
44.99999999995498
 21
6.402116481055955
 31
0.0
  0
LINE
  5
1B0C6
330
1B0AB
100
AcDbEntity
  8
0
  6
CONTINUOUS
100
AcDbLine
 10
39.27140272797921
 20
-0.0000000000000009
 30
0.0
 11
40.02599999995994
 21
0.7545972719807246
 31
0.0
  0
LINE
  5
1B0C7
330
1B0AB
100
AcDbEntity
  8
0
  6
CONTINUOUS
100
AcDbLine
 10
39.9449219370594
 20
-0.0000000000000009
 30
0.0
 11
40.02599999995994
 21
0.0810780629005379
 31
0.0
  0
LINE
  5
1B0C8
330
1B0AB
100
AcDbEntity
  8
0
  6
CONTINUOUS
100
AcDbLine
 10
42.18817142235812
 20
2.916768694378905
 30
0.0
 11
43.16119791794597
 21
3.889795189966758
 31
0.0
  0
LINE
  5
1B0C9
330
1B0AB
100
AcDbEntity
  8
0
  6
CONTINUOUS
100
AcDbLine
 10
42.50563373493829
 20
2.560711797878898
 30
0.0
 11
43.47866023052615
 21
3.533738293466751
 31
0.0
  0
LINE
  5
1B0CA
330
1B0AB
100
AcDbEntity
  8
0
  6
CONTINUOUS
100
AcDbLine
 10
43.57899999995641
 20
4.307597271977198
 30
0.0
 11
44.99999999995498
 21
5.728597271975769
 31
0.0
  0
LINE
  5
1B0CB
330
1B0AB
100
AcDbEntity
  8
0
  6
CONTINUOUS
100
AcDbLine
 10
43.57899999995641
 20
3.634078062897011
 30
0.0
 11
44.99999999995498
 21
5.055078062895582
 31
0.0
  0
LINE
  5
1B0CC
330
1B0AB
100
AcDbEntity
  8
0
  6
CONTINUOUS
100
AcDbLine
 10
42.82309604751848
 20
2.204654901378891
 30
0.0
 11
44.99999999995498
 21
4.381558853815395
 31
0.0
  0
LINE
  5
1B0CD
330
1B0AB
100
AcDbEntity
  8
0
  6
CONTINUOUS
100
AcDbLine
 10
43.14055836009865
 20
1.848598004878885
 30
0.0
 11
44.99999999995498
 21
3.70803964473521
 31
0.0
  0
LINE
  5
1B0CE
330
1B0AB
100
AcDbEntity
  8
0
  6
CONTINUOUS
100
AcDbLine
 10
43.45802067267883
 20
1.492541108378878
 30
0.0
 11
44.99999999995498
 21
3.034520435655023
 31
0.0
  0
LINE
  5
1B0CF
330
1B0AB
100
AcDbEntity
  8
0
  6
CONTINUOUS
100
AcDbLine
 10
43.77548298525902
 20
1.136484211878871
 30
0.0
 11
44.99999999995498
 21
2.361001226574837
 31
0.0
  0
LINE
  5
1B0D0
330
1B0AB
100
AcDbEntity
  8
0
  6
CONTINUOUS
100
AcDbLine
 10
44.09294529783919
 20
0.7804273153788639
 30
0.0
 11
44.99999999995498
 21
1.687482017494649
 31
0.0
  0
LINE
  5
1B0D1
330
1B0AB
100
AcDbEntity
  8
0
  6
CONTINUOUS
100
AcDbLine
 10
44.41040761041938
 20
0.4243704188788566
 30
0.0
 11
44.99999999995498
 21
1.013962808414463
 31
0.0
  0
LINE
  5
1B0D2
330
1B0AB
100
AcDbEntity
  8
0
  6
CONTINUOUS
100
AcDbLine
 10
44.72786992299955
 20
0.0683135223788494
 30
0.0
 11
44.99999999995498
 21
0.340443599334276
 31
0.0
  0
LINE
  5
1B0D3
330
1B0AB
100
AcDbEntity
  8
0
  6
CONTINUOUS
100
AcDbLine
 10
39.12223903415696
 20
-0.0000000000000009
 30
0.0
 11
38.60499999996136
 21
0.5172390341955961
 31
0.0
  0
LINE
  5
1B0D4
330
1B0AB
100
AcDbEntity
  8
0
  6
CONTINUOUS
100
AcDbLine
 10
39.79575824323715
 20
-0.0000000000000009
 30
0.0
 11
38.60499999996136
 21
1.190758243275783
 31
0.0
  0
LINE
  5
1B0D5
330
1B0AB
100
AcDbEntity
  8
0
  6
CONTINUOUS
100
AcDbLine
 10
40.02599999995994
 20
0.443277452357397
 30
0.0
 11
38.60499999996136
 21
1.864277452355969
 31
0.0
  0
LINE
  5
1B0D6
330
1B0AB
100
AcDbEntity
  8
0
  6
CONTINUOUS
100
AcDbLine
 10
40.02599999995994
 20
1.116796661437583
 30
0.0
 11
38.60499999996136
 21
2.537796661436155
 31
0.0
  0
LINE
  5
1B0D7
330
1B0AB
100
AcDbEntity
  8
0
  6
CONTINUOUS
100
AcDbLine
 10
40.02599999995994
 20
1.79031587051777
 30
0.0
 11
38.60499999996136
 21
3.211315870516341
 31
0.0
  0
LINE
  5
1B0D8
330
1B0AB
100
AcDbEntity
  8
0
  6
CONTINUOUS
100
AcDbLine
 10
40.02599999995994
 20
2.463835079597956
 30
0.0
 11
38.60499999996136
 21
3.884835079596527
 31
0.0
  0
LINE
  5
1B0D9
330
1B0AB
100
AcDbEntity
  8
0
  6
CONTINUOUS
100
AcDbLine
 10
40.02599999995994
 20
3.137354288678143
 30
0.0
 11
38.60499999996136
 21
4.558354288676714
 31
0.0
  0
LINE
  5
1B0DA
330
1B0AB
100
AcDbEntity
  8
0
  6
CONTINUOUS
100
AcDbLine
 10
40.02599999995994
 20
3.810873497758329
 30
0.0
 11
38.60499999996136
 21
5.2318734977569
 31
0.0
  0
LINE
  5
1B0DB
330
1B0AB
100
AcDbEntity
  8
0
  6
CONTINUOUS
100
AcDbLine
 10
40.02599999995994
 20
4.484392706838515
 30
0.0
 11
38.60499999996136
 21
5.905392706837086
 31
0.0
  0
LINE
  5
1B0DC
330
1B0AB
100
AcDbEntity
  8
0
  6
CONTINUOUS
100
AcDbLine
 10
44.99999999995498
 20
0.183911915923658
 30
0.0
 11
41.53858364506288
 21
3.64532827081576
 31
0.0
  0
LINE
  5
1B0DD
330
1B0AB
100
AcDbEntity
  8
0
  6
CONTINUOUS
100
AcDbLine
 10
40.02599999995994
 20
5.157911915918703
 30
0.0
 11
38.60499999996136
 21
6.578911915917274
 31
0.0
  0
LINE
  5
1B0DE
330
1B0AB
100
AcDbEntity
  8
0
  6
CONTINUOUS
100
AcDbLine
 10
44.99999999995498
 20
0.8574311250038447
 30
0.0
 11
38.60499999996136
 21
7.25243112499746
 31
0.0
  0
LINE
  5
1B0DF
330
1B0AB
100
AcDbEntity
  8
0
  6
CONTINUOUS
100
AcDbLine
 10
44.99999999995498
 20
1.530950334084031
 30
0.0
 11
38.60499999996136
 21
7.925950334077647
 31
0.0
  0
LINE
  5
1B0E0
330
1B0AB
100
AcDbEntity
  8
0
  6
CONTINUOUS
100
AcDbLine
 10
44.99999999995498
 20
2.204469543164218
 30
0.0
 11
43.57899999995641
 21
3.625469543162789
 31
0.0
  0
LINE
  5
1B0E1
330
1B0AB
100
AcDbEntity
  8
0
  6
CONTINUOUS
100
AcDbLine
 10
41.89876730984767
 20
5.305702233271528
 30
0.0
 11
38.60499999996136
 21
8.599469543157834
 31
0.0
  0
LINE
  5
1B0E2
330
1B0AB
100
AcDbEntity
  8
0
  6
CONTINUOUS
100
AcDbLine
 10
44.99999999995498
 20
2.877988752244405
 30
0.0
 11
43.57899999995641
 21
4.298988752242975
 31
0.0
  0
LINE
  5
1B0E3
330
1B0AB
100
AcDbEntity
  8
0
  6
CONTINUOUS
100
AcDbLine
 10
44.99999999995498
 20
3.551507961324591
 30
0.0
 11
43.57899999995641
 21
4.972507961323163
 31
0.0
  0
LINE
  5
1B0E4
330
1B0AB
100
AcDbEntity
  8
0
  6
CONTINUOUS
100
AcDbLine
 10
44.99999999995498
 20
4.225027170404777
 30
0.0
 11
43.57899999995641
 21
5.646027170403348
 31
0.0
  0
LINE
  5
1B0E5
330
1B0AB
100
AcDbEntity
  8
0
  6
CONTINUOUS
100
AcDbLine
 10
44.99999999995498
 20
4.898546379484964
 30
0.0
 11
43.57899999995641
 21
6.319546379483535
 31
0.0
  0
LINE
  5
1B0E6
330
1B0AB
100
AcDbEntity
  8
0
  6
CONTINUOUS
100
AcDbLine
 10
44.99999999995498
 20
5.572065588565151
 30
0.0
 11
43.57899999995641
 21
6.993065588563722
 31
0.0
  0
LINE
  5
1B0E7
330
1B0AB
100
AcDbEntity
  8
0
  6
CONTINUOUS
100
AcDbLine
 10
44.99999999995498
 20
6.245584797645336
 30
0.0
 11
43.57899999995641
 21
7.666584797643908
 31
0.0
  0
LINE
  5
1B0E8
330
1B0AB
100
AcDbEntity
  8
0
  6
CONTINUOUS
100
AcDbLine
 10
44.99999999995498
 20
6.919104006725522
 30
0.0
 11
43.57899999995641
 21
8.340104006724093
 31
0.0
  0
LINE
  5
1B0E9
330
1B0AB
100
AcDbEntity
  8
0
  6
CONTINUOUS
100
AcDbLine
 10
44.99999999995498
 20
7.592623215805709
 30
0.0
 11
43.82952321576943
 21
8.763099999991255
 31
0.0
  0
LINE
  5
1B0EA
330
1B0AB
100
AcDbEntity
  8
0
  6
CONTINUOUS
100
AcDbLine
 10
44.99999999995498
 20
8.266142424885896
 30
0.0
 11
44.50304242484962
 21
8.763099999991255
 31
0.0
  0
ENDBLK
  5
1B114
330
1B0AB
100
AcDbEntity
  8
0
100
AcDbBlockEnd
  0
BLOCK
  5
1B115
330
1B0EB
100
AcDbEntity
  8
0
100
AcDbBlockBegin
  2
*X55
 70
     1
 10
0.0
 20
0.0
 30
0.0
  3
*X55
  1

  0
LINE
  5
1B0EC
330
1B0EB
100
AcDbEntity
  8
0
  6
CONTINUOUS
100
AcDbLine
 10
0.0
 20
8.548461116714023
 30
0.0
 11
0.2146388832772324
 21
8.763099999991255
 31
0.0
  0
LINE
  5
1B0ED
330
1B0EB
100
AcDbEntity
  8
0
  6
CONTINUOUS
100
AcDbLine
 10
-0.0000000000000002
 20
7.874941907633837
 30
0.0
 11
0.8881580923574184
 21
8.763099999991255
 31
0.0
  0
LINE
  5
1B0EE
330
1B0EB
100
AcDbEntity
  8
0
  6
CONTINUOUS
100
AcDbLine
 10
0.0
 20
7.20142269855365
 30
0.0
 11
1.420999999998572
 21
8.622422698552223
 31
0.0
  0
LINE
  5
1B0EF
330
1B0EB
100
AcDbEntity
  8
0
  6
CONTINUOUS
100
AcDbLine
 10
-0.0000000000000001
 20
6.527903489473465
 30
0.0
 11
1.420999999998571
 21
7.948903489472036
 31
0.0
  0
LINE
  5
1B0F0
330
1B0EB
100
AcDbEntity
  8
0
  6
CONTINUOUS
100
AcDbLine
 10
-0.0000000000000002
 20
5.854384280393278
 30
0.0
 11
1.420999999998571
 21
7.275384280391849
 31
0.0
  0
LINE
  5
1B0F1
330
1B0EB
100
AcDbEntity
  8
0
  6
CONTINUOUS
100
AcDbLine
 10
-0.0000000000000002
 20
5.180865071313091
 30
0.0
 11
1.420999999998571
 21
6.601865071311663
 31
0.0
  0
LINE
  5
1B0F2
330
1B0EB
100
AcDbEntity
  8
0
  6
CONTINUOUS
100
AcDbLine
 10
0.0
 20
4.507345862232905
 30
0.0
 11
1.420999999998571
 21
5.928345862231477
 31
0.0
  0
LINE
  5
1B0F3
330
1B0EB
100
AcDbEntity
  8
0
  6
CONTINUOUS
100
AcDbLine
 10
-0.0000000000000003
 20
3.833826653152718
 30
0.0
 11
1.420999999998571
 21
5.25482665315129
 31
0.0
  0
LINE
  5
1B0F4
330
1B0EB
100
AcDbEntity
  8
0
  6
CONTINUOUS
100
AcDbLine
 10
-0.0000000000000002
 20
3.160307444072532
 30
0.0
 11
1.420999999998571
 21
4.581307444071103
 31
0.0
  0
LINE
  5
1B0F5
330
1B0EB
100
AcDbEntity
  8
0
  6
CONTINUOUS
100
AcDbLine
 10
-0.0000000000000001
 20
2.486788234992345
 30
0.0
 11
1.420999999998571
 21
3.907788234990917
 31
0.0
  0
LINE
  5
1B0F6
330
1B0EB
100
AcDbEntity
  8
0
  6
CONTINUOUS
100
AcDbLine
 10
-0.0000000000000006
 20
1.813269025912159
 30
0.0
 11
1.420999999998571
 21
3.234269025910731
 31
0.0
  0
LINE
  5
1B0F7
330
1B0EB
100
AcDbEntity
  8
0
  6
CONTINUOUS
100
AcDbLine
 10
0.0
 20
1.139749816831973
 30
0.0
 11
1.420999999998571
 21
2.560749816830544
 31
0.0
  0
LINE
  5
1B0F8
330
1B0EB
100
AcDbEntity
  8
0
  6
CONTINUOUS
100
AcDbLine
 10
0.0000000000000002
 20
0.466230607751787
 30
0.0
 11
1.420999999998571
 21
1.887230607750358
 31
0.0
  0
LINE
  5
1B0F9
330
1B0EB
100
AcDbEntity
  8
0
  6
CONTINUOUS
100
AcDbLine
 10
0.2072886013284003
 20
-0.0000000000000009
 30
0.0
 11
1.420999999998571
 21
1.213711398670171
 31
0.0
  0
LINE
  5
1B0FA
330
1B0EB
100
AcDbEntity
  8
0
  6
CONTINUOUS
100
AcDbLine
 10
0.8808078104085864
 20
-0.0000000000000009
 30
0.0
 11
1.420999999998571
 21
0.5401921895899839
 31
0.0
  0
LINE
  5
1B0FB
330
1B0EB
100
AcDbEntity
  8
0
  6
CONTINUOUS
100
AcDbLine
 10
0.0581249075061505
 20
-0.0000000000000009
 30
0.0
 11
-0.0000000000000002
 21
0.0581249075061496
 31
0.0
  0
LINE
  5
1B0FC
330
1B0EB
100
AcDbEntity
  8
0
  6
CONTINUOUS
100
AcDbLine
 10
0.7316441165863372
 20
-0.0000000000000009
 30
0.0
 11
-0.0000000000000002
 21
0.7316441165863363
 31
0.0
  0
LINE
  5
1B0FD
330
1B0EB
100
AcDbEntity
  8
0
  6
CONTINUOUS
100
AcDbLine
 10
1.405163325666523
 20
-0.0000000000000009
 30
0.0
 11
-0.0000000000000002
 21
1.405163325666523
 31
0.0
  0
LINE
  5
1B0FE
330
1B0EB
100
AcDbEntity
  8
0
  6
CONTINUOUS
100
AcDbLine
 10
1.420999999998572
 20
0.6576825347481381
 30
0.0
 11
-0.0000000000000001
 21
2.07868253474671
 31
0.0
  0
LINE
  5
1B0FF
330
1B0EB
100
AcDbEntity
  8
0
  6
CONTINUOUS
100
AcDbLine
 10
1.420999999998571
 20
1.331201743828324
 30
0.0
 11
-0.0000000000000001
 21
2.752201743826896
 31
0.0
  0
LINE
  5
1B100
330
1B0EB
100
AcDbEntity
  8
0
  6
CONTINUOUS
100
AcDbLine
 10
1.420999999998571
 20
2.004720952908511
 30
0.0
 11
-0.0000000000000002
 21
3.425720952907082
 31
0.0
  0
LINE
  5
1B101
330
1B0EB
100
AcDbEntity
  8
0
  6
CONTINUOUS
100
AcDbLine
 10
1.420999999998571
 20
2.678240161988697
 30
0.0
 11
-0.0000000000000001
 21
4.099240161987269
 31
0.0
  0
LINE
  5
1B102
330
1B0EB
100
AcDbEntity
  8
0
  6
CONTINUOUS
100
AcDbLine
 10
1.420999999998572
 20
3.351759371068884
 30
0.0
 11
0.0
 21
4.772759371067455
 31
0.0
  0
LINE
  5
1B103
330
1B0EB
100
AcDbEntity
  8
0
  6
CONTINUOUS
100
AcDbLine
 10
1.420999999998571
 20
4.02527858014907
 30
0.0
 11
-0.0000000000000003
 21
5.446278580147642
 31
0.0
  0
LINE
  5
1B104
330
1B0EB
100
AcDbEntity
  8
0
  6
CONTINUOUS
100
AcDbLine
 10
1.420999999998571
 20
4.698797789229257
 30
0.0
 11
0.0
 21
6.119797789227828
 31
0.0
  0
LINE
  5
1B105
330
1B0EB
100
AcDbEntity
  8
0
  6
CONTINUOUS
100
AcDbLine
 10
1.420999999998571
 20
5.372316998309444
 30
0.0
 11
-0.0000000000000001
 21
6.793316998308015
 31
0.0
  0
LINE
  5
1B106
330
1B0EB
100
AcDbEntity
  8
0
  6
CONTINUOUS
100
AcDbLine
 10
1.420999999998572
 20
6.045836207389629
 30
0.0
 11
-0.0000000000000004
 21
7.466836207388202
 31
0.0
  0
LINE
  5
1B107
330
1B0EB
100
AcDbEntity
  8
0
  6
CONTINUOUS
100
AcDbLine
 10
1.420999999998571
 20
6.719355416469816
 30
0.0
 11
0.0
 21
8.140355416468388
 31
0.0
  0
LINE
  5
1B108
330
1B0EB
100
AcDbEntity
  8
0
  6
CONTINUOUS
100
AcDbLine
 10
1.420999999998571
 20
7.392874625550003
 30
0.0
 11
0.0507746255573185
 21
8.763099999991255
 31
0.0
  0
LINE
  5
1B109
330
1B0EB
100
AcDbEntity
  8
0
  6
CONTINUOUS
100
AcDbLine
 10
1.420999999998571
 20
8.06639383463019
 30
0.0
 11
0.7242938346375052
 21
8.763099999991255
 31
0.0
  0
LINE
  5
1B10A
330
1B0EB
100
AcDbEntity
  8
0
  6
CONTINUOUS
100
AcDbLine
 10
1.420999999998571
 20
8.739913043710375
 30
0.0
 11
1.397813043717691
 21
8.763099999991255
 31
0.0
  0
ENDBLK
  5
1B116
330
1B0EB
100
AcDbEntity
  8
0
100
AcDbBlockEnd
  0
ENDSEC
  0
SECTION
  2
ENTITIES
  0
LINE
  5
1AB1E
330
18
100
AcDbEntity
  8
01
100
AcDbLine
 10
2041.007184347384
 20
-616.377678273905
 30
0.0
 11
2041.007184347384
 21
-590.377678273905
 31
0.0
  0
CIRCLE
  5
1AB1F
330
18
100
AcDbEntity
  8
01
100
AcDbCircle
 10
2041.007184347384
 20
-603.3776782739047
 30
0.0
 40
11.30000000000109
  0
LINE
  5
1AB20
330
18
100
AcDbEntity
  8
01
100
AcDbLine
 10
2043.507184347384
 20
-593.0699193031038
 30
0.0
 11
2043.507184347384
 21
-613.6854372447057
 31
0.0
  0
LINE
  5
1AB21
330
18
100
AcDbEntity
  8
01
100
AcDbLine
 10
2038.507184347384
 20
-593.0699193031038
 30
0.0
 11
2038.507184347384
 21
-613.6854372447057
 31
0.0
  0
ARC
  5
1AB22
330
18
100
AcDbEntity
  8
01
100
AcDbCircle
 10
2039.007184347384
 20
-593.0699193031038
 30
0.0
 40
0.5
100
AcDbArc
 50
100.9805807214292
 51
180.0
  0
ARC
  5
1AB23
330
18
100
AcDbEntity
  8
01
100
AcDbCircle
 10
2043.007184347384
 20
-593.0699193031038
 30
0.0
 40
0.5
100
AcDbArc
 50
0.0
 51
79.01941927857082
  0
ARC
  5
1AB24
330
18
100
AcDbEntity
  8
01
100
AcDbCircle
 10
2039.007184347384
 20
-613.6854372447057
 30
0.0
 40
0.5
100
AcDbArc
 50
180.0
 51
259.0194192785708
  0
ARC
  5
1AB25
330
18
100
AcDbEntity
  8
01
100
AcDbCircle
 10
2043.007184347384
 20
-613.6854372447057
 30
0.0
 40
0.5
100
AcDbArc
 50
280.9805807214292
 51
0.0
  0
CIRCLE
  5
1AB26
330
18
100
AcDbEntity
  8
01
100
AcDbCircle
 10
2041.007184347384
 20
-603.3776782739047
 30
0.0
 40
11.0
  0
CIRCLE
  5
1AB27
330
18
100
AcDbEntity
  8
01
100
AcDbCircle
 10
2381.007080007931
 20
-603.3776780697768
 30
0.0
 40
3.75
  0
CIRCLE
  5
1AB28
330
18
100
AcDbEntity
  8
01
100
AcDbCircle
 10
2381.007080007931
 20
-603.3776782739047
 30
0.0
 40
3.5000005
  0
LINE
  5
1AB29
330
18
100
AcDbEntity
  8
01
100
AcDbLine
 10
2382.007080007931
 20
-606.7317810739047
 30
0.0
 11
2382.007080007931
 21
-600.0235742739047
 31
0.0
  0
LINE
  5
1AB2A
330
18
100
AcDbEntity
  8
01
100
AcDbLine
 10
2380.007080007931
 20
-606.7317810739047
 30
0.0
 11
2380.007080007931
 21
-600.0235742739047
 31
0.0
  0
LINE
  5
1AB2B
330
18
100
AcDbEntity
  8
01
100
AcDbLine
 10
2028.007184347384
 20
-603.3776782739047
 30
0.0
 11
2054.007184347384
 21
-603.3776782739047
 31
0.0
  0
LINE
  5
1AB2C
330
18
100
AcDbEntity
  8
01
100
AcDbLine
 10
2168.103777179164
 20
-592.3776598200317
 30
0.0000000000023235
 11
2182.507188347386
 21
-592.3776598200312
 31
0.0000000000023235
  0
LINE
  5
1AB2D
330
18
100
AcDbEntity
  8
01
100
AcDbLine
 10
2181.603800123375
 20
-613.8776598200312
 30
0.0000000000023235
 11
2181.603800123369
 21
-592.8776598200312
 31
0.0000000000023235
  0
LINE
  5
1AB2E
330
18
100
AcDbEntity
  8
01
100
AcDbLine
 10
2168.103777179164
 20
-614.3776598200308
 30
0.0000000000023235
 11
2182.507188347386
 21
-614.3776598200308
 31
0.0000000000023235
  0
ARC
  5
1AB2F
330
18
100
AcDbEntity
  8
01
100
AcDbCircle
 10
2168.103777179164
 20
-613.3776598200317
 30
0.0000000000023235
 40
1.0
100
AcDbArc
 50
180.0
 51
270.0
  0
LINE
  5
1AB30
330
18
100
AcDbEntity
  8
01
100
AcDbLine
 10
2167.103777179164
 20
-613.3776598200317
 30
0.0000000000023235
 11
2167.103777179164
 21
-593.377659820034
 31
0.0000000000023235
  0
ARC
  5
1AB31
330
18
100
AcDbEntity
  8
01
100
AcDbCircle
 10
2168.103777179164
 20
-593.377659820034
 30
0.0000000000023235
 40
1.0
100
AcDbArc
 50
90.0
 51
180.0
  0
ARC
  5
1AB32
330
18
100
AcDbEntity
  8
01
100
AcDbCircle
 10
2182.103800123369
 20
-613.8776598200308
 30
0.0000000000023235
 40
0.5
100
AcDbArc
 50
180.0
 51
270.0
  0
ARC
  5
1AB33
330
18
100
AcDbEntity
  8
01
100
AcDbCircle
 10
2182.103800123369
 20
-592.8776598200312
 30
0.0000000000023235
 40
0.5
100
AcDbArc
 50
90.0
 51
180.0
  0
LINE
  5
1AB34
330
18
100
AcDbEntity
  8
01
100
AcDbLine
 10
2168.103777179164
 20
-614.3776598200308
 30
0.0000000000023235
 11
2168.103777179164
 21
-614.376269689839
 31
0.0000000000023235
  0
LINE
  5
1AB35
330
18
100
AcDbEntity
  8
01
100
AcDbLine
 10
2240.180590654095
 20
-606.8776590795338
 30
0.0
 11
2239.507188347386
 21
-606.8776591028414
 31
0.0
  0
LINE
  5
1AB36
330
18
100
AcDbEntity
  8
01
100
AcDbLine
 10
2240.180590411813
 20
-599.8776590795338
 30
0.0
 11
2239.507188347386
 21
-599.8776591028414
 31
0.0
  0
ARC
  5
1AB37
330
18
100
AcDbEntity
  8
01
100
AcDbCircle
 10
2235.334205095177
 20
-603.3653717116582
 30
0.0
 40
5.970892950694182
100
AcDbArc
 50
323.9681518085887
 51
35.7407782609403
  0
LINE
  5
1AB3A
330
18
100
AcDbEntity
  8
01
100
AcDbLine
 10
2380.007187085844
 20
-413.2274505054974
 30
0.0
 11
2380.007187028084
 21
-411.8776782749336
 31
0.0
  0
ARC
  5
1AB3B
330
18
100
AcDbEntity
  8
01
100
AcDbCircle
 10
2382.307186073166
 20
-413.2274504155065
 30
0.0
 40
0.3000000099999999
100
AcDbArc
 50
179.9999989830693
 51
283.183481983115
  0
ARC
  5
1AB3C
330
18
100
AcDbEntity
  8
01
100
AcDbCircle
 10
2381.007186881078
 20
-407.6776804605014
 30
0.0
 40
5.999999999999999
100
AcDbArc
 50
234.314667983039
 51
256.81651998312
  0
ARC
  5
1AB3D
330
18
100
AcDbEntity
  8
01
100
AcDbCircle
 10
2379.707184073165
 20
-413.2274505054974
 30
0.0
 40
0.3000000099999999
100
AcDbArc
 50
256.8165199830628
 51
0.0000019831407459
  0
LINE
  5
1AB3E
330
18
100
AcDbEntity
  8
01
100
AcDbLine
 10
2377.507187049755
 20
-412.5510805816429
 30
0.0
 11
2377.507187026448
 21
-411.8776782749336
 31
0.0
  0
LINE
  5
1AB3F
330
18
100
AcDbEntity
  8
01
100
AcDbLine
 10
2384.507187049755
 20
-412.5510803393607
 30
0.0
 11
2384.507187026448
 21
-411.8776782749336
 31
0.0
  0
ARC
  5
1AB40
330
18
100
AcDbEntity
  8
01
100
AcDbCircle
 10
2381.019474417631
 20
-407.704695022724
 30
0.0
 40
5.970892950694182
100
AcDbArc
 50
283.127804788842
 51
305.7407782610044
  0
LINE
  5
1AB41
330
18
100
AcDbEntity
  8
01
100
AcDbLine
 10
2382.007187073193
 20
-413.2282288853393
 30
0.0
 11
2382.007187026448
 21
-411.8776782749336
 31
0.0
  0
ARC
  5
1AB42
330
18
100
AcDbEntity
  8
01
100
AcDbCircle
 10
2384.507188347378
 20
-352.977701219142
 30
0.0
 40
1.0
100
AcDbArc
 50
180.0
 51
270.0
  0
LINE
  5
1AB43
330
18
100
AcDbEntity
  8
01
100
AcDbLine
 10
2384.50718834738
 20
-353.977701219142
 30
0.0
 11
2391.507193347378
 21
-353.9777012191402
 31
0.0
  0
ARC
  5
1AB44
330
18
100
AcDbEntity
  8
01
100
AcDbCircle
 10
2391.507193347378
 20
-354.4777012191402
 30
0.0
 40
0.5
100
AcDbArc
 50
0.0
 51
90.0
  0
ARC
  5
1AB45
330
18
100
AcDbEntity
  8
01
100
AcDbCircle
 10
2377.507188347377
 20
-352.9777012191402
 30
0.0
 40
1.0
100
AcDbArc
 50
270.0
 51
0.0
  0
ARC
  5
1AB46
330
18
100
AcDbEntity
  8
01
100
AcDbCircle
 10
2370.507193347378
 20
-354.4777012191402
 30
0.0
 40
0.5
100
AcDbArc
 50
90.0
 51
180.0
  0
LINE
  5
1AB47
330
18
100
AcDbEntity
  8
01
100
AcDbLine
 10
2378.507188347377
 20
-340.4776782749371
 30
0.0
 11
2378.507188347377
 21
-352.9777012191402
 31
0.0
  0
ARC
  5
1AB48
330
18
100
AcDbEntity
  8
01
100
AcDbCircle
 10
2379.507188347377
 20
-340.4776782749353
 30
0.0
 40
1.0
100
AcDbArc
 50
90.0
 51
179.9999999999479
  0
LINE
  5
1AB49
330
18
100
AcDbEntity
  8
01
100
AcDbLine
 10
2379.507188347377
 20
-339.4776782749335
 30
0.0
 11
2382.507188347377
 21
-339.4776782749335
 31
0.0
  0
ARC
  5
1AB4A
330
18
100
AcDbEntity
  8
01
100
AcDbCircle
 10
2382.507188347377
 20
-340.4776782749353
 30
0.0
 40
1.0
100
AcDbArc
 50
0.0
 51
90.0
  0
LINE
  5
1AB4B
330
18
100
AcDbEntity
  8
01
100
AcDbLine
 10
2383.507188347377
 20
-340.4776782749353
 30
0.0
 11
2383.50718834738
 21
-352.977701219142
 31
0.0
  0
LINE
  5
1AB4C
330
18
100
AcDbEntity
  8
01
100
AcDbLine
 10
2370.507193347378
 20
-353.9777012191402
 30
0.0
 11
2377.507188347377
 21
-353.9777012191402
 31
0.0
  0
LINE
  5
1AB4D
330
18
100
AcDbEntity
  8
01
100
AcDbLine
 10
2370.007193347378
 20
-354.4777012191402
 30
0.0
 11
2370.007193347378
 21
-354.8776782749336
 31
0.0
  0
LINE
  5
1AB4E
330
18
100
AcDbEntity
  8
01
100
AcDbLine
 10
2392.007193347378
 20
-354.4777012191402
 30
0.0
 11
2392.007193347378
 21
-354.8776782749336
 31
0.0
  0
LINE
  5
1AB51
330
18
100
AcDbEntity
  8
01
100
AcDbLine
 10
2325.007072007641
 20
-575.377678273905
 30
0.0
 11
2339.007072007641
 21
-575.377678273905
 31
0.0
  0
LINE
  5
1AB52
330
18
100
AcDbEntity
  8
01
100
AcDbLine
 10
2071.007192347385
 20
-653.3776782739054
 30
0.0
 11
2011.007192347385
 21
-653.3776782739054
 31
0.0
  0
LINE
  5
1AB53
330
18
100
AcDbEntity
  8
01
100
AcDbLine
 10
2041.007192347385
 20
-623.3776782739054
 30
0.0
 11
2041.007192347385
 21
-683.3776782739054
 31
0.0
  0
LINE
  5
1AB54
330
18
100
AcDbEntity
  8
01
100
AcDbLine
 10
2330.007956189701
 20
-363.3776782749336
 30
0.0
 11
2483.762336344734
 21
-363.3776782749336
 31
0.0
  0
LINE
  5
1AB57
330
18
100
AcDbEntity
  8
01
  6
BYBLOCK
100
AcDbLine
 10
2330.007956189701
 20
-363.3776782749336
 30
0.0
 11
2330.007956189701
 21
-403.3776782749336
 31
0.0
  0
LINE
  5
1AB5B
330
18
100
AcDbEntity
  8
01
100
AcDbLine
 10
2381.007072007639
 20
-368.3776782759622
 30
0.0
 11
2381.007072007639
 21
-337.4595980867133
 31
0.0
  0
LINE
  5
1AB5C
330
18
100
AcDbEntity
  8
01
100
AcDbLine
 10
2356.007072007641
 20
-363.3776782749327
 30
0.0
 11
2406.007072007641
 21
-363.377678274935
 31
0.0
  0
LINE
  5
1AB5D
330
18
100
AcDbEntity
  8
01
100
AcDbLine
 10
2356.507072007637
 20
-354.8776782749327
 30
0.0
 11
2405.507072007641
 21
-354.8776782749363
 31
0.0
  0
LINE
  5
1AB5E
330
18
100
AcDbEntity
  8
01
100
AcDbLine
 10
2406.007072007641
 20
-363.377678274935
 30
0.0
 11
2406.007072007641
 21
-355.3776782749363
 31
0.0
  0
ARC
  5
1AB5F
330
18
100
AcDbEntity
  8
01
100
AcDbCircle
 10
2405.507072007641
 20
-355.3776782749363
 30
0.0
 40
0.5
100
AcDbArc
 50
0.0
 51
90.0
  0
LINE
  5
1AB60
330
18
100
AcDbEntity
  8
01
100
AcDbLine
 10
2356.007072007641
 20
-363.3776782749327
 30
0.0
 11
2356.007072007637
 21
-355.3776782749331
 31
0.0
  0
ARC
  5
1AB61
330
18
100
AcDbEntity
  8
01
100
AcDbCircle
 10
2356.507072007637
 20
-355.3776782749327
 30
0.0
 40
0.5
100
AcDbArc
 50
90.0
 51
180.0
  0
LINE
  5
1AB62
330
18
100
AcDbEntity
  8
01
  6
BYBLOCK
100
AcDbLine
 10
2331.507072007641
 20
-567.4776782739049
 30
0.0
 11
2331.50707200764
 21
-697.2776782739048
 31
0.0
  0
LINE
  5
1AB63
330
18
100
AcDbEntity
  8
01
  6
BYBLOCK
100
AcDbLine
 10
2331.507072007641
 20
-696.377678273905
 30
0.0
 11
2334.007072007641
 21
-696.377678273905
 31
0.0
  0
LINE
  5
1AB64
330
18
100
AcDbEntity
  8
01
  6
BYBLOCK
100
AcDbLine
 10
2332.707072007641
 20
-595.377678273905
 30
0.0
 11
2356.007072007641
 21
-595.377678273905
 31
0.0
  0
LINE
  5
1AB65
330
18
100
AcDbEntity
  8
01
  6
BYBLOCK
100
AcDbLine
 10
2334.007072007641
 20
-696.377678273905
 30
0.0
 11
2334.007072007641
 21
-679.8747345487526
 31
0.0
  0
LINE
  5
1AB66
330
18
100
AcDbEntity
  8
01
  6
BYBLOCK
100
AcDbLine
 10
2330.007072007641
 20
-567.4776782739049
 30
0.0
 11
2330.007072007641
 21
-697.2776782739048
 31
0.0
  0
LINE
  5
1AB67
330
18
100
AcDbEntity
  8
01
  6
BYBLOCK
100
AcDbLine
 10
2330.007072007641
 20
-697.2776782739048
 30
0.0
 11
2331.507072007641
 21
-697.2776782739048
 31
0.0
  0
LINE
  5
1AB68
330
18
100
AcDbEntity
  8
01
  6
BYBLOCK
100
AcDbLine
 10
2331.507072007641
 20
-568.377678273905
 30
0.0
 11
2334.007072007641
 21
-568.377678273905
 31
0.0
  0
LINE
  5
1AB69
330
18
100
AcDbEntity
  8
01
  6
BYBLOCK
100
AcDbLine
 10
2330.007072007641
 20
-567.4776782739049
 30
0.0
 11
2331.507072007641
 21
-567.4776782739049
 31
0.0
  0
LINE
  5
1AB6A
330
18
100
AcDbEntity
  8
01
  6
BYBLOCK
100
AcDbLine
 10
2331.50707200764
 20
-592.377678273905
 30
0.0
 11
2332.707072007641
 21
-592.377678273905
 31
0.0
  0
LINE
  5
1AB6B
330
18
100
AcDbEntity
  8
01
  6
BYBLOCK
100
AcDbLine
 10
2347.907072007641
 20
-595.377678273905
 30
0.0
 11
2356.007072007641
 21
-595.377678273905
 31
0.0
  0
LINE
  5
1AB6C
330
18
100
AcDbEntity
  8
01
  6
BYBLOCK
100
AcDbLine
 10
2332.707072007641
 20
-586.6776782739047
 30
0.0
 11
2332.707072007641
 21
-678.0776782739048
 31
0.0
  0
LINE
  5
1AB6D
330
18
100
AcDbEntity
  8
01
  6
BYBLOCK
100
AcDbLine
 10
2332.80707200764
 20
-696.377678273905
 30
0.0
 11
2332.80707200764
 21
-679.7776782739048
 31
0.0
  0
LINE
  5
1AB6E
330
18
100
AcDbEntity
  8
01
  6
BYBLOCK
100
AcDbLine
 10
2332.80707200764
 20
-679.7776782739048
 30
0.0
 11
2331.858543870217
 21
-678.829150136481
 31
0.0
  0
LINE
  5
1AB6F
330
18
100
AcDbEntity
  8
01
  6
BYBLOCK
100
AcDbLine
 10
2333.655600145064
 20
-679.0262064113286
 30
0.0
 11
2332.707072007641
 21
-678.0776782739048
 31
0.0
  0
ARC
  5
1AB70
330
18
100
AcDbEntity
  8
01
  6
BYBLOCK
100
AcDbCircle
 10
2332.80707200764
 20
-679.8747345487526
 30
0.0
 40
1.2
100
AcDbArc
 50
0.0
 51
44.99999999998081
  0
ARC
  5
1AB71
330
18
100
AcDbEntity
  8
01
  6
BYBLOCK
100
AcDbCircle
 10
2332.707072007641
 20
-677.980621999057
 30
0.0
 40
1.2
100
AcDbArc
 50
180.0
 51
224.9999999999962
  0
LINE
  5
1AB72
330
18
100
AcDbEntity
  8
01
  6
BYBLOCK
100
AcDbLine
 10
2334.007072007641
 20
-568.377678273905
 30
0.0
 11
2334.007072007641
 21
-584.8806219990571
 31
0.0
  0
LINE
  5
1AB73
330
18
100
AcDbEntity
  8
01
  6
BYBLOCK
100
AcDbLine
 10
2332.80707200764
 20
-568.377678273905
 30
0.0
 11
2332.80707200764
 21
-584.9776782739049
 31
0.0
  0
LINE
  5
1AB74
330
18
100
AcDbEntity
  8
01
  6
BYBLOCK
100
AcDbLine
 10
2332.80707200764
 20
-584.9776782739049
 30
0.0
 11
2331.858543870217
 21
-585.9262064113287
 31
0.0
  0
LINE
  5
1AB75
330
18
100
AcDbEntity
  8
01
  6
BYBLOCK
100
AcDbLine
 10
2333.655600145064
 20
-585.729150136481
 30
0.0
 11
2332.707072007641
 21
-586.6776782739049
 31
0.0
  0
ARC
  5
1AB76
330
18
100
AcDbEntity
  8
01
  6
BYBLOCK
100
AcDbCircle
 10
2332.80707200764
 20
-584.8806219990571
 30
0.0
 40
1.2
100
AcDbArc
 50
315.0000000000192
 51
0.0
  0
ARC
  5
1AB77
330
18
100
AcDbEntity
  8
01
  6
BYBLOCK
100
AcDbCircle
 10
2332.707072007641
 20
-586.7747345487527
 30
0.0
 40
1.2
100
AcDbArc
 50
135.0000000000038
 51
180.0
  0
LINE
  5
1AB78
330
18
100
AcDbEntity
  8
01
  6
BYBLOCK
100
AcDbLine
 10
2332.707072007641
 20
-669.3776782739052
 30
0.0
 11
2356.007072007641
 21
-669.377678273905
 31
0.0
  0
ARC
  5
1AB79
330
18
100
AcDbEntity
  8
01
  6
BYBLOCK
100
AcDbCircle
 10
2333.1079561897
 20
-379.8164277319337
 30
0.0
 40
1.6
100
AcDbArc
 50
115.9444797720007
 51
180.0
  0
ARC
  5
1AB7A
330
18
100
AcDbEntity
  8
01
  6
BYBLOCK
100
AcDbCircle
 10
2333.1079561897
 20
-386.9389288179335
 30
0.0
 40
1.6
100
AcDbArc
 50
180.0
 51
244.0555202279993
  0
ARC
  5
1AB7B
330
18
100
AcDbEntity
  8
01
  6
BYBLOCK
100
AcDbCircle
 10
2332.407956189701
 20
-388.2164277319335
 30
0.0
 40
1.6
100
AcDbArc
 50
0.0
 51
64.05552022799934
  0
ARC
  5
1AB7C
330
18
100
AcDbEntity
  8
01
  6
BYBLOCK
100
AcDbCircle
 10
2332.407956189701
 20
-378.5389288179337
 30
0.0
 40
1.6
100
AcDbArc
 50
295.9444797720006
 51
0.0
  0
LINE
  5
1AB7D
330
18
100
AcDbEntity
  8
01
  6
BYBLOCK
100
AcDbLine
 10
2334.007956189701
 20
-378.5389288179337
 30
0.0
 11
2334.007956189701
 21
-371.1776782749336
 31
0.0
  0
LINE
  5
1AB7E
330
18
100
AcDbEntity
  8
01
  6
BYBLOCK
100
AcDbLine
 10
2333.1079561897
 20
-386.7776782749337
 30
0.0
 11
2333.1079561897
 21
-379.9776782749335
 31
0.0
  0
LINE
  5
1AB7F
330
18
100
AcDbEntity
  8
01
  6
BYBLOCK
100
AcDbLine
 10
2334.007956189701
 20
-395.3776782749336
 30
0.0
 11
2334.007956189701
 21
-388.2164277319335
 31
0.0
  0
LINE
  5
1AB80
330
18
100
AcDbEntity
  8
01
  6
BYBLOCK
100
AcDbLine
 10
2332.407956189701
 20
-378.3776782749336
 30
0.0
 11
2332.407956189701
 21
-371.1776782749336
 31
0.0
  0
LINE
  5
1AB81
330
18
100
AcDbEntity
  8
01
  6
BYBLOCK
100
AcDbLine
 10
2332.407956189701
 20
-388.3776782749336
 30
0.0
 11
2332.407956189701
 21
-395.4776782749335
 31
0.0
  0
ARC
  5
1AB82
330
18
100
AcDbEntity
  8
01
  6
BYBLOCK
100
AcDbCircle
 10
2397.407956189701
 20
-375.4776782749335
 30
0.0
 40
1.6
100
AcDbArc
 50
0.0
 51
90.0
  0
LINE
  5
1AB83
330
18
100
AcDbEntity
  8
01
  6
BYBLOCK
100
AcDbLine
 10
2331.507956189701
 20
-370.9776782749335
 30
0.0
 11
2331.5079561897
 21
-395.7776782749335
 31
0.0
  0
LINE
  5
1AB84
330
18
100
AcDbEntity
  8
01
  6
BYBLOCK
100
AcDbLine
 10
2397.407956189701
 20
-373.8776782749336
 30
0.0
 11
2334.007956189701
 21
-373.8776782749336
 31
0.0
  0
LINE
  5
1AB85
330
18
100
AcDbEntity
  8
01
  6
BYBLOCK
100
AcDbLine
 10
2397.407956189701
 20
-391.0776782749336
 30
0.0
 11
2397.407956189701
 21
-373.8776782749336
 31
0.0
  0
LINE
  5
1AB86
330
18
100
AcDbEntity
  8
01
  6
BYBLOCK
100
AcDbLine
 10
2399.007956189701
 20
-392.6776782749336
 30
0.0
 11
2399.007956189701
 21
-375.4776782749335
 31
0.0
  0
LINE
  5
1AB87
330
18
100
AcDbEntity
  8
01
  6
BYBLOCK
100
AcDbLine
 10
2331.507956189701
 20
-371.1776782749336
 30
0.0
 11
2334.007956189701
 21
-371.1776782749336
 31
0.0
  0
LINE
  5
1AB88
330
18
100
AcDbEntity
  8
01
  6
BYBLOCK
100
AcDbLine
 10
2334.007956189701
 20
-395.3776782749336
 30
0.0
 11
2332.407956189701
 21
-395.3776782749336
 31
0.0
  0
LINE
  5
1AB89
330
18
100
AcDbEntity
  8
01
  6
BYBLOCK
100
AcDbLine
 10
2332.407956189701
 20
-395.4776782749335
 30
0.0
 11
2331.507956189701
 21
-395.4776782749335
 31
0.0
  0
ARC
  5
1AB8A
330
18
100
AcDbEntity
  8
01
  6
BYBLOCK
100
AcDbCircle
 10
2328.7085511171
 20
-389.077678274933
 30
0.0
 40
0.3000000000000051
100
AcDbArc
 50
232.8678058729591
 51
270.0
  0
LINE
  5
1AB8B
330
18
100
AcDbEntity
  8
01
  6
BYBLOCK
100
AcDbLine
 10
2329.507956189701
 20
-389.3776782749329
 30
0.0
 11
2328.7085511171
 21
-389.3776782749329
 31
0.0
  0
LINE
  5
1AB8C
330
18
100
AcDbEntity
  8
01
  6
BYBLOCK
100
AcDbLine
 10
2319.1079561897
 20
-379.7046894087288
 30
0.0
 11
2319.1079561897
 21
-379.8753114642778
 31
0.0
  0
ARC
  5
1AB8D
330
18
100
AcDbEntity
  8
01
  6
BYBLOCK
100
AcDbCircle
 10
2319.407956189701
 20
-379.8753114642778
 30
0.0
 40
0.3
100
AcDbArc
 50
180.0
 51
217.7405295629754
  0
ARC
  5
1AB8E
330
18
100
AcDbEntity
  8
01
  6
BYBLOCK
100
AcDbCircle
 10
2358.710256788985
 20
-349.454608520337
 30
0.0
 40
50.00000000000002
100
AcDbArc
 50
217.7405295629802
 51
232.8678058729731
  0
LINE
  5
1AB8F
330
18
100
AcDbEntity
  8
01
  6
BYBLOCK
100
AcDbLine
 10
2318.907956189701
 20
-378.5776782749334
 30
0.0
 11
2318.907956189701
 21
-377.8776782749336
 31
0.0
  0
ARC
  5
1AB90
330
18
100
AcDbEntity
  8
01
  6
BYBLOCK
100
AcDbCircle
 10
2319.407956189701
 20
-377.8776782749336
 30
0.0
 40
0.5000000000000142
100
AcDbArc
 50
90.0
 51
180.0
  0
LINE
  5
1AB91
330
18
100
AcDbEntity
  8
01
  6
BYBLOCK
100
AcDbLine
 10
2329.507956189701
 20
-377.3776782749336
 30
0.0
 11
2319.407956189701
 21
-377.3776782749336
 31
0.0
  0
LINE
  5
1AB92
330
18
100
AcDbEntity
  8
01
  6
BYBLOCK
100
AcDbLine
 10
2318.907956189701
 20
-378.9563579313739
 30
0.0
 11
2318.907956189701
 21
-378.5776782749334
 31
0.0
  0
SPLINE
  5
1AB93
330
18
100
AcDbEntity
  8
01
  6
BYBLOCK
100
AcDbSpline
210
0.0
220
0.0
230
1.0
 70
     8
 71
     3
 72
     8
 73
     4
 74
     0
 42
0.0000000001
 43
0.0000000001
 40
0.0
 40
0.0
 40
0.0
 40
0.0
 40
1.0
 40
1.0
 40
1.0
 40
1.0
 10
2318.933688730966
 20
-379.233008360823
 30
0.0
 10
2318.916220844854
 20
-379.1399221649425
 30
0.0
 10
2318.907956189701
 20
-379.046656154051
 30
0.0
 10
2318.907956189701
 20
-378.9563579313734
 30
0.0
  0
ARC
  5
1AB94
330
18
100
AcDbEntity
  8
01
  6
BYBLOCK
100
AcDbCircle
 10
2320.407956189701
 20
-378.9563579313739
 30
0.0
 40
1.499999999999998
100
AcDbArc
 50
190.628112987605
 51
225.0000000000046
  0
LINE
  5
1AB95
330
18
100
AcDbEntity
  8
01
  6
BYBLOCK
100
AcDbLine
 10
2330.007956189701
 20
-376.5276782749335
 30
0.0
 11
2329.507956189701
 21
-376.5276782749335
 31
0.0
  0
LINE
  5
1AB96
330
18
100
AcDbEntity
  8
01
  6
BYBLOCK
100
AcDbLine
 10
2329.507956189701
 20
-390.2276782749335
 30
0.0
 11
2330.007956189701
 21
-390.2276782749335
 31
0.0
  0
LINE
  5
1AB97
330
18
100
AcDbEntity
  8
01
  6
BYBLOCK
100
AcDbLine
 10
2329.507956189701
 20
-390.2276782749335
 30
0.0
 11
2329.507956189701
 21
-376.5276782749335
 31
0.0
  0
LINE
  5
1AB98
330
18
100
AcDbEntity
  8
01
  6
BYBLOCK
100
AcDbLine
 10
2330.007956189701
 20
-370.9776782749335
 30
0.0
 11
2331.507956189701
 21
-370.9776782749335
 31
0.0
  0
LINE
  5
1AB99
330
18
100
AcDbEntity
  8
01
  6
BYBLOCK
100
AcDbLine
 10
2330.007956189701
 20
-395.7776782749335
 30
0.0
 11
2331.5079561897
 21
-395.7776782749335
 31
0.0
  0
LINE
  5
1AB9A
330
18
100
AcDbEntity
  8
01
  6
BYBLOCK
100
AcDbLine
 10
2330.007956189701
 20
-395.7776782749335
 30
0.0
 11
2330.007956189701
 21
-370.9776782749335
 31
0.0
  0
LINE
  5
1AB9B
330
18
100
AcDbEntity
  8
01
  6
BYBLOCK
100
AcDbLine
 10
2399.007956189701
 20
-391.0776782749336
 30
0.0
 11
2334.007956189701
 21
-391.0776782749336
 31
0.0
  0
LINE
  5
1AB9C
330
18
100
AcDbEntity
  8
01
  6
BYBLOCK
100
AcDbLine
 10
2399.007956189701
 20
-392.6776782749336
 30
0.0
 11
2348.6079561897
 21
-392.6776782749336
 31
0.0
  0
LINE
  5
1AB9D
330
18
100
AcDbEntity
  8
01
  6
BYBLOCK
100
AcDbLine
 10
2351.445214489903
 20
-392.6776782749336
 30
0.0
 11
2334.0079561897
 21
-392.6776782749336
 31
0.0
  0
LINE
  5
1AB9E
330
18
100
AcDbEntity
  8
01
  6
BYBLOCK
100
AcDbLine
 10
2328.561509580293
 20
-389.2312316655269
 30
0.0
 11
2319.347296017921
 21
-380.0170181031539
 31
0.0
  0
ARC
  5
1AB9F
330
18
100
AcDbEntity
  8
01
  6
BYBLOCK
100
AcDbCircle
 10
2328.915062970887
 20
-388.8776782749336
 30
0.0
 40
0.5
100
AcDbArc
 50
225.0000000000323
 51
270.0
  0
LINE
  5
1ABA0
330
18
100
AcDbEntity
  8
01
  6
BYBLOCK
100
AcDbLine
 10
2329.507956189701
 20
-389.3776782749336
 30
0.0
 11
2328.915062970887
 21
-389.3776782749336
 31
0.0
  0
LINE
  5
1ABA2
330
18
100
AcDbEntity
  8
01
  6
BYBLOCK
100
AcDbLine
 10
2319.007072007641
 20
-622.3460080068888
 30
0.0
 11
2319.007072007641
 21
-640.4093485408947
 31
0.0
  0
LINE
  5
1ABA3
330
18
100
AcDbEntity
  8
01
  6
BYBLOCK
100
AcDbLine
 10
2323.299965226454
 20
-621.3776782738918
 30
0.0
 11
2330.007072007641
 21
-621.3776782738918
 31
0.0
  0
LINE
  5
1ABA4
330
18
100
AcDbEntity
  8
01
  6
BYBLOCK
100
AcDbLine
 10
2323.299965226454
 20
-641.3776782738918
 30
0.0
 11
2330.007072007641
 21
-641.3776782738918
 31
0.0
  0
LINE
  5
1ABA5
330
18
100
AcDbEntity
  8
01
  6
BYBLOCK
100
AcDbLine
 10
2328.799965226454
 20
-626.1276782738918
 30
0.0
 11
2328.799965226454
 21
-636.6276782738918
 31
0.0
  0
ARC
  5
1ABA6
330
18
100
AcDbEntity
  8
01
  6
BYBLOCK
100
AcDbCircle
 10
2323.299965226454
 20
-631.3776782738918
 30
0.0
 40
10.00000000000009
100
AcDbArc
 50
53.13010235414986
 51
115.4224671781178
  0
ARC
  5
1ABA7
330
18
100
AcDbEntity
  8
01
  6
BYBLOCK
100
AcDbCircle
 10
2323.299965226454
 20
-631.3776782738915
 30
0.0
 40
10.00000000000009
100
AcDbArc
 50
244.5775328218822
 51
306.8698976458437
  0
LINE
  5
1ABA8
330
18
100
AcDbEntity
  8
01
  6
BYBLOCK
100
AcDbLine
 10
2329.299965226454
 20
-623.3776782738918
 30
0.0
 11
2329.299965226454
 21
-639.3776782738918
 31
0.0
  0
LINE
  5
1ABA9
330
18
100
AcDbEntity
  8
01
  6
BYBLOCK
100
AcDbLine
 10
2319.007072007641
 20
-626.1276782738918
 30
0.0
 11
2328.799965226454
 21
-626.1276782738918
 31
0.0
  0
LINE
  5
1ABAA
330
18
100
AcDbEntity
  8
01
  6
BYBLOCK
100
AcDbLine
 10
2319.007072007641
 20
-636.6276782738918
 30
0.0
 11
2328.799965226454
 21
-636.6276782738918
 31
0.0
  0
LINE
  5
1ABAB
330
18
100
AcDbEntity
  8
01
  6
BYBLOCK
100
AcDbLine
 10
2204.607188347385
 20
-567.4776782739056
 30
0.0
 11
2217.407188347385
 21
-567.4776782739056
 31
0.0
  0
LINE
  5
1ABAC
330
18
100
AcDbEntity
  8
01
  6
BYBLOCK
100
AcDbLine
 10
2204.607188347385
 20
-697.2776782739055
 30
0.0
 11
2217.407188347385
 21
-697.2776782739055
 31
0.0
  0
LINE
  5
1ABAD
330
18
100
AcDbEntity
  8
01
  6
BYBLOCK
100
AcDbLine
 10
2198.607188347385
 20
-573.4776782739056
 30
0.0
 11
2198.607188347385
 21
-691.2776782739055
 31
0.0
  0
LINE
  5
1ABAE
330
18
100
AcDbEntity
  8
01
  6
BYBLOCK
100
AcDbLine
 10
2223.407188347385
 20
-573.4776782739056
 30
0.0
 11
2223.407188347385
 21
-691.2776782739055
 31
0.0
  0
ARC
  5
1ABAF
330
18
100
AcDbEntity
  8
01
  6
BYBLOCK
100
AcDbCircle
 10
2204.607188347385
 20
-691.2776782739055
 30
0.0
 40
6.0
100
AcDbArc
 50
180.0
 51
270.0
  0
ARC
  5
1ABB0
330
18
100
AcDbEntity
  8
01
  6
BYBLOCK
100
AcDbCircle
 10
2217.407188347385
 20
-691.2776782739055
 30
0.0
 40
6.0
100
AcDbArc
 50
270.0
 51
0.0
  0
ARC
  5
1ABB1
330
18
100
AcDbEntity
  8
01
  6
BYBLOCK
100
AcDbCircle
 10
2204.607188347385
 20
-573.4776782739056
 30
0.0
 40
6.0
100
AcDbArc
 50
90.0
 51
180.0
  0
ARC
  5
1ABB2
330
18
100
AcDbEntity
  8
01
  6
BYBLOCK
100
AcDbCircle
 10
2217.407188347385
 20
-573.4776782739056
 30
0.0
 40
6.0
100
AcDbArc
 50
0.0
 51
90.0
  0
CIRCLE
  5
1ABB3
330
18
100
AcDbEntity
  8
01
  6
BYBLOCK
100
AcDbCircle
 10
2211.007188347386
 20
-689.3776782739054
 30
0.0
 40
2.75
  0
CIRCLE
  5
1ABB4
330
18
100
AcDbEntity
  8
01
  6
BYBLOCK
100
AcDbCircle
 10
2211.007188347386
 20
-689.3776782739054
 30
0.0
 40
4.25
  0
CIRCLE
  5
1ABB5
330
18
100
AcDbEntity
  8
01
  6
BYBLOCK
100
AcDbCircle
 10
2211.007188347386
 20
-575.3776782739056
 30
0.0
 40
2.75
  0
CIRCLE
  5
1ABB6
330
18
100
AcDbEntity
  8
01
  6
BYBLOCK
100
AcDbCircle
 10
2211.007188347386
 20
-575.3776782739056
 30
0.0
 40
4.25
  0
LINE
  5
1ABB7
330
18
100
AcDbEntity
  8
1CENTER
100
AcDbLine
 10
2216.882213755292
 20
-689.3776782739056
 30
0.0
 11
2205.132162939479
 21
-689.3776782739056
 31
0.0
  0
LINE
  5
1ABB8
330
18
100
AcDbEntity
  8
1CENTER
100
AcDbLine
 10
2211.007188347386
 20
-683.5026528659993
 30
0.0
 11
2211.007188347386
 21
-695.2527036818118
 31
0.0
  0
LINE
  5
1ABB9
330
18
100
AcDbEntity
  8
1CENTER
100
AcDbLine
 10
2216.882213755292
 20
-575.3776782739056
 30
0.0
 11
2205.132162939479
 21
-575.3776782739056
 31
0.0
  0
LINE
  5
1ABBA
330
18
100
AcDbEntity
  8
1CENTER
100
AcDbLine
 10
2211.007188347386
 20
-569.5026528659993
 30
0.0
 11
2211.007188347386
 21
-581.2527036818118
 31
0.0
  0
ARC
  5
1ABBB
330
18
100
AcDbEntity
  8
01
  6
BYBLOCK
100
AcDbCircle
 10
2211.007188347386
 20
-631.3776782739054
 30
0.0
 40
10.15
100
AcDbArc
 50
231.9925780701373
 51
308.0074219298583
  0
LINE
  5
1ABBC
330
18
100
AcDbEntity
  8
01
  6
BYBLOCK
100
AcDbLine
 10
2204.757188347386
 20
-623.3801786646526
 30
0.0
 11
2204.757188347386
 21
-639.3751778831582
 31
0.0
  0
LINE
  5
1ABBD
330
18
100
AcDbEntity
  8
01
  6
BYBLOCK
100
AcDbLine
 10
2217.257188347386
 20
-623.3801786646526
 30
0.0
 11
2217.257188347386
 21
-639.3751778831582
 31
0.0
  0
ARC
  5
1ABBE
330
18
100
AcDbEntity
  8
01
  6
BYBLOCK
100
AcDbCircle
 10
2211.007188347386
 20
-631.3776782739054
 30
0.0
 40
10.15
100
AcDbArc
 50
51.9925780701429
 51
128.0074219298591
  0
LINE
  5
1ABBF
330
18
100
AcDbEntity
  8
01
  6
BYBLOCK
100
AcDbLine
 10
2206.507188347386
 20
-626.1276782739054
 30
0.0
 11
2206.507188347386
 21
-636.6276782739054
 31
0.0
  0
LINE
  5
1ABC0
330
18
100
AcDbEntity
  8
01
  6
BYBLOCK
100
AcDbLine
 10
2216.507188347386
 20
-626.1276782739054
 30
0.0
 11
2216.507188347386
 21
-636.6276782739054
 31
0.0
  0
LINE
  5
1ABC1
330
18
100
AcDbEntity
  8
01
  6
BYBLOCK
100
AcDbLine
 10
2207.007188347386
 20
-622.0490931721871
 30
0.0
 11
2207.007188347386
 21
-626.1276782739056
 31
0.0
  0
LINE
  5
1ABC2
330
18
100
AcDbEntity
  8
01
  6
BYBLOCK
100
AcDbLine
 10
2205.507188347386
 20
-626.1276782739056
 30
0.0
 11
2205.507188347386
 21
-636.6276782739054
 31
0.0
  0
LINE
  5
1ABC3
330
18
100
AcDbEntity
  8
01
  6
BYBLOCK
100
AcDbLine
 10
2207.007188347386
 20
-636.6276782739054
 30
0.0
 11
2207.007188347386
 21
-640.7062633756237
 31
0.0
  0
LINE
  5
1ABC4
330
18
100
AcDbEntity
  8
01
  6
BYBLOCK
100
AcDbLine
 10
2205.507188347386
 20
-626.1276782739054
 30
0.0
 11
2216.507188347386
 21
-626.1276782739054
 31
0.0
  0
LINE
  5
1ABC5
330
18
100
AcDbEntity
  8
01
  6
BYBLOCK
100
AcDbLine
 10
2205.507188347386
 20
-636.6276782739054
 30
0.0
 11
2216.507188347386
 21
-636.6276782739054
 31
0.0
  0
LINE
  5
1ABC7
330
18
100
AcDbEntity
  8
01
100
AcDbLine
 10
2191.007304687128
 20
-533.3776782739052
 30
0.0
 11
2191.007304687128
 21
-723.3776782739054
 31
0.0
  0
LINE
  5
1ABC8
330
18
100
AcDbEntity
  8
01
100
AcDbLine
 10
2325.007072007928
 20
-689.3776782736162
 30
0.0
 11
2339.007072007928
 21
-689.3776782736162
 31
0.0
  0
LINE
  5
1ABC9
330
18
100
AcDbEntity
  8
01
100
AcDbLine
 10
2097.00730468713
 20
-575.377678273905
 30
0.0
 11
2083.00730468713
 21
-575.377678273905
 31
0.0
  0
LINE
  5
1ABCA
330
18
100
AcDbEntity
  8
01
  6
BYBLOCK
100
AcDbLine
 10
2090.50730468713
 20
-567.4776782739049
 30
0.0
 11
2090.50730468713
 21
-697.2776782739048
 31
0.0
  0
LINE
  5
1ABCB
330
18
100
AcDbEntity
  8
01
  6
BYBLOCK
100
AcDbLine
 10
2090.50730468713
 20
-696.377678273905
 30
0.0
 11
2088.00730468713
 21
-696.377678273905
 31
0.0
  0
LINE
  5
1ABCC
330
18
100
AcDbEntity
  8
01
  6
BYBLOCK
100
AcDbLine
 10
2089.30730468713
 20
-595.377678273905
 30
0.0
 11
2066.00730468713
 21
-595.377678273905
 31
0.0
  0
LINE
  5
1ABCD
330
18
100
AcDbEntity
  8
01
  6
BYBLOCK
100
AcDbLine
 10
2088.00730468713
 20
-696.377678273905
 30
0.0
 11
2088.00730468713
 21
-679.8747345487526
 31
0.0
  0
LINE
  5
1ABCE
330
18
100
AcDbEntity
  8
01
  6
BYBLOCK
100
AcDbLine
 10
2092.00730468713
 20
-567.4776782739049
 30
0.0
 11
2092.00730468713
 21
-697.2776782739048
 31
0.0
  0
LINE
  5
1ABCF
330
18
100
AcDbEntity
  8
01
  6
BYBLOCK
100
AcDbLine
 10
2092.00730468713
 20
-697.2776782739048
 30
0.0
 11
2090.50730468713
 21
-697.2776782739048
 31
0.0
  0
LINE
  5
1ABD0
330
18
100
AcDbEntity
  8
01
  6
BYBLOCK
100
AcDbLine
 10
2090.50730468713
 20
-568.377678273905
 30
0.0
 11
2088.00730468713
 21
-568.377678273905
 31
0.0
  0
LINE
  5
1ABD1
330
18
100
AcDbEntity
  8
01
  6
BYBLOCK
100
AcDbLine
 10
2092.00730468713
 20
-567.4776782739049
 30
0.0
 11
2090.50730468713
 21
-567.4776782739049
 31
0.0
  0
LINE
  5
1ABD2
330
18
100
AcDbEntity
  8
01
  6
BYBLOCK
100
AcDbLine
 10
2090.50730468713
 20
-592.377678273905
 30
0.0
 11
2089.30730468713
 21
-592.377678273905
 31
0.0
  0
LINE
  5
1ABD3
330
18
100
AcDbEntity
  8
01
  6
BYBLOCK
100
AcDbLine
 10
2074.10730468713
 20
-595.377678273905
 30
0.0
 11
2066.00730468713
 21
-595.377678273905
 31
0.0
  0
LINE
  5
1ABD4
330
18
100
AcDbEntity
  8
01
  6
BYBLOCK
100
AcDbLine
 10
2089.30730468713
 20
-586.6776782739047
 30
0.0
 11
2089.30730468713
 21
-678.0776782739048
 31
0.0
  0
LINE
  5
1ABD5
330
18
100
AcDbEntity
  8
01
  6
BYBLOCK
100
AcDbLine
 10
2089.20730468713
 20
-696.377678273905
 30
0.0
 11
2089.20730468713
 21
-679.7776782739048
 31
0.0
  0
LINE
  5
1ABD6
330
18
100
AcDbEntity
  8
01
  6
BYBLOCK
100
AcDbLine
 10
2089.20730468713
 20
-679.7776782739048
 30
0.0
 11
2090.155832824554
 21
-678.829150136481
 31
0.0
  0
LINE
  5
1ABD7
330
18
100
AcDbEntity
  8
01
  6
BYBLOCK
100
AcDbLine
 10
2088.358776549706
 20
-679.0262064113286
 30
0.0
 11
2089.30730468713
 21
-678.0776782739048
 31
0.0
  0
ARC
  5
1ABD8
330
18
100
AcDbEntity
  8
01
  6
BYBLOCK
100
AcDbCircle
 10
2089.20730468713
 20
-679.8747345487526
 30
0.0
 40
1.2
100
AcDbArc
 50
135.0000000000038
 51
180.0
  0
ARC
  5
1ABD9
330
18
100
AcDbEntity
  8
01
  6
BYBLOCK
100
AcDbCircle
 10
2089.30730468713
 20
-677.980621999057
 30
0.0
 40
1.2
100
AcDbArc
 50
315.0000000000192
 51
0.0
  0
LINE
  5
1ABDA
330
18
100
AcDbEntity
  8
01
  6
BYBLOCK
100
AcDbLine
 10
2088.00730468713
 20
-568.377678273905
 30
0.0
 11
2088.00730468713
 21
-584.8806219990571
 31
0.0
  0
LINE
  5
1ABDB
330
18
100
AcDbEntity
  8
01
  6
BYBLOCK
100
AcDbLine
 10
2089.20730468713
 20
-568.377678273905
 30
0.0
 11
2089.20730468713
 21
-584.9776782739049
 31
0.0
  0
LINE
  5
1ABDC
330
18
100
AcDbEntity
  8
01
  6
BYBLOCK
100
AcDbLine
 10
2089.20730468713
 20
-584.9776782739049
 30
0.0
 11
2090.155832824554
 21
-585.9262064113287
 31
0.0
  0
LINE
  5
1ABDD
330
18
100
AcDbEntity
  8
01
  6
BYBLOCK
100
AcDbLine
 10
2088.358776549706
 20
-585.729150136481
 30
0.0
 11
2089.30730468713
 21
-586.6776782739049
 31
0.0
  0
ARC
  5
1ABDE
330
18
100
AcDbEntity
  8
01
  6
BYBLOCK
100
AcDbCircle
 10
2089.20730468713
 20
-584.8806219990571
 30
0.0
 40
1.2
100
AcDbArc
 50
180.0
 51
224.9999999999962
  0
ARC
  5
1ABDF
330
18
100
AcDbEntity
  8
01
  6
BYBLOCK
100
AcDbCircle
 10
2089.30730468713
 20
-586.7747345487527
 30
0.0
 40
1.2
100
AcDbArc
 50
0.0
 51
44.99999999998081
  0
LINE
  5
1ABE0
330
18
100
AcDbEntity
  8
01
  6
BYBLOCK
100
AcDbLine
 10
2089.30730468713
 20
-669.3776782739052
 30
0.0
 11
2066.00730468713
 21
-669.377678273905
 31
0.0
  0
LINE
  5
1ABE1
330
18
100
AcDbEntity
  8
01
  6
BYBLOCK
100
AcDbLine
 10
2103.007304687129
 20
-622.3460080068888
 30
0.0
 11
2103.007304687129
 21
-640.4093485408947
 31
0.0
  0
LINE
  5
1ABE2
330
18
100
AcDbEntity
  8
01
  6
BYBLOCK
100
AcDbLine
 10
2098.714411468316
 20
-621.3776782738918
 30
0.0
 11
2092.007304687129
 21
-621.3776782738918
 31
0.0
  0
LINE
  5
1ABE3
330
18
100
AcDbEntity
  8
01
  6
BYBLOCK
100
AcDbLine
 10
2098.714411468316
 20
-641.3776782738918
 30
0.0
 11
2092.007304687129
 21
-641.3776782738918
 31
0.0
  0
ARC
  5
1ABE4
330
18
100
AcDbEntity
  8
01
  6
BYBLOCK
100
AcDbCircle
 10
2098.714411468316
 20
-631.3776782738918
 30
0.0
 40
10.00000000000009
100
AcDbArc
 50
64.57753282188216
 51
90.0
  0
LINE
  5
1ABE5
330
18
100
AcDbEntity
  8
01
100
AcDbLine
 10
2097.007304686843
 20
-689.3776782736162
 30
0.0
 11
2083.007304686843
 21
-689.3776782736162
 31
0.0
  0
LINE
  5
1ABE6
330
18
100
AcDbEntity
  8
01
  6
CONTINUOUS
100
AcDbLine
 10
2102.507304687129
 20
-639.6924724667225
 30
0.0
 11
2092.00730468713
 21
-639.6924724667225
 31
0.0
  0
ARC
  5
1ABE7
330
18
100
AcDbEntity
  8
01
  6
CONTINUOUS
100
AcDbCircle
 10
2102.545884934043
 20
-639.2303332359157
 30
0.0
 40
0.4637468103423796
100
AcDbArc
 50
265.2279066161926
 51
354.2577450626297
  0
LINE
  5
1ABE8
330
18
100
AcDbEntity
  8
01
  6
CONTINUOUS
100
AcDbLine
 10
2103.007304687129
 20
-623.8943635003437
 30
0.0
 11
2103.007304687129
 21
-638.8609930474396
 31
0.0
  0
ARC
  5
1ABE9
330
18
100
AcDbEntity
  8
01
  6
CONTINUOUS
100
AcDbCircle
 10
2102.545884934043
 20
-623.5250233118674
 30
0.0
 40
0.4637468103423387
100
AcDbArc
 50
5.742254937370304
 51
94.77209338380747
  0
ARC
  5
1ABEA
330
18
100
AcDbEntity
  8
01
  6
BYBLOCK
100
AcDbCircle
 10
2098.714411468316
 20
-631.3776782738915
 30
0.0
 40
10.00000000000009
100
AcDbArc
 50
270.0
 51
295.4224671781178
  0
LINE
  5
1ABEB
330
18
100
AcDbEntity
  8
01
  6
CONTINUOUS
100
AcDbLine
 10
2092.00730468713
 20
-623.0628840810606
 30
0.0
 11
2102.507304687129
 21
-623.0628840810606
 31
0.0
  0
LINE
  5
1ABEC
330
18
100
AcDbEntity
  8
1HIDDEN
100
AcDbLine
 10
2399.007072007641
 20
-596.377678273905
 30
0.0
 11
2399.007072007641
 21
-668.377678273905
 31
0.0
  0
LINE
  5
1ABED
330
18
100
AcDbEntity
  8
1HIDDEN
100
AcDbLine
 10
2356.007072007641
 20
-595.377678273905
 30
0.0
 11
2398.007072007641
 21
-595.377678273905
 31
0.0
  0
ARC
  5
1ABEE
330
18
100
AcDbEntity
  8
1HIDDEN
100
AcDbCircle
 10
2398.007072007641
 20
-596.377678273905
 30
0.0
 40
1.0
100
AcDbArc
 50
0.0
 51
90.0
  0
ARC
  5
1ABEF
330
18
100
AcDbEntity
  8
1HIDDEN
100
AcDbCircle
 10
2398.007072007641
 20
-668.377678273905
 30
0.0
 40
1.0
100
AcDbArc
 50
270.0
 51
0.0
  0
CIRCLE
  5
1ABF0
330
18
100
AcDbEntity
  8
1HIDDEN
100
AcDbCircle
 10
2381.007072007641
 20
-603.377678273905
 30
0.0
 40
4.75
  0
LINE
  5
1ABF1
330
18
100
AcDbEntity
  8
1HIDDEN
100
AcDbLine
 10
2356.007072007641
 20
-669.377678273905
 30
0.0
 11
2398.007072007641
 21
-669.3776782739045
 31
0.0
  0
LINE
  5
1ABF2
330
18
100
AcDbEntity
  8
1HIDDEN
100
AcDbLine
 10
2381.007072007644
 20
-595.377678273905
 30
0.0
 11
2398.007072007641
 21
-595.377678273905
 31
0.0
  0
LINE
  5
1ABF3
330
18
100
AcDbEntity
  8
01
100
AcDbLine
 10
2392.318960275182
 20
-603.377678273905
 30
0.0
 11
2369.695183740098
 21
-603.377678273905
 31
0.0
  0
LINE
  5
1ABF4
330
18
100
AcDbEntity
  8
01
100
AcDbLine
 10
2381.007072007641
 20
-592.0657900063633
 30
0.0
 11
2381.007072007641
 21
-614.6895665414467
 31
0.0
  0
LINE
  5
1ABF5
330
18
100
AcDbEntity
  8
01
100
AcDbLine
 10
2193.135590069559
 20
-653.3776782739054
 30
0.0
 11
2170.507304687128
 21
-653.3776782739054
 31
0.0
  0
POINT
  5
1ABF6
330
18
100
AcDbEntity
  8
01
100
AcDbPoint
 10
2176.507188347384
 20
-653.3776782739054
 30
0.0
 50
180.0
  0
CIRCLE
  5
1ABF7
330
18
100
AcDbEntity
  8
01
100
AcDbCircle
 10
2176.507188347384
 20
-653.3776782739054
 30
0.0
 40
2.5
  0
CIRCLE
  5
1ABF8
330
18
100
AcDbEntity
  8
01
100
AcDbCircle
 10
2176.507188347384
 20
-653.3776782739054
 30
0.0
 40
3.0
  0
LINE
  5
1ABFA
330
18
100
AcDbEntity
  8
1CENTER
100
AcDbLine
 10
2176.507188347384
 20
-659.3776782739054
 30
0.0
 11
2176.507188347384
 21
-647.3776782739054
 31
0.0
  0
LINE
  5
1ABFB
330
18
100
AcDbEntity
  8
01
100
AcDbLine
 10
2182.507304687128
 20
-539.8776782739052
 30
0.0
 11
2182.507304687128
 21
-716.8776782739054
 31
0.0
  0
ARC
  5
1ABFC
330
18
100
AcDbEntity
  8
01
100
AcDbCircle
 10
2183.007304687128
 20
-716.8776782739054
 30
0.0
 40
0.5
100
AcDbArc
 50
180.0
 51
270.0
  0
LINE
  5
1ABFD
330
18
100
AcDbEntity
  8
01
100
AcDbLine
 10
2191.007304687128
 20
-539.3776782739052
 30
0.0
 11
2191.007304687128
 21
-717.3776782739054
 31
0.0
  0
LINE
  5
1ABFE
330
18
100
AcDbEntity
  8
01
100
AcDbLine
 10
2183.007304687128
 20
-539.3776782739052
 30
0.0
 11
2191.007304687128
 21
-539.3776782739052
 31
0.0
  0
ARC
  5
1ABFF
330
18
100
AcDbEntity
  8
01
100
AcDbCircle
 10
2183.007304687128
 20
-539.8776782739052
 30
0.0
 40
0.5
100
AcDbArc
 50
90.0
 51
180.0
  0
LINE
  5
1AC00
330
18
100
AcDbEntity
  8
01
100
AcDbLine
 10
2183.007304687128
 20
-717.3776782739054
 30
0.0
 11
2191.007304687128
 21
-717.3776782739054
 31
0.0
  0
POINT
  5
1AC04
330
18
100
AcDbEntity
  8
01
100
AcDbPoint
 10
2245.507072007641
 20
-653.377678273905
 30
0.0
  0
LINE
  5
1AC05
330
18
100
AcDbEntity
  8
01
100
AcDbLine
 10
2245.107071997641
 20
-655.127678273905
 30
0.0
 11
2245.107071997641
 21
-654.2776782539048
 31
0.0
  0
LINE
  5
1AC06
330
18
100
AcDbEntity
  8
01
100
AcDbLine
 10
2245.907072017641
 20
-655.127678273905
 30
0.0
 11
2245.907072017641
 21
-654.2776782539048
 31
0.0
  0
LINE
  5
1AC07
330
18
100
AcDbEntity
  8
01
100
AcDbLine
 10
2244.607072027641
 20
-653.7776782839054
 30
0.0
 11
2243.757072007641
 21
-653.7776782839054
 31
0.0
  0
LINE
  5
1AC08
330
18
100
AcDbEntity
  8
01
100
AcDbLine
 10
2244.607072027641
 20
-652.9776782639054
 30
0.0
 11
2243.757072007641
 21
-652.9776782639054
 31
0.0
  0
LINE
  5
1AC09
330
18
100
AcDbEntity
  8
01
100
AcDbLine
 10
2243.757072007641
 20
-653.7776782839054
 30
0.0
 11
2243.757072007641
 21
-652.9776782639054
 31
0.0
  0
LINE
  5
1AC0A
330
18
100
AcDbEntity
  8
01
100
AcDbLine
 10
2245.907072017641
 20
-655.127678273905
 30
0.0
 11
2245.107071997641
 21
-655.127678273905
 31
0.0
  0
LINE
  5
1AC0B
330
18
100
AcDbEntity
  8
01
100
AcDbLine
 10
2245.907072017641
 20
-651.627678273905
 30
0.0
 11
2245.907072017641
 21
-652.4776782939051
 31
0.0
  0
LINE
  5
1AC0C
330
18
100
AcDbEntity
  8
01
100
AcDbLine
 10
2245.107071997641
 20
-651.627678273905
 30
0.0
 11
2245.107071997641
 21
-652.4776782939051
 31
0.0
  0
LINE
  5
1AC0D
330
18
100
AcDbEntity
  8
01
100
AcDbLine
 10
2246.407071987641
 20
-652.9776782639054
 30
0.0
 11
2247.257072007641
 21
-652.9776782639054
 31
0.0
  0
LINE
  5
1AC0E
330
18
100
AcDbEntity
  8
01
100
AcDbLine
 10
2246.407071987641
 20
-653.7776782839054
 30
0.0
 11
2247.257072007641
 21
-653.7776782839054
 31
0.0
  0
LINE
  5
1AC0F
330
18
100
AcDbEntity
  8
01
100
AcDbLine
 10
2247.257072007641
 20
-652.9776782639054
 30
0.0
 11
2247.257072007641
 21
-653.7776782839054
 31
0.0
  0
LINE
  5
1AC10
330
18
100
AcDbEntity
  8
01
100
AcDbLine
 10
2245.107071997641
 20
-651.627678273905
 30
0.0
 11
2245.907072017641
 21
-651.627678273905
 31
0.0
  0
CIRCLE
  5
1AC11
330
18
100
AcDbEntity
  8
01
100
AcDbCircle
 10
2245.507072007641
 20
-653.377678273905
 30
0.0
 40
2.5
  0
ARC
  5
1AC12
330
18
100
AcDbEntity
  8
01
100
AcDbCircle
 10
2246.407071987641
 20
-652.4776782939051
 30
0.0
 40
0.5
100
AcDbArc
 50
179.999989999999
 51
270.0
  0
ARC
  5
1AC13
330
18
100
AcDbEntity
  8
01
100
AcDbCircle
 10
2246.407071987641
 20
-654.2776782539048
 30
0.0
 40
0.5
100
AcDbArc
 50
90.00000299998466
 51
180.000010000001
  0
ARC
  5
1AC14
330
18
100
AcDbEntity
  8
01
100
AcDbCircle
 10
2244.607072027641
 20
-654.2776782539048
 30
0.0
 40
0.5
100
AcDbArc
 50
0.0
 51
90.00000299998466
  0
ARC
  5
1AC15
330
18
100
AcDbEntity
  8
01
100
AcDbCircle
 10
2244.607072027641
 20
-652.4776782939051
 30
0.0
 40
0.5
100
AcDbArc
 50
270.0
 51
0.0
  0
LINE
  5
1AC17
330
18
100
AcDbEntity
  8
1CENTER
100
AcDbLine
 10
2245.507072007641
 20
-659.377678273905
 30
0.0
 11
2245.507072007641
 21
-647.377678273905
 31
0.0
  0
LINE
  5
1AC18
330
18
100
AcDbEntity
  8
01
100
AcDbLine
 10
2228.878786625211
 20
-653.377678273905
 30
0.0
 11
2251.507072007641
 21
-653.377678273905
 31
0.0
  0
LINE
  5
1AC19
330
18
100
AcDbEntity
  8
1CENTER
100
AcDbLine
 10
2364.923397243699
 20
-417.8776702416798
 30
0.0
 11
2373.057069605547
 21
-417.87767827493
 31
0.0
  0
LINE
  5
1AC1A
330
18
100
AcDbEntity
  8
01
100
AcDbLine
 10
2231.007072007641
 20
-533.377678273905
 30
0.0
 11
2231.007072007641
 21
-723.377678273905
 31
0.0
  0
LINE
  5
1AC1B
330
18
100
AcDbEntity
  8
01
100
AcDbLine
 10
2351.007072007641
 20
-653.377678273905
 30
0.0
 11
2411.007072007641
 21
-653.377678273905
 31
0.0
  0
LINE
  5
1AC1C
330
18
100
AcDbEntity
  8
01
100
AcDbLine
 10
2381.007072007641
 20
-623.377678273905
 30
0.0
 11
2381.007072007641
 21
-683.377678273905
 31
0.0
  0
LINE
  5
1AC1D
330
18
100
AcDbEntity
  8
01
100
AcDbLine
 10
2356.007072007641
 20
-539.877678273905
 30
0.0
 11
2356.007072007641
 21
-716.877678273905
 31
0.0
  0
ARC
  5
1AC1E
330
18
100
AcDbEntity
  8
01
100
AcDbCircle
 10
2356.507072007641
 20
-716.877678273905
 30
0.0
 40
0.5
100
AcDbArc
 50
180.0
 51
270.0
  0
LINE
  5
1AC1F
330
18
100
AcDbEntity
  8
01
100
AcDbLine
 10
2406.007072007641
 20
-539.877678273905
 30
0.0
 11
2406.007072007641
 21
-641.3018136150598
 31
0.0
  0
ARC
  5
1AC20
330
18
100
AcDbEntity
  8
01
100
AcDbCircle
 10
2405.507072007641
 20
-539.877678273905
 30
0.0
 40
0.5
100
AcDbArc
 50
0.0
 51
90.0
  0
LINE
  5
1AC21
330
18
100
AcDbEntity
  8
01
100
AcDbLine
 10
2405.507072007641
 20
-717.377678273905
 30
0.0
 11
2356.507072007641
 21
-717.377678273905
 31
0.0
  0
ARC
  5
1AC22
330
18
100
AcDbEntity
  8
01
100
AcDbCircle
 10
2405.507072007641
 20
-716.877678273905
 30
0.0
 40
0.5
100
AcDbArc
 50
270.0
 51
0.0
  0
LINE
  5
1AC23
330
18
100
AcDbEntity
  8
01
100
AcDbLine
 10
2356.507072007641
 20
-539.377678273905
 30
0.0
 11
2405.507072007641
 21
-539.377678273905
 31
0.0
  0
ARC
  5
1AC24
330
18
100
AcDbEntity
  8
01
100
AcDbCircle
 10
2356.507072007641
 20
-539.877678273905
 30
0.0
 40
0.5
100
AcDbArc
 50
90.0
 51
180.0
  0
LINE
  5
1AC25
330
18
100
AcDbEntity
  8
01
100
AcDbLine
 10
2239.507072007641
 20
-539.877678273905
 30
0.0
 11
2239.507072007641
 21
-716.877678273905
 31
0.0
  0
ARC
  5
1AC26
330
18
100
AcDbEntity
  8
01
100
AcDbCircle
 10
2239.007072007641
 20
-716.877678273905
 30
0.0
 40
0.5
100
AcDbArc
 50
270.0
 51
0.0
  0
LINE
  5
1AC27
330
18
100
AcDbEntity
  8
01
100
AcDbLine
 10
2231.007072007641
 20
-539.377678273905
 30
0.0
 11
2231.007072007641
 21
-717.377678273905
 31
0.0
  0
LINE
  5
1AC28
330
18
100
AcDbEntity
  8
01
100
AcDbLine
 10
2239.007072007641
 20
-539.377678273905
 30
0.0
 11
2231.007072007641
 21
-539.377678273905
 31
0.0
  0
ARC
  5
1AC29
330
18
100
AcDbEntity
  8
01
100
AcDbCircle
 10
2239.007072007641
 20
-539.877678273905
 30
0.0
 40
0.5
100
AcDbArc
 50
0.0
 51
90.0
  0
LINE
  5
1AC2A
330
18
100
AcDbEntity
  8
01
100
AcDbLine
 10
2239.007072007641
 20
-717.377678273905
 30
0.0
 11
2231.007072007641
 21
-717.377678273905
 31
0.0
  0
LINE
  5
1AC2D
330
18
100
AcDbEntity
  8
01
100
AcDbLine
 10
2330.007956189701
 20
-403.3776782749336
 30
0.0
 11
2483.762336344734
 21
-403.3776782749336
 31
0.0
  0
LINE
  5
1AC2E
330
18
100
AcDbEntity
  8
01
100
AcDbLine
 10
2356.007072007641
 20
-403.3776782749345
 30
0.0
 11
2406.007072007641
 21
-403.3776782749322
 31
0.0
  0
LINE
  5
1AC2F
330
18
100
AcDbEntity
  8
01
100
AcDbLine
 10
2356.507072007637
 20
-411.8776782749345
 30
0.0
 11
2405.507072007641
 21
-411.8776782749309
 31
0.0
  0
LINE
  5
1AC30
330
18
100
AcDbEntity
  8
01
100
AcDbLine
 10
2406.007072007641
 20
-403.3776782749322
 30
0.0
 11
2406.007072007641
 21
-411.3776782749309
 31
0.0
  0
ARC
  5
1AC31
330
18
100
AcDbEntity
  8
01
100
AcDbCircle
 10
2405.507072007641
 20
-411.3776782749309
 30
0.0
 40
0.5
100
AcDbArc
 50
270.0
 51
0.0
  0
LINE
  5
1AC32
330
18
100
AcDbEntity
  8
01
100
AcDbLine
 10
2356.007072007641
 20
-403.3776782749345
 30
0.0
 11
2356.007072007637
 21
-411.3776782749341
 31
0.0
  0
ARC
  5
1AC33
330
18
100
AcDbEntity
  8
01
100
AcDbCircle
 10
2356.507072007637
 20
-411.3776782749345
 30
0.0
 40
0.5
100
AcDbArc
 50
180.0
 51
270.0
  0
LINE
  5
1AC34
330
18
100
AcDbEntity
  8
01
100
AcDbLine
 10
2381.007072007641
 20
-424.8776782749327
 30
0.0
 11
2381.007072007641
 21
-398.3118473547846
 31
0.0
  0
LINE
  5
1AC35
330
18
100
AcDbEntity
  8
01
100
AcDbLine
 10
2505.572868348171
 20
-440.3301507969253
 30
0.0
 11
2505.57286835059
 21
-460.3397554871511
 31
0.0
  0
SPLINE
  5
1AC36
330
18
100
AcDbEntity
  8
01
100
AcDbSpline
210
0.0
220
0.0
230
1.0
 70
     8
 71
     3
 72
     9
 73
     5
 74
     0
 42
0.0000000001
 43
0.0000000001
 40
0.0
 40
0.0
 40
0.0
 40
0.0
 40
4.181585763194067
 40
4.906987455372584
 40
4.906987455372584
 40
4.906987455372584
 40
4.906987455372584
 10
2394.507074348171
 20
-423.3776782749327
 30
0.0
 10
2394.515057759093
 20
-425.0337665981518
 30
0.0
 10
2394.591863032505
 20
-426.6709798953015
 30
0.0
 10
2394.788658482747
 20
-428.2962130065283
 30
0.0
 10
2394.820621428107
 20
-428.536091639109
 30
0.0
  0
LINE
  5
1AC37
330
18
100
AcDbEntity
  8
01
100
AcDbLine
 10
2367.507074348172
 20
-412.3776782749327
 30
0.0
 11
2377.507187043753
 21
-412.3776782749327
 31
0.0
  0
LINE
  5
1AC38
330
18
100
AcDbEntity
  8
01
100
AcDbLine
 10
2394.507074348171
 20
-423.3776782749327
 30
0.0
 11
2394.507074348172
 21
-412.3776782749327
 31
0.0
  0
LINE
  5
1AC39
330
18
100
AcDbEntity
  8
01
100
AcDbLine
 10
2367.507074348171
 20
-432.3776782749327
 30
0.0
 11
2367.507074348172
 21
-412.3776782749327
 31
0.0
  0
ARC
  5
1AC3A
330
18
100
AcDbEntity
  8
01
100
AcDbCircle
 10
2504.571322902664
 20
-440.3284823685511
 30
0.0
 40
1.00154683518478
100
AcDbArc
 50
359.9045536912362
 51
90.79512633287318
  0
LINE
  5
1AC3B
330
18
100
AcDbEntity
  8
01
100
AcDbLine
 10
2504.526370915137
 20
-439.3279722888955
 30
0.0
 11
2504.557424309993
 21
-439.3270319742777
 31
0.0
  0
ARC
  5
1AC3C
330
18
100
AcDbEntity
  8
01
100
AcDbCircle
 10
2504.571794511862
 20
-460.3406054475357
 30
0.0
 40
1.001074199556652
100
AcDbArc
 50
273.8038238778075
 51
0.0486468921710981
  0
LINE
  5
1AC3D
330
18
100
AcDbEntity
  8
01
100
AcDbLine
 10
2504.552635099385
 20
-440.1964713306455
 30
0.0
 11
2504.53509728759
 21
-440.1975904279506
 31
0.0
  0
SPLINE
  5
1AC3E
330
18
100
AcDbEntity
  8
01
100
AcDbSpline
210
0.0
220
0.0
230
1.0
 70
  1064
 71
     3
 72
    10
 73
     6
 74
     4
 42
0.000000001
 43
0.0000000001
 44
0.000001
 12
0.9831784645781124
 22
0.1826474932481291
 32
0.0
 13
0.993718563209008
 23
0.1119080744800171
 33
0.0
 40
0.0
 40
0.0
 40
0.0
 40
0.0
 40
12.64947198872543
 40
25.29664324953094
 40
37.93871298170414
 40
37.93871298170414
 40
37.93871298170414
 40
37.93871298170414
 10
2467.044754706999
 20
-445.9651273351354
 30
0.0
 10
2471.190317522865
 20
-445.194995885251
 30
0.0
 10
2479.491702952841
 20
-443.7125977175755
 30
0.0
 10
2491.985671438501
 20
-441.7489524850899
 30
0.0
 10
2500.347544164176
 20
-440.6691736550071
 30
0.0
 10
2504.53509728759
 20
-440.1975904279506
 30
0.0
 11
2467.044754706999
 21
-445.9651273351354
 31
0.0
 11
2479.499783515247
 21
-443.7557414096217
 31
0.0
 11
2491.995760644008
 21
-441.80599840312
 31
0.0
 11
2504.53509728759
 21
-440.1975904279506
 31
0.0
  0
ARC
  5
1AC3F
330
18
100
AcDbEntity
  8
01
100
AcDbCircle
 10
2796.910992909747
 20
-2205.773728008739
 30
0.0
 40
1790.457496315067
100
AcDbArc
 50
100.6165768773612
 51
101.2234178765612
  0
SPLINE
  5
1AC40
330
18
100
AcDbEntity
  8
01
100
AcDbSpline
210
0.0
220
0.0
230
1.0
 70
  1064
 71
     3
 72
    25
 73
    21
 74
    19
 42
0.000000001
 43
0.0000000001
 44
0.000001
 12
-0.000871073338289442
 22
-0.9999996206155477
 32
0.0
 13
0.9812495806433168
 23
0.1927414342774154
 33
0.0
 40
0.0
 40
0.0
 40
0.0
 40
0.0
 40
3.441413671685528
 40
6.890117821913623
 40
10.34824228437137
 40
13.81586316647407
 40
17.29116998569668
 40
20.76838829436296
 40
24.24299418042819
 40
27.70617175107052
 40
31.15824156417337
 40
34.60459654871372
 40
41.47191728334248
 40
48.32507241181077
 40
55.16974723390382
 40
62.00886926276685
 40
68.84307992267418
 40
75.67437120356215
 40
82.50297694377403
 40
96.1580389775308
 40
96.1580389775308
 40
96.1580389775308
 40
96.1580389775308
 10
2367.507074348171
 20
-432.3776782749327
 30
0.0
 10
2367.506075106939
 20
-433.5248157302883
 30
0.0
 10
2367.593622409073
 20
-435.8229953053682
 30
0.0
 10
2368.04871061943
 20
-439.2485611814292
 30
0.0
 10
2368.917828337843
 20
-442.6067820590906
 30
0.0
 10
2370.293546562587
 20
-445.8071230506135
 30
0.0
 10
2372.237870966983
 20
-448.7122639347251
 30
0.0
 10
2374.725471358781
 20
-451.1728526990081
 30
0.0
 10
2377.62714010052
 20
-453.1123127558924
 30
0.0
 10
2380.791337885044
 20
-454.5497052880269
 30
0.0
 10
2384.099798255771
 20
-455.566574296773
 30
0.0
 10
2388.604610269655
 20
-456.4686906186835
 30
0.0
 10
2394.32371932361
 20
-456.9443277380396
 30
0.0
 10
2401.183456685057
 20
-456.8597367898925
 30
0.0
 10
2408.013213350073
 20
-456.3480162158081
 30
0.0
 10
2414.806322132125
 20
-455.5428029236347
 30
0.0
 10
2421.567693865859
 20
-454.5384465007343
 30
0.0
 10
2428.303092423661
 20
-453.3955380671572
 30
0.0
 10
2437.25847144718
 20
-451.7508278013324
 30
0.0
 10
2443.958473313808
 20
-450.4348015586376
 30
0.0
 10
2448.424814611902
 20
-449.5575028114598
 30
0.0
 11
2367.507074348171
 21
-432.3776782749327
 31
0.0
 11
2367.647281010622
 21
-435.8162356291904
 31
0.0
 11
2368.116827407126
 21
-439.232825549875
 31
0.0
 11
2369.000764058237
 21
-442.5760696438696
 31
0.0
 11
2370.386616001084
 21
-445.7547186260139
 31
0.0
 11
2372.327807908038
 21
-448.637344504837
 31
0.0
 11
2374.795725862436
 21
-451.086921758303
 31
0.0
 11
2377.675468229214
 21
-453.0311364036664
 31
0.0
 11
2380.820308746059
 21
-454.4815079440581
 31
0.0
 11
2384.115353390155
 21
-455.5108122292194
 31
0.0
 11
2387.491902521781
 21
-456.2009419838731
 31
0.0
 11
2394.329857160644
 21
-456.8353485507754
 31
0.0
 11
2401.182851341171
 21
-456.7883724057932
 31
0.0
 11
2408.009997010767
 21
-456.2988257697383
 31
0.0
 11
2414.803393717867
 21
-455.5092995765484
 31
0.0
 11
2421.564904257583
 21
-454.5151110837909
 31
0.0
 11
2428.301262519693
 21
-453.3802022531326
 31
0.0
 11
2435.018631986911
 21
-452.1526828537325
 31
0.0
 11
2448.424814611902
 21
-449.5575028114598
 31
0.0
  0
ARC
  5
1AC41
330
18
100
AcDbEntity
  8
01
100
AcDbCircle
 10
2505.477539381837
 20
-440.4137621630465
 30
0.0
 40
0.0979236131362861
100
AcDbArc
 50
13.2189413901986
 51
73.74740855216808
  0
LINE
  5
1AC42
330
18
100
AcDbEntity
  8
01
100
AcDbLine
 10
2505.362088238589
 20
-440.2710836482078
 30
0.0
 11
2505.504945502002
 21
-440.3197518519736
 31
0.0
  0
ARC
  5
1AC43
330
18
100
AcDbEntity
  8
01
100
AcDbCircle
 10
2504.597942594842
 20
-444.1330384608435
 30
0.0
 40
3.936827852433767
100
AcDbArc
 50
78.80773794350462
 51
90.65941048865872
  0
SPLINE
  5
1AC44
330
18
100
AcDbEntity
  8
01
100
AcDbSpline
210
0.0
220
0.0
230
1.0
 70
  1064
 71
     3
 72
    26
 73
    22
 74
    20
 42
0.000000001
 43
0.0000000001
 44
0.000001
 12
-0.9979199097763058
 22
-0.06446591093011672
 32
0.0
 13
-0.02284695825456342
 23
0.9997389741820183
 33
0.0
 40
0.0
 40
0.0
 40
0.0
 40
0.0
 40
22.25672874204004
 40
33.34877084862563
 40
44.42939984479647
 40
55.49867241274671
 40
66.55665876077595
 40
77.60087402967451
 40
88.6301824589255
 40
94.13893639426064
 40
99.64443915907196
 40
105.1453874461796
 40
110.6428094101675
 40
116.1400221877812
 40
121.6412419545424
 40
127.1451797682249
 40
132.664687764528
 40
138.2073494278443
 40
143.7750347604447
 40
149.3632114036928
 40
154.9621545292764
 40
154.9621545292764
 40
154.9621545292764
 40
154.9621545292764
 10
2504.638206267572
 20
-461.3394743236762
 30
0.0
 10
2497.234728688181
 20
-461.8177410879029
 30
0.0
 10
2486.148382808209
 20
-462.6378134252274
 30
0.0
 10
2471.383650157182
 20
-463.7913400488889
 30
0.0
 10
2460.335394105815
 20
-464.6386352401069
 30
0.0
 10
2449.292745580923
 20
-465.4078164030918
 30
0.0
 10
2438.253180898607
 20
-466.0415707981197
 30
0.0
 10
2427.215167037552
 20
-466.429962472062
 30
0.0
 10
2418.017286891901
 20
-466.4356795602322
 30
0.0
 10
2410.675038284799
 20
-466.1182566541056
 30
0.0
 10
2405.185835980996
 20
-465.6803841002284
 30
0.0
 10
2399.726335434518
 20
-464.9830456467739
 30
0.0
 10
2394.320346344364
 20
-463.9539647818416
 30
0.0
 10
2389.01265851095
 20
-462.4892095771424
 30
0.0
 10
2383.881000276019
 20
-460.4689920328975
 30
0.0
 10
2379.081491784861
 20
-457.7171764559376
 30
0.0
 10
2374.837809538843
 20
-454.1243813680774
 30
0.0
 10
2371.463010521123
 20
-449.6661632317395
 30
0.0
 10
2369.150316051877
 20
-444.5571641898159
 30
0.0
 10
2367.861995222027
 20
-439.0951816807069
 30
0.0
 10
2367.56136928428
 20
-435.3659873866262
 30
0.0
 10
2367.51872967766
 20
-433.500160167668
 30
0.0
 11
2504.638206267572
 21
-461.3394743236762
 31
0.0
 11
2482.438579790566
 21
-462.932746394103
 31
0.0
 11
2471.379636737403
 21
-463.789003655514
 31
0.0
 11
2460.330667318332
 21
-464.6260302800969
 31
0.0
 11
2449.287486970958
 21
-465.3856109709358
 31
0.0
 11
2438.246636860335
 21
-466.0009894833273
 31
0.0
 11
2427.208471730374
 21
-466.3665045398801
 31
0.0
 11
2416.179225786917
 21
-466.3293814869852
 31
0.0
 11
2410.675902537279
 21
-466.0848348178591
 31
0.0
 11
2405.18865084933
 21
-465.6369179143761
 31
0.0
 11
2399.733637875523
 21
-464.9275058581246
 31
0.0
 11
2394.336673883916
 21
-463.8813567824103
 31
0.0
 11
2389.043606316985
 21
-462.3971788817656
 31
0.0
 11
2383.938274401616
 21
-460.3480315041892
 31
0.0
 11
2379.180215247144
 21
-457.5814081848292
 31
0.0
 11
2374.990336628273
 21
-453.9883752380209
 31
0.0
 11
2371.646269407003
 21
-449.568158862964
 31
0.0
 11
2369.324336077891
 21
-444.5077492329837
 31
0.0
 11
2368.002449327329
 21
-439.0781697237966
 31
0.0
 11
2367.51872967766
 21
-433.500160167668
 31
0.0
  0
SPLINE
  5
1AC45
330
18
100
AcDbEntity
  8
01
100
AcDbSpline
210
0.0
220
0.0
230
1.0
 70
     8
 71
     3
 72
    27
 73
    23
 74
     0
 42
0.0000000001
 43
0.0000000001
 40
0.0
 40
0.0
 40
0.0
 40
0.0
 40
16.91059537614233
 40
25.36612715702854
 40
33.82144120212359
 40
42.27681849485995
 40
50.73232732391983
 40
59.18788171366092
 40
67.64342079382851
 40
76.09822210144672
 40
80.32547480342753
 40
84.55239661131972
 40
88.77906906159228
 40
93.00316601689825
 40
97.22721965277279
 40
101.4453053855404
 40
103.5555681067257
 40
105.6622199082372
 40
107.771868988524
 40
109.8818614491521
 40
114.0963887206748
 40
118.2484923739838
 40
118.2484923739838
 40
118.2484923739838
 40
118.2484923739838
 10
2504.526263904402
 20
-439.3279456818931
 30
0.0
 10
2498.895513071207
 20
-439.590421387836
 30
0.0
 10
2490.453593546257
 20
-440.0829532762122
 30
0.0
 10
2479.210383065536
 20
-440.914672805431
 30
0.0
 10
2470.784537577145
 20
-441.6225345259408
 30
0.0
 10
2462.363630530954
 20
-442.3858187171357
 30
0.0
 10
2453.945146343694
 20
-443.1757347622496
 30
0.0
 10
2445.525029492926
 20
-443.9497333701523
 30
0.0
 10
2437.096195288881
 20
-444.6214001431521
 30
0.0
 10
2430.059543171836
 20
-445.0112023703731
 30
0.0
 10
2424.423800572362
 20
-445.1322591311072
 30
0.0
 10
2420.196258981858
 20
-445.0857948897022
 30
0.0
 10
2415.974291754836
 20
-444.8626320713541
 30
0.0
 10
2411.775023803232
 20
-444.3638942522283
 30
0.0
 10
2407.63406958033
 20
-443.5026204765812
 30
0.0
 10
2404.309901420822
 20
-442.2893700583639
 30
0.0
 10
2401.847556684213
 20
-440.9196676424143
 30
0.0
 10
2400.145448331455
 20
-439.662962345234
 30
0.0
 10
2398.646463078319
 20
-438.16798092836
 30
0.0
 10
2396.976009557681
 20
-435.8936157953207
 30
0.0
 10
2395.560363836325
 20
-432.6548095138577
 30
0.0
 10
2395.000188468581
 20
-429.9085440982284
 30
0.0
 10
2394.820621428108
 20
-428.5360916391086
 30
0.0
  0
LINE
  5
1AC46
330
18
100
AcDbEntity
  8
01
100
AcDbLine
 10
2505.572868348171
 20
-642.9861985073047
 30
0.0
 11
2505.572868348172
 21
-639.8997927751706
 31
0.0
  0
LINE
  5
1AC47
330
18
100
AcDbEntity
  8
01
100
AcDbLine
 10
2505.572868069374
 20
-645.9642649039832
 30
0.0
 11
2505.572868348171
 21
-642.9861985073047
 31
0.0
  0
LINE
  5
1AC48
330
18
100
AcDbEntity
  8
01
100
AcDbLine
 10
2504.665196293879
 20
-646.9612396376568
 30
0.0
 11
2504.644723305607
 21
-646.9631407120202
 31
0.0
  0
LINE
  5
1AC49
330
18
100
AcDbEntity
  8
01
100
AcDbLine
 10
2368.307074360092
 20
-664.3776760118509
 30
0.0
 11
2393.707800322632
 21
-664.3776763819511
 31
0.0
  0
LINE
  5
1AC4A
330
18
100
AcDbEntity
  8
01
100
AcDbLine
 10
2393.766404923858
 20
-664.3673066740117
 30
0.0
 11
2393.707800322632
 21
-664.3776763819511
 31
0.0
  0
ARC
  5
1AC4B
330
18
100
AcDbEntity
  8
01
100
AcDbCircle
 10
2504.571901415146
 20
-645.964630164547
 30
0.0
 40
1.000966720870227
100
AcDbArc
 50
275.3480025563511
 51
0.0209076773013226
  0
LINE
  5
1AC4C
330
18
100
AcDbEntity
  8
01
100
AcDbLine
 10
2367.507074348171
 20
-663.5775015795781
 30
0.0
 11
2367.507074348171
 21
-643.1776501140613
 31
0.0
  0
LINE
  5
1AC4D
330
18
100
AcDbEntity
  8
01
100
AcDbLine
 10
2504.552635099385
 20
-638.8988596087598
 30
0.0
 11
2504.53509728759
 21
-638.8992205448941
 31
0.0
  0
ARC
  5
1AC4E
330
18
100
AcDbEntity
  8
01
100
AcDbCircle
 10
2504.566470078416
 20
-639.9003998365216
 30
0.0
 40
1.006398452845485
100
AcDbArc
 50
0.0345609190191558
 51
21.17066786855085
  0
ARC
  5
1AC4F
330
18
100
AcDbEntity
  8
01
100
AcDbCircle
 10
2504.566872057935
 20
-639.9020874748923
 30
0.0
 40
1.006634556911848
100
AcDbArc
 50
21.26850517991904
 51
37.81682041126567
  0
ARC
  5
1AC50
330
18
100
AcDbEntity
  8
01
100
AcDbCircle
 10
2504.572801054803
 20
-639.8982609969083
 30
0.0
 40
0.999604822112772
100
AcDbArc
 50
37.8519266369226
 51
91.15595933299288
  0
ARC
  5
1AC51
330
18
100
AcDbEntity
  8
01
100
AcDbCircle
 10
2368.307074017465
 20
-663.5775012363775
 30
0.0
 40
0.799999669293957
100
AcDbArc
 50
180.0000245799556
 51
270.0250322811478
  0
LINE
  5
1AC52
330
18
100
AcDbEntity
  8
01
100
AcDbLine
 10
2393.707800322632
 20
-664.3776763819511
 30
0.0
 11
2393.767013142739
 21
-664.375444161975
 31
0.0
  0
SPLINE
  5
1AC53
330
18
100
AcDbEntity
  8
01
100
AcDbSpline
210
0.0
220
0.0
230
1.0
 70
     8
 71
     3
 72
    11
 73
     7
 74
     0
 42
0.0000000001
 43
0.0000000001
 40
0.0
 40
0.0
 40
0.0
 40
0.0
 40
21.43372384846992
 40
42.74812160428417
 40
64.00497958002913
 40
71.06070238869576
 40
71.06070238869576
 40
71.06070238869576
 40
71.06070238869576
 10
2504.534705288357
 20
-638.89921670497
 30
0.0
 10
2497.39168248734
 20
-639.0481183838675
 30
0.0
 10
2483.145802031271
 20
-639.3641584691696
 30
0.0
 10
2461.816736918227
 20
-639.867211452521
 30
0.0
 10
2445.279508188622
 20
-640.2780457990067
 30
0.0
 10
2435.845076011009
 20
-640.519722581767
 30
0.0
 10
2433.493949364141
 20
-640.5803271360213
 30
0.0
  0
SPLINE
  5
1AC54
330
18
100
AcDbEntity
  8
01
100
AcDbSpline
210
0.0
220
0.0
230
1.0
 70
     8
 71
     3
 72
    32
 73
    28
 74
     0
 42
0.0000000001
 43
0.0000000001
 40
0.0
 40
0.0
 40
0.0
 40
0.0
 40
0.3599301998348471
 40
0.7204576955008581
 40
1.078388999306343
 40
1.203188941373293
 40
1.256497440238248
 40
1.349899079695673
 40
1.501470349278231
 40
1.719093506751409
 40
2.008946379622365
 40
2.377953257068766
 40
2.833372290666866
 40
4.02961040316922
 40
5.628859930107992
 40
7.61937959175037
 40
9.930476612769016
 40
12.47953325127824
 40
15.18599668370276
 40
17.98461738332648
 40
20.83771850465741
 40
26.62046581402179
 40
32.43257263878778
 40
38.23851433232301
 40
44.02870797848659
 40
55.55219103227755
 40
66.45873402473153
 40
66.45873402473153
 40
66.45873402473153
 40
66.45873402473153
 10
2367.507058581829
 20
-643.1776440075458
 30
0.0
 10
2367.50705861906
 20
-643.0576672742676
 30
0.0
 10
2367.563670211161
 20
-642.8141307994814
 30
0.0
 10
2367.796989943474
 20
-642.5257221095809
 30
0.0
 10
2368.061697524261
 20
-642.4015543879055
 30
0.0
 10
2368.239488120438
 20
-642.3797329004911
 30
0.0
 10
2368.329920568311
 20
-642.3759947954139
 30
0.0
 10
2368.429281009313
 20
-642.3724067422394
 30
0.0
 10
2368.583392718719
 20
-642.3671952515627
 30
0.0
 10
2368.802948107749
 20
-642.3597397750958
 30
0.0
 10
2369.094948213286
 20
-642.3500391596771
 30
0.0
 10
2369.466172054284
 20
-642.337780793
 30
0.0
 10
2370.139367176729
 20
-642.3157739717791
 30
0.0
 10
2371.222443073893
 20
-642.2809495586256
 30
0.0
 10
2372.816986708207
 20
-642.2306780820098
 30
0.0
 10
2374.783009377768
 20
-642.1701053530184
 30
0.0
 10
2377.065530650709
 20
-642.1013044650064
 30
0.0
 10
2379.586643697623
 20
-642.0270649971254
 30
0.0
 10
2382.270240201023
 20
-641.9496206965886
 30
0.0
 10
2385.055185556992
 20
-641.8707533745288
 30
0.0
 10
2388.865192225079
 20
-641.7644348982777
 30
0.0
 10
2393.679370869161
 20
-641.63252956994
 30
0.0
 10
2399.47752663436
 20
-641.4761075221649
 30
0.0
 10
2405.278202145886
 20
-641.3210547329883
 30
0.0
 10
2412.982025978979
 20
-641.1164839904606
 30
0.0
 10
2422.385497969929
 20
-640.8685483952737
 30
0.0
 10
2429.859642864027
 20
-640.6740326696043
 30
0.0
 10
2433.49394936414
 20
-640.5803271360213
 30
0.0
  0
SPLINE
  5
1AC55
330
18
100
AcDbEntity
  8
01
100
AcDbSpline
210
0.0
220
0.0
230
1.0
 70
  1064
 71
     3
 72
    29
 73
    25
 74
    23
 42
0.000000001
 43
0.0000000001
 44
0.000001
 12
-0.9957295571504321
 22
-0.09231819439852766
 32
0.0
 13
-0.9999999961407903
 23
-8.785453656356257E-5
 33
0.0
 40
0.0
 40
0.0
 40
0.0
 40
0.0
 40
18.72223237932955
 40
28.08380125047977
 40
37.44489731842073
 40
46.8045065589921
 40
56.157036497619
 40
65.49105784394362
 40
74.7753600986996
 40
83.93695746269857
 40
88.42253561022918
 40
92.79315031724524
 40
96.98478944101419
 40
100.8929762880916
 40
104.3856126466119
 40
107.309736113392
 40
108.5186045585991
 40
109.5470291062996
 40
110.3943897133712
 40
111.0646313142806
 40
111.5675614950663
 40
111.9161223033962
 40
112.123916147474
 40
112.3643818635918
 40
112.3643818635918
 40
112.3643818635918
 40
112.3643818635918
 10
2504.644666879963
 20
-646.9631625755284
 30
0.0
 10
2498.43057349465
 20
-647.5392968049848
 30
0.0
 10
2489.118858219596
 20
-648.5114511450004
 30
0.0
 10
2476.727787592985
 20
-650.0135809916037
 30
0.0
 10
2467.447511370106
 20
-651.2398973542173
 30
0.0
 10
2458.183396557182
 20
-652.5614388816239
 30
0.0
 10
2448.941838535989
 20
-653.9738803686914
 30
0.0
 10
2439.739147013711
 20
-655.4715420337775
 30
0.0
 10
2430.613876371118
 20
-657.0460446771486
 30
0.0
 10
2423.093910557028
 20
-658.4172300761345
 30
0.0
 10
2417.193375584417
 20
-659.537549172917
 30
0.0
 10
2412.924379263004
 20
-660.3694397383836
 30
0.0
 10
2408.848242889191
 20
-661.1845116824362
 30
0.0
 10
2405.062672019748
 20
-661.9599162279649
 30
0.0
 10
2401.694218981838
 20
-662.6659898759958
 30
0.0
 10
2399.208503931396
 20
-663.197400049514
 30
0.0
 10
2397.527076179034
 20
-663.561842267086
 30
0.0
 10
2396.522484718869
 20
-663.7810245293501
 30
0.0
 10
2395.693567214848
 20
-663.9630077895971
 30
0.0
 10
2395.035726486448
 20
-664.1076508719668
 30
0.0
 10
2394.540634086896
 20
-664.2175232250045
 30
0.0
 10
2394.19522101549
 20
-664.2919127354835
 30
0.0
 10
2393.93677035286
 20
-664.3509089645049
 30
0.0
 10
2393.78836067985
 20
-664.3776773905645
 30
0.0
 10
2393.708205441454
 20
-664.3776844325658
 30
0.0
 11
2504.644666879963
 21
-646.9631625755284
 31
0.0
 11
2486.023317264982
 21
-648.9041221313931
 31
0.0
 11
2476.729725237569
 21
-650.030230006745
 31
0.0
 11
2467.449216597257
 21
-651.2559049081796
 31
0.0
 11
2458.183334161069
 21
-652.5771572725761
 31
0.0
 11
2448.938091191637
 21
-653.989707691475
 31
0.0
 11
2439.725248528785
 21
-655.4888689774604
 31
0.0
 11
2430.576150907604
 21
-657.0675649821975
 31
0.0
 11
2421.563250537024
 21
-658.7114911274258
 31
0.0
 11
2417.156415924937
 21
-659.5482826305443
 31
0.0
 11
2412.866528274591
 21
-660.3844266761379
 31
0.0
 11
2408.756263503285
 21
-661.2063524963359
 31
0.0
 11
2404.927612635361
 21
-661.9907994117237
 31
0.0
 11
2401.509268726667
 21
-662.7073422602242
 31
0.0
 11
2398.649798163305
 21
-663.3188372673281
 31
0.0
 11
2397.468354941671
 21
-663.5748740435837
 31
0.0
 11
2396.463573755651
 21
-663.7941269045472
 31
0.0
 11
2395.635899609103
 21
-663.9757184888598
 31
0.0
 11
2394.981341582637
 21
-664.1198628286098
 31
0.0
 11
2394.490192340985
 21
-664.2280810571402
 31
0.0
 11
2394.149696991181
 21
-664.3026300183943
 31
0.0
 11
2393.946719490405
 21
-664.3471092828839
 31
0.0
 11
2393.708205441454
 21
-664.3776844325658
 31
0.0
  0
SPLINE
  5
1AC56
330
18
100
AcDbEntity
  8
01
100
AcDbSpline
210
0.0
220
0.0
230
1.0
 70
     8
 71
     3
 72
    44
 73
    40
 74
     0
 42
0.0000000001
 43
0.0000000001
 40
0.0
 40
0.0
 40
0.0
 40
0.0
 40
27.07959778501141
 40
27.07959778501141
 40
54.60840902937863
 40
54.60840902937863
 40
82.13722027374585
 40
82.13722027374585
 40
109.6660315181131
 40
109.6660315181131
 40
112.1754562362065
 40
112.1754562362065
 40
117.1943056723934
 40
117.1943056723934
 40
127.2320045447672
 40
127.2320045447672
 40
133.9474354635729
 40
133.9474354635729
 40
134.5784087099583
 40
134.5784087099583
 40
135.8403552027291
 40
135.8403552027291
 40
137.719205311297
 40
137.719205311297
 40
137.8907550435536
 40
137.8907550435536
 40
138.2338545080668
 40
138.2338545080668
 40
138.3136935812727
 40
138.3136935812727
 40
138.3988995637888
 40
138.3988995637888
 40
138.4402043869496
 40
138.4402043869496
 40
138.4737052737331
 40
138.4737052737331
 40
138.4994240015327
 40
138.4994240015327
 40
138.5115311008119
 40
138.5115311008119
 40
138.5115311008119
 40
138.5115311008119
 10
2504.534188087811
 20
-639.324103661441
 30
0.0
 10
2495.583347181842
 20
-640.5203481998184
 30
0.0
 10
2486.646939509652
 20
-641.8208200935691
 30
0.0
 10
2468.650507169603
 20
-644.5912906119873
 30
0.0
 10
2459.590426284657
 20
-646.0627853681893
 30
0.0
 10
2441.490097863971
 20
-649.1221889529019
 30
0.0
 10
2432.449766015119
 20
-650.7114249261282
 30
0.0
 10
2414.396482560514
 20
-654.0445440725983
 30
0.0
 10
2405.383923174429
 20
-655.7903344061905
 30
0.0
 10
2395.57218236968
 20
-657.8075152458358
 30
0.0
 10
2394.752670638472
 20
-657.97689588075
 30
0.0
 10
2392.294675040997
 20
-658.487713795923
 30
0.0
 10
2390.656732824327
 20
-658.8318236970696
 30
0.0
 10
2385.745233655334
 20
-659.87539005986
 30
0.0
 10
2382.473874206305
 20
-660.5853386963375
 30
0.0
 10
2377.020361675248
 20
-661.8035607966518
 30
0.0
 10
2374.836298559311
 20
-662.3004666755215
 30
0.0
 10
2372.449503102046
 20
-662.8589665088806
 30
0.0
 10
2372.244524512607
 20
-662.9070679817022
 30
0.0
 10
2371.629659007536
 20
-663.0518091987589
 30
0.0
 10
2371.219822535071
 20
-663.1488811972566
 30
0.0
 10
2370.200040552685
 20
-663.3923932693216
 30
0.0
 10
2369.590441107942
 20
-663.5395218558768
 30
0.0
 10
2368.924680504652
 20
-663.703874192313
 30
0.0
 10
2368.868951170777
 20
-663.7176655182108
 30
0.0
 10
2368.701692161113
 20
-663.75919726886
 30
0.0
 10
2368.590463847076
 20
-663.7869706810446
 30
0.0
 10
2368.452113905854
 20
-663.8219715695669
 30
0.0
 10
2368.425915504994
 20
-663.8286265198939
 30
0.0
 10
2368.371600831059
 20
-663.842512146823
 30
0.0
 10
2368.343686372991
 20
-663.8497106422236
 30
0.0
 10
2368.302747913614
 20
-663.8602674489149
 30
0.0
 10
2368.288415514303
 20
-663.8639614779271
 30
0.0
 10
2368.260787628993
 20
-663.8712670901949
 30
0.0
 10
2368.248578815957
 20
-663.874590597395
 30
0.0
 10
2368.233847336032
 20
-663.8785053972434
 30
0.0
 10
2368.232708443982
 20
-663.8786820215654
 30
0.0
 10
2368.208466049344
 20
-663.885072122527
 30
0.0
 10
2368.198020246611
 20
-663.8878954975065
 30
0.0
 10
2368.184815799095
 20
-663.8919639950553
 30
0.0
  0
LINE
  5
1AC57
330
18
100
AcDbEntity
  8
01
  6
CONTINUOUS
100
AcDbLine
 10
2259.758667782208
 20
-642.3776766667823
 30
0.0
 11
2240.025334452848
 21
-642.3776783919255
 31
0.0
  0
LINE
  5
1AC58
330
18
100
AcDbEntity
  8
01
  6
CONTINUOUS
100
AcDbLine
 10
2240.025336376151
 20
-664.3776783919255
 30
0.0
 11
2259.758669705509
 21
-664.3776766667823
 31
0.0
  0
SPLINE
  5
1AC59
330
18
100
AcDbEntity
  8
01
  6
CONTINUOUS
100
AcDbSpline
210
0.0
220
0.0
230
1.0
 70
  1064
 71
     3
 72
    10
 73
     6
 74
     4
 42
0.000000001
 43
0.0000000001
 44
0.000001
 12
-0.9994601531828483
 22
-0.03285425694970674
 32
0.0
 13
-0.999999986028043
 23
-0.0001671643320593494
 33
0.0
 40
0.0
 40
0.0
 40
0.0
 40
0.0
 40
5.014443398443527
 40
11.01006145479278
 40
17.34126459784179
 40
17.34126459784179
 40
17.34126459784179
 40
17.34126459784179
 10
2277.364751644132
 20
-642.180833285557
 30
0.0
 10
2275.694172855087
 20
-642.2357485561811
 30
0.0
 10
2272.024728609919
 20
-642.3120783163299
 30
0.0
 10
2266.24454312538
 20
-642.3671702518275
 30
0.0
 10
2262.135579788543
 20
-642.3772979783907
 30
0.0
 10
2260.025178770346
 20
-642.3776507621723
 30
0.0
 11
2277.364751644132
 21
-642.180833285557
 31
0.0
 11
2272.351646983258
 21
-642.2966976495217
 31
0.0
 11
2266.356355085542
 21
-642.3592345283522
 31
0.0
 11
2260.025178770346
 21
-642.3776507621723
 31
0.0
  0
LINE
  5
1AC5A
330
18
100
AcDbEntity
  8
01
  6
CONTINUOUS
100
AcDbLine
 10
2279.376996002617
 20
-642.1018746149974
 30
0.0
 11
2277.364751644132
 21
-642.180833285557
 31
0.0
  0
SPLINE
  5
1AC5B
330
18
100
AcDbEntity
  8
01
  6
CONTINUOUS
100
AcDbSpline
210
0.0
220
0.0
230
1.0
 70
  1064
 71
     3
 72
    36
 73
    32
 74
    30
 42
0.000000001
 43
0.0000000001
 44
0.000001
 12
0.9938069772178694
 22
-0.1111201693351909
 32
0.0
 13
-0.9989015518246972
 23
-0.04685818778198592
 33
0.0
 40
0.0
 40
0.0
 40
0.0
 40
0.0
 40
2.42922784662992
 40
3.919355453223645
 40
5.550941175542857
 40
7.284555291724734
 40
9.071456982233972
 40
10.85917755497593
 40
11.73489586882123
 40
12.58682580795989
 40
13.40493229759228
 40
14.17691436774292
 40
14.88865081251399
 40
15.5225472362669
 40
15.80398645204095
 40
16.05801996152319
 40
16.28041886650327
 40
16.46689274434949
 40
16.61375640551638
 40
16.71870486785198
 40
16.78579178781782
 40
16.85368029962045
 40
16.90643972053334
 40
16.9766056514621
 40
17.1786149263348
 40
17.47849300648922
 40
17.89430820030068
 40
18.44687969626548
 40
19.15861543069466
 40
20.05339997840785
 40
21.15333389268996
 40
21.15333389268996
 40
21.15333389268996
 40
21.15333389268996
 10
2267.045531360755
 20
-639.6896357508202
 30
0.0
 10
2267.850259221833
 20
-639.7796144873773
 30
0.0
 10
2269.153597817772
 20
-639.8772535425524
 30
0.0
 10
2270.999674688369
 20
-640.0003840941316
 30
0.0
 10
2272.614589526601
 20
-640.1077373039928
 30
0.0
 10
2274.327347714262
 20
-640.2336104231101
 30
0.0
 10
2276.090785908635
 20
-640.3792927780102
 30
0.0
 10
2277.567684549452
 20
-640.5190046851169
 30
0.0
 10
2278.733085145504
 20
-640.6412866187978
 30
0.0
 10
2279.576336023882
 20
-640.7363744470241
 30
0.0
 10
2280.384359655052
 20
-640.8349915695483
 30
0.0
 10
2281.144883474414
 20
-640.9367339776802
 30
0.0
 10
2281.843044879842
 20
-641.0409730187068
 30
0.0
 10
2282.37769607048
 20
-641.1325540774153
 30
0.0
 10
2282.759977489763
 20
-641.2088731168432
 30
0.0
 10
2283.006519236483
 20
-641.2639908860613
 30
0.0
 10
2283.220497760016
 20
-641.3197338860073
 30
0.0
 10
2283.397253855558
 20
-641.3745714716775
 30
0.0
 10
2283.532955707276
 20
-641.4318715912567
 30
0.0
 10
2283.624250578143
 20
-641.4824516566573
 30
0.0
 10
2283.677814280862
 20
-641.5572289560469
 30
0.0
 10
2283.635968203954
 20
-641.6179917091807
 30
0.0
 10
2283.58289400461
 20
-641.6508664858316
 30
0.0
 10
2283.483993405559
 20
-641.6970818677935
 30
0.0
 10
2283.300208965087
 20
-641.7492492218979
 30
0.0
 10
2283.000097148726
 20
-641.8093615479866
 30
0.0
 10
2282.581506438157
 20
-641.869603864665
 30
0.0
 10
2282.024713291026
 20
-641.9303990756168
 30
0.0
 10
2281.307495783849
 20
-641.9907876432429
 30
0.0
 10
2280.407269718789
 20
-642.0502058252133
 30
0.0
 10
2279.743237900578
 20
-642.0846943116964
 30
0.0
 10
2279.376996002617
 20
-642.1018746149974
 30
0.0
 11
2267.045531360755
 21
-639.6896357508202
 31
0.0
 11
2269.465931137683
 21
-639.8965374437056
 31
0.0
 11
2270.952655157796
 21
-639.9971949938507
 31
0.0
 11
2272.58052034957
 21
-640.1073170791414
 31
0.0
 11
2274.309434894517
 21
-640.2348804334969
 31
0.0
 11
2276.090203919784
 21
-640.3827972403068
 31
0.0
 11
2277.869927302953
 21
-640.5517045869282
 31
0.0
 11
2278.740847282575
 21
-640.6432527284632
 31
0.0
 11
2279.587384943373
 21
-640.7389546549174
 31
0.0
 11
2280.3994178988
 21
-640.8384600317348
 31
0.0
 11
2281.164504679432
 21
-640.9414139246536
 31
0.0
 11
2281.868296627103
 21
-641.0474622233777
 31
0.0
 11
2282.492773886641
 21
-641.1563338661152
 31
0.0
 11
2282.768700367185
 21
-641.2117652039786
 31
0.0
 11
2283.016469914368
 21
-641.2678302613493
 31
0.0
 11
2283.23152260129
 21
-641.3245191047926
 31
0.0
 11
2283.408972939734
 21
-641.381824354189
 31
0.0
 11
2283.543935441488
 21
-641.439738629423
 31
0.0
 11
2283.631055365459
 21
-641.4982561701671
 31
0.0
 11
2283.662759687134
 21
-641.5573788732808
 31
0.0
 11
2283.630486463777
 21
-641.6171056820793
 31
0.0
 11
2283.587142730478
 21
-641.6471868692942
 31
0.0
 11
2283.523817951541
 21
-641.677406576823
 31
0.0
 11
2283.331184607879
 21
-641.7382353834699
 31
0.0
 11
2283.037632436118
 21
-641.7995051706129
 31
0.0
 11
2282.626402737152
 21
-641.8610877275659
 31
0.0
 11
2282.077271920471
 21
-641.9226556203911
 31
0.0
 11
2281.368164984525
 21
-641.9837711672852
 31
0.0
 11
2280.475398299574
 21
-642.0438297555291
 31
0.0
 11
2279.376996002617
 21
-642.1018746149974
 31
0.0
  0
LINE
  5
1AC5C
330
18
100
AcDbEntity
  8
01
100
AcDbLine
 10
2267.013369276441
 20
-642.3538583744784
 30
0.0
 11
2267.045531360755
 21
-639.6896357508202
 31
0.0
  0
LINE
  5
1AC5D
330
18
100
AcDbEntity
  8
01
100
AcDbLine
 10
2288.195740167959
 20
-639.0180275925558
 30
0.0
 11
2267.844127204434
 21
-638.8988539547826
 31
0.0
  0
ARC
  5
1AC5E
330
18
100
AcDbEntity
  8
01
100
AcDbCircle
 10
2288.19978671302
 20
-639.8093940819182
 30
0.0
 40
0.7913768350239725
100
AcDbArc
 50
27.35913675200101
 51
90.29297163333435
  0
ARC
  5
1AC5F
330
18
100
AcDbEntity
  8
01
100
AcDbCircle
 10
2267.84515656169
 20
-639.6988936791187
 30
0.0
 40
0.7996787925197018
100
AcDbArc
 50
89.9935702585521
 51
179.3366685809382
  0
LINE
  5
1AC60
330
18
100
AcDbEntity
  8
01
  6
CONTINUOUS
100
AcDbLine
 10
2240.025334452848
 20
-642.3776783919255
 30
0.0
 11
2240.025336376151
 21
-664.3776783919255
 31
0.0
  0
LINE
  5
1AC61
330
18
100
AcDbEntity
  8
01
  6
CONTINUOUS
100
AcDbLine
 10
2280.201231738046
 20
-642.05966955263
 30
0.0
 11
2281.180929123053
 21
-641.9947657713927
 31
0.0
  0
SPLINE
  5
1AC62
330
18
100
AcDbEntity
  8
01
  6
CONTINUOUS
100
AcDbSpline
210
0.0
220
0.0
230
1.0
 70
  1064
 71
     3
 72
    27
 73
    23
 74
    21
 42
0.000000001
 43
0.0000000001
 44
0.000001
 12
0.9999996557190713
 22
0.0008297962031457257
 32
0.0
 13
-0.4579738290174825
 23
0.8889656753413293
 33
0.0
 40
0.0
 40
0.0
 40
0.0
 40
0.0
 40
5.873293633215288
 40
11.36353689117744
 40
16.53955106604971
 40
21.14173461159522
 40
24.98310568734634
 40
28.06655579448034
 40
30.51817324520313
 40
32.50336731390501
 40
34.16067337673968
 40
35.59775548316256
 40
36.88559666201813
 40
38.07491547901009
 40
40.27457243626415
 40
41.32578564536498
 40
42.35657039433246
 40
44.37506806133698
 40
46.34835779444145
 40
50.10698163516924
 40
51.84875827563179
 40
53.46914539902231
 40
53.46914539902231
 40
53.46914539902231
 40
53.46914539902231
 10
2259.758669705509
 20
-664.3776766667823
 30
0.0
 10
2261.716433575893
 20
-664.3760521211967
 30
0.0
 10
2265.504648335451
 20
-664.3241972964904
 30
0.0
 10
2271.012339468837
 20
-664.046559897788
 30
0.0
 10
2276.080266088398
 20
-663.5534191572767
 30
0.0
 10
2280.566925595835
 20
-662.8351334396211
 30
0.0
 10
2284.303931662751
 20
-661.9198695634109
 30
0.0
 10
2287.255838005474
 20
-660.8718555468619
 30
0.0
 10
2289.497932451186
 20
-659.7333736144681
 30
0.0
 10
2291.16080782075
 20
-658.5513264154608
 30
0.0
 10
2292.356685495031
 20
-657.339849926683
 30
0.0
 10
2293.181012149353
 20
-656.1237829512205
 30
0.0
 10
2293.703478504641
 20
-654.9203198784408
 30
0.0
 10
2294.071309711877
 20
-653.3989113108256
 30
0.0
 10
2294.090309910508
 20
-651.8993707910454
 30
0.0
 10
2293.876385196726
 20
-650.487553600733
 30
0.0
 10
2293.56477906049
 20
-649.1552151923254
 30
0.0
 10
2293.019488262486
 20
-647.5685044360106
 30
0.0
 10
2291.984031458653
 20
-645.1999742151121
 30
0.0
 10
2290.813636409699
 20
-642.9984922501861
 30
0.0
 10
2289.678299263564
 20
-640.9143999845679
 30
0.0
 10
2289.150007772394
 20
-639.9258599331407
 30
0.0
 10
2288.902642807264
 20
-639.445703755321
 30
0.0
 11
2259.758669705509
 21
-664.3776766667823
 31
0.0
 11
2265.631237442895
 21
-664.285345713616
 31
0.0
 11
2271.113927360507
 21
-663.9974500053921
 31
0.0
 11
2276.263899158606
 21
-663.4788800243513
 31
0.0
 11
2280.804435158183
 21
-662.7281286800061
 31
0.0
 11
2284.529671673658
 21
-661.7907143383771
 31
0.0
 11
2287.426099647801
 21
-660.7331840807673
 31
0.0
 11
2289.602753665717
 21
-659.6050857301606
 31
0.0
 11
2291.209772699597
 21
-658.4395448006743
 31
0.0
 11
2292.366529225498
 21
-657.2527095198737
 31
0.0
 11
2293.167683602727
 21
-656.0596643213038
 31
0.0
 11
2293.679920651702
 21
-654.8780771400051
 31
0.0
 11
2293.960806969694
 21
-653.7224032014891
 31
0.0
 11
2294.014492782612
 21
-651.5234013970866
 31
0.0
 11
2293.86155008947
 21
-650.4833736030122
 31
0.0
 11
2293.628487633457
 21
-649.4792823974338
 31
0.0
 11
2292.989031246273
 21
-647.5647515013742
 31
0.0
 11
2292.206927646197
 21
-645.7530709319807
 31
0.0
 11
2290.490506420668
 21
-642.409247993245
 31
0.0
 11
2289.661031586142
 21
-640.8776614062998
 31
0.0
 11
2288.902642807264
 21
-639.445703755321
 31
0.0
  0
LINE
  5
1AC67
330
18
100
AcDbEntity
  8
01
100
AcDbLine
 10
2406.007072007641
 20
-661.7677321917462
 30
0.0
 11
2406.007072007641
 21
-716.877678273905
 31
0.0
  0
LINE
  5
1AC68
330
18
100
AcDbEntity
  8
1CENTER
100
AcDbLine
 10
2364.923397243699
 20
-348.8776863081874
 30
0.0
 11
2373.057069605547
 21
-348.8776782749372
 31
0.0
  0
LINE
  5
1AC69
330
18
100
AcDbEntity
  8
01
100
AcDbLine
 10
2505.572868348171
 20
-326.4252057529419
 30
0.0
 11
2505.57286835059
 21
-306.4156010627161
 31
0.0
  0
SPLINE
  5
1AC6A
330
18
100
AcDbEntity
  8
01
100
AcDbSpline
210
0.0
220
0.0
230
1.0
 70
     8
 71
     3
 72
     9
 73
     5
 74
     0
 42
0.0000000001
 43
0.0000000001
 40
0.0
 40
0.0
 40
0.0
 40
0.0
 40
4.181585763194067
 40
4.906987455372584
 40
4.906987455372584
 40
4.906987455372584
 40
4.906987455372584
 10
2394.507074348171
 20
-343.3776782749345
 30
0.0
 10
2394.515057759093
 20
-341.7215899517154
 30
0.0
 10
2394.591863032505
 20
-340.0843766545657
 30
0.0
 10
2394.788658482747
 20
-338.4591435433389
 30
0.0
 10
2394.820621428107
 20
-338.2192649107582
 30
0.0
  0
LINE
  5
1AC6B
330
18
100
AcDbEntity
  8
01
100
AcDbLine
 10
2367.507074348172
 20
-354.3776782749345
 30
0.0
 11
2370.017300082847
 21
-354.3776782749345
 31
0.0
  0
LINE
  5
1AC6C
330
18
100
AcDbEntity
  8
01
100
AcDbLine
 10
2394.507074348171
 20
-343.3776782749345
 30
0.0
 11
2394.507074348172
 21
-354.3776782749345
 31
0.0
  0
LINE
  5
1AC6D
330
18
100
AcDbEntity
  8
01
100
AcDbLine
 10
2367.507074348171
 20
-334.3776782749345
 30
0.0
 11
2367.507074348172
 21
-354.3776782749345
 31
0.0
  0
ARC
  5
1AC6E
330
18
100
AcDbEntity
  8
01
100
AcDbCircle
 10
2504.571322902664
 20
-326.4268741813161
 30
0.0
 40
1.00154683518478
100
AcDbArc
 50
269.2048736671269
 51
0.0954463087638144
  0
LINE
  5
1AC6F
330
18
100
AcDbEntity
  8
01
100
AcDbLine
 10
2504.526370915137
 20
-327.4273842609717
 30
0.0
 11
2504.557424309993
 21
-327.4283245755895
 31
0.0
  0
ARC
  5
1AC70
330
18
100
AcDbEntity
  8
01
100
AcDbCircle
 10
2504.571794511862
 20
-306.4147511023315
 30
0.0
 40
1.001074199556652
100
AcDbArc
 50
359.9513531078289
 51
86.19617612219248
  0
LINE
  5
1AC71
330
18
100
AcDbEntity
  8
01
100
AcDbLine
 10
2504.552635099385
 20
-326.5588852192217
 30
0.0
 11
2504.53509728759
 21
-326.5577661219166
 31
0.0
  0
SPLINE
  5
1AC72
330
18
100
AcDbEntity
  8
01
100
AcDbSpline
210
0.0
220
0.0
230
1.0
 70
  1064
 71
     3
 72
    10
 73
     6
 74
     4
 42
0.000000001
 43
0.0000000001
 44
0.000001
 12
0.9831784645781124
 22
-0.1826474932481291
 32
0.0
 13
0.993718563209008
 23
-0.1119080744800171
 33
0.0
 40
0.0
 40
0.0
 40
0.0
 40
0.0
 40
12.64947198872543
 40
25.29664324953094
 40
37.93871298170414
 40
37.93871298170414
 40
37.93871298170414
 40
37.93871298170414
 10
2467.044754706999
 20
-320.7902292147318
 30
0.0
 10
2471.190317522865
 20
-321.5603606646162
 30
0.0
 10
2479.491702952841
 20
-323.0427588322917
 30
0.0
 10
2491.985671438501
 20
-325.0064040647774
 30
0.0
 10
2500.347544164176
 20
-326.0861828948601
 30
0.0
 10
2504.53509728759
 20
-326.5577661219166
 30
0.0
 11
2467.044754706999
 21
-320.7902292147318
 31
0.0
 11
2479.499783515247
 21
-322.9996151402455
 31
0.0
 11
2491.995760644008
 21
-324.9493581467472
 31
0.0
 11
2504.53509728759
 21
-326.5577661219166
 31
0.0
  0
ARC
  5
1AC73
330
18
100
AcDbEntity
  8
01
100
AcDbCircle
 10
2796.910992909747
 20
1439.018371458871
 30
0.0
 40
1790.457496315067
100
AcDbArc
 50
258.7765821234387
 51
259.3834231226387
  0
SPLINE
  5
1AC74
330
18
100
AcDbEntity
  8
01
100
AcDbSpline
210
0.0
220
0.0
230
1.0
 70
  1064
 71
     3
 72
    25
 73
    21
 74
    19
 42
0.000000001
 43
0.0000000001
 44
0.000001
 12
-0.000871073338289442
 22
0.9999996206155477
 32
0.0
 13
0.9812495806433168
 23
-0.1927414342774154
 33
0.0
 40
0.0
 40
0.0
 40
0.0
 40
0.0
 40
3.441413671685528
 40
6.890117821913623
 40
10.34824228437137
 40
13.81586316647407
 40
17.29116998569668
 40
20.76838829436296
 40
24.24299418042819
 40
27.70617175107052
 40
31.15824156417337
 40
34.60459654871372
 40
41.47191728334248
 40
48.32507241181077
 40
55.16974723390382
 40
62.00886926276685
 40
68.84307992267418
 40
75.67437120356215
 40
82.50297694377403
 40
96.1580389775308
 40
96.1580389775308
 40
96.1580389775308
 40
96.1580389775308
 10
2367.507074348171
 20
-334.3776782749345
 30
0.0
 10
2367.506075106939
 20
-333.2305408195789
 30
0.0
 10
2367.593622409073
 20
-330.9323612444988
 30
0.0
 10
2368.04871061943
 20
-327.506795368438
 30
0.0
 10
2368.917828337843
 20
-324.1485744907767
 30
0.0
 10
2370.293546562587
 20
-320.9482334992539
 30
0.0
 10
2372.237870966983
 20
-318.043092615142
 30
0.0
 10
2374.725471358781
 20
-315.5825038508592
 30
0.0
 10
2377.62714010052
 20
-313.6430437939749
 30
0.0
 10
2380.791337885044
 20
-312.2056512618403
 30
0.0
 10
2384.099798255771
 20
-311.1887822530942
 30
0.0
 10
2388.604610269655
 20
-310.2866659311837
 30
0.0
 10
2394.32371932361
 20
-309.811028811828
 30
0.0
 10
2401.183456685057
 20
-309.8956197599745
 30
0.0
 10
2408.013213350073
 20
-310.407340334059
 30
0.0
 10
2414.806322132125
 20
-311.2125536262324
 30
0.0
 10
2421.567693865859
 20
-312.216910049133
 30
0.0
 10
2428.303092423661
 20
-313.3598184827099
 30
0.0
 10
2437.25847144718
 20
-315.0045287485347
 30
0.0
 10
2443.958473313808
 20
-316.3205549912296
 30
0.0
 10
2448.424814611902
 20
-317.1978537384074
 30
0.0
 11
2367.507074348171
 21
-334.3776782749345
 31
0.0
 11
2367.647281010622
 21
-330.9391209206768
 31
0.0
 11
2368.116827407126
 21
-327.5225309999922
 31
0.0
 11
2369.000764058237
 21
-324.1792869059976
 31
0.0
 11
2370.386616001084
 21
-321.0006379238533
 31
0.0
 11
2372.327807908038
 21
-318.1180120450302
 31
0.0
 11
2374.795725862436
 21
-315.6684347915642
 31
0.0
 11
2377.675468229214
 21
-313.7242201462008
 31
0.0
 11
2380.820308746059
 21
-312.2738486058091
 31
0.0
 11
2384.115353390155
 21
-311.2445443206478
 31
0.0
 11
2387.491902521781
 21
-310.5544145659941
 31
0.0
 11
2394.329857160644
 21
-309.9200079990918
 31
0.0
 11
2401.182851341171
 21
-309.966984144074
 31
0.0
 11
2408.009997010767
 21
-310.4565307801289
 31
0.0
 11
2414.803393717867
 21
-311.2460569733188
 31
0.0
 11
2421.564904257583
 21
-312.2402454660763
 31
0.0
 11
2428.301262519693
 21
-313.3751542967346
 31
0.0
 11
2435.018631986911
 21
-314.6026736961347
 31
0.0
 11
2448.424814611902
 21
-317.1978537384074
 31
0.0
  0
ARC
  5
1AC75
330
18
100
AcDbEntity
  8
01
100
AcDbCircle
 10
2505.477539381837
 20
-326.3415943868207
 30
0.0
 40
0.0979236131362861
100
AcDbArc
 50
286.2525914478319
 51
346.7810586098014
  0
LINE
  5
1AC76
330
18
100
AcDbEntity
  8
01
100
AcDbLine
 10
2505.362088238589
 20
-326.4842729016594
 30
0.0
 11
2505.504945502002
 21
-326.4356046978936
 31
0.0
  0
ARC
  5
1AC77
330
18
100
AcDbEntity
  8
01
100
AcDbCircle
 10
2504.597942594842
 20
-322.6223180890237
 30
0.0
 40
3.936827852433767
100
AcDbArc
 50
269.3405895113413
 51
281.1922620564953
  0
SPLINE
  5
1AC78
330
18
100
AcDbEntity
  8
01
100
AcDbSpline
210
0.0
220
0.0
230
1.0
 70
  1064
 71
     3
 72
    26
 73
    22
 74
    20
 42
0.000000001
 43
0.0000000001
 44
0.000001
 12
-0.9979199097763058
 22
0.06446591093011672
 32
0.0
 13
-0.02284695825456342
 23
-0.9997389741820183
 33
0.0
 40
0.0
 40
0.0
 40
0.0
 40
0.0
 40
22.25672874204004
 40
33.34877084862563
 40
44.42939984479647
 40
55.49867241274671
 40
66.55665876077595
 40
77.60087402967451
 40
88.6301824589255
 40
94.13893639426064
 40
99.64443915907196
 40
105.1453874461796
 40
110.6428094101675
 40
116.1400221877812
 40
121.6412419545424
 40
127.1451797682249
 40
132.664687764528
 40
138.2073494278443
 40
143.7750347604447
 40
149.3632114036928
 40
154.9621545292764
 40
154.9621545292764
 40
154.9621545292764
 40
154.9621545292764
 10
2504.638206267572
 20
-305.415882226191
 30
0.0
 10
2497.234728688181
 20
-304.9376154619643
 30
0.0
 10
2486.148382808209
 20
-304.1175431246396
 30
0.0
 10
2471.383650157182
 20
-302.9640165009785
 30
0.0
 10
2460.335394105815
 20
-302.1167213097601
 30
0.0
 10
2449.292745580923
 20
-301.3475401467757
 30
0.0
 10
2438.253180898607
 20
-300.7137857517471
 30
0.0
 10
2427.215167037552
 20
-300.3253940778055
 30
0.0
 10
2418.017286891901
 20
-300.3196769896349
 30
0.0
 10
2410.675038284799
 20
-300.6370998957616
 30
0.0
 10
2405.185835980996
 20
-301.0749724496389
 30
0.0
 10
2399.726335434518
 20
-301.7723109030932
 30
0.0
 10
2394.320346344364
 20
-302.8013917680257
 30
0.0
 10
2389.01265851095
 20
-304.2661469727244
 30
0.0
 10
2383.881000276019
 20
-306.2863645169699
 30
0.0
 10
2379.081491784861
 20
-309.0381800939294
 30
0.0
 10
2374.837809538843
 20
-312.6309751817901
 30
0.0
 10
2371.463010521123
 20
-317.0891933181277
 30
0.0
 10
2369.150316051877
 20
-322.1981923600512
 30
0.0
 10
2367.861995222027
 20
-327.6601748691603
 30
0.0
 10
2367.56136928428
 20
-331.389369163241
 30
0.0
 10
2367.51872967766
 20
-333.2551963821992
 30
0.0
 11
2504.638206267572
 21
-305.415882226191
 31
0.0
 11
2482.438579790566
 21
-303.8226101557642
 31
0.0
 11
2471.379636737403
 21
-302.9663528943532
 31
0.0
 11
2460.330667318332
 21
-302.1293262697703
 31
0.0
 11
2449.287486970958
 21
-301.3697455789314
 31
0.0
 11
2438.246636860335
 21
-300.7543670665399
 31
0.0
 11
2427.208471730374
 21
-300.3888520099871
 31
0.0
 11
2416.179225786917
 21
-300.425975062882
 31
0.0
 11
2410.675902537279
 21
-300.6705217320081
 31
0.0
 11
2405.18865084933
 21
-301.1184386354911
 31
0.0
 11
2399.733637875523
 21
-301.8278506917426
 31
0.0
 11
2394.336673883916
 21
-302.8739997674569
 31
0.0
 11
2389.043606316985
 21
-304.3581776681016
 31
0.0
 11
2383.938274401616
 21
-306.407325045678
 31
0.0
 11
2379.180215247144
 21
-309.173948365038
 31
0.0
 11
2374.990336628273
 21
-312.7669813118463
 31
0.0
 11
2371.646269407003
 21
-317.1871976869032
 31
0.0
 11
2369.324336077891
 21
-322.2476073168835
 31
0.0
 11
2368.002449327329
 21
-327.6771868260706
 31
0.0
 11
2367.51872967766
 21
-333.2551963821992
 31
0.0
  0
SPLINE
  5
1AC79
330
18
100
AcDbEntity
  8
01
100
AcDbSpline
210
0.0
220
0.0
230
1.0
 70
     8
 71
     3
 72
    27
 73
    23
 74
     0
 42
0.0000000001
 43
0.0000000001
 40
0.0
 40
0.0
 40
0.0
 40
0.0
 40
16.91059537614233
 40
25.36612715702854
 40
33.82144120212359
 40
42.27681849485995
 40
50.73232732391983
 40
59.18788171366092
 40
67.64342079382851
 40
76.09822210144672
 40
80.32547480342753
 40
84.55239661131972
 40
88.77906906159228
 40
93.00316601689825
 40
97.22721965277279
 40
101.4453053855404
 40
103.5555681067257
 40
105.6622199082372
 40
107.771868988524
 40
109.8818614491521
 40
114.0963887206748
 40
118.2484923739838
 40
118.2484923739838
 40
118.2484923739838
 40
118.2484923739838
 10
2504.526263904402
 20
-327.4274108679741
 30
0.0
 10
2498.895513071207
 20
-327.1649351620312
 30
0.0
 10
2490.453593546257
 20
-326.672403273655
 30
0.0
 10
2479.210383065536
 20
-325.8406837444362
 30
0.0
 10
2470.784537577145
 20
-325.1328220239265
 30
0.0
 10
2462.363630530954
 20
-324.3695378327315
 30
0.0
 10
2453.945146343694
 20
-323.5796217876176
 30
0.0
 10
2445.525029492926
 20
-322.8056231797149
 30
0.0
 10
2437.096195288881
 20
-322.1339564067151
 30
0.0
 10
2430.059543171836
 20
-321.7441541794941
 30
0.0
 10
2424.423800572362
 20
-321.62309741876
 30
0.0
 10
2420.196258981858
 20
-321.669561660165
 30
0.0
 10
2415.974291754836
 20
-321.8927244785131
 30
0.0
 10
2411.775023803232
 20
-322.3914622976389
 30
0.0
 10
2407.63406958033
 20
-323.252736073286
 30
0.0
 10
2404.309901420822
 20
-324.4659864915033
 30
0.0
 10
2401.847556684213
 20
-325.8356889074529
 30
0.0
 10
2400.145448331455
 20
-327.0923942046333
 30
0.0
 10
2398.646463078319
 20
-328.5873756215072
 30
0.0
 10
2396.976009557681
 20
-330.8617407545465
 30
0.0
 10
2395.560363836325
 20
-334.1005470360095
 30
0.0
 10
2395.000188468581
 20
-336.8468124516388
 30
0.0
 10
2394.820621428108
 20
-338.2192649107586
 30
0.0
  0
LINE
  5
1AC7A
330
18
100
AcDbEntity
  8
01
100
AcDbLine
 10
2066.00730468713
 20
-539.877678273905
 30
0.0
 11
2066.00730468713
 21
-716.877678273905
 31
0.0
  0
ARC
  5
1AC7B
330
18
100
AcDbEntity
  8
01
100
AcDbCircle
 10
2065.50730468713
 20
-716.877678273905
 30
0.0
 40
0.5
100
AcDbArc
 50
270.0
 51
0.0
  0
LINE
  5
1AC7C
330
18
100
AcDbEntity
  8
01
100
AcDbLine
 10
2016.00730468713
 20
-539.877678273905
 30
0.0
 11
2016.00730468713
 21
-641.3018136150598
 31
0.0
  0
ARC
  5
1AC7D
330
18
100
AcDbEntity
  8
01
100
AcDbCircle
 10
2016.50730468713
 20
-539.877678273905
 30
0.0
 40
0.5
100
AcDbArc
 50
90.0
 51
180.0
  0
LINE
  5
1AC7E
330
18
100
AcDbEntity
  8
01
100
AcDbLine
 10
2016.50730468713
 20
-717.377678273905
 30
0.0
 11
2065.50730468713
 21
-717.377678273905
 31
0.0
  0
ARC
  5
1AC7F
330
18
100
AcDbEntity
  8
01
100
AcDbCircle
 10
2016.50730468713
 20
-716.877678273905
 30
0.0
 40
0.5
100
AcDbArc
 50
180.0
 51
270.0
  0
LINE
  5
1AC80
330
18
100
AcDbEntity
  8
01
100
AcDbLine
 10
2065.50730468713
 20
-539.377678273905
 30
0.0
 11
2016.50730468713
 21
-539.377678273905
 31
0.0
  0
ARC
  5
1AC81
330
18
100
AcDbEntity
  8
01
100
AcDbCircle
 10
2065.50730468713
 20
-539.877678273905
 30
0.0
 40
0.5
100
AcDbArc
 50
0.0
 51
90.0
  0
LINE
  5
1AC82
330
18
100
AcDbEntity
  8
01
100
AcDbLine
 10
1916.4415083466
 20
-642.9861985073047
 30
0.0
 11
1916.441508346599
 21
-639.8997927751706
 31
0.0
  0
LINE
  5
1AC83
330
18
100
AcDbEntity
  8
01
100
AcDbLine
 10
1916.441508625397
 20
-645.9642649039832
 30
0.0
 11
1916.4415083466
 21
-642.9861985073047
 31
0.0
  0
LINE
  5
1AC84
330
18
100
AcDbEntity
  8
01
100
AcDbLine
 10
1917.349180400892
 20
-646.9612396376568
 30
0.0
 11
1917.369653389164
 21
-646.9631407120202
 31
0.0
  0
LINE
  5
1AC85
330
18
100
AcDbEntity
  8
01
100
AcDbLine
 10
2053.707302334679
 20
-664.3776760118509
 30
0.0
 11
2028.306576372139
 21
-664.3776763819511
 31
0.0
  0
LINE
  5
1AC86
330
18
100
AcDbEntity
  8
01
100
AcDbLine
 10
2028.247971770913
 20
-664.3673066740117
 30
0.0
 11
2028.306576372139
 21
-664.3776763819511
 31
0.0
  0
ARC
  5
1AC87
330
18
100
AcDbEntity
  8
01
100
AcDbCircle
 10
1917.442475279625
 20
-645.964630164547
 30
0.0
 40
1.000966720870227
100
AcDbArc
 50
179.9790923226987
 51
264.6519974436488
  0
LINE
  5
1AC88
330
18
100
AcDbEntity
  8
01
100
AcDbLine
 10
2054.5073023466
 20
-663.5775015795781
 30
0.0
 11
2054.5073023466
 21
-643.1776501140613
 31
0.0
  0
LINE
  5
1AC89
330
18
100
AcDbEntity
  8
01
100
AcDbLine
 10
1917.461741595386
 20
-638.8988596087598
 30
0.0
 11
1917.479279407181
 21
-638.8992205448941
 31
0.0
  0
ARC
  5
1AC8A
330
18
100
AcDbEntity
  8
01
100
AcDbCircle
 10
1917.447906616355
 20
-639.9003998365216
 30
0.0
 40
1.006398452845485
100
AcDbArc
 50
158.8293321314492
 51
179.9654390809809
  0
ARC
  5
1AC8B
330
18
100
AcDbEntity
  8
01
100
AcDbCircle
 10
1917.447504636836
 20
-639.9020874748923
 30
0.0
 40
1.006634556911848
100
AcDbArc
 50
142.1831795887343
 51
158.731494820081
  0
ARC
  5
1AC8C
330
18
100
AcDbEntity
  8
01
100
AcDbCircle
 10
1917.441575639968
 20
-639.8982609969083
 30
0.0
 40
0.999604822112772
100
AcDbArc
 50
88.8440406670071
 51
142.1480733630774
  0
ARC
  5
1AC8D
330
18
100
AcDbEntity
  8
01
100
AcDbCircle
 10
2053.707302677306
 20
-663.5775012363775
 30
0.0
 40
0.799999669293957
100
AcDbArc
 50
269.9749677188522
 51
359.9999754200444
  0
LINE
  5
1AC8E
330
18
100
AcDbEntity
  8
01
100
AcDbLine
 10
2028.306576372139
 20
-664.3776763819511
 30
0.0
 11
2028.247363552032
 21
-664.375444161975
 31
0.0
  0
SPLINE
  5
1AC8F
330
18
100
AcDbEntity
  8
01
100
AcDbSpline
210
0.0
220
0.0
230
1.0
 70
     8
 71
     3
 72
    11
 73
     7
 74
     0
 42
0.0000000001
 43
0.0000000001
 40
0.0
 40
0.0
 40
0.0
 40
0.0
 40
21.43372384846992
 40
42.74812160428417
 40
64.00497958002913
 40
71.06070238869576
 40
71.06070238869576
 40
71.06070238869576
 40
71.06070238869576
 10
1917.479671406414
 20
-638.89921670497
 30
0.0
 10
1924.622694207431
 20
-639.0481183838675
 30
0.0
 10
1938.8685746635
 20
-639.3641584691696
 30
0.0
 10
1960.197639776545
 20
-639.867211452521
 30
0.0
 10
1976.734868506149
 20
-640.2780457990067
 30
0.0
 10
1986.169300683762
 20
-640.519722581767
 30
0.0
 10
1988.52042733063
 20
-640.5803271360213
 30
0.0
  0
SPLINE
  5
1AC90
330
18
100
AcDbEntity
  8
01
100
AcDbSpline
210
0.0
220
0.0
230
1.0
 70
     8
 71
     3
 72
    32
 73
    28
 74
     0
 42
0.0000000001
 43
0.0000000001
 40
0.0
 40
0.0
 40
0.0
 40
0.0
 40
0.3599301998348471
 40
0.7204576955008581
 40
1.078388999306343
 40
1.203188941373293
 40
1.256497440238248
 40
1.349899079695673
 40
1.501470349278231
 40
1.719093506751409
 40
2.008946379622365
 40
2.377953257068766
 40
2.833372290666866
 40
4.02961040316922
 40
5.628859930107992
 40
7.61937959175037
 40
9.930476612769016
 40
12.47953325127824
 40
15.18599668370276
 40
17.98461738332648
 40
20.83771850465741
 40
26.62046581402179
 40
32.43257263878778
 40
38.23851433232301
 40
44.02870797848659
 40
55.55219103227755
 40
66.45873402473153
 40
66.45873402473153
 40
66.45873402473153
 40
66.45873402473153
 10
2054.507318112942
 20
-643.1776440075458
 30
0.0
 10
2054.507318075712
 20
-643.0576672742676
 30
0.0
 10
2054.45070648361
 20
-642.8141307994814
 30
0.0
 10
2054.217386751297
 20
-642.5257221095809
 30
0.0
 10
2053.95267917051
 20
-642.4015543879055
 30
0.0
 10
2053.774888574333
 20
-642.3797329004911
 30
0.0
 10
2053.684456126461
 20
-642.3759947954139
 30
0.0
 10
2053.585095685458
 20
-642.3724067422394
 30
0.0
 10
2053.430983976053
 20
-642.3671952515627
 30
0.0
 10
2053.211428587022
 20
-642.3597397750958
 30
0.0
 10
2052.919428481486
 20
-642.3500391596771
 30
0.0
 10
2052.548204640487
 20
-642.337780793
 30
0.0
 10
2051.875009518042
 20
-642.3157739717791
 30
0.0
 10
2050.791933620878
 20
-642.2809495586256
 30
0.0
 10
2049.197389986564
 20
-642.2306780820098
 30
0.0
 10
2047.231367317003
 20
-642.1701053530184
 30
0.0
 10
2044.948846044062
 20
-642.1013044650064
 30
0.0
 10
2042.427732997148
 20
-642.0270649971254
 30
0.0
 10
2039.744136493748
 20
-641.9496206965886
 30
0.0
 10
2036.959191137779
 20
-641.8707533745288
 30
0.0
 10
2033.149184469692
 20
-641.7644348982777
 30
0.0
 10
2028.33500582561
 20
-641.63252956994
 30
0.0
 10
2022.536850060411
 20
-641.4761075221649
 30
0.0
 10
2016.736174548885
 20
-641.3210547329883
 30
0.0
 10
2009.032350715793
 20
-641.1164839904606
 30
0.0
 10
1999.628878724842
 20
-640.8685483952737
 30
0.0
 10
1992.154733830744
 20
-640.6740326696043
 30
0.0
 10
1988.520427330631
 20
-640.5803271360213
 30
0.0
  0
SPLINE
  5
1AC91
330
18
100
AcDbEntity
  8
01
100
AcDbSpline
210
0.0
220
0.0
230
1.0
 70
  1064
 71
     3
 72
    29
 73
    25
 74
    23
 42
0.000000001
 43
0.0000000001
 44
0.000001
 12
0.9957295571504321
 22
-0.09231819439852766
 32
0.0
 13
0.9999999961407903
 23
-8.785453656356257E-5
 33
0.0
 40
0.0
 40
0.0
 40
0.0
 40
0.0
 40
18.72223237932955
 40
28.08380125047977
 40
37.44489731842073
 40
46.80450655899232
 40
56.157036497619
 40
65.49105784394362
 40
74.77536009869938
 40
83.93695746269881
 40
88.42253561022942
 40
92.79315031724504
 40
96.98478944101399
 40
100.8929762880916
 40
104.385612646612
 40
107.3097361133918
 40
108.5186045585993
 40
109.5470291062994
 40
110.394389713371
 40
111.0646313142807
 40
111.5675614950663
 40
111.9161223033962
 40
112.1239161474738
 40
112.3643818635919
 40
112.3643818635919
 40
112.3643818635919
 40
112.3643818635919
 10
1917.369709814808
 20
-646.9631625755284
 30
0.0
 10
1923.583803200121
 20
-647.5392968049848
 30
0.0
 10
1932.895518475174
 20
-648.5114511450001
 30
0.0
 10
1945.286589101786
 20
-650.0135809916038
 30
0.0
 10
1954.566865324666
 20
-651.2398973542171
 30
0.0
 10
1963.830980137589
 20
-652.5614388816241
 30
0.0
 10
1973.072538158783
 20
-653.9738803686912
 30
0.0
 10
1982.275229681059
 20
-655.4715420337774
 30
0.0
 10
1991.400500323653
 20
-657.0460446771488
 30
0.0
 10
1998.920466137743
 20
-658.4172300761345
 30
0.0
 10
2004.821001110355
 20
-659.5375491729169
 30
0.0
 10
2009.089997431766
 20
-660.3694397383836
 30
0.0
 10
2013.166133805579
 20
-661.1845116824363
 30
0.0
 10
2016.951704675024
 20
-661.9599162279646
 30
0.0
 10
2020.320157712933
 20
-662.6659898759956
 30
0.0
 10
2022.805872763376
 20
-663.1974000495143
 30
0.0
 10
2024.487300515737
 20
-663.5618422670859
 30
0.0
 10
2025.491891975901
 20
-663.7810245293504
 30
0.0
 10
2026.320809479923
 20
-663.9630077895972
 30
0.0
 10
2026.978650208322
 20
-664.1076508719668
 30
0.0
 10
2027.473742607875
 20
-664.2175232250047
 30
0.0
 10
2027.819155679282
 20
-664.2919127354832
 30
0.0
 10
2028.07760634191
 20
-664.3509089645053
 30
0.0
 10
2028.22601601492
 20
-664.3776773905645
 30
0.0
 10
2028.306171253317
 20
-664.3776844325658
 30
0.0
 11
1917.369709814808
 21
-646.9631625755284
 31
0.0
 11
1935.991059429789
 21
-648.9041221313931
 31
0.0
 11
1945.284651457202
 21
-650.030230006745
 31
0.0
 11
1954.565160097514
 21
-651.2559049081796
 31
0.0
 11
1963.831042533702
 21
-652.5771572725761
 31
0.0
 11
1973.076285503134
 21
-653.989707691475
 31
0.0
 11
1982.289128165987
 21
-655.4888689774604
 31
0.0
 11
1991.438225787167
 21
-657.0675649821975
 31
0.0
 11
2000.451126157747
 21
-658.7114911274258
 31
0.0
 11
2004.857960769834
 21
-659.5482826305443
 31
0.0
 11
2009.14784842018
 21
-660.3844266761379
 31
0.0
 11
2013.258113191486
 21
-661.2063524963359
 31
0.0
 11
2017.08676405941
 21
-661.9907994117237
 31
0.0
 11
2020.505107968104
 21
-662.7073422602242
 31
0.0
 11
2023.364578531466
 21
-663.3188372673281
 31
0.0
 11
2024.5460217531
 21
-663.5748740435837
 31
0.0
 11
2025.55080293912
 21
-663.7941269045472
 31
0.0
 11
2026.378477085668
 21
-663.9757184888598
 31
0.0
 11
2027.033035112134
 21
-664.1198628286098
 31
0.0
 11
2027.524184353786
 21
-664.2280810571402
 31
0.0
 11
2027.86467970359
 21
-664.3026300183943
 31
0.0
 11
2028.067657204366
 21
-664.3471092828839
 31
0.0
 11
2028.306171253317
 21
-664.3776844325658
 31
0.0
  0
SPLINE
  5
1AC92
330
18
100
AcDbEntity
  8
01
100
AcDbSpline
210
0.0
220
0.0
230
1.0
 70
     8
 71
     3
 72
    44
 73
    40
 74
     0
 42
0.0000000001
 43
0.0000000001
 40
0.0
 40
0.0
 40
0.0
 40
0.0
 40
27.07959778501141
 40
27.07959778501141
 40
54.60840902937863
 40
54.60840902937863
 40
82.13722027374585
 40
82.13722027374585
 40
109.6660315181131
 40
109.6660315181131
 40
112.1754562362065
 40
112.1754562362065
 40
117.1943056723934
 40
117.1943056723934
 40
127.2320045447672
 40
127.2320045447672
 40
133.9474354635729
 40
133.9474354635729
 40
134.5784087099583
 40
134.5784087099583
 40
135.8403552027291
 40
135.8403552027291
 40
137.719205311297
 40
137.719205311297
 40
137.8907550435536
 40
137.8907550435536
 40
138.2338545080668
 40
138.2338545080668
 40
138.3136935812727
 40
138.3136935812727
 40
138.3988995637888
 40
138.3988995637888
 40
138.4402043869496
 40
138.4402043869496
 40
138.4737052737331
 40
138.4737052737331
 40
138.4994240015327
 40
138.4994240015327
 40
138.5115311008119
 40
138.5115311008119
 40
138.5115311008119
 40
138.5115311008119
 10
1917.48018860696
 20
-639.324103661441
 30
0.0
 10
1926.431029512929
 20
-640.5203481998184
 30
0.0
 10
1935.367437185119
 20
-641.8208200935691
 30
0.0
 10
1953.363869525168
 20
-644.5912906119873
 30
0.0
 10
1962.423950410114
 20
-646.0627853681893
 30
0.0
 10
1980.5242788308
 20
-649.1221889529019
 30
0.0
 10
1989.564610679652
 20
-650.7114249261282
 30
0.0
 10
2007.617894134257
 20
-654.0445440725983
 30
0.0
 10
2016.630453520342
 20
-655.7903344061905
 30
0.0
 10
2026.442194325091
 20
-657.8075152458358
 30
0.0
 10
2027.261706056299
 20
-657.97689588075
 30
0.0
 10
2029.719701653774
 20
-658.487713795923
 30
0.0
 10
2031.357643870444
 20
-658.8318236970696
 30
0.0
 10
2036.269143039437
 20
-659.87539005986
 30
0.0
 10
2039.540502488466
 20
-660.5853386963375
 30
0.0
 10
2044.994015019523
 20
-661.8035607966518
 30
0.0
 10
2047.17807813546
 20
-662.3004666755215
 30
0.0
 10
2049.564873592725
 20
-662.8589665088806
 30
0.0
 10
2049.769852182164
 20
-662.9070679817022
 30
0.0
 10
2050.384717687235
 20
-663.0518091987589
 30
0.0
 10
2050.7945541597
 20
-663.1488811972566
 30
0.0
 10
2051.814336142086
 20
-663.3923932693216
 30
0.0
 10
2052.423935586829
 20
-663.5395218558768
 30
0.0
 10
2053.089696190119
 20
-663.703874192313
 30
0.0
 10
2053.145425523994
 20
-663.7176655182108
 30
0.0
 10
2053.312684533658
 20
-663.75919726886
 30
0.0
 10
2053.423912847696
 20
-663.7869706810446
 30
0.0
 10
2053.562262788917
 20
-663.8219715695669
 30
0.0
 10
2053.588461189777
 20
-663.8286265198939
 30
0.0
 10
2053.642775863712
 20
-663.842512146823
 30
0.0
 10
2053.67069032178
 20
-663.8497106422236
 30
0.0
 10
2053.711628781158
 20
-663.8602674489149
 30
0.0
 10
2053.725961180468
 20
-663.8639614779271
 30
0.0
 10
2053.753589065778
 20
-663.8712670901949
 30
0.0
 10
2053.765797878815
 20
-663.874590597395
 30
0.0
 10
2053.780529358739
 20
-663.8785053972434
 30
0.0
 10
2053.781668250789
 20
-663.8786820215654
 30
0.0
 10
2053.805910645428
 20
-663.885072122527
 30
0.0
 10
2053.81635644816
 20
-663.8878954975065
 30
0.0
 10
2053.829560895676
 20
-663.8919639950553
 30
0.0
  0
LINE
  5
1AC93
330
18
100
AcDbEntity
  8
01
  6
CONTINUOUS
100
AcDbLine
 10
2162.255708912563
 20
-642.3776766667823
 30
0.0
 11
2181.989042241923
 21
-642.3776783919255
 31
0.0
  0
LINE
  5
1AC94
330
18
100
AcDbEntity
  8
01
  6
CONTINUOUS
100
AcDbLine
 10
2181.98904031862
 20
-664.3776783919255
 30
0.0
 11
2162.255706989262
 21
-664.3776766667823
 31
0.0
  0
SPLINE
  5
1AC95
330
18
100
AcDbEntity
  8
01
  6
CONTINUOUS
100
AcDbSpline
210
0.0
220
0.0
230
1.0
 70
  1064
 71
     3
 72
    10
 73
     6
 74
     4
 42
0.000000001
 43
0.0000000001
 44
0.000001
 12
0.9994601531828483
 22
-0.03285425694970674
 32
0.0
 13
0.999999986028043
 23
-0.0001671643320593494
 33
0.0
 40
0.0
 40
0.0
 40
0.0
 40
0.0
 40
5.014443398443527
 40
11.01006145479278
 40
17.34126459784179
 40
17.34126459784179
 40
17.34126459784179
 40
17.34126459784179
 10
2144.649625050639
 20
-642.180833285557
 30
0.0
 10
2146.320203839684
 20
-642.2357485561811
 30
0.0
 10
2149.989648084852
 20
-642.3120783163299
 30
0.0
 10
2155.769833569391
 20
-642.3671702518275
 30
0.0
 10
2159.878796906228
 20
-642.3772979783907
 30
0.0
 10
2161.989197924425
 20
-642.3776507621723
 30
0.0
 11
2144.649625050639
 21
-642.180833285557
 31
0.0
 11
2149.662729711513
 21
-642.2966976495217
 31
0.0
 11
2155.658021609229
 21
-642.3592345283522
 31
0.0
 11
2161.989197924425
 21
-642.3776507621723
 31
0.0
  0
LINE
  5
1AC96
330
18
100
AcDbEntity
  8
01
  6
CONTINUOUS
100
AcDbLine
 10
2142.637380692154
 20
-642.1018746149974
 30
0.0
 11
2144.649625050639
 21
-642.180833285557
 31
0.0
  0
SPLINE
  5
1AC97
330
18
100
AcDbEntity
  8
01
  6
CONTINUOUS
100
AcDbSpline
210
0.0
220
0.0
230
1.0
 70
  1064
 71
     3
 72
    36
 73
    32
 74
    30
 42
0.000000001
 43
0.0000000001
 44
0.000001
 12
-0.9938069772178694
 22
-0.1111201693351909
 32
0.0
 13
0.9989015518246972
 23
-0.04685818778198592
 33
0.0
 40
0.0
 40
0.0
 40
0.0
 40
0.0
 40
2.42922784662992
 40
3.919355453223645
 40
5.550941175542857
 40
7.284555291724734
 40
9.071456982233972
 40
10.85917755497593
 40
11.73489586882123
 40
12.58682580795989
 40
13.40493229759228
 40
14.17691436774292
 40
14.88865081251399
 40
15.5225472362669
 40
15.80398645204095
 40
16.05801996152319
 40
16.28041886650327
 40
16.46689274434949
 40
16.61375640551638
 40
16.71870486785198
 40
16.78579178781782
 40
16.85368029962045
 40
16.90643972053334
 40
16.9766056514621
 40
17.1786149263348
 40
17.47849300648922
 40
17.89430820030068
 40
18.44687969626548
 40
19.15861543069466
 40
20.05339997840785
 40
21.15333389268996
 40
21.15333389268996
 40
21.15333389268996
 40
21.15333389268996
 10
2154.968845334016
 20
-639.6896357508202
 30
0.0
 10
2154.164117472938
 20
-639.7796144873773
 30
0.0
 10
2152.860778876999
 20
-639.8772535425524
 30
0.0
 10
2151.014702006403
 20
-640.0003840941316
 30
0.0
 10
2149.39978716817
 20
-640.1077373039928
 30
0.0
 10
2147.687028980509
 20
-640.2336104231101
 30
0.0
 10
2145.923590786137
 20
-640.3792927780102
 30
0.0
 10
2144.44669214532
 20
-640.5190046851169
 30
0.0
 10
2143.281291549265
 20
-640.6412866187978
 30
0.0
 10
2142.438040670891
 20
-640.7363744470241
 30
0.0
 10
2141.630017039717
 20
-640.8349915695483
 30
0.0
 10
2140.869493220359
 20
-640.9367339776802
 30
0.0
 10
2140.171331814929
 20
-641.0409730187068
 30
0.0
 10
2139.636680624291
 20
-641.1325540774153
 30
0.0
 10
2139.254399205008
 20
-641.2088731168432
 30
0.0
 10
2139.00785745829
 20
-641.2639908860613
 30
0.0
 10
2138.793878934755
 20
-641.3197338860073
 30
0.0
 10
2138.617122839215
 20
-641.3745714716775
 30
0.0
 10
2138.481420987493
 20
-641.4318715912567
 30
0.0
 10
2138.390126116631
 20
-641.4824516566573
 30
0.0
 10
2138.336562413908
 20
-641.5572289560469
 30
0.0
 10
2138.378408490818
 20
-641.6179917091807
 30
0.0
 10
2138.431482690161
 20
-641.6508664858316
 30
0.0
 10
2138.530383289212
 20
-641.6970818677935
 30
0.0
 10
2138.714167729686
 20
-641.7492492218979
 30
0.0
 10
2139.014279546045
 20
-641.8093615479866
 30
0.0
 10
2139.432870256615
 20
-641.869603864665
 30
0.0
 10
2139.989663403745
 20
-641.9303990756168
 30
0.0
 10
2140.706880910921
 20
-641.9907876432429
 30
0.0
 10
2141.607106975981
 20
-642.0502058252133
 30
0.0
 10
2142.271138794194
 20
-642.0846943116964
 30
0.0
 10
2142.637380692154
 20
-642.1018746149974
 30
0.0
 11
2154.968845334016
 21
-639.6896357508202
 31
0.0
 11
2152.548445557089
 21
-639.8965374437056
 31
0.0
 11
2151.061721536975
 21
-639.9971949938507
 31
0.0
 11
2149.433856345201
 21
-640.1073170791414
 31
0.0
 11
2147.704941800254
 21
-640.2348804334969
 31
0.0
 11
2145.924172774988
 21
-640.3827972403068
 31
0.0
 11
2144.144449391818
 21
-640.5517045869282
 31
0.0
 11
2143.273529412196
 21
-640.6432527284632
 31
0.0
 11
2142.426991751398
 21
-640.7389546549174
 31
0.0
 11
2141.614958795972
 21
-640.8384600317348
 31
0.0
 11
2140.849872015339
 21
-640.9414139246536
 31
0.0
 11
2140.146080067669
 21
-641.0474622233777
 31
0.0
 11
2139.52160280813
 21
-641.1563338661152
 31
0.0
 11
2139.245676327586
 21
-641.2117652039786
 31
0.0
 11
2138.997906780403
 21
-641.2678302613493
 31
0.0
 11
2138.782854093482
 21
-641.3245191047926
 31
0.0
 11
2138.605403755038
 21
-641.381824354189
 31
0.0
 11
2138.470441253283
 21
-641.439738629423
 31
0.0
 11
2138.383321329312
 21
-641.4982561701671
 31
0.0
 11
2138.351617007637
 21
-641.5573788732808
 31
0.0
 11
2138.383890230994
 21
-641.6171056820793
 31
0.0
 11
2138.427233964293
 21
-641.6471868692942
 31
0.0
 11
2138.49055874323
 21
-641.677406576823
 31
0.0
 11
2138.683192086893
 21
-641.7382353834699
 31
0.0
 11
2138.976744258654
 21
-641.7995051706129
 31
0.0
 11
2139.38797395762
 21
-641.8610877275659
 31
0.0
 11
2139.937104774301
 21
-641.9226556203911
 31
0.0
 11
2140.646211710246
 21
-641.9837711672852
 31
0.0
 11
2141.538978395197
 21
-642.0438297555291
 31
0.0
 11
2142.637380692154
 21
-642.1018746149974
 31
0.0
  0
LINE
  5
1AC98
330
18
100
AcDbEntity
  8
01
100
AcDbLine
 10
2155.00100741833
 20
-642.3538583744784
 30
0.0
 11
2154.968845334016
 21
-639.6896357508202
 31
0.0
  0
LINE
  5
1AC99
330
18
100
AcDbEntity
  8
01
100
AcDbLine
 10
2133.818636526812
 20
-639.0180275925558
 30
0.0
 11
2154.170249490337
 21
-638.8988539547826
 31
0.0
  0
ARC
  5
1AC9A
330
18
100
AcDbEntity
  8
01
100
AcDbCircle
 10
2133.814589981751
 20
-639.8093940819182
 30
0.0
 40
0.7913768350239725
100
AcDbArc
 50
89.70702836666567
 51
152.6408632480141
  0
ARC
  5
1AC9B
330
18
100
AcDbEntity
  8
01
100
AcDbCircle
 10
2154.169220133082
 20
-639.6988936791187
 30
0.0
 40
0.7996787925197018
100
AcDbArc
 50
0.6633314190621856
 51
90.0064297414479
  0
LINE
  5
1AC9C
330
18
100
AcDbEntity
  8
01
  6
CONTINUOUS
100
AcDbLine
 10
2181.989042241923
 20
-642.3776783919255
 30
0.0
 11
2181.98904031862
 21
-664.3776783919255
 31
0.0
  0
LINE
  5
1AC9D
330
18
100
AcDbEntity
  8
01
  6
CONTINUOUS
100
AcDbLine
 10
2141.813144956725
 20
-642.05966955263
 30
0.0
 11
2140.833447571718
 21
-641.9947657713927
 31
0.0
  0
SPLINE
  5
1AC9E
330
18
100
AcDbEntity
  8
01
  6
CONTINUOUS
100
AcDbSpline
210
0.0
220
0.0
230
1.0
 70
  1064
 71
     3
 72
    27
 73
    23
 74
    21
 42
0.000000001
 43
0.0000000001
 44
0.000001
 12
-0.9999996557190713
 22
0.0008297962031457257
 32
0.0
 13
0.4579738290174825
 23
0.8889656753413293
 33
0.0
 40
0.0
 40
0.0
 40
0.0
 40
0.0
 40
5.873293633215288
 40
11.36353689117744
 40
16.53955106604971
 40
21.14173461159522
 40
24.98310568734634
 40
28.06655579448034
 40
30.51817324520313
 40
32.50336731390501
 40
34.16067337673968
 40
35.59775548316256
 40
36.88559666201813
 40
38.07491547901009
 40
40.27457243626415
 40
41.32578564536498
 40
42.35657039433246
 40
44.37506806133698
 40
46.34835779444145
 40
50.10698163516924
 40
51.84875827563179
 40
53.46914539902231
 40
53.46914539902231
 40
53.46914539902231
 40
53.46914539902231
 10
2162.255706989262
 20
-664.3776766667823
 30
0.0
 10
2160.297943118878
 20
-664.3760521211967
 30
0.0
 10
2156.509728359321
 20
-664.3241972964904
 30
0.0
 10
2151.002037225934
 20
-664.046559897788
 30
0.0
 10
2145.934110606373
 20
-663.5534191572767
 30
0.0
 10
2141.447451098938
 20
-662.8351334396211
 30
0.0
 10
2137.710445032019
 20
-661.9198695634109
 30
0.0
 10
2134.758538689297
 20
-660.8718555468619
 30
0.0
 10
2132.516444243585
 20
-659.7333736144681
 30
0.0
 10
2130.85356887402
 20
-658.5513264154608
 30
0.0
 10
2129.657691199741
 20
-657.339849926683
 30
0.0
 10
2128.833364545417
 20
-656.1237829512205
 30
0.0
 10
2128.31089819013
 20
-654.9203198784408
 30
0.0
 10
2127.943066982894
 20
-653.3989113108256
 30
0.0
 10
2127.924066784263
 20
-651.8993707910454
 30
0.0
 10
2128.137991498046
 20
-650.487553600733
 30
0.0
 10
2128.449597634281
 20
-649.1552151923254
 30
0.0
 10
2128.994888432285
 20
-647.5685044360106
 30
0.0
 10
2130.030345236119
 20
-645.1999742151121
 30
0.0
 10
2131.200740285072
 20
-642.9984922501861
 30
0.0
 10
2132.336077431208
 20
-640.9143999845679
 30
0.0
 10
2132.864368922377
 20
-639.9258599331407
 30
0.0
 10
2133.111733887507
 20
-639.445703755321
 30
0.0
 11
2162.255706989262
 21
-664.3776766667823
 31
0.0
 11
2156.383139251876
 21
-664.285345713616
 31
0.0
 11
2150.900449334265
 21
-663.9974500053921
 31
0.0
 11
2145.750477536165
 21
-663.4788800243513
 31
0.0
 11
2141.209941536588
 21
-662.7281286800061
 31
0.0
 11
2137.484705021113
 21
-661.7907143383771
 31
0.0
 11
2134.588277046971
 21
-660.7331840807673
 31
0.0
 11
2132.411623029055
 21
-659.6050857301606
 31
0.0
 11
2130.804603995174
 21
-658.4395448006743
 31
0.0
 11
2129.647847469273
 21
-657.2527095198737
 31
0.0
 11
2128.846693092044
 21
-656.0596643213038
 31
0.0
 11
2128.33445604307
 21
-654.8780771400051
 31
0.0
 11
2128.053569725077
 21
-653.7224032014891
 31
0.0
 11
2127.999883912159
 21
-651.5234013970866
 31
0.0
 11
2128.152826605301
 21
-650.4833736030122
 31
0.0
 11
2128.385889061315
 21
-649.4792823974338
 31
0.0
 11
2129.025345448498
 21
-647.5647515013742
 31
0.0
 11
2129.807449048574
 21
-645.7530709319807
 31
0.0
 11
2131.523870274104
 21
-642.409247993245
 31
0.0
 11
2132.35334510863
 21
-640.8776614062998
 31
0.0
 11
2133.111733887507
 21
-639.445703755321
 31
0.0
  0
LINE
  5
1AC9F
330
18
100
AcDbEntity
  8
01
100
AcDbLine
 10
2016.00730468713
 20
-661.7677321917462
 30
0.0
 11
2016.00730468713
 21
-716.877678273905
 31
0.0
  0
TEXT
  5
1ACA0
330
18
100
AcDbEntity
  8
1TEXT
100
AcDbText
 10
2026.007204347385
 20
-368.3776782739054
 30
0.0
 40
20.0
  1
2-AZK-X-LJ
100
AcDbText
  0
LINE
  5
1ACA1
330
18
100
AcDbEntity
  8
1DIM
100
AcDbLine
 10
2026.007204347385
 20
-429.8776782739054
 30
0.0
 11
2131.007204347386
 21
-429.8776782739054
 31
0.0
  0
TEXT
  5
1ACA2
330
18
100
AcDbEntity
  8
1TEXT
100
AcDbText
 10
2027.907204347385
 20
-437.8440486912617
 30
0.0
 40
6.0
  1
パールブラック
 72
     1
 11
2052.107204347385
 21
-437.8440486912617
 31
0.0
100
AcDbText
  0
TEXT
  5
1ACA3
330
18
100
AcDbEntity
  8
1TEXT
100
AcDbText
 10
2038.207204347385
 20
-406.6276782739054
 30
0.0
 40
6.0
  1
表面処理
 72
     1
 11
2052.107204347385
 21
-406.6276782739054
 31
0.0
100
AcDbText
  0
TEXT
  5
1ACA4
330
18
100
AcDbEntity
  8
1TEXT
100
AcDbText
 10
2037.907204347385
 20
-416.8806112631922
 30
0.0
 40
6.0
  1
クローム
 72
     1
 11
2052.107204347385
 21
-416.8806112631922
 31
0.0
100
AcDbText
  0
LINE
  5
1ACA5
330
18
100
AcDbEntity
  8
1DIM
100
AcDbLine
 10
2026.007204347385
 20
-398.3776782739054
 30
0.0
 11
2131.007204347386
 21
-398.3776782739054
 31
0.0
  0
LINE
  5
1ACA6
330
18
100
AcDbEntity
  8
1DIM
100
AcDbLine
 10
2026.007204347385
 20
-408.8776782739054
 30
0.0
 11
2131.007204347386
 21
-408.8776782739054
 31
0.0
  0
LINE
  5
1ACA7
330
18
100
AcDbEntity
  8
1DIM
100
AcDbLine
 10
2026.007204347385
 20
-419.3776782739054
 30
0.0
 11
2131.007204347386
 21
-419.3776782739054
 31
0.0
  0
LINE
  5
1ACA8
330
18
100
AcDbEntity
  8
1DIM
100
AcDbLine
 10
2026.007204347385
 20
-419.3776782739054
 30
0.0
 11
2131.007204347386
 21
-419.3776782739054
 31
0.0
  0
LINE
  5
1ACA9
330
18
100
AcDbEntity
  8
1DIM
100
AcDbLine
 10
2078.507204347386
 20
-398.3776782739054
 30
0.0
 11
2078.507204347386
 21
-440.3776782739054
 31
0.0
  0
TEXT
  5
1ACAA
330
18
100
AcDbEntity
  8
1TEXT
100
AcDbText
 10
2084.307204347387
 20
-417.4492137493797
 30
0.0
 40
6.0
  1
2-AZK-C-LJ
 41
0.6999999999999998
 72
     1
 11
2104.607204347387
 21
-417.4492137493797
 31
0.0
100
AcDbText
  0
TEXT
  5
1ACAB
330
18
100
AcDbEntity
  8
1TEXT
100
AcDbText
 10
2094.307204347385
 20
-406.6276782739054
 30
0.0
 40
6.0
  1
コード
 72
     1
 11
2104.607204347385
 21
-406.6276782739054
 31
0.0
100
AcDbText
  0
LINE
  5
1ACAC
330
18
100
AcDbEntity
  8
1DIM
100
AcDbLine
 10
2026.007204347385
 20
-440.3776782739054
 30
0.0
 11
2131.007204347386
 21
-440.3776782739054
 31
0.0
  0
TEXT
  5
1ACAD
330
18
100
AcDbEntity
  8
1TEXT
100
AcDbText
 10
2027.307204347385
 20
-427.3440486912617
 30
0.0
 40
6.0
  1
サテンニッケル
 72
     1
 11
2052.107204347385
 21
-427.3440486912617
 31
0.0
100
AcDbText
  0
LINE
  5
1ACAE
330
18
100
AcDbEntity
  8
1DIM
100
AcDbLine
 10
2026.007204347385
 20
-440.3776782739054
 30
0.0
 11
2026.007204347385
 21
-398.3776782739054
 31
0.0
  0
LINE
  5
1ACAF
330
18
100
AcDbEntity
  8
1DIM
100
AcDbLine
 10
2131.007204347386
 20
-440.3776782739054
 30
0.0
 11
2131.007204347386
 21
-398.3776782739054
 31
0.0
  0
TEXT
  5
1ACB0
330
18
100
AcDbEntity
  8
1TEXT
100
AcDbText
 10
2082.192621014054
 20
-438.4492137493797
 30
0.0
 40
6.0
  1
2-AZK-GQ-LJ
 41
0.6999999999999998
 72
     1
 11
2104.607204347387
 21
-438.4492137493797
 31
0.0
100
AcDbText
  0
TEXT
  5
1ACB1
330
18
100
AcDbEntity
  8
1TEXT
100
AcDbText
 10
2084.307204347387
 20
-427.9492137493797
 30
0.0
 40
6.0
  1
2-AZK-N-LJ
 41
0.6999999999999998
 72
     1
 11
2104.607204347387
 21
-427.9492137493797
 31
0.0
100
AcDbText
  0
LINE
  5
1ACB2
330
18
100
AcDbEntity
  8
01
100
AcDbLine
 10
2380.007187049479
 20
-412.3776782749327
 30
0.0
 11
2382.007187043753
 21
-412.3776782749327
 31
0.0
  0
LINE
  5
1ACB3
330
18
100
AcDbEntity
  8
01
100
AcDbLine
 10
2384.507187043753
 20
-412.3776782749327
 30
0.0
 11
2394.507074348172
 21
-412.3776782749327
 31
0.0
  0
LINE
  5
1ACB4
330
18
100
AcDbEntity
  8
01
100
AcDbLine
 10
2391.997086611908
 20
-354.3776782749345
 30
0.0
 11
2394.507074348172
 21
-354.3776782749345
 31
0.0
  0
LINE
  5
1AE80
330
18
100
AcDbEntity
  8
01
100
AcDbLine
 10
2319.007072007641
 20
-625.3776789720363
 30
0.0
 11
2319.007072007641
 21
-522.656186189217
 31
0.0
1001
ACAD
1000
DSTYLE
1002
{
1070
    40
1040
1.3
1070
    45
1040
0.5
1002
}
  0
LINE
  5
1AE81
330
18
100
AcDbEntity
  8
01
100
AcDbLine
 10
2330.007072007641
 20
-567.5063609227474
 30
0.0
 11
2330.007072007641
 21
-522.656186189217
 31
0.0
1001
ACAD
1000
DSTYLE
1002
{
1070
    40
1040
1.3
1070
    45
1040
0.5
1002
}
  0
LINE
  5
1AE82
330
18
100
AcDbEntity
  8
01
100
AcDbLine
 10
2321.607072007641
 20
-523.956186189217
 30
0.0
 11
2327.407072007641
 21
-523.956186189217
 31
0.0
1001
ACAD
1000
DSTYLE
1002
{
1070
    40
1040
1.3
1070
    45
1040
0.5
1002
}
  0
TEXT
  5
1AE86
330
18
100
AcDbEntity
  8
01
  6
CONTINUOUS
100
AcDbText
 10
2292.010233100657
 20
-440.7943449416002
 30
0.0
 40
4.55
  1
材質：亜鉛ダイキャスト
100
AcDbText
  0
TEXT
  5
1AE87
330
18
100
AcDbEntity
  8
01
  6
CONTINUOUS
100
AcDbText
 10
2302.32356643399
 20
-448.3776782749335
 30
0.0
 40
4.55
  1
仕上げ：各種メッキ
100
AcDbText
  0
LINE
  5
1AE88
330
18
100
AcDbEntity
  8
01
100
AcDbLine
 10
2399.007072007641
 20
-595.377678273905
 30
0.0
 11
2427.307072007641
 21
-595.377678273905
 31
0.0
1001
ACAD
1000
DSTYLE
1002
{
1070
    40
1040
1.3
1070
    45
1040
0.5
1002
}
  0
LINE
  5
1AE89
330
18
100
AcDbEntity
  8
01
100
AcDbLine
 10
2399.007072007641
 20
-669.3776782739054
 30
0.0
 11
2427.307072007641
 21
-669.3776782739054
 31
0.0
1001
ACAD
1000
DSTYLE
1002
{
1070
    40
1040
1.3
1070
    45
1040
0.5
1002
}
  0
LINE
  5
1AE8A
330
18
100
AcDbEntity
  8
01
100
AcDbLine
 10
2426.007072007641
 20
-597.977678273905
 30
0.0
 11
2426.007072007641
 21
-666.7776782739054
 31
0.0
1001
ACAD
1000
DSTYLE
1002
{
1070
    40
1040
1.3
1070
    45
1040
0.5
1002
}
  0
LINE
  5
1AE8E
330
18
100
AcDbEntity
  8
01
100
AcDbLine
 10
2399.007072007641
 20
-595.377678273905
 30
0.0
 11
2399.007072007641
 21
-512.5763187211688
 31
0.0
1001
ACAD
1000
DSTYLE
1002
{
1070
    40
1040
1.3
1070
    45
1040
0.5
1002
}
  0
LINE
  5
1AE8F
330
18
100
AcDbEntity
  8
01
100
AcDbLine
 10
2330.007072007641
 20
-567.5063609227474
 30
0.0
 11
2330.007072007641
 21
-512.5763187211688
 31
0.0
1001
ACAD
1000
DSTYLE
1002
{
1070
    40
1040
1.3
1070
    45
1040
0.5
1002
}
  0
LINE
  5
1AE90
330
18
100
AcDbEntity
  8
01
100
AcDbLine
 10
2396.407072007641
 20
-513.8763187211688
 30
0.0
 11
2332.607072007641
 21
-513.8763187211688
 31
0.0
1001
ACAD
1000
DSTYLE
1002
{
1070
    40
1040
1.3
1070
    45
1040
0.5
1002
}
  0
LINE
  5
1AE94
330
18
100
AcDbEntity
  8
01
100
AcDbLine
 10
2330.007072007641
 20
-567.5063609227474
 30
0.0
 11
2330.007072007641
 21
-522.656186189217
 31
0.0
1001
ACAD
1000
DSTYLE
1002
{
1070
    40
1040
1.3
1070
    45
1040
0.5
1002
}
  0
LINE
  5
1AE95
330
18
100
AcDbEntity
  8
01
100
AcDbLine
 10
2381.007072007641
 20
-603.377678273905
 30
0.0
 11
2381.007072007641
 21
-522.656186189217
 31
0.0
1001
ACAD
1000
DSTYLE
1002
{
1070
    40
1040
1.3
1070
    45
1040
0.5
1002
}
  0
LINE
  5
1AE96
330
18
100
AcDbEntity
  8
01
100
AcDbLine
 10
2332.607072007641
 20
-523.956186189217
 30
0.0
 11
2378.407072007641
 21
-523.956186189217
 31
0.0
1001
ACAD
1000
DSTYLE
1002
{
1070
    40
1040
1.3
1070
    45
1040
0.5
1002
}
  0
LINE
  5
1AE9A
330
18
100
AcDbEntity
  8
01
100
AcDbLine
 10
2198.507188347386
 20
-573.3776782739054
 30
0.0
 11
2198.507188347386
 21
-522.6561861892172
 31
0.0
1001
ACAD
1000
DSTYLE
1002
{
1070
    40
1040
1.3
1070
    45
1040
0.5
1002
}
  0
LINE
  5
1AE9B
330
18
100
AcDbEntity
  8
01
100
AcDbLine
 10
2223.507188347386
 20
-573.3776782739054
 30
0.0
 11
2223.507188347386
 21
-522.6561861892172
 31
0.0
1001
ACAD
1000
DSTYLE
1002
{
1070
    40
1040
1.3
1070
    45
1040
0.5
1002
}
  0
LINE
  5
1AE9C
330
18
100
AcDbEntity
  8
01
100
AcDbLine
 10
2201.107188347386
 20
-523.9561861892172
 30
0.0
 11
2220.907188347386
 21
-523.9561861892172
 31
0.0
1001
ACAD
1000
DSTYLE
1002
{
1070
    40
1040
1.3
1070
    45
1040
0.5
1002
}
  0
LINE
  5
1AEA0
330
18
100
AcDbEntity
  8
01
100
AcDbLine
 10
2177.806226453061
 20
-652.6276782739054
 30
0.0
 11
2176.507188347384
 21
-651.8776782739054
 31
0.0
  0
LINE
  5
1AEA1
330
18
100
AcDbEntity
  8
01
100
AcDbLine
 10
2176.507188347384
 20
-651.8776782739054
 30
0.0
 11
2175.208150241707
 21
-652.6276782739054
 31
0.0
  0
LINE
  5
1AEA2
330
18
100
AcDbEntity
  8
01
100
AcDbLine
 10
2175.208150241707
 20
-652.6276782739054
 30
0.0
 11
2175.208150241707
 21
-654.1276782739054
 31
0.0
  0
LINE
  5
1AEA3
330
18
100
AcDbEntity
  8
01
100
AcDbLine
 10
2175.208150241707
 20
-654.1276782739054
 30
0.0
 11
2176.507188347384
 21
-654.8776782739054
 31
0.0
  0
LINE
  5
1AEA4
330
18
100
AcDbEntity
  8
01
100
AcDbLine
 10
2176.507188347384
 20
-654.8776782739054
 30
0.0
 11
2177.806226453061
 21
-654.1276782739054
 31
0.0
  0
LINE
  5
1AEA5
330
18
100
AcDbEntity
  8
01
100
AcDbLine
 10
2177.806226453061
 20
-654.1276782739054
 30
0.0
 11
2177.806226453061
 21
-652.6276782739054
 31
0.0
  0
LINE
  5
1AEA6
330
18
100
AcDbEntity
  8
01
100
AcDbLine
 10
2217.053678014325
 20
-575.3822189288102
 30
0.0
 11
2297.339809182533
 21
-575.3822189288102
 31
0.0
1001
ACAD
1000
DSTYLE
1002
{
1070
    40
1040
1.3
1070
    45
1040
0.5
1002
}
  0
LINE
  5
1AEA7
330
18
100
AcDbEntity
  8
01
100
AcDbLine
 10
2217.053678014325
 20
-689.3822189288102
 30
0.0
 11
2297.339809182533
 21
-689.3822189288102
 31
0.0
1001
ACAD
1000
DSTYLE
1002
{
1070
    40
1040
1.3
1070
    45
1040
0.5
1002
}
  0
LINE
  5
1AEA8
330
18
100
AcDbEntity
  8
01
100
AcDbLine
 10
2296.039809182533
 20
-577.9822189288102
 30
0.0
 11
2296.039809182533
 21
-686.7822189288102
 31
0.0
1001
ACAD
1000
DSTYLE
1002
{
1070
    40
1040
1.3
1070
    45
1040
0.5
1002
}
  0
LINE
  5
1AEAC
330
18
100
AcDbEntity
  8
01
100
AcDbLine
 10
2217.651738411088
 20
-567.4826640732266
 30
0.0
 11
2306.704143348757
 21
-567.4826640732266
 31
0.0
1001
ACAD
1000
DSTYLE
1002
{
1070
    40
1040
1.3
1070
    45
1040
0.5
1002
}
  0
LINE
  5
1AEAD
330
18
100
AcDbEntity
  8
01
100
AcDbLine
 10
2217.578652606418
 20
-697.28221892881
 30
0.0
 11
2306.704143348757
 21
-697.28221892881
 31
0.0
1001
ACAD
1000
DSTYLE
1002
{
1070
    40
1040
1.3
1070
    45
1040
0.5
1002
}
  0
LINE
  5
1AEAE
330
18
100
AcDbEntity
  8
01
100
AcDbLine
 10
2305.404143348757
 20
-570.0826640732266
 30
0.0
 11
2305.404143348757
 21
-694.68221892881
 31
0.0
1001
ACAD
1000
DSTYLE
1002
{
1070
    40
1040
1.3
1070
    45
1040
0.5
1002
}
  0
CIRCLE
  5
1AEB2
330
18
100
AcDbEntity
  8
01
100
AcDbCircle
 10
2245.507072007641
 20
-653.3776782739051
 30
0.0
 40
3.0
  0
LINE
  5
1AEB3
330
18
100
AcDbEntity
  8
01
  6
BYBLOCK
100
AcDbLine
 10
2321.607072007641
 20
-524.652854083217
 30
0.0
 11
2319.007072007641
 21
-523.956186189217
 31
0.0
  0
LINE
  5
1AEB4
330
18
100
AcDbEntity
  8
01
  6
BYBLOCK
100
AcDbLine
 10
2319.007072007641
 20
-523.956186189217
 30
0.0
 11
2321.607072007641
 21
-523.2595182952169
 31
0.0
  0
LINE
  5
1AEB5
330
18
100
AcDbEntity
  8
01
  6
BYBLOCK
100
AcDbLine
 10
2319.007072007641
 20
-523.956186189217
 30
0.0
 11
2321.607072007641
 21
-523.956186189217
 31
0.0
  0
LINE
  5
1AEB6
330
18
100
AcDbEntity
  8
01
  6
BYBLOCK
100
AcDbLine
 10
2327.407072007641
 20
-523.2595182952169
 30
0.0
 11
2330.007072007641
 21
-523.956186189217
 31
0.0
  0
LINE
  5
1AEB7
330
18
100
AcDbEntity
  8
01
  6
BYBLOCK
100
AcDbLine
 10
2330.007072007641
 20
-523.956186189217
 30
0.0
 11
2327.407072007641
 21
-524.652854083217
 31
0.0
  0
LINE
  5
1AEB8
330
18
100
AcDbEntity
  8
01
  6
BYBLOCK
100
AcDbLine
 10
2330.007072007641
 20
-523.956186189217
 30
0.0
 11
2327.407072007641
 21
-523.956186189217
 31
0.0
  0
TEXT
  5
1AEB9
330
18
100
AcDbEntity
  8
01
  6
CONTINUOUS
100
AcDbText
 10
2322.232072007641
 20
-523.046186189217
 30
0.0
 40
4.55
  1
11
100
AcDbText
1001
ACAD
1000
DSTYLE
1002
{
1070
    40
1040
1.3
1070
    45
1040
0.5
1002
}
  0
LINE
  5
1AEBA
330
18
100
AcDbEntity
  8
01
  6
BYBLOCK
100
AcDbLine
 10
2425.310404113641
 20
-597.977678273905
 30
0.0
 11
2426.007072007641
 21
-595.377678273905
 31
0.0
  0
LINE
  5
1AEBB
330
18
100
AcDbEntity
  8
01
  6
BYBLOCK
100
AcDbLine
 10
2426.007072007641
 20
-595.377678273905
 30
0.0
 11
2426.703739901641
 21
-597.977678273905
 31
0.0
  0
LINE
  5
1AEBC
330
18
100
AcDbEntity
  8
01
  6
BYBLOCK
100
AcDbLine
 10
2426.007072007641
 20
-595.377678273905
 30
0.0
 11
2426.007072007641
 21
-597.977678273905
 31
0.0
  0
LINE
  5
1AEBD
330
18
100
AcDbEntity
  8
01
  6
BYBLOCK
100
AcDbLine
 10
2426.703739901641
 20
-666.7776782739054
 30
0.0
 11
2426.007072007641
 21
-669.3776782739054
 31
0.0
  0
LINE
  5
1AEBE
330
18
100
AcDbEntity
  8
01
  6
BYBLOCK
100
AcDbLine
 10
2426.007072007641
 20
-669.3776782739054
 30
0.0
 11
2425.310404113641
 21
-666.7776782739054
 31
0.0
  0
LINE
  5
1AEBF
330
18
100
AcDbEntity
  8
01
  6
BYBLOCK
100
AcDbLine
 10
2426.007072007641
 20
-669.3776782739054
 30
0.0
 11
2426.007072007641
 21
-666.7776782739054
 31
0.0
  0
TEXT
  5
1AEC0
330
18
100
AcDbEntity
  8
01
  6
CONTINUOUS
100
AcDbText
 10
2425.097072007641
 20
-614.4063341878864
 30
0.0
 40
4.55
  1
74
 50
90.0
100
AcDbText
1001
ACAD
1000
DSTYLE
1002
{
1070
    40
1040
1.3
1070
    45
1040
0.5
1002
}
  0
LINE
  5
1AEC1
330
18
100
AcDbEntity
  8
01
  6
BYBLOCK
100
AcDbLine
 10
2396.407072007641
 20
-513.1796508271688
 30
0.0
 11
2399.007072007641
 21
-513.8763187211688
 31
0.0
  0
LINE
  5
1AEC2
330
18
100
AcDbEntity
  8
01
  6
BYBLOCK
100
AcDbLine
 10
2399.007072007641
 20
-513.8763187211688
 30
0.0
 11
2396.407072007641
 21
-514.5729866151688
 31
0.0
  0
LINE
  5
1AEC3
330
18
100
AcDbEntity
  8
01
  6
BYBLOCK
100
AcDbLine
 10
2399.007072007641
 20
-513.8763187211688
 30
0.0
 11
2396.407072007641
 21
-513.8763187211688
 31
0.0
  0
LINE
  5
1AEC4
330
18
100
AcDbEntity
  8
01
  6
BYBLOCK
100
AcDbLine
 10
2332.607072007641
 20
-514.5729866151688
 30
0.0
 11
2330.007072007641
 21
-513.8763187211688
 31
0.0
  0
LINE
  5
1AEC5
330
18
100
AcDbEntity
  8
01
  6
BYBLOCK
100
AcDbLine
 10
2330.007072007641
 20
-513.8763187211688
 30
0.0
 11
2332.607072007641
 21
-513.1796508271688
 31
0.0
  0
LINE
  5
1AEC6
330
18
100
AcDbEntity
  8
01
  6
BYBLOCK
100
AcDbLine
 10
2330.007072007641
 20
-513.8763187211688
 30
0.0
 11
2332.607072007641
 21
-513.8763187211688
 31
0.0
  0
TEXT
  5
1AEC7
330
18
100
AcDbEntity
  8
01
  6
CONTINUOUS
100
AcDbText
 10
2360.698553489122
 20
-512.9663187211688
 30
0.0
 40
4.55
  1
69
100
AcDbText
1001
ACAD
1000
DSTYLE
1002
{
1070
    40
1040
1.3
1070
    45
1040
0.5
1002
}
  0
LINE
  5
1AEC8
330
18
100
AcDbEntity
  8
01
  6
BYBLOCK
100
AcDbLine
 10
2332.607072007641
 20
-524.652854083217
 30
0.0
 11
2330.007072007641
 21
-523.956186189217
 31
0.0
  0
LINE
  5
1AEC9
330
18
100
AcDbEntity
  8
01
  6
BYBLOCK
100
AcDbLine
 10
2330.007072007641
 20
-523.956186189217
 30
0.0
 11
2332.607072007641
 21
-523.2595182952169
 31
0.0
  0
LINE
  5
1AECA
330
18
100
AcDbEntity
  8
01
  6
BYBLOCK
100
AcDbLine
 10
2330.007072007641
 20
-523.956186189217
 30
0.0
 11
2332.607072007641
 21
-523.956186189217
 31
0.0
  0
LINE
  5
1AECB
330
18
100
AcDbEntity
  8
01
  6
BYBLOCK
100
AcDbLine
 10
2378.407072007641
 20
-523.2595182952169
 30
0.0
 11
2381.007072007641
 21
-523.956186189217
 31
0.0
  0
LINE
  5
1AECC
330
18
100
AcDbEntity
  8
01
  6
BYBLOCK
100
AcDbLine
 10
2381.007072007641
 20
-523.956186189217
 30
0.0
 11
2378.407072007641
 21
-524.652854083217
 31
0.0
  0
LINE
  5
1AECD
330
18
100
AcDbEntity
  8
01
  6
BYBLOCK
100
AcDbLine
 10
2381.007072007641
 20
-523.956186189217
 30
0.0
 11
2378.407072007641
 21
-523.956186189217
 31
0.0
  0
TEXT
  5
1AECE
330
18
100
AcDbEntity
  8
01
  6
CONTINUOUS
100
AcDbText
 10
2352.457940063196
 20
-523.046186189217
 30
0.0
 40
4.55
  1
51
100
AcDbText
1001
ACAD
1000
DSTYLE
1002
{
1070
    40
1040
1.3
1070
    45
1040
0.5
1002
}
  0
LINE
  5
1AECF
330
18
100
AcDbEntity
  8
01
  6
BYBLOCK
100
AcDbLine
 10
2201.107188347386
 20
-524.6528540832172
 30
0.0
 11
2198.507188347386
 21
-523.9561861892172
 31
0.0
  0
LINE
  5
1AED0
330
18
100
AcDbEntity
  8
01
  6
BYBLOCK
100
AcDbLine
 10
2198.507188347386
 20
-523.9561861892172
 30
0.0
 11
2201.107188347386
 21
-523.2595182952172
 31
0.0
  0
LINE
  5
1AED1
330
18
100
AcDbEntity
  8
01
  6
BYBLOCK
100
AcDbLine
 10
2198.507188347386
 20
-523.9561861892172
 30
0.0
 11
2201.107188347386
 21
-523.9561861892172
 31
0.0
  0
LINE
  5
1AED2
330
18
100
AcDbEntity
  8
01
  6
BYBLOCK
100
AcDbLine
 10
2220.907188347386
 20
-523.2595182952172
 30
0.0
 11
2223.507188347386
 21
-523.9561861892172
 31
0.0
  0
LINE
  5
1AED3
330
18
100
AcDbEntity
  8
01
  6
BYBLOCK
100
AcDbLine
 10
2223.507188347386
 20
-523.9561861892172
 30
0.0
 11
2220.907188347386
 21
-524.6528540832172
 31
0.0
  0
LINE
  5
1AED4
330
18
100
AcDbEntity
  8
01
  6
BYBLOCK
100
AcDbLine
 10
2223.507188347386
 20
-523.9561861892172
 30
0.0
 11
2220.907188347386
 21
-523.9561861892172
 31
0.0
  0
TEXT
  5
1AED5
330
18
100
AcDbEntity
  8
01
  6
CONTINUOUS
100
AcDbText
 10
2207.215521680719
 20
-523.0461861892172
 30
0.0
 40
4.55
  1
25
100
AcDbText
1001
ACAD
1000
DSTYLE
1002
{
1070
    40
1040
1.3
1070
    45
1040
0.5
1002
}
  0
LINE
  5
1AED6
330
18
100
AcDbEntity
  8
01
  6
BYBLOCK
100
AcDbLine
 10
2295.343141288533
 20
-577.9822189288102
 30
0.0
 11
2296.039809182533
 21
-575.3822189288102
 31
0.0
  0
LINE
  5
1AED7
330
18
100
AcDbEntity
  8
01
  6
BYBLOCK
100
AcDbLine
 10
2296.039809182533
 20
-575.3822189288102
 30
0.0
 11
2296.736477076533
 21
-577.9822189288102
 31
0.0
  0
LINE
  5
1AED8
330
18
100
AcDbEntity
  8
01
  6
BYBLOCK
100
AcDbLine
 10
2296.039809182533
 20
-575.3822189288102
 30
0.0
 11
2296.039809182533
 21
-577.9822189288102
 31
0.0
  0
LINE
  5
1AED9
330
18
100
AcDbEntity
  8
01
  6
BYBLOCK
100
AcDbLine
 10
2296.736477076533
 20
-686.7822189288102
 30
0.0
 11
2296.039809182533
 21
-689.3822189288102
 31
0.0
  0
LINE
  5
1AEDA
330
18
100
AcDbEntity
  8
01
  6
BYBLOCK
100
AcDbLine
 10
2296.039809182533
 20
-689.3822189288102
 30
0.0
 11
2295.343141288533
 21
-686.7822189288102
 31
0.0
  0
LINE
  5
1AEDB
330
18
100
AcDbEntity
  8
01
  6
BYBLOCK
100
AcDbLine
 10
2296.039809182533
 20
-689.3822189288102
 30
0.0
 11
2296.039809182533
 21
-686.7822189288102
 31
0.0
  0
TEXT
  5
1AEDC
330
18
100
AcDbEntity
  8
01
  6
CONTINUOUS
100
AcDbText
 10
2295.129809182533
 20
-607.7991965808887
 30
0.0
 40
4.55
  1
114
 50
90.0
100
AcDbText
1001
ACAD
1000
DSTYLE
1002
{
1070
    40
1040
1.3
1070
    45
1040
0.5
1002
}
  0
LINE
  5
1AEDD
330
18
100
AcDbEntity
  8
01
  6
BYBLOCK
100
AcDbLine
 10
2304.707475454758
 20
-570.0826640732266
 30
0.0
 11
2305.404143348757
 21
-567.4826640732266
 31
0.0
  0
LINE
  5
1AEDE
330
18
100
AcDbEntity
  8
01
  6
BYBLOCK
100
AcDbLine
 10
2305.404143348757
 20
-567.4826640732266
 30
0.0
 11
2306.100811242757
 21
-570.0826640732266
 31
0.0
  0
LINE
  5
1AEDF
330
18
100
AcDbEntity
  8
01
  6
BYBLOCK
100
AcDbLine
 10
2305.404143348757
 20
-567.4826640732266
 30
0.0
 11
2305.404143348757
 21
-570.0826640732266
 31
0.0
  0
LINE
  5
1AEE0
330
18
100
AcDbEntity
  8
01
  6
BYBLOCK
100
AcDbLine
 10
2306.100811242757
 20
-694.68221892881
 30
0.0
 11
2305.404143348757
 21
-697.28221892881
 31
0.0
  0
LINE
  5
1AEE1
330
18
100
AcDbEntity
  8
01
  6
BYBLOCK
100
AcDbLine
 10
2305.404143348757
 20
-697.28221892881
 30
0.0
 11
2304.707475454758
 21
-694.68221892881
 31
0.0
  0
LINE
  5
1AEE2
330
18
100
AcDbEntity
  8
01
  6
BYBLOCK
100
AcDbLine
 10
2305.404143348757
 20
-697.28221892881
 30
0.0
 11
2305.404143348757
 21
-694.68221892881
 31
0.0
  0
TEXT
  5
1AEE3
330
18
100
AcDbEntity
  8
01
  6
CONTINUOUS
100
AcDbText
 10
2304.494143348757
 20
-608.5837605836964
 30
0.0
 40
4.55
  1
130
 50
90.0
100
AcDbText
1001
ACAD
1000
DSTYLE
1002
{
1070
    40
1040
1.3
1070
    45
1040
0.5
1002
}
  0
LINE
  5
1AEE4
330
18
100
AcDbEntity
  8
1DIM
100
AcDbLine
 10
2167.103777179164
 20
-593.377659820034
 30
0.0
 11
2167.103777179164
 21
-522.6561861892163
 31
0.0
1001
ACAD
1000
DSTYLE
1002
{
1070
    40
1040
1.3
1070
    45
1040
0.5
1070
    79
1070
     2
1070
   179
1070
     2
1070
   272
1070
     2
1070
   341
1005
0
1002
}
  0
LINE
  5
1AEE5
330
18
100
AcDbEntity
  8
1DIM
100
AcDbLine
 10
2191.00730468713
 20
-539.3776782739047
 30
0.0
 11
2191.00730468713
 21
-522.6561861892163
 31
0.0
1001
ACAD
1000
DSTYLE
1002
{
1070
    40
1040
1.3
1070
    45
1040
0.5
1070
    79
1070
     2
1070
   179
1070
     2
1070
   272
1070
     2
1070
   341
1005
0
1002
}
  0
LINE
  5
1AEE6
330
18
100
AcDbEntity
  8
1DIM
100
AcDbLine
 10
2169.703777179164
 20
-523.9561861892163
 30
0.0
 11
2188.40730468713
 21
-523.9561861892163
 31
0.0
1001
ACAD
1000
DSTYLE
1002
{
1070
    40
1040
1.3
1070
    45
1040
0.5
1070
    79
1070
     2
1070
   179
1070
     2
1070
   272
1070
     2
1070
   341
1005
0
1002
}
  0
LINE
  5
1AEEA
330
18
100
AcDbEntity
  8
1DIM
100
AcDbLine
 10
2231.007188347386
 20
-539.3776782739047
 30
0.0
 11
2231.007188347386
 21
-522.6561861892163
 31
0.0
1001
ACAD
1000
DSTYLE
1002
{
1070
    40
1040
1.3
1070
    45
1040
0.5
1070
    79
1070
     2
1070
   179
1070
     2
1070
   272
1070
     2
1070
   341
1005
0
1002
}
  0
LINE
  5
1AEEB
330
18
100
AcDbEntity
  8
1DIM
100
AcDbLine
 10
2241.305098045869
 20
-603.3653717116582
 30
0.0
 11
2241.305098045869
 21
-522.6561861892163
 31
0.0
1001
ACAD
1000
DSTYLE
1002
{
1070
    40
1040
1.3
1070
    45
1040
0.5
1070
    79
1070
     2
1070
   179
1070
     2
1070
   272
1070
     2
1070
   341
1005
0
1002
}
  0
LINE
  5
1AEEC
330
18
100
AcDbEntity
  8
1DIM
100
AcDbLine
 10
2241.305098045869
 20
-523.9561861892163
 30
0.0
 11
2258.941764712535
 21
-523.9561861892163
 31
0.0
1001
ACAD
1000
DSTYLE
1002
{
1070
    40
1040
1.3
1070
    45
1040
0.5
1070
    79
1070
     2
1070
   179
1070
     2
1070
   272
1070
     2
1070
   341
1005
0
1002
}
  0
LINE
  5
1AEED
330
18
100
AcDbEntity
  8
1DIM
100
AcDbLine
 10
2233.607188347386
 20
-523.9561861892163
 30
0.0
 11
2238.705098045869
 21
-523.9561861892163
 31
0.0
1001
ACAD
1000
DSTYLE
1002
{
1070
    40
1040
1.3
1070
    45
1040
0.5
1070
    79
1070
     2
1070
   179
1070
     2
1070
   272
1070
     2
1070
   341
1005
0
1002
}
  0
LINE
  5
1AEF1
330
18
100
AcDbEntity
  8
1DIM
100
AcDbLine
 10
2011.007192347385
 20
-653.3776782739054
 30
0.0
 11
1979.607998016843
 21
-653.3776782739054
 31
0.0
1001
ACAD
1000
DSTYLE
1002
{
1070
    40
1040
1.3
1002
}
  0
LINE
  5
1AEF2
330
18
100
AcDbEntity
  8
1DIM
100
AcDbLine
 10
2028.007184347384
 20
-603.3776782739047
 30
0.0
 11
1979.607998016843
 21
-603.3776782739047
 31
0.0
1001
ACAD
1000
DSTYLE
1002
{
1070
    40
1040
1.3
1002
}
  0
LINE
  5
1AEF3
330
18
100
AcDbEntity
  8
1DIM
100
AcDbLine
 10
1980.907998016843
 20
-650.7776782739054
 30
0.0
 11
1980.907998016843
 21
-605.9776782739048
 31
0.0
1001
ACAD
1000
DSTYLE
1002
{
1070
    40
1040
1.3
1002
}
  0
LINE
  5
1AEF8
330
18
100
AcDbEntity
  8
1DIM
100
AcDbLine
 10
2378.627821277348
 20
-429.7817439905743
 30
0.0
 11
2351.160233100657
 21
-449.2876782749336
 31
0.0
1001
ACAD
1000
DSTYLE
1002
{
1070
    40
1040
1.3
1070
    45
1040
0.5
1002
}
  0
LINE
  5
1AEF9
330
18
100
AcDbEntity
  8
1DIM
100
AcDbLine
 10
2397.407956189701
 20
-373.8776782749336
 30
0.0
 11
2417.968346949413
 21
-373.8776782749336
 31
0.0
1001
ACAD
1000
DSTYLE
1002
{
1070
    45
1040
0.5
1070
    40
1040
1.3
1002
}
  0
LINE
  5
1AEFA
330
18
100
AcDbEntity
  8
1DIM
100
AcDbLine
 10
2399.007956189701
 20
-392.6776782749336
 30
0.0
 11
2417.968346949413
 21
-392.6776782749336
 31
0.0
1001
ACAD
1000
DSTYLE
1002
{
1070
    45
1040
0.5
1070
    40
1040
1.3
1002
}
  0
LINE
  5
1AEFB
330
18
100
AcDbEntity
  8
1DIM
100
AcDbLine
 10
2416.668346949413
 20
-376.4776782749336
 30
0.0
 11
2416.668346949413
 21
-390.0776782749335
 31
0.0
1001
ACAD
1000
DSTYLE
1002
{
1070
    45
1040
0.5
1070
    40
1040
1.3
1002
}
  0
LINE
  5
1AEFF
330
18
100
AcDbEntity
  8
1DIM
100
AcDbLine
 10
2011.007192347385
 20
-653.3776782739054
 30
0.0
 11
1979.607998016843
 21
-653.3776782739054
 31
0.0
1001
ACAD
1000
DSTYLE
1002
{
1070
    40
1040
1.3
1002
}
  0
LINE
  5
1AF00
330
18
100
AcDbEntity
  8
1DIM
100
AcDbLine
 10
2016.507192347385
 20
-717.3776782739054
 30
0.0
 11
1979.607998016843
 21
-717.3776782739054
 31
0.0
1001
ACAD
1000
DSTYLE
1002
{
1070
    40
1040
1.3
1002
}
  0
LINE
  5
1AF01
330
18
100
AcDbEntity
  8
1DIM
100
AcDbLine
 10
1980.907998016843
 20
-655.9776782739054
 30
0.0
 11
1980.907998016843
 21
-714.7776782739054
 31
0.0
1001
ACAD
1000
DSTYLE
1002
{
1070
    40
1040
1.3
1002
}
  0
LINE
  5
1AF05
330
18
100
AcDbEntity
  8
1DIM
100
AcDbLine
 10
2405.507072007641
 20
-717.377678273905
 30
0.0
 11
2547.307072007641
 21
-717.377678273905
 31
0.0
1001
ACAD
1000
DSTYLE
1002
{
1070
    40
1040
1.3
1070
    45
1040
0.5
1070
   341
1005
0
1002
}
  0
LINE
  5
1AF06
330
18
100
AcDbEntity
  8
1DIM
100
AcDbLine
 10
2405.507072007641
 20
-539.377678273905
 30
0.0
 11
2547.307072007641
 21
-539.377678273905
 31
0.0
1001
ACAD
1000
DSTYLE
1002
{
1070
    40
1040
1.3
1070
    45
1040
0.5
1070
   341
1005
0
1002
}
  0
LINE
  5
1AF07
330
18
100
AcDbEntity
  8
1DIM
100
AcDbLine
 10
2546.007072007641
 20
-714.7776782739049
 30
0.0
 11
2546.007072007641
 21
-541.977678273905
 31
0.0
1001
ACAD
1000
DSTYLE
1002
{
1070
    40
1040
1.3
1070
    45
1040
0.5
1070
   341
1005
0
1002
}
  0
LINE
  5
1AF0B
330
18
100
AcDbEntity
  8
1DIM
100
AcDbLine
 10
2356.007072007641
 20
-539.877678273905
 30
0.0
 11
2356.007072007641
 21
-532.6776782739054
 31
0.0
1001
ACAD
1000
DSTYLE
1002
{
1070
    40
1040
1.3
1070
    45
1040
0.5
1070
   341
1005
0
1002
}
  0
LINE
  5
1AF0C
330
18
100
AcDbEntity
  8
1DIM
100
AcDbLine
 10
2406.007072007641
 20
-539.877678273905
 30
0.0
 11
2406.007072007641
 21
-532.6776782739054
 31
0.0
1001
ACAD
1000
DSTYLE
1002
{
1070
    40
1040
1.3
1070
    45
1040
0.5
1070
   341
1005
0
1002
}
  0
LINE
  5
1AF0D
330
18
100
AcDbEntity
  8
1DIM
100
AcDbLine
 10
2358.607072007641
 20
-533.9776782739053
 30
0.0
 11
2403.407072007641
 21
-533.9776782739053
 31
0.0
1001
ACAD
1000
DSTYLE
1002
{
1070
    40
1040
1.3
1070
    45
1040
0.5
1070
   341
1005
0
1002
}
  0
LINE
  5
1AF11
330
18
100
AcDbEntity
  8
1DIM
100
AcDbLine
 10
2483.494270812556
 20
-403.3776782749327
 30
0.0
 11
2521.872868348172
 21
-403.3776782749327
 31
0.0
1001
ACAD
1000
DSTYLE
1002
{
1070
    40
1040
1.3
1070
   271
1070
     0
1002
}
  0
LINE
  5
1AF12
330
18
100
AcDbEntity
  8
1DIM
100
AcDbLine
 10
2504.571322902664
 20
-439.3269355333663
 30
0.0
 11
2521.872868348172
 21
-439.3269355333663
 31
0.0
1001
ACAD
1000
DSTYLE
1002
{
1070
    40
1040
1.3
1070
   271
1070
     0
1002
}
  0
LINE
  5
1AF13
330
18
100
AcDbEntity
  8
1DIM
100
AcDbLine
 10
2520.572868348172
 20
-405.9776782749327
 30
0.0
 11
2520.572868348172
 21
-436.7269355333663
 31
0.0
1001
ACAD
1000
DSTYLE
1002
{
1070
    40
1040
1.3
1070
   271
1070
     0
1002
}
  0
LINE
  5
1AF17
330
18
100
AcDbEntity
  8
1DIM
100
AcDbLine
 10
2418.135310867086
 20
-466.4157369747876
 30
0.0
 11
2531.872868348172
 21
-466.4157369747876
 31
0.0
1001
ACAD
1000
DSTYLE
1002
{
1070
    40
1040
1.3
1070
   271
1070
     0
1002
}
  0
LINE
  5
1AF18
330
18
100
AcDbEntity
  8
1DIM
100
AcDbLine
 10
2483.494270812556
 20
-403.3776782749327
 30
0.0
 11
2531.872868348172
 21
-403.3776782749327
 31
0.0
1001
ACAD
1000
DSTYLE
1002
{
1070
    40
1040
1.3
1070
   271
1070
     0
1002
}
  0
LINE
  5
1AF19
330
18
100
AcDbEntity
  8
1DIM
100
AcDbLine
 10
2530.572868348172
 20
-463.8157369747876
 30
0.0
 11
2530.572868348172
 21
-405.9776782749327
 31
0.0
1001
ACAD
1000
DSTYLE
1002
{
1070
    40
1040
1.3
1070
   271
1070
     0
1002
}
  0
LINE
  5
1AF1D
330
18
100
AcDbEntity
  8
1DIM
100
AcDbLine
 10
2381.007072007641
 20
-424.8776782749327
 30
0.0
 11
2381.007072007641
 21
-482.7157369747876
 31
0.0
1001
ACAD
1000
DSTYLE
1002
{
1070
    40
1040
1.3
1070
   271
1070
     0
1002
}
  0
LINE
  5
1AF1E
330
18
100
AcDbEntity
  8
1DIM
100
AcDbLine
 10
2505.57286835059
 20
-460.3397554871511
 30
0.0
 11
2505.57286835059
 21
-482.7157369747876
 31
0.0
1001
ACAD
1000
DSTYLE
1002
{
1070
    40
1040
1.3
1070
   271
1070
     0
1002
}
  0
LINE
  5
1AF1F
330
18
100
AcDbEntity
  8
1DIM
100
AcDbLine
 10
2383.607072007641
 20
-481.4157369747876
 30
0.0
 11
2502.97286835059
 21
-481.4157369747876
 31
0.0
1001
ACAD
1000
DSTYLE
1002
{
1070
    40
1040
1.3
1070
   271
1070
     0
1002
}
  0
LINE
  5
1AF23
330
18
100
AcDbEntity
  8
1DIM
100
AcDbLine
 10
2367.507074348171
 20
-432.3776782749327
 30
0.0
 11
2367.507074348171
 21
-492.7157369747876
 31
0.0
1001
ACAD
1000
DSTYLE
1002
{
1070
    40
1040
1.3
1070
   271
1070
     0
1002
}
  0
LINE
  5
1AF24
330
18
100
AcDbEntity
  8
1DIM
100
AcDbLine
 10
2505.57286835059
 20
-460.3397554871511
 30
0.0
 11
2505.57286835059
 21
-492.7157369747876
 31
0.0
1001
ACAD
1000
DSTYLE
1002
{
1070
    40
1040
1.3
1070
   271
1070
     0
1002
}
  0
LINE
  5
1AF25
330
18
100
AcDbEntity
  8
1DIM
100
AcDbLine
 10
2370.107074348171
 20
-491.4157369747876
 30
0.0
 11
2502.97286835059
 21
-491.4157369747876
 31
0.0
1001
ACAD
1000
DSTYLE
1002
{
1070
    40
1040
1.3
1070
   271
1070
     0
1002
}
  0
LINE
  5
1AF29
330
18
100
AcDbEntity
  8
0
  6
BYBLOCK
100
AcDbLine
 10
2169.703777179164
 20
-524.6528540832163
 30
0.0
 11
2167.103777179164
 21
-523.9561861892163
 31
0.0
  0
LINE
  5
1AF2A
330
18
100
AcDbEntity
  8
0
  6
BYBLOCK
100
AcDbLine
 10
2167.103777179164
 20
-523.9561861892163
 30
0.0
 11
2169.703777179164
 21
-523.2595182952163
 31
0.0
  0
LINE
  5
1AF2B
330
18
100
AcDbEntity
  8
0
  6
BYBLOCK
100
AcDbLine
 10
2167.103777179164
 20
-523.9561861892163
 30
0.0
 11
2169.703777179164
 21
-523.9561861892163
 31
0.0
  0
LINE
  5
1AF2C
330
18
100
AcDbEntity
  8
0
  6
BYBLOCK
100
AcDbLine
 10
2188.40730468713
 20
-523.2595182952163
 30
0.0
 11
2191.00730468713
 21
-523.9561861892163
 31
0.0
  0
LINE
  5
1AF2D
330
18
100
AcDbEntity
  8
0
  6
BYBLOCK
100
AcDbLine
 10
2191.00730468713
 20
-523.9561861892163
 30
0.0
 11
2188.40730468713
 21
-524.6528540832163
 31
0.0
  0
LINE
  5
1AF2E
330
18
100
AcDbEntity
  8
0
  6
BYBLOCK
100
AcDbLine
 10
2191.00730468713
 20
-523.9561861892163
 30
0.0
 11
2188.40730468713
 21
-523.9561861892163
 31
0.0
  0
TEXT
  5
1AF2F
330
18
100
AcDbEntity
  8
1DIM
  6
CONTINUOUS
100
AcDbText
 10
2175.263874266481
 20
-523.0461861892163
 30
0.0
 40
4.55
  1
24
100
AcDbText
1001
ACAD
1000
DSTYLE
1002
{
1070
    40
1040
1.3
1070
    45
1040
0.5
1070
    79
1070
     2
1070
   179
1070
     2
1070
   272
1070
     2
1070
   341
1005
0
1002
}
  0
LINE
  5
1AF30
330
18
100
AcDbEntity
  8
0
  6
BYBLOCK
100
AcDbLine
 10
2233.607188347386
 20
-524.6528540832163
 30
0.0
 11
2231.007188347386
 21
-523.9561861892163
 31
0.0
  0
LINE
  5
1AF31
330
18
100
AcDbEntity
  8
0
  6
BYBLOCK
100
AcDbLine
 10
2231.007188347386
 20
-523.9561861892163
 30
0.0
 11
2233.607188347386
 21
-523.2595182952163
 31
0.0
  0
LINE
  5
1AF32
330
18
100
AcDbEntity
  8
0
  6
BYBLOCK
100
AcDbLine
 10
2231.007188347386
 20
-523.9561861892163
 30
0.0
 11
2233.607188347386
 21
-523.9561861892163
 31
0.0
  0
LINE
  5
1AF33
330
18
100
AcDbEntity
  8
0
  6
BYBLOCK
100
AcDbLine
 10
2238.705098045869
 20
-523.2595182952163
 30
0.0
 11
2241.305098045869
 21
-523.9561861892163
 31
0.0
  0
LINE
  5
1AF34
330
18
100
AcDbEntity
  8
0
  6
BYBLOCK
100
AcDbLine
 10
2241.305098045869
 20
-523.9561861892163
 30
0.0
 11
2238.705098045869
 21
-524.6528540832163
 31
0.0
  0
LINE
  5
1AF35
330
18
100
AcDbEntity
  8
0
  6
BYBLOCK
100
AcDbLine
 10
2241.305098045869
 20
-523.9561861892163
 30
0.0
 11
2238.705098045869
 21
-523.9561861892163
 31
0.0
  0
TEXT
  5
1AF36
330
18
100
AcDbEntity
  8
1DIM
  6
CONTINUOUS
100
AcDbText
 10
2245.735931379202
 20
-523.0461861892163
 30
0.0
 40
4.55
  1
10.5
100
AcDbText
1001
ACAD
1000
DSTYLE
1002
{
1070
    40
1040
1.3
1070
    45
1040
0.5
1070
    79
1070
     2
1070
   179
1070
     2
1070
   272
1070
     2
1070
   341
1005
0
1002
}
  0
LINE
  5
1AF37
330
18
100
AcDbEntity
  8
0
  6
BYBLOCK
100
AcDbLine
 10
1981.604665910843
 20
-650.7776782739054
 30
0.0
 11
1980.907998016843
 21
-653.3776782739054
 31
0.0
  0
LINE
  5
1AF38
330
18
100
AcDbEntity
  8
0
  6
BYBLOCK
100
AcDbLine
 10
1980.907998016843
 20
-653.3776782739054
 30
0.0
 11
1980.211330122843
 21
-650.7776782739054
 31
0.0
  0
LINE
  5
1AF39
330
18
100
AcDbEntity
  8
0
  6
BYBLOCK
100
AcDbLine
 10
1980.907998016843
 20
-653.3776782739054
 30
0.0
 11
1980.907998016843
 21
-650.7776782739054
 31
0.0
  0
LINE
  5
1AF3A
330
18
100
AcDbEntity
  8
0
  6
BYBLOCK
100
AcDbLine
 10
1980.211330122843
 20
-605.9776782739048
 30
0.0
 11
1980.907998016843
 21
-603.3776782739047
 31
0.0
  0
LINE
  5
1AF3B
330
18
100
AcDbEntity
  8
0
  6
BYBLOCK
100
AcDbLine
 10
1980.907998016843
 20
-603.3776782739047
 30
0.0
 11
1981.604665910843
 21
-605.9776782739048
 31
0.0
  0
LINE
  5
1AF3C
330
18
100
AcDbEntity
  8
0
  6
BYBLOCK
100
AcDbLine
 10
1980.907998016843
 20
-603.3776782739047
 30
0.0
 11
1980.907998016843
 21
-605.9776782739048
 31
0.0
  0
TEXT
  5
1AF3D
330
18
100
AcDbEntity
  8
1DIM
  6
CONTINUOUS
100
AcDbText
 10
1979.997998016843
 20
-631.9007685516831
 30
0.0
 40
4.55
  1
50
 50
90.0
100
AcDbText
1001
ACAD
1000
DSTYLE
1002
{
1070
    40
1040
1.3
1002
}
  0
LINE
  5
1AF3E
330
18
100
AcDbEntity
  8
0
  6
BYBLOCK
100
AcDbLine
 10
2378.224450703439
 20
-429.2137313721981
 30
0.0
 11
2380.747673247702
 21
-428.2763445008085
 31
0.0
  0
LINE
  5
1AF3F
330
18
100
AcDbEntity
  8
0
  6
BYBLOCK
100
AcDbLine
 10
2380.747673247702
 20
-428.2763445008085
 30
0.0
 11
2379.031191851257
 21
-430.3497566089505
 31
0.0
  0
LINE
  5
1AF40
330
18
100
AcDbEntity
  8
0
  6
BYBLOCK
100
AcDbLine
 10
2380.747673247702
 20
-428.2763445008085
 30
0.0
 11
2378.627821277348
 21
-429.7817439905743
 31
0.0
  0
LINE
  5
1AF41
330
18
100
AcDbEntity
  8
0
  6
BYBLOCK
100
AcDbLine
 10
2415.971679055413
 20
-376.4776782749336
 30
0.0
 11
2416.668346949413
 21
-373.8776782749336
 31
0.0
  0
LINE
  5
1AF42
330
18
100
AcDbEntity
  8
0
  6
BYBLOCK
100
AcDbLine
 10
2416.668346949413
 20
-373.8776782749336
 30
0.0
 11
2417.365014843413
 21
-376.4776782749336
 31
0.0
  0
LINE
  5
1AF43
330
18
100
AcDbEntity
  8
0
  6
BYBLOCK
100
AcDbLine
 10
2416.668346949413
 20
-373.8776782749336
 30
0.0
 11
2416.668346949413
 21
-376.4776782749336
 31
0.0
  0
LINE
  5
1AF44
330
18
100
AcDbEntity
  8
0
  6
BYBLOCK
100
AcDbLine
 10
2417.365014843413
 20
-390.0776782749335
 30
0.0
 11
2416.668346949413
 21
-392.6776782749336
 31
0.0
  0
LINE
  5
1AF45
330
18
100
AcDbEntity
  8
0
  6
BYBLOCK
100
AcDbLine
 10
2416.668346949413
 20
-392.6776782749336
 30
0.0
 11
2415.971679055413
 21
-390.0776782749335
 31
0.0
  0
LINE
  5
1AF46
330
18
100
AcDbEntity
  8
0
  6
BYBLOCK
100
AcDbLine
 10
2416.668346949413
 20
-392.6776782749336
 30
0.0
 11
2416.668346949413
 21
-390.0776782749335
 31
0.0
  0
TEXT
  5
1AF47
330
18
100
AcDbEntity
  8
1DIM
  6
CONTINUOUS
100
AcDbText
 10
2415.758346949413
 20
-386.312064849008
 30
0.0
 40
4.55
  1
19
 50
90.0
100
AcDbText
1001
ACAD
1000
DSTYLE
1002
{
1070
    45
1040
0.5
1070
    40
1040
1.3
1002
}
  0
LINE
  5
1AF48
330
18
100
AcDbEntity
  8
0
  6
BYBLOCK
100
AcDbLine
 10
1980.211330122843
 20
-655.9776782739054
 30
0.0
 11
1980.907998016843
 21
-653.3776782739054
 31
0.0
  0
LINE
  5
1AF49
330
18
100
AcDbEntity
  8
0
  6
BYBLOCK
100
AcDbLine
 10
1980.907998016843
 20
-653.3776782739054
 30
0.0
 11
1981.604665910843
 21
-655.9776782739054
 31
0.0
  0
LINE
  5
1AF4A
330
18
100
AcDbEntity
  8
0
  6
BYBLOCK
100
AcDbLine
 10
1980.907998016843
 20
-653.3776782739054
 30
0.0
 11
1980.907998016843
 21
-655.9776782739054
 31
0.0
  0
LINE
  5
1AF4B
330
18
100
AcDbEntity
  8
0
  6
BYBLOCK
100
AcDbLine
 10
1981.604665910843
 20
-714.7776782739054
 30
0.0
 11
1980.907998016843
 21
-717.3776782739054
 31
0.0
  0
LINE
  5
1AF4C
330
18
100
AcDbEntity
  8
0
  6
BYBLOCK
100
AcDbLine
 10
1980.907998016843
 20
-717.3776782739054
 30
0.0
 11
1980.211330122843
 21
-714.7776782739054
 31
0.0
  0
LINE
  5
1AF4D
330
18
100
AcDbEntity
  8
0
  6
BYBLOCK
100
AcDbLine
 10
1980.907998016843
 20
-717.3776782739054
 30
0.0
 11
1980.907998016843
 21
-714.7776782739054
 31
0.0
  0
TEXT
  5
1AF4E
330
18
100
AcDbEntity
  8
1DIM
  6
CONTINUOUS
100
AcDbText
 10
1979.997998016843
 20
-689.185143551683
 30
0.0
 40
4.55
  1
64
 50
90.0
100
AcDbText
1001
ACAD
1000
DSTYLE
1002
{
1070
    40
1040
1.3
1002
}
  0
LINE
  5
1AF4F
330
18
100
AcDbEntity
  8
0
  6
BYBLOCK
100
AcDbLine
 10
2546.703739901641
 20
-714.7776782739049
 30
0.0
 11
2546.007072007641
 21
-717.377678273905
 31
0.0
  0
LINE
  5
1AF50
330
18
100
AcDbEntity
  8
0
  6
BYBLOCK
100
AcDbLine
 10
2546.007072007641
 20
-717.377678273905
 30
0.0
 11
2545.310404113641
 21
-714.7776782739049
 31
0.0
  0
LINE
  5
1AF51
330
18
100
AcDbEntity
  8
0
  6
BYBLOCK
100
AcDbLine
 10
2546.007072007641
 20
-717.377678273905
 30
0.0
 11
2546.007072007641
 21
-714.7776782739049
 31
0.0
  0
LINE
  5
1AF52
330
18
100
AcDbEntity
  8
0
  6
BYBLOCK
100
AcDbLine
 10
2545.310404113641
 20
-541.977678273905
 30
0.0
 11
2546.007072007641
 21
-539.377678273905
 31
0.0
  0
LINE
  5
1AF53
330
18
100
AcDbEntity
  8
0
  6
BYBLOCK
100
AcDbLine
 10
2546.007072007641
 20
-539.377678273905
 30
0.0
 11
2546.703739901641
 21
-541.977678273905
 31
0.0
  0
LINE
  5
1AF54
330
18
100
AcDbEntity
  8
0
  6
BYBLOCK
100
AcDbLine
 10
2546.007072007641
 20
-539.377678273905
 30
0.0
 11
2546.007072007641
 21
-541.977678273905
 31
0.0
  0
TEXT
  5
1AF55
330
18
100
AcDbEntity
  8
1DIM
  6
CONTINUOUS
100
AcDbText
 10
2545.097072007641
 20
-633.6860116072385
 30
0.0
 40
4.55
  1
178
 50
90.0
100
AcDbText
1001
ACAD
1000
DSTYLE
1002
{
1070
    40
1040
1.3
1070
    45
1040
0.5
1070
   341
1005
0
1002
}
  0
LINE
  5
1AF56
330
18
100
AcDbEntity
  8
0
  6
BYBLOCK
100
AcDbLine
 10
2358.607072007641
 20
-534.6743461679054
 30
0.0
 11
2356.007072007641
 21
-533.9776782739053
 31
0.0
  0
LINE
  5
1AF57
330
18
100
AcDbEntity
  8
0
  6
BYBLOCK
100
AcDbLine
 10
2356.007072007641
 20
-533.9776782739053
 30
0.0
 11
2358.607072007641
 21
-533.2810103799053
 31
0.0
  0
LINE
  5
1AF58
330
18
100
AcDbEntity
  8
0
  6
BYBLOCK
100
AcDbLine
 10
2356.007072007641
 20
-533.9776782739053
 30
0.0
 11
2358.607072007641
 21
-533.9776782739053
 31
0.0
  0
LINE
  5
1AF59
330
18
100
AcDbEntity
  8
0
  6
BYBLOCK
100
AcDbLine
 10
2403.407072007641
 20
-533.2810103799053
 30
0.0
 11
2406.007072007641
 21
-533.9776782739053
 31
0.0
  0
LINE
  5
1AF5A
330
18
100
AcDbEntity
  8
0
  6
BYBLOCK
100
AcDbLine
 10
2406.007072007641
 20
-533.9776782739053
 30
0.0
 11
2403.407072007641
 21
-534.6743461679054
 31
0.0
  0
LINE
  5
1AF5B
330
18
100
AcDbEntity
  8
0
  6
BYBLOCK
100
AcDbLine
 10
2406.007072007641
 20
-533.9776782739053
 30
0.0
 11
2403.407072007641
 21
-533.9776782739053
 31
0.0
  0
TEXT
  5
1AF5C
330
18
100
AcDbEntity
  8
1DIM
  6
CONTINUOUS
100
AcDbText
 10
2377.483981729863
 20
-533.0676782739054
 30
0.0
 40
4.55
  1
50
100
AcDbText
1001
ACAD
1000
DSTYLE
1002
{
1070
    40
1040
1.3
1070
    45
1040
0.5
1070
   341
1005
0
1002
}
  0
LINE
  5
1AF5D
330
18
100
AcDbEntity
  8
0
  6
BYBLOCK
100
AcDbLine
 10
2519.876200454172
 20
-405.9776782749327
 30
0.0
 11
2520.572868348172
 21
-403.3776782749327
 31
0.0
  0
LINE
  5
1AF5E
330
18
100
AcDbEntity
  8
0
  6
BYBLOCK
100
AcDbLine
 10
2520.572868348172
 20
-403.3776782749327
 30
0.0
 11
2521.269536242172
 21
-405.9776782749327
 31
0.0
  0
LINE
  5
1AF5F
330
18
100
AcDbEntity
  8
0
  6
BYBLOCK
100
AcDbLine
 10
2520.572868348172
 20
-403.3776782749327
 30
0.0
 11
2520.572868348172
 21
-405.9776782749327
 31
0.0
  0
LINE
  5
1AF60
330
18
100
AcDbEntity
  8
0
  6
BYBLOCK
100
AcDbLine
 10
2521.269536242172
 20
-436.7269355333663
 30
0.0
 11
2520.572868348172
 21
-439.3269355333663
 31
0.0
  0
LINE
  5
1AF61
330
18
100
AcDbEntity
  8
0
  6
BYBLOCK
100
AcDbLine
 10
2520.572868348172
 20
-439.3269355333663
 30
0.0
 11
2519.876200454172
 21
-436.7269355333663
 31
0.0
  0
LINE
  5
1AF62
330
18
100
AcDbEntity
  8
0
  6
BYBLOCK
100
AcDbLine
 10
2520.572868348172
 20
-439.3269355333663
 30
0.0
 11
2520.572868348172
 21
-436.7269355333663
 31
0.0
  0
TEXT
  5
1AF63
330
18
100
AcDbEntity
  8
1DIM
  6
CONTINUOUS
100
AcDbText
 10
2519.662868348172
 20
-425.1439735708159
 30
0.0
 40
4.55
  1
36
 50
90.0
100
AcDbText
1001
ACAD
1000
DSTYLE
1002
{
1070
    40
1040
1.3
1070
   271
1070
     0
1002
}
  0
LINE
  5
1AF64
330
18
100
AcDbEntity
  8
0
  6
BYBLOCK
100
AcDbLine
 10
2531.269536242172
 20
-463.8157369747876
 30
0.0
 11
2530.572868348172
 21
-466.4157369747876
 31
0.0
  0
LINE
  5
1AF65
330
18
100
AcDbEntity
  8
0
  6
BYBLOCK
100
AcDbLine
 10
2530.572868348172
 20
-466.4157369747876
 30
0.0
 11
2529.876200454172
 21
-463.8157369747876
 31
0.0
  0
LINE
  5
1AF66
330
18
100
AcDbEntity
  8
0
  6
BYBLOCK
100
AcDbLine
 10
2530.572868348172
 20
-466.4157369747876
 30
0.0
 11
2530.572868348172
 21
-463.8157369747876
 31
0.0
  0
LINE
  5
1AF67
330
18
100
AcDbEntity
  8
0
  6
BYBLOCK
100
AcDbLine
 10
2529.876200454172
 20
-405.9776782749327
 30
0.0
 11
2530.572868348172
 21
-403.3776782749327
 31
0.0
  0
LINE
  5
1AF68
330
18
100
AcDbEntity
  8
0
  6
BYBLOCK
100
AcDbLine
 10
2530.572868348172
 20
-403.3776782749327
 30
0.0
 11
2531.269536242172
 21
-405.9776782749327
 31
0.0
  0
LINE
  5
1AF69
330
18
100
AcDbEntity
  8
0
  6
BYBLOCK
100
AcDbLine
 10
2530.572868348172
 20
-403.3776782749327
 30
0.0
 11
2530.572868348172
 21
-405.9776782749327
 31
0.0
  0
TEXT
  5
1AF6A
330
18
100
AcDbEntity
  8
1DIM
  6
CONTINUOUS
100
AcDbText
 10
2529.662868348172
 20
-438.7041729026378
 30
0.0
 40
4.55
  1
63
 50
90.0
100
AcDbText
1001
ACAD
1000
DSTYLE
1002
{
1070
    40
1040
1.3
1070
   271
1070
     0
1002
}
  0
LINE
  5
1AF6B
330
18
100
AcDbEntity
  8
0
  6
BYBLOCK
100
AcDbLine
 10
2383.607072007641
 20
-482.1124048687876
 30
0.0
 11
2381.007072007641
 21
-481.4157369747876
 31
0.0
  0
LINE
  5
1AF6C
330
18
100
AcDbEntity
  8
0
  6
BYBLOCK
100
AcDbLine
 10
2381.007072007641
 20
-481.4157369747876
 30
0.0
 11
2383.607072007641
 21
-480.7190690807876
 31
0.0
  0
LINE
  5
1AF6D
330
18
100
AcDbEntity
  8
0
  6
BYBLOCK
100
AcDbLine
 10
2381.007072007641
 20
-481.4157369747876
 30
0.0
 11
2383.607072007641
 21
-481.4157369747876
 31
0.0
  0
LINE
  5
1AF6E
330
18
100
AcDbEntity
  8
0
  6
BYBLOCK
100
AcDbLine
 10
2502.97286835059
 20
-480.7190690807876
 30
0.0
 11
2505.57286835059
 21
-481.4157369747876
 31
0.0
  0
LINE
  5
1AF6F
330
18
100
AcDbEntity
  8
0
  6
BYBLOCK
100
AcDbLine
 10
2505.57286835059
 20
-481.4157369747876
 30
0.0
 11
2502.97286835059
 21
-482.1124048687876
 31
0.0
  0
LINE
  5
1AF70
330
18
100
AcDbEntity
  8
0
  6
BYBLOCK
100
AcDbLine
 10
2505.57286835059
 20
-481.4157369747876
 30
0.0
 11
2502.97286835059
 21
-481.4157369747876
 31
0.0
  0
TEXT
  5
1AF71
330
18
100
AcDbEntity
  8
1DIM
  6
CONTINUOUS
100
AcDbText
 10
2437.981636845782
 20
-480.5057369747876
 30
0.0
 40
4.55
  1
125
100
AcDbText
1001
ACAD
1000
DSTYLE
1002
{
1070
    40
1040
1.3
1070
   271
1070
     0
1002
}
  0
LINE
  5
1AF72
330
18
100
AcDbEntity
  8
0
  6
BYBLOCK
100
AcDbLine
 10
2370.107074348171
 20
-492.1124048687876
 30
0.0
 11
2367.507074348171
 21
-491.4157369747876
 31
0.0
  0
LINE
  5
1AF73
330
18
100
AcDbEntity
  8
0
  6
BYBLOCK
100
AcDbLine
 10
2367.507074348171
 20
-491.4157369747876
 30
0.0
 11
2370.107074348171
 21
-490.7190690807876
 31
0.0
  0
LINE
  5
1AF74
330
18
100
AcDbEntity
  8
0
  6
BYBLOCK
100
AcDbLine
 10
2367.507074348171
 20
-491.4157369747876
 30
0.0
 11
2370.107074348171
 21
-491.4157369747876
 31
0.0
  0
LINE
  5
1AF75
330
18
100
AcDbEntity
  8
0
  6
BYBLOCK
100
AcDbLine
 10
2502.97286835059
 20
-490.7190690807876
 30
0.0
 11
2505.57286835059
 21
-491.4157369747876
 31
0.0
  0
LINE
  5
1AF76
330
18
100
AcDbEntity
  8
0
  6
BYBLOCK
100
AcDbLine
 10
2505.57286835059
 20
-491.4157369747876
 30
0.0
 11
2502.97286835059
 21
-492.1124048687876
 31
0.0
  0
LINE
  5
1AF77
330
18
100
AcDbEntity
  8
0
  6
BYBLOCK
100
AcDbLine
 10
2505.57286835059
 20
-491.4157369747876
 30
0.0
 11
2502.97286835059
 21
-491.4157369747876
 31
0.0
  0
TEXT
  5
1AF78
330
18
100
AcDbEntity
  8
1DIM
  6
CONTINUOUS
100
AcDbText
 10
2431.231638016047
 20
-490.5057369747876
 30
0.0
 40
4.55
  1
138
100
AcDbText
1001
ACAD
1000
DSTYLE
1002
{
1070
    40
1040
1.3
1070
   271
1070
     0
1002
}
  0
VIEWPORT
  5
57
330
15
100
AcDbEntity
 67
     1
  8
0
100
AcDbViewport
 68
     1
 10
0.0
 20
0.0
 30
0.0
 40
555.829865361077
 41
296.9999999999999
 68
     1
 69
     1
1001
ACAD
1000
MVIEW
1002
{
1070
    16
1010
0.0
1020
0.0
1030
0.0
1010
0.0
1020
0.0
1030
1.0
1040
0.0
1040
296.9999999999999
1040
5.728000000000009
1040
25.339
1040
50.0
1040
0.0
1040
0.0
1070
    16
1070
  1000
1070
     0
1070
     1
1070
     0
1070
     0
1070
     0
1070
     0
1040
0.0
1040
0.0
1040
0.0
1040
10.0
1040
10.0
1040
10.0
1040
10.0
1070
     0
1002
{
1002
}
1002
}
  0
ENDSEC
  0
SECTION
  2
OBJECTS
  0
DICTIONARY
  5
C
330
0
100
AcDbDictionary
  3
ACAD_COLOR
350
18D
  3
ACAD_GROUP
350
D
  3
ACAD_LAYOUT
350
18E
  3
ACAD_MATERIAL
350
18C
  3
ACAD_MLEADERSTYLE
350
D9E7
  3
ACAD_MLINESTYLE
350
1B
  3
ACAD_PLOTSETTINGS
350
18F
  3
ACAD_SCALELIST
350
D9C5
  3
ACAD_VISUALSTYLE
350
D9B4
  3
ACDBHEADERROUNDTRIPXREC
350
1AF79
  3
ACDBVARIABLEDICTIONARY
350
37
  3
CONTENTDICTIONARY
350
D8
  3
DRAWINGVARIABLESDICT
350
20
  3
DWGPROPS
350
1AF7C
1001
ACAD
1000
TREAT_AS_HARD
1070
     0
  0
DICTIONARY
  5
E6A6
330
2
100
AcDbDictionary
  3
ACAD_LAYERSTATES
360
E6A7
1001
ACAD
1000
TREAT_AS_HARD
1070
     1
  0
DICTIONARY
  5
DA05
330
E
100
AcDbDictionary
  3
ADSK_XREC_LAYER_RECONCILED
360
DA06
1001
ACAD
1000
TREAT_AS_HARD
1070
     1
  0
DICTIONARY
  5
DA07
330
29
100
AcDbDictionary
  3
ADSK_XREC_LAYER_RECONCILED
360
DA08
1001
ACAD
1000
TREAT_AS_HARD
1070
     1
  0
DICTIONARY
  5
DA09
330
31
100
AcDbDictionary
  3
ADSK_XREC_LAYER_RECONCILED
360
DA0A
1001
ACAD
1000
TREAT_AS_HARD
1070
     1
  0
DICTIONARY
  5
DA0F
330
243
100
AcDbDictionary
  3
ADSK_XREC_LAYER_RECONCILED
360
DA10
1001
ACAD
1000
TREAT_AS_HARD
1070
     1
  0
DICTIONARY
  5
DA15
330
24E
100
AcDbDictionary
  3
ADSK_XREC_LAYER_RECONCILED
360
DA16
1001
ACAD
1000
TREAT_AS_HARD
1070
     1
  0
DICTIONARY
  5
DA23
330
2C05
100
AcDbDictionary
  3
ADSK_XREC_LAYER_RECONCILED
360
DA24
1001
ACAD
1000
TREAT_AS_HARD
1070
     1
  0
DICTIONARY
  5
88F
330
18
100
AcDbDictionary
  3
ACAD_SORTENTS
360
890
1001
ACAD
1000
TREAT_AS_HARD
1070
     1
  0
DICTIONARY
  5
18D
102
{ACAD_REACTORS
330
C
102
}
330
C
100
AcDbDictionary
1001
ACAD
1000
TREAT_AS_HARD
1070
     0
  0
DICTIONARY
  5
D
102
{ACAD_REACTORS
330
C
102
}
330
C
100
AcDbDictionary
1001
ACAD
1000
TREAT_AS_HARD
1070
     0
  0
DICTIONARY
  5
18E
102
{ACAD_REACTORS
330
C
102
}
330
C
100
AcDbDictionary
1001
ACAD
1000
TREAT_AS_HARD
1070
     0
  0
DICTIONARY
  5
18C
102
{ACAD_REACTORS
330
C
102
}
330
C
100
AcDbDictionary
  3
BYBLOCK
350
D9A4
  3
BYLAYER
350
D99C
  3
GLOBAL
350
D9AC
1001
ACAD
1000
TREAT_AS_HARD
1070
     0
  0
DICTIONARY
  5
D9E7
102
{ACAD_REACTORS
330
C
102
}
330
C
100
AcDbDictionary
  3
STANDARD
350
D9E8
1001
ACAD
1000
TREAT_AS_HARD
1070
     0
  0
DICTIONARY
  5
1B
102
{ACAD_REACTORS
330
C
102
}
330
C
100
AcDbDictionary
  3
STANDARD
350
1C
1001
ACAD
1000
TREAT_AS_HARD
1070
     0
  0
DICTIONARY
  5
18F
102
{ACAD_REACTORS
330
C
102
}
330
C
100
AcDbDictionary
1001
ACAD
1000
TREAT_AS_HARD
1070
     0
  0
DICTIONARY
  5
D9C5
102
{ACAD_REACTORS
330
C
102
}
330
C
100
AcDbDictionary
  3
A0
350
D9C6
  3
A1
350
D9C7
  3
A2
350
D9C8
  3
A3
350
D9C9
  3
A4
350
D9CA
  3
A5
350
D9CB
  3
A6
350
D9CC
  3
A7
350
D9CD
  3
A8
350
D9CE
  3
A9
350
D9CF
  3
B0
350
D9D0
  3
B1
350
D9D1
  3
B2
350
D9D2
  3
B3
350
D9D3
  3
B4
350
D9D4
  3
B5
350
D9D5
  3
B6
350
D9D6
  3
B7
350
D9D7
  3
B8
350
D9D8
  3
B9
350
D9D9
  3
C0
350
D9DA
  3
C1
350
D9DB
  3
C2
350
D9DC
  3
C3
350
D9DD
  3
C4
350
D9DE
  3
C5
350
D9DF
  3
C6
350
D9E0
  3
C7
350
D9E1
  3
C8
350
D9E2
  3
C9
350
D9E3
  3
D0
350
D9E4
  3
D1
350
D9E5
  3
D2
350
D9E6
1001
ACAD
1000
TREAT_AS_HARD
1070
     0
  0
DICTIONARY
  5
D9B4
102
{ACAD_REACTORS
330
C
102
}
330
C
100
AcDbDictionary
  3
2DWIREFRAME
350
D9BA
  3
3D_HIDDEN
350
D9BC
  3
3DWIREFRAME
350
D9BB
  3
BASIC
350
D9B9
  3
BRIGHTEN
350
D9C0
  3
COLORCHANGE
350
D9C4
  3
CONCEPTUAL
350
D9BD
  3
DIM
350
D9BF
  3
EDGECOLOROFF
350
19C2F
  3
FACEPATTERN
350
D9C3
  3
FLAT
350
D9B5
  3
FLATWITHEDGES
350
D9B6
  3
GOURAUD
350
D9B7
  3
GOURAUDWITHEDGES
350
D9B8
  3
HIDDEN
350
19C7E
  3
JITTEROFF
350
19C2D
  3
LINEPATTERN
350
D9C2
  3
MODELING
350
19C84
  3
OVERHANGOFF
350
19C2E
  3
REALISTIC
350
D9BE
  3
SHADED
350
19C83
  3
SHADED_WITH_EDGES
350
19C82
  3
SHADES_OF_GRAY
350
19C7F
  3
SKETCHY
350
19C80
  3
THICKEN
350
D9C1
  3
WIREFRAME
350
19C7D
  3
X-RAY
350
19C81
1001
ACAD
1000
TREAT_AS_HARD
1070
     0
  0
DICTIONARY
  5
1AF79
102
{ACAD_REACTORS
330
C
102
}
330
C
100
AcDbDictionary
  3
COLORDICT
350
1AF7A
  3
MATERIALDICT
350
1AF7B
1001
ACAD
1000
TREAT_AS_HARD
1070
     0
  0
DICTIONARY
  5
37
102
{ACAD_REACTORS
330
C
102
}
330
C
100
AcDbDictionary
  3
CANNOSCALE
350
1A7F2
  3
CMLEADERSTYLE
350
DA6A
  3
CTABLESTYLE
350
29E
  3
DIMADEC
350
38
  3
DIMASSOC
350
1CE
  3
HIDETEXT
350
704E
  3
INDEXCTL
350
DA6D
  3
INTERSECTIONCOLOR
350
7052
  3
INTERSECTIONDISPLAY
350
7051
  3
LAYEREVAL
350
1A7A6
  3
LAYERNOTIFY
350
1A7A7
  3
MSLTSCALE
350
1A516
  3
OBSCOLOR
350
704F
  3
OBSLTYPE
350
7050
  3
PROJECTNAME
350
1CF
  3
SORTENTS
350
DA6C
  3
XCLIPFRAME
350
1A7A8
1001
ACAD
1000
TREAT_AS_HARD
1070
     0
  0
DICTIONARY
  5
D8
102
{ACAD_REACTORS
330
C
102
}
330
C
100
AcDbDictionary
1001
ACAD
1000
TREAT_AS_HARD
1070
     0
  0
DICTIONARY
  5
20
102
{ACAD_REACTORS
330
C
102
}
330
C
100
AcDbDictionary
1001
DRAWINGVARIABLESXDATA
1000
POLARANG
1000
0.261799387799149410000000
1000
POLARMODE
1000
1
1000
POLARSTYLE
1000
1
1001
ACAD
1000
TREAT_AS_HARD
1070
     0
  0
XRECORD
  5
1AF7C
102
{ACAD_REACTORS
330
C
102
}
330
C
100
AcDbXrecord
  1
DWGPROPS COOKIE
  2

  3

  4

  6

  7

  8
3684
  9

300
=
301
=
302
=
303
=
304
=
305
=
306
=
307
=
308
=
309
=
 40
0.0
 41
2451318.246352917
 42
2458159.173244213
  1

 90
        0
  0
DICTIONARY
  5
E6A7
102
{ACAD_REACTORS
330
E6A6
102
}
330
E6A6
100
AcDbDictionary
1001
ACAD
1000
TREAT_AS_HARD
1070
     0
  0
ACAD_PROXY_OBJECT
  5
DA06
102
{ACAD_REACTORS
330
DA05
102
}
330
DA05
100
AcDbZombieObject
 90
      499
 91
      514
 93
       34
310
40C8804040
  0
ACAD_PROXY_OBJECT
  5
DA08
102
{ACAD_REACTORS
330
DA07
102
}
330
DA07
100
AcDbZombieObject
 90
      499
 91
      514
 93
       34
310
40C8804040
  0
ACAD_PROXY_OBJECT
  5
DA0A
102
{ACAD_REACTORS
330
DA09
102
}
330
DA09
100
AcDbZombieObject
 90
      499
 91
      514
 93
       34
310
40C8804040
  0
ACAD_PROXY_OBJECT
  5
DA10
102
{ACAD_REACTORS
330
DA0F
102
}
330
DA0F
100
AcDbZombieObject
 90
      499
 91
      514
 93
       34
310
40C8804040
  0
ACAD_PROXY_OBJECT
  5
DA16
102
{ACAD_REACTORS
330
DA15
102
}
330
DA15
100
AcDbZombieObject
 90
      499
 91
      514
 93
       34
310
40C8804040
  0
ACAD_PROXY_OBJECT
  5
DA24
102
{ACAD_REACTORS
330
DA23
102
}
330
DA23
100
AcDbZombieObject
 90
      499
 91
      514
 93
       34
310
40C8804040
  0
SORTENTSTABLE
  5
890
102
{ACAD_REACTORS
330
88F
102
}
330
88F
100
AcDbSortentsTable
330
18
331
0
  5
5BFF
331
1AB3A
  5
1AB5E
331
1AB3B
  5
1AB5F
331
1AB3C
  5
1AB60
331
1AB3D
  5
1AB61
331
1AB3E
  5
1AB62
331
1AB3F
  5
1AB63
331
1AB40
  5
1AB64
331
1AB41
  5
1AB65
331
1AB42
  5
1AB69
331
1AB43
  5
1AB6A
331
1AB44
  5
1AB75
331
1AB45
  5
1AB76
331
1AB46
  5
1AB77
331
1AB47
  5
1AB78
331
1AB48
  5
1AB79
331
1AB49
  5
1AB7A
331
1AB4A
  5
1AB7B
331
1AB4B
  5
1AB7C
331
1AB4C
  5
1AB7D
331
1AB4D
  5
1AB7E
331
1AB4E
  5
1AB7F
331
1AB51
  5
1AB95
331
1AB52
  5
1AB96
331
1AB53
  5
1AB97
331
1AB54
  5
1AB98
331
0
  5
1AB6B
331
1AB57
  5
1AB9F
331
1AB5B
  5
1ABBE
331
1AB5C
  5
1ABBF
331
1AB5D
  5
1ABC0
331
1AB5E
  5
1ABC1
331
1AB5F
  5
1ABC2
331
1AB60
  5
1ABC3
331
1AB61
  5
1ABC4
331
1AB62
  5
1ABC5
331
1AB63
  5
1ABC7
331
1AB64
  5
1ABC8
331
1AB65
  5
1ABC9
331
1AB66
  5
1ABCA
331
1AB67
  5
1ABCB
331
1AB68
  5
1ABCC
331
1AB69
  5
1ABCD
331
1AB6A
  5
1ABCE
331
1AB6B
  5
1ABCF
331
1AB6C
  5
1ABD0
331
1AB6D
  5
1ABD1
331
1AB6E
  5
1ABD2
331
1AB6F
  5
1ABD3
331
1AB70
  5
1ABD4
331
1AB71
  5
1ABD5
331
1AB72
  5
1ABD6
331
1AB73
  5
1ABD7
331
1AB74
  5
1ABD9
331
1AB75
  5
1ABDA
331
1AB76
  5
1ABDB
331
1AB77
  5
1ABDC
331
1AB78
  5
1ABDD
331
1AB79
  5
1ABDE
331
1AB7A
  5
1ABDF
331
1AB7B
  5
1ABE0
331
1AB7C
  5
1ABE1
331
1AB7D
  5
1ABE2
331
1AB7E
  5
1ABE3
331
1AB7F
  5
1ABE7
331
1AB80
  5
1ABE8
331
1AB81
  5
1ABE9
331
1AB82
  5
1ABEA
331
1AB83
  5
1ABEB
331
1AB84
  5
1ABEC
331
1AB85
  5
1ABED
331
1AB86
  5
1ABEE
331
1AB87
  5
1ABEF
331
1AB88
  5
1ABF0
331
1AB89
  5
1ABF1
331
1AB8A
  5
1ABF2
331
1AB8B
  5
1ABF3
331
1AB8C
  5
1ABF7
331
1AB8D
  5
1ABF8
331
1AB8E
  5
1ABFA
331
1AB8F
  5
1ABFB
331
1AB90
  5
1ABFC
331
1AB91
  5
1ABFD
331
1AB92
  5
1ABFE
331
1AB93
  5
1ABFF
331
1AB94
  5
1AC00
331
1AB95
  5
1AC03
331
1AB96
  5
1AC04
331
1AB97
  5
1AC05
331
1AB98
  5
1AC06
331
1AB99
  5
1AC07
331
1AB9A
  5
1AC08
331
1AB9B
  5
1AC09
331
1AB9C
  5
1AC0A
331
1AB9D
  5
1AC0B
331
1AB9E
  5
1AC0C
331
1AB9F
  5
1AC0D
331
1ABA0
  5
1AC0E
331
0
  5
1ABD8
331
1ABA2
  5
1AC1A
331
1ABA3
  5
1AC1B
331
1ABA4
  5
1AC1C
331
1ABA5
  5
1AC1D
331
1ABA6
  5
1AC1E
331
1ABA7
  5
1AC1F
331
1ABA8
  5
1AC20
331
1ABA9
  5
1AC21
331
1ABAA
  5
1AC22
331
1ABAB
  5
1AC23
331
1ABAC
  5
1AC24
331
1ABAD
  5
1AC25
331
1ABAE
  5
1AC26
331
1ABAF
  5
1AC27
331
1ABB0
  5
1AC28
331
1ABB1
  5
1AC29
331
1ABB2
  5
1AC2A
331
1ABB3
  5
1AC2B
331
1ABB4
  5
1AC2C
331
1ABB5
  5
1AC30
331
1ABB6
  5
1AC31
331
1ABB7
  5
1AC32
331
1ABB8
  5
1AC36
331
1ABB9
  5
1AC37
331
1ABBA
  5
1AC38
331
1ABBB
  5
1AC39
331
1ABBC
  5
1AC3A
331
1ABBD
  5
1AC3B
331
1ABBE
  5
1AC3C
331
1ABBF
  5
1AC3D
331
1ABC0
  5
1AC3E
331
1ABC1
  5
1AC3F
331
1ABC2
  5
1AC40
331
1ABC3
  5
1AC41
331
1ABC4
  5
1AC42
331
1ABC5
  5
1AC43
331
1ABC7
  5
1AC4E
331
1ABC8
  5
1AC4F
331
1ABC9
  5
1AC50
331
1ABCA
  5
1AC51
331
1ABCB
  5
1AC52
331
1ABCC
  5
1AC53
331
1ABCD
  5
1AC54
331
1ABCE
  5
1AC55
331
1ABCF
  5
1AC56
331
1ABD0
  5
1AC57
331
1ABD1
  5
1AC58
331
1ABD2
  5
1AC59
331
1ABD3
  5
1AC5A
331
1ABD4
  5
1AC5B
331
1ABD5
  5
1AC5C
331
1ABD6
  5
1AC5D
331
1ABD7
  5
1AC5E
331
1ABD8
  5
1AC5F
331
1ABD9
  5
1AC60
331
1ABDA
  5
1AC61
331
1ABDB
  5
1AC62
331
1ABDC
  5
1AC63
331
1ABDD
  5
1AC64
331
1ABDE
  5
1AC65
331
1ABDF
  5
1AC66
331
1ABE0
  5
1AC68
331
1ABE1
  5
1AC69
331
1ABE2
  5
1AC6A
331
1ABE3
  5
1AC6B
331
1ABE4
  5
1AC6C
331
1ABE5
  5
1AC6D
331
1ABE6
  5
1AC6E
331
1ABE7
  5
1AC6F
331
1ABE8
  5
1AC70
331
1ABE9
  5
1AC71
331
1ABEA
  5
1AC72
331
1ABEB
  5
1AC73
331
1ABEC
  5
1AC74
331
1ABED
  5
1AC75
331
1ABEE
  5
1AC76
331
1ABEF
  5
1AC77
331
1ABF0
  5
1AC78
331
1ABF1
  5
1AC79
331
1ABF2
  5
1AC7A
331
1ABF3
  5
1AC7B
331
1ABF4
  5
1AC7C
331
1ABF5
  5
1AC7D
331
1ABF6
  5
1AC7E
331
1ABF7
  5
1AC7F
331
1ABF8
  5
1AC80
331
1ABFA
  5
1AC8A
331
1ABFB
  5
1AC8B
331
1ABFC
  5
1AC8C
331
1ABFD
  5
1AC8D
331
1ABFE
  5
1AC8E
331
1ABFF
  5
1AC91
331
1AC00
  5
1AC92
331
0
  5
1AC67
331
1AC04
  5
1ACB1
331
1AC05
  5
1ACB2
331
1AC06
  5
1ACB3
331
1AC07
  5
1ACB4
331
1AC08
  5
1AE83
331
1AC09
  5
1AE84
331
1AC0A
  5
1AE85
331
1AC0B
  5
1AE89
331
1AC0C
  5
1AE8A
331
1AC0D
  5
1AE8B
331
1AC0E
  5
1AE8C
331
1AC0F
  5
1AE8D
331
1AC10
  5
1AE8E
331
1AC11
  5
1AE8F
331
1AC12
  5
1AE90
331
1AC13
  5
1AE91
331
1AC14
  5
1AE96
331
1AC15
  5
1AE97
331
1AC17
  5
1AE99
331
1AC18
  5
1AE9A
331
1AC19
  5
1AE9B
331
1AC1A
  5
1AE9C
331
1AC1B
  5
1AE9D
331
1AC1C
  5
1AE9E
331
1AC1D
  5
1AE9F
331
1AC1E
  5
1AEA0
331
1AC1F
  5
1AEA1
331
1AC20
  5
1AEA2
331
1AC21
  5
1AEA3
331
1AC22
  5
1AEA4
331
1AC23
  5
1AEA5
331
1AC24
  5
1AEA6
331
1AC25
  5
1AEA7
331
1AC26
  5
1AEA8
331
1AC27
  5
1AEA9
331
1AC28
  5
1AEAA
331
1AC29
  5
1AEAB
331
1AC2A
  5
1AEAC
331
0
  5
1AC8F
331
0
  5
1AC90
331
1AC2D
  5
1AEC1
331
1AC2E
  5
1AEC2
331
1AC2F
  5
1AEC3
331
1AC30
  5
1AEC4
331
1AC31
  5
1AEC5
331
1AC32
  5
1AEC9
331
1AC33
  5
1AECA
331
1AC34
  5
1AECB
331
1AC35
  5
1AECF
331
1AC36
  5
1AED0
331
1AC37
  5
1AED1
331
1AC38
  5
1AED5
331
1AC39
  5
1AED6
331
1AC3A
  5
1AED7
331
1AC3B
  5
1AEDB
331
1AC3C
  5
1AEDC
331
1AC3D
  5
1AEDD
331
1AC3E
  5
1AEDE
331
1AC3F
  5
1AEDF
331
1AC40
  5
1AEE0
331
1AC41
  5
1AEE1
331
1AC42
  5
1AEE2
331
1AC43
  5
1AEE3
331
1AC44
  5
1AEE4
331
1AC45
  5
1AEE5
331
1AC46
  5
1AEE6
331
1AC47
  5
1AEE7
331
1AC48
  5
1AEE8
331
1AC49
  5
1AEE9
331
1AC4A
  5
1AEEA
331
1AC4B
  5
1AEEB
331
1AC4C
  5
1AEEC
331
1AC4D
  5
1AEED
331
1AC4E
  5
1AEEE
331
1AC4F
  5
1AEEF
331
1AC50
  5
1AEF0
331
1AC51
  5
1AEF1
331
1AC52
  5
1AEF2
331
1AC53
  5
1AEF3
331
1AC54
  5
1AEF4
331
1AC55
  5
1AEF5
331
1AC56
  5
1AEF6
331
1AC57
  5
1AEF7
331
1AC58
  5
1AEF8
331
1AC59
  5
1AEF9
331
1AC5A
  5
1AEFA
331
1AC5B
  5
1AEFB
331
1AC5C
  5
1AEFC
331
1AC5D
  5
1AEFD
331
1AC5E
  5
1AEFE
331
1AC5F
  5
1AEFF
331
1AC60
  5
1AF00
331
1AC61
  5
1AF01
331
1AC62
  5
1AF02
331
0
  5
1AE92
331
0
  5
1AE93
331
0
  5
1AE94
331
0
  5
1AE95
331
1AC67
  5
1AF2B
331
1AC68
  5
1AF2C
331
1AC69
  5
1AF2D
331
1AC6A
  5
1AF2E
331
1AC6B
  5
1AF2F
331
1AC6C
  5
1AF30
331
1AC6D
  5
1AF31
331
1AC6E
  5
1AF32
331
1AC6F
  5
1AF33
331
1AC70
  5
1AF34
331
1AC71
  5
1AF35
331
1AC72
  5
1AF36
331
1AC73
  5
1AF37
331
1AC74
  5
1AF38
331
1AC75
  5
1AF39
331
1AC76
  5
1AF3A
331
1AC77
  5
1AF3B
331
1AC78
  5
1AF3C
331
1AC79
  5
1AF3D
331
1AC7A
  5
1AF3E
331
1AC7B
  5
1AF3F
331
1AC7C
  5
1AF40
331
1AC7D
  5
1AF41
331
1AC7E
  5
1AF42
331
1AC7F
  5
1AF43
331
1AC80
  5
1AF44
331
1AC81
  5
1AF45
331
1AC82
  5
1AF46
331
1AC83
  5
1AF47
331
1AC84
  5
1AF48
331
1AC85
  5
1AF49
331
1AC86
  5
1AF4A
331
1AC87
  5
1AF4B
331
1AC88
  5
1AF4C
331
1AC89
  5
1AF4D
331
1AC8A
  5
1AF4E
331
1AC8B
  5
1AF4F
331
1AC8C
  5
1AF50
331
1AC8D
  5
1AF51
331
1AC8E
  5
1AF52
331
1AC8F
  5
1AF53
331
1AC90
  5
1AF54
331
1AC91
  5
1AF55
331
1AC92
  5
1AF56
331
1AC93
  5
1AF57
331
1AC94
  5
1AF58
331
1AC95
  5
1AF59
331
1AC96
  5
1AF5A
331
1AC97
  5
1AF5B
331
1AC98
  5
1AF5C
331
1AC99
  5
1AF5D
331
1AC9A
  5
1AF5E
331
1AC9B
  5
1AF5F
331
1AC9C
  5
1AF60
331
1AC9D
  5
1AF61
331
1AC9E
  5
1AF62
331
1AC9F
  5
1AF63
331
1ACA0
  5
1AF64
331
1ACA1
  5
1AF65
331
1ACA2
  5
1AF66
331
1ACA3
  5
1AF67
331
1ACA4
  5
1AF68
331
1ACA5
  5
1AF69
331
1ACA6
  5
1AF6A
331
1ACA7
  5
1AF6B
331
1ACA8
  5
1AF6C
331
1ACA9
  5
1AF6D
331
1ACAA
  5
1AF6E
331
1ACAB
  5
1AF6F
331
1ACAC
  5
1AF70
331
1ACAD
  5
1AF71
331
1ACAE
  5
1AF72
331
1ACAF
  5
1AF73
331
1ACB0
  5
1AF74
331
1ACB1
  5
1AF75
331
1ACB2
  5
1AF76
331
1ACB3
  5
1AF77
331
1ACB4
  5
1AF78
331
1AE80
  5
1AB8B
331
1AE81
  5
1AB8C
331
1AE82
  5
1AB8D
331
0
  5
1AB54
331
0
  5
1AB56
331
0
  5
1AB57
331
1AE86
  5
1AB99
331
1AE87
  5
1AB9A
331
1AE88
  5
1ABA0
331
1AE89
  5
1ABA1
331
1AE8A
  5
1ABA2
331
0
  5
1AB66
331
0
  5
1AB67
331
0
  5
1AB68
331
1AE8E
  5
1ABAA
331
1AE8F
  5
1ABAB
331
1AE90
  5
1ABAC
331
0
  5
1AB6C
331
0
  5
1AB6D
331
0
  5
1AB6E
331
1AE94
  5
1ABB4
331
1AE95
  5
1ABB5
331
1AE96
  5
1ABB6
331
0
  5
1AB72
331
0
  5
1AB73
331
0
  5
1AB74
331
1AE9A
  5
1AC44
331
1AE9B
  5
1AC45
331
1AE9C
  5
1AC46
331
0
  5
1ABE4
331
0
  5
1ABE5
331
0
  5
1ABE6
331
1AEA0
  5
1AC81
331
1AEA1
  5
1AC82
331
1AEA2
  5
1AC83
331
1AEA3
  5
1AC84
331
1AEA4
  5
1AC85
331
1AEA5
  5
1AC89
331
1AEA6
  5
1AC93
331
1AEA7
  5
1AC94
331
1AEA8
  5
1AC95
331
0
  5
1AC2D
331
0
  5
1AC2E
331
0
  5
1AC2F
331
1AEAC
  5
1AC9D
331
1AEAD
  5
1AC9E
331
1AEAE
  5
1AC9F
331
0
  5
1AC33
331
0
  5
1AC34
331
0
  5
1AC35
331
1AEB2
  5
1AE98
331
1AEB3
  5
1AB8E
331
1AEB4
  5
1AB8F
331
1AEB5
  5
1AB90
331
1AEB6
  5
1AB91
331
1AEB7
  5
1AB92
331
1AEB8
  5
1AB93
331
1AEB9
  5
1AB94
331
1AEBA
  5
1ABA3
331
1AEBB
  5
1ABA4
331
1AEBC
  5
1ABA5
331
1AEBD
  5
1ABA6
331
1AEBE
  5
1ABA7
331
1AEBF
  5
1ABA8
331
1AEC0
  5
1ABA9
331
1AEC1
  5
1ABAD
331
1AEC2
  5
1ABAE
331
1AEC3
  5
1ABAF
331
1AEC4
  5
1ABB0
331
1AEC5
  5
1ABB1
331
1AEC6
  5
1ABB2
331
1AEC7
  5
1ABB3
331
1AEC8
  5
1ABB7
331
1AEC9
  5
1ABB8
331
1AECA
  5
1ABB9
331
1AECB
  5
1ABBA
331
1AECC
  5
1ABBB
331
1AECD
  5
1ABBC
331
1AECE
  5
1ABBD
331
1AECF
  5
1AC47
331
1AED0
  5
1AC48
331
1AED1
  5
1AC49
331
1AED2
  5
1AC4A
331
1AED3
  5
1AC4B
331
1AED4
  5
1AC4C
331
1AED5
  5
1AC4D
331
1AED6
  5
1AC96
331
1AED7
  5
1AC97
331
1AED8
  5
1AC98
331
1AED9
  5
1AC99
331
1AEDA
  5
1AC9A
331
1AEDB
  5
1AC9B
331
1AEDC
  5
1AC9C
331
1AEDD
  5
1ACA0
331
1AEDE
  5
1ACA1
331
1AEDF
  5
1ACA2
331
1AEE0
  5
1ACA3
331
1AEE1
  5
1ACA4
331
1AEE2
  5
1ACA5
331
1AEE3
  5
1ACA6
331
1AEE4
  5
1AB3A
331
1AEE5
  5
1AB3B
331
1AEE6
  5
1AB3C
331
0
  5
1AB3D
331
0
  5
1AB3E
331
0
  5
1AB3F
331
1AEEA
  5
1AB4A
331
1AEEB
  5
1AB4B
331
1AEEC
  5
1AB4C
331
1AEED
  5
1AB4D
331
0
  5
1AB44
331
0
  5
1AB45
331
0
  5
1AB46
331
1AEF1
  5
1AB80
331
1AEF2
  5
1AB81
331
1AEF3
  5
1AB82
331
0
  5
1AB6F
331
0
  5
1AB70
331
0
  5
1AB71
331
0
  5
1AB85
331
1AEF8
  5
1AB9E
331
1AEF9
  5
1AC0F
331
1AEFA
  5
1AC10
331
1AEFB
  5
1AC11
331
0
  5
1ABF4
331
0
  5
1ABF5
331
0
  5
1ABF6
331
1AEFF
  5
1ACA7
331
1AF00
  5
1ACA8
331
1AF01
  5
1ACA9
331
0
  5
1AC86
331
0
  5
1AC87
331
0
  5
1AC88
331
1AF05
  5
1AEAD
331
1AF06
  5
1AEAE
331
1AF07
  5
1AEAF
331
0
  5
1AE80
331
0
  5
1AE81
331
0
  5
1AE82
331
1AF0B
  5
1AEB7
331
1AF0C
  5
1AEB8
331
1AF0D
  5
1AEB9
331
0
  5
1AE86
331
0
  5
1AE87
331
0
  5
1AE88
331
1AF11
  5
1AF03
331
1AF12
  5
1AF04
331
1AF13
  5
1AF05
331
0
  5
1AEC6
331
0
  5
1AEC7
331
0
  5
1AEC8
331
1AF17
  5
1AF0D
331
1AF18
  5
1AF0E
331
1AF19
  5
1AF0F
331
0
  5
1AECC
331
0
  5
1AECD
331
0
  5
1AECE
331
1AF1D
  5
1AF17
331
1AF1E
  5
1AF18
331
1AF1F
  5
1AF19
331
0
  5
1AED2
331
0
  5
1AED3
331
0
  5
1AED4
331
1AF23
  5
1AF21
331
1AF24
  5
1AF22
331
1AF25
  5
1AF23
331
0
  5
1AED8
331
0
  5
1AED9
331
0
  5
1AEDA
331
1AF29
  5
1AB40
331
1AF2A
  5
1AB41
331
1AF2B
  5
1AB42
331
1AF2C
  5
1AB43
331
1AF2D
  5
1AB47
331
1AF2E
  5
1AB48
331
1AF2F
  5
1AB49
331
1AF30
  5
1AB4E
331
1AF31
  5
1AB51
331
1AF32
  5
1AB52
331
1AF33
  5
1AB53
331
1AF34
  5
1AB5B
331
1AF35
  5
1AB5C
331
1AF36
  5
1AB5D
331
1AF37
  5
1AB83
331
1AF38
  5
1AB84
331
1AF39
  5
1AB86
331
1AF3A
  5
1AB87
331
1AF3B
  5
1AB88
331
1AF3C
  5
1AB89
331
1AF3D
  5
1AB8A
331
1AF3E
  5
1AB9B
331
1AF3F
  5
1AB9C
331
1AF40
  5
1AB9D
331
1AF41
  5
1AC12
331
1AF42
  5
1AC13
331
1AF43
  5
1AC14
331
1AF44
  5
1AC15
331
1AF45
  5
1AC17
331
1AF46
  5
1AC18
331
1AF47
  5
1AC19
331
1AF48
  5
1ACAA
331
1AF49
  5
1ACAB
331
1AF4A
  5
1ACAC
331
1AF4B
  5
1ACAD
331
1AF4C
  5
1ACAE
331
1AF4D
  5
1ACAF
331
1AF4E
  5
1ACB0
331
1AF4F
  5
1AEB0
331
1AF50
  5
1AEB1
331
1AF51
  5
1AEB2
331
1AF52
  5
1AEB3
331
1AF53
  5
1AEB4
331
1AF54
  5
1AEB5
331
1AF55
  5
1AEB6
331
1AF56
  5
1AEBA
331
1AF57
  5
1AEBB
331
1AF58
  5
1AEBC
331
1AF59
  5
1AEBD
331
1AF5A
  5
1AEBE
331
1AF5B
  5
1AEBF
331
1AF5C
  5
1AEC0
331
1AF5D
  5
1AF06
331
1AF5E
  5
1AF07
331
1AF5F
  5
1AF08
331
1AF60
  5
1AF09
331
1AF61
  5
1AF0A
331
1AF62
  5
1AF0B
331
1AF63
  5
1AF0C
331
1AF64
  5
1AF10
331
1AF65
  5
1AF11
331
1AF66
  5
1AF12
331
1AF67
  5
1AF13
331
1AF68
  5
1AF14
331
1AF69
  5
1AF15
331
1AF6A
  5
1AF16
331
1AF6B
  5
1AF1A
331
1AF6C
  5
1AF1B
331
1AF6D
  5
1AF1C
331
1AF6E
  5
1AF1D
331
1AF6F
  5
1AF1E
331
1AF70
  5
1AF1F
331
1AF71
  5
1AF20
331
1AF72
  5
1AF24
331
1AF73
  5
1AF25
331
1AF74
  5
1AF26
331
1AF75
  5
1AF27
331
1AF76
  5
1AF28
331
1AF77
  5
1AF29
331
1AF78
  5
1AF2A
  0
MATERIAL
  5
D9A4
102
{ACAD_REACTORS
330
18C
102
}
102
{ACAD_XDICTIONARY
360
1B117
102
}
330
18C
100
AcDbMaterial
  1
BYBLOCK
 72
     0
 73
     2
 43
0.0208333333333333
 43
0.0
 43
0.0
 43
0.0
 43
0.0
 43
0.0208333333333333
 43
0.0
 43
0.0
 43
0.0
 43
0.0
 43
1.0
 43
0.0
 43
0.0
 43
0.0
 43
0.0
 43
1.0
 77
     0
 78
     2
 47
0.0208333333333333
 47
0.0
 47
0.0
 47
0.0
 47
0.0
 47
0.0208333333333333
 47
0.0
 47
0.0
 47
0.0
 47
0.0
 47
1.0
 47
0.0
 47
0.0
 47
0.0
 47
0.0
 47
1.0
171
     0
172
     2
 49
0.0208333333333333
 49
0.0
 49
0.0
 49
0.0
 49
0.0
 49
0.0208333333333333
 49
0.0
 49
0.0
 49
0.0
 49
0.0
 49
1.0
 49
0.0
 49
0.0
 49
0.0
 49
0.0
 49
1.0
175
     0
176
     2
142
0.0208333333333333
142
0.0
142
0.0
142
0.0
142
0.0
142
0.0208333333333333
142
0.0
142
0.0
142
0.0
142
0.0
142
1.0
142
0.0
142
0.0
142
0.0
142
0.0
142
1.0
179
     0
270
     2
144
0.0208333333333333
144
0.0
144
0.0
144
0.0
144
0.0
144
0.0208333333333333
144
0.0
144
0.0
144
0.0
144
0.0
144
1.0
144
0.0
144
0.0
144
0.0
144
0.0
144
1.0
274
     2
147
0.0208333333333333
147
0.0
147
0.0
147
0.0
147
0.0
147
0.0208333333333333
147
0.0
147
0.0
147
0.0
147
0.0
147
1.0
147
0.0
147
0.0
147
0.0
147
0.0
147
1.0
  0
MATERIAL
  5
D99C
102
{ACAD_REACTORS
330
18C
102
}
102
{ACAD_XDICTIONARY
360
1B119
102
}
330
18C
100
AcDbMaterial
  1
BYLAYER
 72
     0
 73
     2
 43
0.0208333333333333
 43
0.0
 43
0.0
 43
0.0
 43
0.0
 43
0.0208333333333333
 43
0.0
 43
0.0
 43
0.0
 43
0.0
 43
1.0
 43
0.0
 43
0.0
 43
0.0
 43
0.0
 43
1.0
 77
     0
 78
     2
 47
0.0208333333333333
 47
0.0
 47
0.0
 47
0.0
 47
0.0
 47
0.0208333333333333
 47
0.0
 47
0.0
 47
0.0
 47
0.0
 47
1.0
 47
0.0
 47
0.0
 47
0.0
 47
0.0
 47
1.0
171
     0
172
     2
 49
0.0208333333333333
 49
0.0
 49
0.0
 49
0.0
 49
0.0
 49
0.0208333333333333
 49
0.0
 49
0.0
 49
0.0
 49
0.0
 49
1.0
 49
0.0
 49
0.0
 49
0.0
 49
0.0
 49
1.0
175
     0
176
     2
142
0.0208333333333333
142
0.0
142
0.0
142
0.0
142
0.0
142
0.0208333333333333
142
0.0
142
0.0
142
0.0
142
0.0
142
1.0
142
0.0
142
0.0
142
0.0
142
0.0
142
1.0
179
     0
270
     2
144
0.0208333333333333
144
0.0
144
0.0
144
0.0
144
0.0
144
0.0208333333333333
144
0.0
144
0.0
144
0.0
144
0.0
144
1.0
144
0.0
144
0.0
144
0.0
144
0.0
144
1.0
274
     2
147
0.0208333333333333
147
0.0
147
0.0
147
0.0
147
0.0
147
0.0208333333333333
147
0.0
147
0.0
147
0.0
147
0.0
147
1.0
147
0.0
147
0.0
147
0.0
147
0.0
147
1.0
  0
MATERIAL
  5
D9AC
102
{ACAD_REACTORS
330
18C
102
}
102
{ACAD_XDICTIONARY
360
1B11B
102
}
330
18C
100
AcDbMaterial
  1
GLOBAL
 72
     0
 73
     2
 43
0.0208333333333333
 43
0.0
 43
0.0
 43
0.0
 43
0.0
 43
0.0208333333333333
 43
0.0
 43
0.0
 43
0.0
 43
0.0
 43
1.0
 43
0.0
 43
0.0
 43
0.0
 43
0.0
 43
1.0
 77
     0
 78
     2
 47
0.0208333333333333
 47
0.0
 47
0.0
 47
0.0
 47
0.0
 47
0.0208333333333333
 47
0.0
 47
0.0
 47
0.0
 47
0.0
 47
1.0
 47
0.0
 47
0.0
 47
0.0
 47
0.0
 47
1.0
171
     0
172
     2
 49
0.0208333333333333
 49
0.0
 49
0.0
 49
0.0
 49
0.0
 49
0.0208333333333333
 49
0.0
 49
0.0
 49
0.0
 49
0.0
 49
1.0
 49
0.0
 49
0.0
 49
0.0
 49
0.0
 49
1.0
175
     0
176
     2
142
0.0208333333333333
142
0.0
142
0.0
142
0.0
142
0.0
142
0.0208333333333333
142
0.0
142
0.0
142
0.0
142
0.0
142
1.0
142
0.0
142
0.0
142
0.0
142
0.0
142
1.0
179
     0
270
     2
144
0.0208333333333333
144
0.0
144
0.0
144
0.0
144
0.0
144
0.0208333333333333
144
0.0
144
0.0
144
0.0
144
0.0
144
1.0
144
0.0
144
0.0
144
0.0
144
0.0
144
1.0
274
     2
147
0.0208333333333333
147
0.0
147
0.0
147
0.0
147
0.0
147
0.0208333333333333
147
0.0
147
0.0
147
0.0
147
0.0
147
1.0
147
0.0
147
0.0
147
0.0
147
0.0
147
1.0
  0
ACAD_PROXY_OBJECT
  5
D9E8
102
{ACAD_REACTORS
330
D9E7
102
}
330
D9E7
100
AcDbZombieObject
 90
      499
 91
      511
 93
      610
310
40901902A4063FBFFFFFE000000000000002040AD7A3703D0AD73F4214DD185B99185C990000000000000104090141901A00000000000004100000000000000041025764000000000000300FC0
340
12
340
0
340
F
340
0
 94
        0
1001
ACAD_MLEADERVER
1070
     2
  0
MLINESTYLE
  5
1C
102
{ACAD_REACTORS
330
1B
102
}
330
1B
100
AcDbMlineStyle
  2
STANDARD
 70
     0
  3

 62
   256
 51
90.0
 52
90.0
 71
     2
 49
0.5
 62
   256
  6
BYLAYER
 49
-0.5
 62
   256
  6
BYLAYER
  0
ACAD_PROXY_OBJECT
  5
D9C6
102
{ACAD_REACTORS
330
D9C5
102
}
330
D9C5
100
AcDbZombieObject
 90
      499
 91
      510
 93
       41
310
903313A31580
  0
ACAD_PROXY_OBJECT
  5
D9C7
102
{ACAD_REACTORS
330
D9C5
102
}
330
D9C5
100
AcDbZombieObject
 90
      499
 91
      510
 93
      105
310
903313A324000000000000004000
  0
ACAD_PROXY_OBJECT
  5
D9C8
102
{ACAD_REACTORS
330
D9C5
102
}
330
D9C5
100
AcDbZombieObject
 90
      499
 91
      510
 93
      105
310
903313A344000000000000104000
  0
ACAD_PROXY_OBJECT
  5
D9C9
102
{ACAD_REACTORS
330
D9C5
102
}
330
D9C5
100
AcDbZombieObject
 90
      499
 91
      510
 93
      105
310
903313A354000000000000144000
  0
ACAD_PROXY_OBJECT
  5
D9CA
102
{ACAD_REACTORS
330
D9C5
102
}
330
D9C5
100
AcDbZombieObject
 90
      499
 91
      510
 93
      105
310
903313A384000000000000204000
  0
ACAD_PROXY_OBJECT
  5
D9CB
102
{ACAD_REACTORS
330
D9C5
102
}
330
D9C5
100
AcDbZombieObject
 90
      499
 91
      510
 93
      113
310
904313A31304000000000000244000
  0
ACAD_PROXY_OBJECT
  5
D9CC
102
{ACAD_REACTORS
330
D9C5
102
}
330
D9C5
100
AcDbZombieObject
 90
      499
 91
      510
 93
      113
310
904313A31364000000000000304000
  0
ACAD_PROXY_OBJECT
  5
D9CD
102
{ACAD_REACTORS
330
D9C5
102
}
330
D9C5
100
AcDbZombieObject
 90
      499
 91
      510
 93
      113
310
904313A32304000000000000344000
  0
ACAD_PROXY_OBJECT
  5
D9CE
102
{ACAD_REACTORS
330
D9C5
102
}
330
D9C5
100
AcDbZombieObject
 90
      499
 91
      510
 93
      113
310
904313A333040000000000003E4000
  0
ACAD_PROXY_OBJECT
  5
D9CF
102
{ACAD_REACTORS
330
D9C5
102
}
330
D9C5
100
AcDbZombieObject
 90
      499
 91
      510
 93
      113
310
904313A34304000000000000444000
  0
ACAD_PROXY_OBJECT
  5
D9D0
102
{ACAD_REACTORS
330
D9C5
102
}
330
D9C5
100
AcDbZombieObject
 90
      499
 91
      510
 93
      113
310
904313A35304000000000000494000
  0
ACAD_PROXY_OBJECT
  5
D9D1
102
{ACAD_REACTORS
330
D9C5
102
}
330
D9C5
100
AcDbZombieObject
 90
      499
 91
      510
 93
      121
310
905313A3130304000000000000594000
  0
ACAD_PROXY_OBJECT
  5
D9D2
102
{ACAD_REACTORS
330
D9C5
102
}
330
D9C5
100
AcDbZombieObject
 90
      499
 91
      510
 93
      105
310
903323A310000000000000010100
  0
ACAD_PROXY_OBJECT
  5
D9D3
102
{ACAD_REACTORS
330
D9C5
102
}
330
D9C5
100
AcDbZombieObject
 90
      499
 91
      510
 93
      105
310
903343A310000000000000410100
  0
ACAD_PROXY_OBJECT
  5
D9D4
102
{ACAD_REACTORS
330
D9C5
102
}
330
D9C5
100
AcDbZombieObject
 90
      499
 91
      510
 93
      105
310
903383A310000000000000810100
  0
ACAD_PROXY_OBJECT
  5
D9D5
102
{ACAD_REACTORS
330
D9C5
102
}
330
D9C5
100
AcDbZombieObject
 90
      499
 91
      510
 93
      113
310
90431303A310000000000000910100
  0
ACAD_PROXY_OBJECT
  5
D9D6
102
{ACAD_REACTORS
330
D9C5
102
}
330
D9C5
100
AcDbZombieObject
 90
      499
 91
      510
 93
      121
310
9053130303A310000000000001650100
  0
ACAD_PROXY_OBJECT
  5
D9D7
102
{ACAD_REACTORS
330
D9C5
102
}
330
D9C5
100
AcDbZombieObject
 90
      499
 91
      510
 93
      257
310
90E312F31323822203D2031272D3022000000000000200FC000000000000284000
  0
ACAD_PROXY_OBJECT
  5
D9D8
102
{ACAD_REACTORS
330
D9C5
102
}
330
D9C5
100
AcDbZombieObject
 90
      499
 91
      510
 93
      249
310
90D312F363422203D2031272D3022000000000000240FC000000000000284000
  0
ACAD_PROXY_OBJECT
  5
D9D9
102
{ACAD_REACTORS
330
D9C5
102
}
330
D9C5
100
AcDbZombieObject
 90
      499
 91
      510
 93
      249
310
90D312F333222203D2031272D3022000000000000280FC000000000000284000
  0
ACAD_PROXY_OBJECT
  5
D9DA
102
{ACAD_REACTORS
330
D9C5
102
}
330
D9C5
100
AcDbZombieObject
 90
      499
 91
      510
 93
      249
310
90D312F313622203D2031272D30220000000000002C0FC000000000000284000
  0
ACAD_PROXY_OBJECT
  5
D9DB
102
{ACAD_REACTORS
330
D9C5
102
}
330
D9C5
100
AcDbZombieObject
 90
      499
 91
      510
 93
      249
310
90D332F333222203D2031272D30220000000000002E0FC000000000000284000
  0
ACAD_PROXY_OBJECT
  5
D9DC
102
{ACAD_REACTORS
330
D9C5
102
}
330
D9C5
100
AcDbZombieObject
 90
      499
 91
      510
 93
      241
310
90C312F3822203D2031272D3022000000000000300FC000000000000284000
  0
ACAD_PROXY_OBJECT
  5
D9DD
102
{ACAD_REACTORS
330
D9C5
102
}
330
D9C5
100
AcDbZombieObject
 90
      499
 91
      510
 93
      249
310
90D332F313622203D2031272D3022000000000000320FC000000000000284000
  0
ACAD_PROXY_OBJECT
  5
D9DE
102
{ACAD_REACTORS
330
D9C5
102
}
330
D9C5
100
AcDbZombieObject
 90
      499
 91
      510
 93
      241
310
90C312F3422203D2031272D3022000000000000340FC000000000000284000
  0
ACAD_PROXY_OBJECT
  5
D9DF
102
{ACAD_REACTORS
330
D9C5
102
}
330
D9C5
100
AcDbZombieObject
 90
      499
 91
      510
 93
      241
310
90C332F3822203D2031272D3022000000000000360FC000000000000284000
  0
ACAD_PROXY_OBJECT
  5
D9E0
102
{ACAD_REACTORS
330
D9C5
102
}
330
D9C5
100
AcDbZombieObject
 90
      499
 91
      510
 93
      241
310
90C312F3222203D2031272D3022000000000000380FC000000000000284000
  0
ACAD_PROXY_OBJECT
  5
D9E1
102
{ACAD_REACTORS
330
D9C5
102
}
330
D9C5
100
AcDbZombieObject
 90
      499
 91
      510
 93
      241
310
90C332F3422203D2031272D30220000000000003A0FC000000000000284000
  0
ACAD_PROXY_OBJECT
  5
D9E2
102
{ACAD_REACTORS
330
D9C5
102
}
330
D9C5
100
AcDbZombieObject
 90
      499
 91
      510
 93
      161
310
90A3122203D2031272D30224000000000000284000
  0
ACAD_PROXY_OBJECT
  5
D9E3
102
{ACAD_REACTORS
330
D9C5
102
}
330
D9C5
100
AcDbZombieObject
 90
      499
 91
      510
 93
      257
310
90E312D312F3222203D2031272D30220000000000003E0FC000000000000284000
  0
ACAD_PROXY_OBJECT
  5
D9E4
102
{ACAD_REACTORS
330
D9C5
102
}
330
D9C5
100
AcDbZombieObject
 90
      499
 91
      510
 93
      225
310
90A3322203D2031272D302200000000000002100000000000000284000
  0
ACAD_PROXY_OBJECT
  5
D9E5
102
{ACAD_REACTORS
330
D9C5
102
}
330
D9C5
100
AcDbZombieObject
 90
      499
 91
      510
 93
      225
310
90A3622203D2031272D302200000000000006100000000000000284000
  0
ACAD_PROXY_OBJECT
  5
D9E6
102
{ACAD_REACTORS
330
D9C5
102
}
330
D9C5
100
AcDbZombieObject
 90
      499
 91
      510
 93
      249
310
90D31272D3022203D2031272D30220000000000000A100000000000000284000
  0
ACAD_PROXY_OBJECT
  5
D9BA
102
{ACAD_REACTORS
330
D9B4
102
}
330
D9B4
100
AcDbZombieObject
 90
      499
 91
      509
 93
      436
310
42CC9915DA5C99599C985B595049028333333333333E3BF0000000000000FB0107901411070040501600405405064090741402480A0340
1001
ACAD
1000
AcDbSavedByObjectVersion
1070
     0
  0
ACAD_PROXY_OBJECT
  5
D9BC
102
{ACAD_REACTORS
330
D9B4
102
}
330
D9B4
100
AcDbZombieObject
 90
      499
 91
      509
 93
      500
310
424CD108121A5919195B90640502408333333333333E3BF0000000000000FB01079024090700405020000000000001110200405405064090740C02480A0340
1001
ACAD
1000
AcDbSavedByObjectVersion
1070
     0
  0
ACAD_PROXY_OBJECT
  5
D9BB
102
{ACAD_REACTORS
330
D9B4
102
}
330
D9B4
100
AcDbZombieObject
 90
      499
 91
      509
 93
      436
310
42CCD915DA5C99599C985B595059028333333333333E3BF0000000000000FB0107901411070040501600405405064090741402480A0340
1001
ACAD
1000
AcDbSavedByObjectVersion
1070
     0
  0
ACAD_PROXY_OBJECT
  5
D9B9
102
{ACAD_REACTORS
330
D9B4
102
}
330
D9B4
100
AcDbZombieObject
 90
      499
 91
      509
 93
      388
310
4150985CDA58D07406404333333333333E3BF0000000000000FB0107A41107004050150841D405064090741402480A0350
1001
ACAD
1000
AcDbSavedByObjectVersion
1070
     0
  0
ACAD_PROXY_OBJECT
  5
D9C0
102
{ACAD_REACTORS
330
D9B4
102
}
330
D9B4
100
AcDbZombieObject
 90
      499
 91
      509
 93
      428
310
42109C9A59DA1D195B90C409028333333333333E3BF0000000000000FB010790141107004050150841D405064090741402480A029950
1001
ACAD
1000
AcDbSavedByObjectVersion
1070
     0
  0
ACAD_PROXY_OBJECT
  5
D9C4
102
{ACAD_REACTORS
330
D9B4
102
}
330
D9B4
100
AcDbZombieObject
 90
      499
 91
      509
 93
      452
310
42D0DBDB1BDC90DA185B99D95104090240C333333333333E3BF0000000000000FB0108901411070040501508421405064090741402480A0350
1001
ACAD
1000
AcDbSavedByObjectVersion
1070
     0
  0
ACAD_PROXY_OBJECT
  5
D9BD
102
{ACAD_REACTORS
330
D9B4
102
}
330
D9B4
100
AcDbZombieObject
 90
      499
 91
      509
 93
      500
310
4290DBDB98D95C1D1D585B10940D028333333333333E3BF0000000000000FB0107902409070040501000000000000111010841D405064090740C02480A0340
1001
ACAD
1000
AcDbSavedByObjectVersion
1070
     0
  0
ACAD_PROXY_OBJECT
  5
D9BF
102
{ACAD_REACTORS
330
D9B4
102
}
330
D9B4
100
AcDbZombieObject
 90
      499
 91
      509
 93
      412
310
40D11A5B50B409028333333333333E3BF0000000000000FB010790141107004050150841D405064090741402480A02677FFFFFD0
1001
ACAD
1000
AcDbSavedByObjectVersion
1070
     0
  0
ACAD_PROXY_OBJECT
  5
19C2F
102
{ACAD_REACTORS
330
D9B4
102
}
330
D9B4
100
AcDbZombieObject
 90
      499
 91
      509
 93
      452
310
43115919D950DBDB1BDC93D999916409028333333333333E3BF0000000000000FB010790141107004050150841D405064090741402480A0350
1001
ACAD
1000
AcDbSavedByObjectVersion
1070
     0
  0
ACAD_PROXY_OBJECT
  5
D9C3
102
{ACAD_REACTORS
330
D9B4
102
}
330
D9B4
100
AcDbZombieObject
 90
      499
 91
      509
 93
      444
310
42D19858D95C185D1D195C9B90F409028333333333333E3BF0000000000000FB010790141107004050150841D405064090741402480A0350
1001
ACAD
1000
AcDbSavedByObjectVersion
1070
     0
  0
ACAD_PROXY_OBJECT
  5
D9B5
102
{ACAD_REACTORS
330
D9B4
102
}
330
D9B4
100
AcDbZombieObject
 90
      499
 91
      509
 93
      388
310
41119B185D240901404333333333333E3BF0000000000000F9010740A41107004050150841D405064090741402480A1B50
1001
ACAD
1000
AcDbSavedByObjectVersion
1070
     0
  0
ACAD_PROXY_OBJECT
  5
D9B6
102
{ACAD_REACTORS
330
D9B4
102
}
330
D9B4
100
AcDbZombieObject
 90
      499
 91
      509
 93
      476
310
43519B185D15DA5D1A115919D95CD0140901404333333333333E3BF0000000000000F9010740901411070040501600405405064090741402480A1B50
1001
ACAD
1000
AcDbSavedByObjectVersion
1070
     0
  0
ACAD_PROXY_OBJECT
  5
D9B7
102
{ACAD_REACTORS
330
D9B4
102
}
330
D9B4
100
AcDbZombieObject
 90
      499
 91
      509
 93
      412
310
41D1DBDD5C985D5910240902404333333333333E3BF0000000000000F9010740A411070040501641D405064090741402480A1B50
1001
ACAD
1000
AcDbSavedByObjectVersion
1070
     0
  0
ACAD_PROXY_OBJECT
  5
D9B8
102
{ACAD_REACTORS
330
D9B4
102
}
330
D9B4
100
AcDbZombieObject
 90
      499
 91
      509
 93
      500
310
4411DBDD5C985D5915DA5D1A115919D95CD0340902404333333333333E3BF0000000000000F9010740901411070040501600405405064090741402480A1B50
1001
ACAD
1000
AcDbSavedByObjectVersion
1070
     0
  0
ACAD_PROXY_OBJECT
  5
19C7E
102
{ACAD_REACTORS
330
D9B4
102
}
330
D9B4
100
AcDbZombieObject
 90
      499
 91
      509
 93
      476
310
41921A5919195B90640502408333333333333E3BF0000000000000FB01079024090700405020000000000001110200405405064090740C02480A0340
1001
ACAD
1000
AcDbSavedByObjectVersion
1070
     0
  0
ACAD_PROXY_OBJECT
  5
19C2D
102
{ACAD_REACTORS
330
D9B4
102
}
330
D9B4
100
AcDbZombieObject
 90
      499
 91
      509
 93
      428
310
42529A5D1D195C93D999914409028333333333333E3BF0000000000000FB010790141107004050150A41D405064090741402480A0350
1001
ACAD
1000
AcDbSavedByObjectVersion
1070
     0
  0
ACAD_PROXY_OBJECT
  5
D9C2
102
{ACAD_REACTORS
330
D9B4
102
}
330
D9B4
100
AcDbZombieObject
 90
      499
 91
      509
 93
      444
310
42D31A5B995C185D1D195C9B90E409028333333333333E3BF0000000000000FB010790141107004050750841D405064090741402483A0350
1001
ACAD
1000
AcDbSavedByObjectVersion
1070
     0
  0
ACAD_PROXY_OBJECT
  5
19C84
102
{ACAD_REACTORS
330
D9B4
102
}
330
D9B4
100
AcDbZombieObject
 90
      499
 91
      509
 93
      484
310
42135BD9195B1A5B99D0A409028333333333333E3BF0000000000000F901074090290700405010000000000201990108421405064090741402480A1B40
1001
ACAD
1000
AcDbSavedByObjectVersion
1070
     0
  0
ACAD_PROXY_OBJECT
  5
19C2E
102
{ACAD_REACTORS
330
D9B4
102
}
330
D9B4
100
AcDbZombieObject
 90
      499
 91
      509
 93
      444
310
42D3DD995C9A185B99D3D999915409028333333333333E3BF0000000000000FB010790141107004050150941D405064090741402480A0350
1001
ACAD
1000
AcDbSavedByObjectVersion
1070
     0
  0
ACAD_PROXY_OBJECT
  5
D9BE
102
{ACAD_REACTORS
330
D9B4
102
}
330
D9B4
100
AcDbZombieObject
 90
      499
 91
      509
 93
      420
310
425499585B1A5CDD1A58D08409028333333333333E3BF0000000000000FB01079019070040501508421405064090741402480A1B40
1001
ACAD
1000
AcDbSavedByObjectVersion
1070
     0
  0
ACAD_PROXY_OBJECT
  5
19C83
102
{ACAD_REACTORS
330
D9B4
102
}
330
D9B4
100
AcDbZombieObject
 90
      499
 91
      509
 93
      420
310
4194DA1859195911B40902404333333333333E3BF0000000000000F9010740A41107004050150800405405064090840C02480A0B40
1001
ACAD
1000
AcDbSavedByObjectVersion
1070
     0
  0
ACAD_PROXY_OBJECT
  5
19C82
102
{ACAD_REACTORS
330
D9B4
102
}
330
D9B4
100
AcDbZombieObject
 90
      499
 91
      509
 93
      516
310
4454DA18591959081DDA5D1A08195919D95CD1A40902404333333333333E3BF0000000000000F901074090142907004050250800405405064090740C02480A0B40
1001
ACAD
1000
AcDbSavedByObjectVersion
1070
     0
  0
ACAD_PROXY_OBJECT
  5
19C7F
102
{ACAD_REACTORS
330
D9B4
102
}
330
D9B4
100
AcDbZombieObject
 90
      499
 91
      509
 93
      532
310
4394DA1859195CC81BD98811DC985E5174090240C333333333333E3BF0000000000000FB01079024090741D01000000000000111010841D405064090740C02480A0340
1001
ACAD
1000
AcDbSavedByObjectVersion
1070
     0
  0
ACAD_PROXY_OBJECT
  5
19C80
102
{ACAD_REACTORS
330
D9B4
102
}
330
D9B4
100
AcDbZombieObject
 90
      499
 91
      509
 93
      476
310
41D4DAD95D18DA1E51840502408333333333333E3BF0000000000000FB01079024090741D01000000000000111010B41D405064090741802480A0340
1001
ACAD
1000
AcDbSavedByObjectVersion
1070
     0
  0
ACAD_PROXY_OBJECT
  5
D9C1
102
{ACAD_REACTORS
330
D9B4
102
}
330
D9B4
100
AcDbZombieObject
 90
      499
 91
      509
 93
      412
310
41D51A1A58DAD95B90D409028333333333333E3BF0000000000000FB010790141107004050150C41D405064090741402480A0350
1001
ACAD
1000
AcDbSavedByObjectVersion
1070
     0
  0
ACAD_PROXY_OBJECT
  5
19C7D
102
{ACAD_REACTORS
330
D9B4
102
}
330
D9B4
100
AcDbZombieObject
 90
      499
 91
      509
 93
      420
310
4255DA5C99599C985B595059028333333333333E3BF0000000000000FB0107901411070040501600405405064090740C02480A0340
1001
ACAD
1000
AcDbSavedByObjectVersion
1070
     0
  0
ACAD_PROXY_OBJECT
  5
19C81
102
{ACAD_REACTORS
330
D9B4
102
}
330
D9B4
100
AcDbZombieObject
 90
      499
 91
      509
 93
      404
310
41560B54985E51940902404000000000000E03F0000000000000FB010740501907004050150841D405064090740C02480A1B40
1001
ACAD
1000
AcDbSavedByObjectVersion
1070
     0
  0
XRECORD
  5
1AF7A
102
{ACAD_REACTORS
330
1AF79
102
}
330
1AF79
100
AcDbXrecord
340
18D
  0
XRECORD
  5
1AF7B
102
{ACAD_REACTORS
330
1AF79
102
}
330
1AF79
100
AcDbXrecord
340
18C
  0
DICTIONARYVAR
  5
1A7F2
102
{ACAD_REACTORS
330
37
102
}
330
37
100
DictionaryVariables
280
     0
  1
1:1
  0
DICTIONARYVAR
  5
DA6A
102
{ACAD_REACTORS
330
37
102
}
330
37
100
DictionaryVariables
280
     0
  1
Standard
  0
DICTIONARYVAR
  5
29E
102
{ACAD_REACTORS
330
37
102
}
330
37
100
DictionaryVariables
280
     0
  1
Standard
  0
DICTIONARYVAR
  5
38
102
{ACAD_REACTORS
330
37
102
}
330
37
100
DictionaryVariables
280
     0
  1
-1
  0
DICTIONARYVAR
  5
1CE
102
{ACAD_REACTORS
330
37
102
}
330
37
100
DictionaryVariables
280
     0
  1
2
  0
DICTIONARYVAR
  5
704E
102
{ACAD_REACTORS
330
37
102
}
330
37
100
DictionaryVariables
280
     0
  1
1
  0
DICTIONARYVAR
  5
DA6D
102
{ACAD_REACTORS
330
37
102
}
330
37
100
DictionaryVariables
280
     0
  1
0
  0
DICTIONARYVAR
  5
7052
102
{ACAD_REACTORS
330
37
102
}
330
37
100
DictionaryVariables
280
     0
  1
8
  0
DICTIONARYVAR
  5
7051
102
{ACAD_REACTORS
330
37
102
}
330
37
100
DictionaryVariables
280
     0
  1
1
  0
DICTIONARYVAR
  5
1A7A6
102
{ACAD_REACTORS
330
37
102
}
330
37
100
DictionaryVariables
280
     0
  1
0
  0
DICTIONARYVAR
  5
1A7A7
102
{ACAD_REACTORS
330
37
102
}
330
37
100
DictionaryVariables
280
     0
  1
0
  0
DICTIONARYVAR
  5
1A516
102
{ACAD_REACTORS
330
37
102
}
330
37
100
DictionaryVariables
280
     0
  1
0
  0
DICTIONARYVAR
  5
704F
102
{ACAD_REACTORS
330
37
102
}
330
37
100
DictionaryVariables
280
     0
  1
120
  0
DICTIONARYVAR
  5
7050
102
{ACAD_REACTORS
330
37
102
}
330
37
100
DictionaryVariables
280
     0
  1
0
  0
DICTIONARYVAR
  5
1CF
102
{ACAD_REACTORS
330
37
102
}
330
37
100
DictionaryVariables
280
     0
  1

  0
DICTIONARYVAR
  5
DA6C
102
{ACAD_REACTORS
330
37
102
}
330
37
100
DictionaryVariables
280
     0
  1
127
  0
DICTIONARYVAR
  5
1A7A8
102
{ACAD_REACTORS
330
37
102
}
330
37
100
DictionaryVariables
280
     0
  1
2
  0
DICTIONARY
  5
1B117
330
D9A4
100
AcDbDictionary
  3
ACAD_XREC_ROUNDTRIP
360
1B118
1001
ACAD
1000
TREAT_AS_HARD
1070
     1
  0
DICTIONARY
  5
1B119
330
D99C
100
AcDbDictionary
  3
ACAD_XREC_ROUNDTRIP
360
1B11A
1001
ACAD
1000
TREAT_AS_HARD
1070
     1
  0
DICTIONARY
  5
1B11B
330
D9AC
100
AcDbDictionary
  3
ACAD_XREC_ROUNDTRIP
360
1B11C
1001
ACAD
1000
TREAT_AS_HARD
1070
     1
  0
XRECORD
  5
1B118
102
{ACAD_REACTORS
330
1B117
102
}
330
1B117
100
AcDbXrecord
102
MATERIAL
148
0.0
149
0.0
149
0.0
 93
        0
 94
      127
282
     0
 72
     0
 77
     0
171
     0
175
     0
179
     0
273
     0
  0
XRECORD
  5
1B11A
102
{ACAD_REACTORS
330
1B119
102
}
330
1B119
100
AcDbXrecord
102
MATERIAL
148
0.0
149
0.0
149
0.0
 93
        0
 94
      127
282
     0
 72
     0
 77
     0
171
     0
175
     0
179
     0
273
     0
  0
XRECORD
  5
1B11C
102
{ACAD_REACTORS
330
1B11B
102
}
330
1B11B
100
AcDbXrecord
102
MATERIAL
148
0.0
149
0.0
149
0.0
 93
        0
 94
      127
282
     0
 72
     0
 77
     0
171
     0
175
     0
179
     0
273
     0
  0
ENDSEC
  0
EOF
