  0
SECTION
  2
HEADER
  9
$ACADVER
  1
AC1009
  9
$INSBASE
 10
0.0
 20
0.0
 30
0.0
  9
$EXTMIN
 10
2390.8301788992981
 20
-399.84700369006828
 30
-0.0000000000563712
  9
$EXTMAX
 10
3017.1303333638589
 20
16.65353593447082
 30
0.0
  9
$LIMMIN
 10
0.0
 20
0.0
  9
$LIMMAX
 10
420.0
 20
297.0
  9
$ORTHOMODE
 70
     0
  9
$REGENMODE
 70
     1
  9
$FILLMODE
 70
     1
  9
$QTEXTMODE
 70
     0
  9
$MIRRTEXT
 70
     0
  9
$DRAGMODE
 70
     2
  9
$LTSCALE
 40
0.5
  9
$OSMODE
 70
    63
  9
$ATTMODE
 70
     1
  9
$TEXTSIZE
 40
4.0
  9
$TRACEWID
 40
1.0
  9
$TEXTSTYLE
  7
STANDARD
  9
$CLAYER
  8
1TEXT
  9
$CELTYPE
  6
BYLAYER
  9
$CECOLOR
 62
   256
  9
$DIMSCALE
 40
1.0
  9
$DIMASZ
 40
2.0
  9
$DIMEXO
 40
0.0
  9
$DIMDLI
 40
7.0
  9
$DIMRND
 40
0.0
  9
$DIMDLE
 40
0.0
  9
$DIMEXE
 40
1.0
  9
$DIMTP
 40
0.0
  9
$DIMTM
 40
0.0
  9
$DIMTXT
 40
3.5
  9
$DIMCEN
 40
0.0
  9
$DIMTSZ
 40
0.0
  9
$DIMTOL
 70
     0
  9
$DIMLIM
 70
     0
  9
$DIMTIH
 70
     0
  9
$DIMTOH
 70
     0
  9
$DIMSE1
 70
     0
  9
$DIMSE2
 70
     0
  9
$DIMTAD
 70
     1
  9
$DIMZIN
 70
     8
  9
$DIMBLK
  1

  9
$DIMASO
 70
     1
  9
$DIMSHO
 70
     1
  9
$DIMPOST
  1
 
  9
$DIMAPOST
  1

  9
$DIMALT
 70
     0
  9
$DIMALTD
 70
     2
  9
$DIMALTF
 40
25.399999999999999
  9
$DIMLFAC
 40
1.0
  9
$DIMTOFL
 70
     1
  9
$DIMTVP
 40
0.0
  9
$DIMTIX
 70
     0
  9
$DIMSOXD
 70
     0
  9
$DIMSAH
 70
     1
  9
$DIMBLK1
  1
OPEN30
  9
$DIMBLK2
  1
OPEN30
  9
$DIMSTYLE
  2
NEWX10
  9
$DIMCLRD
 70
   256
  9
$DIMCLRE
 70
   256
  9
$DIMCLRT
 70
   201
  9
$DIMTFAC
 40
0.7
  9
$DIMGAP
 40
0.7
  9
$LUNITS
 70
     2
  9
$LUPREC
 70
     4
  9
$SKETCHINC
 40
1.0
  9
$FILLETRAD
 40
0.0
  9
$AUNITS
 70
     0
  9
$AUPREC
 70
     2
  9
$MENU
  1
acad
  9
$ELEVATION
 40
0.0
  9
$PELEVATION
 40
0.0
  9
$THICKNESS
 40
0.0
  9
$LIMCHECK
 70
     0
  9
$BLIPMODE
 70
     0
  9
$CHAMFERA
 40
10.0
  9
$CHAMFERB
 40
10.0
  9
$SKPOLY
 70
     0
  9
$TDCREATE
 40
2451318.621352917
  9
$TDUPDATE
 40
2457028.4460499771
  9
$TDINDWG
 40
1.3717344676000001
  9
$TDUSRTIMER
 40
1.3717344676000001
  9
$USRTIMER
 70
     1
  9
$ANGBASE
 50
0.0
  9
$ANGDIR
 70
     0
  9
$PDMODE
 70
     0
  9
$PDSIZE
 40
0.0
  9
$PLINEWID
 40
0.0
  9
$COORDS
 70
     0
  9
$SPLFRAME
 70
     0
  9
$SPLINETYPE
 70
     6
  9
$SPLINESEGS
 70
     8
  9
$ATTDIA
 70
     0
  9
$ATTREQ
 70
     1
  9
$HANDLING
 70
     1
  9
$HANDSEED
  5
1A6C4
  9
$SURFTAB1
 70
     6
  9
$SURFTAB2
 70
     6
  9
$SURFTYPE
 70
     6
  9
$SURFU
 70
     6
  9
$SURFV
 70
     6
  9
$UCSNAME
  2

  9
$UCSORG
 10
0.0
 20
0.0
 30
0.0
  9
$UCSXDIR
 10
1.0
 20
0.0
 30
0.0
  9
$UCSYDIR
 10
0.0
 20
1.0
 30
0.0
  9
$PUCSNAME
  2

  9
$PUCSORG
 10
0.0
 20
0.0
 30
0.0
  9
$PUCSXDIR
 10
1.0
 20
0.0
 30
0.0
  9
$PUCSYDIR
 10
0.0
 20
1.0
 30
0.0
  9
$USERI1
 70
     0
  9
$USERI2
 70
     0
  9
$USERI3
 70
     0
  9
$USERI4
 70
     0
  9
$USERI5
 70
     0
  9
$USERR1
 40
0.0
  9
$USERR2
 40
0.0
  9
$USERR3
 40
0.0
  9
$USERR4
 40
0.0
  9
$USERR5
 40
0.0
  9
$WORLDVIEW
 70
     1
  9
$SHADEDGE
 70
     3
  9
$SHADEDIF
 70
    70
  9
$TILEMODE
 70
     1
  9
$MAXACTVP
 70
    48
  9
$PLIMCHECK
 70
     0
  9
$PEXTMIN
 10
1.0000000000000000E+020
 20
1.0000000000000000E+020
 30
1.0000000000000000E+020
  9
$PEXTMAX
 10
-1.0000000000000000E+020
 20
-1.0000000000000000E+020
 30
-1.0000000000000000E+020
  9
$PLIMMIN
 10
0.0
 20
0.0
  9
$PLIMMAX
 10
420.0
 20
297.0
  9
$UNITMODE
 70
     0
  9
$VISRETAIN
 70
     1
  9
$PLINEGEN
 70
     0
  9
$PSLTSCALE
 70
     1
  0
ENDSEC
  0
SECTION
  2
TABLES
  0
TABLE
  2
VPORT
 70
     1
  0
VPORT
  2
*ACTIVE
 70
     0
 10
0.0
 20
0.0
 11
1.0
 21
1.0
 12
2703.9354922643529
 22
-191.593569144046
 13
0.0
 23
0.0
 14
10.0
 24
10.0
 15
10.0
 25
10.0
 16
0.0
 26
0.0
 36
1.0
 17
0.0
 27
0.0
 37
0.0
 40
441.7330732204889
 41
2.1749379652605461
 42
50.0
 43
0.0
 44
0.0
 50
0.0
 51
0.0
 71
     0
 72
   100
 73
     1
 74
     1
 75
     0
 76
     0
 77
     0
 78
     0
  0
ENDTAB
  0
TABLE
  2
LTYPE
 70
    12
  0
LTYPE
  2
CONTINUOUS
 70
     0
  3
Solid line
 72
    65
 73
     0
 40
0.0
  0
LTYPE
  2
XREF1|CENTER2
 70
    48
  3
Center (.5x) ___ _ ___ _ ___ _ ___ _ ___ _ ___
 72
    65
 73
     4
 40
28.574999999999999
 49
19.050000000000001
 49
-3.1749999999999989
 49
3.1749999999999989
 49
-3.1749999999999989
  0
LTYPE
  2
A3WAKUDAKE|CENTER2
 70
    48
  3
Center (.5x) ___ _ ___ _ ___ _ ___ _ ___ _ ___
 72
    65
 73
     4
 40
28.574999999999999
 49
19.050000000000001
 49
-3.1749999999999989
 49
3.1749999999999989
 49
-3.1749999999999989
  0
LTYPE
  2
PHANTOM2
 70
     0
  3
Phantom (.5x) ___ _ _ ___ _ _ ___ _ _ ___ _ _
 72
    65
 73
     6
 40
31.75
 49
15.875
 49
-3.1749999999999989
 49
3.1749999999999989
 49
-3.1749999999999989
 49
3.1749999999999989
 49
-3.1749999999999989
  0
ENDTAB
  0
TABLE
  2
LAYER
 70
    50
  0
LAYER
  2
0
 70
     0
 62
     7
  6
CONTINUOUS
  0
LAYER
  2
1TEXT
 70
     0
 62
     7
  6
CONTINUOUS
  0
LAYER
  2
01
 70
     0
 62
     1
  6
CONTINUOUS
  0
LAYER
  2
A3WAKUDAKE|THICK
 70
    48
 62
     7
  6
CONTINUOUS
  0
LAYER
  2
A3WAKUDAKE|POINT
 70
    48
 62
     7
  6
CONTINUOUS
  0
LAYER
  2
A3WAKUDAKE|1CENTER
 70
    48
 62
     7
  6
A3WAKUDAKE|CENTER2
  0
LAYER
  2
A3WAKUDAKE|0-6
 70
    48
 62
     7
  6
CONTINUOUS
  0
LAYER
  2
A3WAKUDAKE|1DIM
 70
    48
 62
     7
  6
CONTINUOUS
  0
LAYER
  2
XREF1|1CENTER
 70
    48
 62
     7
  6
XREF1|CENTER2
  0
ENDTAB
  0
TABLE
  2
STYLE
 70
     5
  0
STYLE
  2
STANDARD
 70
     0
 40
0.0
 41
1.0
 50
0.0
 71
     0
 42
4.0
  3
romans.shx
  4
extfont2.shx
  0
ENDTAB
  0
TABLE
  2
VIEW
 70
     5
  0
ENDTAB
  0
TABLE
  2
UCS
 70
     0
  0
ENDTAB
  0
TABLE
  2
APPID
 70
    12
  0
APPID
  2
ACAD
 70
     0
  0
APPID
  2
DRAWINGVARIABLESXDATA
 70
     0
  0
APPID
  2
CONTENTTABDATA
 70
     0
  0
APPID
  2
CONTENTCURRENTTAB
 70
     0
  0
APPID
  2
CONTENTBLOCKDESCRIPTION
 70
     0
  0
APPID
  2
CONTENTBLOCKICON
 70
     0
  0
APPID
  2
CONTENTLONGBLOCKNAME
 70
     0
  0
APPID
  2
ACAD_PSEXT
 70
     0
  0
APPID
  2
ACAD_MLEADERVER
 70
     0
  0
APPID
  2
ACLAYERTOOLS
 70
     0
  0
APPID
  2
ACAD_NAV_VCDISPLAY
 70
     0
  0
APPID
  2
ACAECLAYERSTANDARD
 70
     0
  0
ENDTAB
  0
TABLE
  2
DIMSTYLE
 70
     7
  0
DIMSTYLE
  2
NEWX10
 70
     0
  3
 
  4

  5

  6
OPEN30
  7
OPEN30
 40
1.0
 41
2.0
 42
0.0
 43
7.0
 44
1.0
 45
0.0
 46
0.0
 47
0.0
 48
0.0
140
3.5
141
0.0
142
0.0
143
25.399999999999999
144
1.0
145
0.0
146
0.7
147
0.7
 71
     0
 72
     0
 73
     0
 74
     0
 75
     0
 76
     0
 77
     1
 78
     8
170
     0
171
     2
172
     1
173
     1
174
     0
175
     0
176
   256
177
   256
178
   201
  0
ENDTAB
  0
ENDSEC
  0
SECTION
  2
BLOCKS
  0
BLOCK
  8
0
  2
$MODEL_SPACE
 70
     0
 10
0.0
 20
0.0
 30
0.0
  3
$MODEL_SPACE
  1

  0
ENDBLK
  5
1A
  8
0
  0
BLOCK
 67
     1
  8
0
  2
$PAPER_SPACE
 70
     0
 10
0.0
 20
0.0
 30
0.0
  3
$PAPER_SPACE
  1

  0
ENDBLK
  5
17
 67
     1
  8
0
  0
BLOCK
  8
0
  2
_OPEN30
 70
     0
 10
0.0
 20
0.0
 30
0.0
  3
_OPEN30
  1

  0
LINE
  5
44
  8
0
  6
BYBLOCK
 62
     0
 10
-1.0
 20
0.26794919
 30
0.0
 11
0.0
 21
0.0
 31
0.0
  0
LINE
  5
45
  8
0
  6
BYBLOCK
 62
     0
 10
0.0
 20
0.0
 30
0.0
 11
-1.0
 21
-0.26794919
 31
0.0
  0
LINE
  5
46
  8
0
  6
BYBLOCK
 62
     0
 10
0.0
 20
0.0
 30
0.0
 11
-1.0
 21
0.0
 31
0.0
  0
ENDBLK
  5
47
  8
0
  0
BLOCK
  8
0
  2
XREF1
 70
    36
 10
0.0
 20
0.0
 30
0.0
  3
XREF1
  1
D:\ACLT\FORMAT\KAWAJUN(9)図面用.dwg
  0
ENDBLK
  5
5D
  8
0
  0
BLOCK
  8
0
  2
A3WAKUDAKE
 70
    36
 10
0.0
 20
0.0
 30
0.0
  3
A3WAKUDAKE
  1
D:\ACLT\FORMAT\A3WAKUdake.dwg
  0
ENDBLK
  5
6A0
  8
0
  0
BLOCK
  8
0
  2
*U48
 70
     1
 10
0.0
 20
0.0
 30
0.0
  3
*U48
  1

  0
TEXT
  5
1A575
  8
1TEXT
 62
   201
 10
-3922.7465407205859
 20
957.59713007614516
 30
0.0
 40
4.5499999999999989
  1
\U+03C640
  0
ENDBLK
  5
1A577
  8
0
  0
BLOCK
  8
0
  2
*U49
 70
     1
 10
0.0
 20
0.0
 30
0.0
  3
*U49
  1

  0
TEXT
  5
1A579
  8
1TEXT
 62
   201
 10
-3780.8867295034411
 20
980.59713007614516
 30
0.0
 40
4.5499999999999989
  1
22
  0
ENDBLK
  5
1A57B
  8
0
  0
BLOCK
  8
0
  2
*U50
 70
     1
 10
0.0
 20
0.0
 30
0.0
  3
*U50
  1

  0
TEXT
  5
1A57D
  8
1TEXT
 62
   201
 10
-3723.7199850489128
 20
980.59713007614516
 30
0.0
 40
4.5499999999999989
  1
8
  0
ENDBLK
  5
1A57F
  8
0
  0
BLOCK
  8
0
  2
*U51
 70
     1
 10
0.0
 20
0.0
 30
0.0
  3
*U51
  1

  0
TEXT
  5
1A581
  8
1TEXT
 62
   201
 10
-3582.7466533827869
 20
957.59713007614516
 30
0.0
 40
4.5499999999999989
  1
\U+03C640
  0
ENDBLK
  5
1A583
  8
0
  0
BLOCK
  8
0
  2
*U52
 70
     1
 10
0.0
 20
0.0
 30
0.0
  3
*U52
  1

  0
TEXT
  5
1A585
  8
1TEXT
 62
   201
 10
-3960.1570517895379
 20
893.85379674281126
 30
0.0
 40
4.5499999999999989
  1
55.5
 50
90.0
  0
ENDBLK
  5
1A587
  8
0
  0
BLOCK
  8
0
  2
*U53
 70
     1
 10
0.0
 20
0.0
 30
0.0
  3
*U53
  1

  0
TEXT
  5
1A589
  8
1TEXT
 62
   201
 10
-3611.4633197269941
 20
865.15405078065703
 30
0.0
 40
4.5499999999999989
  1
\U+03C657
 50
90.0
  0
ENDBLK
  5
1A58B
  8
0
  0
BLOCK
  8
0
  2
*U54
 70
     1
 10
0.0
 20
0.0
 30
0.0
  3
*U54
  1

  0
TEXT
  5
1A58D
  8
1TEXT
 62
   201
 10
-3522.3780687763642
 20
1039.597130075116
 30
0.0
 40
4.5499999999999989
  1
120
  0
ENDBLK
  5
1A58F
  8
0
  0
BLOCK
  8
0
  2
*U55
 70
     1
 10
0.0
 20
0.0
 30
0.0
  3
*U55
  1

  0
TEXT
  5
1A591
  8
1TEXT
 62
   201
 10
-3527.3780687696722
 20
1029.597130075116
 30
0.0
 40
4.5499999999999989
  1
130
  0
ENDBLK
  5
1A593
  8
0
  0
BLOCK
  8
0
  2
*U56
 70
     1
 10
0.0
 20
0.0
 30
0.0
  3
*U56
  1

  0
TEXT
  5
1A595
  8
1TEXT
 62
   201
 10
-3421.4632033872522
 20
1097.8541252292259
 30
0.0
 40
4.5499999999999989
  1
36.5
 50
90.0
  0
ENDBLK
  5
1A597
  8
0
  0
BLOCK
  8
0
  2
*U57
 70
     1
 10
0.0
 20
0.0
 30
0.0
  3
*U57
  1

  0
TEXT
  5
1A599
  8
1TEXT
 62
   201
 10
-3411.4632033872522
 20
1087.853782618485
 30
0.0
 40
4.5499999999999989
  1
56.5
 50
90.0
  0
ENDBLK
  5
1A59B
  8
0
  0
BLOCK
  8
0
  2
*U58
 70
     1
 10
0.0
 20
0.0
 30
0.0
  3
*U58
  1

  0
TEXT
  5
1A59D
  8
1TEXT
 62
   201
 10
-3421.4633197269941
 20
886.54713007601458
 30
0.0
 40
4.5499999999999989
  1
7.5
 50
90.0
  0
ENDBLK
  5
1A59F
  8
0
  0
BLOCK
  8
0
  2
*U59
 70
     1
 10
0.0
 20
0.0
 30
0.0
  3
*U59
  1

  0
TEXT
  5
1A5A1
  8
1TEXT
 62
   201
 10
-3691.9596123506931
 20
916.88681909073296
 30
0.0
 40
4.5499999999999989
  1
114
 50
90.0
  0
ENDBLK
  5
1A5A3
  8
0
  0
BLOCK
  8
0
  2
*U60
 70
     1
 10
0.0
 20
0.0
 30
0.0
  3
*U60
  1

  0
TEXT
  5
1A5A5
  8
1TEXT
 62
   201
 10
-3676.4632033872481
 20
916.68454675459168
 30
0.0
 40
4.5499999999999989
  1
130
 50
90.0
  0
ENDBLK
  5
1A5A7
  8
0
  0
BLOCK
  8
0
  2
*U61
 70
     1
 10
0.0
 20
0.0
 30
0.0
  3
*U61
  1

  0
TEXT
  5
1A5A9
  8
1TEXT
 62
   201
 10
-3749.8865367205822
 20
1004.018622160833
 30
0.0
 40
4.5499999999999989
  1
25
  0
ENDBLK
  5
1A5AB
  8
0
  0
BLOCK
  8
0
  2
*U62
 70
     1
 10
0.0
 20
0.0
 30
0.0
  3
*U62
  1

  0
TEXT
  5
1A5AD
  8
1TEXT
 62
   201
 10
-3636.0616530603279
 20
1004.018622160833
 30
0.0
 40
4.5499999999999989
  1
11
  0
ENDBLK
  5
1A5AF
  8
0
  0
BLOCK
  8
0
  2
*U63
 70
     1
 10
0.0
 20
0.0
 30
0.0
  3
*U63
  1

  0
TEXT
  5
1A5B1
  8
1TEXT
 62
   201
 10
-3536.6020447852211
 20
1136.1037967417819
 30
0.0
 40
4.5499999999999989
  1
20.5
 50
90.0
  0
ENDBLK
  5
1A5B3
  8
0
  0
BLOCK
  8
0
  2
*U64
 70
     1
 10
0.0
 20
0.0
 30
0.0
  3
*U64
  1

  0
TEXT
  5
1A5B5
  8
1TEXT
 62
   201
 10
-3531.4633197269941
 20
908.86680749549726
 30
0.0
 40
4.5499999999999989
  1
74.5
 50
90.0
  0
ENDBLK
  5
1A5B7
  8
0
  0
BLOCK
  8
0
  2
*U65
 70
     1
 10
0.0
 20
0.0
 30
0.0
  3
*U65
  1

  0
TEXT
  5
1A5B9
  8
1TEXT
 62
   201
 10
-3596.3866530603282
 20
1014.098489628881
 30
0.0
 40
4.5499999999999989
  1
69
  0
ENDBLK
  5
1A5BB
  8
0
  0
BLOCK
  8
0
  2
*U66
 70
     1
 10
0.0
 20
0.0
 30
0.0
  3
*U66
  1

  0
TEXT
  5
1A5BD
  8
1TEXT
 62
   201
 10
-3604.7366530603281
 20
1004.018622160833
 30
0.0
 40
4.5499999999999989
  1
51
  0
ENDBLK
  5
1A5BF
  8
0
  0
ENDSEC
  0
SECTION
  2
ENTITIES
  0
LINE
  5
19FBD
  8
01
 10
2497.830329363861
 20
-279.84700369006782
 30
0.0
 11
2523.830329363861
 21
-279.84700369006782
 31
0.0
  0
LINE
  5
19FBE
  8
01
 10
2533.330329363861
 20
-274.34700369006782
 30
0.0
 11
2488.330329363861
 21
-274.34700369006782
 31
0.0
  0
LINE
  5
19FBF
  8
01
 10
2510.830329363861
 20
-251.84700369006779
 30
0.0
 11
2510.830329363861
 21
-296.84700369006782
 31
0.0
  0
LINE
  5
19FC0
  8
01
 10
2828.330225024119
 20
-274.34700369006782
 30
0.0
 11
2873.330225024119
 21
-274.34700369006782
 31
0.0
  0
LINE
  5
19FC1
  8
01
 10
2850.830225024119
 20
-251.84700369006779
 30
0.0
 11
2850.830225024119
 21
-296.84700369006782
 31
0.0
  0
LINE
  5
19FC2
  8
01
 10
2830.8303331075049
 20
-39.847003691096234
 30
0.0
 11
2830.8303331075049
 21
-34.047003691096052
 31
0.0
  0
LINE
  5
19FC3
  8
01
 10
2870.8303331075049
 20
-39.847003691096234
 30
0.0
 11
2870.8303331075049
 21
-34.047003691096052
 31
0.0
  0
LINE
  5
19FC4
  8
01
 10
2830.8303331075049
 20
-39.847003691096234
 30
0.0
 11
2870.8303331075049
 21
-39.847003691096234
 31
0.0
  0
LINE
  5
19FC5
  8
01
 10
2831.3303331075049
 20
-33.547003691096052
 30
0.0
 11
2870.3303331075049
 21
-33.547003691096052
 31
0.0
  0
ARC
  5
19FC6
  8
01
 10
2831.3303331075049
 20
-34.047003691096052
 30
0.0
 40
0.5
 50
90.0
 51
180.0
  0
ARC
  5
19FC7
  8
01
 10
2870.3303331075049
 20
-34.047003691096052
 30
0.0
 40
0.5
 50
359.99999999994787
 51
90.0
  0
ARC
  5
19FC8
  8
01
 10
2854.3303334299571
 20
-31.347026635304701
 30
0.0
 40
1.0
 50
180.0
 51
270.0
  0
LINE
  5
19FC9
  8
01
 10
2854.3303334299571
 20
-32.347026635304701
 30
0.0
 11
2861.3303384299552
 21
-32.347026635302882
 31
0.0
  0
ARC
  5
19FCA
  8
01
 10
2861.3303384299552
 20
-32.847026635302882
 30
0.0
 40
0.5
 50
0.0
 51
90.0
  0
ARC
  5
19FCB
  8
01
 10
2847.3303334299571
 20
-31.347026635302878
 30
0.0
 40
1.0
 50
270.0
 51
0.0
  0
ARC
  5
19FCC
  8
01
 10
2840.3303384299552
 20
-32.847026635302882
 30
0.0
 40
0.5
 50
90.0
 51
180.0
  0
LINE
  5
19FCD
  8
01
 10
2848.3303334299571
 20
-18.847003691099872
 30
0.0
 11
2848.3303334299571
 21
-31.347026635302878
 31
0.0
  0
ARC
  5
19FCE
  8
01
 10
2849.3303334299571
 20
-18.847003691098049
 30
0.0
 40
1.0
 50
90.0
 51
179.9999999999479
  0
LINE
  5
19FCF
  8
01
 10
2849.3303334299571
 20
-17.84700369109623
 30
0.0
 11
2852.330333429958
 21
-17.84700369109623
 31
0.0
  0
ARC
  5
19FD0
  8
01
 10
2852.330333429958
 20
-18.847003691098049
 30
0.0
 40
1.0
 50
0.0
 51
90.0
  0
LINE
  5
19FD1
  8
01
 10
2853.3303334299571
 20
-18.847003691098049
 30
0.0
 11
2853.3303334299571
 21
-31.347026635304701
 31
0.0
  0
LINE
  5
19FD2
  8
01
 10
2840.3303384299552
 20
-32.347026635302882
 30
0.0
 11
2847.3303334299571
 21
-32.347026635302882
 31
0.0
  0
LINE
  5
19FD3
  8
01
 10
2839.8303384299552
 20
-32.847026635302882
 30
0.0
 11
2839.8303384299552
 21
-33.547003691096052
 31
0.0
  0
LINE
  5
19FD4
  8
01
 10
2861.8303384299552
 20
-32.847026635302882
 30
0.0
 11
2861.8303384299552
 21
-33.547003691096052
 31
0.0
  0
LINE
  5
19FD5
  8
01
 10
2830.8303329753012
 20
-79.847003691096234
 30
0.0
 11
2830.8303329753012
 21
-85.647003691095961
 31
0.0
  0
LINE
  5
19FD6
  8
01
 10
2870.8303329752971
 20
-79.847003691096234
 30
0.0
 11
2870.8303329752971
 21
-85.647003691095961
 31
0.0
  0
LINE
  5
19FD7
  8
01
 10
2830.8303329753012
 20
-79.847003691096234
 30
0.0
 11
2870.8303329752971
 21
-79.847003691096234
 31
0.0
  0
LINE
  5
19FD8
  8
01
 10
2831.3303329753012
 20
-86.147003691095975
 30
0.0
 11
2870.3303329752971
 21
-86.147003691095975
 31
0.0
  0
ARC
  5
19FD9
  8
01
 10
2831.3303329753012
 20
-85.647003691095961
 30
0.0
 40
0.5
 50
179.9999999999479
 51
270.0
  0
ARC
  5
19FDA
  8
01
 10
2870.3303329752971
 20
-85.647003691095961
 30
0.0
 40
0.5
 50
270.0
 51
0.0
  0
LINE
  5
19FDB
  8
01
 10
2851.8303346186958
 20
-87.796773691096405
 30
-0.0000000000001137
 11
2851.8303346186958
 21
-86.247003691095884
 31
-0.0000000000001137
  0
LINE
  5
19FDC
  8
01
 10
2851.8303346186958
 20
-86.247003691095884
 30
-0.0000000000001137
 11
2849.8303346186958
 21
-86.247003691095884
 31
-0.0000000000001137
  0
ARC
  5
19FDD
  8
01
 10
2849.5303356186969
 20
-87.796773691096405
 30
-0.0000000000001137
 40
0.30000001
 50
256.81652000003243
 51
0.0000029999846689
  0
ARC
  5
19FDE
  8
01
 10
2850.8303346186958
 20
-82.24700369109587
 30
-0.0000000000001137
 40
6.0
 50
283.18348200003771
 51
305.68533399991219
  0
ARC
  5
19FDF
  8
01
 10
2852.1303376186961
 20
-87.796773691096405
 30
-0.0000000000001137
 40
0.30000001
 50
180.0
 51
283.18348200003771
  0
LINE
  5
19FE0
  8
01
 10
2854.3303346186958
 20
-87.120403691096286
 30
-0.0000000000001137
 11
2854.3303346186958
 21
-86.147003691095975
 31
-0.0000000000001137
  0
LINE
  5
19FE1
  8
01
 10
2847.3303346186958
 20
-87.120403691096286
 30
-0.0000000000001137
 11
2847.3303346186958
 21
-86.147003691095975
 31
-0.0000000000001137
  0
ARC
  5
19FE2
  8
01
 10
2850.8303346186958
 20
-82.24700369109587
 30
-0.0000000000001137
 40
6.0
 50
234.31467000000131
 51
256.81651749665241
  0
LINE
  5
19FE3
  8
01
 10
2849.8303346186958
 20
-87.797552150498632
 30
-0.0000000000001137
 11
2849.8303346186958
 21
-86.247003691095884
 31
-0.0000000000001137
  0
CIRCLE
  5
19FE4
  8
01
 10
2850.8302170241159
 20
-279.84700348593992
 30
0.0
 40
3.75
  0
CIRCLE
  5
19FE5
  8
01
 10
2850.8302170241159
 20
-279.84700369006782
 30
0.0
 40
3.5000004999999992
  0
LINE
  5
19FE6
  8
01
 10
2851.8302170241159
 20
-283.20110649006779
 30
0.0
 11
2851.8302170241159
 21
-276.49289969006782
 31
0.0
  0
LINE
  5
19FE7
  8
01
 10
2849.8302170241159
 20
-283.20110649006779
 30
0.0
 11
2849.8302170241159
 21
-276.49289969006782
 31
0.0
  0
CIRCLE
  5
19FE8
  8
01
 10
2850.8302167016559
 20
-274.34700369006782
 30
0.0
 40
19.99999999999962
  0
LINE
  5
19FE9
  8
01
 10
2654.5303333638631
 20
-293.84700369006958
 30
0.0
 11
2654.5303333638631
 21
-254.84700369007061
 31
0.0
  0
LINE
  5
19FEA
  8
01
 10
2660.8303333638619
 20
-254.34700369006961
 30
0.0
 11
2660.8303333638592
 21
-294.3470036900701
 31
0.0
  0
LINE
  5
19FEB
  8
01
 10
2660.8303333638619
 20
-294.3470036900701
 30
0.0
 11
2655.0303333638631
 21
-294.34700369006958
 31
0.0
  0
ARC
  5
19FEC
  8
01
 10
2655.0303333638631
 20
-293.84700369006958
 30
0.0
 40
0.5
 50
180.0
 51
270.0
  0
LINE
  5
19FED
  8
01
 10
2660.8303333638619
 20
-254.34700369006961
 30
0.0
 11
2655.0303333638631
 21
-254.34700369007061
 31
0.0
  0
ARC
  5
19FEE
  8
01
 10
2655.0303333638631
 20
-254.84700369007061
 30
0.0
 40
0.5
 50
90.0
 51
180.0
  0
LINE
  5
19FEF
  8
01
 10
2639.8299477981391
 20
-290.84700869006952
 30
0.0
 11
2654.5303333638631
 21
-290.84700869006952
 31
0.0
  0
LINE
  5
19FF0
  8
01
 10
2653.3299707423521
 20
-269.34700869006952
 30
0.0
 11
2653.329970742348
 21
-290.34700869006952
 31
0.0
  0
LINE
  5
19FF1
  8
01
 10
2639.8299477981432
 20
-268.84700869007042
 30
0.0
 11
2654.5303333638631
 21
-268.84700869006952
 31
0.0
  0
ARC
  5
19FF2
  8
01
 10
2639.8299477981432
 20
-269.84700869006861
 30
0.0
 40
1.0
 50
90.0
 51
180.0
  0
LINE
  5
19FF3
  8
01
 10
2638.8299477981391
 20
-269.84700869006861
 30
0.0
 11
2638.8299477981391
 21
-289.84700869006679
 31
0.0
  0
ARC
  5
19FF4
  8
01
 10
2639.8299477981391
 20
-289.84700869006679
 30
0.0
 40
1.0
 50
180.0
 51
270.0
  0
ARC
  5
19FF5
  8
01
 10
2653.829970742348
 20
-269.34700869006952
 30
0.0
 40
0.5
 50
90.0
 51
179.9999999999479
  0
ARC
  5
19FF6
  8
01
 10
2653.829970742348
 20
-290.34700869006952
 30
0.0
 40
0.5
 50
179.9999999999479
 51
270.0
  0
LINE
  5
19FF7
  8
01
 10
2659.3303333638619
 20
-294.34700369007692
 30
0.0
 11
2660.8303333638619
 21
-294.34700369007692
 31
0.0
  0
CIRCLE
  5
19FF8
  8
01
 10
2510.830329363861
 20
-279.84700369006782
 30
0.0
 40
11.30000000000109
  0
LINE
  5
19FF9
  8
01
 10
2513.330329363861
 20
-269.53924471926689
 30
0.0
 11
2513.330329363861
 21
-290.1547626608687
 31
0.0
  0
LINE
  5
19FFA
  8
01
 10
2508.330329363861
 20
-269.53924471926689
 30
0.0
 11
2508.330329363861
 21
-290.1547626608687
 31
0.0
  0
ARC
  5
19FFB
  8
01
 10
2508.830329363861
 20
-269.53924471926689
 30
0.0
 40
0.5
 50
100.98058072142911
 51
180.0
  0
ARC
  5
19FFC
  8
01
 10
2512.830329363861
 20
-269.53924471926689
 30
0.0
 40
0.5
 50
0.0
 51
79.019419278570822
  0
ARC
  5
19FFD
  8
01
 10
2508.830329363861
 20
-290.1547626608687
 30
0.0
 40
0.5
 50
180.0
 51
259.01941927857081
  0
ARC
  5
19FFE
  8
01
 10
2512.830329363861
 20
-290.1547626608687
 30
0.0
 40
0.5
 50
280.98058072142919
 51
0.0
  0
CIRCLE
  5
19FFF
  8
01
 10
2510.8303293638569
 20
-274.34700369006782
 30
0.0
 40
20.000000000000071
  0
CIRCLE
  5
1A000
  8
01
 10
2510.830329363861
 20
-279.84700369006782
 30
0.0
 40
11.0
  0
LINE
  5
1A002
  8
01
 10
2707.1303333638621
 20
-293.84700369006782
 30
0.0
 11
2707.1303333638621
 21
-254.84700369006831
 31
0.0
  0
LINE
  5
1A003
  8
01
 10
2700.8303333638628
 20
-254.34700369006779
 30
0.0
 11
2700.8303333638592
 21
-294.34700369006782
 31
0.0
  0
LINE
  5
1A004
  8
01
 10
2700.8303333638592
 20
-294.34700369006782
 30
0.0
 11
2706.6303333638612
 21
-294.34700369006782
 31
0.0
  0
ARC
  5
1A005
  8
01
 10
2706.6303333638612
 20
-293.84700369006782
 30
0.0
 40
0.5
 50
270.0
 51
0.0
  0
LINE
  5
1A006
  8
01
 10
2700.8303333638628
 20
-254.34700369006779
 30
0.0
 11
2706.6303333638612
 21
-254.34700369006831
 31
0.0
  0
ARC
  5
1A007
  8
01
 10
2706.6303333638612
 20
-254.84700369006831
 30
0.0
 40
0.5
 50
0.0
 51
90.0
  0
LINE
  5
1A008
  8
01
 10
2713.2412031495342
 20
-279.8470036900751
 30
-0.0000000000562575
 11
2696.6551195259831
 21
-279.8470036900751
 31
-0.0000000000562575
  0
LINE
  5
1A009
  8
01
 10
2707.853733363861
 20
-276.34700236913682
 30
-0.0000000000563712
 11
2707.1303333638621
 21
-276.34700236913682
 31
-0.0000000000563712
  0
LINE
  5
1A00A
  8
01
 10
2707.853733363861
 20
-283.34700236913682
 30
-0.0000000000563712
 11
2707.1303333638621
 21
-283.34700236913682
 31
-0.0000000000563712
  0
ARC
  5
1A00C
  8
01
 10
2702.068681852737
 20
-279.84700236913682
 30
-0.0000000000563712
 40
6.7614215211269721
 50
328.82574397863368
 51
31.174256021366311
  0
LINE
  5
1A00D
  8
01
 10
2850.8302170241159
 20
-74.847003690067595
 30
0.0
 11
2850.8302170241159
 21
-101.3470036900676
 31
0.0
  0
LINE
  5
1A00E
  8
01
 10
2850.8302170241159
 20
-44.847003692124872
 30
0.0
 11
2850.8302170241159
 21
-15.55573060048437
 31
0.0
  0
LINE
  5
1A011
  8
01
 10
2559.4303393638629
 20
-243.84700369006831
 30
0.0
 11
2559.4303393638629
 21
-266.94697369006758
 31
0.0
  0
LINE
  5
1A012
  8
01
 10
2557.8303333638619
 20
-243.84700369006831
 30
0.0
 11
2557.8303333638619
 21
-266.84700369006828
 31
0.0
  0
LINE
  5
1A013
  8
01
 10
2560.2303423638632
 20
-243.84700369006831
 30
0.0
 11
2560.2303423638632
 21
-373.84700369006828
 31
0.0
  0
LINE
  5
1A014
  8
01
 10
2561.8303333638628
 20
-243.84700369006831
 30
0.0
 11
2561.8303333638628
 21
-373.84700369006828
 31
0.0
  0
LINE
  5
1A015
  8
01
 10
2558.8303333638628
 20
-345.84700369006828
 30
0.0
 11
2534.4154025337511
 21
-345.84700369006828
 31
0.0
  0
LINE
  5
1A016
  8
01
 10
2492.8303493638618
 20
-283.06484287186908
 30
0.0
 11
2492.8303493638609
 21
-307.75070563455301
 31
0.0
  0
LINE
  5
1A017
  8
01
 10
2567.8303333638592
 20
-297.84700369006828
 30
0.0
 11
2561.8303333638628
 21
-297.84700369006828
 31
0.0
  0
LINE
  5
1A018
  8
01
 10
2572.8303333638619
 20
-302.84700369006828
 30
0.0
 11
2562.8303333638628
 21
-302.84700369006828
 31
0.0
  0
POLYLINE
  5
1A019
  8
01
 10
2572.8303333638628
 20
-301.41542369006788
 30
0.0
 66
     1
 70
     8
  0
VERTEX
  8
01
  5
1A5C0
 10
2572.83
 20
-301.415
 30
0.000000
  70
    32
  0
VERTEX
  8
01
  5
1A5C1
 10
2572.83
 20
-301.328
 30
0.000000
  70
    32
  0
VERTEX
  8
01
  5
1A5C2
 10
2572.82
 20
-301.240
 30
0.000000
  70
    32
  0
VERTEX
  8
01
  5
1A5C3
 10
2572.82
 20
-301.153
 30
0.000000
  70
    32
  0
VERTEX
  8
01
  5
1A5C4
 10
2572.81
 20
-301.066
 30
0.000000
  70
    32
  0
VERTEX
  8
01
  5
1A5C5
 10
2572.79
 20
-300.979
 30
0.000000
  70
    32
  0
VERTEX
  8
01
  5
1A5C6
 10
2572.78
 20
-300.892
 30
0.000000
  70
    32
  0
VERTEX
  8
01
  5
1A5C7
 10
2572.76
 20
-300.805
 30
0.000000
  70
    32
  0
VERTEX
  8
01
  5
1A5C8
 10
2572.73
 20
-300.719
 30
0.000000
  70
    32
  0
VERTEX
  8
01
  5
1A5C9
 10
2572.71
 20
-300.634
 30
0.000000
  70
    32
  0
VERTEX
  8
01
  5
1A5CA
 10
2572.68
 20
-300.548
 30
0.000000
  70
    32
  0
VERTEX
  8
01
  5
1A5CB
 10
2572.65
 20
-300.464
 30
0.000000
  70
    32
  0
VERTEX
  8
01
  5
1A5CC
 10
2572.62
 20
-300.380
 30
0.000000
  70
    32
  0
VERTEX
  8
01
  5
1A5CD
 10
2572.58
 20
-300.296
 30
0.000000
  70
    32
  0
VERTEX
  8
01
  5
1A5CE
 10
2572.54
 20
-300.213
 30
0.000000
  70
    32
  0
VERTEX
  8
01
  5
1A5CF
 10
2572.50
 20
-300.131
 30
0.000000
  70
    32
  0
VERTEX
  8
01
  5
1A5D0
 10
2572.45
 20
-300.050
 30
0.000000
  70
    32
  0
VERTEX
  8
01
  5
1A5D1
 10
2572.40
 20
-299.969
 30
0.000000
  70
    32
  0
VERTEX
  8
01
  5
1A5D2
 10
2572.35
 20
-299.890
 30
0.000000
  70
    32
  0
VERTEX
  8
01
  5
1A5D3
 10
2572.30
 20
-299.811
 30
0.000000
  70
    32
  0
VERTEX
  8
01
  5
1A5D4
 10
2572.24
 20
-299.733
 30
0.000000
  70
    32
  0
VERTEX
  8
01
  5
1A5D5
 10
2572.18
 20
-299.657
 30
0.000000
  70
    32
  0
VERTEX
  8
01
  5
1A5D6
 10
2572.12
 20
-299.581
 30
0.000000
  70
    32
  0
VERTEX
  8
01
  5
1A5D7
 10
2572.05
 20
-299.506
 30
0.000000
  70
    32
  0
VERTEX
  8
01
  5
1A5D8
 10
2571.99
 20
-299.433
 30
0.000000
  70
    32
  0
VERTEX
  8
01
  5
1A5D9
 10
2571.92
 20
-299.361
 30
0.000000
  70
    32
  0
VERTEX
  8
01
  5
1A5DA
 10
2571.85
 20
-299.290
 30
0.000000
  70
    32
  0
VERTEX
  8
01
  5
1A5DB
 10
2571.77
 20
-299.220
 30
0.000000
  70
    32
  0
VERTEX
  8
01
  5
1A5DC
 10
2571.70
 20
-299.152
 30
0.000000
  70
    32
  0
VERTEX
  8
01
  5
1A5DD
 10
2571.62
 20
-299.085
 30
0.000000
  70
    32
  0
VERTEX
  8
01
  5
1A5DE
 10
2571.54
 20
-299.019
 30
0.000000
  70
    32
  0
VERTEX
  8
01
  5
1A5DF
 10
2571.45
 20
-298.955
 30
0.000000
  70
    32
  0
VERTEX
  8
01
  5
1A5E0
 10
2571.37
 20
-298.892
 30
0.000000
  70
    32
  0
VERTEX
  8
01
  5
1A5E1
 10
2571.28
 20
-298.831
 30
0.000000
  70
    32
  0
VERTEX
  8
01
  5
1A5E2
 10
2571.19
 20
-298.771
 30
0.000000
  70
    32
  0
VERTEX
  8
01
  5
1A5E3
 10
2571.10
 20
-298.713
 30
0.000000
  70
    32
  0
VERTEX
  8
01
  5
1A5E4
 10
2571.00
 20
-298.657
 30
0.000000
  70
    32
  0
VERTEX
  8
01
  5
1A5E5
 10
2570.91
 20
-298.602
 30
0.000000
  70
    32
  0
VERTEX
  8
01
  5
1A5E6
 10
2570.81
 20
-298.549
 30
0.000000
  70
    32
  0
VERTEX
  8
01
  5
1A5E7
 10
2570.71
 20
-298.498
 30
0.000000
  70
    32
  0
VERTEX
  8
01
  5
1A5E8
 10
2570.61
 20
-298.448
 30
0.000000
  70
    32
  0
VERTEX
  8
01
  5
1A5E9
 10
2570.51
 20
-298.401
 30
0.000000
  70
    32
  0
VERTEX
  8
01
  5
1A5EA
 10
2570.40
 20
-298.355
 30
0.000000
  70
    32
  0
VERTEX
  8
01
  5
1A5EB
 10
2570.29
 20
-298.311
 30
0.000000
  70
    32
  0
VERTEX
  8
01
  5
1A5EC
 10
2570.19
 20
-298.268
 30
0.000000
  70
    32
  0
VERTEX
  8
01
  5
1A5ED
 10
2570.08
 20
-298.228
 30
0.000000
  70
    32
  0
VERTEX
  8
01
  5
1A5EE
 10
2569.97
 20
-298.190
 30
0.000000
  70
    32
  0
VERTEX
  8
01
  5
1A5EF
 10
2569.86
 20
-298.153
 30
0.000000
  70
    32
  0
VERTEX
  8
01
  5
1A5F0
 10
2569.74
 20
-298.119
 30
0.000000
  70
    32
  0
VERTEX
  8
01
  5
1A5F1
 10
2569.63
 20
-298.086
 30
0.000000
  70
    32
  0
VERTEX
  8
01
  5
1A5F2
 10
2569.51
 20
-298.056
 30
0.000000
  70
    32
  0
VERTEX
  8
01
  5
1A5F3
 10
2569.40
 20
-298.027
 30
0.000000
  70
    32
  0
VERTEX
  8
01
  5
1A5F4
 10
2569.28
 20
-298.001
 30
0.000000
  70
    32
  0
VERTEX
  8
01
  5
1A5F5
 10
2569.16
 20
-297.976
 30
0.000000
  70
    32
  0
VERTEX
  8
01
  5
1A5F6
 10
2569.05
 20
-297.954
 30
0.000000
  70
    32
  0
VERTEX
  8
01
  5
1A5F7
 10
2568.93
 20
-297.934
 30
0.000000
  70
    32
  0
VERTEX
  8
01
  5
1A5F8
 10
2568.81
 20
-297.916
 30
0.000000
  70
    32
  0
VERTEX
  8
01
  5
1A5F9
 10
2568.69
 20
-297.900
 30
0.000000
  70
    32
  0
VERTEX
  8
01
  5
1A5FA
 10
2568.56
 20
-297.886
 30
0.000000
  70
    32
  0
VERTEX
  8
01
  5
1A5FB
 10
2568.44
 20
-297.874
 30
0.000000
  70
    32
  0
VERTEX
  8
01
  5
1A5FC
 10
2568.32
 20
-297.864
 30
0.000000
  70
    32
  0
VERTEX
  8
01
  5
1A5FD
 10
2568.20
 20
-297.857
 30
0.000000
  70
    32
  0
VERTEX
  8
01
  5
1A5FE
 10
2568.08
 20
-297.851
 30
0.000000
  70
    32
  0
VERTEX
  8
01
  5
1A5FF
 10
2567.95
 20
-297.848
 30
0.000000
  70
    32
  0
VERTEX
  8
01
  5
1A600
 10
2567.83
 20
-297.847
 30
0.000000
  70
    32
  0
VERTEX
  8
01
  5
1A601
 10
2567.71
 20
-297.848
 30
0.000000
  70
    32
  0
VERTEX
  8
01
  5
1A602
 10
2567.58
 20
-297.851
 30
0.000000
  70
    32
  0
VERTEX
  8
01
  5
1A603
 10
2567.46
 20
-297.857
 30
0.000000
  70
    32
  0
VERTEX
  8
01
  5
1A604
 10
2567.34
 20
-297.864
 30
0.000000
  70
    32
  0
VERTEX
  8
01
  5
1A605
 10
2567.22
 20
-297.874
 30
0.000000
  70
    32
  0
VERTEX
  8
01
  5
1A606
 10
2567.10
 20
-297.886
 30
0.000000
  70
    32
  0
VERTEX
  8
01
  5
1A607
 10
2566.98
 20
-297.900
 30
0.000000
  70
    32
  0
VERTEX
  8
01
  5
1A608
 10
2566.85
 20
-297.916
 30
0.000000
  70
    32
  0
VERTEX
  8
01
  5
1A609
 10
2566.73
 20
-297.934
 30
0.000000
  70
    32
  0
VERTEX
  8
01
  5
1A60A
 10
2566.62
 20
-297.954
 30
0.000000
  70
    32
  0
VERTEX
  8
01
  5
1A60B
 10
2566.50
 20
-297.976
 30
0.000000
  70
    32
  0
VERTEX
  8
01
  5
1A60C
 10
2566.38
 20
-298.001
 30
0.000000
  70
    32
  0
VERTEX
  8
01
  5
1A60D
 10
2566.26
 20
-298.027
 30
0.000000
  70
    32
  0
VERTEX
  8
01
  5
1A60E
 10
2566.15
 20
-298.056
 30
0.000000
  70
    32
  0
VERTEX
  8
01
  5
1A60F
 10
2566.03
 20
-298.086
 30
0.000000
  70
    32
  0
VERTEX
  8
01
  5
1A610
 10
2565.92
 20
-298.119
 30
0.000000
  70
    32
  0
VERTEX
  8
01
  5
1A611
 10
2565.80
 20
-298.153
 30
0.000000
  70
    32
  0
VERTEX
  8
01
  5
1A612
 10
2565.69
 20
-298.190
 30
0.000000
  70
    32
  0
VERTEX
  8
01
  5
1A613
 10
2565.58
 20
-298.228
 30
0.000000
  70
    32
  0
VERTEX
  8
01
  5
1A614
 10
2565.47
 20
-298.268
 30
0.000000
  70
    32
  0
VERTEX
  8
01
  5
1A615
 10
2565.37
 20
-298.311
 30
0.000000
  70
    32
  0
VERTEX
  8
01
  5
1A616
 10
2565.26
 20
-298.355
 30
0.000000
  70
    32
  0
VERTEX
  8
01
  5
1A617
 10
2565.16
 20
-298.401
 30
0.000000
  70
    32
  0
VERTEX
  8
01
  5
1A618
 10
2565.05
 20
-298.448
 30
0.000000
  70
    32
  0
VERTEX
  8
01
  5
1A619
 10
2564.95
 20
-298.498
 30
0.000000
  70
    32
  0
VERTEX
  8
01
  5
1A61A
 10
2564.85
 20
-298.549
 30
0.000000
  70
    32
  0
VERTEX
  8
01
  5
1A61B
 10
2564.75
 20
-298.602
 30
0.000000
  70
    32
  0
VERTEX
  8
01
  5
1A61C
 10
2564.66
 20
-298.657
 30
0.000000
  70
    32
  0
VERTEX
  8
01
  5
1A61D
 10
2564.56
 20
-298.713
 30
0.000000
  70
    32
  0
VERTEX
  8
01
  5
1A61E
 10
2564.47
 20
-298.771
 30
0.000000
  70
    32
  0
VERTEX
  8
01
  5
1A61F
 10
2564.38
 20
-298.831
 30
0.000000
  70
    32
  0
VERTEX
  8
01
  5
1A620
 10
2564.29
 20
-298.892
 30
0.000000
  70
    32
  0
VERTEX
  8
01
  5
1A621
 10
2564.21
 20
-298.955
 30
0.000000
  70
    32
  0
VERTEX
  8
01
  5
1A622
 10
2564.13
 20
-299.019
 30
0.000000
  70
    32
  0
VERTEX
  8
01
  5
1A623
 10
2564.04
 20
-299.085
 30
0.000000
  70
    32
  0
VERTEX
  8
01
  5
1A624
 10
2563.97
 20
-299.152
 30
0.000000
  70
    32
  0
VERTEX
  8
01
  5
1A625
 10
2563.89
 20
-299.220
 30
0.000000
  70
    32
  0
VERTEX
  8
01
  5
1A626
 10
2563.81
 20
-299.290
 30
0.000000
  70
    32
  0
VERTEX
  8
01
  5
1A627
 10
2563.74
 20
-299.361
 30
0.000000
  70
    32
  0
VERTEX
  8
01
  5
1A628
 10
2563.67
 20
-299.433
 30
0.000000
  70
    32
  0
VERTEX
  8
01
  5
1A629
 10
2563.61
 20
-299.506
 30
0.000000
  70
    32
  0
VERTEX
  8
01
  5
1A62A
 10
2563.54
 20
-299.581
 30
0.000000
  70
    32
  0
VERTEX
  8
01
  5
1A62B
 10
2563.48
 20
-299.657
 30
0.000000
  70
    32
  0
VERTEX
  8
01
  5
1A62C
 10
2563.42
 20
-299.733
 30
0.000000
  70
    32
  0
VERTEX
  8
01
  5
1A62D
 10
2563.36
 20
-299.811
 30
0.000000
  70
    32
  0
VERTEX
  8
01
  5
1A62E
 10
2563.31
 20
-299.890
 30
0.000000
  70
    32
  0
VERTEX
  8
01
  5
1A62F
 10
2563.26
 20
-299.969
 30
0.000000
  70
    32
  0
VERTEX
  8
01
  5
1A630
 10
2563.21
 20
-300.050
 30
0.000000
  70
    32
  0
VERTEX
  8
01
  5
1A631
 10
2563.17
 20
-300.131
 30
0.000000
  70
    32
  0
VERTEX
  8
01
  5
1A632
 10
2563.12
 20
-300.213
 30
0.000000
  70
    32
  0
VERTEX
  8
01
  5
1A633
 10
2563.08
 20
-300.296
 30
0.000000
  70
    32
  0
VERTEX
  8
01
  5
1A634
 10
2563.05
 20
-300.380
 30
0.000000
  70
    32
  0
VERTEX
  8
01
  5
1A635
 10
2563.01
 20
-300.464
 30
0.000000
  70
    32
  0
VERTEX
  8
01
  5
1A636
 10
2562.98
 20
-300.548
 30
0.000000
  70
    32
  0
VERTEX
  8
01
  5
1A637
 10
2562.95
 20
-300.634
 30
0.000000
  70
    32
  0
VERTEX
  8
01
  5
1A638
 10
2562.93
 20
-300.719
 30
0.000000
  70
    32
  0
VERTEX
  8
01
  5
1A639
 10
2562.90
 20
-300.805
 30
0.000000
  70
    32
  0
VERTEX
  8
01
  5
1A63A
 10
2562.88
 20
-300.892
 30
0.000000
  70
    32
  0
VERTEX
  8
01
  5
1A63B
 10
2562.87
 20
-300.979
 30
0.000000
  70
    32
  0
VERTEX
  8
01
  5
1A63C
 10
2562.85
 20
-301.066
 30
0.000000
  70
    32
  0
VERTEX
  8
01
  5
1A63D
 10
2562.84
 20
-301.153
 30
0.000000
  70
    32
  0
VERTEX
  8
01
  5
1A63E
 10
2562.84
 20
-301.240
 30
0.000000
  70
    32
  0
VERTEX
  8
01
  5
1A63F
 10
2562.83
 20
-301.328
 30
0.000000
  70
    32
  0
VERTEX
  8
01
  5
1A640
 10
2562.83
 20
-301.415
 30
0.000000
  70
    32
  0
SEQEND
  8
01
  5
1A641
  0
LINE
  5
1A01A
  8
01
 10
2567.8303333638628
 20
-317.84700369006828
 30
0.0
 11
2561.8303333638628
 21
-317.84700369006828
 31
0.0
  0
LINE
  5
1A01B
  8
01
 10
2572.8303333638619
 20
-312.84700369006828
 30
0.0
 11
2562.8303333638628
 21
-312.84700369006828
 31
0.0
  0
POLYLINE
  5
1A01C
  8
01
 10
2572.8303333638628
 20
-314.27858369006782
 30
0.0
 66
     1
 70
     8
  0
VERTEX
  8
01
  5
1A642
 10
2572.83
 20
-314.279
 30
0.000000
  70
    32
  0
VERTEX
  8
01
  5
1A643
 10
2572.83
 20
-314.366
 30
0.000000
  70
    32
  0
VERTEX
  8
01
  5
1A644
 10
2572.82
 20
-314.454
 30
0.000000
  70
    32
  0
VERTEX
  8
01
  5
1A645
 10
2572.82
 20
-314.541
 30
0.000000
  70
    32
  0
VERTEX
  8
01
  5
1A646
 10
2572.81
 20
-314.628
 30
0.000000
  70
    32
  0
VERTEX
  8
01
  5
1A647
 10
2572.79
 20
-314.715
 30
0.000000
  70
    32
  0
VERTEX
  8
01
  5
1A648
 10
2572.78
 20
-314.802
 30
0.000000
  70
    32
  0
VERTEX
  8
01
  5
1A649
 10
2572.76
 20
-314.889
 30
0.000000
  70
    32
  0
VERTEX
  8
01
  5
1A64A
 10
2572.73
 20
-314.975
 30
0.000000
  70
    32
  0
VERTEX
  8
01
  5
1A64B
 10
2572.71
 20
-315.060
 30
0.000000
  70
    32
  0
VERTEX
  8
01
  5
1A64C
 10
2572.68
 20
-315.146
 30
0.000000
  70
    32
  0
VERTEX
  8
01
  5
1A64D
 10
2572.65
 20
-315.230
 30
0.000000
  70
    32
  0
VERTEX
  8
01
  5
1A64E
 10
2572.62
 20
-315.314
 30
0.000000
  70
    32
  0
VERTEX
  8
01
  5
1A64F
 10
2572.58
 20
-315.398
 30
0.000000
  70
    32
  0
VERTEX
  8
01
  5
1A650
 10
2572.54
 20
-315.481
 30
0.000000
  70
    32
  0
VERTEX
  8
01
  5
1A651
 10
2572.50
 20
-315.563
 30
0.000000
  70
    32
  0
VERTEX
  8
01
  5
1A652
 10
2572.45
 20
-315.644
 30
0.000000
  70
    32
  0
VERTEX
  8
01
  5
1A653
 10
2572.40
 20
-315.725
 30
0.000000
  70
    32
  0
VERTEX
  8
01
  5
1A654
 10
2572.35
 20
-315.804
 30
0.000000
  70
    32
  0
VERTEX
  8
01
  5
1A655
 10
2572.30
 20
-315.883
 30
0.000000
  70
    32
  0
VERTEX
  8
01
  5
1A656
 10
2572.24
 20
-315.961
 30
0.000000
  70
    32
  0
VERTEX
  8
01
  5
1A657
 10
2572.18
 20
-316.037
 30
0.000000
  70
    32
  0
VERTEX
  8
01
  5
1A658
 10
2572.12
 20
-316.113
 30
0.000000
  70
    32
  0
VERTEX
  8
01
  5
1A659
 10
2572.05
 20
-316.188
 30
0.000000
  70
    32
  0
VERTEX
  8
01
  5
1A65A
 10
2571.99
 20
-316.261
 30
0.000000
  70
    32
  0
VERTEX
  8
01
  5
1A65B
 10
2571.92
 20
-316.333
 30
0.000000
  70
    32
  0
VERTEX
  8
01
  5
1A65C
 10
2571.85
 20
-316.404
 30
0.000000
  70
    32
  0
VERTEX
  8
01
  5
1A65D
 10
2571.77
 20
-316.474
 30
0.000000
  70
    32
  0
VERTEX
  8
01
  5
1A65E
 10
2571.70
 20
-316.542
 30
0.000000
  70
    32
  0
VERTEX
  8
01
  5
1A65F
 10
2571.62
 20
-316.609
 30
0.000000
  70
    32
  0
VERTEX
  8
01
  5
1A660
 10
2571.54
 20
-316.675
 30
0.000000
  70
    32
  0
VERTEX
  8
01
  5
1A661
 10
2571.45
 20
-316.739
 30
0.000000
  70
    32
  0
VERTEX
  8
01
  5
1A662
 10
2571.37
 20
-316.802
 30
0.000000
  70
    32
  0
VERTEX
  8
01
  5
1A663
 10
2571.28
 20
-316.863
 30
0.000000
  70
    32
  0
VERTEX
  8
01
  5
1A664
 10
2571.19
 20
-316.923
 30
0.000000
  70
    32
  0
VERTEX
  8
01
  5
1A665
 10
2571.10
 20
-316.981
 30
0.000000
  70
    32
  0
VERTEX
  8
01
  5
1A666
 10
2571.00
 20
-317.037
 30
0.000000
  70
    32
  0
VERTEX
  8
01
  5
1A667
 10
2570.91
 20
-317.092
 30
0.000000
  70
    32
  0
VERTEX
  8
01
  5
1A668
 10
2570.81
 20
-317.145
 30
0.000000
  70
    32
  0
VERTEX
  8
01
  5
1A669
 10
2570.71
 20
-317.196
 30
0.000000
  70
    32
  0
VERTEX
  8
01
  5
1A66A
 10
2570.61
 20
-317.246
 30
0.000000
  70
    32
  0
VERTEX
  8
01
  5
1A66B
 10
2570.51
 20
-317.293
 30
0.000000
  70
    32
  0
VERTEX
  8
01
  5
1A66C
 10
2570.40
 20
-317.339
 30
0.000000
  70
    32
  0
VERTEX
  8
01
  5
1A66D
 10
2570.29
 20
-317.383
 30
0.000000
  70
    32
  0
VERTEX
  8
01
  5
1A66E
 10
2570.19
 20
-317.426
 30
0.000000
  70
    32
  0
VERTEX
  8
01
  5
1A66F
 10
2570.08
 20
-317.466
 30
0.000000
  70
    32
  0
VERTEX
  8
01
  5
1A670
 10
2569.97
 20
-317.504
 30
0.000000
  70
    32
  0
VERTEX
  8
01
  5
1A671
 10
2569.86
 20
-317.541
 30
0.000000
  70
    32
  0
VERTEX
  8
01
  5
1A672
 10
2569.74
 20
-317.575
 30
0.000000
  70
    32
  0
VERTEX
  8
01
  5
1A673
 10
2569.63
 20
-317.608
 30
0.000000
  70
    32
  0
VERTEX
  8
01
  5
1A674
 10
2569.51
 20
-317.638
 30
0.000000
  70
    32
  0
VERTEX
  8
01
  5
1A675
 10
2569.40
 20
-317.667
 30
0.000000
  70
    32
  0
VERTEX
  8
01
  5
1A676
 10
2569.28
 20
-317.693
 30
0.000000
  70
    32
  0
VERTEX
  8
01
  5
1A677
 10
2569.16
 20
-317.718
 30
0.000000
  70
    32
  0
VERTEX
  8
01
  5
1A678
 10
2569.05
 20
-317.740
 30
0.000000
  70
    32
  0
VERTEX
  8
01
  5
1A679
 10
2568.93
 20
-317.760
 30
0.000000
  70
    32
  0
VERTEX
  8
01
  5
1A67A
 10
2568.81
 20
-317.778
 30
0.000000
  70
    32
  0
VERTEX
  8
01
  5
1A67B
 10
2568.69
 20
-317.794
 30
0.000000
  70
    32
  0
VERTEX
  8
01
  5
1A67C
 10
2568.56
 20
-317.808
 30
0.000000
  70
    32
  0
VERTEX
  8
01
  5
1A67D
 10
2568.44
 20
-317.820
 30
0.000000
  70
    32
  0
VERTEX
  8
01
  5
1A67E
 10
2568.32
 20
-317.830
 30
0.000000
  70
    32
  0
VERTEX
  8
01
  5
1A67F
 10
2568.20
 20
-317.837
 30
0.000000
  70
    32
  0
VERTEX
  8
01
  5
1A680
 10
2568.08
 20
-317.843
 30
0.000000
  70
    32
  0
VERTEX
  8
01
  5
1A681
 10
2567.95
 20
-317.846
 30
0.000000
  70
    32
  0
VERTEX
  8
01
  5
1A682
 10
2567.83
 20
-317.847
 30
0.000000
  70
    32
  0
VERTEX
  8
01
  5
1A683
 10
2567.71
 20
-317.846
 30
0.000000
  70
    32
  0
VERTEX
  8
01
  5
1A684
 10
2567.58
 20
-317.843
 30
0.000000
  70
    32
  0
VERTEX
  8
01
  5
1A685
 10
2567.46
 20
-317.837
 30
0.000000
  70
    32
  0
VERTEX
  8
01
  5
1A686
 10
2567.34
 20
-317.830
 30
0.000000
  70
    32
  0
VERTEX
  8
01
  5
1A687
 10
2567.22
 20
-317.820
 30
0.000000
  70
    32
  0
VERTEX
  8
01
  5
1A688
 10
2567.10
 20
-317.808
 30
0.000000
  70
    32
  0
VERTEX
  8
01
  5
1A689
 10
2566.98
 20
-317.794
 30
0.000000
  70
    32
  0
VERTEX
  8
01
  5
1A68A
 10
2566.85
 20
-317.778
 30
0.000000
  70
    32
  0
VERTEX
  8
01
  5
1A68B
 10
2566.73
 20
-317.760
 30
0.000000
  70
    32
  0
VERTEX
  8
01
  5
1A68C
 10
2566.62
 20
-317.740
 30
0.000000
  70
    32
  0
VERTEX
  8
01
  5
1A68D
 10
2566.50
 20
-317.718
 30
0.000000
  70
    32
  0
VERTEX
  8
01
  5
1A68E
 10
2566.38
 20
-317.693
 30
0.000000
  70
    32
  0
VERTEX
  8
01
  5
1A68F
 10
2566.26
 20
-317.667
 30
0.000000
  70
    32
  0
VERTEX
  8
01
  5
1A690
 10
2566.15
 20
-317.638
 30
0.000000
  70
    32
  0
VERTEX
  8
01
  5
1A691
 10
2566.03
 20
-317.608
 30
0.000000
  70
    32
  0
VERTEX
  8
01
  5
1A692
 10
2565.92
 20
-317.575
 30
0.000000
  70
    32
  0
VERTEX
  8
01
  5
1A693
 10
2565.80
 20
-317.541
 30
0.000000
  70
    32
  0
VERTEX
  8
01
  5
1A694
 10
2565.69
 20
-317.504
 30
0.000000
  70
    32
  0
VERTEX
  8
01
  5
1A695
 10
2565.58
 20
-317.466
 30
0.000000
  70
    32
  0
VERTEX
  8
01
  5
1A696
 10
2565.47
 20
-317.426
 30
0.000000
  70
    32
  0
VERTEX
  8
01
  5
1A697
 10
2565.37
 20
-317.383
 30
0.000000
  70
    32
  0
VERTEX
  8
01
  5
1A698
 10
2565.26
 20
-317.339
 30
0.000000
  70
    32
  0
VERTEX
  8
01
  5
1A699
 10
2565.16
 20
-317.293
 30
0.000000
  70
    32
  0
VERTEX
  8
01
  5
1A69A
 10
2565.05
 20
-317.246
 30
0.000000
  70
    32
  0
VERTEX
  8
01
  5
1A69B
 10
2564.95
 20
-317.196
 30
0.000000
  70
    32
  0
VERTEX
  8
01
  5
1A69C
 10
2564.85
 20
-317.145
 30
0.000000
  70
    32
  0
VERTEX
  8
01
  5
1A69D
 10
2564.75
 20
-317.092
 30
0.000000
  70
    32
  0
VERTEX
  8
01
  5
1A69E
 10
2564.66
 20
-317.037
 30
0.000000
  70
    32
  0
VERTEX
  8
01
  5
1A69F
 10
2564.56
 20
-316.981
 30
0.000000
  70
    32
  0
VERTEX
  8
01
  5
1A6A0
 10
2564.47
 20
-316.923
 30
0.000000
  70
    32
  0
VERTEX
  8
01
  5
1A6A1
 10
2564.38
 20
-316.863
 30
0.000000
  70
    32
  0
VERTEX
  8
01
  5
1A6A2
 10
2564.29
 20
-316.802
 30
0.000000
  70
    32
  0
VERTEX
  8
01
  5
1A6A3
 10
2564.21
 20
-316.739
 30
0.000000
  70
    32
  0
VERTEX
  8
01
  5
1A6A4
 10
2564.13
 20
-316.675
 30
0.000000
  70
    32
  0
VERTEX
  8
01
  5
1A6A5
 10
2564.04
 20
-316.609
 30
0.000000
  70
    32
  0
VERTEX
  8
01
  5
1A6A6
 10
2563.97
 20
-316.542
 30
0.000000
  70
    32
  0
VERTEX
  8
01
  5
1A6A7
 10
2563.89
 20
-316.474
 30
0.000000
  70
    32
  0
VERTEX
  8
01
  5
1A6A8
 10
2563.81
 20
-316.404
 30
0.000000
  70
    32
  0
VERTEX
  8
01
  5
1A6A9
 10
2563.74
 20
-316.333
 30
0.000000
  70
    32
  0
VERTEX
  8
01
  5
1A6AA
 10
2563.67
 20
-316.261
 30
0.000000
  70
    32
  0
VERTEX
  8
01
  5
1A6AB
 10
2563.61
 20
-316.188
 30
0.000000
  70
    32
  0
VERTEX
  8
01
  5
1A6AC
 10
2563.54
 20
-316.113
 30
0.000000
  70
    32
  0
VERTEX
  8
01
  5
1A6AD
 10
2563.48
 20
-316.037
 30
0.000000
  70
    32
  0
VERTEX
  8
01
  5
1A6AE
 10
2563.42
 20
-315.961
 30
0.000000
  70
    32
  0
VERTEX
  8
01
  5
1A6AF
 10
2563.36
 20
-315.883
 30
0.000000
  70
    32
  0
VERTEX
  8
01
  5
1A6B0
 10
2563.31
 20
-315.804
 30
0.000000
  70
    32
  0
VERTEX
  8
01
  5
1A6B1
 10
2563.26
 20
-315.725
 30
0.000000
  70
    32
  0
VERTEX
  8
01
  5
1A6B2
 10
2563.21
 20
-315.644
 30
0.000000
  70
    32
  0
VERTEX
  8
01
  5
1A6B3
 10
2563.17
 20
-315.563
 30
0.000000
  70
    32
  0
VERTEX
  8
01
  5
1A6B4
 10
2563.12
 20
-315.481
 30
0.000000
  70
    32
  0
VERTEX
  8
01
  5
1A6B5
 10
2563.08
 20
-315.398
 30
0.000000
  70
    32
  0
VERTEX
  8
01
  5
1A6B6
 10
2563.05
 20
-315.314
 30
0.000000
  70
    32
  0
VERTEX
  8
01
  5
1A6B7
 10
2563.01
 20
-315.230
 30
0.000000
  70
    32
  0
VERTEX
  8
01
  5
1A6B8
 10
2562.98
 20
-315.146
 30
0.000000
  70
    32
  0
VERTEX
  8
01
  5
1A6B9
 10
2562.95
 20
-315.060
 30
0.000000
  70
    32
  0
VERTEX
  8
01
  5
1A6BA
 10
2562.93
 20
-314.975
 30
0.000000
  70
    32
  0
VERTEX
  8
01
  5
1A6BB
 10
2562.90
 20
-314.889
 30
0.000000
  70
    32
  0
VERTEX
  8
01
  5
1A6BC
 10
2562.88
 20
-314.802
 30
0.000000
  70
    32
  0
VERTEX
  8
01
  5
1A6BD
 10
2562.87
 20
-314.715
 30
0.000000
  70
    32
  0
VERTEX
  8
01
  5
1A6BE
 10
2562.85
 20
-314.628
 30
0.000000
  70
    32
  0
VERTEX
  8
01
  5
1A6BF
 10
2562.84
 20
-314.541
 30
0.000000
  70
    32
  0
VERTEX
  8
01
  5
1A6C0
 10
2562.84
 20
-314.454
 30
0.000000
  70
    32
  0
VERTEX
  8
01
  5
1A6C1
 10
2562.83
 20
-314.366
 30
0.000000
  70
    32
  0
VERTEX
  8
01
  5
1A6C2
 10
2562.83
 20
-314.279
 30
0.000000
  70
    32
  0
SEQEND
  8
01
  5
1A6C3
  0
LINE
  5
1A01D
  8
01
 10
2572.8303333638619
 20
-301.41542369006788
 30
0.0
 11
2572.8303333638619
 21
-314.27858369006867
 31
0.0
  0
LINE
  5
1A01E
  8
01
 10
2562.8303333638628
 20
-301.41542369006788
 30
0.0
 11
2562.8303333638628
 21
-314.27858369006589
 31
0.0
  0
LINE
  5
1A01F
  8
01
 10
2558.8303183638609
 20
-267.84700369006828
 30
0.0
 11
2557.8303183638609
 21
-266.84700369006828
 31
0.0
  0
LINE
  5
1A020
  8
01
 10
2560.2303353638608
 20
-267.74702369006832
 30
0.0
 11
2559.4303543638612
 21
-266.94704369006757
 31
0.0
  0
LINE
  5
1A021
  8
01
 10
2560.2303353638608
 20
-349.94701369006748
 30
0.0
 11
2559.430332363861
 21
-350.74699369006822
 31
0.0
  0
LINE
  5
1A022
  8
01
 10
2558.830280363863
 20
-349.84703369006752
 30
0.0
 11
2557.8302953638599
 21
-350.84703369006752
 31
0.0
  0
LINE
  5
1A023
  8
01
 10
2561.8303333638628
 20
-373.84700369006828
 30
0.0
 11
2557.8303333638619
 21
-373.84700369006828
 31
0.0
  0
LINE
  5
1A024
  8
01
 10
2559.4303393638629
 20
-373.84700369006828
 30
0.0
 11
2559.4303393638629
 21
-350.74699369006822
 31
0.0
  0
LINE
  5
1A025
  8
01
 10
2557.8303333638619
 20
-373.84700369006828
 30
0.0
 11
2557.8303333638619
 21
-350.84700369006828
 31
0.0
  0
LINE
  5
1A026
  8
01
 10
2558.8303333638628
 20
-267.84700369006828
 30
0.0
 11
2558.8303333638628
 21
-349.84700369006828
 31
0.0
  0
LINE
  5
1A027
  8
01
 10
2561.8303333638628
 20
-243.84700369006831
 30
0.0
 11
2557.8303333638619
 21
-243.84700369006831
 31
0.0
  0
LINE
  5
1A02A
  8
01
 10
2668.3303333638619
 20
-249.84700369006831
 30
0.0
 11
2668.3303333638619
 21
-367.84700369006828
 31
0.0
  0
LINE
  5
1A02B
  8
01
 10
2693.3303333638619
 20
-249.84700369006831
 30
0.0
 11
2693.3303333638619
 21
-367.84700369006828
 31
0.0
  0
ARC
  5
1A02C
  8
01
 10
2687.3303333638619
 20
-367.84700369006828
 30
0.0
 40
6.0
 50
270.0
 51
0.0
  0
ARC
  5
1A02D
  8
01
 10
2674.3303333638628
 20
-367.84700369006828
 30
0.0
 40
6.0
 50
180.0
 51
270.0
  0
LINE
  5
1A02E
  8
01
 10
2688.5803333638628
 20
-301.41542369006788
 30
0.0
 11
2688.5803333638628
 21
-314.27858369006782
 31
0.0
  0
LINE
  5
1A02F
  8
01
 10
2687.5803333638628
 20
-302.84700369006828
 30
0.0
 11
2687.5803333638628
 21
-312.84700369006828
 31
0.0
  0
LINE
  5
1A030
  8
01
 10
2674.0803333638628
 20
-302.84700369006828
 30
0.0
 11
2674.0803333638628
 21
-312.84700369006828
 31
0.0
  0
LINE
  5
1A031
  8
01
 10
2673.0803333638619
 20
-301.41542369006788
 30
0.0
 11
2673.0803333638619
 21
-314.27858369006782
 31
0.0
  0
ARC
  5
1A032
  8
01
 10
2680.8303333638628
 20
-307.6469936900678
 30
0.0
 40
10.199999999999999
 50
220.55307999994011
 51
319.44692000005978
  0
LINE
  5
1A033
  8
01
 10
2674.0803333638628
 20
-312.84700369006828
 30
0.0
 11
2687.5803333638628
 21
-312.84700369006828
 31
0.0
  0
LINE
  5
1A034
  8
01
 10
2674.0803333638628
 20
-302.84700369006828
 30
0.0
 11
2687.5803333638628
 21
-302.84700369006828
 31
0.0
  0
ARC
  5
1A035
  8
01
 10
2680.8303333638628
 20
-308.04701369006779
 30
0.0
 40
10.199999999999999
 50
40.553083999943112
 51
139.44692000005981
  0
CIRCLE
  5
1A036
  8
01
 10
2680.8303333638628
 20
-365.84700369006828
 30
0.0
 40
4.5
  0
CIRCLE
  5
1A037
  8
01
 10
2680.8303333638628
 20
-365.84700369006828
 30
0.0
 40
2.75
  0
LINE
  5
1A038
  8
01
 10
2674.3303333638628
 20
-373.84700369006828
 30
0.0
 11
2687.3303333638619
 21
-373.84700369006828
 31
0.0
  0
ARC
  5
1A039
  8
01
 10
2687.3303333638619
 20
-249.84700369006831
 30
0.0
 40
6.0
 50
0.0
 51
90.0
  0
ARC
  5
1A03B
  8
01
 10
2674.3303333638628
 20
-249.84700369006831
 30
0.0
 40
6.0
 50
90.0
 51
180.0
  0
LINE
  5
1A03C
  8
01
 10
2674.3303333638628
 20
-243.84700369006831
 30
0.0
 11
2687.3303333638619
 21
-243.84700369006831
 31
0.0
  0
CIRCLE
  5
1A03D
  8
01
 10
2680.8303333638628
 20
-251.84700369006831
 30
0.0
 40
4.5
  0
CIRCLE
  5
1A03E
  8
01
 10
2680.8303333638628
 20
-251.84700369006831
 30
0.0
 40
2.75
  0
TEXT
  5
1A03F
  8
01
 10
2492.8303493638609
 20
-48.34700369006805
 30
0.0
 40
20.0
  1
2-DRB-X-LW
  0
LINE
  5
1A041
  8
01
 10
2802.2302270241171
 20
-243.84700369006831
 30
0.0
 11
2802.2302270241171
 21
-266.94697369006758
 31
0.0
  0
LINE
  5
1A042
  8
01
 10
2803.8302170241159
 20
-243.84700369006831
 30
0.0
 11
2803.8302170241159
 21
-266.84700369006828
 31
0.0
  0
LINE
  5
1A043
  8
01
 10
2801.4302270241178
 20
-243.84700369006831
 30
0.0
 11
2801.4302270241178
 21
-373.84700369006828
 31
0.0
  0
LINE
  5
1A044
  8
01
 10
2799.8302170241159
 20
-243.84700369006831
 30
0.0
 11
2799.8302170241159
 21
-373.84700369006828
 31
0.0
  0
LINE
  5
1A045
  8
01
 10
2827.245264193974
 20
-345.84700369006828
 30
0.0
 11
2868.8302170241159
 21
-345.84700369006828
 31
0.0
  0
LINE
  5
1A046
  8
01
 10
2802.8302270241161
 20
-267.84700369006828
 30
0.0
 11
2803.8302270241161
 21
-266.84700369006828
 31
0.0
  0
LINE
  5
1A047
  8
01
 10
2801.4302170241181
 20
-267.74702369006832
 30
0.0
 11
2802.2302270241171
 21
-266.94697369006758
 31
0.0
  0
LINE
  5
1A048
  8
01
 10
2792.8302170241159
 20
-297.84700369006828
 30
0.0
 11
2799.8302170241159
 21
-297.84700369006828
 31
0.0
  0
LINE
  5
1A049
  8
01
 10
2792.8302170241159
 20
-317.84700369006828
 30
0.0
 11
2799.8302170241159
 21
-317.84700369006828
 31
0.0
  0
LINE
  5
1A04A
  8
01
 10
2788.912317024116
 20
-314.65327369006832
 30
0.0
 11
2799.8302170241159
 21
-314.65327369006832
 31
0.0
  0
LINE
  5
1A04B
  8
01
 10
2788.912317024116
 20
-301.04072369006758
 30
0.0
 11
2799.8302170241159
 21
-301.04072369006758
 31
0.0
  0
LINE
  5
1A04C
  8
01
 10
2788.8302170241159
 20
-301.84700369006828
 30
0.0
 11
2788.8302170241159
 21
-313.84700369006828
 31
0.0
  0
ARC
  5
1A04D
  8
01
 10
2792.8302170241159
 20
-313.84700369006828
 30
0.0
 40
4.0
 50
179.999989999999
 51
270.0
  0
ARC
  5
1A04E
  8
01
 10
2792.8302170241159
 20
-301.84700369006828
 30
0.0
 40
4.0
 50
90.000002999984659
 51
180.000010000001
  0
LINE
  5
1A04F
  8
01
 10
2801.4302170241181
 20
-349.94701369006748
 30
0.0
 11
2802.2302270241171
 21
-350.74699369006822
 31
0.0
  0
LINE
  5
1A050
  8
01
 10
2802.8302670241178
 20
-349.84703369006752
 30
0.0
 11
2803.8302470241151
 21
-350.84700369006828
 31
0.0
  0
LINE
  5
1A051
  8
01
 10
2794.8302170241159
 20
-365.84700369006828
 30
0.0
 11
2808.8302170241159
 21
-365.84700369006828
 31
0.0
  0
LINE
  5
1A052
  8
01
 10
2799.8302170241159
 20
-373.84700369006828
 30
0.0
 11
2803.8302170241159
 21
-373.84700369006828
 31
0.0
  0
LINE
  5
1A053
  8
01
 10
2802.2302270241171
 20
-373.84700369006828
 30
0.0
 11
2802.2302270241171
 21
-350.74699369006822
 31
0.0
  0
LINE
  5
1A054
  8
01
 10
2803.8302170241159
 20
-373.84700369006828
 30
0.0
 11
2803.8302170241159
 21
-350.84700369006828
 31
0.0
  0
LINE
  5
1A055
  8
01
 10
2802.8302170241159
 20
-267.84700369006828
 30
0.0
 11
2802.8302170241159
 21
-349.84700369006828
 31
0.0
  0
LINE
  5
1A056
  8
01
 10
2868.8302170241159
 20
-271.34700369006828
 30
0.0
 11
2868.8302170241159
 21
-283.06480091135251
 31
0.0
  0
LINE
  5
1A057
  8
01
 10
2868.8302170241159
 20
-283.06480091135251
 30
0.0
 11
2868.8302170241168
 21
-307.75062389610412
 31
0.0
  0
LINE
  5
1A058
  8
01
 10
2868.8302170241168
 20
-307.75062389610389
 30
0.0
 11
2868.8302170241159
 21
-345.84700369006828
 31
0.0
  0
LINE
  5
1A059
  8
01
 10
2799.8302170241159
 20
-243.84700369006831
 30
0.0
 11
2803.8302170241159
 21
-243.84700369006831
 31
0.0
  0
LINE
  5
1A05A
  8
01
 10
2794.8302170241159
 20
-251.84700369006831
 30
0.0
 11
2808.8302170241159
 21
-251.84700369006831
 31
0.0
  0
LINE
  5
1A05B
  8
01
 10
2566.8303373638601
 20
-365.84700369006828
 30
0.0
 11
2552.8303373638601
 21
-365.84700369006828
 31
0.0
  0
LINE
  5
1A05C
  8
01
 10
2566.8303373638601
 20
-251.84700369006831
 30
0.0
 11
2552.8303373638601
 21
-251.84700369006831
 31
0.0
  0
LINE
  5
1A05D
  8
01
 10
2687.3303333638619
 20
-251.84700369006831
 30
0.0
 11
2674.3303333638628
 21
-251.84700369006831
 31
0.0
  0
LINE
  5
1A05E
  8
01
 10
2680.8303333638628
 20
-245.34700369006831
 30
0.0
 11
2680.8303333638628
 21
-258.34700369006828
 31
0.0
  0
LINE
  5
1A05F
  8
01
 10
2687.3303333638619
 20
-365.84700369006828
 30
0.0
 11
2674.3303333638628
 21
-365.84700369006828
 31
0.0
  0
LINE
  5
1A060
  8
01
 10
2680.8303333638628
 20
-359.34700369006828
 30
0.0
 11
2680.8303333638628
 21
-372.34700369006828
 31
0.0
  0
LINE
  5
1A061
  8
01
 10
2540.8303373638601
 20
-329.84700369006828
 30
0.0
 11
2480.8303373638601
 21
-329.84700369006828
 31
0.0
  0
LINE
  5
1A062
  8
01
 10
2510.8303373638601
 20
-299.84700369006828
 30
0.0
 11
2510.8303373638601
 21
-359.84700369006828
 31
0.0
  0
LINE
  5
1A063
  8
01
 10
2492.8303493638609
 20
-109.84700369006799
 30
0.0
 11
2597.8303493638609
 21
-109.84700369006799
 31
0.0
  0
TEXT
  5
1A064
  8
01
 10
2505.3303493638632
 20
-107.31337410742429
 30
0.0
 40
6.0
  1
クローム
 72
     1
 11
2518.9303493638631
 21
-107.31337410742429
 31
0.0
  0
TEXT
  5
1A065
  8
01
 10
2505.3303493638632
 20
-86.597003690068036
 30
0.0
 40
6.0
  1
表面処理
 72
     1
 11
2518.9303493638631
 21
-86.597003690068036
 31
0.0
  0
TEXT
  5
1A066
  8
01
 10
2501.7303493638628
 20
-96.849936679354855
 30
0.0
 40
6.0
  1
本金メッキ
 72
     1
 11
2518.9303493638631
 21
-96.849936679354855
 31
0.0
  0
LINE
  5
1A067
  8
01
 10
2492.8303493638609
 20
-78.34700369006805
 30
0.0
 11
2597.8303493638609
 21
-78.34700369006805
 31
0.0
  0
LINE
  5
1A068
  8
01
 10
2492.8303493638609
 20
-88.847003690068064
 30
0.0
 11
2597.8303493638609
 21
-88.847003690068064
 31
0.0
  0
LINE
  5
1A069
  8
01
 10
2492.8303493638609
 20
-99.347003690068036
 30
0.0
 11
2597.8303493638609
 21
-99.347003690068036
 31
0.0
  0
LINE
  5
1A06A
  8
01
 10
2492.8303493638609
 20
-99.347003690068036
 30
0.0
 11
2597.8303493638609
 21
-99.347003690068036
 31
0.0
  0
LINE
  5
1A06B
  8
01
 10
2545.33034936386
 20
-78.34700369006805
 30
0.0
 11
2545.33034936386
 21
-120.34700369006799
 31
0.0
  0
TEXT
  5
1A06C
  8
01
 10
2549.030349363863
 20
-97.418539165541915
 30
0.0
 40
6.0
  1
2-DRB-G-LW
 41
0.7
 72
     1
 11
2571.4303493638631
 21
-97.418539165541915
 31
0.0
  0
TEXT
  5
1A06D
  8
01
 10
2561.4303493638631
 20
-86.597003690068036
 30
0.0
 40
6.0
  1
コード
 72
     1
 11
2571.4303493638631
 21
-86.597003690068036
 31
0.0
  0
LINE
  5
1A06E
  8
01
 10
2492.8303493638609
 20
-120.34700369006799
 30
0.0
 11
2597.8303493638609
 21
-120.34700369006799
 31
0.0
  0
TEXT
  5
1A06F
  8
01
 10
2494.530349363863
 20
-117.81337410742429
 30
0.0
 40
6.0
  1
ダークアンバー
 72
     1
 11
2518.9303493638631
 21
-117.81337410742429
 31
0.0
  0
LINE
  5
1A070
  8
01
 10
2492.8303493638609
 20
-120.34700369006799
 30
0.0
 11
2492.8303493638609
 21
-78.34700369006805
 31
0.0
  0
LINE
  5
1A071
  8
01
 10
2597.8303493638609
 20
-120.34700369006799
 30
0.0
 11
2597.8303493638609
 21
-78.34700369006805
 31
0.0
  0
TEXT
  5
1A072
  8
01
 10
2549.030349363863
 20
-107.9185391655419
 30
0.0
 40
6.0
  1
2-DRB-C-LW
 41
0.7
 72
     1
 11
2571.4303493638631
 21
-107.9185391655419
 31
0.0
  0
TEXT
  5
1A073
  8
01
 10
2546.9303493638631
 20
-118.4185391655419
 30
0.0
 40
6.0
  1
2-DRB-4Q-LW
 41
0.7
 72
     1
 11
2571.4303493638631
 21
-118.4185391655419
 31
0.0
  0
LINE
  5
1A074
  8
01
 10
2799.8311012061758
 20
-39.847003691096688
 30
0.0
 11
2953.5854813612109
 21
-39.847003691096688
 31
0.0
  0
LINE
  5
1A077
  8
01
 10
2803.8311012061758
 20
-50.347003691096688
 30
0.0
 11
2869.8311012061758
 21
-50.347003691096688
 31
0.0
  0
LINE
  5
1A078
  8
01
 10
2803.8311012061758
 20
-51.946973691095991
 30
0.0
 11
2869.8311012061758
 21
-51.946973691095991
 31
0.0
  0
LINE
  5
1A079
  8
01
 10
2801.4311112061778
 20
-69.347003691096688
 30
0.0
 11
2869.8311012061758
 21
-69.347003691096688
 31
0.0
  0
LINE
  5
1A07A
  8
01
 10
2803.0310912061768
 20
-54.847003691096688
 30
0.0
 11
2803.8311012061758
 21
-54.046983691096102
 31
0.0
  0
LINE
  5
1A07B
  8
01
 10
2803.8311012061758
 20
-49.347003691096688
 30
0.0
 11
2803.8311012061758
 21
-54.046983691096102
 31
0.0
  0
LINE
  5
1A07C
  8
01
 10
2801.4311112061778
 20
-54.84697369109653
 30
0.0
 11
2802.2311012061782
 21
-54.047013691096247
 31
0.0
  0
LINE
  5
1A07D
  8
01
 10
2788.8311012061758
 20
-67.597003691096688
 30
0.0
 11
2799.8311012061758
 21
-67.597003691096688
 31
0.0
  0
LINE
  5
1A07E
  8
01
 10
2788.8311012061758
 20
-67.597003691096688
 30
0.0
 11
2788.8311012061758
 21
-65.597003691096688
 31
0.0
  0
LINE
  5
1A07F
  8
01
 10
2799.8311012061758
 20
-47.347003691096688
 30
0.0
 11
2801.4311112061778
 21
-47.347003691096688
 31
0.0
  0
LINE
  5
1A080
  8
01
 10
2801.4311112061778
 20
-47.347003691096688
 30
0.0
 11
2801.4311112061778
 21
-54.847003691096688
 31
0.0
  0
LINE
  5
1A081
  8
01
 10
2802.231111206177
 20
-49.347003691096688
 30
0.0
 11
2802.231111206177
 21
-54.046983691096102
 31
0.0
  0
LINE
  5
1A082
  8
01
 10
2801.4311112061778
 20
-49.347003691096688
 30
0.0
 11
2803.8311012061758
 21
-49.347003691096688
 31
0.0
  0
LINE
  5
1A083
  8
01
 10
2803.8311012061758
 20
-65.646993691096213
 30
0.0
 11
2803.8311012061758
 21
-69.347003691096688
 31
0.0
  0
LINE
  5
1A084
  8
01
 10
2803.0311112061768
 20
-64.846973691096537
 30
0.0
 11
2803.8311012061758
 21
-65.646993691096213
 31
0.0
  0
LINE
  5
1A085
  8
01
 10
2803.8311012061758
 20
-67.746993691096577
 30
0.0
 11
2808.4311112061778
 21
-67.746993691096577
 31
0.0
  0
LINE
  5
1A086
  8
01
 10
2801.431101206178
 20
-64.846973691096537
 30
0.0
 11
2802.231111206177
 21
-65.646993691096213
 31
0.0
  0
LINE
  5
1A087
  8
01
 10
2801.4311112061778
 20
-64.847003691096688
 30
0.0
 11
2801.4311112061778
 21
-72.347003691096688
 31
0.0
  0
LINE
  5
1A088
  8
01
 10
2799.8311012061758
 20
-72.347003691096688
 30
0.0
 11
2801.4311112061778
 21
-72.347003691096688
 31
0.0
  0
LINE
  5
1A089
  8
01
 10
2802.231111206177
 20
-65.646993691096213
 30
0.0
 11
2802.231111206177
 21
-69.347003691096688
 31
0.0
  0
LINE
  5
1A08A
  8
01
 10
2799.8311012061758
 20
-39.847003691096688
 30
0.0
 11
2799.8311012061758
 21
-79.847003691096688
 31
0.0
  0
LINE
  5
1A08B
  8
01
 10
2808.4311112061778
 20
-51.946973691095991
 30
0.0
 11
2808.4311112061778
 21
-69.347003691096688
 31
0.0
  0
LINE
  5
1A08C
  8
01
 10
2803.0311012061761
 20
-54.847003691096688
 30
0.0
 11
2803.0311012061761
 21
-64.847003691096688
 31
0.0
  0
LINE
  5
1A08D
  8
01
 10
2801.4311112061778
 20
-54.847003691096688
 30
0.0
 11
2801.4311112061778
 21
-64.847003691096688
 31
0.0
  0
ARC
  5
1A08E
  8
01
 10
2832.5006012061758
 20
-89.948083691096144
 30
0.0
 40
50.0
 50
130.7976899999976
 51
150.85500000007079
  0
LINE
  5
1A08F
  8
01
 10
2868.2311012061768
 20
-51.946973691095991
 30
0.0
 11
2868.2311012061768
 21
-69.347003691096688
 31
0.0
  0
LINE
  5
1A090
  8
01
 10
2869.8311012061758
 20
-50.347003691096688
 30
0.0
 11
2869.8311012061758
 21
-69.347003691096688
 31
0.0
  0
LINE
  5
1A091
  8
01
  6
BYBLOCK
 10
2856.8311012058889
 20
-49.597003691096681
 30
0.0
 11
2844.8311012058889
 21
-49.597003691096681
 31
0.0
  0
LINE
  5
1A092
  8
01
  6
BYBLOCK
 10
2844.8311012058889
 20
-70.097003691096688
 30
0.0
 11
2856.8311012058889
 21
-70.097003691096688
 31
0.0
  0
LINE
  5
1A093
  8
01
  6
BYBLOCK
 10
2844.8311012058889
 20
-70.097003691096688
 30
0.0
 11
2844.8311012058889
 21
-69.347003691096688
 31
0.0
  0
LINE
  5
1A094
  8
01
  6
BYBLOCK
 10
2844.8311012058889
 20
-50.347003691096688
 30
0.0
 11
2844.8311012058889
 21
-49.597003691096681
 31
0.0
  0
LINE
  5
1A095
  8
01
  6
BYBLOCK
 10
2856.8311012058889
 20
-70.097003691096688
 30
0.0
 11
2856.8311012058889
 21
-69.347003691096688
 31
0.0
  0
LINE
  5
1A096
  8
01
  6
BYBLOCK
 10
2856.8311012058889
 20
-50.347003691096688
 30
0.0
 11
2856.8311012058889
 21
-49.597003691096681
 31
0.0
  0
LINE
  5
1A09B
  8
01
 10
2847.8302170241159
 20
-271.34700369006828
 30
0.0
 11
2853.8302170241159
 21
-271.34700369006828
 31
0.0
  0
LINE
  5
1A09C
  8
01
 10
2860.8302170241159
 20
-271.34700369006828
 30
0.0
 11
2868.8302170241159
 21
-271.34700369006828
 31
0.0
  0
LINE
  5
1A09D
  8
01
 10
2847.8302170241159
 20
-272.3470036900676
 30
0.0
 11
2847.8302170241159
 21
-271.34700369006828
 31
0.0
  0
LINE
  5
1A09E
  8
01
 10
2853.8302170241159
 20
-272.34700369006828
 30
0.0
 11
2853.8302170241159
 21
-271.34700369006828
 31
0.0
  0
ARC
  5
1A09F
  8
01
 10
2844.3302170241159
 20
-272.34700369006828
 30
0.0
 40
3.5
 50
179.99999999997391
 51
0.0
  0
ARC
  5
1A0A0
  8
01
 10
2857.3302170241159
 20
-272.34700369006828
 30
0.0
 40
3.5
 50
180.0
 51
0.0
  0
CIRCLE
  5
1A0A1
  8
01
 10
2850.830217023828
 20
-279.84700369035698
 30
0.0
 40
6.0
  0
LINE
  5
1A0A2
  8
01
 10
2840.8302170241159
 20
-271.34700369006828
 30
0.0
 11
2831.0564967683722
 21
-271.34700369006799
 31
0.0
  0
LINE
  5
1A0A3
  8
01
  6
BYBLOCK
 10
2831.0564967683722
 20
-271.34700369006828
 30
0.0
 11
2802.8302170241159
 21
-271.34700369006828
 31
0.0
  0
LINE
  5
1A0A4
  8
01
 10
2840.8302170241159
 20
-272.3470036900676
 30
0.0
 11
2840.8302170241159
 21
-271.34700369006828
 31
0.0
  0
LINE
  5
1A0A5
  8
01
 10
2860.8302170241159
 20
-272.34700369006828
 30
0.0
 11
2860.8302170241159
 21
-271.34700369006828
 31
0.0
  0
LINE
  5
1A0A6
  8
01
 10
2862.1421052913688
 20
-279.84700369035698
 30
0.0
 11
2839.5183287562859
 21
-279.84700369035698
 31
0.0
  0
LINE
  5
1A0A7
  8
01
 10
2850.830217023828
 20
-268.53511542281541
 30
0.0
 11
2850.830217023828
 21
-291.15889195789867
 31
0.0
  0
LINE
  5
1A0A8
  8
01
 10
2827.245264193974
 20
-345.84700369006828
 30
0.0
 11
2802.8302170241159
 21
-345.84700369006828
 31
0.0
  0
LINE
  5
1A0A9
  8
01
  6
BYBLOCK
 10
2530.6040492971429
 20
-271.3470036900685
 30
0.0
 11
2558.8303373638601
 21
-271.3470036900685
 31
0.0
  0
LINE
  5
1A0AA
  8
01
 10
2660.8304497036052
 20
-209.84700369006811
 30
0.0
 11
2660.8304497036052
 21
-399.84700369006828
 31
0.0
  0
LINE
  5
1A0AB
  8
01
 10
2662.9587350860379
 20
-329.84700369006828
 30
0.0
 11
2640.3304497036052
 21
-329.84700369006828
 31
0.0
  0
LINE
  5
1A0AC
  8
01
 10
2850.8302170241159
 20
-44.84700369212532
 30
0.0
 11
2850.8302170241159
 21
-18.34700369212533
 31
0.0
  0
POINT
  5
1A0AD
  8
01
 10
2646.3303333638628
 20
-329.84700369006828
 30
0.0
 50
180.0
  0
CIRCLE
  5
1A0AE
  8
01
 10
2646.3303333638628
 20
-329.84700369006828
 30
0.0
 40
2.5
  0
CIRCLE
  5
1A0AF
  8
01
 10
2646.3303333638628
 20
-329.84700369006828
 30
0.0
 40
3.0
  0
LINE
  5
1A0B1
  8
01
 10
2646.3303333638628
 20
-335.84700369006828
 30
0.0
 11
2646.3303333638628
 21
-323.84700369006828
 31
0.0
  0
LINE
  5
1A0B2
  8
01
 10
2822.330217506968
 20
-39.847003691096688
 30
0.0
 11
2822.330217506968
 21
-36.314510099065501
 31
0.0
  0
ARC
  5
1A0B3
  8
01
 10
2822.830217506968
 20
-36.314510099065501
 30
0.0
 40
0.5
 50
123.7052957882927
 51
180.0
  0
LINE
  5
1A0B4
  8
01
 10
2826.0493205707762
 20
-31.91365703594056
 30
0.0
 11
2825.844639714313
 21
-32.857242819762178
 31
0.0
  0
LINE
  5
1A0B5
  8
01
 10
2879.3302175069712
 20
-39.847003691096688
 30
0.0
 11
2879.3302175069698
 21
-36.304800040387363
 31
0.0
  0
LINE
  5
1A0B6
  8
01
 10
2860.3302175069639
 20
-31.047003691094691
 30
0.0
 11
2853.3303334299571
 21
-31.04700369109651
 31
0.0
  0
LINE
  5
1A0B7
  8
01
 10
2848.4106628455229
 20
-31.047003691098102
 30
0.0
 11
2841.3302175069748
 21
-31.047003691100151
 31
0.0
  0
LINE
  5
1A0B8
  8
01
 10
2824.788762379947
 20
-34.407029750402671
 30
0.0
 11
2822.5527568461089
 21
-35.898558681618852
 31
0.0
  0
ARC
  5
1A0B9
  8
01
 10
2823.4014590756542
 20
-32.327272663168969
 30
0.0
 40
2.5
 50
303.7052957882928
 51
347.76111671168923
  0
ARC
  5
1A0BA
  8
01
 10
2878.8302175069698
 20
-36.304800040387363
 30
0.0
 40
0.5
 50
0.0
 51
56.420016547952187
  0
ARC
  5
1A0BB
  8
01
 10
2840.3008540533569
 20
-231.0443547007531
 30
0.0
 40
200.0
 50
89.705107790683684
 51
93.955803299356518
  0
ARC
  5
1A0BC
  8
01
 10
2826.5379566985071
 20
-32.019651067259481
 30
0.0
 40
0.5
 50
93.955803299356518
 51
167.7611167116392
  0
ARC
  5
1A0BD
  8
01
 10
2861.3595809605858
 20
-231.0443547007531
 30
0.0
 40
200.0
 50
86.044196700643468
 51
90.294892209316302
  0
LINE
  5
1A0BE
  8
01
 10
2822.4077955358362
 20
-36.047003691096961
 30
0.0
 11
2879.2586344094061
 21
-36.047003691096961
 31
0.0
  0
LINE
  5
1A0BF
  8
01
 10
2825.387477045248
 20
-33.845736566082003
 30
0.0
 11
2876.2563638019642
 21
-33.845736566082003
 31
0.0
  0
LINE
  5
1A0C0
  8
01
 10
2826.3748479684932
 20
-31.547003691096961
 30
0.0
 11
2848.3101340102571
 21
-31.547003691096961
 31
0.0
  0
LINE
  5
1A0C1
  8
01
 10
2853.3505328496572
 20
-31.547003691096961
 30
0.0
 11
2875.2855870454491
 21
-31.547003691096961
 31
0.0
  0
ARC
  5
1A0C2
  8
01
 10
2875.1224864985152
 20
-32.019651067259481
 30
0.0
 40
0.5
 50
12.23888328836083
 51
86.044196700643468
  0
LINE
  5
1A0C3
  8
01
 10
2876.8716808170748
 20
-34.407029750402671
 30
0.0
 11
2879.1076863509129
 21
-35.898558681618852
 31
0.0
  0
ARC
  5
1A0C4
  8
01
 10
2878.258984121368
 20
-32.327272663168969
 30
0.0
 40
2.5
 50
192.23888328831069
 51
236.29470421170731
  0
LINE
  5
1A0C5
  8
01
 10
2875.6111226262469
 20
-31.91365703594056
 30
0.0
 11
2875.8158034827088
 21
-32.857242819762178
 31
0.0
  0
LINE
  5
1A0C6
  8
01
 10
2822.330217506968
 20
-39.847003691096688
 30
0.0
 11
2879.3302175069712
 21
-39.847003691096688
 31
0.0
  0
LINE
  5
1A0C7
  8
01
 10
2660.8304497036052
 20
-301.34700369006691
 30
0.0
 11
2657.297956111574
 21
-301.34700369006691
 31
0.0
  0
ARC
  5
1A0C8
  8
01
 10
2657.297956111574
 20
-301.84700369006691
 30
0.0
 40
0.5
 50
90.0
 51
146.29470421170731
  0
LINE
  5
1A0C9
  8
01
 10
2652.897103048449
 20
-305.06610675387418
 30
0.0
 11
2653.8406888322711
 21
-304.8614258974124
 31
0.0
  0
LINE
  5
1A0CA
  8
01
 10
2660.8304497036052
 20
-358.34700369006958
 30
0.0
 11
2657.2882460528958
 21
-358.34700369006919
 31
0.0
  0
LINE
  5
1A0CB
  8
01
 10
2652.0304497036041
 20
-339.34700369006282
 30
0.0
 11
2652.0304497036091
 21
-320.34700369007328
 31
0.0
  0
LINE
  5
1A0CC
  8
01
 10
2655.3904757629111
 20
-303.80554856304587
 30
0.0
 11
2656.8820046941269
 21
-301.56954302920832
 31
0.0
  0
ARC
  5
1A0CD
  8
01
 10
2653.3107186756779
 20
-302.41824525875319
 30
0.0
 40
2.5
 50
282.23888328830577
 51
326.2947042117072
  0
ARC
  5
1A0CE
  8
01
 10
2657.2882460528958
 20
-357.84700369006919
 30
0.0
 40
0.5
 50
213.5799834520225
 51
270.0
  0
ARC
  5
1A0CF
  8
01
 10
2852.027800713262
 20
-319.31764023645542
 30
0.0
 40
200.0
 50
176.04419670066989
 51
180.29489220931629
  0
ARC
  5
1A0D0
  8
01
 10
2653.0030970797679
 20
-305.55474288160599
 30
0.0
 40
0.5
 50
102.238883288358
 51
176.04419670066989
  0
ARC
  5
1A0D1
  8
01
 10
2852.027800713262
 20
-340.37636714368477
 30
0.0
 40
200.0
 50
179.70510779065759
 51
183.95580329933
  0
LINE
  5
1A0D2
  8
01
 10
2657.030449703605
 20
-301.42458171893418
 30
0.0
 11
2657.030449703605
 21
-358.27542059250499
 31
0.0
  0
LINE
  5
1A0D3
  8
01
 10
2654.8291825785909
 20
-304.40426322834702
 30
0.0
 11
2654.8291825785909
 21
-355.27314998506313
 31
0.0
  0
LINE
  5
1A0D4
  8
01
 10
2652.530449703605
 20
-305.3916341515926
 30
0.0
 11
2652.530449703605
 21
-354.30237322854799
 31
0.0
  0
ARC
  5
1A0D5
  8
01
 10
2653.0030970797679
 20
-354.1392726816141
 30
0.0
 40
0.5
 50
183.95580329933
 51
257.76111671164188
  0
LINE
  5
1A0D6
  8
01
 10
2655.3904757629111
 20
-355.88846700017461
 30
0.0
 11
2656.8820046941269
 21
-358.12447253401177
 31
0.0
  0
ARC
  5
1A0D7
  8
01
 10
2653.3107186756779
 20
-357.27577030446741
 30
0.0
 40
2.5
 50
33.70529578829273
 51
77.761116711694228
  0
LINE
  5
1A0D8
  8
01
 10
2652.897103048449
 20
-354.6279088093458
 30
0.0
 11
2653.8406888322711
 21
-354.8325896658078
 31
0.0
  0
LINE
  5
1A0D9
  8
01
 10
2660.8304497036052
 20
-301.34700369006691
 30
0.0
 11
2660.8304497036052
 21
-358.34700369006958
 31
0.0
  0
LINE
  5
1A0DB
  8
01
 10
2700.8302170241159
 20
-304.84700369006811
 30
0.0
 11
2700.8302170241159
 21
-354.84700369006811
 31
0.0
  0
POINT
  5
1A0DC
  8
01
 10
2715.3302170241159
 20
-329.84700369006811
 30
0.0
  0
LINE
  5
1A0DD
  8
01
 10
2714.9302170141182
 20
-331.59700369006799
 30
0.0
 11
2714.9302170141182
 21
-330.7470036700679
 31
0.0
  0
LINE
  5
1A0DE
  8
01
 10
2715.7302170341181
 20
-331.59700369006799
 30
0.0
 11
2715.7302170341181
 21
-330.7470036700679
 31
0.0
  0
LINE
  5
1A0DF
  8
01
 10
2714.430217044116
 20
-330.24700370006849
 30
0.0
 11
2713.5802170241159
 21
-330.24700370006849
 31
0.0
  0
LINE
  5
1A0E0
  8
01
 10
2714.430217044116
 20
-329.44700368006852
 30
0.0
 11
2713.5802170241159
 21
-329.44700368006852
 31
0.0
  0
LINE
  5
1A0E1
  8
01
 10
2713.5802170241159
 20
-330.24700370006849
 30
0.0
 11
2713.5802170241159
 21
-329.44700368006852
 31
0.0
  0
LINE
  5
1A0E2
  8
01
 10
2715.7302170341181
 20
-331.59700369006799
 30
0.0
 11
2714.9302170141182
 21
-331.59700369006799
 31
0.0
  0
LINE
  5
1A0E3
  8
01
 10
2715.7302170341181
 20
-328.09700369006811
 30
0.0
 11
2715.7302170341181
 21
-328.9470037100682
 31
0.0
  0
LINE
  5
1A0E4
  8
01
 10
2714.9302170141182
 20
-328.09700369006811
 30
0.0
 11
2714.9302170141182
 21
-328.9470037100682
 31
0.0
  0
LINE
  5
1A0E5
  8
01
 10
2716.2302170041162
 20
-329.44700368006852
 30
0.0
 11
2717.0802170241159
 21
-329.44700368006852
 31
0.0
  0
LINE
  5
1A0E6
  8
01
 10
2716.2302170041162
 20
-330.24700370006849
 30
0.0
 11
2717.0802170241159
 21
-330.24700370006849
 31
0.0
  0
LINE
  5
1A0E7
  8
01
 10
2717.0802170241159
 20
-329.44700368006852
 30
0.0
 11
2717.0802170241159
 21
-330.24700370006849
 31
0.0
  0
LINE
  5
1A0E8
  8
01
 10
2714.9302170141182
 20
-328.09700369006811
 30
0.0
 11
2715.7302170341181
 21
-328.09700369006811
 31
0.0
  0
CIRCLE
  5
1A0E9
  8
01
 10
2715.3302170241159
 20
-329.84700369006811
 30
0.0
 40
2.5
  0
ARC
  5
1A0EA
  8
01
 10
2716.2302170041162
 20
-328.9470037100682
 30
0.0
 40
0.5
 50
179.999989999999
 51
270.0
  0
ARC
  5
1A0EB
  8
01
 10
2716.2302170041162
 20
-330.7470036700679
 30
0.0
 40
0.5
 50
90.000002999984659
 51
180.000010000001
  0
ARC
  5
1A0EC
  8
01
 10
2714.430217044116
 20
-330.7470036700679
 30
0.0
 40
0.5
 50
0.0
 51
90.000002999984659
  0
ARC
  5
1A0ED
  8
01
 10
2714.430217044116
 20
-328.9470037100682
 30
0.0
 40
0.5
 50
270.0
 51
0.0
  0
LINE
  5
1A0EF
  8
01
 10
2715.3302170241159
 20
-335.84700369006799
 30
0.0
 11
2715.3302170241159
 21
-323.84700369006811
 31
0.0
  0
LINE
  5
1A0F0
  8
01
 10
2698.7019316416859
 20
-329.84700369006811
 30
0.0
 11
2721.3302170241159
 21
-329.84700369006811
 31
0.0
  0
LINE
  5
1A0F1
  8
01
 10
2825.8303333638592
 20
-79.847003691096688
 30
0.0
 11
2875.8303333638592
 21
-79.847003691096688
 31
0.0
  0
LINE
  5
1A0F2
  8
01
  6
BYBLOCK
 10
2799.8311012061758
 20
-79.847003691096688
 30
0.0
 11
2953.5854813612068
 21
-79.847003691096688
 31
0.0
  0
LINE
  5
1A0F3
  8
01
 10
2834.7466585999182
 20
-94.346995657843749
 30
0.0
 11
2842.880330961766
 21
-94.34700369109396
 31
0.0
  0
LINE
  5
1A0F4
  8
01
 10
2850.8303333638592
 20
-74.847003691096688
 30
0.0
 11
2850.8303333638592
 21
-101.3470036910967
 31
0.0
  0
LINE
  5
1A0FA
  8
01
 10
2700.8302170241159
 20
-209.84700369006811
 30
0.0
 11
2700.8302170241159
 21
-399.84700369006799
 31
0.0
  0
LINE
  5
1A0FB
  8
01
 10
2820.8302170241159
 20
-329.84700369006811
 30
0.0
 11
2880.8302170241159
 21
-329.84700369006811
 31
0.0
  0
LINE
  5
1A0FC
  8
01
 10
2850.8302170241159
 20
-299.84700369006799
 30
0.0
 11
2850.8302170241159
 21
-359.84700369006811
 31
0.0
  0
LINE
  5
1A0FD
  8
01
 10
2822.3303333638569
 20
-79.847003691096688
 30
0.0
 11
2822.3303333638569
 21
-83.379497283127876
 31
0.0
  0
ARC
  5
1A0FE
  8
01
 10
2822.8303333638578
 20
-83.379497283127876
 30
0.0
 40
0.5
 50
180.0
 51
236.29470421170731
  0
LINE
  5
1A0FF
  8
01
 10
2826.0494364276651
 20
-87.780350346252817
 30
0.0
 11
2825.8447555712032
 21
-86.836764562431185
 31
0.0
  0
LINE
  5
1A100
  8
01
 10
2879.3303333638601
 20
-79.847003691096688
 30
0.0
 11
2879.3303333638601
 21
-83.389207341806014
 31
0.0
  0
LINE
  5
1A101
  8
01
 10
2860.3303333638528
 20
-88.647003691098675
 30
0.0
 11
2841.3303333638642
 21
-88.647003691093232
 31
0.0
  0
LINE
  5
1A102
  8
01
 10
2824.7888782368359
 20
-85.286977631790705
 30
0.0
 11
2822.5528727029991
 21
-83.795448700574525
 31
0.0
  0
ARC
  5
1A103
  8
01
 10
2823.401574932544
 20
-87.366734719024393
 30
0.0
 40
2.5
 50
12.238883288310751
 51
56.294704211707277
  0
ARC
  5
1A104
  8
01
 10
2878.8303333638601
 20
-83.389207341806014
 30
0.0
 40
0.5
 50
303.57998345204783
 51
0.0
  0
ARC
  5
1A105
  8
01
 10
2840.3009699102458
 20
111.3503473185597
 30
0.0
 40
200.0
 50
266.0441967006434
 51
270.29489220931629
  0
ARC
  5
1A106
  8
01
 10
2826.5380725553969
 20
-87.674356314933888
 30
0.0
 40
0.5
 50
192.2388832883608
 51
266.0441967006434
  0
ARC
  5
1A107
  8
01
 10
2861.3596968174752
 20
111.3503473185597
 30
0.0
 40
200.0
 50
269.70510779063159
 51
273.95580329935649
  0
LINE
  5
1A108
  8
01
 10
2822.4079113927251
 20
-83.647003691096415
 30
0.0
 11
2879.258750266295
 21
-83.647003691096415
 31
0.0
  0
LINE
  5
1A109
  8
01
 10
2825.3875929021378
 20
-85.848270816111381
 30
0.0
 11
2876.256479658854
 21
-85.848270816111381
 31
0.0
  0
LINE
  5
1A10A
  8
01
 10
2826.374963825383
 20
-88.147003691096415
 30
0.0
 11
2875.2857029023389
 21
-88.147003691096415
 31
0.0
  0
ARC
  5
1A10B
  8
01
 10
2875.122602355405
 20
-87.674356314933888
 30
0.0
 40
0.5
 50
273.95580329935649
 51
347.76111671163909
  0
LINE
  5
1A10C
  8
01
 10
2876.871796673965
 20
-85.286977631790705
 30
0.0
 11
2879.1078022078018
 21
-83.795448700574525
 31
0.0
  0
ARC
  5
1A10D
  8
01
 10
2878.2590999782578
 20
-87.366734719024393
 30
0.0
 40
2.5
 50
123.7052957882927
 51
167.7611167116892
  0
LINE
  5
1A10E
  8
01
 10
2875.6112384831358
 20
-87.780350346252817
 30
0.0
 11
2875.8159193395982
 21
-86.836764562431185
 31
0.0
  0
LINE
  5
1A10F
  8
01
 10
2822.3303333638569
 20
-79.847003691096688
 30
0.0
 11
2879.3303333638601
 21
-79.847003691096688
 31
0.0
  0
LINE
  5
1A110
  8
01
 10
2700.8302170241159
 20
-301.34700369006669
 30
0.0
 11
2704.3627106161471
 21
-301.34700369006669
 31
0.0
  0
ARC
  5
1A111
  8
01
 10
2704.3627106161471
 20
-301.84700369006669
 30
0.0
 40
0.5
 50
33.70529578829273
 51
90.0
  0
LINE
  5
1A112
  8
01
 10
2708.763563679272
 20
-305.06610675387401
 30
0.0
 11
2707.8199778954508
 21
-304.86142589741212
 31
0.0
  0
LINE
  5
1A113
  8
01
 10
2700.8302170241159
 20
-358.34700369006941
 30
0.0
 11
2704.3724206748252
 21
-358.34700369006902
 31
0.0
  0
LINE
  5
1A114
  8
01
 10
2709.6302170241179
 20
-339.34700369006259
 30
0.0
 11
2709.6302170241129
 21
-320.34700369007311
 31
0.0
  0
LINE
  5
1A115
  8
01
 10
2706.2701909648099
 20
-303.8055485630457
 30
0.0
 11
2704.7786620335942
 21
-301.56954302920798
 31
0.0
  0
ARC
  5
1A116
  8
01
 10
2708.3499480520441
 20
-302.4182452587529
 30
0.0
 40
2.5
 50
213.70529578829269
 51
257.76111671169423
  0
ARC
  5
1A117
  8
01
 10
2704.3724206748252
 20
-357.84700369006902
 30
0.0
 40
0.5
 50
270.0
 51
326.42001654797212
  0
ARC
  5
1A118
  8
01
 10
2509.63286601446
 20
-319.31764023645519
 30
0.0
 40
200.0
 50
359.7051077906836
 51
3.9558032993300878
  0
ARC
  5
1A119
  8
01
 10
2708.6575696479531
 20
-305.55474288160582
 30
0.0
 40
0.5
 50
3.9558032993300878
 51
77.761116711641932
  0
ARC
  5
1A11A
  8
01
 10
2509.63286601446
 20
-340.37636714368449
 30
0.0
 40
200.0
 50
356.04419670067
 51
0.2948922093423913
  0
LINE
  5
1A11B
  8
01
 10
2704.6302170241161
 20
-301.42458171893401
 30
0.0
 11
2704.6302170241161
 21
-358.27542059250482
 31
0.0
  0
LINE
  5
1A11C
  8
01
 10
2706.831484149131
 20
-304.40426322834668
 30
0.0
 11
2706.831484149131
 21
-355.2731499850629
 31
0.0
  0
LINE
  5
1A11D
  8
01
 10
2709.1302170241161
 20
-305.39163415159243
 30
0.0
 11
2709.1302170241161
 21
-354.30237322854782
 31
0.0
  0
ARC
  5
1A11E
  8
01
 10
2708.6575696479531
 20
-354.13927268161387
 30
0.0
 40
0.5
 50
282.23888328835812
 51
356.04419670067
  0
LINE
  5
1A11F
  8
01
 10
2706.2701909648099
 20
-355.88846700017439
 30
0.0
 11
2704.7786620335942
 21
-358.1244725340116
 31
0.0
  0
ARC
  5
1A120
  8
01
 10
2708.3499480520441
 20
-357.27577030446719
 30
0.0
 40
2.5
 50
102.2388832883058
 51
146.29470421170731
  0
LINE
  5
1A121
  8
01
 10
2708.763563679272
 20
-354.62790880934563
 30
0.0
 11
2707.8199778954508
 21
-354.83258966580752
 31
0.0
  0
LINE
  5
1A122
  8
01
 10
2700.8302170241159
 20
-301.34700369006669
 30
0.0
 11
2700.8302170241159
 21
-358.34700369006941
 31
0.0
  0
ARC
  5
1A123
  8
01
 10
2850.8302170240931
 20
-329.84700369005492
 30
0.0
 40
28.499999999989321
 50
20.540989080276979
 51
350.84228709481062
  0
ARC
  5
1A124
  8
01
 10
2850.8302170241159
 20
-329.84700369006811
 30
0.0
 40
24.700000000002781
 50
23.882262016231898
 51
346.9410521875879
  0
ARC
  5
1A125
  8
01
 10
2850.8302170241159
 20
-329.84700369006811
 30
0.0
 40
25.200000000017781
 50
23.379881946680971
 51
347.5298436221546
  0
ARC
  5
1A126
  8
01
 10
2841.330790330906
 20
-135.84708704750429
 30
0.0
 40
0.5004572496817633
 50
179.99372719045991
 51
269.8865817698973
  0
LINE
  5
1A127
  8
01
 10
2840.8303333772442
 20
-91.347003691913869
 30
0.0
 11
2840.8303333772442
 21
-88.847003691096688
 31
0.0
  0
LINE
  5
1A128
  8
01
 10
2840.8303333772442
 20
-135.84703197214321
 30
0.0
 11
2840.8303333772442
 21
-97.347003691913855
 31
0.0
  0
LINE
  5
1A129
  8
01
 10
2865.8300706377918
 20
-116.34088170788119
 30
0.0
 11
2969.830604338687
 21
-116.3463467165143
 31
0.0
  0
ARC
  5
1A12A
  8
01
 10
2865.8303333772428
 20
-111.3408817147842
 30
0.0
 40
5.0
 50
180.0
 51
269.996989227683
  0
LINE
  5
1A12B
  8
01
 10
2860.8303333773938
 20
-88.847003691096688
 30
0.0
 11
2860.8303452986411
 21
-88.880043251097945
 31
0.0
  0
LINE
  5
1A12C
  8
01
 10
2970.8305985178758
 20
-117.34634667257519
 30
0.0
 11
2970.8305985178758
 21
-135.34703458757261
 31
0.0
  0
LINE
  5
1A12D
  8
01
  6
PHANTOM2
 10
2850.8303914186581
 20
-126.1305634371265
 30
0.0
 11
2840.8303330842241
 21
-135.84703225685411
 31
0.0
  0
LINE
  5
1A12E
  8
01
  6
PHANTOM2
 10
2970.8306052392868
 20
-117.3463446366372
 30
0.0
 11
2865.8303334935808
 21
-117.3463466725716
 31
0.0
  0
ARC
  5
1A12F
  8
01
  6
PHANTOM2
 10
2865.8303333772428
 20
-111.3463466725716
 30
0.0
 40
6.0
 50
180.0
 51
270.00000111093749
  0
LINE
  5
1A130
  8
01
  6
PHANTOM2
 10
2841.3301114149649
 20
-136.34723302749711
 30
0.0
 11
2851.265663101849
 21
-126.6934561374355
 31
0.0
  0
ARC
  5
1A131
  8
01
  6
PHANTOM2
 10
2972.0254317230451
 20
711.30580675642068
 30
0.0
 40
846.65558896642995
 50
261.79985062395832
 51
265.51581721943768
  0
ARC
  5
1A132
  8
01
 10
2830.7186357119672
 20
-94.259134174169958
 30
0.0
 40
10.57267079940336
 50
343.0185878568177
 51
359.5238090194751
  0
ARC
  5
1A133
  8
01
 10
2830.71866536671
 20
-94.434868655829632
 30
0.0
 40
10.572641107839161
 50
0.4761676386968351
 51
16.98143542890514
  0
LINE
  5
1A134
  8
01
 10
2850.8303333638592
 20
-88.847003691096688
 30
0.0
 11
2842.8803333772448
 21
-88.847003691096688
 31
0.0
  0
LINE
  5
1A135
  8
01
 10
2858.7803333772449
 20
-88.847003691096688
 30
0.0
 11
2857.6554335000392
 21
-88.847003691096688
 31
0.0
  0
LINE
  5
1A136
  8
01
 10
2859.8303333772428
 20
-88.847003691096688
 30
0.0
 11
2840.830333388149
 21
-88.847003691096688
 31
0.0
  0
LINE
  5
1A137
  8
01
 10
2859.8303333772428
 20
-88.847003691096688
 30
0.0
 11
2860.8303333772428
 21
-88.847003691096688
 31
0.0
  0
LINE
  5
1A138
  8
01
  6
PHANTOM2
 10
2859.8303333772428
 20
-111.3463466725716
 30
0.0
 11
2859.8303333772428
 21
-88.847003691096688
 31
0.0
  0
LINE
  5
1A139
  8
01
 10
2860.8303333772428
 20
-88.847003691096688
 30
0.0
 11
2860.8303333772428
 21
-111.3408817147842
 31
0.0
  0
LINE
  5
1A13A
  8
01
  6
PHANTOM2
 10
2969.8305985178681
 20
-136.3470319376911
 30
0.0
 11
2969.8305985178681
 21
-116.3463467162082
 31
0.0
  0
ARC
  5
1A13B
  8
01
 10
2969.8309175776349
 20
-135.34734554703161
 30
0.0
 40
0.999686439032745
 50
269.98217578970713
 51
0.0178222532418414
  0
ARC
  5
1A13C
  8
01
 10
2969.8306049834091
 20
-117.3463469723942
 30
0.0
 40
1.0000002558799479
 50
0.0000942051204498
 51
90.00003693977996
  0
ARC
  5
1A13D
  8
01
  6
PHANTOM2
 10
2972.0266319378552
 20
711.30386017639012
 30
0.0
 40
846.65374218349325
 50
265.51572594644699
 51
269.91906082329291
  0
LINE
  5
1A13E
  8
01
 10
2841.3081505544951
 20
-136.34703194375101
 30
0.0
 11
2969.8306065840302
 21
-136.34703193769059
 31
0.0
  0
LINE
  5
1A13F
  8
01
 10
2850.817032037472
 20
-339.84697472974858
 30
0.0
 11
2850.8302752759719
 21
-339.84698517525158
 31
0.0
  0
LINE
  5
1A140
  8
01
 10
2850.8170320195591
 20
-339.84701119332021
 30
0.0
 11
2850.8054560426431
 21
-339.84700453838383
 31
0.0
  0
LINE
  5
1A141
  8
01
 10
2851.1939249479501
 20
-319.84699678032581
 30
0.0
 11
2969.831108552421
 21
-319.84700369007078
 31
0.0
  0
ARC
  5
1A142
  8
01
 10
2934.0063612522458
 20
-561.69874216472999
 30
0.0
 40
234.506444210328
 50
96.900741301034287
 51
100.13845174238359
  0
LINE
  5
1A143
  8
01
 10
2969.8304821647312
 20
-327.34923406945148
 30
0.0
 11
2962.1602010351862
 21
-327.34911114931538
 31
0.0
  0
LINE
  5
1A144
  8
01
 10
2851.265544037446
 20
-339.8451977525387
 30
0.0
 11
2851.2487388566942
 21
-339.84518664058209
 31
0.0
  0
LINE
  5
1A145
  8
01
 10
2841.3300260070441
 20
-329.88542466591161
 30
0.0
 11
2841.330217024115
 21
-329.84700369006811
 31
0.0
  0
LINE
  5
1A147
  8
01
 10
2850.91500099224
 20
-339.84719049713249
 30
0.0
 11
2851.0422755894251
 21
-339.8467298575606
 31
0.0
  0
LINE
  5
1A148
  8
01
 10
2841.330217024115
 20
-329.84700369006811
 30
0.0
 11
2841.3300061489258
 21
-329.72373864650717
 31
0.0
  0
LINE
  5
1A149
  8
01
 10
2851.253857711019
 20
-339.84558454936359
 30
0.0
 11
2851.2655465541638
 21
-339.84548247794191
 31
0.0
  0
ARC
  5
1A14A
  8
01
  6
PHANTOM2
 10
2851.1898677231952
 20
-329.70687211689528
 30
0.0
 40
9.8598760004139852
 50
89.976423449783866
 51
180.09801151992929
  0
LINE
  5
1A14C
  8
01
  6
PHANTOM2
 10
2865.8300145711351
 20
-320.84700368400121
 30
0.0
 11
2905.8304821647312
 21
-320.84700144756971
 31
0.0
  0
ARC
  5
1A14E
  8
01
  6
PHANTOM2
 10
2835.8792452918401
 20
-229.32024465300859
 30
0.0
 40
111.49706910288189
 50
277.67069731891058
 51
285.58239784191511
  0
LINE
  5
1A14F
  8
01
  6
PHANTOM2
 10
2865.8300145711351
 20
-320.84700368400121
 30
0.0
 11
2850.8302170241159
 21
-319.85355764316643
 31
0.0
  0
LINE
  5
1A150
  8
01
 10
2970.830487615176
 20
-320.84699562448083
 30
0.0
 11
2970.8304877820729
 21
-326.34923739467422
 31
0.0
  0
ARC
  5
1A151
  8
01
 10
2969.8307955615892
 20
-320.84669573963993
 30
0.0
 40
0.9996920985658659
 50
359.98281257199591
 51
90.017961847636869
  0
ARC
  5
1A152
  8
01
 10
2969.8307955384212
 20
-326.3495418286912
 30
0.0
 40
0.9996922900062925
 50
269.98203948362271
 51
0.0174481535465537
  0
LINE
  5
1A155
  8
01
  6
PHANTOM2
 10
2969.8304914539431
 20
-319.84700368732911
 30
0.0
 11
2969.8304822795048
 21
-327.34923406961661
 31
0.0
  0
ARC
  5
1A157
  8
01
 10
2850.8302170241159
 20
-329.84700369006811
 30
0.0
 40
10.0
 50
88.96718343425556
 51
271.9591842386734
  0
LINE
  5
1A159
  8
01
 10
2756.310249763234
 20
-319.84679339273862
 30
0.0
 11
2749.622019230962
 21
-319.84531134576901
 31
0.0
  0
LINE
  5
1A15A
  8
01
 10
2756.326450698672
 20
-319.84699397862369
 30
0.0
 11
2756.314364088772
 21
-319.84700369682292
 31
0.0
  0
LINE
  5
1A15B
  8
01
 10
2737.3810198712349
 20
-339.84700369006799
 30
0.0
 11
2737.3962248069388
 21
-339.84700369006799
 31
0.0
  0
LINE
  5
1A15C
  8
01
 10
2709.8302170241159
 20
-339.84700369006799
 30
0.0
 11
2747.4246980175299
 21
-339.84700369006799
 31
0.0
  0
LINE
  5
1A15F
  8
01
 10
2747.7571372678881
 20
-319.84700369019811
 30
0.0
 11
2747.7348219242881
 21
-319.84700369019811
 31
0.0
  0
LINE
  5
1A161
  8
01
 10
2756.3143656819711
 20
-319.8470036969411
 30
0.0
 11
2756.347982528082
 21
-319.84700368263378
 31
0.0
  0
LINE
  5
1A162
  8
01
 10
2709.8302170241159
 20
-339.84700369006799
 30
0.0
 11
2709.8302170241168
 21
-319.84700369006811
 31
0.0
  0
LINE
  5
1A163
  8
01
 10
2756.3302473217109
 20
-319.84700369019811
 30
0.0
 11
2709.8302170241168
 21
-319.84700369006811
 31
0.0
  0
ARC
  5
1A164
  8
01
 10
2756.330223780049
 20
-320.84702518545959
 30
0.0
 40
1.0000214955389459
 50
359.99434108716957
 51
89.998651191155474
  0
LINE
  5
1A166
  8
01
 10
2834.7466585999182
 20
-25.34701172434961
 30
0.0
 11
2842.880330961766
 21
-25.34700369109942
 31
0.0
  0
LINE
  5
1A167
  8
01
 10
2860.3303333638528
 20
-31.047003691094691
 30
0.0
 11
2853.3303334299571
 21
-31.04700369109651
 31
0.0
  0
LINE
  5
1A168
  8
01
 10
2848.4106628455229
 20
-31.047003691098102
 30
0.0
 11
2841.3303333638642
 21
-31.047003691100151
 31
0.0
  0
ARC
  5
1A169
  8
01
 10
2841.330790330906
 20
16.153079665311001
 30
0.0
 40
0.5004572496817633
 50
90.113418230102596
 51
180.00627280954009
  0
LINE
  5
1A16A
  8
01
 10
2840.8303333772442
 20
-28.347003690279511
 30
0.0
 11
2840.8303333772442
 21
-30.847003691096688
 31
0.0
  0
LINE
  5
1A16B
  8
01
 10
2840.8303333772442
 20
16.15302458994984
 30
0.0
 11
2840.8303333772442
 21
-22.347003690279511
 31
0.0
  0
LINE
  5
1A16C
  8
01
 10
2865.8300706377918
 20
-3.3531256743121949
 30
0.0
 11
2969.830604338687
 21
-3.3476606656790859
 31
0.0
  0
ARC
  5
1A16D
  8
01
 10
2865.8303333772428
 20
-8.3531256674091292
 30
0.0
 40
5.0
 50
90.003010772317054
 51
180.0
  0
LINE
  5
1A16E
  8
01
 10
2860.8303333773938
 20
-30.847003691096688
 30
0.0
 11
2860.8303452986411
 21
-30.813964131095421
 31
0.0
  0
LINE
  5
1A16F
  8
01
 10
2970.8305985178758
 20
-2.3476607096181392
 30
0.0
 11
2970.8305985178758
 21
15.6530272053792
 31
0.0
  0
LINE
  5
1A170
  8
01
  6
PHANTOM2
 10
2850.8303914186581
 20
6.436556054933134
 30
0.0
 11
2840.8303330842241
 21
16.15302487466079
 31
0.0
  0
LINE
  5
1A171
  8
01
  6
PHANTOM2
 10
2970.8306052392868
 20
-2.3476627455561352
 30
0.0
 11
2865.8303334935808
 21
-2.3476607096217772
 31
0.0
  0
ARC
  5
1A172
  8
01
  6
PHANTOM2
 10
2865.8303333772428
 20
-8.3476607096217776
 30
0.0
 40
6.0
 50
89.999998889062482
 51
180.0
  0
LINE
  5
1A173
  8
01
  6
PHANTOM2
 10
2841.3301114149649
 20
16.653225645303792
 30
0.0
 11
2851.265663101849
 21
6.999448755242156
 31
0.0
  0
ARC
  5
1A174
  8
01
  6
PHANTOM2
 10
2972.0254317230451
 20
-830.99981413861406
 30
0.0
 40
846.65558896642995
 50
94.484182780562264
 51
98.200149376041722
  0
ARC
  5
1A175
  8
01
 10
2830.7186357119672
 20
-25.434873208023419
 30
0.0
 40
10.57267079940336
 50
0.4761909805248143
 51
16.981412143182339
  0
ARC
  5
1A176
  8
01
 10
2830.71866536671
 20
-25.259138726363751
 30
0.0
 40
10.572641107839161
 50
343.01856457108238
 51
359.52383236130322
  0
LINE
  5
1A177
  8
01
 10
2848.3303334299571
 20
-30.847003691096688
 30
0.0
 11
2842.8803333772448
 21
-30.847003691096688
 31
0.0
  0
LINE
  5
1A178
  8
01
 10
2858.7803333772449
 20
-30.847003691096688
 30
0.0
 11
2857.6554335000392
 21
-30.847003691096688
 31
0.0
  0
LINE
  5
1A179
  8
01
 10
2859.8303333772428
 20
-30.847003691096688
 30
0.0
 11
2853.3303334299571
 21
-30.847003691096688
 31
0.0
  0
LINE
  5
1A17A
  8
01
 10
2848.3303334299571
 20
-30.847003691096919
 30
0.0
 11
2840.830333388149
 21
-30.847003691096688
 31
0.0
  0
LINE
  5
1A17B
  8
01
 10
2859.8303333772428
 20
-30.847003691096688
 30
0.0
 11
2860.8303333772428
 21
-30.847003691096688
 31
0.0
  0
LINE
  5
1A17C
  8
01
  6
PHANTOM2
 10
2859.8303333772428
 20
-8.3476607096217776
 30
0.0
 11
2859.8303333772428
 21
-30.847003691096688
 31
0.0
  0
LINE
  5
1A17D
  8
01
 10
2860.8303333772428
 20
-30.847003691096688
 30
0.0
 11
2860.8303333772428
 21
-8.3531256674091292
 31
0.0
  0
LINE
  5
1A17E
  8
01
  6
PHANTOM2
 10
2969.8305985178681
 20
16.653024555497719
 30
0.0
 11
2969.8305985178681
 21
-3.3476606659851309
 31
0.0
  0
ARC
  5
1A17F
  8
01
 10
2969.8309175776349
 20
15.65333816483826
 30
0.0
 40
0.999686439032745
 50
359.98217774675823
 51
90.0178242102929
  0
ARC
  5
1A180
  8
01
 10
2969.8306049834091
 20
-2.3476604097991181
 30
0.0
 40
1.0000002558799479
 50
269.99996306022013
 51
359.99990579487962
  0
ARC
  5
1A181
  8
01
  6
PHANTOM2
 10
2972.0266319378552
 20
-830.99786755858349
 30
0.0
 40
846.65374218349325
 50
90.080939176706991
 51
94.484274053552923
  0
LINE
  5
1A182
  8
01
 10
2841.3081505544951
 20
16.653024561557679
 30
0.0
 11
2969.8306065840302
 21
16.653024555497272
 31
0.0
  0
LINE
  5
1A183
  8
01
 10
2534.4154025337511
 20
-345.84700369006828
 30
0.0
 11
2492.8304497036088
 21
-345.84700369006828
 31
0.0
  0
LINE
  5
1A184
  8
01
 10
2492.830449703607
 20
-307.75062389610389
 30
0.0
 11
2492.8304497036088
 21
-345.84700369006828
 31
0.0
  0
LINE
  5
1A185
  8
01
 10
2652.0304497036068
 20
-339.34700369006259
 30
0.0
 11
2652.0304497036118
 21
-320.34700369007311
 31
0.0
  0
ARC
  5
1A186
  8
01
 10
2510.830449703632
 20
-329.84700369005492
 30
0.0
 40
28.499999999989321
 50
189.1577129051829
 51
159.459010919723
  0
ARC
  5
1A187
  8
01
 10
2510.8304497036088
 20
-329.84700369006811
 30
0.0
 40
24.700000000002781
 50
193.05894781241841
 51
156.11773798376211
  0
ARC
  5
1A188
  8
01
 10
2510.8304497036102
 20
-329.84700369006811
 30
0.0
 40
25.200000000017781
 50
192.470156377839
 51
156.620118053319
  0
LINE
  5
1A189
  8
01
 10
2510.8436346902531
 20
-339.84697472974858
 30
0.0
 11
2510.8303914517528
 21
-339.84698517525158
 31
0.0
  0
LINE
  5
1A18A
  8
01
 10
2510.8436347081661
 20
-339.84701119332021
 30
0.0
 11
2510.8552106850821
 21
-339.84700453838383
 31
0.0
  0
LINE
  5
1A18B
  8
01
 10
2510.466741779775
 20
-319.84699678032581
 30
0.0
 11
2391.8295581753041
 21
-319.84700369007078
 31
0.0
  0
ARC
  5
1A18C
  8
01
 10
2427.6543054754802
 20
-561.69874216472999
 30
0.0
 40
234.506444210328
 50
79.861548257616377
 51
83.099258698965698
  0
LINE
  5
1A18D
  8
01
 10
2391.830184562994
 20
-327.34923406945148
 30
0.0
 11
2399.5004656925398
 21
-327.34911114931538
 31
0.0
  0
LINE
  5
1A18E
  8
01
 10
2510.3951226902791
 20
-339.8451977525387
 30
0.0
 11
2510.4119278710309
 21
-339.84518664058209
 31
0.0
  0
LINE
  5
1A18F
  8
01
 10
2520.330640720681
 20
-329.88542466591161
 30
0.0
 11
2520.3304497036102
 21
-329.84700369006811
 31
0.0
  0
LINE
  5
1A191
  8
01
 10
2510.7456657354851
 20
-339.84719049713249
 30
0.0
 11
2510.6183911382991
 21
-339.8467298575606
 31
0.0
  0
LINE
  5
1A192
  8
01
 10
2520.3304497036102
 20
-329.84700369006811
 30
0.0
 11
2520.3306605787989
 21
-329.72373864650717
 31
0.0
  0
LINE
  5
1A193
  8
01
 10
2510.4068090167061
 20
-339.84558454936359
 30
0.0
 11
2510.3951201735608
 21
-339.84548247794191
 31
0.0
  0
ARC
  5
1A194
  8
01
  6
PHANTOM2
 10
2510.4707990045299
 20
-329.70687211689528
 30
0.0
 40
9.8598760004139852
 50
359.90198848007071
 51
90.02357655021612
  0
LINE
  5
1A196
  8
01
  6
PHANTOM2
 10
2495.8306521565901
 20
-320.84700368400121
 30
0.0
 11
2455.830184562994
 21
-320.84700144756971
 31
0.0
  0
ARC
  5
1A198
  8
01
  6
PHANTOM2
 10
2525.7814214358859
 20
-229.32024465300859
 30
0.0
 40
111.49706910288189
 50
254.41760215808489
 51
262.3293026810893
  0
LINE
  5
1A199
  8
01
  6
PHANTOM2
 10
2495.8306521565901
 20
-320.84700368400121
 30
0.0
 11
2510.8304497036088
 21
-319.85355764316643
 31
0.0
  0
LINE
  5
1A19A
  8
01
 10
2390.8301791125491
 20
-320.84699562448083
 30
0.0
 11
2390.8301789456518
 21
-326.34923739467422
 31
0.0
  0
ARC
  5
1A19B
  8
01
 10
2391.8298711661359
 20
-320.84669573963993
 30
0.0
 40
0.9996920985658659
 50
89.982038152363145
 51
180.01718742800409
  0
ARC
  5
1A19C
  8
01
 10
2391.829871189304
 20
-326.3495418286912
 30
0.0
 40
0.9996922900062925
 50
179.98255184645339
 51
270.0179605163774
  0
LINE
  5
1A19F
  8
01
  6
PHANTOM2
 10
2391.8301752737821
 20
-319.84700368732911
 30
0.0
 11
2391.8301844482189
 21
-327.34923406961661
 31
0.0
  0
ARC
  5
1A1A1
  8
01
 10
2510.8304497036088
 20
-329.84700369006811
 30
0.0
 40
10.0
 50
268.0408157613266
 51
91.032816565744426
  0
LINE
  5
1A1A3
  8
01
 10
2605.3504169644912
 20
-319.84679339273862
 30
0.0
 11
2612.0386474967631
 21
-319.84531134576901
 31
0.0
  0
LINE
  5
1A1A4
  8
01
 10
2605.3342160290531
 20
-319.84699397862369
 30
0.0
 11
2605.3463026389531
 21
-319.84700369682292
 31
0.0
  0
LINE
  5
1A1A5
  8
01
 10
2624.2796468564902
 20
-339.84700369006799
 30
0.0
 11
2624.2644419207859
 21
-339.84700369006799
 31
0.0
  0
LINE
  5
1A1A6
  8
01
 10
2651.8304497036102
 20
-339.84700369006799
 30
0.0
 11
2614.2359687101948
 21
-339.84700369006799
 31
0.0
  0
LINE
  5
1A1A9
  8
01
 10
2613.9035294598361
 20
-319.84700369019811
 30
0.0
 11
2613.925844803437
 21
-319.84700369019811
 31
0.0
  0
LINE
  5
1A1AB
  8
01
 10
2605.346301045754
 20
-319.8470036969411
 30
0.0
 11
2605.3126841996432
 21
-319.84700368263378
 31
0.0
  0
LINE
  5
1A1AC
  8
01
 10
2651.8304497036102
 20
-339.84700369006799
 30
0.0
 11
2651.8304497036079
 21
-319.84700369006811
 31
0.0
  0
LINE
  5
1A1AD
  8
01
 10
2605.3304194060138
 20
-319.84700369019811
 30
0.0
 11
2651.8304497036079
 21
-319.84700369006811
 31
0.0
  0
ARC
  5
1A1AE
  8
01
 10
2605.3304429476761
 20
-320.84702518545959
 30
0.0
 40
1.0000214955389459
 50
90.001348808844526
 51
180.0056589128304
  0
ARC
  5
1A3A1
  8
01
 10
2614.3548002687162
 20
-329.98061187255718
 30
0.0
 40
10.03656221962393
 50
179.23724767381009
 51
229.15216442896971
  0
ARC
  5
1A3A4
  8
01
 10
2613.928927589971
 20
-330.42551026127791
 30
0.0
 40
9.4215276652560291
 50
229.34168588008589
 51
269.84553230055008
  0
ARC
  5
1A3A5
  8
01
 10
2614.3548002687712
 20
-329.71339550758699
 30
0.0
 40
10.03656221966674
 50
130.8478355712345
 51
180.7627523127598
  0
ARC
  5
1A3A6
  8
01
 10
2613.928927589971
 20
-329.26849711885728
 30
0.0
 40
9.4215276652560291
 50
90.154467699449839
 51
130.65831411991411
  0
LINE
  5
1A3A7
  8
01
  6
PHANTOM2
 10
2614.1729234735099
 20
-319.85444223557619
 30
0.0
 11
2613.2048120696691
 21
-319.94276749810427
 31
0.0
  0
LINE
  5
1A3A8
  8
01
  6
PHANTOM2
 10
2613.2048120696691
 20
-319.94276749810427
 30
0.0
 11
2612.250983047204
 21
-320.13023540074391
 31
0.0
  0
LINE
  5
1A3A9
  8
01
  6
PHANTOM2
 10
2612.250983047204
 20
-320.13023540074391
 30
0.0
 11
2611.3429424221231
 21
-320.40621515186382
 31
0.0
  0
LINE
  5
1A3AA
  8
01
  6
PHANTOM2
 10
2611.3429424221231
 20
-320.40621515186382
 30
0.0
 11
2610.4668626221119
 21
-320.77104028614298
 31
0.0
  0
LINE
  5
1A3AB
  8
01
  6
PHANTOM2
 10
2610.4668626221119
 20
-320.77104028614298
 30
0.0
 11
2609.6502787180161
 21
-321.2098221738197
 31
0.0
  0
LINE
  5
1A3AC
  8
01
  6
PHANTOM2
 10
2609.6502787180161
 20
-321.2098221738197
 30
0.0
 11
2608.8793589191919
 21
-321.72486693813698
 31
0.0
  0
LINE
  5
1A3AD
  8
01
  6
PHANTOM2
 10
2608.8793589191919
 20
-321.72486693813698
 30
0.0
 11
2608.1605411992969
 21
-322.31060214666201
 31
0.0
  0
LINE
  5
1A3AE
  8
01
  6
PHANTOM2
 10
2608.1605411992969
 20
-322.31060214666201
 30
0.0
 11
2607.5002635319911
 21
-322.96145536696082
 31
0.0
  0
LINE
  5
1A3AF
  8
01
  6
PHANTOM2
 10
2607.5002635319911
 20
-322.96145536696082
 30
0.0
 11
2606.8913489712518
 21
-323.68887628945959
 31
0.0
  0
LINE
  5
1A3B0
  8
01
  6
PHANTOM2
 10
2606.8913489712518
 20
-323.68887628945959
 30
0.0
 11
2606.3543312572051
 21
-324.4710354734753
 31
0.0
  0
LINE
  5
1A3B1
  8
01
  6
PHANTOM2
 10
2606.3543312572051
 20
-324.4710354734753
 30
0.0
 11
2605.8930514726871
 21
-325.30030517588511
 31
0.0
  0
LINE
  5
1A3B2
  8
01
  6
PHANTOM2
 10
2605.8930514726871
 20
-325.30030517588511
 30
0.0
 11
2605.511350700534
 21
-326.16905765356842
 31
0.0
  0
LINE
  5
1A3B3
  8
01
  6
PHANTOM2
 10
2605.511350700534
 20
-326.16905765356842
 30
0.0
 11
2605.2150303929939
 21
-327.06114672670452
 31
0.0
  0
LINE
  5
1A3B4
  8
01
  6
PHANTOM2
 10
2605.2150303929939
 20
-327.06114672670452
 30
0.0
 11
2605.001898790118
 21
-327.97670212146392
 31
0.0
  0
LINE
  5
1A3B5
  8
01
  6
PHANTOM2
 10
2605.001898790118
 20
-327.97670212146392
 30
0.0
 11
2604.8732608229579
 21
-328.90792179140038
 31
0.0
  0
LINE
  5
1A3B6
  8
01
  6
PHANTOM2
 10
2604.8732608229579
 20
-328.90792179140038
 30
0.0
 11
2604.8304214225618
 21
-329.84700369006811
 31
0.0
  0
LINE
  5
1A3B7
  8
01
  6
PHANTOM2
 10
2604.8304214225618
 20
-329.84700369006811
 30
0.0
 11
2604.873373823435
 21
-330.78754782688247
 31
0.0
  0
LINE
  5
1A3B8
  8
01
  6
PHANTOM2
 10
2604.873373823435
 20
-330.78754782688247
 30
0.0
 11
2605.0024385809079
 21
-331.72015024760282
 31
0.0
  0
LINE
  5
1A3B9
  8
01
  6
PHANTOM2
 10
2605.0024385809079
 20
-331.72015024760282
 30
0.0
 11
2605.2228843168568
 21
-332.6605565746886
 31
0.0
  0
LINE
  5
1A3BA
  8
01
  6
PHANTOM2
 10
2605.2228843168568
 20
-332.6605565746886
 30
0.0
 11
2605.531082136391
 21
-333.57594430187868
 31
0.0
  0
LINE
  5
1A3BB
  8
01
  6
PHANTOM2
 10
2605.531082136391
 20
-333.57594430187868
 30
0.0
 11
2605.9213846554471
 21
-334.45034724151083
 31
0.0
  0
LINE
  5
1A3BC
  8
01
  6
PHANTOM2
 10
2605.9213846554471
 20
-334.45034724151083
 30
0.0
 11
2606.3925190249402
 21
-335.28398194065181
 31
0.0
  0
LINE
  5
1A3BD
  8
01
  6
PHANTOM2
 10
2606.3925190249402
 20
-335.28398194065181
 30
0.0
 11
2606.9404655230351
 21
-336.0690744262119
 31
0.0
  0
LINE
  5
1A3BE
  8
01
  6
PHANTOM2
 10
2606.9404655230351
 20
-336.0690744262119
 30
0.0
 11
2607.5612044279001
 21
-336.797850725101
 31
0.0
  0
LINE
  5
1A3BF
  8
01
  6
PHANTOM2
 10
2607.5612044279001
 20
-336.797850725101
 30
0.0
 11
2608.215518992632
 21
-337.43232125847129
 31
0.0
  0
LINE
  5
1A3C0
  8
01
  6
PHANTOM2
 10
2608.215518992632
 20
-337.43232125847129
 30
0.0
 11
2608.9259733019389
 21
-338.00341936229512
 31
0.0
  0
LINE
  5
1A3C1
  8
01
  6
PHANTOM2
 10
2608.9259733019389
 20
-338.00341936229512
 30
0.0
 11
2609.6864034888281
 21
-338.50583415315941
 31
0.0
  0
LINE
  5
1A3C2
  8
01
  6
PHANTOM2
 10
2609.6864034888281
 20
-338.50583415315941
 30
0.0
 11
2610.4906456863009
 21
-338.93425474765718
 31
0.0
  0
LINE
  5
1A3C3
  8
01
  6
PHANTOM2
 10
2610.4906456863009
 20
-338.93425474765718
 30
0.0
 11
2611.3653875455761
 21
-339.29571520526503
 31
0.0
  0
LINE
  5
1A3C4
  8
01
  6
PHANTOM2
 10
2611.3653875455761
 20
-339.29571520526503
 30
0.0
 11
2612.27171763873
 21
-339.56878007349587
 31
0.0
  0
LINE
  5
1A3C5
  8
01
  6
PHANTOM2
 10
2612.27171763873
 20
-339.56878007349587
 30
0.0
 11
2613.2006101519942
 21
-339.75060646175552
 31
0.0
  0
LINE
  5
1A3C6
  8
01
  6
PHANTOM2
 10
2613.2006101519942
 20
-339.75060646175552
 30
0.0
 11
2614.2359687101948
 21
-339.84700369006799
 31
0.0
  0
LINE
  5
1A3C7
  8
01
 10
2604.3189741362589
 20
-330.10216444342308
 30
0.0
 11
2604.3245179085452
 21
-320.87228812515968
 31
0.0
  0
LINE
  5
1A3C8
  8
01
  6
PHANTOM2
 10
2455.8301845629931
 20
-320.8470036900685
 30
0.0
 11
2390.830179112545
 21
-320.84712583336568
 31
0.0
  0
LINE
  5
1A3C9
  8
01
  6
PHANTOM2
 10
2390.8301789463821
 20
-326.3251449898417
 30
0.0
 11
2455.8301748574322
 21
-327.89100007494108
 31
0.0
  0
LINE
  5
1A3CA
  8
01
 10
2455.8301713364121
 20
-328.89111138319089
 30
0.0
 11
2399.5004656925398
 21
-327.34911115029041
 31
0.0
  0
LINE
  5
1A3CB
  8
01
  6
PHANTOM2
 10
2495.8306428523938
 20
-336.7192543354804
 30
0.0
 11
2477.1788793795331
 21
-331.48232712176792
 31
0.0
  0
LINE
  5
1A3CC
  8
01
  6
PHANTOM2
 10
2477.1788793795331
 20
-331.48232712176792
 30
0.0
 11
2455.8307629121718
 21
-327.88603535724542
 31
0.0
  0
LINE
  5
1A3CD
  8
01
 10
2510.3951226902791
 20
-339.8451977525387
 30
0.0
 11
2504.3012213850261
 21
-339.45746934898528
 31
0.0
  0
LINE
  5
1A3CE
  8
01
 10
2504.3012213850261
 20
-339.45746934898528
 30
0.0
 11
2495.604126979008
 21
-337.69382735979531
 31
0.0
  0
LINE
  5
1A3CF
  8
01
 10
2495.604126979008
 20
-337.69382735979531
 30
0.0
 11
2468.9338674090918
 21
-330.8540355045302
 31
0.0
  0
LINE
  5
1A3D0
  8
01
  6
PHANTOM2
 10
2510.4119278710309
 20
-339.84518664058209
 30
0.0
 11
2511.3858021340948
 21
-339.79399888368698
 31
0.0
  0
LINE
  5
1A3D1
  8
01
  6
PHANTOM2
 10
2511.3858021340948
 20
-339.79399888368698
 30
0.0
 11
2512.3499592447401
 21
-339.64804229055738
 31
0.0
  0
LINE
  5
1A3D2
  8
01
  6
PHANTOM2
 10
2512.3499592447401
 20
-339.64804229055738
 30
0.0
 11
2513.311113501512
 21
-339.4049951097245
 31
0.0
  0
LINE
  5
1A3D3
  8
01
  6
PHANTOM2
 10
2513.311113501512
 20
-339.4049951097245
 30
0.0
 11
2514.2433515880039
 21
-339.06795117929408
 31
0.0
  0
LINE
  5
1A3D4
  8
01
  6
PHANTOM2
 10
2514.2433515880039
 20
-339.06795117929408
 30
0.0
 11
2515.1138986314058
 21
-338.65128586790621
 31
0.0
  0
LINE
  5
1A3D5
  8
01
  6
PHANTOM2
 10
2515.1138986314058
 20
-338.65128586790621
 30
0.0
 11
2515.9398396491079
 21
-338.15193022449648
 31
0.0
  0
LINE
  5
1A3D6
  8
01
  6
PHANTOM2
 10
2515.9398396491079
 20
-338.15193022449648
 30
0.0
 11
2516.7137364125501
 21
-337.57514645933128
 31
0.0
  0
LINE
  5
1A3D7
  8
01
  6
PHANTOM2
 10
2516.7137364125501
 20
-337.57514645933128
 30
0.0
 11
2517.4281506931729
 21
-336.92619678267653
 31
0.0
  0
LINE
  5
1A3D8
  8
01
  6
PHANTOM2
 10
2517.4281506931729
 20
-336.92619678267653
 30
0.0
 11
2518.0877575434952
 21
-336.19643180118828
 31
0.0
  0
LINE
  5
1A3D9
  8
01
  6
PHANTOM2
 10
2518.0877575434952
 20
-336.19643180118828
 30
0.0
 11
2518.6724981479588
 21
-335.4052133041792
 31
0.0
  0
LINE
  5
1A3DA
  8
01
  6
PHANTOM2
 10
2518.6724981479588
 20
-335.4052133041792
 30
0.0
 11
2519.1770137966341
 21
-334.5605776443781
 31
0.0
  0
LINE
  5
1A3DB
  8
01
  6
PHANTOM2
 10
2519.1770137966341
 20
-334.5605776443781
 30
0.0
 11
2519.5959457795989
 21
-333.67056117451511
 31
0.0
  0
LINE
  5
1A3DC
  8
01
  6
PHANTOM2
 10
2519.5959457795989
 20
-333.67056117451511
 30
0.0
 11
2519.9171965135029
 21
-332.76639258192199
 31
0.0
  0
LINE
  5
1A3DD
  8
01
  6
PHANTOM2
 10
2519.9171965135029
 20
-332.76639258192199
 30
0.0
 11
2520.1478315241779
 21
-331.83500169103218
 31
0.0
  0
LINE
  5
1A3DE
  8
01
  6
PHANTOM2
 10
2520.1478315241779
 20
-331.83500169103218
 30
0.0
 11
2520.2869195109138
 21
-330.8645879673104
 31
0.0
  0
LINE
  5
1A3DF
  8
01
  6
PHANTOM2
 10
2520.2869195109138
 20
-330.8645879673104
 30
0.0
 11
2520.330640720681
 21
-329.88542466591161
 31
0.0
  0
ARC
  5
1A3E0
  8
01
 10
2747.3058664590089
 20
-329.98061187255718
 30
0.0
 40
10.03656221962393
 50
310.84783557103032
 51
0.7627523261899182
  0
ARC
  5
1A3E1
  8
01
 10
2747.7317391377542
 20
-330.42551026127791
 30
0.0
 40
9.4215276652560291
 50
270.15446769944992
 51
310.65831411991411
  0
ARC
  5
1A3E2
  8
01
 10
2747.3058664589539
 20
-329.71339550758699
 30
0.0
 40
10.03656221966674
 50
359.2372476872402
 51
49.152164428765452
  0
ARC
  5
1A3E3
  8
01
 10
2747.7317391377542
 20
-329.26849711885728
 30
0.0
 40
9.4215276652560291
 50
49.341685880085919
 51
89.845532300550147
  0
LINE
  5
1A3E4
  8
01
  6
PHANTOM2
 10
2747.4877432542148
 20
-319.85444223557619
 30
0.0
 11
2748.4558546580561
 21
-319.94276749810427
 31
0.0
  0
LINE
  5
1A3E5
  8
01
  6
PHANTOM2
 10
2748.4558546580561
 20
-319.94276749810427
 30
0.0
 11
2749.4096836805211
 21
-320.13023540074391
 31
0.0
  0
LINE
  5
1A3E6
  8
01
  6
PHANTOM2
 10
2749.4096836805211
 20
-320.13023540074391
 30
0.0
 11
2750.317724305602
 21
-320.40621515186382
 31
0.0
  0
LINE
  5
1A3E7
  8
01
  6
PHANTOM2
 10
2750.317724305602
 20
-320.40621515186382
 30
0.0
 11
2751.1938041056128
 21
-320.77104028614298
 31
0.0
  0
LINE
  5
1A3E8
  8
01
  6
PHANTOM2
 10
2751.1938041056128
 20
-320.77104028614298
 30
0.0
 11
2752.010388009709
 21
-321.2098221738197
 31
0.0
  0
LINE
  5
1A3E9
  8
01
  6
PHANTOM2
 10
2752.010388009709
 20
-321.2098221738197
 30
0.0
 11
2752.7813078085328
 21
-321.72486693813698
 31
0.0
  0
LINE
  5
1A3EA
  8
01
  6
PHANTOM2
 10
2752.7813078085328
 20
-321.72486693813698
 30
0.0
 11
2753.5001255284278
 21
-322.31060214666201
 31
0.0
  0
LINE
  5
1A3EB
  8
01
  6
PHANTOM2
 10
2753.5001255284278
 20
-322.31060214666201
 30
0.0
 11
2754.160403195734
 21
-322.96145536696082
 31
0.0
  0
LINE
  5
1A3EC
  8
01
  6
PHANTOM2
 10
2754.160403195734
 20
-322.96145536696082
 30
0.0
 11
2754.7693177564729
 21
-323.68887628945959
 31
0.0
  0
LINE
  5
1A3ED
  8
01
  6
PHANTOM2
 10
2754.7693177564729
 20
-323.68887628945959
 30
0.0
 11
2755.30633547052
 21
-324.4710354734753
 31
0.0
  0
LINE
  5
1A3EE
  8
01
  6
PHANTOM2
 10
2755.30633547052
 20
-324.4710354734753
 30
0.0
 11
2755.767615255038
 21
-325.30030517588511
 31
0.0
  0
LINE
  5
1A3EF
  8
01
  6
PHANTOM2
 10
2755.767615255038
 20
-325.30030517588511
 30
0.0
 11
2756.1493160271912
 21
-326.16905765356842
 31
0.0
  0
LINE
  5
1A3F0
  8
01
  6
PHANTOM2
 10
2756.1493160271912
 20
-326.16905765356842
 30
0.0
 11
2756.4456363347322
 21
-327.06114672670452
 31
0.0
  0
LINE
  5
1A3F1
  8
01
  6
PHANTOM2
 10
2756.4456363347322
 20
-327.06114672670452
 30
0.0
 11
2756.6587679376071
 21
-327.97670212146392
 31
0.0
  0
LINE
  5
1A3F2
  8
01
  6
PHANTOM2
 10
2756.6587679376071
 20
-327.97670212146392
 30
0.0
 11
2756.7874059047672
 21
-328.90792179140038
 31
0.0
  0
LINE
  5
1A3F3
  8
01
  6
PHANTOM2
 10
2756.7874059047672
 20
-328.90792179140038
 30
0.0
 11
2756.8302453051629
 21
-329.84700369006811
 31
0.0
  0
LINE
  5
1A3F4
  8
01
  6
PHANTOM2
 10
2756.8302453051629
 20
-329.84700369006811
 30
0.0
 11
2756.7872929042901
 21
-330.78754782688247
 31
0.0
  0
LINE
  5
1A3F5
  8
01
  6
PHANTOM2
 10
2756.7872929042901
 20
-330.78754782688247
 30
0.0
 11
2756.6582281468168
 21
-331.72015024760282
 31
0.0
  0
LINE
  5
1A3F6
  8
01
  6
PHANTOM2
 10
2756.6582281468168
 20
-331.72015024760282
 30
0.0
 11
2756.4377824108678
 21
-332.6605565746886
 31
0.0
  0
LINE
  5
1A3F7
  8
01
  6
PHANTOM2
 10
2756.4377824108678
 20
-332.6605565746886
 30
0.0
 11
2756.1295845913342
 21
-333.57594430187868
 31
0.0
  0
LINE
  5
1A3F8
  8
01
  6
PHANTOM2
 10
2756.1295845913342
 20
-333.57594430187868
 30
0.0
 11
2755.739282072278
 21
-334.45034724151083
 31
0.0
  0
LINE
  5
1A3F9
  8
01
  6
PHANTOM2
 10
2755.739282072278
 20
-334.45034724151083
 30
0.0
 11
2755.268147702785
 21
-335.28398194065181
 31
0.0
  0
LINE
  5
1A3FA
  8
01
  6
PHANTOM2
 10
2755.268147702785
 20
-335.28398194065181
 30
0.0
 11
2754.7202012046901
 21
-336.0690744262119
 31
0.0
  0
LINE
  5
1A3FB
  8
01
  6
PHANTOM2
 10
2754.7202012046901
 20
-336.0690744262119
 30
0.0
 11
2754.0994622998251
 21
-336.797850725101
 31
0.0
  0
LINE
  5
1A3FC
  8
01
  6
PHANTOM2
 10
2754.0994622998251
 20
-336.797850725101
 30
0.0
 11
2753.4451477350931
 21
-337.43232125847129
 31
0.0
  0
LINE
  5
1A3FD
  8
01
  6
PHANTOM2
 10
2753.4451477350931
 20
-337.43232125847129
 30
0.0
 11
2752.7346934257862
 21
-338.00341936229512
 31
0.0
  0
LINE
  5
1A3FE
  8
01
  6
PHANTOM2
 10
2752.7346934257862
 20
-338.00341936229512
 30
0.0
 11
2751.9742632388979
 21
-338.50583415315941
 31
0.0
  0
LINE
  5
1A3FF
  8
01
  6
PHANTOM2
 10
2751.9742632388979
 20
-338.50583415315941
 30
0.0
 11
2751.1700210414251
 21
-338.93425474765718
 31
0.0
  0
LINE
  5
1A400
  8
01
  6
PHANTOM2
 10
2751.1700210414251
 20
-338.93425474765718
 30
0.0
 11
2750.295279182149
 21
-339.29571520526503
 31
0.0
  0
LINE
  5
1A401
  8
01
  6
PHANTOM2
 10
2750.295279182149
 20
-339.29571520526503
 30
0.0
 11
2749.3889490889951
 21
-339.56878007349587
 31
0.0
  0
LINE
  5
1A402
  8
01
  6
PHANTOM2
 10
2749.3889490889951
 20
-339.56878007349587
 30
0.0
 11
2748.4600565757301
 21
-339.75060646175552
 31
0.0
  0
LINE
  5
1A403
  8
01
  6
PHANTOM2
 10
2748.4600565757301
 20
-339.75060646175552
 30
0.0
 11
2747.4246980175299
 21
-339.84700369006799
 31
0.0
  0
LINE
  5
1A404
  8
01
 10
2757.3416925914662
 20
-330.10216444342308
 30
0.0
 11
2757.3361488191799
 21
-320.87228812515968
 31
0.0
  0
LINE
  5
1A405
  8
01
  6
PHANTOM2
 10
2905.8304821647321
 20
-320.8470036900685
 30
0.0
 11
2970.8304876151801
 21
-320.84712583336568
 31
0.0
  0
LINE
  5
1A406
  8
01
  6
PHANTOM2
 10
2970.830487781343
 20
-326.3251449898417
 30
0.0
 11
2905.8304918702929
 21
-327.89100007494108
 31
0.0
  0
LINE
  5
1A407
  8
01
 10
2905.830495391313
 20
-328.89111138319089
 30
0.0
 11
2962.1602010351862
 21
-327.34911115029041
 31
0.0
  0
LINE
  5
1A408
  8
01
  6
PHANTOM2
 10
2865.8300238753309
 20
-336.7192543354804
 30
0.0
 11
2884.4817873481929
 21
-331.48232712176792
 31
0.0
  0
LINE
  5
1A409
  8
01
  6
PHANTOM2
 10
2884.4817873481929
 20
-331.48232712176792
 30
0.0
 11
2905.8299038155528
 21
-327.88603535724542
 31
0.0
  0
LINE
  5
1A40A
  8
01
 10
2851.265544037446
 20
-339.8451977525387
 30
0.0
 11
2857.3594453426981
 21
-339.45746934898528
 31
0.0
  0
LINE
  5
1A40B
  8
01
 10
2857.3594453426981
 20
-339.45746934898528
 30
0.0
 11
2866.0565397487171
 21
-337.69382735979531
 31
0.0
  0
LINE
  5
1A40C
  8
01
 10
2866.0565397487171
 20
-337.69382735979531
 30
0.0
 11
2892.7267993186319
 21
-330.8540355045302
 31
0.0
  0
LINE
  5
1A40D
  8
01
  6
PHANTOM2
 10
2851.2487388566942
 20
-339.84518664058209
 30
0.0
 11
2850.2748645936299
 21
-339.79399888368698
 31
0.0
  0
LINE
  5
1A40E
  8
01
  6
PHANTOM2
 10
2850.2748645936299
 20
-339.79399888368698
 30
0.0
 11
2849.310707482985
 21
-339.64804229055738
 31
0.0
  0
LINE
  5
1A40F
  8
01
  6
PHANTOM2
 10
2849.310707482985
 20
-339.64804229055738
 30
0.0
 11
2848.3495532262132
 21
-339.4049951097245
 31
0.0
  0
LINE
  5
1A410
  8
01
  6
PHANTOM2
 10
2848.3495532262132
 20
-339.4049951097245
 30
0.0
 11
2847.4173151397208
 21
-339.06795117929408
 31
0.0
  0
LINE
  5
1A411
  8
01
  6
PHANTOM2
 10
2847.4173151397208
 20
-339.06795117929408
 30
0.0
 11
2846.5467680963188
 21
-338.65128586790621
 31
0.0
  0
LINE
  5
1A412
  8
01
  6
PHANTOM2
 10
2846.5467680963188
 20
-338.65128586790621
 30
0.0
 11
2845.7208270786168
 21
-338.15193022449648
 31
0.0
  0
LINE
  5
1A413
  8
01
  6
PHANTOM2
 10
2845.7208270786168
 20
-338.15193022449648
 30
0.0
 11
2844.9469303151741
 21
-337.57514645933128
 31
0.0
  0
LINE
  5
1A414
  8
01
  6
PHANTOM2
 10
2844.9469303151741
 20
-337.57514645933128
 30
0.0
 11
2844.2325160345522
 21
-336.92619678267653
 31
0.0
  0
LINE
  5
1A415
  8
01
  6
PHANTOM2
 10
2844.2325160345522
 20
-336.92619678267653
 30
0.0
 11
2843.57290918423
 21
-336.19643180118828
 31
0.0
  0
LINE
  5
1A416
  8
01
  6
PHANTOM2
 10
2843.57290918423
 20
-336.19643180118828
 30
0.0
 11
2842.9881685797668
 21
-335.4052133041792
 31
0.0
  0
LINE
  5
1A417
  8
01
  6
PHANTOM2
 10
2842.9881685797668
 20
-335.4052133041792
 30
0.0
 11
2842.483652931091
 21
-334.5605776443781
 31
0.0
  0
LINE
  5
1A418
  8
01
  6
PHANTOM2
 10
2842.483652931091
 20
-334.5605776443781
 30
0.0
 11
2842.0647209481258
 21
-333.67056117451511
 31
0.0
  0
LINE
  5
1A419
  8
01
  6
PHANTOM2
 10
2842.0647209481258
 20
-333.67056117451511
 30
0.0
 11
2841.7434702142218
 21
-332.76639258192199
 31
0.0
  0
LINE
  5
1A41A
  8
01
  6
PHANTOM2
 10
2841.7434702142218
 20
-332.76639258192199
 30
0.0
 11
2841.5128352035472
 21
-331.83500169103218
 31
0.0
  0
LINE
  5
1A41B
  8
01
  6
PHANTOM2
 10
2841.5128352035472
 20
-331.83500169103218
 30
0.0
 11
2841.3737472168109
 21
-330.8645879673104
 31
0.0
  0
LINE
  5
1A41C
  8
01
  6
PHANTOM2
 10
2841.3737472168109
 20
-330.8645879673104
 30
0.0
 11
2841.3300260070441
 21
-329.88542466591161
 31
0.0
  0
LINE
  5
1A41D
  8
01
 10
2969.8307955384212
 20
-327.3492341186975
 30
0.0
 11
3007.1302170241161
 21
-327.3492341186975
 31
0.0
  0
LINE
  5
1A41E
  8
01
 10
2969.830482164738
 20
-319.84700369019788
 30
0.0
 11
3007.1302170241161
 21
-319.84700369019788
 31
0.0
  0
LINE
  5
1A41F
  8
01
 10
3005.8302170241159
 20
-324.74923411869747
 30
0.0
 11
3005.8302170241159
 21
-322.4470036901979
 31
0.0
  0
LINE
  5
1A420
  8
01
 10
3005.8302170241159
 20
-319.84700369019788
 30
0.0
 11
3005.8302170241159
 21
-305.89367035686462
 31
0.0
  0
LINE
  5
1A424
  8
01
 10
2969.8305985178681
 20
-136.3470319376911
 30
0.0
 11
3017.1303333638589
 21
-136.3470319376911
 31
0.0
  0
LINE
  5
1A425
  8
01
 10
2953.5854813612068
 20
-79.847003691096688
 30
0.0
 11
3017.1303333638589
 21
-79.847003691096702
 31
0.0
  0
LINE
  5
1A426
  8
01
 10
3015.8303333638592
 20
-133.7470319376911
 30
0.0
 11
3015.8303333638592
 21
-82.447003691096697
 31
0.0
  0
LINE
  5
1A42A
  8
01
 10
2969.8305985178681
 20
-116.3463467162082
 30
0.0
 11
3007.1303333638589
 21
-116.3463467162082
 31
0.0
  0
LINE
  5
1A42B
  8
01
 10
2953.5854813612068
 20
-79.847003691096688
 30
0.0
 11
3007.1303333638589
 21
-79.847003691096702
 31
0.0
  0
LINE
  5
1A42C
  8
01
 10
3005.8303333638592
 20
-113.74634671620819
 30
0.0
 11
3005.8303333638592
 21
-82.447003691096697
 31
0.0
  0
LINE
  5
1A430
  8
01
 10
2840.8303333772442
 20
-135.84703197214321
 30
0.0
 11
2840.8303333772442
 21
-176.1470036910967
 31
0.0
  0
LINE
  5
1A431
  8
01
 10
2970.8306025856332
 20
-135.34903721846419
 30
0.0
 11
2970.8306025856332
 21
-176.1470036910967
 31
0.0
  0
LINE
  5
1A432
  8
01
 10
2843.4303333772441
 20
-174.84700369109669
 30
0.0
 11
2968.2306025856328
 21
-174.84700369109669
 31
0.0
  0
LINE
  5
1A436
  8
01
 10
2850.8303333638592
 20
-101.3470036910967
 30
0.0
 11
2850.8303333638592
 21
-166.1470036910967
 31
0.0
  0
LINE
  5
1A437
  8
01
 10
2970.8306025856332
 20
-135.34903721846419
 30
0.0
 11
2970.8306025856332
 21
-166.1470036910967
 31
0.0
  0
LINE
  5
1A438
  8
01
 10
2853.4303333638591
 20
-164.84700369109669
 30
0.0
 11
2968.2306025856328
 21
-164.84700369109669
 31
0.0
  0
CIRCLE
  5
1A43C
  8
01
 10
2715.3302170241159
 20
-329.84700369006811
 30
0.0
 40
3.0
  0
LINE
  5
1A43D
  8
01
 10
2850.8302170240931
 20
-301.34700369006561
 30
0.0
 11
2814.5302170241162
 21
-301.34700369006561
 31
0.0
  0
LINE
  5
1A43E
  8
01
 10
2850.8302170240931
 20
-358.34700369004418
 30
0.0
 11
2814.5302170241162
 21
-358.34700369004418
 31
0.0
  0
LINE
  5
1A43F
  8
01
 10
2815.8302170241159
 20
-303.94700369006563
 30
0.0
 11
2815.8302170241159
 21
-355.74700369004421
 31
0.0
  0
LINE
  5
1A443
  8
01
 10
2647.6293714695398
 20
-329.09700369006828
 30
0.0
 11
2646.3303333638628
 21
-328.34700369006828
 31
0.0
  0
LINE
  5
1A444
  8
01
 10
2646.3303333638628
 20
-328.34700369006828
 30
0.0
 11
2645.0312952581849
 21
-329.09700369006828
 31
0.0
  0
LINE
  5
1A445
  8
01
 10
2645.0312952581849
 20
-329.09700369006828
 30
0.0
 11
2645.0312952581849
 21
-330.59700369006828
 31
0.0
  0
LINE
  5
1A446
  8
01
 10
2645.0312952581849
 20
-330.59700369006828
 30
0.0
 11
2646.3303333638628
 21
-331.34700369006828
 31
0.0
  0
LINE
  5
1A447
  8
01
 10
2646.3303333638628
 20
-331.34700369006828
 30
0.0
 11
2647.6293714695398
 21
-330.59700369006828
 31
0.0
  0
LINE
  5
1A448
  8
01
 10
2647.6293714695398
 20
-330.59700369006828
 30
0.0
 11
2647.6293714695398
 21
-329.09700369006828
 31
0.0
  0
LINE
  5
1A449
  8
01
 10
2799.8302170241159
 20
-243.84700369006831
 30
0.0
 11
2799.8302170241159
 21
-199.12551160538001
 31
0.0
  0
LINE
  5
1A44A
  8
01
 10
2850.8302170241159
 20
-299.8470036900685
 30
0.0
 11
2850.8302170241159
 21
-199.12551160538001
 31
0.0
  0
LINE
  5
1A44B
  8
01
 10
2802.4302170241158
 20
-200.42551160538
 30
0.0
 11
2848.230217024116
 21
-200.42551160538
 31
0.0
  0
LINE
  5
1A44F
  8
01
 10
2868.8302170241159
 20
-271.34700369006828
 30
0.0
 11
2868.8302170241159
 21
-189.04564413733181
 31
0.0
  0
LINE
  5
1A450
  8
01
 10
2799.8302170241159
 20
-243.84700369006831
 30
0.0
 11
2799.8302170241159
 21
-189.04564413733181
 31
0.0
  0
LINE
  5
1A451
  8
01
 10
2866.230217024116
 20
-190.34564413733179
 30
0.0
 11
2802.4302170241158
 21
-190.34564413733179
 31
0.0
  0
LINE
  5
1A455
  8
01
 10
2868.8302170241159
 20
-271.34700369006828
 30
0.0
 11
2897.1302170241161
 21
-271.34700369006828
 31
0.0
  0
LINE
  5
1A456
  8
01
 10
2868.8302170241159
 20
-345.84700369006828
 30
0.0
 11
2897.1302170241161
 21
-345.84700369006828
 31
0.0
  0
LINE
  5
1A457
  8
01
 10
2895.8302170241159
 20
-273.9470036900683
 30
0.0
 11
2895.8302170241159
 21
-343.2470036900682
 31
0.0
  0
LINE
  5
1A45B
  8
01
 10
2856.8311012058889
 20
-49.597003691096681
 30
0.0
 11
2891.99149196589
 21
-49.597003691096688
 31
0.0
  0
LINE
  5
1A45C
  8
01
 10
2856.8311012058889
 20
-70.097003691096688
 30
0.0
 11
2891.99149196589
 21
-70.097003691096688
 31
0.0
  0
LINE
  5
1A45D
  8
01
 10
2890.6914919658898
 20
-52.197003691096697
 30
0.0
 11
2890.6914919658898
 21
-67.497003691096694
 31
0.0
  0
TEXT
  5
1A461
  8
01
 10
2761.2267114504671
 20
-117.2636703577633
 30
0.0
 40
4.5499999999999989
  1
材質：亜鉛ダイキャスト
  0
TEXT
  5
1A462
  8
01
 10
2772.146711450468
 20
-124.8470036910966
 30
0.0
 40
4.5499999999999989
  1
仕上げ：各種メッキ
  0
SOLID
  5
1A463
  8
01
 10
2848.2530726634
 20
-106.0009918310068
 30
0.0
 11
2850.570818264177
 21
-104.74566991697149
 31
0.0
 12
2848.7854876409669
 22
-106.68483786833799
 32
0.0
 13
2848.7854876409669
 23
-106.68483786833799
 33
0.0
1001
ACAD
1000
DSTYLE
1002
{
1070
    40
1040
1.3
1070
    45
1040
0.5
1002
}
  0
LINE
  5
1A465
  8
01
 10
2788.8302170241159
 20
-301.8470043881992
 30
0.0
 11
2788.8302170241159
 21
-199.12551160538001
 31
0.0
  0
LINE
  5
1A466
  8
01
 10
2799.8302170241159
 20
-243.84700369006831
 30
0.0
 11
2799.8302170241159
 21
-199.12551160538001
 31
0.0
  0
LINE
  5
1A467
  8
01
 10
2791.4302170241158
 20
-200.42551160538
 30
0.0
 11
2797.230217024116
 21
-200.42551160538
 31
0.0
  0
LINE
  5
1A46B
  8
01
 10
2668.3303333638619
 20
-249.84700369006831
 30
0.0
 11
2668.3303333638619
 21
-199.12551160538001
 31
0.0
  0
LINE
  5
1A46C
  8
01
 10
2693.3303333638619
 20
-249.84700369006831
 30
0.0
 11
2693.3303333638619
 21
-199.12551160538001
 31
0.0
  0
LINE
  5
1A46D
  8
01
 10
2670.9303333638618
 20
-200.42551160538
 30
0.0
 11
2690.7303333638629
 21
-200.42551160538
 31
0.0
  0
LINE
  5
1A471
  8
01
 10
2687.3303333638619
 20
-243.84700369006831
 30
0.0
 11
2752.130333363863
 21
-243.84700369006831
 31
0.0
  0
LINE
  5
1A472
  8
01
 10
2687.3303333638619
 20
-373.84700369006828
 30
0.0
 11
2752.130333363863
 21
-373.84700369006828
 31
0.0
  0
LINE
  5
1A473
  8
01
 10
2750.8303333638619
 20
-246.4470036900683
 30
0.0
 11
2750.8303333638619
 21
-371.24700369006831
 31
0.0
  0
LINE
  5
1A477
  8
01
 10
2687.3303333638619
 20
-251.84700369006831
 30
0.0
 11
2736.633924400418
 21
-251.84700369006831
 31
0.0
  0
LINE
  5
1A478
  8
01
 10
2687.3303333638619
 20
-365.84700369006828
 30
0.0
 11
2736.633924400418
 21
-365.84700369006828
 31
0.0
  0
LINE
  5
1A479
  8
01
 10
2735.3339244004178
 20
-254.4470036900683
 30
0.0
 11
2735.3339244004178
 21
-363.24700369006831
 31
0.0
  0
LINE
  5
1A47D
  8
01
 10
2480.8303373638601
 20
-329.84700369006782
 30
0.0
 11
2465.8364849615718
 21
-329.84700369006782
 31
0.0
  0
LINE
  5
1A47E
  8
01
 10
2488.330329363861
 20
-274.34700369006782
 30
0.0
 11
2465.8364849615718
 21
-274.34700369006782
 31
0.0
  0
LINE
  5
1A47F
  8
01
 10
2467.136484961572
 20
-327.2470036900678
 30
0.0
 11
2467.136484961572
 21
-276.9470036900679
 31
0.0
  0
LINE
  5
1A483
  8
01
 10
2830.8302167016559
 20
-274.34700369006782
 30
0.0
 11
2830.8302167016559
 21
-245.54700369006781
 31
0.0
  0
LINE
  5
1A484
  8
01
 10
2870.8302167016568
 20
-274.34700369006782
 30
0.0
 11
2870.8302167016568
 21
-245.54700369006781
 31
0.0
  0
LINE
  5
1A485
  8
01
 10
2833.4302167016572
 20
-246.84700369006779
 30
0.0
 11
2868.2302167016569
 21
-246.84700369006779
 31
0.0
  0
LINE
  5
1A489
  8
01
 10
2700.8303333638628
 20
-254.34700369006779
 30
0.0
 11
2700.8303333638628
 21
-222.54700369006781
 31
0.0
  0
LINE
  5
1A48A
  8
01
 10
2708.8301033738649
 20
-279.84700236913682
 30
0.0
 11
2708.8301033738649
 21
-222.54700369006781
 31
0.0
  0
LINE
  5
1A48B
  8
01
 10
2703.4303333638618
 20
-223.84700369006779
 30
0.0
 11
2706.2301033738659
 21
-223.84700369006779
 31
0.0
  0
LINE
  5
1A48F
  8
01
 10
2660.8303333638619
 20
-254.34700369006779
 30
0.0
 11
2660.8303333638619
 21
-222.54700369006781
 31
0.0
  0
LINE
  5
1A490
  8
01
 10
2638.8299477981432
 20
-269.84700869006679
 30
0.0
 11
2638.8299477981432
 21
-222.54700369006781
 31
0.0
  0
LINE
  5
1A491
  8
01
 10
2658.230333363862
 20
-223.84700369006779
 30
0.0
 11
2641.4299477981431
 21
-223.84700369006779
 31
0.0
  0
LINE
  5
1A495
  8
01
 10
2490.8303293638578
 20
-274.34700369006782
 30
0.0
 11
2490.8303293638578
 21
-245.54700369006781
 31
0.0
  0
LINE
  5
1A496
  8
01
 10
2530.8303293638569
 20
-274.34700369006782
 30
0.0
 11
2530.8303293638569
 21
-245.54700369006781
 31
0.0
  0
LINE
  5
1A497
  8
01
 10
2493.4303293638582
 20
-246.84700369006779
 30
0.0
 11
2528.2303293638579
 21
-246.84700369006779
 31
0.0
  0
TEXT
  5
1A49B
  8
01
 10
2503.6369960305242
 20
-245.9370036900678
 30
0.0
 40
4.5499999999999989
  1
\U+03C640
  0
LINE
  5
1A49C
  8
01
  6
BYBLOCK
 10
2528.2303293638579
 20
-246.15033579606779
 30
0.0
 11
2530.8303293638569
 21
-246.84700369006779
 31
0.0
  0
LINE
  5
1A49D
  8
01
  6
BYBLOCK
 10
2530.8303293638569
 20
-246.84700369006779
 30
0.0
 11
2528.2303293638579
 21
-247.54367158406779
 31
0.0
  0
LINE
  5
1A49E
  8
01
  6
BYBLOCK
 10
2530.8303293638569
 20
-246.84700369006779
 30
0.0
 11
2528.2303293638579
 21
-246.84700369006779
 31
0.0
  0
LINE
  5
1A49F
  8
01
  6
BYBLOCK
 10
2493.4303293638582
 20
-247.54367158406779
 30
0.0
 11
2490.8303293638578
 21
-246.84700369006779
 31
0.0
  0
LINE
  5
1A4A0
  8
01
  6
BYBLOCK
 10
2490.8303293638578
 20
-246.84700369006779
 30
0.0
 11
2493.4303293638582
 21
-246.15033579606779
 31
0.0
  0
LINE
  5
1A4A1
  8
01
  6
BYBLOCK
 10
2490.8303293638578
 20
-246.84700369006779
 30
0.0
 11
2493.4303293638582
 21
-246.84700369006779
 31
0.0
  0
TEXT
  5
1A4A2
  8
01
 10
2645.496807247669
 20
-222.9370036900678
 30
0.0
 40
4.5499999999999989
  1
22
  0
LINE
  5
1A4A3
  8
01
  6
BYBLOCK
 10
2641.4299477981431
 20
-224.54367158406779
 30
0.0
 11
2638.8299477981432
 21
-223.84700369006779
 31
0.0
  0
LINE
  5
1A4A4
  8
01
  6
BYBLOCK
 10
2638.8299477981432
 20
-223.84700369006779
 30
0.0
 11
2641.4299477981431
 21
-223.15033579606779
 31
0.0
  0
LINE
  5
1A4A5
  8
01
  6
BYBLOCK
 10
2638.8299477981432
 20
-223.84700369006779
 30
0.0
 11
2641.4299477981431
 21
-223.84700369006779
 31
0.0
  0
LINE
  5
1A4A6
  8
01
  6
BYBLOCK
 10
2658.230333363862
 20
-223.15033579606779
 30
0.0
 11
2660.8303333638619
 21
-223.84700369006779
 31
0.0
  0
LINE
  5
1A4A7
  8
01
  6
BYBLOCK
 10
2660.8303333638619
 20
-223.84700369006779
 30
0.0
 11
2658.230333363862
 21
-224.54367158406779
 31
0.0
  0
LINE
  5
1A4A8
  8
01
  6
BYBLOCK
 10
2660.8303333638619
 20
-223.84700369006779
 30
0.0
 11
2658.230333363862
 21
-223.84700369006779
 31
0.0
  0
TEXT
  5
1A4A9
  8
01
 10
2702.6635517021969
 20
-222.9370036900678
 30
0.0
 40
4.5499999999999989
  1
8
  0
LINE
  5
1A4AA
  8
01
  6
BYBLOCK
 10
2706.2301033738659
 20
-223.15033579606779
 30
0.0
 11
2708.8301033738649
 21
-223.84700369006779
 31
0.0
  0
LINE
  5
1A4AB
  8
01
  6
BYBLOCK
 10
2708.8301033738649
 20
-223.84700369006779
 30
0.0
 11
2706.2301033738659
 21
-224.54367158406779
 31
0.0
  0
LINE
  5
1A4AC
  8
01
  6
BYBLOCK
 10
2708.8301033738649
 20
-223.84700369006779
 30
0.0
 11
2706.2301033738659
 21
-223.84700369006779
 31
0.0
  0
LINE
  5
1A4AD
  8
01
  6
BYBLOCK
 10
2703.4303333638618
 20
-224.54367158406779
 30
0.0
 11
2700.8303333638628
 21
-223.84700369006779
 31
0.0
  0
LINE
  5
1A4AE
  8
01
  6
BYBLOCK
 10
2700.8303333638628
 20
-223.84700369006779
 30
0.0
 11
2703.4303333638618
 21
-223.15033579606779
 31
0.0
  0
LINE
  5
1A4AF
  8
01
  6
BYBLOCK
 10
2700.8303333638628
 20
-223.84700369006779
 30
0.0
 11
2703.4303333638618
 21
-223.84700369006779
 31
0.0
  0
TEXT
  5
1A4B0
  8
01
 10
2843.6368833683232
 20
-245.9370036900678
 30
0.0
 40
4.5499999999999989
  1
\U+03C640
  0
LINE
  5
1A4B1
  8
01
  6
BYBLOCK
 10
2868.2302167016569
 20
-246.15033579606779
 30
0.0
 11
2870.8302167016568
 21
-246.84700369006779
 31
0.0
  0
LINE
  5
1A4B2
  8
01
  6
BYBLOCK
 10
2870.8302167016568
 20
-246.84700369006779
 30
0.0
 11
2868.2302167016569
 21
-247.54367158406779
 31
0.0
  0
LINE
  5
1A4B3
  8
01
  6
BYBLOCK
 10
2870.8302167016568
 20
-246.84700369006779
 30
0.0
 11
2868.2302167016569
 21
-246.84700369006779
 31
0.0
  0
LINE
  5
1A4B4
  8
01
  6
BYBLOCK
 10
2833.4302167016572
 20
-247.54367158406779
 30
0.0
 11
2830.8302167016559
 21
-246.84700369006779
 31
0.0
  0
LINE
  5
1A4B5
  8
01
  6
BYBLOCK
 10
2830.8302167016559
 20
-246.84700369006779
 30
0.0
 11
2833.4302167016572
 21
-246.15033579606779
 31
0.0
  0
LINE
  5
1A4B6
  8
01
  6
BYBLOCK
 10
2830.8302167016559
 20
-246.84700369006779
 30
0.0
 11
2833.4302167016572
 21
-246.84700369006779
 31
0.0
  0
TEXT
  5
1A4B7
  8
01
 10
2466.2264849615722
 20
-309.68033702340068
 30
0.0
 40
4.5499999999999989
  1
55.5
 50
90.0
  0
LINE
  5
1A4B8
  8
01
  6
BYBLOCK
 10
2466.4398170675722
 20
-276.9470036900679
 30
0.0
 11
2467.136484961572
 21
-274.34700369006782
 31
0.0
  0
LINE
  5
1A4B9
  8
01
  6
BYBLOCK
 10
2467.136484961572
 20
-274.34700369006782
 30
0.0
 11
2467.8331528555718
 21
-276.9470036900679
 31
0.0
  0
LINE
  5
1A4BA
  8
01
  6
BYBLOCK
 10
2467.136484961572
 20
-274.34700369006782
 30
0.0
 11
2467.136484961572
 21
-276.9470036900679
 31
0.0
  0
LINE
  5
1A4BB
  8
01
  6
BYBLOCK
 10
2467.8331528555718
 20
-327.2470036900678
 30
0.0
 11
2467.136484961572
 21
-329.84700369006782
 31
0.0
  0
LINE
  5
1A4BC
  8
01
  6
BYBLOCK
 10
2467.136484961572
 20
-329.84700369006782
 30
0.0
 11
2466.4398170675722
 21
-327.2470036900678
 31
0.0
  0
LINE
  5
1A4BD
  8
01
  6
BYBLOCK
 10
2467.136484961572
 20
-329.84700369006782
 30
0.0
 11
2467.136484961572
 21
-327.2470036900678
 31
0.0
  0
TEXT
  5
1A4BE
  8
01
 10
2734.4239244004179
 20
-286.64731467548012
 30
0.0
 40
4.5499999999999989
  1
114
 50
90.0
  0
LINE
  5
1A4BF
  8
01
  6
BYBLOCK
 10
2736.0305922944171
 20
-363.24700369006831
 30
0.0
 11
2735.3339244004178
 21
-365.84700369006828
 31
0.0
  0
LINE
  5
1A4C0
  8
01
  6
BYBLOCK
 10
2735.3339244004178
 20
-365.84700369006828
 30
0.0
 11
2734.637256506418
 21
-363.24700369006831
 31
0.0
  0
LINE
  5
1A4C1
  8
01
  6
BYBLOCK
 10
2735.3339244004178
 20
-365.84700369006828
 30
0.0
 11
2735.3339244004178
 21
-363.24700369006831
 31
0.0
  0
LINE
  5
1A4C2
  8
01
  6
BYBLOCK
 10
2734.637256506418
 20
-254.4470036900683
 30
0.0
 11
2735.3339244004178
 21
-251.84700369006831
 31
0.0
  0
LINE
  5
1A4C3
  8
01
  6
BYBLOCK
 10
2735.3339244004178
 20
-251.84700369006831
 30
0.0
 11
2736.0305922944171
 21
-254.4470036900683
 31
0.0
  0
LINE
  5
1A4C4
  8
01
  6
BYBLOCK
 10
2735.3339244004178
 20
-251.84700369006831
 30
0.0
 11
2735.3339244004178
 21
-254.4470036900683
 31
0.0
  0
TEXT
  5
1A4C5
  8
01
 10
2749.9203333638629
 20
-286.8495870116214
 30
0.0
 40
4.5499999999999989
  1
130
 50
90.0
  0
LINE
  5
1A4C6
  8
01
  6
BYBLOCK
 10
2751.5270012578621
 20
-371.24700369006831
 30
0.0
 11
2750.8303333638619
 21
-373.84700369006828
 31
0.0
  0
LINE
  5
1A4C7
  8
01
  6
BYBLOCK
 10
2750.8303333638619
 20
-373.84700369006828
 30
0.0
 11
2750.133665469863
 21
-371.24700369006831
 31
0.0
  0
LINE
  5
1A4C8
  8
01
  6
BYBLOCK
 10
2750.8303333638619
 20
-373.84700369006828
 30
0.0
 11
2750.8303333638619
 21
-371.24700369006831
 31
0.0
  0
LINE
  5
1A4C9
  8
01
  6
BYBLOCK
 10
2750.133665469863
 20
-246.4470036900683
 30
0.0
 11
2750.8303333638619
 21
-243.84700369006831
 31
0.0
  0
LINE
  5
1A4CA
  8
01
  6
BYBLOCK
 10
2750.8303333638619
 20
-243.84700369006831
 30
0.0
 11
2751.5270012578621
 21
-246.4470036900683
 31
0.0
  0
LINE
  5
1A4CB
  8
01
  6
BYBLOCK
 10
2750.8303333638619
 20
-243.84700369006831
 30
0.0
 11
2750.8303333638619
 21
-246.4470036900683
 31
0.0
  0
TEXT
  5
1A4CC
  8
01
 10
2676.4970000305289
 20
-199.51551160538
 30
0.0
 40
4.5499999999999989
  1
25
  0
LINE
  5
1A4CD
  8
01
  6
BYBLOCK
 10
2690.7303333638629
 20
-199.72884371137999
 30
0.0
 11
2693.3303333638619
 21
-200.42551160538
 31
0.0
  0
LINE
  5
1A4CE
  8
01
  6
BYBLOCK
 10
2693.3303333638619
 20
-200.42551160538
 30
0.0
 11
2690.7303333638629
 21
-201.12217949938
 31
0.0
  0
LINE
  5
1A4CF
  8
01
  6
BYBLOCK
 10
2693.3303333638619
 20
-200.42551160538
 30
0.0
 11
2690.7303333638629
 21
-200.42551160538
 31
0.0
  0
LINE
  5
1A4D0
  8
01
  6
BYBLOCK
 10
2670.9303333638618
 20
-201.12217949938
 30
0.0
 11
2668.3303333638619
 21
-200.42551160538
 31
0.0
  0
LINE
  5
1A4D1
  8
01
  6
BYBLOCK
 10
2668.3303333638619
 20
-200.42551160538
 30
0.0
 11
2670.9303333638618
 21
-199.72884371137999
 31
0.0
  0
LINE
  5
1A4D2
  8
01
  6
BYBLOCK
 10
2668.3303333638619
 20
-200.42551160538
 30
0.0
 11
2670.9303333638618
 21
-200.42551160538
 31
0.0
  0
TEXT
  5
1A4D3
  8
01
 10
2790.3218836907822
 20
-199.51551160538
 30
0.0
 40
4.5499999999999989
  1
11
  0
LINE
  5
1A4D4
  8
01
  6
BYBLOCK
 10
2797.230217024116
 20
-199.72884371137999
 30
0.0
 11
2799.8302170241159
 21
-200.42551160538
 31
0.0
  0
LINE
  5
1A4D5
  8
01
  6
BYBLOCK
 10
2799.8302170241159
 20
-200.42551160538
 30
0.0
 11
2797.230217024116
 21
-201.12217949938
 31
0.0
  0
LINE
  5
1A4D6
  8
01
  6
BYBLOCK
 10
2799.8302170241159
 20
-200.42551160538
 30
0.0
 11
2797.230217024116
 21
-200.42551160538
 31
0.0
  0
LINE
  5
1A4D7
  8
01
  6
BYBLOCK
 10
2791.4302170241158
 20
-201.12217949938
 30
0.0
 11
2788.8302170241159
 21
-200.42551160538
 31
0.0
  0
LINE
  5
1A4D8
  8
01
  6
BYBLOCK
 10
2788.8302170241159
 20
-200.42551160538
 30
0.0
 11
2791.4302170241158
 21
-199.72884371137999
 31
0.0
  0
LINE
  5
1A4D9
  8
01
  6
BYBLOCK
 10
2788.8302170241159
 20
-200.42551160538
 30
0.0
 11
2791.4302170241158
 21
-200.42551160538
 31
0.0
  0
LINE
  5
1A4DA
  8
01
 10
2848.519280152183
 20
-106.3429148496724
 30
0.0
 11
2823.5833781171341
 21
-125.7570036910967
 31
0.0
1001
ACAD
1000
DSTYLE
1002
{
1070
    40
1040
1.3
1070
    45
1040
0.5
1002
}
  0
LINE
  5
1A4DB
  8
01
 10
2823.5833781171341
 20
-125.7570036910967
 30
0.0
 11
2820.0733781171339
 21
-125.7570036910967
 31
0.0
1001
ACAD
1000
DSTYLE
1002
{
1070
    40
1040
1.3
1070
    45
1040
0.5
1002
}
  0
TEXT
  5
1A4DC
  8
01
 10
2889.781491965889
 20
-67.430337024429576
 30
0.0
 40
4.5499999999999989
  1
20.5
 50
90.0
  0
LINE
  5
1A4DD
  8
01
  6
BYBLOCK
 10
2891.3881598598891
 20
-67.497003691096694
 30
0.0
 11
2890.6914919658898
 21
-70.097003691096688
 31
0.0
  0
LINE
  5
1A4DE
  8
01
  6
BYBLOCK
 10
2890.6914919658898
 20
-70.097003691096688
 30
0.0
 11
2889.9948240718891
 21
-67.497003691096694
 31
0.0
  0
LINE
  5
1A4DF
  8
01
  6
BYBLOCK
 10
2890.6914919658898
 20
-70.097003691096688
 30
0.0
 11
2890.6914919658898
 21
-67.497003691096694
 31
0.0
  0
LINE
  5
1A4E0
  8
01
  6
BYBLOCK
 10
2889.9948240718891
 20
-52.197003691096697
 30
0.0
 11
2890.6914919658898
 21
-49.597003691096688
 31
0.0
  0
LINE
  5
1A4E1
  8
01
  6
BYBLOCK
 10
2890.6914919658898
 20
-49.597003691096688
 30
0.0
 11
2891.3881598598891
 21
-52.197003691096697
 31
0.0
  0
LINE
  5
1A4E2
  8
01
  6
BYBLOCK
 10
2890.6914919658898
 20
-49.597003691096688
 30
0.0
 11
2890.6914919658898
 21
-52.197003691096697
 31
0.0
  0
TEXT
  5
1A4E3
  8
01
 10
2894.920217024116
 20
-294.66732627071588
 30
0.0
 40
4.5499999999999989
  1
74.5
 50
90.0
  0
LINE
  5
1A4E4
  8
01
  6
BYBLOCK
 10
2896.5268849181161
 20
-343.2470036900682
 30
0.0
 11
2895.8302170241159
 21
-345.84700369006828
 31
0.0
  0
LINE
  5
1A4E5
  8
01
  6
BYBLOCK
 10
2895.8302170241159
 20
-345.84700369006828
 30
0.0
 11
2895.1335491301161
 21
-343.2470036900682
 31
0.0
  0
LINE
  5
1A4E6
  8
01
  6
BYBLOCK
 10
2895.8302170241159
 20
-345.84700369006828
 30
0.0
 11
2895.8302170241159
 21
-343.2470036900682
 31
0.0
  0
LINE
  5
1A4E7
  8
01
  6
BYBLOCK
 10
2895.1335491301161
 20
-273.9470036900683
 30
0.0
 11
2895.8302170241159
 21
-271.34700369006828
 31
0.0
  0
LINE
  5
1A4E8
  8
01
  6
BYBLOCK
 10
2895.8302170241159
 20
-271.34700369006828
 30
0.0
 11
2896.5268849181161
 21
-273.9470036900683
 31
0.0
  0
LINE
  5
1A4E9
  8
01
  6
BYBLOCK
 10
2895.8302170241159
 20
-271.34700369006828
 30
0.0
 11
2895.8302170241159
 21
-273.9470036900683
 31
0.0
  0
TEXT
  5
1A4EA
  8
01
 10
2829.9968836907819
 20
-189.43564413733179
 30
0.0
 40
4.5499999999999989
  1
69
  0
LINE
  5
1A4EB
  8
01
  6
BYBLOCK
 10
2802.4302170241158
 20
-191.0423120313319
 30
0.0
 11
2799.8302170241159
 21
-190.34564413733179
 31
0.0
  0
LINE
  5
1A4EC
  8
01
  6
BYBLOCK
 10
2799.8302170241159
 20
-190.34564413733179
 30
0.0
 11
2802.4302170241158
 21
-189.6489762433319
 31
0.0
  0
LINE
  5
1A4ED
  8
01
  6
BYBLOCK
 10
2799.8302170241159
 20
-190.34564413733179
 30
0.0
 11
2802.4302170241158
 21
-190.34564413733179
 31
0.0
  0
LINE
  5
1A4EE
  8
01
  6
BYBLOCK
 10
2866.230217024116
 20
-189.6489762433319
 30
0.0
 11
2868.8302170241159
 21
-190.34564413733179
 31
0.0
  0
LINE
  5
1A4EF
  8
01
  6
BYBLOCK
 10
2868.8302170241159
 20
-190.34564413733179
 30
0.0
 11
2866.230217024116
 21
-191.0423120313319
 31
0.0
  0
LINE
  5
1A4F0
  8
01
  6
BYBLOCK
 10
2868.8302170241159
 20
-190.34564413733179
 30
0.0
 11
2866.230217024116
 21
-190.34564413733179
 31
0.0
  0
TEXT
  5
1A4F1
  8
01
 10
2821.6468836907829
 20
-199.51551160538
 30
0.0
 40
4.5499999999999989
  1
51
  0
LINE
  5
1A4F2
  8
01
  6
BYBLOCK
 10
2848.230217024116
 20
-199.72884371137999
 30
0.0
 11
2850.8302170241159
 21
-200.42551160538
 31
0.0
  0
LINE
  5
1A4F3
  8
01
  6
BYBLOCK
 10
2850.8302170241159
 20
-200.42551160538
 30
0.0
 11
2848.230217024116
 21
-201.12217949938
 31
0.0
  0
LINE
  5
1A4F4
  8
01
  6
BYBLOCK
 10
2850.8302170241159
 20
-200.42551160538
 30
0.0
 11
2848.230217024116
 21
-200.42551160538
 31
0.0
  0
LINE
  5
1A4F5
  8
01
  6
BYBLOCK
 10
2802.4302170241158
 20
-201.12217949938
 30
0.0
 11
2799.8302170241159
 21
-200.42551160538
 31
0.0
  0
LINE
  5
1A4F6
  8
01
  6
BYBLOCK
 10
2799.8302170241159
 20
-200.42551160538
 30
0.0
 11
2802.4302170241158
 21
-199.72884371137999
 31
0.0
  0
LINE
  5
1A4F7
  8
01
  6
BYBLOCK
 10
2799.8302170241159
 20
-200.42551160538
 30
0.0
 11
2802.4302170241158
 21
-200.42551160538
 31
0.0
  0
TEXT
  5
1A4F8
  8
01
 10
2814.920217024116
 20
-338.3800829855561
 30
0.0
 40
4.5499999999999989
  1
\U+03C657
 50
90.0
  0
LINE
  5
1A4F9
  8
01
  6
BYBLOCK
 10
2816.5268849181161
 20
-355.74700369004421
 30
0.0
 11
2815.8302170241159
 21
-358.34700369004418
 31
0.0
  0
LINE
  5
1A4FA
  8
01
  6
BYBLOCK
 10
2815.8302170241159
 20
-358.34700369004418
 30
0.0
 11
2815.1335491301161
 21
-355.74700369004421
 31
0.0
  0
LINE
  5
1A4FB
  8
01
  6
BYBLOCK
 10
2815.8302170241159
 20
-358.34700369004418
 30
0.0
 11
2815.8302170241159
 21
-355.74700369004421
 31
0.0
  0
LINE
  5
1A4FC
  8
01
  6
BYBLOCK
 10
2815.1335491301161
 20
-303.94700369006563
 30
0.0
 11
2815.8302170241159
 21
-301.34700369006561
 31
0.0
  0
LINE
  5
1A4FD
  8
01
  6
BYBLOCK
 10
2815.8302170241159
 20
-301.34700369006561
 30
0.0
 11
2816.5268849181161
 21
-303.94700369006563
 31
0.0
  0
LINE
  5
1A4FE
  8
01
  6
BYBLOCK
 10
2815.8302170241159
 20
-301.34700369006561
 30
0.0
 11
2815.8302170241159
 21
-303.94700369006563
 31
0.0
  0
TEXT
  5
1A4FF
  8
01
 10
2904.0054679747459
 20
-163.93700369109669
 30
0.0
 40
4.5499999999999989
  1
120
  0
LINE
  5
1A500
  8
01
  6
BYBLOCK
 10
2968.2306025856328
 20
-164.1503357970966
 30
0.0
 11
2970.8306025856332
 21
-164.84700369109669
 31
0.0
  0
LINE
  5
1A501
  8
01
  6
BYBLOCK
 10
2970.8306025856332
 20
-164.84700369109669
 30
0.0
 11
2968.2306025856328
 21
-165.54367158509669
 31
0.0
  0
LINE
  5
1A502
  8
01
  6
BYBLOCK
 10
2970.8306025856332
 20
-164.84700369109669
 30
0.0
 11
2968.2306025856328
 21
-164.84700369109669
 31
0.0
  0
LINE
  5
1A503
  8
01
  6
BYBLOCK
 10
2853.4303333638591
 20
-165.54367158509669
 30
0.0
 11
2850.8303333638592
 21
-164.84700369109669
 31
0.0
  0
LINE
  5
1A504
  8
01
  6
BYBLOCK
 10
2850.8303333638592
 20
-164.84700369109669
 30
0.0
 11
2853.4303333638591
 21
-164.1503357970966
 31
0.0
  0
LINE
  5
1A505
  8
01
  6
BYBLOCK
 10
2850.8303333638592
 20
-164.84700369109669
 30
0.0
 11
2853.4303333638591
 21
-164.84700369109669
 31
0.0
  0
TEXT
  5
1A506
  8
01
 10
2899.005467981438
 20
-173.93700369109669
 30
0.0
 40
4.5499999999999989
  1
130
  0
LINE
  5
1A507
  8
01
  6
BYBLOCK
 10
2968.2306025856328
 20
-174.15033579709669
 30
0.0
 11
2970.8306025856332
 21
-174.84700369109669
 31
0.0
  0
LINE
  5
1A508
  8
01
  6
BYBLOCK
 10
2970.8306025856332
 20
-174.84700369109669
 30
0.0
 11
2968.2306025856328
 21
-175.54367158509669
 31
0.0
  0
LINE
  5
1A509
  8
01
  6
BYBLOCK
 10
2970.8306025856332
 20
-174.84700369109669
 30
0.0
 11
2968.2306025856328
 21
-174.84700369109669
 31
0.0
  0
LINE
  5
1A50A
  8
01
  6
BYBLOCK
 10
2843.4303333772441
 20
-175.54367158509669
 30
0.0
 11
2840.8303333772442
 21
-174.84700369109669
 31
0.0
  0
LINE
  5
1A50B
  8
01
  6
BYBLOCK
 10
2840.8303333772442
 20
-174.84700369109669
 30
0.0
 11
2843.4303333772441
 21
-174.15033579709669
 31
0.0
  0
LINE
  5
1A50C
  8
01
  6
BYBLOCK
 10
2840.8303333772442
 20
-174.84700369109669
 30
0.0
 11
2843.4303333772441
 21
-174.84700369109669
 31
0.0
  0
TEXT
  5
1A50D
  8
01
 10
3004.9203333638588
 20
-105.6800085369853
 30
0.0
 40
4.5499999999999989
  1
36.5
 50
90.0
  0
LINE
  5
1A50E
  8
01
  6
BYBLOCK
 10
3005.1336654698589
 20
-82.447003691096697
 30
0.0
 11
3005.8303333638592
 21
-79.847003691096702
 31
0.0
  0
LINE
  5
1A50F
  8
01
  6
BYBLOCK
 10
3005.8303333638592
 20
-79.847003691096702
 30
0.0
 11
3006.527001257859
 21
-82.447003691096697
 31
0.0
  0
LINE
  5
1A510
  8
01
  6
BYBLOCK
 10
3005.8303333638592
 20
-79.847003691096702
 30
0.0
 11
3005.8303333638592
 21
-82.447003691096697
 31
0.0
  0
LINE
  5
1A511
  8
01
  6
BYBLOCK
 10
3006.527001257859
 20
-113.74634671620819
 30
0.0
 11
3005.8303333638592
 21
-116.3463467162082
 31
0.0
  0
LINE
  5
1A512
  8
01
  6
BYBLOCK
 10
3005.8303333638592
 20
-116.3463467162082
 30
0.0
 11
3005.1336654698589
 21
-113.74634671620819
 31
0.0
  0
LINE
  5
1A513
  8
01
  6
BYBLOCK
 10
3005.8303333638592
 20
-116.3463467162082
 30
0.0
 11
3005.8303333638592
 21
-113.74634671620819
 31
0.0
  0
TEXT
  5
1A514
  8
01
 10
3014.9203333638588
 20
-115.6803511477267
 30
0.0
 40
4.5499999999999989
  1
56.5
 50
90.0
  0
LINE
  5
1A515
  8
01
  6
BYBLOCK
 10
3015.1336654698589
 20
-82.447003691096697
 30
0.0
 11
3015.8303333638592
 21
-79.847003691096702
 31
0.0
  0
LINE
  5
1A516
  8
01
  6
BYBLOCK
 10
3015.8303333638592
 20
-79.847003691096702
 30
0.0
 11
3016.527001257859
 21
-82.447003691096697
 31
0.0
  0
LINE
  5
1A517
  8
01
  6
BYBLOCK
 10
3015.8303333638592
 20
-79.847003691096702
 30
0.0
 11
3015.8303333638592
 21
-82.447003691096697
 31
0.0
  0
LINE
  5
1A518
  8
01
  6
BYBLOCK
 10
3016.527001257859
 20
-133.7470319376911
 30
0.0
 11
3015.8303333638592
 21
-136.3470319376911
 31
0.0
  0
LINE
  5
1A519
  8
01
  6
BYBLOCK
 10
3015.8303333638592
 20
-136.3470319376911
 30
0.0
 11
3015.1336654698589
 21
-133.7470319376911
 31
0.0
  0
LINE
  5
1A51A
  8
01
  6
BYBLOCK
 10
3015.8303333638592
 20
-136.3470319376911
 30
0.0
 11
3015.8303333638592
 21
-133.7470319376911
 31
0.0
  0
TEXT
  5
1A51B
  8
01
 10
3004.920217024116
 20
-316.9870036901973
 30
0.0
 40
4.5499999999999989
  1
7.5
 50
90.0
  0
LINE
  5
1A51C
  8
01
  6
BYBLOCK
 10
3005.1335491301161
 20
-322.4470036901979
 30
0.0
 11
3005.8302170241159
 21
-319.84700369019788
 31
0.0
  0
LINE
  5
1A51D
  8
01
  6
BYBLOCK
 10
3005.8302170241159
 20
-319.84700369019788
 30
0.0
 11
3006.5268849181161
 21
-322.4470036901979
 31
0.0
  0
LINE
  5
1A51E
  8
01
  6
BYBLOCK
 10
3005.8302170241159
 20
-319.84700369019788
 30
0.0
 11
3005.8302170241159
 21
-322.4470036901979
 31
0.0
  0
LINE
  5
1A51F
  8
01
  6
BYBLOCK
 10
3006.5268849181161
 20
-324.74923411869747
 30
0.0
 11
3005.8302170241159
 21
-327.3492341186975
 31
0.0
  0
LINE
  5
1A520
  8
01
  6
BYBLOCK
 10
3005.8302170241159
 20
-327.3492341186975
 30
0.0
 11
3005.1335491301161
 21
-324.74923411869747
 31
0.0
  0
LINE
  5
1A521
  8
01
  6
BYBLOCK
 10
3005.8302170241159
 20
-327.3492341186975
 30
0.0
 11
3005.8302170241159
 21
-324.74923411869747
 31
0.0
  0
VIEWPORT
  5
57
 67
     1
  8
0
 10
101.53484469341041
 20
12.31427422668258
 30
0.0
 40
613.88404240516468
 41
282.25358709558623
 68
     1
 69
     1
1001
ACAD
1000
MVIEW
1002
{
1070
    16
1010
0.0
1020
0.0
1030
0.0
1010
0.0
1020
0.0
1030
1.0
1040
0.0
1040
282.25358709558623
1040
101.53484469341041
1040
12.31427422668258
1040
50.0
1040
0.0
1040
0.0
1070
     0
1070
   100
1070
     1
1070
     1
1070
     0
1070
     0
1070
     0
1070
     0
1040
0.0
1040
0.0
1040
0.0
1040
10.0
1040
10.0
1040
10.0
1040
10.0
1070
     0
1002
{
1002
}
1002
}
  0
ENDSEC
  0
EOF
