  0
SECTION
  2
HEADER
  9
$ACADVER
  1
AC1012
  9
$DWGCODEPAGE
  3
ansi_932
  9
$INSBASE
 10
0.0
 20
0.0
 30
0.0
  9
$EXTMIN
 10
3548.126692195062
 20
-2344.553999325956
 30
0.0
  9
$EXTMAX
 10
4174.426459515605
 20
-1923.55268101491
 30
0.0000000001127424
  9
$LIMMIN
 10
0.0
 20
0.0
  9
$LIMMAX
 10
420.0
 20
297.0
  9
$ORTHOMODE
 70
     0
  9
$REGENMODE
 70
     1
  9
$FILLMODE
 70
     1
  9
$QTEXTMODE
 70
     0
  9
$MIRRTEXT
 70
     0
  9
$DRAGMODE
 70
     2
  9
$LTSCALE
 40
0.5
  9
$OSMODE
 70
 14463
  9
$ATTMODE
 70
     1
  9
$TEXTSIZE
 40
4.0
  9
$TRACEWID
 40
1.0
  9
$TEXTSTYLE
  7
STANDARD
  9
$CLAYER
  8
1TEXT
  9
$CELTYPE
  6
BYLAYER
  9
$CECOLOR
 62
   256
  9
$CELTSCALE
 40
1.0
  9
$DELOBJ
 70
     1
  9
$DISPSILH
 70
     0
  9
$DIMSCALE
 40
1.0
  9
$DIMASZ
 40
2.0
  9
$DIMEXO
 40
0.0
  9
$DIMDLI
 40
7.0
  9
$DIMRND
 40
0.0
  9
$DIMDLE
 40
0.0
  9
$DIMEXE
 40
1.0
  9
$DIMTP
 40
0.0
  9
$DIMTM
 40
0.0
  9
$DIMTXT
 40
3.5
  9
$DIMCEN
 40
0.0
  9
$DIMTSZ
 40
0.0
  9
$DIMTOL
 70
     0
  9
$DIMLIM
 70
     0
  9
$DIMTIH
 70
     0
  9
$DIMTOH
 70
     0
  9
$DIMSE1
 70
     0
  9
$DIMSE2
 70
     0
  9
$DIMTAD
 70
     1
  9
$DIMZIN
 70
     8
  9
$DIMBLK
  1

  9
$DIMASO
 70
     1
  9
$DIMSHO
 70
     1
  9
$DIMPOST
  1
 
  9
$DIMAPOST
  1

  9
$DIMALT
 70
     0
  9
$DIMALTD
 70
     2
  9
$DIMALTF
 40
25.4
  9
$DIMLFAC
 40
1.0
  9
$DIMTOFL
 70
     1
  9
$DIMTVP
 40
0.0
  9
$DIMTIX
 70
     0
  9
$DIMSOXD
 70
     0
  9
$DIMSAH
 70
     1
  9
$DIMBLK1
  1
OPEN30
  9
$DIMBLK2
  1
OPEN30
  9
$DIMSTYLE
  2
NEWX10
  9
$DIMCLRD
 70
   256
  9
$DIMCLRE
 70
   256
  9
$DIMCLRT
 70
   201
  9
$DIMTFAC
 40
0.7
  9
$DIMGAP
 40
0.7
  9
$DIMJUST
 70
     0
  9
$DIMSD1
 70
     0
  9
$DIMSD2
 70
     0
  9
$DIMTOLJ
 70
     1
  9
$DIMTZIN
 70
     8
  9
$DIMALTZ
 70
     0
  9
$DIMALTTZ
 70
     0
  9
$DIMFIT
 70
     2
  9
$DIMUPT
 70
     0
  9
$DIMUNIT
 70
     2
  9
$DIMDEC
 70
     2
  9
$DIMTDEC
 70
     4
  9
$DIMALTU
 70
     2
  9
$DIMALTTD
 70
     2
  9
$DIMTXSTY
  7
STANDARD
  9
$DIMAUNIT
 70
     0
  9
$LUNITS
 70
     2
  9
$LUPREC
 70
     4
  9
$SKETCHINC
 40
1.0
  9
$FILLETRAD
 40
0.0
  9
$AUNITS
 70
     0
  9
$AUPREC
 70
     2
  9
$MENU
  1
acad
  9
$ELEVATION
 40
0.0
  9
$PELEVATION
 40
0.0
  9
$THICKNESS
 40
0.0
  9
$LIMCHECK
 70
     0
  9
$CHAMFERA
 40
10.0
  9
$CHAMFERB
 40
10.0
  9
$CHAMFERC
 40
20.0
  9
$CHAMFERD
 40
0.0
  9
$SKPOLY
 70
     0
  9
$TDCREATE
 40
2451318.621352917
  9
$TDUPDATE
 40
2458159.438982489
  9
$TDINDWG
 40
1.4837951042
  9
$TDUSRTIMER
 40
1.4837951042
  9
$USRTIMER
 70
     1
  9
$ANGBASE
 50
0.0
  9
$ANGDIR
 70
     0
  9
$PDMODE
 70
     0
  9
$PDSIZE
 40
0.0
  9
$PLINEWID
 40
0.0
  9
$COORDS
 70
     2
  9
$SPLFRAME
 70
     0
  9
$SPLINETYPE
 70
     6
  9
$SPLINESEGS
 70
     8
  9
$ATTDIA
 70
     0
  9
$ATTREQ
 70
     1
  9
$HANDLING
 70
     1
  9
$HANDSEED
  5
11BA8
  9
$SURFTAB1
 70
     6
  9
$SURFTAB2
 70
     6
  9
$SURFTYPE
 70
     6
  9
$SURFU
 70
     6
  9
$SURFV
 70
     6
  9
$UCSNAME
  2

  9
$UCSORG
 10
0.0
 20
0.0
 30
0.0
  9
$UCSXDIR
 10
1.0
 20
0.0
 30
0.0
  9
$UCSYDIR
 10
0.0
 20
1.0
 30
0.0
  9
$PUCSNAME
  2

  9
$PUCSORG
 10
0.0
 20
0.0
 30
0.0
  9
$PUCSXDIR
 10
1.0
 20
0.0
 30
0.0
  9
$PUCSYDIR
 10
0.0
 20
1.0
 30
0.0
  9
$USERI1
 70
     0
  9
$USERI2
 70
     0
  9
$USERI3
 70
     0
  9
$USERI4
 70
     0
  9
$USERI5
 70
     0
  9
$USERR1
 40
0.0
  9
$USERR2
 40
0.0
  9
$USERR3
 40
0.0
  9
$USERR4
 40
0.0
  9
$USERR5
 40
0.0
  9
$WORLDVIEW
 70
     1
  9
$SHADEDGE
 70
     3
  9
$SHADEDIF
 70
    70
  9
$TILEMODE
 70
     1
  9
$MAXACTVP
 70
    48
  9
$PINSBASE
 10
0.0
 20
0.0
 30
0.0
  9
$PLIMCHECK
 70
     0
  9
$PEXTMIN
 10
1.000000000000000E+20
 20
1.000000000000000E+20
 30
1.000000000000000E+20
  9
$PEXTMAX
 10
-1.000000000000000E+20
 20
-1.000000000000000E+20
 30
-1.000000000000000E+20
  9
$PLIMMIN
 10
0.0
 20
0.0
  9
$PLIMMAX
 10
420.0
 20
297.0
  9
$UNITMODE
 70
     0
  9
$VISRETAIN
 70
     1
  9
$PLINEGEN
 70
     0
  9
$PSLTSCALE
 70
     1
  9
$TREEDEPTH
 70
  3020
  9
$PICKSTYLE
 70
     1
  9
$CMLSTYLE
  2
STANDARD
  9
$CMLJUST
 70
     0
  9
$CMLSCALE
 40
20.0
  9
$SAVEIMAGES
 70
     1
  0
ENDSEC
  0
SECTION
  2
CLASSES
  0
CLASS
  1
DICTIONARYVAR
  2
AcDbDictionaryVar
  3
ObjectDBX Classes
 90
        0
280
     0
281
     0
  0
CLASS
  1
IDBUFFER
  2
AcDbIdBuffer
  3
ObjectDBX Classes
 90
    32768
280
     0
281
     0
  0
CLASS
  1
LWPOLYLINE
  2
AcDbPolyline
  3
ObjectDBX Classes
 90
    32768
280
     0
281
     1
  0
CLASS
  1
ACDBDICTIONARYWDFLT
  2
AcDbDictionaryWithDefault
  3
ObjectDBX Classes
 90
    32768
280
     0
281
     0
  0
CLASS
  1
ACDBPLACEHOLDER
  2
AcDbPlaceHolder
  3
ObjectDBX Classes
 90
        0
280
     0
281
     0
  0
CLASS
  1
LAYOUT
  2
AcDbLayout
  3
ObjectDBX Classes
 90
        0
280
     0
281
     0
  0
CLASS
  1
TABLESTYLE
  2
AcDbTableStyle
  3
ObjectDBX Classes
 90
     4095
280
     0
281
     0
  0
CLASS
  1
SORTENTSTABLE
  2
AcDbSortentsTable
  3
ObjectDBX Classes
 90
    32768
280
     0
281
     0
  0
CLASS
  1
MATERIAL
  2
AcDbMaterial
  3
ObjectDBX Classes
 90
     1153
280
     0
281
     0
  0
CLASS
  1
VISUALSTYLE
  2
AcDbVisualStyle
  3
ObjectDBX Classes
 90
     4095
280
     0
281
     0
  0
CLASS
  1
SCALE
  2
AcDbScale
  3
ObjectDBX Classes
 90
     1153
280
     0
281
     0
  0
CLASS
  1
MLEADERSTYLE
  2
AcDbMLeaderStyle
  3
ACDB_MLEADERSTYLE_CLASS
 90
     4095
280
     0
281
     0
  0
CLASS
  1
CELLSTYLEMAP
  2
AcDbCellStyleMap
  3
ObjectDBX Classes
 90
     1152
280
     0
281
     0
  0
CLASS
  1
SUN
  2
AcDbSun
  3
SCENEOE
 90
     1153
280
     0
281
     0
  0
CLASS
  1
XRECORD
  2
AcDbXrecord
  3
ObjectDBX Classes
 90
    32768
280
     0
281
     0
  0
CLASS
  1
HATCH
  2
AcDbHatch
  3
ObjectDBX Classes
 90
    32768
280
     0
281
     1
  0
ENDSEC
  0
SECTION
  2
TABLES
  0
TABLE
  2
VPORT
  5
8
330
0
100
AcDbSymbolTable
 70
     1
  0
VPORT
  5
952D
330
8
100
AcDbSymbolTableRecord
100
AcDbViewportTableRecord
  2
*ACTIVE
 70
     0
 10
0.0
 20
0.0
 11
1.0
 21
1.0
 12
3861.276575855333
 22
-2134.053340170433
 13
0.0
 23
0.0
 14
10.0
 24
10.0
 15
10.0
 25
10.0
 16
0.0
 26
0.0
 36
1.0
 17
0.0
 27
0.0
 37
0.0
 40
452.0224680813336
 41
1.871481028151775
 42
50.0
 43
0.0
 44
0.0
 50
0.0
 51
0.0
 71
    16
 72
   100
 73
     1
 74
     1
 75
     0
 76
     0
 77
     0
 78
     0
1001
ACAD_NAV_VCDISPLAY
1070
     3
  0
ENDTAB
  0
TABLE
  2
LTYPE
  5
5
330
0
100
AcDbSymbolTable
 70
     3
  0
LTYPE
  5
12
330
5
100
AcDbSymbolTableRecord
100
AcDbLinetypeTableRecord
  2
BYBLOCK
 70
     0
  3

 72
    65
 73
     0
 40
0.0
  0
LTYPE
  5
13
330
5
100
AcDbSymbolTableRecord
100
AcDbLinetypeTableRecord
  2
BYLAYER
 70
     0
  3

 72
    65
 73
     0
 40
0.0
  0
LTYPE
  5
14
330
5
100
AcDbSymbolTableRecord
100
AcDbLinetypeTableRecord
  2
CONTINUOUS
 70
     0
  3
Solid line
 72
    65
 73
     0
 40
0.0
  0
LTYPE
  5
2C03
330
5
100
AcDbSymbolTableRecord
100
AcDbLinetypeTableRecord
  2
HIDDEN
 70
     0
  3
Hidden __ __ __ __ __ __ __ __ __ __ __ __ __ _
 72
    65
 73
     2
 40
9.524999999999999
 49
6.35
 74
     0
 49
-3.175
 74
     0
  0
LTYPE
  5
9837
330
5
100
AcDbSymbolTableRecord
100
AcDbLinetypeTableRecord
  2
CENTER2
 70
     0
  3
Center (.5x) ___ _ ___ _ ___ _ ___ _ ___ _ ___
 72
    65
 73
     4
 40
28.575
 49
19.05
 74
     0
 49
-3.175
 74
     0
 49
3.175
 74
     0
 49
-3.175
 74
     0
  0
ENDTAB
  0
TABLE
  2
LAYER
  5
2
102
{ACAD_XDICTIONARY
360
96D9
102
}
330
0
100
AcDbSymbolTable
 70
     6
  0
LAYER
  5
E
102
{ACAD_XDICTIONARY
360
9593
102
}
330
2
100
AcDbSymbolTableRecord
100
AcDbLayerTableRecord
  2
0
 70
     0
 62
     7
  6
CONTINUOUS
  0
LAYER
  5
29
102
{ACAD_XDICTIONARY
360
9595
102
}
330
2
100
AcDbSymbolTableRecord
100
AcDbLayerTableRecord
  2
1CENTER
 70
     0
 62
     7
  6
CENTER2
  0
LAYER
  5
31
102
{ACAD_XDICTIONARY
360
9597
102
}
330
2
100
AcDbSymbolTableRecord
100
AcDbLayerTableRecord
  2
1TEXT
 70
     0
 62
     7
  6
CONTINUOUS
  0
LAYER
  5
243
102
{ACAD_XDICTIONARY
360
959D
102
}
330
2
100
AcDbSymbolTableRecord
100
AcDbLayerTableRecord
  2
01
 70
     0
 62
     1
  6
CONTINUOUS
  0
LAYER
  5
24E
102
{ACAD_XDICTIONARY
360
95A3
102
}
330
2
100
AcDbSymbolTableRecord
100
AcDbLayerTableRecord
  2
1DIM
 70
     0
 62
     7
  6
CONTINUOUS
  0
LAYER
  5
2C05
102
{ACAD_XDICTIONARY
360
95AF
102
}
330
2
100
AcDbSymbolTableRecord
100
AcDbLayerTableRecord
  2
1HIDDEN
 70
     0
 62
     7
  6
HIDDEN
  0
ENDTAB
  0
TABLE
  2
STYLE
  5
3
330
0
100
AcDbSymbolTable
 70
     1
  0
STYLE
  5
F
330
3
100
AcDbSymbolTableRecord
100
AcDbTextStyleTableRecord
  2
STANDARD
 70
     0
 40
0.0
 41
1.0
 50
0.0
 71
     0
 42
4.0
  3
txt.shx
  4
extfont.shx
  0
ENDTAB
  0
TABLE
  2
VIEW
  5
6
330
0
100
AcDbSymbolTable
 70
     0
  0
ENDTAB
  0
TABLE
  2
UCS
  5
7
330
0
100
AcDbSymbolTable
 70
     0
  0
ENDTAB
  0
TABLE
  2
APPID
  5
9
330
0
100
AcDbSymbolTable
 70
    15
  0
APPID
  5
10
330
9
100
AcDbSymbolTableRecord
100
AcDbRegAppTableRecord
  2
ACAD
 70
     0
  0
APPID
  5
21
330
9
100
AcDbSymbolTableRecord
100
AcDbRegAppTableRecord
  2
DRAWINGVARIABLESXDATA
 70
     0
  0
APPID
  5
64
330
9
100
AcDbSymbolTableRecord
100
AcDbRegAppTableRecord
  2
CONTENTTABDATA
 70
     0
  0
APPID
  5
65
330
9
100
AcDbSymbolTableRecord
100
AcDbRegAppTableRecord
  2
CONTENTCURRENTTAB
 70
     0
  0
APPID
  5
66
330
9
100
AcDbSymbolTableRecord
100
AcDbRegAppTableRecord
  2
CONTENTBLOCKDESCRIPTION
 70
     0
  0
APPID
  5
67
330
9
100
AcDbSymbolTableRecord
100
AcDbRegAppTableRecord
  2
CONTENTBLOCKICON
 70
     0
  0
APPID
  5
68
330
9
100
AcDbSymbolTableRecord
100
AcDbRegAppTableRecord
  2
CONTENTLONGBLOCKNAME
 70
     0
  0
APPID
  5
2AE
330
9
100
AcDbSymbolTableRecord
100
AcDbRegAppTableRecord
  2
ACAD_PSEXT
 70
     0
  0
APPID
  5
9585
330
9
100
AcDbSymbolTableRecord
100
AcDbRegAppTableRecord
  2
ACAD_MLEADERVER
 70
     0
  0
APPID
  5
A2E3
330
9
100
AcDbSymbolTableRecord
100
AcDbRegAppTableRecord
  2
ACADANNOTATIVE
 70
     0
  0
APPID
  5
A2E4
330
9
100
AcDbSymbolTableRecord
100
AcDbRegAppTableRecord
  2
ACDBBLOCKREPETAG
 70
     0
  0
APPID
  5
AEB1
330
9
100
AcDbSymbolTableRecord
100
AcDbRegAppTableRecord
  2
ACAD_NAV_VCDISPLAY
 70
     0
  0
APPID
  5
B6A4
330
9
100
AcDbSymbolTableRecord
100
AcDbRegAppTableRecord
  2
ACAECLAYERSTANDARD
 70
     0
  0
APPID
  5
E1EF
330
9
100
AcDbSymbolTableRecord
100
AcDbRegAppTableRecord
  2
ACAD_EXEMPT_FROM_CAD_STAND
 70
     0
  0
APPID
  5
EA49
330
9
100
AcDbSymbolTableRecord
100
AcDbRegAppTableRecord
  2
ACAD_DSTYLE_DIMRADIAL_EXTE
 70
     0
  0
ENDTAB
  0
TABLE
  2
DIMSTYLE
  5
A
330
0
100
AcDbSymbolTable
 70
     1
  0
DIMSTYLE
105
48
330
A
100
AcDbSymbolTableRecord
100
AcDbDimStyleTableRecord
  2
NEWX10
 70
     0
  3
 
  4

  5

  6
OPEN30
  7
OPEN30
 40
1.0
 41
2.0
 42
0.0
 43
7.0
 44
1.0
 45
0.0
 46
0.0
 47
0.0
 48
0.0
140
3.5
141
0.0
142
0.0
143
25.4
144
1.0
145
0.0
146
0.7
147
0.7
 71
     0
 72
     0
 73
     0
 74
     0
 75
     0
 76
     0
 77
     1
 78
     8
170
     0
171
     2
172
     1
173
     1
174
     0
175
     0
176
   256
177
   256
178
   201
179
     2
270
     2
271
     2
272
     4
273
     2
274
     2
340
F
275
     0
280
     0
281
     0
282
     0
283
     1
284
     8
285
     0
286
     0
287
     2
288
     0
  0
ENDTAB
  0
TABLE
  2
BLOCK_RECORD
  5
1
330
0
100
AcDbSymbolTable
 70
     8
  0
BLOCK_RECORD
  5
18
102
{ACAD_XDICTIONARY
360
88F
102
}
330
1
100
AcDbSymbolTableRecord
100
AcDbBlockTableRecord
  2
*MODEL_SPACE
  0
BLOCK_RECORD
  5
15
330
1
100
AcDbSymbolTableRecord
100
AcDbBlockTableRecord
  2
*PAPER_SPACE
  0
BLOCK_RECORD
  5
42
330
1
100
AcDbSymbolTableRecord
100
AcDbBlockTableRecord
  2
_OPEN30
  0
BLOCK_RECORD
  5
A333
330
1
100
AcDbSymbolTableRecord
100
AcDbBlockTableRecord
  2
A3WAKUKAWAJUN2017_HYOUDAI_
  0
BLOCK_RECORD
  5
11A08
330
1
100
AcDbSymbolTableRecord
100
AcDbBlockTableRecord
  2
*X259
  0
BLOCK_RECORD
  5
11A56
330
1
100
AcDbSymbolTableRecord
100
AcDbBlockTableRecord
  2
*X260
  0
BLOCK_RECORD
  5
11AA8
330
1
100
AcDbSymbolTableRecord
100
AcDbBlockTableRecord
  2
*X261
  0
BLOCK_RECORD
  5
11AF9
330
1
100
AcDbSymbolTableRecord
100
AcDbBlockTableRecord
  2
*X262
  0
BLOCK_RECORD
  5
11B36
330
1
100
AcDbSymbolTableRecord
100
AcDbBlockTableRecord
  2
*X263
  0
BLOCK_RECORD
  5
11B76
330
1
100
AcDbSymbolTableRecord
100
AcDbBlockTableRecord
  2
*X264
  0
ENDTAB
  0
ENDSEC
  0
SECTION
  2
BLOCKS
  0
BLOCK
  5
19
330
18
100
AcDbEntity
  8
0
100
AcDbBlockBegin
  2
*MODEL_SPACE
 70
     0
 10
0.0
 20
0.0
 30
0.0
  3
*MODEL_SPACE
  1

  0
ENDBLK
  5
1A
330
18
100
AcDbEntity
  8
0
100
AcDbBlockEnd
  0
BLOCK
  5
16
330
15
100
AcDbEntity
 67
     1
  8
0
100
AcDbBlockBegin
  2
*PAPER_SPACE
 70
     0
 10
0.0
 20
0.0
 30
0.0
  3
*PAPER_SPACE
  1

  0
ENDBLK
  5
17
330
15
100
AcDbEntity
 67
     1
  8
0
100
AcDbBlockEnd
  0
BLOCK
  5
43
330
42
100
AcDbEntity
  8
0
100
AcDbBlockBegin
  2
_OPEN30
 70
     0
 10
0.0
 20
0.0
 30
0.0
  3
_OPEN30
  1

  0
LINE
  5
44
330
42
100
AcDbEntity
  8
0
  6
BYBLOCK
 62
     0
100
AcDbLine
 10
-1.0
 20
0.26794919
 30
0.0
 11
0.0
 21
0.0
 31
0.0
  0
LINE
  5
45
330
42
100
AcDbEntity
  8
0
  6
BYBLOCK
 62
     0
100
AcDbLine
 10
0.0
 20
0.0
 30
0.0
 11
-1.0
 21
-0.26794919
 31
0.0
  0
LINE
  5
46
330
42
100
AcDbEntity
  8
0
  6
BYBLOCK
 62
     0
100
AcDbLine
 10
0.0
 20
0.0
 30
0.0
 11
-1.0
 21
0.0
 31
0.0
  0
ENDBLK
  5
47
330
42
100
AcDbEntity
  8
0
100
AcDbBlockEnd
  0
BLOCK
  5
AA56
330
A333
100
AcDbEntity
  8
0
100
AcDbBlockBegin
  2
A3WAKUKAWAJUN2017_HYOUDAI_
 70
     0
 10
0.0
 20
0.0
 30
0.0
  3
A3WAKUKAWAJUN2017_HYOUDAI_
  1

  0
LINE
  5
A335
330
A333
100
AcDbEntity
  8
0
100
AcDbLine
 10
13.26299999998673
 20
-0.0001000000000317
 30
0.0
 11
9.236999999990758
 21
8.999899999990987
 31
0.0
1001
ACAD
1000
ASC_BOUNDS
1002
{
1070
    19
1005
A376
1002
}
  0
LINE
  5
A336
330
A333
100
AcDbEntity
  8
0
100
AcDbLine
 10
5.657999999994331
 20
0.9999999999989768
 30
0.0
 11
9.236999999990758
 21
8.999999999991019
 31
0.0
1001
ACAD
1000
ASC_BOUNDS
1002
{
1070
    19
1005
A376
1002
}
  0
LINE
  5
A337
330
A333
100
AcDbEntity
  8
0
100
AcDbLine
 10
18.59199999998134
 20
-0.2368999999997641
 30
0.0
 11
16.46099999998353
 21
5.432899999994561
 31
0.0
1001
ACAD
1000
ASC_BOUNDS
1002
{
1070
    19
1005
A377
1002
}
  0
LINE
  5
A338
330
A333
100
AcDbEntity
  8
0
100
AcDbLine
 10
18.59199999998134
 20
-0.2368999999997641
 30
0.0
 11
22.38199999997767
 21
8.763099999991255
 31
0.0
1001
ACAD
1000
ASC_BOUNDS
1002
{
1070
    19
1005
A377
1002
}
  0
LINE
  5
A339
330
A333
100
AcDbEntity
  8
0
100
AcDbLine
 10
14.32899999998563
 20
-0.2368999999997641
 30
0.0
 11
16.46099999998353
 21
5.432899999994561
 31
0.0
1001
ACAD
1000
ASC_BOUNDS
1002
{
1070
    19
1005
A377
1002
}
  0
LINE
  5
A33A
330
A333
100
AcDbEntity
  8
0
100
AcDbLine
 10
14.32899999998563
 20
-0.2368999999997641
 30
0.0
 11
10.53899999998941
 21
8.763099999991255
 31
0.0
1001
ACAD
1000
ASC_BOUNDS
1002
{
1070
    19
1005
A377
1002
}
  0
LINE
  5
A33B
330
A333
100
AcDbEntity
  8
0
100
AcDbLine
 10
19.53899999998043
 20
-0.0001000000000317
 30
0.0
 11
23.56599999997638
 21
8.999899999990987
 31
0.0
1001
ACAD
1000
ASC_BOUNDS
1002
{
1070
    19
1005
A378
1002
}
  0
LINE
  5
A33C
330
A333
100
AcDbEntity
  8
0
100
AcDbLine
 10
26.97358892824991
 20
1.383099999991202
 30
0.0
 11
23.56599999997638
 21
8.999899999990987
 31
0.0
1001
ACAD
1000
ASC_BOUNDS
1002
{
1070
    19
1005
A378
1002
}
  0
LINE
  5
A33D
330
A333
100
AcDbEntity
  8
0
100
AcDbLine
 10
5.657999999994331
 20
0.9999999999989768
 30
0.0
 11
3.181999999996833
 21
4.668599999995308
 31
0.0
1001
ACAD
1000
ASC_BOUNDS
1002
{
1070
    19
1005
A376
1002
}
  0
LINE
  5
A33E
330
A333
100
AcDbEntity
  8
0
100
AcDbLine
 10
4.617999999995391
 20
-0.0001000000000317
 30
0.0
 11
1.420999999998571
 21
4.736799999995242
 31
0.0
1001
ACAD
1000
ASC_BOUNDS
1002
{
1070
    19
1005
A376
1002
}
  0
LINE
  5
A33F
330
A333
100
AcDbEntity
  8
0
100
AcDbLine
 10
1.420999999998571
 20
8.763099999991255
 30
0.0
 11
1.420999999998571
 21
0.0
 31
0.0
1001
ACAD
1000
ASC_BOUNDS
1002
{
1070
    19
1005
A37B
1002
}
  0
LINE
  5
A340
330
A333
100
AcDbEntity
  8
0
100
AcDbLine
 10
0.0
 20
8.763099999991255
 30
0.0
 11
0.0
 21
0.0
 31
0.0
1001
ACAD
1000
ASC_BOUNDS
1002
{
1070
    19
1005
A37B
1002
}
  0
LINE
  5
A341
330
A333
100
AcDbEntity
  8
0
100
AcDbLine
 10
6.766999999993232
 20
-0.0001000000000317
 30
0.0
 11
7.826999999992154
 21
2.368399999997621
 31
0.0
1001
ACAD
1000
ASC_BOUNDS
1002
{
1070
    19
1005
A376
1002
}
  0
LINE
  5
A342
330
A333
100
AcDbEntity
  8
0
100
AcDbLine
 10
0.0
 20
0.0
 30
0.0
 11
1.420999999998571
 21
0.0
 31
0.0
1001
ACAD
1000
ASC_BOUNDS
1002
{
1070
    19
1005
A37B
1002
}
  0
LINE
  5
A343
330
A333
100
AcDbEntity
  8
0
100
AcDbLine
 10
4.617999999995391
 20
0.0
 30
0.0
 11
6.766999999993232
 21
0.0
 31
0.0
1001
ACAD
1000
ASC_BOUNDS
1002
{
1070
    19
1005
A376
1002
}
  0
LINE
  5
A344
330
A333
100
AcDbEntity
  8
0
100
AcDbLine
 10
11.70599999998831
 20
-0.0001000000000317
 30
0.0
 11
10.64699999998936
 21
2.368399999997621
 31
0.0
1001
ACAD
1000
ASC_BOUNDS
1002
{
1070
    19
1005
A376
1002
}
  0
LINE
  5
A345
330
A333
100
AcDbEntity
  8
0
100
AcDbLine
 10
7.826999999992154
 20
2.368399999997621
 30
0.0
 11
10.64699999998936
 21
2.368399999997621
 31
0.0
1001
ACAD
1000
ASC_BOUNDS
1002
{
1070
    19
1005
A376
1002
}
  0
LINE
  5
A346
330
A333
100
AcDbEntity
  8
0
100
AcDbLine
 10
11.70599999998831
 20
0.0
 30
0.0
 11
13.26299999998673
 21
0.0
 31
0.0
1001
ACAD
1000
ASC_BOUNDS
1002
{
1070
    19
1005
A376
1002
}
  0
LINE
  5
A347
330
A333
100
AcDbEntity
  8
0
100
AcDbLine
 10
22.15599999997789
 20
2.368399999997621
 30
0.0
 11
24.97599999997499
 21
2.368399999997621
 31
0.0
1001
ACAD
1000
ASC_BOUNDS
1002
{
1070
    19
1005
A378
1002
}
  0
LINE
  5
A348
330
A333
100
AcDbEntity
  8
0
100
AcDbLine
 10
19.53899999998043
 20
0.0
 30
0.0
 11
21.09599999997886
 21
0.0
 31
0.0
1001
ACAD
1000
ASC_BOUNDS
1002
{
1070
    19
1005
A378
1002
}
  0
LINE
  5
A349
330
A333
100
AcDbEntity
  8
0
100
AcDbLine
 10
21.09599999997886
 20
-0.0001000000000317
 30
0.0
 11
22.15599999997789
 21
2.368399999997621
 31
0.0
1001
ACAD
1000
ASC_BOUNDS
1002
{
1070
    19
1005
A378
1002
}
  0
LINE
  5
A34A
330
A333
100
AcDbEntity
  8
0
100
AcDbLine
 10
26.02015566812236
 20
0.0330999999912365
 30
0.0
 11
24.97599999997499
 21
2.368399999997621
 31
0.0
1001
ACAD
1000
ASC_BOUNDS
1002
{
1070
    19
1005
A378
1002
}
  0
LINE
  5
A34B
330
A333
100
AcDbEntity
  8
0
100
AcDbLine
 10
14.32399999998563
 20
3.315799999996671
 30
0.0
 11
16.46099999998353
 21
8.999899999990987
 31
0.0
1001
ACAD
1000
ASC_BOUNDS
1002
{
1070
    19
1005
A377
1002
}
  0
LINE
  5
A34C
330
A333
100
AcDbEntity
  8
0
100
AcDbLine
 10
6.432999999993513
 20
8.763099999991255
 30
0.0
 11
3.181999999996833
 21
4.668599999995308
 31
0.0
1001
ACAD
1000
ASC_BOUNDS
1002
{
1070
    19
1005
A376
1002
}
  0
LINE
  5
A34D
330
A333
100
AcDbEntity
  8
0
100
AcDbLine
 10
4.617999999995391
 20
8.763099999991255
 30
0.0
 11
1.420999999998571
 21
4.736799999995242
 31
0.0
1001
ACAD
1000
ASC_BOUNDS
1002
{
1070
    19
1005
A376
1002
}
  0
LINE
  5
A34E
330
A333
100
AcDbEntity
  8
0
100
AcDbLine
 10
0.0
 20
8.763099999991255
 30
0.0
 11
1.420999999998571
 21
8.763099999991255
 31
0.0
1001
ACAD
1000
ASC_BOUNDS
1002
{
1070
    19
1005
A37B
1002
}
  0
LINE
  5
A34F
330
A333
100
AcDbEntity
  8
0
100
AcDbLine
 10
4.617999999995391
 20
8.763099999991255
 30
0.0
 11
6.432999999993513
 21
8.763099999991255
 31
0.0
1001
ACAD
1000
ASC_BOUNDS
1002
{
1070
    19
1005
A376
1002
}
  0
LINE
  5
A350
330
A333
100
AcDbEntity
  8
0
100
AcDbLine
 10
14.32399999998563
 20
3.315799999996671
 30
0.0
 11
12.02999999998792
 21
8.763099999991255
 31
0.0
1001
ACAD
1000
ASC_BOUNDS
1002
{
1070
    19
1005
A377
1002
}
  0
LINE
  5
A351
330
A333
100
AcDbEntity
  8
0
100
AcDbLine
 10
10.06399999998996
 20
3.670999999996297
 30
0.0
 11
9.236999999990758
 21
5.5200999999945
 31
0.0
1001
ACAD
1000
ASC_BOUNDS
1002
{
1070
    19
1005
A376
1002
}
  0
LINE
  5
A352
330
A333
100
AcDbEntity
  8
0
100
AcDbLine
 10
8.409999999991555
 20
3.670999999996297
 30
0.0
 11
9.236999999990758
 21
5.5200999999945
 31
0.0
1001
ACAD
1000
ASC_BOUNDS
1002
{
1070
    19
1005
A376
1002
}
  0
LINE
  5
A353
330
A333
100
AcDbEntity
  8
0
100
AcDbLine
 10
8.409999999991555
 20
3.670999999996297
 30
0.0
 11
10.06399999998996
 21
3.670999999996297
 31
0.0
1001
ACAD
1000
ASC_BOUNDS
1002
{
1070
    19
1005
A376
1002
}
  0
LINE
  5
A354
330
A333
100
AcDbEntity
  8
0
100
AcDbLine
 10
10.53899999998941
 20
8.763099999991255
 30
0.0
 11
12.02999999998792
 21
8.763099999991255
 31
0.0
1001
ACAD
1000
ASC_BOUNDS
1002
{
1070
    19
1005
A377
1002
}
  0
LINE
  5
A355
330
A333
100
AcDbEntity
  8
0
100
AcDbLine
 10
22.7389999999773
 20
3.670999999996297
 30
0.0
 11
23.56599999997638
 21
5.5200999999945
 31
0.0
1001
ACAD
1000
ASC_BOUNDS
1002
{
1070
    19
1005
A378
1002
}
  0
LINE
  5
A356
330
A333
100
AcDbEntity
  8
0
100
AcDbLine
 10
22.7389999999773
 20
3.670999999996297
 30
0.0
 11
24.39299999997559
 21
3.670999999996297
 31
0.0
1001
ACAD
1000
ASC_BOUNDS
1002
{
1070
    19
1005
A378
1002
}
  0
LINE
  5
A357
330
A333
100
AcDbEntity
  8
0
100
AcDbLine
 10
18.59799999998143
 20
3.315799999996671
 30
0.0
 11
20.89099999997916
 21
8.763099999991255
 31
0.0
1001
ACAD
1000
ASC_BOUNDS
1002
{
1070
    19
1005
A377
1002
}
  0
LINE
  5
A358
330
A333
100
AcDbEntity
  8
0
100
AcDbLine
 10
18.59799999998143
 20
3.315799999996671
 30
0.0
 11
16.46099999998353
 21
8.999899999990987
 31
0.0
1001
ACAD
1000
ASC_BOUNDS
1002
{
1070
    19
1005
A377
1002
}
  0
LINE
  5
A359
330
A333
100
AcDbEntity
  8
0
100
AcDbLine
 10
20.89099999997916
 20
8.763099999991255
 30
0.0
 11
22.38199999997767
 21
8.763099999991255
 31
0.0
1001
ACAD
1000
ASC_BOUNDS
1002
{
1070
    19
1005
A377
1002
}
  0
LINE
  5
A35A
330
A333
100
AcDbEntity
  8
0
100
AcDbLine
 10
24.39299999997559
 20
3.670999999996297
 30
0.0
 11
23.56599999997638
 21
5.5200999999945
 31
0.0
1001
ACAD
1000
ASC_BOUNDS
1002
{
1070
    19
1005
A378
1002
}
  0
LINE
  5
A35B
330
A333
100
AcDbEntity
  8
0
100
AcDbLine
 10
44.99999999995498
 20
-0.2368999999997641
 30
0.0
 11
40.02599999995994
 21
5.341799999994635
 31
0.0
1001
ACAD
1000
ASC_BOUNDS
1002
{
1070
    19
1005
A37A
1002
}
  0
LINE
  5
A35C
330
A333
100
AcDbEntity
  8
0
100
AcDbLine
 10
40.02599999995994
 20
5.341799999994635
 30
0.0
 11
40.02599999995994
 21
0.0
 31
0.0
1001
ACAD
1000
ASC_BOUNDS
1002
{
1070
    19
1005
A37A
1002
}
  0
LINE
  5
A35D
330
A333
100
AcDbEntity
  8
0
100
AcDbLine
 10
38.60499999996136
 20
8.999999999991019
 30
0.0
 11
38.60499999996136
 21
0.0
 31
0.0
1001
ACAD
1000
ASC_BOUNDS
1002
{
1070
    19
1005
A37A
1002
}
  0
LINE
  5
A35E
330
A333
100
AcDbEntity
  8
0
100
AcDbLine
 10
44.99999999995498
 20
8.763099999991255
 30
0.0
 11
44.99999999995498
 21
-0.2368999999997641
 31
0.0
1001
ACAD
1000
ASC_BOUNDS
1002
{
1070
    19
1005
A37A
1002
}
  0
LINE
  5
A35F
330
A333
100
AcDbEntity
  8
0
100
AcDbLine
 10
38.60499999996136
 20
0.0
 30
0.0
 11
40.02599999995994
 21
0.0
 31
0.0
1001
ACAD
1000
ASC_BOUNDS
1002
{
1070
    19
1005
A37A
1002
}
  0
LINE
  5
A360
330
A333
100
AcDbEntity
  8
0
100
AcDbLine
 10
43.57899999995641
 20
3.421199999996588
 30
0.0
 11
38.60499999996136
 21
8.999899999990987
 31
0.0
1001
ACAD
1000
ASC_BOUNDS
1002
{
1070
    19
1005
A37A
1002
}
  0
LINE
  5
A361
330
A333
100
AcDbEntity
  8
0
100
AcDbLine
 10
43.57899999995641
 20
8.763099999991255
 30
0.0
 11
43.57899999995641
 21
3.421199999996588
 31
0.0
1001
ACAD
1000
ASC_BOUNDS
1002
{
1070
    19
1005
A37A
1002
}
  0
LINE
  5
A362
330
A333
100
AcDbEntity
  8
0
100
AcDbLine
 10
43.57899999995641
 20
8.763099999991255
 30
0.0
 11
44.99999999995498
 21
8.763099999991255
 31
0.0
1001
ACAD
1000
ASC_BOUNDS
1002
{
1070
    19
1005
A37A
1002
}
  0
LINE
  5
A363
330
A333
100
AcDbEntity
  8
0
100
AcDbLine
 10
37.67199999996831
 20
8.763099999991255
 30
0.0
 11
36.23199999996837
 21
8.763099999991255
 31
0.0
  0
LINE
  5
A364
330
A333
100
AcDbEntity
  8
0
100
AcDbLine
 10
31.64199999996833
 20
8.763099999991255
 30
0.0
 11
31.64199999996833
 21
2.481619422925121
 31
0.0
  0
LINE
  5
A365
330
A333
100
AcDbEntity
  8
0
100
AcDbLine
 10
37.67199999996831
 20
8.763099999991255
 30
0.0
 11
37.67199999996831
 21
2.481619422925121
 31
0.0
  0
LINE
  5
A366
330
A333
100
AcDbEntity
  8
0
100
AcDbLine
 10
36.23199999996837
 20
8.763099999991255
 30
0.0
 11
36.23199999996837
 21
2.481619422925064
 31
0.0
  0
LINE
  5
A367
330
A333
100
AcDbEntity
  8
0
100
AcDbLine
 10
33.08199999996839
 20
8.763099999991255
 30
0.0
 11
33.08199999996839
 21
2.481619422925121
 31
0.0
  0
ARC
  5
A368
330
A333
100
AcDbEntity
  8
0
100
AcDbCircle
 10
34.65699999996832
 20
3.183099999991214
 30
0.0
 40
3.420000000000007
100
AcDbArc
 50
240.0000000000255
 51
299.9999999999766
  0
ARC
  5
A369
330
A333
100
AcDbEntity
  8
0
100
AcDbCircle
 10
34.65699999996832
 20
3.183099999991214
 30
0.0
 40
1.97999999999999
100
AcDbArc
 50
240.000000000026
 51
299.9999999999703
  0
LINE
  5
A36A
330
A333
100
AcDbEntity
  8
0
100
AcDbLine
 10
33.08199999996828
 20
8.763099999991255
 30
0.0
 11
31.64199999996833
 21
8.763099999991255
 31
0.0
  0
ARC
  5
A36B
330
A333
100
AcDbEntity
  8
0
100
AcDbCircle
 10
35.06199999996829
 20
2.481619422925064
 30
0.0
 40
1.17
100
AcDbArc
 50
299.9999999999699
 51
0.0
  0
ARC
  5
A36C
330
A333
100
AcDbEntity
  8
0
100
AcDbCircle
 10
34.25199999996835
 20
2.481619422925121
 30
0.0
 40
1.17
100
AcDbArc
 50
180.0
 51
240.0000000000238
  0
ARC
  5
A36D
330
A333
100
AcDbEntity
  8
0
100
AcDbCircle
 10
35.06199999996841
 20
2.481619422925121
 30
0.0
 40
2.61
100
AcDbArc
 50
299.9999999999756
 51
0.0
  0
ARC
  5
A36E
330
A333
100
AcDbEntity
  8
0
100
AcDbCircle
 10
34.25199999996835
 20
2.481619422925121
 30
0.0
 40
2.61
100
AcDbArc
 50
180.0
 51
240.0000000000244
  0
LINE
  5
A36F
330
A333
100
AcDbEntity
  8
0
100
AcDbLine
 10
29.30199999996933
 20
8.763099999991255
 30
0.0
 11
30.74199999996927
 21
8.763099999991255
 31
0.0
1001
ACAD
1000
ASC_BOUNDS
1002
{
1070
    19
1005
A378
1002
}
  0
LINE
  5
A370
330
A333
100
AcDbEntity
  8
0
100
AcDbLine
 10
30.74199999996927
 20
8.763099999991255
 30
0.0
 11
30.74199999996927
 21
2.373099999991211
 31
0.0
1001
ACAD
1000
ASC_BOUNDS
1002
{
1070
    19
1005
A378
1002
}
  0
LINE
  5
A371
330
A333
100
AcDbEntity
  8
0
100
AcDbLine
 10
26.02015566812236
 20
0.0330999999912365
 30
0.0
 11
28.40199999996923
 21
0.0330999999912365
 31
0.0
1001
ACAD
1000
ASC_BOUNDS
1002
{
1070
    19
1005
A378
1002
}
  0
LINE
  5
A372
330
A333
100
AcDbEntity
  8
0
100
AcDbLine
 10
29.30199999996933
 20
8.763099999991255
 30
0.0
 11
29.30199999996933
 21
2.283099999991236
 31
0.0
1001
ACAD
1000
ASC_BOUNDS
1002
{
1070
    19
1005
A378
1002
}
  0
LINE
  5
A373
330
A333
100
AcDbEntity
  8
0
100
AcDbLine
 10
26.97358892824991
 20
1.383099999991202
 30
0.0
 11
28.40199999996923
 21
1.383099999991202
 31
0.0
1001
ACAD
1000
ASC_BOUNDS
1002
{
1070
    19
1005
A378
1002
}
  0
ARC
  5
A374
330
A333
100
AcDbEntity
  8
0
100
AcDbCircle
 10
28.40199999996923
 20
2.283099999991236
 30
0.0
 40
0.9
100
AcDbArc
 50
270.0
 51
0.0
1001
ACAD
1000
ASC_BOUNDS
1002
{
1070
    19
1005
A378
1002
}
  0
ARC
  5
A375
330
A333
100
AcDbEntity
  8
0
100
AcDbCircle
 10
28.40199999996923
 20
2.373099999991211
 30
0.0
 40
2.34
100
AcDbArc
 50
270.0
 51
0.0
1001
ACAD
1000
ASC_BOUNDS
1002
{
1070
    19
1005
A378
1002
}
  0
INSERT
  5
A376
330
A333
100
AcDbEntity
  8
0
100
AcDbBlockReference
  2
*X259
 10
0.0
 20
0.0
 30
0.0
1001
ACAD
1000
HATCH
1002
{
1070
    19
1000
ANSI37
1040
0.15
1040
0.0
1000
ASC_BOUNDS
1070
     2
1070
     2
1070
    12
1005
A335
1005
A336
1005
A33D
1005
A34C
1005
A34F
1005
A34D
1005
A33E
1005
A343
1005
A341
1005
A345
1005
A344
1005
A346
1070
     2
1070
     3
1005
A351
1005
A353
1005
A352
1000
ASC_SEEDPOINT
1011
3.614004224891801
1021
2.996669441146025
1031
0.0
1000
R14_HATCH_DATA
1000
A376
1011
1.0
1021
0.0
1031
0.0
1011
0.0
1021
1.0
1031
0.0
1011
0.0
1021
0.0
1031
1.0
1040
0.0
1010
0.0
1020
0.0
1030
1.0
1000
ANSI37
1070
     0
1070
     1
1071
        2
1071
        7
1070
     0
1070
     1
1071
       17
1040
13.26299999998673
1040
-0.0001000000000317
1040
9.236999999990758
1040
8.999899999990987
1040
9.236999999990758
1040
8.999999999991019
1040
5.657999999994331
1040
0.9999999999989768
1040
3.181999999996833
1040
4.668599999995308
1040
6.432999999993513
1040
8.763099999991255
1040
4.617999999995391
1040
8.763099999991255
1040
1.420999999998571
1040
4.736799999995242
1040
4.617999999995391
1040
-0.0001000000000317
1040
4.617999999995391
1040
0.0
1040
6.766999999993232
1040
0.0
1040
6.766999999993232
1040
-0.0001000000000317
1040
7.826999999992154
1040
2.368399999997621
1040
10.64699999998936
1040
2.368399999997621
1040
11.70599999998831
1040
-0.0001000000000317
1040
11.70599999998831
1040
0.0
1040
13.26299999998673
1040
0.0
1071
       12
1005
A335
1005
A336
1005
A33D
1005
A34C
1005
A34F
1005
A34D
1005
A33E
1005
A343
1005
A341
1005
A345
1005
A344
1005
A346
1071
       22
1070
     0
1070
     1
1071
        3
1040
9.236999999990758
1040
5.5200999999945
1040
10.06399999998996
1040
3.670999999996297
1040
8.409999999991555
1040
3.670999999996297
1071
        3
1005
A351
1005
A353
1005
A352
1070
     0
1070
     1
1040
0.0
1040
0.15
1070
     0
1070
     2
1040
0.7853981633974483
1040
49.29960901727088
1040
-10.17736998311392
1040
-0.3367596045400932
1040
0.3367596045400932
1070
     0
1040
2.356194490192345
1040
49.29960901727088
1040
-10.17736998311392
1040
-0.3367596045400932
1040
-0.3367596045400932
1070
     0
1040
0.0110235143455945
1071
        2
1040
3.614004224891801
1040
2.996669441146025
1040
0.0
1040
3.614004224891801
1040
2.996669441146025
1040
0.0
1002
}
  0
INSERT
  5
A377
330
A333
100
AcDbEntity
  8
0
100
AcDbBlockReference
  2
*X260
 10
0.0
 20
0.0
 30
0.0
1001
ACAD
1000
HATCH
1002
{
1070
    19
1000
ANSI37
1040
0.15
1040
0.0
1000
ASC_BOUNDS
1070
     1
1070
     2
1070
    10
1005
A337
1005
A338
1005
A359
1005
A357
1005
A358
1005
A34B
1005
A350
1005
A354
1005
A33A
1005
A339
1000
ASC_SEEDPOINT
1011
14.73245321214324
1021
2.798246178283421
1031
0.0
1000
R14_HATCH_DATA
1000
A377
1011
1.0
1021
0.0
1031
0.0
1011
0.0
1021
1.0
1031
0.0
1011
0.0
1021
0.0
1031
1.0
1040
0.0
1010
0.0
1020
0.0
1030
1.0
1000
ANSI37
1070
     0
1070
     1
1071
        1
1071
        7
1070
     0
1070
     1
1071
       10
1040
16.46099999998353
1040
5.432899999994561
1040
18.59199999998134
1040
-0.2368999999997641
1040
22.38199999997767
1040
8.763099999991255
1040
20.89099999997916
1040
8.763099999991255
1040
18.59799999998143
1040
3.315799999996671
1040
16.46099999998353
1040
8.999899999990987
1040
14.32399999998563
1040
3.315799999996671
1040
12.02999999998792
1040
8.763099999991255
1040
10.53899999998941
1040
8.763099999991255
1040
14.32899999998563
1040
-0.2368999999997641
1071
       10
1005
A337
1005
A338
1005
A359
1005
A357
1005
A358
1005
A34B
1005
A350
1005
A354
1005
A33A
1005
A339
1070
     0
1070
     1
1040
0.0
1040
0.15
1070
     0
1070
     2
1040
0.7853981633974483
1040
49.29960901727088
1040
-10.17736998311392
1040
-0.3367596045400932
1040
0.3367596045400932
1070
     0
1040
2.356194490192345
1040
49.29960901727088
1040
-10.17736998311392
1040
-0.3367596045400932
1040
-0.3367596045400932
1070
     0
1040
0.0110235143455945
1071
        1
1040
14.73245321214324
1040
2.798246178283421
1040
0.0
1002
}
  0
INSERT
  5
A378
330
A333
100
AcDbEntity
  8
0
100
AcDbBlockReference
  2
*X261
 10
0.0
 20
0.0
 30
0.0
1001
ACAD
1000
HATCH
1002
{
1070
    19
1000
ANSI37
1040
0.15
1040
0.0
1000
ASC_BOUNDS
1070
     2
1070
     2
1070
    13
1005
A33B
1005
A348
1005
A349
1005
A347
1005
A34A
1005
A371
1005
A375
1005
A370
1005
A36F
1005
A372
1005
A374
1005
A373
1005
A33C
1070
     2
1070
     3
1005
A355
1005
A35A
1005
A356
1000
ASC_SEEDPOINT
1011
21.97929957367762
1021
3.294304244259308
1031
0.0
1000
R14_HATCH_DATA
1000
A378
1011
1.0
1021
0.0
1031
0.0
1011
0.0
1021
1.0
1031
0.0
1011
0.0
1021
0.0
1031
1.0
1040
0.0
1010
0.0
1020
0.0
1030
1.0
1000
ANSI37
1070
     0
1070
     1
1071
        2
1071
        7
1070
     1
1070
     1
1071
       15
1040
23.56599999997638
1040
8.999899999990987
1040
0.0
1040
19.53899999998043
1040
-0.0001000000000317
1040
0.0
1040
19.53899999998043
1040
0.0
1040
0.0
1040
21.09599999997886
1040
0.0
1040
0.0
1040
21.09599999997886
1040
-0.0001000000000317
1040
0.0
1040
22.15599999997789
1040
2.368399999997621
1040
0.0
1040
24.97599999997499
1040
2.368399999997621
1040
0.0
1040
26.02015566812236
1040
0.0330999999912365
1040
0.0
1040
28.40199999996923
1040
0.0330999999912365
1040
0.414213562373095
1040
30.74199999996923
1040
2.373099999991211
1040
0.0
1040
30.74199999996927
1040
8.763099999991255
1040
0.0
1040
29.30199999996933
1040
8.763099999991255
1040
0.0
1040
29.30199999996933
1040
2.283099999991236
1040
-0.414213562373095
1040
28.40199999996923
1040
1.383099999991237
1040
0.0
1040
26.97358892824991
1040
1.383099999991202
1040
0.0
1071
       13
1005
A33B
1005
A348
1005
A349
1005
A347
1005
A34A
1005
A371
1005
A375
1005
A370
1005
A36F
1005
A372
1005
A374
1005
A373
1005
A33C
1071
       22
1070
     0
1070
     1
1071
        3
1040
22.7389999999773
1040
3.670999999996297
1040
23.56599999997638
1040
5.5200999999945
1040
24.39299999997559
1040
3.670999999996297
1071
        3
1005
A355
1005
A35A
1005
A356
1070
     0
1070
     1
1040
0.0
1040
0.15
1070
     0
1070
     2
1040
0.7853981633974483
1040
49.29960901727088
1040
-10.17736998311392
1040
-0.3367596045400932
1040
0.3367596045400932
1070
     0
1040
2.356194490192345
1040
49.29960901727088
1040
-10.17736998311392
1040
-0.3367596045400932
1040
-0.3367596045400932
1070
     0
1040
0.0110235143455945
1071
        2
1040
21.97929957367762
1040
3.294304244259308
1040
0.0
1040
21.97929957367762
1040
3.294304244259308
1040
0.0
1002
}
  0
INSERT
  5
A379
330
A333
100
AcDbEntity
  8
0
100
AcDbBlockReference
  2
*X262
 10
0.0
 20
0.0
 30
0.0
1001
ACAD
1000
HATCH
1002
{
1070
    19
1000
ANSI37
1040
0.15
1040
0.0
1000
R14_HATCH_DATA
1000
A379
1011
1.0
1021
0.0
1031
0.0
1011
0.0
1021
1.0
1031
0.0
1011
0.0
1021
0.0
1031
1.0
1040
0.0
1010
0.0
1020
0.0
1030
1.0
1000
ANSI37
1070
     0
1070
     1
1071
        1
1071
        7
1070
     1
1070
     1
1071
       12
1040
31.64199999996833
1040
2.481619422925121
1040
0.2679491924310942
1040
32.94699999997067
1040
0.2212931190493919
1040
0.2679491924301353
1040
36.36699999995983
1040
0.2212931190459813
1040
0.2679491924321411
1040
37.67199999996831
1040
2.481619422928361
1040
0.0
1040
37.67199999996831
1040
8.763099999991255
1040
0.0
1040
36.23199999996837
1040
8.763099999991255
1040
0.0
1040
36.23199999996837
1040
2.481619422925064
1040
-0.2679491924310291
1040
35.64699999996708
1040
1.468369700498386
1040
-0.267949192430519
1040
33.66699999997093
1040
1.468369700497703
1040
-0.267949192431809
1040
33.08199999996839
1040
2.481619422926997
1040
0.0
1040
33.08199999996839
1040
8.763099999991255
1040
0.0
1040
31.64199999996833
1040
8.763099999991255
1040
0.0
1071
        0
1070
     0
1070
     1
1040
0.0
1040
0.15
1070
     0
1070
     2
1040
0.7853981633974483
1040
49.29960901727088
1040
-10.17736998311392
1040
-0.3367596045400932
1040
0.3367596045400932
1070
     0
1040
2.356194490192345
1040
49.29960901727088
1040
-10.17736998311392
1040
-0.3367596045400932
1040
-0.3367596045400932
1070
     0
1040
0.0110235143455945
1071
        1
1040
32.30357378967278
1040
3.988785755459219
1040
0.0
1002
}
  0
INSERT
  5
A37A
330
A333
100
AcDbEntity
  8
0
100
AcDbBlockReference
  2
*X263
 10
0.0
 20
0.0
 30
0.0
1001
ACAD
1000
HATCH
1002
{
1070
    19
1000
ANSI37
1040
0.15
1040
0.0
1000
ASC_BOUNDS
1070
     1
1070
     2
1070
     8
1005
A35B
1005
A35E
1005
A362
1005
A361
1005
A360
1005
A35D
1005
A35F
1005
A35C
1000
ASC_SEEDPOINT
1011
39.74896370716704
1021
4.484843821435049
1031
0.0
1000
R14_HATCH_DATA
1000
A37A
1011
1.0
1021
0.0
1031
0.0
1011
0.0
1021
1.0
1031
0.0
1011
0.0
1021
0.0
1031
1.0
1040
0.0
1010
0.0
1020
0.0
1030
1.0
1000
ANSI37
1070
     0
1070
     1
1071
        1
1071
        7
1070
     0
1070
     1
1071
        9
1040
40.02599999995994
1040
5.341799999994635
1040
44.99999999995498
1040
-0.2368999999997641
1040
44.99999999995498
1040
8.763099999991255
1040
43.57899999995641
1040
8.763099999991255
1040
43.57899999995641
1040
3.421199999996588
1040
38.60499999996136
1040
8.999899999990987
1040
38.60499999996136
1040
8.999999999991019
1040
38.60499999996136
1040
0.0
1040
40.02599999995994
1040
0.0
1071
        8
1005
A35B
1005
A35E
1005
A362
1005
A361
1005
A360
1005
A35D
1005
A35F
1005
A35C
1070
     0
1070
     1
1040
0.0
1040
0.15
1070
     0
1070
     2
1040
0.7853981633974483
1040
49.29960901727088
1040
-10.17736998311392
1040
-0.3367596045400932
1040
0.3367596045400932
1070
     0
1040
2.356194490192345
1040
49.29960901727088
1040
-10.17736998311392
1040
-0.3367596045400932
1040
-0.3367596045400932
1070
     0
1040
0.0110235143455945
1071
        1
1040
39.74896370716704
1040
4.484843821435049
1040
0.0
1002
}
  0
INSERT
  5
A37B
330
A333
100
AcDbEntity
  8
0
100
AcDbBlockReference
  2
*X264
 10
0.0
 20
0.0
 30
0.0
1001
ACAD
1000
HATCH
1002
{
1070
    19
1000
ANSI37
1040
0.15
1040
0.0
1000
ASC_BOUNDS
1070
     1
1070
     2
1070
     4
1005
A33F
1005
A34E
1005
A340
1005
A342
1000
ASC_SEEDPOINT
1011
1.079051535452663
1021
4.148538732891836
1031
0.0
1000
R14_HATCH_DATA
1000
A37B
1011
1.0
1021
0.0
1031
0.0
1011
0.0
1021
1.0
1031
0.0
1011
0.0
1021
0.0
1031
1.0
1040
0.0
1010
0.0
1020
0.0
1030
1.0
1000
ANSI37
1070
     0
1070
     1
1071
        1
1071
        7
1070
     0
1070
     1
1071
        4
1040
1.420999999998571
1040
0.0
1040
1.420999999998571
1040
8.763099999991255
1040
0.0
1040
8.763099999991255
1040
0.0
1040
0.0
1071
        4
1005
A33F
1005
A34E
1005
A340
1005
A342
1070
     0
1070
     1
1040
0.0
1040
0.15
1070
     0
1070
     2
1040
0.7853981633974483
1040
49.29960901727088
1040
-10.17736998311392
1040
-0.3367596045400932
1040
0.3367596045400932
1070
     0
1040
2.356194490192345
1040
49.29960901727088
1040
-10.17736998311392
1040
-0.3367596045400932
1040
-0.3367596045400932
1070
     0
1040
0.0053004257112761
1071
        1
1040
1.079051535452663
1040
4.148538732891836
1040
0.0
1002
}
  0
ENDBLK
  5
AA57
330
A333
100
AcDbEntity
  8
0
100
AcDbBlockEnd
  0
BLOCK
  5
11B96
330
11A08
100
AcDbEntity
  8
0
100
AcDbBlockBegin
  2
*X259
 70
     1
 10
0.0
 20
0.0
 30
0.0
  3
*X259
  1

  0
LINE
  5
11A09
330
11A08
100
AcDbEntity
  8
0
  6
CONTINUOUS
100
AcDbLine
 10
3.418023043697893
 20
7.251849696850613
 30
0.0
 11
4.929273346838536
 21
8.763099999991255
 31
0.0
  0
LINE
  5
11A0A
330
11A08
100
AcDbEntity
  8
0
  6
CONTINUOUS
100
AcDbLine
 10
1.483656411257782
 20
4.643963855330318
 30
0.0
 11
5.60279255591872
 21
8.763099999991255
 31
0.0
  0
LINE
  5
11A0B
330
11A08
100
AcDbEntity
  8
0
  6
CONTINUOUS
100
AcDbLine
 10
1.755053947328235
 20
4.241842182320584
 30
0.0
 11
6.276311764998907
 21
8.763099999991255
 31
0.0
  0
LINE
  5
11A0C
330
11A08
100
AcDbEntity
  8
0
  6
CONTINUOUS
100
AcDbLine
 10
2.026451483398688
 20
3.839720509310849
 30
0.0
 11
4.441040904851878
 21
6.254309930764039
 31
0.0
  0
LINE
  5
11A0D
330
11A08
100
AcDbEntity
  8
0
  6
CONTINUOUS
100
AcDbLine
 10
2.297849019469139
 20
3.437598836301114
 30
0.0
 11
3.321765168359338
 21
4.461514985191313
 31
0.0
  0
LINE
  5
11A0E
330
11A08
100
AcDbEntity
  8
0
  6
CONTINUOUS
100
AcDbLine
 10
2.569246555539591
 20
3.03547716329138
 30
0.0
 11
3.593163397972743
 21
4.059394005724531
 31
0.0
  0
LINE
  5
11A0F
330
11A08
100
AcDbEntity
  8
0
  6
CONTINUOUS
100
AcDbLine
 10
2.840644091610043
 20
2.633355490281646
 30
0.0
 11
3.864561627586149
 21
3.657273026257751
 31
0.0
  0
LINE
  5
11A10
330
11A08
100
AcDbEntity
  8
0
  6
CONTINUOUS
100
AcDbLine
 10
3.112041627680496
 20
2.231233817271911
 30
0.0
 11
4.135959857199554
 21
3.25515204679097
 31
0.0
  0
LINE
  5
11A11
330
11A08
100
AcDbEntity
  8
0
  6
CONTINUOUS
100
AcDbLine
 10
3.383439163750948
 20
1.829112144262177
 30
0.0
 11
4.40735808681296
 21
2.853031067324189
 31
0.0
  0
LINE
  5
11A12
330
11A08
100
AcDbEntity
  8
0
  6
CONTINUOUS
100
AcDbLine
 10
3.654836699821399
 20
1.426990471252442
 30
0.0
 11
4.678756316426365
 21
2.450910087857407
 31
0.0
  0
LINE
  5
11A13
330
11A08
100
AcDbEntity
  8
0
  6
CONTINUOUS
100
AcDbLine
 10
3.926234235891853
 20
1.024868798242709
 30
0.0
 11
4.95015454603977
 21
2.048789108390626
 31
0.0
  0
LINE
  5
11A14
330
11A08
100
AcDbEntity
  8
0
  6
CONTINUOUS
100
AcDbLine
 10
4.197631771962304
 20
0.6227471252329737
 30
0.0
 11
5.221552775653176
 21
1.646668128923846
 31
0.0
  0
LINE
  5
11A15
330
11A08
100
AcDbEntity
  8
0
  6
CONTINUOUS
100
AcDbLine
 10
8.715877546767851
 20
7.835069736359266
 30
0.0
 11
9.435953450375058
 21
8.555145639966472
 31
0.0
  0
LINE
  5
11A16
330
11A08
100
AcDbEntity
  8
0
  6
CONTINUOUS
100
AcDbLine
 10
8.170620868422267
 20
6.616293848933497
 30
0.0
 11
9.644120833743461
 21
8.08979381425469
 31
0.0
  0
LINE
  5
11A17
330
11A08
100
AcDbEntity
  8
0
  6
CONTINUOUS
100
AcDbLine
 10
7.625364190076684
 20
5.397517961507727
 30
0.0
 11
9.852288217111864
 21
7.624441988542907
 31
0.0
  0
LINE
  5
11A18
330
11A08
100
AcDbEntity
  8
0
  6
CONTINUOUS
100
AcDbLine
 10
7.080107511731101
 20
4.178742074081957
 30
0.0
 11
10.06045560048027
 21
7.159090162831124
 31
0.0
  0
LINE
  5
11A19
330
11A08
100
AcDbEntity
  8
0
  6
CONTINUOUS
100
AcDbLine
 10
6.534850833385518
 20
2.959966186656187
 30
0.0
 11
10.26862298384867
 21
6.693738337119342
 31
0.0
  0
LINE
  5
11A1A
330
11A08
100
AcDbEntity
  8
0
  6
CONTINUOUS
100
AcDbLine
 10
4.469029308032756
 20
0.2206254522232385
 30
0.0
 11
5.492951005266582
 21
1.244547149457064
 31
0.0
  0
LINE
  5
11A1B
330
11A08
100
AcDbEntity
  8
0
  6
CONTINUOUS
100
AcDbLine
 10
5.989594155039935
 20
1.741190299230417
 30
0.0
 11
8.806950407233131
 21
4.558546551423613
 31
0.0
  0
LINE
  5
11A1C
330
11A08
100
AcDbEntity
  8
0
  6
CONTINUOUS
100
AcDbLine
 10
9.401251593263643
 20
5.152847737454126
 30
0.0
 11
10.47679036721708
 21
6.228386511407559
 31
0.0
  0
LINE
  5
11A1D
330
11A08
100
AcDbEntity
  8
0
  6
CONTINUOUS
100
AcDbLine
 10
4.921837203428691
 20
-0.0000858614610131
 30
0.0
 11
8.592923064886001
 21
3.670999999996297
 31
0.0
  0
LINE
  5
11A1E
330
11A08
100
AcDbEntity
  8
0
  6
CONTINUOUS
100
AcDbLine
 10
9.609390446785305
 20
4.6874673818956
 30
0.0
 11
10.68495775058548
 21
5.763034685695775
 31
0.0
  0
LINE
  5
11A1F
330
11A08
100
AcDbEntity
  8
0
  6
CONTINUOUS
100
AcDbLine
 10
5.595387755019432
 20
-0.0000545189504582
 30
0.0
 11
7.716137258923768
 21
2.120694984953879
 31
0.0
  0
LINE
  5
11A20
330
11A08
100
AcDbEntity
  8
0
  6
CONTINUOUS
100
AcDbLine
 10
6.268938306610172
 20
-0.000023176439905
 30
0.0
 11
7.170485805526503
 21
0.9015243224764267
 31
0.0
  0
LINE
  5
11A21
330
11A08
100
AcDbEntity
  8
0
  6
CONTINUOUS
100
AcDbLine
 10
7.963842273967511
 20
2.368399999997621
 30
0.0
 11
9.266442273966188
 21
3.670999999996297
 31
0.0
  0
LINE
  5
11A22
330
11A08
100
AcDbEntity
  8
0
  6
CONTINUOUS
100
AcDbLine
 10
8.637361483047696
 20
2.368399999997621
 30
0.0
 11
9.939961483046375
 21
3.670999999996297
 31
0.0
  0
LINE
  5
11A23
330
11A08
100
AcDbEntity
  8
0
  6
CONTINUOUS
100
AcDbLine
 10
9.817529300306965
 20
4.222087026337075
 30
0.0
 11
10.89312513395388
 21
5.297682859983993
 31
0.0
  0
LINE
  5
11A24
330
11A08
100
AcDbEntity
  8
0
  6
CONTINUOUS
100
AcDbLine
 10
10.02566815382863
 20
3.756706670778549
 30
0.0
 11
11.10129251732229
 21
4.832331034272211
 31
0.0
  0
LINE
  5
11A25
330
11A08
100
AcDbEntity
  8
0
  6
CONTINUOUS
100
AcDbLine
 10
9.310880692127883
 20
2.368399999997621
 30
0.0
 11
11.30945990069069
 21
4.366979208560428
 31
0.0
  0
LINE
  5
11A26
330
11A08
100
AcDbEntity
  8
0
  6
CONTINUOUS
100
AcDbLine
 10
9.98439990120807
 20
2.36839999999762
 30
0.0
 11
11.5176272840591
 21
3.901627382848645
 31
0.0
  0
LINE
  5
11A27
330
11A08
100
AcDbEntity
  8
0
  6
CONTINUOUS
100
AcDbLine
 10
10.65037369446246
 20
2.36085458417182
 30
0.0
 11
11.7257946674275
 21
3.436275557136862
 31
0.0
  0
LINE
  5
11A28
330
11A08
100
AcDbEntity
  8
0
  6
CONTINUOUS
100
AcDbLine
 10
10.85847197087848
 20
1.895433651507656
 30
0.0
 11
11.9339620507959
 21
2.97092373142508
 31
0.0
  0
LINE
  5
11A29
330
11A08
100
AcDbEntity
  8
0
  6
CONTINUOUS
100
AcDbLine
 10
11.0665702472945
 20
1.430012718843491
 30
0.0
 11
12.14212943416431
 21
2.505571905713296
 31
0.0
  0
LINE
  5
11A2A
330
11A08
100
AcDbEntity
  8
0
  6
CONTINUOUS
100
AcDbLine
 10
11.27466852371052
 20
0.9645917861793256
 30
0.0
 11
12.35029681753271
 21
2.040220080001513
 31
0.0
  0
LINE
  5
11A2B
330
11A08
100
AcDbEntity
  8
0
  6
CONTINUOUS
100
AcDbLine
 10
11.48276680012654
 20
0.4991708535151611
 30
0.0
 11
12.55846420090111
 21
1.57486825428973
 31
0.0
  0
LINE
  5
11A2C
330
11A08
100
AcDbEntity
  8
0
  6
CONTINUOUS
100
AcDbLine
 10
11.69086507654257
 20
0.0337499208509957
 30
0.0
 11
12.76663158426952
 21
1.109516428577947
 31
0.0
  0
LINE
  5
11A2D
330
11A08
100
AcDbEntity
  8
0
  6
CONTINUOUS
100
AcDbLine
 10
12.33057447873954
 20
-0.0000598860322123
 30
0.0
 11
12.97479896763792
 21
0.6441646028661663
 31
0.0
  0
LINE
  5
11A2E
330
11A08
100
AcDbEntity
  8
0
  6
CONTINUOUS
100
AcDbLine
 10
13.00413694809395
 20
-0.0000166257579952
 30
0.0
 11
13.18296635100632
 21
0.1788127771543824
 31
0.0
  0
LINE
  5
11A2F
330
11A08
100
AcDbEntity
  8
0
  6
CONTINUOUS
100
AcDbLine
 10
4.772852165289667
 20
-0.000092794222212
 30
0.0
 11
4.296495091028902
 21
0.4762642800385528
 31
0.0
  0
LINE
  5
11A30
330
11A08
100
AcDbEntity
  8
0
  6
CONTINUOUS
100
AcDbLine
 10
5.446340034776103
 20
-0.0000614546284616
 30
0.0
 11
2.898195908335625
 21
2.548082671812017
 31
0.0
  0
LINE
  5
11A31
330
11A08
100
AcDbEntity
  8
0
  6
CONTINUOUS
100
AcDbLine
 10
6.119827904262539
 20
-0.0000301150347113
 30
0.0
 11
1.499896725642348
 21
4.61990106358548
 31
0.0
  0
LINE
  5
11A32
330
11A08
100
AcDbEntity
  8
0
  6
CONTINUOUS
100
AcDbLine
 10
6.775136745476159
 20
0.0181802528318542
 30
0.0
 11
5.699826040202669
 21
1.093490958105344
 31
0.0
  0
LINE
  5
11A33
330
11A08
100
AcDbEntity
  8
0
  6
CONTINUOUS
100
AcDbLine
 10
6.983376846288489
 20
0.4834593610997118
 30
0.0
 11
5.908008617934405
 21
1.558827589453796
 31
0.0
  0
LINE
  5
11A34
330
11A08
100
AcDbEntity
  8
0
  6
CONTINUOUS
100
AcDbLine
 10
5.377063484962296
 20
1.416253513345719
 30
0.0
 11
1.702276957014131
 21
5.091040041293883
 31
0.0
  0
LINE
  5
11A35
330
11A08
100
AcDbEntity
  8
0
  6
CONTINUOUS
100
AcDbLine
 10
3.978745891735324
 20
3.488090315652877
 30
0.0
 11
2.000373521109399
 21
5.466462686278803
 31
0.0
  0
LINE
  5
11A36
330
11A08
100
AcDbEntity
  8
0
  6
CONTINUOUS
100
AcDbLine
 10
7.191616947100819
 20
0.948738469367568
 30
0.0
 11
6.11619119566614
 21
2.024164220802247
 31
0.0
  0
LINE
  5
11A37
330
11A08
100
AcDbEntity
  8
0
  6
CONTINUOUS
100
AcDbLine
 10
7.399857047913149
 20
1.414017577635424
 30
0.0
 11
6.324373773397875
 21
2.489500852150698
 31
0.0
  0
LINE
  5
11A38
330
11A08
100
AcDbEntity
  8
0
  6
CONTINUOUS
100
AcDbLine
 10
7.608097148725479
 20
1.879296685903281
 30
0.0
 11
6.53255635112961
 21
2.95483748349915
 31
0.0
  0
LINE
  5
11A39
330
11A08
100
AcDbEntity
  8
0
  6
CONTINUOUS
100
AcDbLine
 10
7.816337249537808
 20
2.344575794171138
 30
0.0
 11
6.740738928861345
 21
3.420174114847601
 31
0.0
  0
LINE
  5
11A3A
330
11A08
100
AcDbEntity
  8
0
  6
CONTINUOUS
100
AcDbLine
 10
3.310241080789734
 20
4.830114335678653
 30
0.0
 11
2.298470085204666
 21
5.84188533126372
 31
0.0
  0
LINE
  5
11A3B
330
11A08
100
AcDbEntity
  8
0
  6
CONTINUOUS
100
AcDbLine
 10
3.60832983563551
 20
5.205544789913063
 30
0.0
 11
2.596566649299935
 21
6.217307976248638
 31
0.0
  0
LINE
  5
11A3C
330
11A08
100
AcDbEntity
  8
0
  6
CONTINUOUS
100
AcDbLine
 10
3.906418590481286
 20
5.580975244147473
 30
0.0
 11
2.894663213395203
 21
6.592730621233557
 31
0.0
  0
LINE
  5
11A3D
330
11A08
100
AcDbEntity
  8
0
  6
CONTINUOUS
100
AcDbLine
 10
4.204507345327062
 20
5.956405698381884
 30
0.0
 11
3.192759777490472
 21
6.968153266218474
 31
0.0
  0
LINE
  5
11A3E
330
11A08
100
AcDbEntity
  8
0
  6
CONTINUOUS
100
AcDbLine
 10
8.466032252791512
 20
2.368399999997621
 30
0.0
 11
6.948921506593081
 21
3.885510746196053
 31
0.0
  0
LINE
  5
11A3F
330
11A08
100
AcDbEntity
  8
0
  6
CONTINUOUS
100
AcDbLine
 10
9.139551461871699
 20
2.36839999999762
 30
0.0
 11
7.157104084324816
 21
4.350847377544504
 31
0.0
  0
LINE
  5
11A40
330
11A08
100
AcDbEntity
  8
0
  6
CONTINUOUS
100
AcDbLine
 10
4.502596100172839
 20
6.331836152616295
 30
0.0
 11
3.49085634158574
 21
7.343575911203393
 31
0.0
  0
LINE
  5
11A41
330
11A08
100
AcDbEntity
  8
0
  6
CONTINUOUS
100
AcDbLine
 10
4.800684855018615
 20
6.707266606850705
 30
0.0
 11
3.788952905681008
 21
7.718998556188312
 31
0.0
  0
LINE
  5
11A42
330
11A08
100
AcDbEntity
  8
0
  6
CONTINUOUS
100
AcDbLine
 10
12.18154012887317
 20
-0.0000694579236642
 30
0.0
 11
11.32140332908496
 21
0.8600673418645499
 31
0.0
  0
LINE
  5
11A43
330
11A08
100
AcDbEntity
  8
0
  6
CONTINUOUS
100
AcDbLine
 10
12.85501608323566
 20
-0.0000262032059659
 30
0.0
 11
10.77672456435345
 21
2.078265315676246
 31
0.0
  0
LINE
  5
11A44
330
11A08
100
AcDbEntity
  8
0
  6
CONTINUOUS
100
AcDbLine
 10
9.813070670951886
 20
2.36839999999762
 30
0.0
 11
8.51047067095321
 21
3.670999999996297
 31
0.0
  0
LINE
  5
11A45
330
11A08
100
AcDbEntity
  8
0
  6
CONTINUOUS
100
AcDbLine
 10
10.48658988003207
 20
2.36839999999762
 30
0.0
 11
9.183989880033396
 21
3.670999999996297
 31
0.0
  0
LINE
  5
11A46
330
11A08
100
AcDbEntity
  8
0
  6
CONTINUOUS
100
AcDbLine
 10
8.441048632286794
 20
3.740422038662712
 30
0.0
 11
7.365286662056551
 21
4.816184008892956
 31
0.0
  0
LINE
  5
11A47
330
11A08
100
AcDbEntity
  8
0
  6
CONTINUOUS
100
AcDbLine
 10
8.649187485808454
 20
4.205802394221237
 30
0.0
 11
7.573469239788285
 21
5.281520640241407
 31
0.0
  0
LINE
  5
11A48
330
11A08
100
AcDbEntity
  8
0
  6
CONTINUOUS
100
AcDbLine
 10
5.098773609864391
 20
7.082697061085115
 30
0.0
 11
4.087049469776277
 21
8.09442120117323
 31
0.0
  0
LINE
  5
11A49
330
11A08
100
AcDbEntity
  8
0
  6
CONTINUOUS
100
AcDbLine
 10
5.396862364710167
 20
7.458127515319526
 30
0.0
 11
4.385146033871544
 21
8.469843846158149
 31
0.0
  0
LINE
  5
11A4A
330
11A08
100
AcDbEntity
  8
0
  6
CONTINUOUS
100
AcDbLine
 10
13.04801363231285
 20
0.4804954567970334
 30
0.0
 11
9.85750908911358
 21
3.670999999996297
 31
0.0
  0
LINE
  5
11A4B
330
11A08
100
AcDbEntity
  8
0
  6
CONTINUOUS
100
AcDbLine
 10
8.857326339330116
 20
4.671182749779763
 30
0.0
 11
7.781651817520021
 21
5.746857271589858
 31
0.0
  0
LINE
  5
11A4C
330
11A08
100
AcDbEntity
  8
0
  6
CONTINUOUS
100
AcDbLine
 10
5.694951119555943
 20
7.833557969553937
 30
0.0
 11
4.765409089118624
 21
8.763099999991255
 31
0.0
  0
LINE
  5
11A4D
330
11A08
100
AcDbEntity
  8
0
  6
CONTINUOUS
100
AcDbLine
 10
12.50286117236978
 20
1.699167125820288
 30
0.0
 11
9.68611877250287
 21
4.515909525687196
 31
0.0
  0
LINE
  5
11A4E
330
11A08
100
AcDbEntity
  8
0
  6
CONTINUOUS
100
AcDbLine
 10
9.065465192851777
 20
5.136563105338288
 30
0.0
 11
7.989834395251757
 21
6.21219390293831
 31
0.0
  0
LINE
  5
11A4F
330
11A08
100
AcDbEntity
  8
0
  6
CONTINUOUS
100
AcDbLine
 10
5.993039874401719
 20
8.208988423788346
 30
0.0
 11
5.43892829819881
 21
8.763099999991255
 31
0.0
  0
LINE
  5
11A50
330
11A08
100
AcDbEntity
  8
0
  6
CONTINUOUS
100
AcDbLine
 10
11.95770871242671
 20
2.917838794843543
 30
0.0
 11
8.19801697298349
 21
6.677530534286761
 31
0.0
  0
LINE
  5
11A51
330
11A08
100
AcDbEntity
  8
0
  6
CONTINUOUS
100
AcDbLine
 10
6.291128629247495
 20
8.584418878022756
 30
0.0
 11
6.112447507278997
 21
8.763099999991255
 31
0.0
  0
LINE
  5
11A52
330
11A08
100
AcDbEntity
  8
0
  6
CONTINUOUS
100
AcDbLine
 10
11.41255625248364
 20
4.136510463866797
 30
0.0
 11
8.406199550715227
 21
7.142867165635211
 31
0.0
  0
LINE
  5
11A53
330
11A08
100
AcDbEntity
  8
0
  6
CONTINUOUS
100
AcDbLine
 10
10.86740379254057
 20
5.355182132890051
 30
0.0
 11
8.614382128446962
 21
7.608203796983664
 31
0.0
  0
LINE
  5
11A54
330
11A08
100
AcDbEntity
  8
0
  6
CONTINUOUS
100
AcDbLine
 10
10.3222513325975
 20
6.573853801913305
 30
0.0
 11
8.822564706178696
 21
8.073540428332114
 31
0.0
  0
LINE
  5
11A55
330
11A08
100
AcDbEntity
  8
0
  6
CONTINUOUS
100
AcDbLine
 10
9.777098872654436
 20
7.792525470936562
 30
0.0
 11
9.030747283910433
 21
8.538877059680566
 31
0.0
  0
ENDBLK
  5
11B97
330
11A08
100
AcDbEntity
  8
0
100
AcDbBlockEnd
  0
BLOCK
  5
11B98
330
11A56
100
AcDbEntity
  8
0
100
AcDbBlockBegin
  2
*X260
 70
     1
 10
0.0
 20
0.0
 30
0.0
  3
*X260
  1

  0
LINE
  5
11A57
330
11A56
100
AcDbEntity
  8
0
  6
CONTINUOUS
100
AcDbLine
 10
10.67292308101235
 20
8.445076852443387
 30
0.0
 11
10.99094622856022
 21
8.763099999991255
 31
0.0
  0
LINE
  5
11A58
330
11A56
100
AcDbEntity
  8
0
  6
CONTINUOUS
100
AcDbLine
 10
10.87250383178748
 20
7.971138394138331
 30
0.0
 11
11.6644654376404
 21
8.763099999991255
 31
0.0
  0
LINE
  5
11A59
330
11A56
100
AcDbEntity
  8
0
  6
CONTINUOUS
100
AcDbLine
 10
11.07208458256261
 20
7.497199935833273
 30
0.0
 11
12.12126590876355
 21
8.546381262034211
 31
0.0
  0
LINE
  5
11A5A
330
11A56
100
AcDbEntity
  8
0
  6
CONTINUOUS
100
AcDbLine
 10
11.27166533333774
 20
7.023261477528216
 30
0.0
 11
12.32085164573666
 21
8.072447789927136
 31
0.0
  0
LINE
  5
11A5B
330
11A56
100
AcDbEntity
  8
0
  6
CONTINUOUS
100
AcDbLine
 10
11.47124608411287
 20
6.549323019223158
 30
0.0
 11
12.52043738270977
 21
7.59851431782006
 31
0.0
  0
LINE
  5
11A5C
330
11A56
100
AcDbEntity
  8
0
  6
CONTINUOUS
100
AcDbLine
 10
11.670826834888
 20
6.075384560918101
 30
0.0
 11
12.72002311968288
 21
7.124580845712984
 31
0.0
  0
LINE
  5
11A5D
330
11A56
100
AcDbEntity
  8
0
  6
CONTINUOUS
100
AcDbLine
 10
11.87040758566313
 20
5.601446102613043
 30
0.0
 11
12.91960885665599
 21
6.650647373605907
 31
0.0
  0
LINE
  5
11A5E
330
11A56
100
AcDbEntity
  8
0
  6
CONTINUOUS
100
AcDbLine
 10
12.06998833643825
 20
5.127507644307986
 30
0.0
 11
13.1191945936291
 21
6.176713901498832
 31
0.0
  0
LINE
  5
11A5F
330
11A56
100
AcDbEntity
  8
0
  6
CONTINUOUS
100
AcDbLine
 10
12.26956908721338
 20
4.65356918600293
 30
0.0
 11
13.31878033060221
 21
5.702780429391757
 31
0.0
  0
LINE
  5
11A60
330
11A56
100
AcDbEntity
  8
0
  6
CONTINUOUS
100
AcDbLine
 10
12.46914983798851
 20
4.179630727697873
 30
0.0
 11
13.51836606757532
 21
5.228846957284683
 31
0.0
  0
LINE
  5
11A61
330
11A56
100
AcDbEntity
  8
0
  6
CONTINUOUS
100
AcDbLine
 10
12.66873058876364
 20
3.705692269392816
 30
0.0
 11
13.71795180454843
 21
4.754913485177607
 31
0.0
  0
LINE
  5
11A62
330
11A56
100
AcDbEntity
  8
0
  6
CONTINUOUS
100
AcDbLine
 10
12.86831133953877
 20
3.231753811087759
 30
0.0
 11
13.91753754152154
 21
4.280980013070531
 31
0.0
  0
LINE
  5
11A63
330
11A56
100
AcDbEntity
  8
0
  6
CONTINUOUS
100
AcDbLine
 10
13.0678920903139
 20
2.757815352782702
 30
0.0
 11
14.11712327849465
 21
3.807046540963456
 31
0.0
  0
LINE
  5
11A64
330
11A56
100
AcDbEntity
  8
0
  6
CONTINUOUS
100
AcDbLine
 10
13.26747284108903
 20
2.283876894477644
 30
0.0
 11
14.31670901546777
 21
3.333113068856379
 31
0.0
  0
LINE
  5
11A65
330
11A56
100
AcDbEntity
  8
0
  6
CONTINUOUS
100
AcDbLine
 10
16.36767838827179
 20
8.751678487061342
 30
0.0
 11
16.50332410898388
 21
8.887324207773432
 31
0.0
  0
LINE
  5
11A66
330
11A56
100
AcDbEntity
  8
0
  6
CONTINUOUS
100
AcDbLine
 10
15.96190732182191
 20
7.67238821153127
 30
0.0
 11
16.68735328004734
 21
8.397834169756699
 31
0.0
  0
LINE
  5
11A67
330
11A56
100
AcDbEntity
  8
0
  6
CONTINUOUS
100
AcDbLine
 10
15.55613625537202
 20
6.593097936001196
 30
0.0
 11
16.87138245111079
 21
7.908344131739965
 31
0.0
  0
LINE
  5
11A68
330
11A56
100
AcDbEntity
  8
0
  6
CONTINUOUS
100
AcDbLine
 10
15.15036518892213
 20
5.513807660471122
 30
0.0
 11
17.05541162217424
 21
7.418854093723231
 31
0.0
  0
LINE
  5
11A69
330
11A56
100
AcDbEntity
  8
0
  6
CONTINUOUS
100
AcDbLine
 10
14.74459412247225
 20
4.434517384941048
 30
0.0
 11
17.2394407932377
 21
6.929364055706499
 31
0.0
  0
LINE
  5
11A6A
330
11A56
100
AcDbEntity
  8
0
  6
CONTINUOUS
100
AcDbLine
 10
14.33882305602236
 20
3.355227109410975
 30
0.0
 11
17.42346996430115
 21
6.439874017689766
 31
0.0
  0
LINE
  5
11A6B
330
11A56
100
AcDbEntity
  8
0
  6
CONTINUOUS
100
AcDbLine
 10
13.46705359186416
 20
1.809938436172586
 30
0.0
 11
16.0819338255367
 21
4.424818669845129
 31
0.0
  0
LINE
  5
11A6C
330
11A56
100
AcDbEntity
  8
0
  6
CONTINUOUS
100
AcDbLine
 10
16.63283254238972
 20
4.975717386698149
 30
0.0
 11
17.60749913536461
 21
5.950383979673033
 31
0.0
  0
LINE
  5
11A6D
330
11A56
100
AcDbEntity
  8
0
  6
CONTINUOUS
100
AcDbLine
 10
13.66663434263929
 20
1.335999977867529
 30
0.0
 11
15.67604797733754
 21
3.345413612565779
 31
0.0
  0
LINE
  5
11A6E
330
11A56
100
AcDbEntity
  8
0
  6
CONTINUOUS
100
AcDbLine
 10
13.86621509341442
 20
0.8620615195624723
 30
0.0
 11
15.27016212913838
 21
2.26600855528643
 31
0.0
  0
LINE
  5
11A6F
330
11A56
100
AcDbEntity
  8
0
  6
CONTINUOUS
100
AcDbLine
 10
16.81682257348267
 20
4.486188208710908
 30
0.0
 11
17.79152830642806
 21
5.460893941656299
 31
0.0
  0
LINE
  5
11A70
330
11A56
100
AcDbEntity
  8
0
  6
CONTINUOUS
100
AcDbLine
 10
17.00081260457561
 20
3.996659030723667
 30
0.0
 11
17.97555747749151
 21
4.971403903639565
 31
0.0
  0
LINE
  5
11A71
330
11A56
100
AcDbEntity
  8
0
  6
CONTINUOUS
100
AcDbLine
 10
20.74362343514722
 20
8.412989070375462
 30
0.0
 11
21.09373436476302
 21
8.763099999991256
 31
0.0
  0
LINE
  5
11A72
330
11A56
100
AcDbEntity
  8
0
  6
CONTINUOUS
100
AcDbLine
 10
20.25401257174777
 20
7.249858997895826
 30
0.0
 11
21.7672535738432
 21
8.763099999991255
 31
0.0
  0
LINE
  5
11A73
330
11A56
100
AcDbEntity
  8
0
  6
CONTINUOUS
100
AcDbLine
 10
14.06579584418955
 20
0.3881230612574149
 30
0.0
 11
14.86427628093921
 21
1.186603498007082
 31
0.0
  0
LINE
  5
11A74
330
11A56
100
AcDbEntity
  8
0
  6
CONTINUOUS
100
AcDbLine
 10
14.26537659496467
 20
-0.0858153970476412
 30
0.0
 11
14.45839043274005
 21
0.1071984407277329
 31
0.0
  0
LINE
  5
11A75
330
11A56
100
AcDbEntity
  8
0
  6
CONTINUOUS
100
AcDbLine
 10
17.18480263566856
 20
3.507129852736426
 30
0.0
 11
18.15958664855496
 21
4.481913865622833
 31
0.0
  0
LINE
  5
11A76
330
11A56
100
AcDbEntity
  8
0
  6
CONTINUOUS
100
AcDbLine
 10
17.3687926667615
 20
3.017600674749186
 30
0.0
 11
18.34361581961842
 21
3.9924238276061
 31
0.0
  0
LINE
  5
11A77
330
11A56
100
AcDbEntity
  8
0
  6
CONTINUOUS
100
AcDbLine
 10
19.76440170834832
 20
6.086728925416191
 30
0.0
 11
22.33924590259489
 21
8.661573119662755
 31
0.0
  0
LINE
  5
11A78
330
11A56
100
AcDbEntity
  8
0
  6
CONTINUOUS
100
AcDbLine
 10
19.27479084494887
 20
4.923598852936555
 30
0.0
 11
21.84929622842713
 21
7.498104236414807
 31
0.0
  0
LINE
  5
11A79
330
11A56
100
AcDbEntity
  8
0
  6
CONTINUOUS
100
AcDbLine
 10
17.55278269785445
 20
2.528071496761945
 30
0.0
 11
18.52764499068187
 21
3.502933789589366
 31
0.0
  0
LINE
  5
11A7A
330
11A56
100
AcDbEntity
  8
0
  6
CONTINUOUS
100
AcDbLine
 10
18.78517998154942
 20
3.760468780456919
 30
0.0
 11
21.35934655425936
 21
6.33463535316686
 31
0.0
  0
LINE
  5
11A7B
330
11A56
100
AcDbEntity
  8
0
  6
CONTINUOUS
100
AcDbLine
 10
17.73677272894739
 20
2.038542318774704
 30
0.0
 11
20.8693968800916
 21
5.171166469918914
 31
0.0
  0
LINE
  5
11A7C
330
11A56
100
AcDbEntity
  8
0
  6
CONTINUOUS
100
AcDbLine
 10
17.92076276004034
 20
1.549013140787464
 30
0.0
 11
20.37944720592384
 21
4.007697586670968
 31
0.0
  0
LINE
  5
11A7D
330
11A56
100
AcDbEntity
  8
0
  6
CONTINUOUS
100
AcDbLine
 10
18.10475279113329
 20
1.059483962800223
 30
0.0
 11
19.88949753175608
 21
2.84422870342302
 31
0.0
  0
LINE
  5
11A7E
330
11A56
100
AcDbEntity
  8
0
  6
CONTINUOUS
100
AcDbLine
 10
18.28874282222623
 20
0.5699547848129822
 30
0.0
 11
19.39954785758832
 21
1.680759820175074
 31
0.0
  0
LINE
  5
11A7F
330
11A56
100
AcDbEntity
  8
0
  6
CONTINUOUS
100
AcDbLine
 10
18.47273285331918
 20
0.0804256068257416
 30
0.0
 11
18.90959818342056
 21
0.517290936927127
 31
0.0
  0
LINE
  5
11A80
330
11A56
100
AcDbEntity
  8
0
  6
CONTINUOUS
100
AcDbLine
 10
14.3590401358224
 20
-0.1570118376323384
 30
0.0
 11
14.24903296539946
 21
-0.0470046672093929
 31
0.0
  0
LINE
  5
11A81
330
11A56
100
AcDbEntity
  8
0
  6
CONTINUOUS
100
AcDbLine
 10
14.54309291258661
 20
0.332454594683643
 30
0.0
 11
13.75908329123172
 21
1.116464216038529
 31
0.0
  0
LINE
  5
11A82
330
11A56
100
AcDbEntity
  8
0
  6
CONTINUOUS
100
AcDbLine
 10
14.72714568935081
 20
0.8219210269996244
 30
0.0
 11
13.26913361706399
 21
2.27993309928645
 31
0.0
  0
LINE
  5
11A83
330
11A56
100
AcDbEntity
  8
0
  6
CONTINUOUS
100
AcDbLine
 10
14.91119846611502
 20
1.311387459315606
 30
0.0
 11
12.77918394289625
 21
3.443401982534371
 31
0.0
  0
LINE
  5
11A84
330
11A56
100
AcDbEntity
  8
0
  6
CONTINUOUS
100
AcDbLine
 10
15.09525124287922
 20
1.800853891631587
 30
0.0
 11
12.28923426872852
 21
4.606870865782293
 31
0.0
  0
LINE
  5
11A85
330
11A56
100
AcDbEntity
  8
0
  6
CONTINUOUS
100
AcDbLine
 10
15.27930401964343
 20
2.290320323947569
 30
0.0
 11
11.79928459456078
 21
5.770339749030213
 31
0.0
  0
LINE
  5
11A86
330
11A56
100
AcDbEntity
  8
0
  6
CONTINUOUS
100
AcDbLine
 10
15.46335679640763
 20
2.77978675626355
 30
0.0
 11
14.48885470994921
 21
3.754288842721972
 31
0.0
  0
LINE
  5
11A87
330
11A56
100
AcDbEntity
  8
0
  6
CONTINUOUS
100
AcDbLine
 10
13.88507249233704
 20
4.358071060334137
 30
0.0
 11
11.30933492039305
 21
6.933808632278135
 31
0.0
  0
LINE
  5
11A88
330
11A56
100
AcDbEntity
  8
0
  6
CONTINUOUS
100
AcDbLine
 10
18.75840522805855
 20
0.1582575336928151
 30
0.0
 11
18.25383727664818
 21
0.6628254851031863
 31
0.0
  0
LINE
  5
11A89
330
11A56
100
AcDbEntity
  8
0
  6
CONTINUOUS
100
AcDbLine
 10
15.64740957317184
 20
3.269253188579531
 30
0.0
 11
14.67288388101266
 21
4.243778880738705
 31
0.0
  0
LINE
  5
11A8A
330
11A56
100
AcDbEntity
  8
0
  6
CONTINUOUS
100
AcDbLine
 10
13.39509276772158
 20
5.521569994029786
 30
0.0
 11
10.81938524622531
 21
8.097277515526056
 31
0.0
  0
LINE
  5
11A8B
330
11A56
100
AcDbEntity
  8
0
  6
CONTINUOUS
100
AcDbLine
 10
18.95798597883369
 20
0.6321959919978686
 30
0.0
 11
17.84825644852853
 21
1.741925522303024
 31
0.0
  0
LINE
  5
11A8C
330
11A56
100
AcDbEntity
  8
0
  6
CONTINUOUS
100
AcDbLine
 10
19.15756672960882
 20
1.106134450302922
 30
0.0
 11
17.44267562040888
 21
2.821025559502861
 31
0.0
  0
LINE
  5
11A8D
330
11A56
100
AcDbEntity
  8
0
  6
CONTINUOUS
100
AcDbLine
 10
15.83146234993604
 20
3.758719620895513
 30
0.0
 11
14.85691305207612
 21
4.733268918755439
 31
0.0
  0
LINE
  5
11A8E
330
11A56
100
AcDbEntity
  8
0
  6
CONTINUOUS
100
AcDbLine
 10
16.01551512670025
 20
4.248186053211494
 30
0.0
 11
15.04094222313957
 21
5.222758956772172
 31
0.0
  0
LINE
  5
11A8F
330
11A56
100
AcDbEntity
  8
0
  6
CONTINUOUS
100
AcDbLine
 10
12.90511304310612
 20
6.685068927725435
 30
0.0
 11
10.8270819708403
 21
8.763099999991255
 31
0.0
  0
LINE
  5
11A90
330
11A56
100
AcDbEntity
  8
0
  6
CONTINUOUS
100
AcDbLine
 10
12.41513331849066
 20
7.848567861421083
 30
0.0
 11
11.50060117992049
 21
8.763099999991255
 31
0.0
  0
LINE
  5
11A91
330
11A56
100
AcDbEntity
  8
0
  6
CONTINUOUS
100
AcDbLine
 10
19.35714748038395
 20
1.580072908607975
 30
0.0
 11
17.03709479228923
 21
3.900125596702697
 31
0.0
  0
LINE
  5
11A92
330
11A56
100
AcDbEntity
  8
0
  6
CONTINUOUS
100
AcDbLine
 10
19.55672823115909
 20
2.054011366913028
 30
0.0
 11
16.63151396416958
 21
4.979225633902534
 31
0.0
  0
LINE
  5
11A93
330
11A56
100
AcDbEntity
  8
0
  6
CONTINUOUS
100
AcDbLine
 10
16.19956790346445
 20
4.737652485527476
 30
0.0
 11
15.22497139420302
 21
5.712248994788904
 31
0.0
  0
LINE
  5
11A94
330
11A56
100
AcDbEntity
  8
0
  6
CONTINUOUS
100
AcDbLine
 10
16.38362068022866
 20
5.227118917843457
 30
0.0
 11
15.40900056526648
 21
6.201739032805637
 31
0.0
  0
LINE
  5
11A95
330
11A56
100
AcDbEntity
  8
0
  6
CONTINUOUS
100
AcDbLine
 10
19.75630898193422
 20
2.527949825218081
 30
0.0
 11
18.70774536448286
 21
3.576513442669441
 31
0.0
  0
LINE
  5
11A96
330
11A56
100
AcDbEntity
  8
0
  6
CONTINUOUS
100
AcDbLine
 10
19.95588973270936
 20
3.001888283523134
 30
0.0
 11
18.90726987211446
 21
4.050508144118028
 31
0.0
  0
LINE
  5
11A97
330
11A56
100
AcDbEntity
  8
0
  6
CONTINUOUS
100
AcDbLine
 10
20.15547048348449
 20
3.475826741828186
 30
0.0
 11
19.10679437974606
 21
4.524502845566614
 31
0.0
  0
LINE
  5
11A98
330
11A56
100
AcDbEntity
  8
0
  6
CONTINUOUS
100
AcDbLine
 10
20.35505123425962
 20
3.94976520013324
 30
0.0
 11
19.30631888737766
 21
4.998497547015201
 31
0.0
  0
LINE
  5
11A99
330
11A56
100
AcDbEntity
  8
0
  6
CONTINUOUS
100
AcDbLine
 10
20.55463198503475
 20
4.423703658438292
 30
0.0
 11
19.50584339500926
 21
5.472492248463787
 31
0.0
  0
LINE
  5
11A9A
330
11A56
100
AcDbEntity
  8
0
  6
CONTINUOUS
100
AcDbLine
 10
18.37481191085755
 20
3.909446896294752
 30
0.0
 11
15.59302973632993
 21
6.691229070822371
 31
0.0
  0
LINE
  5
11A9B
330
11A56
100
AcDbEntity
  8
0
  6
CONTINUOUS
100
AcDbLine
 10
17.96904084440766
 20
4.988737171824825
 30
0.0
 11
15.77705890739338
 21
7.180719108839104
 31
0.0
  0
LINE
  5
11A9C
330
11A56
100
AcDbEntity
  8
0
  6
CONTINUOUS
100
AcDbLine
 10
17.56326977795777
 20
6.068027447354899
 30
0.0
 11
15.96108807845684
 21
7.670209146855838
 31
0.0
  0
LINE
  5
11A9D
330
11A56
100
AcDbEntity
  8
0
  6
CONTINUOUS
100
AcDbLine
 10
17.15749871150789
 20
7.147317722884972
 30
0.0
 11
16.14511724952029
 21
8.15969918487257
 31
0.0
  0
LINE
  5
11A9E
330
11A56
100
AcDbEntity
  8
0
  6
CONTINUOUS
100
AcDbLine
 10
16.751727645058
 20
8.226607998415046
 30
0.0
 11
16.32914642058374
 21
8.649189222889303
 31
0.0
  0
LINE
  5
11A9F
330
11A56
100
AcDbEntity
  8
0
  6
CONTINUOUS
100
AcDbLine
 10
20.75421273580989
 20
4.897642116743345
 30
0.0
 11
19.70536790264086
 21
5.946486949912374
 31
0.0
  0
LINE
  5
11AA0
330
11A56
100
AcDbEntity
  8
0
  6
CONTINUOUS
100
AcDbLine
 10
20.95379348658502
 20
5.371580575048398
 30
0.0
 11
19.90489241027246
 21
6.42048165136096
 31
0.0
  0
LINE
  5
11AA1
330
11A56
100
AcDbEntity
  8
0
  6
CONTINUOUS
100
AcDbLine
 10
21.15337423736015
 20
5.845519033353452
 30
0.0
 11
20.10441691790406
 21
6.894476352809547
 31
0.0
  0
LINE
  5
11AA2
330
11A56
100
AcDbEntity
  8
0
  6
CONTINUOUS
100
AcDbLine
 10
21.35295498813529
 20
6.319457491658505
 30
0.0
 11
20.30394142553566
 21
7.368471054258134
 31
0.0
  0
LINE
  5
11AA3
330
11A56
100
AcDbEntity
  8
0
  6
CONTINUOUS
100
AcDbLine
 10
21.55253573891042
 20
6.793395949963558
 30
0.0
 11
20.50346593316726
 21
7.842465755706721
 31
0.0
  0
LINE
  5
11AA4
330
11A56
100
AcDbEntity
  8
0
  6
CONTINUOUS
100
AcDbLine
 10
21.75211648968556
 20
7.267334408268612
 30
0.0
 11
20.70299044079886
 21
8.316460457155308
 31
0.0
  0
LINE
  5
11AA5
330
11A56
100
AcDbEntity
  8
0
  6
CONTINUOUS
100
AcDbLine
 10
21.95169724046069
 20
7.741272866573663
 30
0.0
 11
20.9298701070431
 21
8.763099999991256
 31
0.0
  0
LINE
  5
11AA6
330
11A56
100
AcDbEntity
  8
0
  6
CONTINUOUS
100
AcDbLine
 10
22.15127799123582
 20
8.215211324878716
 30
0.0
 11
21.60338931612328
 21
8.763099999991256
 31
0.0
  0
LINE
  5
11AA7
330
11A56
100
AcDbEntity
  8
0
  6
CONTINUOUS
100
AcDbLine
 10
22.35085874201096
 20
8.689149783183769
 30
0.0
 11
22.27690852520347
 21
8.763099999991255
 31
0.0
  0
ENDBLK
  5
11B99
330
11A56
100
AcDbEntity
  8
0
100
AcDbBlockEnd
  0
BLOCK
  5
11B9A
330
11AA8
100
AcDbEntity
  8
0
100
AcDbBlockBegin
  2
*X261
 70
     1
 10
0.0
 20
0.0
 30
0.0
  3
*X261
  1

  0
LINE
  5
11AA9
330
11AA8
100
AcDbEntity
  8
0
  6
CONTINUOUS
100
AcDbLine
 10
23.19462913593892
 20
8.169917934846424
 30
0.0
 11
23.70775465517246
 21
8.683043454079957
 31
0.0
  0
LINE
  5
11AAA
330
11AA8
100
AcDbEntity
  8
0
  6
CONTINUOUS
100
AcDbLine
 10
22.64923161835078
 20
6.951001208178088
 30
0.0
 11
23.9159364069932
 21
8.217705996820516
 31
0.0
  0
LINE
  5
11AAB
330
11AA8
100
AcDbEntity
  8
0
  6
CONTINUOUS
100
AcDbLine
 10
22.10383410076263
 20
5.732084481509751
 30
0.0
 11
24.12411815881395
 21
7.752368539561078
 31
0.0
  0
LINE
  5
11AAC
330
11AA8
100
AcDbEntity
  8
0
  6
CONTINUOUS
100
AcDbLine
 10
21.55843658317447
 20
4.513167754841414
 30
0.0
 11
24.3322999106347
 21
7.287031082301639
 31
0.0
  0
LINE
  5
11AAD
330
11AA8
100
AcDbEntity
  8
0
  6
CONTINUOUS
100
AcDbLine
 10
21.01303906558632
 20
3.294251028173077
 30
0.0
 11
24.54048166245544
 21
6.821693625042199
 31
0.0
  0
LINE
  5
11AAE
330
11AA8
100
AcDbEntity
  8
0
  6
CONTINUOUS
100
AcDbLine
 10
20.46764154799817
 20
2.075334301504738
 30
0.0
 11
23.28571549467848
 21
4.89340824818505
 31
0.0
  0
LINE
  5
11AAF
330
11AA8
100
AcDbEntity
  8
0
  6
CONTINUOUS
100
AcDbLine
 10
19.92224403041002
 20
0.8564175748364002
 30
0.0
 11
22.74075865492779
 21
3.674932199354171
 31
0.0
  0
LINE
  5
11AB0
330
11AA8
100
AcDbEntity
  8
0
  6
CONTINUOUS
100
AcDbLine
 10
23.67305085490148
 20
5.280743608408048
 30
0.0
 11
24.74866341427619
 21
6.356356167782759
 31
0.0
  0
LINE
  5
11AB1
330
11AA8
100
AcDbEntity
  8
0
  6
CONTINUOUS
100
AcDbLine
 10
23.88118970842314
 20
4.815363252849522
 30
0.0
 11
24.95684516609694
 21
5.89101871052332
 31
0.0
  0
LINE
  5
11AB2
330
11AA8
100
AcDbEntity
  8
0
  6
CONTINUOUS
100
AcDbLine
 10
19.73925852647308
 20
-0.0000871381807288
 30
0.0
 11
23.4103456646501
 21
3.670999999996297
 31
0.0
  0
LINE
  5
11AB3
330
11AA8
100
AcDbEntity
  8
0
  6
CONTINUOUS
100
AcDbLine
 10
24.0893285619448
 20
4.349982897290997
 30
0.0
 11
25.16502691791769
 21
5.42568125326388
 31
0.0
  0
LINE
  5
11AB4
330
11AA8
100
AcDbEntity
  8
0
  6
CONTINUOUS
100
AcDbLine
 10
20.41282099582748
 20
-0.0000438779065108
 30
0.0
 11
21.64944178675636
 21
1.236576913022366
 31
0.0
  0
LINE
  5
11AB5
330
11AA8
100
AcDbEntity
  8
0
  6
CONTINUOUS
100
AcDbLine
 10
22.78126487373161
 20
2.36839999999762
 30
0.0
 11
24.08386487373029
 21
3.670999999996297
 31
0.0
  0
LINE
  5
11AB6
330
11AA8
100
AcDbEntity
  8
0
  6
CONTINUOUS
100
AcDbLine
 10
24.29746741546646
 20
3.884602541732471
 30
0.0
 11
25.37320866973843
 21
4.960343796004441
 31
0.0
  0
LINE
  5
11AB7
330
11AA8
100
AcDbEntity
  8
0
  6
CONTINUOUS
100
AcDbLine
 10
21.08638346518189
 20
-0.0000006176322938
 30
0.0
 11
21.10379033335899
 21
0.0174062505448083
 31
0.0
  0
LINE
  5
11AB8
330
11AA8
100
AcDbEntity
  8
0
  6
CONTINUOUS
100
AcDbLine
 10
23.4547840828118
 20
2.36839999999762
 30
0.0
 11
25.58139042155918
 21
4.495006338745002
 31
0.0
  0
LINE
  5
11AB9
330
11AA8
100
AcDbEntity
  8
0
  6
CONTINUOUS
100
AcDbLine
 10
29.30199999996933
 20
8.215615917155148
 30
0.0
 11
29.84948408280543
 21
8.763099999991255
 31
0.0
  0
LINE
  5
11ABA
330
11AA8
100
AcDbEntity
  8
0
  6
CONTINUOUS
100
AcDbLine
 10
24.12830329189199
 20
2.36839999999762
 30
0.0
 11
25.78957217337993
 21
4.029668881485562
 31
0.0
  0
LINE
  5
11ABB
330
11AA8
100
AcDbEntity
  8
0
  6
CONTINUOUS
100
AcDbLine
 10
29.30199999996933
 20
7.54209670807496
 30
0.0
 11
30.52300329188562
 21
8.763099999991255
 31
0.0
  0
LINE
  5
11ABC
330
11AA8
100
AcDbEntity
  8
0
  6
CONTINUOUS
100
AcDbLine
 10
24.80182250097217
 20
2.36839999999762
 30
0.0
 11
25.99775392520067
 21
3.564331424226122
 31
0.0
  0
LINE
  5
11ABD
330
11AA8
100
AcDbEntity
  8
0
  6
CONTINUOUS
100
AcDbLine
 10
29.30199999996933
 20
6.868577498994774
 30
0.0
 11
30.74199999996926
 21
8.308577498994712
 31
0.0
  0
LINE
  5
11ABE
330
11AA8
100
AcDbEntity
  8
0
  6
CONTINUOUS
100
AcDbLine
 10
25.13028238392013
 20
2.023340673865392
 30
0.0
 11
26.20593567702142
 21
3.098993966966683
 31
0.0
  0
LINE
  5
11ABF
330
11AA8
100
AcDbEntity
  8
0
  6
CONTINUOUS
100
AcDbLine
 10
25.33838066033617
 20
1.557919741201244
 30
0.0
 11
26.41411742884217
 21
2.633656509707244
 31
0.0
  0
LINE
  5
11AC0
330
11AA8
100
AcDbEntity
  8
0
  6
CONTINUOUS
100
AcDbLine
 10
25.54647893675221
 20
1.092498808537098
 30
0.0
 11
26.62229918066291
 21
2.168319052447804
 31
0.0
  0
LINE
  5
11AC1
330
11AA8
100
AcDbEntity
  8
0
  6
CONTINUOUS
100
AcDbLine
 10
25.75457721316825
 20
0.62707787587295
 30
0.0
 11
26.83048093248366
 21
1.702981595188365
 31
0.0
  0
LINE
  5
11AC2
330
11AA8
100
AcDbEntity
  8
0
  6
CONTINUOUS
100
AcDbLine
 10
29.30199999996933
 20
6.195058289914587
 30
0.0
 11
30.74199999996926
 21
7.635058289914522
 31
0.0
  0
LINE
  5
11AC3
330
11AA8
100
AcDbEntity
  8
0
  6
CONTINUOUS
100
AcDbLine
 10
29.30199999996933
 20
5.521539080834401
 30
0.0
 11
30.74199999996926
 21
6.961539080834331
 31
0.0
  0
LINE
  5
11AC4
330
11AA8
100
AcDbEntity
  8
0
  6
CONTINUOUS
100
AcDbLine
 10
29.30199999996933
 20
4.848019871754214
 30
0.0
 11
30.74199999996925
 21
6.288019871754143
 31
0.0
  0
LINE
  5
11AC5
330
11AA8
100
AcDbEntity
  8
0
  6
CONTINUOUS
100
AcDbLine
 10
29.30199999996933
 20
4.174500662674028
 30
0.0
 11
30.74199999996925
 21
5.614500662673953
 31
0.0
  0
LINE
  5
11AC6
330
11AA8
100
AcDbEntity
  8
0
  6
CONTINUOUS
100
AcDbLine
 10
25.96267548958429
 20
0.1616569432088024
 30
0.0
 11
27.18411854636669
 21
1.383099999991207
 31
0.0
  0
LINE
  5
11AC7
330
11AA8
100
AcDbEntity
  8
0
  6
CONTINUOUS
100
AcDbLine
 10
29.30199999996933
 20
3.500981453593841
 30
0.0
 11
30.74199999996925
 21
4.940981453593762
 31
0.0
  0
LINE
  5
11AC8
330
11AA8
100
AcDbEntity
  8
0
  6
CONTINUOUS
100
AcDbLine
 10
26.50763775544691
 20
0.0330999999912356
 30
0.0
 11
27.85763775544689
 21
1.383099999991223
 31
0.0
  0
LINE
  5
11AC9
330
11AA8
100
AcDbEntity
  8
0
  6
CONTINUOUS
100
AcDbLine
 10
29.30199999996933
 20
2.827462244513656
 30
0.0
 11
30.74199999996925
 21
4.267462244513574
 31
0.0
  0
LINE
  5
11ACA
330
11AA8
100
AcDbEntity
  8
0
  6
CONTINUOUS
100
AcDbLine
 10
27.18115696452709
 20
0.0330999999912356
 30
0.0
 11
28.55073879889363
 21
1.402681834357775
 31
0.0
  0
LINE
  5
11ACB
330
11AA8
100
AcDbEntity
  8
0
  6
CONTINUOUS
100
AcDbLine
 10
29.28241816560272
 20
2.134361201066866
 30
0.0
 11
30.74199999996924
 21
3.593943035433383
 31
0.0
  0
LINE
  5
11ACC
330
11AA8
100
AcDbEntity
  8
0
  6
CONTINUOUS
100
AcDbLine
 10
27.85467617360728
 20
0.0330999999912356
 30
0.0
 11
30.74199999996924
 21
2.920423826353195
 31
0.0
  0
LINE
  5
11ACD
330
11AA8
100
AcDbEntity
  8
0
  6
CONTINUOUS
100
AcDbLine
 10
28.53897559587887
 20
0.0438802131826428
 30
0.0
 11
30.73121978677781
 21
2.236124404081585
 31
0.0
  0
LINE
  5
11ACE
330
11AA8
100
AcDbEntity
  8
0
  6
CONTINUOUS
100
AcDbLine
 10
29.45140055588722
 20
0.2827859641107988
 30
0.0
 11
30.49231403584965
 21
1.323699444073236
 31
0.0
  0
LINE
  5
11ACF
330
11AA8
100
AcDbEntity
  8
0
  6
CONTINUOUS
100
AcDbLine
 10
19.59027867740337
 20
-0.0000967065718083
 30
0.0
 11
19.55485265190471
 21
0.035329318926844
 31
0.0
  0
LINE
  5
11AD0
330
11AA8
100
AcDbEntity
  8
0
  6
CONTINUOUS
100
AcDbLine
 10
20.26375463176586
 20
-0.0000534518541091
 30
0.0
 11
19.76305575737534
 21
0.5006454225364014
 31
0.0
  0
LINE
  5
11AD1
330
11AA8
100
AcDbEntity
  8
0
  6
CONTINUOUS
100
AcDbLine
 10
20.93723058612834
 20
-0.0000101971364099
 30
0.0
 11
19.97125886284597
 21
0.965961526145958
 31
0.0
  0
LINE
  5
11AD2
330
11AA8
100
AcDbEntity
  8
0
  6
CONTINUOUS
100
AcDbLine
 10
21.25514828313686
 20
0.355591314935257
 30
0.0
 11
20.1794619683166
 21
1.431277629755512
 31
0.0
  0
LINE
  5
11AD3
330
11AA8
100
AcDbEntity
  8
0
  6
CONTINUOUS
100
AcDbLine
 10
21.46338838394921
 20
0.8208704232030986
 30
0.0
 11
20.38766507378723
 21
1.896593733365069
 31
0.0
  0
LINE
  5
11AD4
330
11AA8
100
AcDbEntity
  8
0
  6
CONTINUOUS
100
AcDbLine
 10
21.67162848476155
 20
1.28614953147094
 30
0.0
 11
20.59586817925786
 21
2.361909836974626
 31
0.0
  0
LINE
  5
11AD5
330
11AA8
100
AcDbEntity
  8
0
  6
CONTINUOUS
100
AcDbLine
 10
21.8798685855739
 20
1.751428639738782
 30
0.0
 11
20.80407128472849
 21
2.827225940584183
 31
0.0
  0
LINE
  5
11AD6
330
11AA8
100
AcDbEntity
  8
0
  6
CONTINUOUS
100
AcDbLine
 10
22.08810868638624
 20
2.216707748006623
 30
0.0
 11
21.01227439019912
 21
3.292542044193739
 31
0.0
  0
LINE
  5
11AD7
330
11AA8
100
AcDbEntity
  8
0
  6
CONTINUOUS
100
AcDbLine
 10
22.60993564347543
 20
2.36839999999762
 30
0.0
 11
21.22047749566975
 21
3.757858147803296
 31
0.0
  0
LINE
  5
11AD8
330
11AA8
100
AcDbEntity
  8
0
  6
CONTINUOUS
100
AcDbLine
 10
23.28345485255561
 20
2.36839999999762
 30
0.0
 11
21.42868060114038
 21
4.223174251412853
 31
0.0
  0
LINE
  5
11AD9
330
11AA8
100
AcDbEntity
  8
0
  6
CONTINUOUS
100
AcDbLine
 10
26.29227406164219
 20
0.0330999999912356
 30
0.0
 11
25.80009199592872
 21
0.5252820657046957
 31
0.0
  0
LINE
  5
11ADA
330
11AA8
100
AcDbEntity
  8
0
  6
CONTINUOUS
100
AcDbLine
 10
23.9569740616358
 20
2.36839999999762
 30
0.0
 11
21.63688370661101
 21
4.688490355022409
 31
0.0
  0
LINE
  5
11ADB
330
11AA8
100
AcDbEntity
  8
0
  6
CONTINUOUS
100
AcDbLine
 10
26.96579327072237
 20
0.0330999999912356
 30
0.0
 11
25.2554132311971
 21
1.743480039516508
 31
0.0
  0
LINE
  5
11ADC
330
11AA8
100
AcDbEntity
  8
0
  6
CONTINUOUS
100
AcDbLine
 10
24.63049327071599
 20
2.36839999999762
 30
0.0
 11
23.32789327071731
 21
3.670999999996297
 31
0.0
  0
LINE
  5
11ADD
330
11AA8
100
AcDbEntity
  8
0
  6
CONTINUOUS
100
AcDbLine
 10
22.92098674744635
 20
4.077906523267254
 30
0.0
 11
21.84508681208164
 21
5.153806458631966
 31
0.0
  0
LINE
  5
11ADE
330
11AA8
100
AcDbEntity
  8
0
  6
CONTINUOUS
100
AcDbLine
 10
27.63931247980256
 20
0.0330999999912356
 30
0.0
 11
24.0014124797975
 21
3.670999999996297
 31
0.0
  0
LINE
  5
11ADF
330
11AA8
100
AcDbEntity
  8
0
  6
CONTINUOUS
100
AcDbLine
 10
23.129125600968
 20
4.5432868788258
 30
0.0
 11
22.05328991755227
 21
5.619122562241522
 31
0.0
  0
LINE
  5
11AE0
330
11AA8
100
AcDbEntity
  8
0
  6
CONTINUOUS
100
AcDbLine
 10
28.31283168888275
 20
0.0330999999912356
 30
0.0
 11
24.16488385994816
 21
4.181047828925828
 31
0.0
  0
LINE
  5
11AE1
330
11AA8
100
AcDbEntity
  8
0
  6
CONTINUOUS
100
AcDbLine
 10
23.33726445448964
 20
5.008667234384345
 30
0.0
 11
22.2614930230229
 21
6.084438665851079
 31
0.0
  0
LINE
  5
11AE2
330
11AA8
100
AcDbEntity
  8
0
  6
CONTINUOUS
100
AcDbLine
 10
28.92085740005492
 20
0.0985934978992438
 30
0.0
 11
27.63635089796295
 21
1.383099999991217
 31
0.0
  0
LINE
  5
11AE3
330
11AA8
100
AcDbEntity
  8
0
  6
CONTINUOUS
100
AcDbLine
 10
26.43704649509776
 20
2.582404402856405
 30
0.0
 11
23.61992702019732
 21
5.399523877756844
 31
0.0
  0
LINE
  5
11AE4
330
11AA8
100
AcDbEntity
  8
0
  6
CONTINUOUS
100
AcDbLine
 10
23.54540330801128
 20
5.47404758994289
 30
0.0
 11
22.46969612849353
 21
6.549754769460635
 31
0.0
  0
LINE
  5
11AE5
330
11AA8
100
AcDbEntity
  8
0
  6
CONTINUOUS
100
AcDbLine
 10
29.42225615078443
 20
0.2707139562499279
 30
0.0
 11
28.30987010704312
 21
1.383099999991234
 31
0.0
  0
LINE
  5
11AE6
330
11AA8
100
AcDbEntity
  8
0
  6
CONTINUOUS
100
AcDbLine
 10
25.89179548232307
 20
3.801174624711282
 30
0.0
 11
22.67789923396416
 21
7.015070873070191
 31
0.0
  0
LINE
  5
11AE7
330
11AA8
100
AcDbEntity
  8
0
  6
CONTINUOUS
100
AcDbLine
 10
29.83624534690007
 20
0.5302439692144705
 30
0.0
 11
28.85811781497101
 21
1.508371501143527
 31
0.0
  0
LINE
  5
11AE8
330
11AA8
100
AcDbEntity
  8
0
  6
CONTINUOUS
100
AcDbLine
 10
25.34654446954838
 20
5.01994484656616
 30
0.0
 11
22.88610233943479
 21
7.480386976679748
 31
0.0
  0
LINE
  5
11AE9
330
11AA8
100
AcDbEntity
  8
0
  6
CONTINUOUS
100
AcDbLine
 10
30.17865975401872
 20
0.8613487711760022
 30
0.0
 11
29.18888744090175
 21
1.851121084292977
 31
0.0
  0
LINE
  5
11AEA
330
11AA8
100
AcDbEntity
  8
0
  6
CONTINUOUS
100
AcDbLine
 10
24.80129345677369
 20
6.238715068421037
 30
0.0
 11
23.09430544490542
 21
7.945703080289305
 31
0.0
  0
LINE
  5
11AEB
330
11AA8
100
AcDbEntity
  8
0
  6
CONTINUOUS
100
AcDbLine
 10
30.45496647202376
 20
1.258561262251155
 30
0.0
 11
29.30199999996933
 21
2.411527734305588
 31
0.0
  0
LINE
  5
11AEC
330
11AA8
100
AcDbEntity
  8
0
  6
CONTINUOUS
100
AcDbLine
 10
24.256042443999
 20
7.457485290275915
 30
0.0
 11
23.30250855037605
 21
8.411019183898862
 31
0.0
  0
LINE
  5
11AED
330
11AA8
100
AcDbEntity
  8
0
  6
CONTINUOUS
100
AcDbLine
 10
30.64868582078271
 20
1.738361122572387
 30
0.0
 11
29.30199999996933
 21
3.085046943385775
 31
0.0
  0
LINE
  5
11AEE
330
11AA8
100
AcDbEntity
  8
0
  6
CONTINUOUS
100
AcDbLine
 10
23.71079143122431
 20
8.676255512130794
 30
0.0
 11
23.51071165584668
 21
8.876335287508416
 31
0.0
  0
LINE
  5
11AEF
330
11AA8
100
AcDbEntity
  8
0
  6
CONTINUOUS
100
AcDbLine
 10
30.73802122914428
 20
2.322544923291007
 30
0.0
 11
29.30199999996933
 21
3.758566152465961
 31
0.0
  0
LINE
  5
11AF0
330
11AA8
100
AcDbEntity
  8
0
  6
CONTINUOUS
100
AcDbLine
 10
30.74199999996924
 20
2.992085361546236
 30
0.0
 11
29.30199999996933
 21
4.432085361546148
 31
0.0
  0
LINE
  5
11AF1
330
11AA8
100
AcDbEntity
  8
0
  6
CONTINUOUS
100
AcDbLine
 10
30.74199999996924
 20
3.665604570626419
 30
0.0
 11
29.30199999996933
 21
5.105604570626333
 31
0.0
  0
LINE
  5
11AF2
330
11AA8
100
AcDbEntity
  8
0
  6
CONTINUOUS
100
AcDbLine
 10
30.74199999996925
 20
4.339123779706602
 30
0.0
 11
29.30199999996933
 21
5.77912377970652
 31
0.0
  0
LINE
  5
11AF3
330
11AA8
100
AcDbEntity
  8
0
  6
CONTINUOUS
100
AcDbLine
 10
30.74199999996925
 20
5.012642988786785
 30
0.0
 11
29.30199999996933
 21
6.452642988786707
 31
0.0
  0
LINE
  5
11AF4
330
11AA8
100
AcDbEntity
  8
0
  6
CONTINUOUS
100
AcDbLine
 10
30.74199999996925
 20
5.68616219786697
 30
0.0
 11
29.30199999996933
 21
7.126162197866894
 31
0.0
  0
LINE
  5
11AF5
330
11AA8
100
AcDbEntity
  8
0
  6
CONTINUOUS
100
AcDbLine
 10
30.74199999996925
 20
6.359681406947153
 30
0.0
 11
29.30199999996933
 21
7.799681406947081
 31
0.0
  0
LINE
  5
11AF6
330
11AA8
100
AcDbEntity
  8
0
  6
CONTINUOUS
100
AcDbLine
 10
30.74199999996926
 20
7.033200616027337
 30
0.0
 11
29.30199999996933
 21
8.473200616027269
 31
0.0
  0
LINE
  5
11AF7
330
11AA8
100
AcDbEntity
  8
0
  6
CONTINUOUS
100
AcDbLine
 10
30.74199999996926
 20
7.706719825107518
 30
0.0
 11
29.68561982508552
 21
8.763099999991255
 31
0.0
  0
LINE
  5
11AF8
330
11AA8
100
AcDbEntity
  8
0
  6
CONTINUOUS
100
AcDbLine
 10
30.74199999996926
 20
8.380239034187703
 30
0.0
 11
30.35913903416571
 21
8.763099999991255
 31
0.0
  0
ENDBLK
  5
11B9B
330
11AA8
100
AcDbEntity
  8
0
100
AcDbBlockEnd
  0
BLOCK
  5
11B9C
330
11AF9
100
AcDbEntity
  8
0
100
AcDbBlockBegin
  2
*X262
 70
     1
 10
0.0
 20
0.0
 30
0.0
  3
*X262
  1

  0
LINE
  5
11AFA
330
11AF9
100
AcDbEntity
  8
0
  6
CONTINUOUS
100
AcDbLine
 10
31.64199999996833
 20
8.535058289913598
 30
0.0
 11
31.87004171004599
 21
8.763099999991255
 31
0.0
  0
LINE
  5
11AFB
330
11AF9
100
AcDbEntity
  8
0
  6
CONTINUOUS
100
AcDbLine
 10
31.64199999996833
 20
7.861539080833412
 30
0.0
 11
32.54356091912618
 21
8.763099999991255
 31
0.0
  0
LINE
  5
11AFC
330
11AF9
100
AcDbEntity
  8
0
  6
CONTINUOUS
100
AcDbLine
 10
31.64199999996833
 20
7.188019871753226
 30
0.0
 11
33.08199999996839
 21
8.628019871753281
 31
0.0
  0
LINE
  5
11AFD
330
11AF9
100
AcDbEntity
  8
0
  6
CONTINUOUS
100
AcDbLine
 10
31.64199999996833
 20
6.51450066267304
 30
0.0
 11
33.08199999996839
 21
7.954500662673095
 31
0.0
  0
LINE
  5
11AFE
330
11AF9
100
AcDbEntity
  8
0
  6
CONTINUOUS
100
AcDbLine
 10
31.64199999996833
 20
5.840981453592853
 30
0.0
 11
33.08199999996839
 21
7.280981453592908
 31
0.0
  0
LINE
  5
11AFF
330
11AF9
100
AcDbEntity
  8
0
  6
CONTINUOUS
100
AcDbLine
 10
31.64199999996833
 20
5.167462244512667
 30
0.0
 11
33.08199999996839
 21
6.607462244512721
 31
0.0
  0
LINE
  5
11B00
330
11AF9
100
AcDbEntity
  8
0
  6
CONTINUOUS
100
AcDbLine
 10
31.64199999996833
 20
4.493943035432481
 30
0.0
 11
33.08199999996839
 21
5.933943035432535
 31
0.0
  0
LINE
  5
11B01
330
11AF9
100
AcDbEntity
  8
0
  6
CONTINUOUS
100
AcDbLine
 10
31.64199999996833
 20
3.820423826352293
 30
0.0
 11
33.08199999996839
 21
5.260423826352348
 31
0.0
  0
LINE
  5
11B02
330
11AF9
100
AcDbEntity
  8
0
  6
CONTINUOUS
100
AcDbLine
 10
31.64199999996833
 20
3.146904617272106
 30
0.0
 11
33.08199999996839
 21
4.586904617272161
 31
0.0
  0
LINE
  5
11B03
330
11AF9
100
AcDbEntity
  8
0
  6
CONTINUOUS
100
AcDbLine
 10
36.23199999996837
 20
8.410423826352325
 30
0.0
 11
36.5846761736073
 21
8.763099999991255
 31
0.0
  0
LINE
  5
11B04
330
11AF9
100
AcDbEntity
  8
0
  6
CONTINUOUS
100
AcDbLine
 10
36.23199999996837
 20
7.73690461727214
 30
0.0
 11
37.25819538268748
 21
8.763099999991255
 31
0.0
  0
LINE
  5
11B05
330
11AF9
100
AcDbEntity
  8
0
  6
CONTINUOUS
100
AcDbLine
 10
31.64257403601376
 20
2.473959444237348
 30
0.0
 11
33.08199999996839
 21
3.913385408191974
 31
0.0
  0
LINE
  5
11B06
330
11AF9
100
AcDbEntity
  8
0
  6
CONTINUOUS
100
AcDbLine
 10
36.23199999996837
 20
7.063385408191953
 30
0.0
 11
37.67199999996831
 21
8.503385408191894
 31
0.0
  0
LINE
  5
11B07
330
11AF9
100
AcDbEntity
  8
0
  6
CONTINUOUS
100
AcDbLine
 10
31.72013636841932
 20
1.87800256756272
 30
0.0
 11
33.08199999996839
 21
3.239866199111788
 31
0.0
  0
LINE
  5
11B08
330
11AF9
100
AcDbEntity
  8
0
  6
CONTINUOUS
100
AcDbLine
 10
36.23199999996837
 20
6.389866199111767
 30
0.0
 11
37.67199999996831
 21
7.829866199111708
 31
0.0
  0
LINE
  5
11B09
330
11AF9
100
AcDbEntity
  8
0
  6
CONTINUOUS
100
AcDbLine
 10
31.89042734314753
 20
1.374774333210744
 30
0.0
 11
33.08199999996839
 21
2.566346990031601
 31
0.0
  0
LINE
  5
11B0A
330
11AF9
100
AcDbEntity
  8
0
  6
CONTINUOUS
100
AcDbLine
 10
36.23199999996837
 20
5.71634699003158
 30
0.0
 11
37.67199999996831
 21
7.156346990031521
 31
0.0
  0
LINE
  5
11B0B
330
11AF9
100
AcDbEntity
  8
0
  6
CONTINUOUS
100
AcDbLine
 10
32.14210568064475
 20
0.952933461627778
 30
0.0
 11
33.18745552475986
 21
1.998283305742888
 31
0.0
  0
LINE
  5
11B0C
330
11AF9
100
AcDbEntity
  8
0
  6
CONTINUOUS
100
AcDbLine
 10
36.23199999996837
 20
5.042827780951393
 30
0.0
 11
37.67199999996831
 21
6.482827780951334
 31
0.0
  0
LINE
  5
11B0D
330
11AF9
100
AcDbEntity
  8
0
  6
CONTINUOUS
100
AcDbLine
 10
32.45820639400955
 20
0.5955149659123915
 30
0.0
 11
33.47242681921943
 21
1.60973539112227
 31
0.0
  0
LINE
  5
11B0E
330
11AF9
100
AcDbEntity
  8
0
  6
CONTINUOUS
100
AcDbLine
 10
36.23199999996837
 20
4.369308571871207
 30
0.0
 11
37.67199999996831
 21
5.809308571871147
 31
0.0
  0
LINE
  5
11B0F
330
11AF9
100
AcDbEntity
  8
0
  6
CONTINUOUS
100
AcDbLine
 10
32.83432456621412
 20
0.2981139290367771
 30
0.0
 11
33.89722476612215
 21
1.361014128944803
 31
0.0
  0
LINE
  5
11B10
330
11AF9
100
AcDbEntity
  8
0
  6
CONTINUOUS
100
AcDbLine
 10
36.23199999996837
 20
3.69578936279102
 30
0.0
 11
37.67199999996831
 21
5.135789362790962
 31
0.0
  0
LINE
  5
11B11
330
11AF9
100
AcDbEntity
  8
0
  6
CONTINUOUS
100
AcDbLine
 10
33.2711633111245
 20
0.0614334648669672
 30
0.0
 11
34.43247338014423
 21
1.222743533886696
 31
0.0
  0
LINE
  5
11B12
330
11AF9
100
AcDbEntity
  8
0
  6
CONTINUOUS
100
AcDbLine
 10
36.23199999996837
 20
3.022270153710834
 30
0.0
 11
37.67199999996831
 21
4.462270153710775
 31
0.0
  0
LINE
  5
11B13
330
11AF9
100
AcDbEntity
  8
0
  6
CONTINUOUS
100
AcDbLine
 10
33.76515245874577
 20
-0.1180965965919523
 30
0.0
 11
35.1587445516215
 21
1.27549549628378
 31
0.0
  0
LINE
  5
11B14
330
11AF9
100
AcDbEntity
  8
0
  6
CONTINUOUS
100
AcDbLine
 10
36.21639478609585
 20
2.333145730758136
 30
0.0
 11
37.67199999996831
 21
3.788750944630588
 31
0.0
  0
LINE
  5
11B15
330
11AF9
100
AcDbEntity
  8
0
  6
CONTINUOUS
100
AcDbLine
 10
34.34060583368432
 20
-0.2161624307335863
 30
0.0
 11
37.67199999996831
 21
3.115231735550401
 31
0.0
  0
LINE
  5
11B16
330
11AF9
100
AcDbEntity
  8
0
  6
CONTINUOUS
100
AcDbLine
 10
35.01698193613905
 20
-0.2133055373590427
 30
0.0
 11
37.66876712070525
 21
2.438479647207154
 31
0.0
  0
LINE
  5
11B17
330
11AF9
100
AcDbEntity
  8
0
  6
CONTINUOUS
100
AcDbLine
 10
35.90743367693304
 20
0.0036269943547609
 30
0.0
 11
37.51723902192366
 21
1.613432339345381
 31
0.0
  0
LINE
  5
11B18
330
11AF9
100
AcDbEntity
  8
0
  6
CONTINUOUS
100
AcDbLine
 10
32.55309425579761
 20
0.5074718966376706
 30
0.0
 11
32.27784730925847
 21
0.7827188431768102
 31
0.0
  0
LINE
  5
11B19
330
11AF9
100
AcDbEntity
  8
0
  6
CONTINUOUS
100
AcDbLine
 10
33.87496468909684
 20
-0.1408793275813673
 30
0.0
 11
31.67993083278052
 21
2.054154528734943
 31
0.0
  0
LINE
  5
11B1A
330
11AF9
100
AcDbEntity
  8
0
  6
CONTINUOUS
100
AcDbLine
 10
34.64362813207632
 20
-0.2360235614806649
 30
0.0
 11
31.64199999996833
 21
2.765604570627322
 31
0.0
  0
LINE
  5
11B1B
330
11AF9
100
AcDbEntity
  8
0
  6
CONTINUOUS
100
AcDbLine
 10
35.25801106796118
 20
-0.1768872882853429
 30
0.0
 11
31.64199999996833
 21
3.439123779707508
 31
0.0
  0
LINE
  5
11B1C
330
11AF9
100
AcDbEntity
  8
0
  6
CONTINUOUS
100
AcDbLine
 10
35.79065650332146
 20
-0.0360135145654361
 30
0.0
 11
34.54143210838231
 21
1.213210880373721
 31
0.0
  0
LINE
  5
11B1D
330
11AF9
100
AcDbEntity
  8
0
  6
CONTINUOUS
100
AcDbLine
 10
33.08199999996839
 20
2.67264298878764
 30
0.0
 11
31.64199999996833
 21
4.112642988787695
 31
0.0
  0
LINE
  5
11B1E
330
11AF9
100
AcDbEntity
  8
0
  6
CONTINUOUS
100
AcDbLine
 10
36.25975597779143
 20
0.1684062200447833
 30
0.0
 11
35.15395110240023
 21
1.274211095435983
 31
0.0
  0
LINE
  5
11B1F
330
11AF9
100
AcDbEntity
  8
0
  6
CONTINUOUS
100
AcDbLine
 10
33.08199999996839
 20
3.346162197867826
 30
0.0
 11
31.64199999996833
 21
4.786162197867881
 31
0.0
  0
LINE
  5
11B20
330
11AF9
100
AcDbEntity
  8
0
  6
CONTINUOUS
100
AcDbLine
 10
36.67226329638774
 20
0.4294181105286579
 30
0.0
 11
35.63766478748767
 21
1.464016619428737
 31
0.0
  0
LINE
  5
11B21
330
11AF9
100
AcDbEntity
  8
0
  6
CONTINUOUS
100
AcDbLine
 10
33.08199999996839
 20
4.019681406948012
 30
0.0
 11
31.64199999996833
 21
5.459681406948068
 31
0.0
  0
LINE
  5
11B22
330
11AF9
100
AcDbEntity
  8
0
  6
CONTINUOUS
100
AcDbLine
 10
37.01677749710036
 20
0.7584231188962329
 30
0.0
 11
35.99563422741351
 21
1.779566388583076
 31
0.0
  0
LINE
  5
11B23
330
11AF9
100
AcDbEntity
  8
0
  6
CONTINUOUS
100
AcDbLine
 10
33.08199999996839
 20
4.693200616028199
 30
0.0
 11
31.64199999996833
 21
6.133200616028255
 31
0.0
  0
LINE
  5
11B24
330
11AF9
100
AcDbEntity
  8
0
  6
CONTINUOUS
100
AcDbLine
 10
37.29859977568887
 20
1.1501200493879
 30
0.0
 11
36.20680593341555
 21
2.241913891661226
 31
0.0
  0
LINE
  5
11B25
330
11AF9
100
AcDbEntity
  8
0
  6
CONTINUOUS
100
AcDbLine
 10
33.08199999996839
 20
5.366719825108386
 30
0.0
 11
31.64199999996833
 21
6.80671982510844
 31
0.0
  0
LINE
  5
11B26
330
11AF9
100
AcDbEntity
  8
0
  6
CONTINUOUS
100
AcDbLine
 10
37.5148623517228
 20
1.607376682434161
 30
0.0
 11
36.23199999996837
 21
2.890239034188594
 31
0.0
  0
LINE
  5
11B27
330
11AF9
100
AcDbEntity
  8
0
  6
CONTINUOUS
100
AcDbLine
 10
33.08199999996839
 20
6.040239034188573
 30
0.0
 11
31.64199999996833
 21
7.480239034188627
 31
0.0
  0
LINE
  5
11B28
330
11AF9
100
AcDbEntity
  8
0
  6
CONTINUOUS
100
AcDbLine
 10
37.64705163358367
 20
2.148706609653477
 30
0.0
 11
36.23199999996837
 21
3.56375824326878
 31
0.0
  0
LINE
  5
11B29
330
11AF9
100
AcDbEntity
  8
0
  6
CONTINUOUS
100
AcDbLine
 10
33.08199999996839
 20
6.713758243268758
 30
0.0
 11
31.64199999996833
 21
8.153758243268815
 31
0.0
  0
LINE
  5
11B2A
330
11AF9
100
AcDbEntity
  8
0
  6
CONTINUOUS
100
AcDbLine
 10
37.67199999996831
 20
2.797277452349026
 30
0.0
 11
36.23199999996837
 21
4.237277452348967
 31
0.0
  0
LINE
  5
11B2B
330
11AF9
100
AcDbEntity
  8
0
  6
CONTINUOUS
100
AcDbLine
 10
37.67199999996831
 20
3.470796661429213
 30
0.0
 11
36.23199999996837
 21
4.910796661429154
 31
0.0
  0
LINE
  5
11B2C
330
11AF9
100
AcDbEntity
  8
0
  6
CONTINUOUS
100
AcDbLine
 10
37.67199999996831
 20
4.144315870509399
 30
0.0
 11
36.23199999996837
 21
5.58431587050934
 31
0.0
  0
LINE
  5
11B2D
330
11AF9
100
AcDbEntity
  8
0
  6
CONTINUOUS
100
AcDbLine
 10
33.08199999996839
 20
7.387277452348945
 30
0.0
 11
31.70617745232608
 21
8.763099999991255
 31
0.0
  0
LINE
  5
11B2E
330
11AF9
100
AcDbEntity
  8
0
  6
CONTINUOUS
100
AcDbLine
 10
33.08199999996839
 20
8.060796661429132
 30
0.0
 11
32.37969666140626
 21
8.763099999991255
 31
0.0
  0
LINE
  5
11B2F
330
11AF9
100
AcDbEntity
  8
0
  6
CONTINUOUS
100
AcDbLine
 10
33.08199999996839
 20
8.734315870509318
 30
0.0
 11
33.05321587048645
 21
8.763099999991255
 31
0.0
  0
LINE
  5
11B30
330
11AF9
100
AcDbEntity
  8
0
  6
CONTINUOUS
100
AcDbLine
 10
37.67199999996831
 20
4.817835079589585
 30
0.0
 11
36.23199999996837
 21
6.257835079589526
 31
0.0
  0
LINE
  5
11B31
330
11AF9
100
AcDbEntity
  8
0
  6
CONTINUOUS
100
AcDbLine
 10
37.67199999996831
 20
5.491354288669771
 30
0.0
 11
36.23199999996837
 21
6.931354288669713
 31
0.0
  0
LINE
  5
11B32
330
11AF9
100
AcDbEntity
  8
0
  6
CONTINUOUS
100
AcDbLine
 10
37.67199999996831
 20
6.164873497749958
 30
0.0
 11
36.23199999996837
 21
7.6048734977499
 31
0.0
  0
LINE
  5
11B33
330
11AF9
100
AcDbEntity
  8
0
  6
CONTINUOUS
100
AcDbLine
 10
37.67199999996831
 20
6.838392706830144
 30
0.0
 11
36.23199999996837
 21
8.278392706830086
 31
0.0
  0
LINE
  5
11B34
330
11AF9
100
AcDbEntity
  8
0
  6
CONTINUOUS
100
AcDbLine
 10
37.67199999996831
 20
7.511911915910332
 30
0.0
 11
36.42081191588738
 21
8.763099999991255
 31
0.0
  0
LINE
  5
11B35
330
11AF9
100
AcDbEntity
  8
0
  6
CONTINUOUS
100
AcDbLine
 10
37.67199999996831
 20
8.185431124990519
 30
0.0
 11
37.09433112496757
 21
8.763099999991255
 31
0.0
  0
ENDBLK
  5
11B9D
330
11AF9
100
AcDbEntity
  8
0
100
AcDbBlockEnd
  0
BLOCK
  5
11B9E
330
11B36
100
AcDbEntity
  8
0
100
AcDbBlockBegin
  2
*X263
 70
     1
 10
0.0
 20
0.0
 30
0.0
  3
*X263
  1

  0
LINE
  5
11B37
330
11B36
100
AcDbEntity
  8
0
  6
CONTINUOUS
100
AcDbLine
 10
38.60499999996136
 20
8.762866199104765
 30
0.0
 11
38.71672554182345
 21
8.874591740966855
 31
0.0
  0
LINE
  5
11B38
330
11B36
100
AcDbEntity
  8
0
  6
CONTINUOUS
100
AcDbLine
 10
38.60499999996136
 20
8.089346990024577
 30
0.0
 11
39.03418785440363
 21
8.518534844466847
 31
0.0
  0
LINE
  5
11B39
330
11B36
100
AcDbEntity
  8
0
  6
CONTINUOUS
100
AcDbLine
 10
38.60499999996136
 20
7.41582778094439
 30
0.0
 11
39.35165016698382
 21
8.16247794796684
 31
0.0
  0
LINE
  5
11B3A
330
11B36
100
AcDbEntity
  8
0
  6
CONTINUOUS
100
AcDbLine
 10
38.60499999996136
 20
6.742308571864204
 30
0.0
 11
39.66911247956399
 21
7.806421051466834
 31
0.0
  0
LINE
  5
11B3B
330
11B36
100
AcDbEntity
  8
0
  6
CONTINUOUS
100
AcDbLine
 10
38.60499999996136
 20
6.068789362784018
 30
0.0
 11
39.98657479214418
 21
7.450364154966827
 31
0.0
  0
LINE
  5
11B3C
330
11B36
100
AcDbEntity
  8
0
  6
CONTINUOUS
100
AcDbLine
 10
38.60499999996136
 20
5.395270153703832
 30
0.0
 11
40.30403710472435
 21
7.09430725846682
 31
0.0
  0
LINE
  5
11B3D
330
11B36
100
AcDbEntity
  8
0
  6
CONTINUOUS
100
AcDbLine
 10
38.60499999996136
 20
4.721750944623645
 30
0.0
 11
40.62149941730453
 21
6.738250361966813
 31
0.0
  0
LINE
  5
11B3E
330
11B36
100
AcDbEntity
  8
0
  6
CONTINUOUS
100
AcDbLine
 10
38.60499999996136
 20
4.048231735543458
 30
0.0
 11
40.93896172988471
 21
6.382193465466806
 31
0.0
  0
LINE
  5
11B3F
330
11B36
100
AcDbEntity
  8
0
  6
CONTINUOUS
100
AcDbLine
 10
38.60499999996136
 20
3.374712526463272
 30
0.0
 11
40.02599999995994
 21
4.795712526461843
 31
0.0
  0
LINE
  5
11B40
330
11B36
100
AcDbEntity
  8
0
  6
CONTINUOUS
100
AcDbLine
 10
38.60499999996136
 20
2.701193317383085
 30
0.0
 11
40.02599999995994
 21
4.122193317381657
 31
0.0
  0
LINE
  5
11B41
330
11B36
100
AcDbEntity
  8
0
  6
CONTINUOUS
100
AcDbLine
 10
40.28339754687704
 20
5.053110073378947
 30
0.0
 11
41.25642404246489
 21
6.026136568966799
 31
0.0
  0
LINE
  5
11B42
330
11B36
100
AcDbEntity
  8
0
  6
CONTINUOUS
100
AcDbLine
 10
40.60085985945722
 20
4.697053176878939
 30
0.0
 11
41.57388635504507
 21
5.670079672466793
 31
0.0
  0
LINE
  5
11B43
330
11B36
100
AcDbEntity
  8
0
  6
CONTINUOUS
100
AcDbLine
 10
43.57899999995641
 20
8.348712526458318
 30
0.0
 11
43.99338747348935
 21
8.763099999991255
 31
0.0
  0
LINE
  5
11B44
330
11B36
100
AcDbEntity
  8
0
  6
CONTINUOUS
100
AcDbLine
 10
43.57899999995641
 20
7.675193317378131
 30
0.0
 11
44.66690668256953
 21
8.763099999991255
 31
0.0
  0
LINE
  5
11B45
330
11B36
100
AcDbEntity
  8
0
  6
CONTINUOUS
100
AcDbLine
 10
38.60499999996136
 20
2.027674108302898
 30
0.0
 11
40.02599999995994
 21
3.44867410830147
 31
0.0
  0
LINE
  5
11B46
330
11B36
100
AcDbEntity
  8
0
  6
CONTINUOUS
100
AcDbLine
 10
38.60499999996136
 20
1.354154899222712
 30
0.0
 11
40.02599999995994
 21
2.775154899221284
 31
0.0
  0
LINE
  5
11B47
330
11B36
100
AcDbEntity
  8
0
  6
CONTINUOUS
100
AcDbLine
 10
38.60499999996136
 20
0.6806356901425255
 30
0.0
 11
40.02599999995994
 21
2.101635690141098
 31
0.0
  0
LINE
  5
11B48
330
11B36
100
AcDbEntity
  8
0
  6
CONTINUOUS
100
AcDbLine
 10
38.60499999996136
 20
0.0071164810623383
 30
0.0
 11
40.02599999995994
 21
1.428116481060911
 31
0.0
  0
LINE
  5
11B49
330
11B36
100
AcDbEntity
  8
0
  6
CONTINUOUS
100
AcDbLine
 10
40.9183221720374
 20
4.340996280378933
 30
0.0
 11
41.89134866762525
 21
5.314022775966786
 31
0.0
  0
LINE
  5
11B4A
330
11B36
100
AcDbEntity
  8
0
  6
CONTINUOUS
100
AcDbLine
 10
41.23578448461758
 20
3.984939383878926
 30
0.0
 11
42.20881098020543
 21
4.957965879466778
 31
0.0
  0
LINE
  5
11B4B
330
11B36
100
AcDbEntity
  8
0
  6
CONTINUOUS
100
AcDbLine
 10
41.55324679719776
 20
3.628882487378919
 30
0.0
 11
42.52627329278561
 21
4.601908982966772
 31
0.0
  0
LINE
  5
11B4C
330
11B36
100
AcDbEntity
  8
0
  6
CONTINUOUS
100
AcDbLine
 10
41.87070910977793
 20
3.272825590878912
 30
0.0
 11
42.84373560536579
 21
4.245852086466765
 31
0.0
  0
LINE
  5
11B4D
330
11B36
100
AcDbEntity
  8
0
  6
CONTINUOUS
100
AcDbLine
 10
43.57899999995641
 20
7.001674108297943
 30
0.0
 11
44.99999999995498
 21
8.422674108296516
 31
0.0
  0
LINE
  5
11B4E
330
11B36
100
AcDbEntity
  8
0
  6
CONTINUOUS
100
AcDbLine
 10
43.57899999995641
 20
6.328154899217758
 30
0.0
 11
44.99999999995498
 21
7.749154899216329
 31
0.0
  0
LINE
  5
11B4F
330
11B36
100
AcDbEntity
  8
0
  6
CONTINUOUS
100
AcDbLine
 10
43.57899999995641
 20
5.654635690137571
 30
0.0
 11
44.99999999995498
 21
7.075635690136142
 31
0.0
  0
LINE
  5
11B50
330
11B36
100
AcDbEntity
  8
0
  6
CONTINUOUS
100
AcDbLine
 10
43.57899999995641
 20
4.981116481057384
 30
0.0
 11
44.99999999995498
 21
6.402116481055955
 31
0.0
  0
LINE
  5
11B51
330
11B36
100
AcDbEntity
  8
0
  6
CONTINUOUS
100
AcDbLine
 10
39.27140272797921
 20
-0.0000000000000009
 30
0.0
 11
40.02599999995994
 21
0.7545972719807246
 31
0.0
  0
LINE
  5
11B52
330
11B36
100
AcDbEntity
  8
0
  6
CONTINUOUS
100
AcDbLine
 10
39.9449219370594
 20
-0.0000000000000009
 30
0.0
 11
40.02599999995994
 21
0.0810780629005379
 31
0.0
  0
LINE
  5
11B53
330
11B36
100
AcDbEntity
  8
0
  6
CONTINUOUS
100
AcDbLine
 10
42.18817142235812
 20
2.916768694378905
 30
0.0
 11
43.16119791794597
 21
3.889795189966758
 31
0.0
  0
LINE
  5
11B54
330
11B36
100
AcDbEntity
  8
0
  6
CONTINUOUS
100
AcDbLine
 10
42.50563373493829
 20
2.560711797878898
 30
0.0
 11
43.47866023052615
 21
3.533738293466751
 31
0.0
  0
LINE
  5
11B55
330
11B36
100
AcDbEntity
  8
0
  6
CONTINUOUS
100
AcDbLine
 10
43.57899999995641
 20
4.307597271977198
 30
0.0
 11
44.99999999995498
 21
5.728597271975769
 31
0.0
  0
LINE
  5
11B56
330
11B36
100
AcDbEntity
  8
0
  6
CONTINUOUS
100
AcDbLine
 10
43.57899999995641
 20
3.634078062897011
 30
0.0
 11
44.99999999995498
 21
5.055078062895582
 31
0.0
  0
LINE
  5
11B57
330
11B36
100
AcDbEntity
  8
0
  6
CONTINUOUS
100
AcDbLine
 10
42.82309604751848
 20
2.204654901378891
 30
0.0
 11
44.99999999995498
 21
4.381558853815395
 31
0.0
  0
LINE
  5
11B58
330
11B36
100
AcDbEntity
  8
0
  6
CONTINUOUS
100
AcDbLine
 10
43.14055836009865
 20
1.848598004878885
 30
0.0
 11
44.99999999995498
 21
3.70803964473521
 31
0.0
  0
LINE
  5
11B59
330
11B36
100
AcDbEntity
  8
0
  6
CONTINUOUS
100
AcDbLine
 10
43.45802067267883
 20
1.492541108378878
 30
0.0
 11
44.99999999995498
 21
3.034520435655023
 31
0.0
  0
LINE
  5
11B5A
330
11B36
100
AcDbEntity
  8
0
  6
CONTINUOUS
100
AcDbLine
 10
43.77548298525902
 20
1.136484211878871
 30
0.0
 11
44.99999999995498
 21
2.361001226574837
 31
0.0
  0
LINE
  5
11B5B
330
11B36
100
AcDbEntity
  8
0
  6
CONTINUOUS
100
AcDbLine
 10
44.09294529783919
 20
0.7804273153788639
 30
0.0
 11
44.99999999995498
 21
1.687482017494649
 31
0.0
  0
LINE
  5
11B5C
330
11B36
100
AcDbEntity
  8
0
  6
CONTINUOUS
100
AcDbLine
 10
44.41040761041938
 20
0.4243704188788566
 30
0.0
 11
44.99999999995498
 21
1.013962808414463
 31
0.0
  0
LINE
  5
11B5D
330
11B36
100
AcDbEntity
  8
0
  6
CONTINUOUS
100
AcDbLine
 10
44.72786992299955
 20
0.0683135223788494
 30
0.0
 11
44.99999999995498
 21
0.340443599334276
 31
0.0
  0
LINE
  5
11B5E
330
11B36
100
AcDbEntity
  8
0
  6
CONTINUOUS
100
AcDbLine
 10
39.12223903415696
 20
-0.0000000000000009
 30
0.0
 11
38.60499999996136
 21
0.5172390341955961
 31
0.0
  0
LINE
  5
11B5F
330
11B36
100
AcDbEntity
  8
0
  6
CONTINUOUS
100
AcDbLine
 10
39.79575824323715
 20
-0.0000000000000009
 30
0.0
 11
38.60499999996136
 21
1.190758243275783
 31
0.0
  0
LINE
  5
11B60
330
11B36
100
AcDbEntity
  8
0
  6
CONTINUOUS
100
AcDbLine
 10
40.02599999995994
 20
0.443277452357397
 30
0.0
 11
38.60499999996136
 21
1.864277452355969
 31
0.0
  0
LINE
  5
11B61
330
11B36
100
AcDbEntity
  8
0
  6
CONTINUOUS
100
AcDbLine
 10
40.02599999995994
 20
1.116796661437583
 30
0.0
 11
38.60499999996136
 21
2.537796661436155
 31
0.0
  0
LINE
  5
11B62
330
11B36
100
AcDbEntity
  8
0
  6
CONTINUOUS
100
AcDbLine
 10
40.02599999995994
 20
1.79031587051777
 30
0.0
 11
38.60499999996136
 21
3.211315870516341
 31
0.0
  0
LINE
  5
11B63
330
11B36
100
AcDbEntity
  8
0
  6
CONTINUOUS
100
AcDbLine
 10
40.02599999995994
 20
2.463835079597956
 30
0.0
 11
38.60499999996136
 21
3.884835079596527
 31
0.0
  0
LINE
  5
11B64
330
11B36
100
AcDbEntity
  8
0
  6
CONTINUOUS
100
AcDbLine
 10
40.02599999995994
 20
3.137354288678143
 30
0.0
 11
38.60499999996136
 21
4.558354288676714
 31
0.0
  0
LINE
  5
11B65
330
11B36
100
AcDbEntity
  8
0
  6
CONTINUOUS
100
AcDbLine
 10
40.02599999995994
 20
3.810873497758329
 30
0.0
 11
38.60499999996136
 21
5.2318734977569
 31
0.0
  0
LINE
  5
11B66
330
11B36
100
AcDbEntity
  8
0
  6
CONTINUOUS
100
AcDbLine
 10
40.02599999995994
 20
4.484392706838515
 30
0.0
 11
38.60499999996136
 21
5.905392706837086
 31
0.0
  0
LINE
  5
11B67
330
11B36
100
AcDbEntity
  8
0
  6
CONTINUOUS
100
AcDbLine
 10
44.99999999995498
 20
0.183911915923658
 30
0.0
 11
41.53858364506288
 21
3.64532827081576
 31
0.0
  0
LINE
  5
11B68
330
11B36
100
AcDbEntity
  8
0
  6
CONTINUOUS
100
AcDbLine
 10
40.02599999995994
 20
5.157911915918703
 30
0.0
 11
38.60499999996136
 21
6.578911915917274
 31
0.0
  0
LINE
  5
11B69
330
11B36
100
AcDbEntity
  8
0
  6
CONTINUOUS
100
AcDbLine
 10
44.99999999995498
 20
0.8574311250038447
 30
0.0
 11
38.60499999996136
 21
7.25243112499746
 31
0.0
  0
LINE
  5
11B6A
330
11B36
100
AcDbEntity
  8
0
  6
CONTINUOUS
100
AcDbLine
 10
44.99999999995498
 20
1.530950334084031
 30
0.0
 11
38.60499999996136
 21
7.925950334077647
 31
0.0
  0
LINE
  5
11B6B
330
11B36
100
AcDbEntity
  8
0
  6
CONTINUOUS
100
AcDbLine
 10
44.99999999995498
 20
2.204469543164218
 30
0.0
 11
43.57899999995641
 21
3.625469543162789
 31
0.0
  0
LINE
  5
11B6C
330
11B36
100
AcDbEntity
  8
0
  6
CONTINUOUS
100
AcDbLine
 10
41.89876730984767
 20
5.305702233271528
 30
0.0
 11
38.60499999996136
 21
8.599469543157834
 31
0.0
  0
LINE
  5
11B6D
330
11B36
100
AcDbEntity
  8
0
  6
CONTINUOUS
100
AcDbLine
 10
44.99999999995498
 20
2.877988752244405
 30
0.0
 11
43.57899999995641
 21
4.298988752242975
 31
0.0
  0
LINE
  5
11B6E
330
11B36
100
AcDbEntity
  8
0
  6
CONTINUOUS
100
AcDbLine
 10
44.99999999995498
 20
3.551507961324591
 30
0.0
 11
43.57899999995641
 21
4.972507961323163
 31
0.0
  0
LINE
  5
11B6F
330
11B36
100
AcDbEntity
  8
0
  6
CONTINUOUS
100
AcDbLine
 10
44.99999999995498
 20
4.225027170404777
 30
0.0
 11
43.57899999995641
 21
5.646027170403348
 31
0.0
  0
LINE
  5
11B70
330
11B36
100
AcDbEntity
  8
0
  6
CONTINUOUS
100
AcDbLine
 10
44.99999999995498
 20
4.898546379484964
 30
0.0
 11
43.57899999995641
 21
6.319546379483535
 31
0.0
  0
LINE
  5
11B71
330
11B36
100
AcDbEntity
  8
0
  6
CONTINUOUS
100
AcDbLine
 10
44.99999999995498
 20
5.572065588565151
 30
0.0
 11
43.57899999995641
 21
6.993065588563722
 31
0.0
  0
LINE
  5
11B72
330
11B36
100
AcDbEntity
  8
0
  6
CONTINUOUS
100
AcDbLine
 10
44.99999999995498
 20
6.245584797645336
 30
0.0
 11
43.57899999995641
 21
7.666584797643908
 31
0.0
  0
LINE
  5
11B73
330
11B36
100
AcDbEntity
  8
0
  6
CONTINUOUS
100
AcDbLine
 10
44.99999999995498
 20
6.919104006725522
 30
0.0
 11
43.57899999995641
 21
8.340104006724093
 31
0.0
  0
LINE
  5
11B74
330
11B36
100
AcDbEntity
  8
0
  6
CONTINUOUS
100
AcDbLine
 10
44.99999999995498
 20
7.592623215805709
 30
0.0
 11
43.82952321576943
 21
8.763099999991255
 31
0.0
  0
LINE
  5
11B75
330
11B36
100
AcDbEntity
  8
0
  6
CONTINUOUS
100
AcDbLine
 10
44.99999999995498
 20
8.266142424885896
 30
0.0
 11
44.50304242484962
 21
8.763099999991255
 31
0.0
  0
ENDBLK
  5
11B9F
330
11B36
100
AcDbEntity
  8
0
100
AcDbBlockEnd
  0
BLOCK
  5
11BA0
330
11B76
100
AcDbEntity
  8
0
100
AcDbBlockBegin
  2
*X264
 70
     1
 10
0.0
 20
0.0
 30
0.0
  3
*X264
  1

  0
LINE
  5
11B77
330
11B76
100
AcDbEntity
  8
0
  6
CONTINUOUS
100
AcDbLine
 10
0.0
 20
8.548461116714023
 30
0.0
 11
0.2146388832772324
 21
8.763099999991255
 31
0.0
  0
LINE
  5
11B78
330
11B76
100
AcDbEntity
  8
0
  6
CONTINUOUS
100
AcDbLine
 10
-0.0000000000000002
 20
7.874941907633837
 30
0.0
 11
0.8881580923574184
 21
8.763099999991255
 31
0.0
  0
LINE
  5
11B79
330
11B76
100
AcDbEntity
  8
0
  6
CONTINUOUS
100
AcDbLine
 10
0.0
 20
7.20142269855365
 30
0.0
 11
1.420999999998572
 21
8.622422698552223
 31
0.0
  0
LINE
  5
11B7A
330
11B76
100
AcDbEntity
  8
0
  6
CONTINUOUS
100
AcDbLine
 10
-0.0000000000000001
 20
6.527903489473465
 30
0.0
 11
1.420999999998571
 21
7.948903489472036
 31
0.0
  0
LINE
  5
11B7B
330
11B76
100
AcDbEntity
  8
0
  6
CONTINUOUS
100
AcDbLine
 10
-0.0000000000000002
 20
5.854384280393278
 30
0.0
 11
1.420999999998571
 21
7.275384280391849
 31
0.0
  0
LINE
  5
11B7C
330
11B76
100
AcDbEntity
  8
0
  6
CONTINUOUS
100
AcDbLine
 10
-0.0000000000000002
 20
5.180865071313091
 30
0.0
 11
1.420999999998571
 21
6.601865071311663
 31
0.0
  0
LINE
  5
11B7D
330
11B76
100
AcDbEntity
  8
0
  6
CONTINUOUS
100
AcDbLine
 10
0.0
 20
4.507345862232905
 30
0.0
 11
1.420999999998571
 21
5.928345862231477
 31
0.0
  0
LINE
  5
11B7E
330
11B76
100
AcDbEntity
  8
0
  6
CONTINUOUS
100
AcDbLine
 10
-0.0000000000000003
 20
3.833826653152718
 30
0.0
 11
1.420999999998571
 21
5.25482665315129
 31
0.0
  0
LINE
  5
11B7F
330
11B76
100
AcDbEntity
  8
0
  6
CONTINUOUS
100
AcDbLine
 10
-0.0000000000000002
 20
3.160307444072532
 30
0.0
 11
1.420999999998571
 21
4.581307444071103
 31
0.0
  0
LINE
  5
11B80
330
11B76
100
AcDbEntity
  8
0
  6
CONTINUOUS
100
AcDbLine
 10
-0.0000000000000001
 20
2.486788234992345
 30
0.0
 11
1.420999999998571
 21
3.907788234990917
 31
0.0
  0
LINE
  5
11B81
330
11B76
100
AcDbEntity
  8
0
  6
CONTINUOUS
100
AcDbLine
 10
-0.0000000000000006
 20
1.813269025912159
 30
0.0
 11
1.420999999998571
 21
3.234269025910731
 31
0.0
  0
LINE
  5
11B82
330
11B76
100
AcDbEntity
  8
0
  6
CONTINUOUS
100
AcDbLine
 10
0.0
 20
1.139749816831973
 30
0.0
 11
1.420999999998571
 21
2.560749816830544
 31
0.0
  0
LINE
  5
11B83
330
11B76
100
AcDbEntity
  8
0
  6
CONTINUOUS
100
AcDbLine
 10
0.0000000000000002
 20
0.466230607751787
 30
0.0
 11
1.420999999998571
 21
1.887230607750358
 31
0.0
  0
LINE
  5
11B84
330
11B76
100
AcDbEntity
  8
0
  6
CONTINUOUS
100
AcDbLine
 10
0.2072886013284003
 20
-0.0000000000000009
 30
0.0
 11
1.420999999998571
 21
1.213711398670171
 31
0.0
  0
LINE
  5
11B85
330
11B76
100
AcDbEntity
  8
0
  6
CONTINUOUS
100
AcDbLine
 10
0.8808078104085864
 20
-0.0000000000000009
 30
0.0
 11
1.420999999998571
 21
0.5401921895899839
 31
0.0
  0
LINE
  5
11B86
330
11B76
100
AcDbEntity
  8
0
  6
CONTINUOUS
100
AcDbLine
 10
0.0581249075061505
 20
-0.0000000000000009
 30
0.0
 11
-0.0000000000000002
 21
0.0581249075061496
 31
0.0
  0
LINE
  5
11B87
330
11B76
100
AcDbEntity
  8
0
  6
CONTINUOUS
100
AcDbLine
 10
0.7316441165863372
 20
-0.0000000000000009
 30
0.0
 11
-0.0000000000000002
 21
0.7316441165863363
 31
0.0
  0
LINE
  5
11B88
330
11B76
100
AcDbEntity
  8
0
  6
CONTINUOUS
100
AcDbLine
 10
1.405163325666523
 20
-0.0000000000000009
 30
0.0
 11
-0.0000000000000002
 21
1.405163325666523
 31
0.0
  0
LINE
  5
11B89
330
11B76
100
AcDbEntity
  8
0
  6
CONTINUOUS
100
AcDbLine
 10
1.420999999998572
 20
0.6576825347481381
 30
0.0
 11
-0.0000000000000001
 21
2.07868253474671
 31
0.0
  0
LINE
  5
11B8A
330
11B76
100
AcDbEntity
  8
0
  6
CONTINUOUS
100
AcDbLine
 10
1.420999999998571
 20
1.331201743828324
 30
0.0
 11
-0.0000000000000001
 21
2.752201743826896
 31
0.0
  0
LINE
  5
11B8B
330
11B76
100
AcDbEntity
  8
0
  6
CONTINUOUS
100
AcDbLine
 10
1.420999999998571
 20
2.004720952908511
 30
0.0
 11
-0.0000000000000002
 21
3.425720952907082
 31
0.0
  0
LINE
  5
11B8C
330
11B76
100
AcDbEntity
  8
0
  6
CONTINUOUS
100
AcDbLine
 10
1.420999999998571
 20
2.678240161988697
 30
0.0
 11
-0.0000000000000001
 21
4.099240161987269
 31
0.0
  0
LINE
  5
11B8D
330
11B76
100
AcDbEntity
  8
0
  6
CONTINUOUS
100
AcDbLine
 10
1.420999999998572
 20
3.351759371068884
 30
0.0
 11
0.0
 21
4.772759371067455
 31
0.0
  0
LINE
  5
11B8E
330
11B76
100
AcDbEntity
  8
0
  6
CONTINUOUS
100
AcDbLine
 10
1.420999999998571
 20
4.02527858014907
 30
0.0
 11
-0.0000000000000003
 21
5.446278580147642
 31
0.0
  0
LINE
  5
11B8F
330
11B76
100
AcDbEntity
  8
0
  6
CONTINUOUS
100
AcDbLine
 10
1.420999999998571
 20
4.698797789229257
 30
0.0
 11
0.0
 21
6.119797789227828
 31
0.0
  0
LINE
  5
11B90
330
11B76
100
AcDbEntity
  8
0
  6
CONTINUOUS
100
AcDbLine
 10
1.420999999998571
 20
5.372316998309444
 30
0.0
 11
-0.0000000000000001
 21
6.793316998308015
 31
0.0
  0
LINE
  5
11B91
330
11B76
100
AcDbEntity
  8
0
  6
CONTINUOUS
100
AcDbLine
 10
1.420999999998572
 20
6.045836207389629
 30
0.0
 11
-0.0000000000000004
 21
7.466836207388202
 31
0.0
  0
LINE
  5
11B92
330
11B76
100
AcDbEntity
  8
0
  6
CONTINUOUS
100
AcDbLine
 10
1.420999999998571
 20
6.719355416469816
 30
0.0
 11
0.0
 21
8.140355416468388
 31
0.0
  0
LINE
  5
11B93
330
11B76
100
AcDbEntity
  8
0
  6
CONTINUOUS
100
AcDbLine
 10
1.420999999998571
 20
7.392874625550003
 30
0.0
 11
0.0507746255573185
 21
8.763099999991255
 31
0.0
  0
LINE
  5
11B94
330
11B76
100
AcDbEntity
  8
0
  6
CONTINUOUS
100
AcDbLine
 10
1.420999999998571
 20
8.06639383463019
 30
0.0
 11
0.7242938346375052
 21
8.763099999991255
 31
0.0
  0
LINE
  5
11B95
330
11B76
100
AcDbEntity
  8
0
  6
CONTINUOUS
100
AcDbLine
 10
1.420999999998571
 20
8.739913043710375
 30
0.0
 11
1.397813043717691
 21
8.763099999991255
 31
0.0
  0
ENDBLK
  5
11BA1
330
11B76
100
AcDbEntity
  8
0
100
AcDbBlockEnd
  0
ENDSEC
  0
SECTION
  2
ENTITIES
  0
LINE
  5
FA50
330
18
100
AcDbEntity
  8
01
100
AcDbLine
 10
3655.126571855349
 20
-2224.553999325955
 30
0.0000000000563712
 11
3681.126571855349
 21
-2224.553999325955
 31
0.0000000000563712
  0
LINE
  5
FA51
330
18
100
AcDbEntity
  8
01
100
AcDbLine
 10
3690.626571855349
 20
-2219.053999325955
 30
0.0000000000563712
 11
3645.626571855349
 21
-2219.053999325955
 31
0.0000000000563712
  0
LINE
  5
FA52
330
18
100
AcDbEntity
  8
01
100
AcDbLine
 10
3668.126571855349
 20
-2196.553999325955
 30
0.0000000000563712
 11
3668.126571855349
 21
-2241.553999325955
 31
0.0000000000563712
  0
LINE
  5
FB8D
330
18
100
AcDbEntity
  8
1CENTER
100
AcDbLine
 10
4008.1265878202
 20
-1959.21736866435
 30
0.0000000000563712
 11
4008.1265878202
 21
-2003.504112378472
 31
0.0000000000563712
  0
LINE
  5
FB8E
330
18
100
AcDbEntity
  8
01
100
AcDbLine
 10
3988.626575598993
 20
-1978.253999326984
 30
0.0000000000563712
 11
4027.626575598993
 21
-1978.253999326984
 31
0.0000000000563712
  0
LINE
  5
FB8F
330
18
100
AcDbEntity
  8
01
100
AcDbLine
 10
4028.126575598993
 20
-1984.553999326984
 30
0.0000000000563712
 11
3988.126575598993
 21
-1984.553999326984
 31
0.0000000000563712
  0
LINE
  5
FB90
330
18
100
AcDbEntity
  8
01
100
AcDbLine
 10
4028.126575598993
 20
-1984.553999326984
 30
0.0000000000563712
 11
4028.126575598993
 21
-1978.753999326984
 31
0.0000000000563712
  0
ARC
  5
FB91
330
18
100
AcDbEntity
  8
01
100
AcDbCircle
 10
4027.626575598993
 20
-1978.753999326984
 30
0.0000000000563712
 40
0.5
100
AcDbArc
 50
0.0
 51
90.0
  0
LINE
  5
FB92
330
18
100
AcDbEntity
  8
01
100
AcDbLine
 10
3988.126575598993
 20
-1984.553999326984
 30
0.0000000000563712
 11
3988.126575598993
 21
-1978.753999326984
 31
0.0000000000563712
  0
ARC
  5
FB93
330
18
100
AcDbEntity
  8
01
100
AcDbCircle
 10
3988.626575598993
 20
-1978.753999326984
 30
0.0000000000563712
 40
0.5
100
AcDbArc
 50
90.0
 51
180.0
  0
LINE
  5
FB94
330
18
100
AcDbEntity
  8
01
100
AcDbLine
 10
4004.626587820206
 20
-1977.054002660184
 30
0.0000000000563885
 11
3998.8765878202
 21
-1977.054002660183
 31
0.0000000000563885
  0
LINE
  5
FB95
330
18
100
AcDbEntity
  8
01
100
AcDbLine
 10
4005.626587820208
 20
-1963.553979715977
 30
0.0000000000563885
 11
4005.626587820206
 21
-1976.054002660184
 31
0.0000000000563885
  0
LINE
  5
FB96
330
18
100
AcDbEntity
  8
01
100
AcDbLine
 10
4010.626587820208
 20
-1963.553979715979
 30
0.0000000000563885
 11
4010.626587820208
 21
-1976.054002660182
 31
0.0000000000563885
  0
ARC
  5
FB97
330
18
100
AcDbEntity
  8
01
100
AcDbCircle
 10
4009.626587820208
 20
-1963.553979715977
 30
0.0000000000563885
 40
1.0
100
AcDbArc
 50
0.0000000000521102
 51
90.0
  0
ARC
  5
FB98
330
18
100
AcDbEntity
  8
01
100
AcDbCircle
 10
4006.626587820208
 20
-1963.553979715977
 30
0.0000000000563885
 40
1.0
100
AcDbArc
 50
90.0
 51
180.0
  0
LINE
  5
FB99
330
18
100
AcDbEntity
  8
01
100
AcDbLine
 10
4009.626587820208
 20
-1962.553979715976
 30
0.0000000000563885
 11
4006.626587820209
 21
-1962.553979715976
 31
0.0000000000563885
  0
LINE
  5
FB9A
330
18
100
AcDbEntity
  8
01
100
AcDbLine
 10
4017.376587820199
 20
-1977.054002660182
 30
0.0000000000563885
 11
4011.626587820208
 21
-1977.054002660182
 31
0.0000000000563885
  0
ARC
  5
FB9B
330
18
100
AcDbEntity
  8
01
100
AcDbCircle
 10
4011.626587820208
 20
-1976.054002660182
 30
0.0000000000563885
 40
1.0
100
AcDbArc
 50
180.0
 51
270.0
  0
ARC
  5
FB9C
330
18
100
AcDbEntity
  8
01
100
AcDbCircle
 10
4004.626587820207
 20
-1976.054002660184
 30
0.0000000000563885
 40
1.0
100
AcDbArc
 50
270.0
 51
0.0
  0
LINE
  5
FB9D
330
18
100
AcDbEntity
  8
01
100
AcDbLine
 10
3998.3765878202
 20
-1977.554002660183
 30
0.000000000112646
 11
3998.3765878202
 21
-1978.253999326984
 31
0.0000000001126239
  0
ARC
  5
FB9E
330
18
100
AcDbEntity
  8
01
100
AcDbCircle
 10
3998.8765878202
 20
-1977.554002660183
 30
0.000000000112646
 40
0.5
100
AcDbArc
 50
90.0
 51
180.0
  0
LINE
  5
FB9F
330
18
100
AcDbEntity
  8
01
100
AcDbLine
 10
4017.8765878202
 20
-1977.554002660183
 30
0.000000000112646
 11
4017.8765878202
 21
-1978.253999326984
 31
0.0000000001126239
  0
ARC
  5
FBA0
330
18
100
AcDbEntity
  8
01
100
AcDbCircle
 10
4017.376587820199
 20
-1977.554002660183
 30
0.000000000112646
 40
0.5
100
AcDbArc
 50
0.0
 51
90.0
  0
LINE
  5
FBA1
330
18
100
AcDbEntity
  8
1CENTER
100
AcDbLine
 10
4008.12656324558
 20
-2033.378615715038
 30
0.0000000000563712
 11
4008.12656324558
 21
-2021.378615715038
 31
0.0000000000563712
  0
LINE
  5
FBA2
330
18
100
AcDbEntity
  8
01
100
AcDbLine
 10
4027.626575466787
 20
-2030.853999326987
 30
0.0000000000563712
 11
3988.626575466787
 21
-2030.853999326982
 31
0.0000000000563712
  0
LINE
  5
FBA3
330
18
100
AcDbEntity
  8
01
100
AcDbLine
 10
3988.126575466787
 20
-2024.553999326981
 30
0.0000000000563712
 11
4028.126575466787
 21
-2024.553999326987
 31
0.0000000000563712
  0
LINE
  5
FBA4
330
18
100
AcDbEntity
  8
01
100
AcDbLine
 10
3988.126575466787
 20
-2024.553999326981
 30
0.0000000000563712
 11
3988.126575466787
 21
-2030.353999326981
 31
0.0000000000563712
  0
ARC
  5
FBA5
330
18
100
AcDbEntity
  8
01
100
AcDbCircle
 10
3988.626575466787
 20
-2030.353999326981
 30
0.0000000000563712
 40
0.5
100
AcDbArc
 50
179.9999999999739
 51
270.0
  0
LINE
  5
FBA6
330
18
100
AcDbEntity
  8
01
100
AcDbLine
 10
4028.126575466787
 20
-2024.553999326987
 30
0.0000000000563712
 11
4028.126575466787
 21
-2030.353999326987
 31
0.0000000000563712
  0
ARC
  5
FBA7
330
18
100
AcDbEntity
  8
01
100
AcDbCircle
 10
4027.626575466787
 20
-2030.353999326987
 30
0.0000000000563712
 40
0.5
100
AcDbArc
 50
270.0
 51
0.0
  0
ARC
  5
FBA8
330
18
100
AcDbEntity
  8
01
100
AcDbCircle
 10
4008.126565924641
 20
-2026.704004704859
 30
0.0000000000562575
 40
6.0
100
AcDbArc
 50
234.3146659999939
 51
256.8165180000159
  0
LINE
  5
FBA9
330
18
100
AcDbEntity
  8
01
100
AcDbLine
 10
4004.626565924641
 20
-2031.577404704859
 30
0.0000000000562575
 11
4004.626565924641
 21
-2030.853999326984
 31
0.0000000000562575
  0
LINE
  5
FBAA
330
18
100
AcDbEntity
  8
01
100
AcDbLine
 10
4011.626565924641
 20
-2031.577404704859
 30
0.0000000000562575
 11
4011.626565924641
 21
-2030.853999326985
 31
0.0000000000562575
  0
LINE
  5
FBAB
330
18
100
AcDbEntity
  8
01
100
AcDbLine
 10
4009.126565924641
 20
-2032.254553164262
 30
0.0000000000562575
 11
4009.126565924641
 21
-2030.853999326984
 31
0.0000000000562575
  0
ARC
  5
FBAC
330
18
100
AcDbEntity
  8
01
100
AcDbCircle
 10
4006.826562924642
 20
-2032.253774704859
 30
0.0000000000562575
 40
0.30000001
100
AcDbArc
 50
256.8165179999339
 51
0.0
  0
ARC
  5
FBAD
330
18
100
AcDbEntity
  8
01
100
AcDbCircle
 10
4009.426564924642
 20
-2032.253774704859
 30
0.0000000000562575
 40
0.30000001
100
AcDbArc
 50
179.9999969999632
 51
283.1834799999914
  0
LINE
  5
FBAE
330
18
100
AcDbEntity
  8
01
100
AcDbLine
 10
4007.126565924641
 20
-2032.253774704859
 30
0.0000000000562575
 11
4007.126565924641
 21
-2030.853999326984
 31
0.0000000000562575
  0
ARC
  5
FBAF
330
18
100
AcDbEntity
  8
01
100
AcDbCircle
 10
4008.126565924641
 20
-2026.704004704859
 30
0.0000000000562575
 40
6.0
100
AcDbArc
 50
283.1834825033774
 51
305.685329999995
  0
LINE
  5
FBB0
330
18
100
AcDbEntity
  8
1CENTER
100
AcDbLine
 10
3668.126571855349
 20
-2230.553999325955
 30
0.0000000000563712
 11
3668.126571855349
 21
-2218.553999325955
 31
0.0000000000563712
  0
LINE
  5
FBB1
330
18
100
AcDbEntity
  8
01
100
AcDbLine
 10
3687.626571855347
 20
-2199.053999325955
 30
0.0000000000563712
 11
3648.626571855347
 21
-2199.053999325955
 31
0.0000000000563712
  0
ARC
  5
FBB2
330
18
100
AcDbEntity
  8
01
100
AcDbCircle
 10
3648.626571855347
 20
-2199.553999325955
 30
0.0000000000563712
 40
0.5
100
AcDbArc
 50
90.0
 51
180.0
  0
LINE
  5
FBB3
330
18
100
AcDbEntity
  8
01
100
AcDbLine
 10
3687.626571855347
 20
-2239.053999325955
 30
0.0000000000563712
 11
3648.626571855347
 21
-2239.053999325956
 31
0.0000000000563712
  0
ARC
  5
FBB4
330
18
100
AcDbEntity
  8
01
100
AcDbCircle
 10
3687.626571855347
 20
-2238.553999325955
 30
0.0000000000563712
 40
0.5
100
AcDbArc
 50
270.0
 51
0.0
  0
LINE
  5
FBB5
330
18
100
AcDbEntity
  8
01
100
AcDbLine
 10
3688.126571855347
 20
-2238.553999325955
 30
0.0000000000563712
 11
3688.126571855347
 21
-2199.553999325955
 31
0.0000000000563712
  0
ARC
  5
FBB6
330
18
100
AcDbEntity
  8
01
100
AcDbCircle
 10
3687.626571855347
 20
-2199.553999325955
 30
0.0000000000563712
 40
0.5
100
AcDbArc
 50
0.0
 51
90.0
  0
LINE
  5
FBB7
330
18
100
AcDbEntity
  8
01
100
AcDbLine
 10
3648.126571855347
 20
-2238.553999325956
 30
0.0000000000563712
 11
3648.126571855347
 21
-2199.553999325955
 31
0.0000000000563712
  0
ARC
  5
FBB8
330
18
100
AcDbEntity
  8
01
100
AcDbCircle
 10
3648.626571855347
 20
-2238.553999325956
 30
0.0000000000563712
 40
0.5
100
AcDbArc
 50
180.0
 51
270.0
  0
ARC
  5
FBB9
330
18
100
AcDbEntity
  8
01
100
AcDbCircle
 10
3670.126571855349
 20
-2215.522803391861
 30
0.0000000000563712
 40
0.5000000000000013
100
AcDbArc
 50
0.0
 51
77.51311018581228
  0
ARC
  5
FBBA
330
18
100
AcDbEntity
  8
01
100
AcDbCircle
 10
3666.126571855349
 20
-2233.58519526005
 30
0.0000000000563712
 40
0.5000000000000029
100
AcDbArc
 50
180.0
 51
257.5131101858632
  0
ARC
  5
FBBB
330
18
100
AcDbEntity
  8
01
100
AcDbCircle
 10
3670.126571855349
 20
-2233.58519526005
 30
0.0000000000563712
 40
0.5000000000000013
100
AcDbArc
 50
282.4868898141877
 51
0.0
  0
ARC
  5
FBBC
330
18
100
AcDbEntity
  8
01
100
AcDbCircle
 10
3668.126571855349
 20
-2224.553999325955
 30
0.0000000000563712
 40
9.749999999999995
100
AcDbArc
 50
77.51311018583772
 51
102.4868898141623
  0
ARC
  5
FBBD
330
18
100
AcDbEntity
  8
01
100
AcDbCircle
 10
3666.126571855349
 20
-2215.522803391861
 30
0.0000000000563712
 40
0.5000000000000029
100
AcDbArc
 50
102.4868898141368
 51
180.0
  0
ARC
  5
FBBE
330
18
100
AcDbEntity
  8
01
100
AcDbCircle
 10
3668.126571855349
 20
-2224.553999325955
 30
0.0000000000563712
 40
9.75
100
AcDbArc
 50
257.5131101858377
 51
282.4868898141623
  0
LINE
  5
FBBF
330
18
100
AcDbEntity
  8
01
100
AcDbLine
 10
3670.626571855349
 20
-2215.522803391861
 30
0.0000000000563712
 11
3670.626571855349
 21
-2233.58519526005
 31
0.0000000000563712
  0
LINE
  5
FBC0
330
18
100
AcDbEntity
  8
01
100
AcDbLine
 10
3665.626571855349
 20
-2233.58519526005
 30
0.0000000000563712
 11
3665.626571855349
 21
-2215.522803391861
 31
0.0000000000563712
  0
SPLINE
  5
FBC1
330
18
100
AcDbEntity
  8
01
100
AcDbSpline
210
0.0
220
0.0
230
1.0
 70
     8
 71
     3
 72
    18
 73
    14
 74
     0
 42
0.0000000001
 43
0.0000000001
 40
0.0
 40
0.0
 40
0.0
 40
0.0
 40
0.2500000000000002
 40
0.2500000000000002
 40
0.375
 40
0.375
 40
0.4999999999999998
 40
0.4999999999999998
 40
0.6249999999999996
 40
0.6249999999999996
 40
0.7499999999999993
 40
0.7499999999999993
 40
1.0
 40
1.0
 40
1.0
 40
1.0
 10
3671.815761044538
 20
-2233.579096728553
 30
0.0000000000563712
 10
3671.622499987262
 20
-2233.658096053589
 30
0.0000000000563712
 10
3671.430178375535
 20
-2233.729363588159
 30
0.0000000000563712
 10
3671.150852917075
 20
-2233.823620699332
 30
0.0000000000563712
 10
3671.061359774567
 20
-2233.85225392452
 30
0.0000000000563712
 10
3670.890082566775
 20
-2233.904589000321
 30
0.0000000000563712
 10
3670.807433153605
 20
-2233.928521165241
 30
0.0000000000563712
 10
3670.655960014165
 20
-2233.970520581588
 30
0.0000000000563712
 10
3670.587288443208
 20
-2233.988582449148
 30
0.0000000000563712
 10
3670.464920468948
 20
-2234.019653587308
 30
0.0000000000563712
 10
3670.411080232332
 20
-2234.032685119915
 30
0.0000000000563712
 10
3670.281725945101
 20
-2234.063240224676
 30
0.0000000000563712
 10
3670.234679963457
 20
-2234.073368013244
 30
0.0000000000563712
 10
3670.234679963457
 20
-2234.073368013244
 30
0.0000000000563712
  0
SPLINE
  5
FBC2
330
18
100
AcDbEntity
  8
01
100
AcDbSpline
210
0.0
220
0.0
230
1.0
 70
     8
 71
     3
 72
    18
 73
    14
 74
     0
 42
0.0000000001
 43
0.0000000001
 40
0.0
 40
0.0
 40
0.0
 40
0.0
 40
0.2500000000000002
 40
0.2500000000000002
 40
0.3750000000000002
 40
0.3750000000000002
 40
0.5000000000000002
 40
0.5000000000000002
 40
0.6250000000000002
 40
0.6250000000000002
 40
0.7500000000000001
 40
0.7500000000000001
 40
1.0
 40
1.0
 40
1.0
 40
1.0
 10
3664.43738266616
 20
-2215.528901923358
 30
0.0000000000563712
 10
3664.630643723437
 20
-2215.449902598321
 30
0.0000000000563712
 10
3664.822965335164
 20
-2215.378635063752
 30
0.0000000000563712
 10
3665.102290793624
 20
-2215.284377952578
 30
0.0000000000563712
 10
3665.191783936132
 20
-2215.25574472739
 30
0.0000000000563712
 10
3665.363061143923
 20
-2215.20340965159
 30
0.0000000000563712
 10
3665.445710557093
 20
-2215.179477486669
 30
0.0000000000563712
 10
3665.597183696534
 20
-2215.137478070323
 30
0.0000000000563712
 10
3665.66585526749
 20
-2215.119416202763
 30
0.0000000000563712
 10
3665.788223241751
 20
-2215.088345064602
 30
0.0000000000563712
 10
3665.842063478367
 20
-2215.075313531996
 30
0.0000000000563712
 10
3665.971417765598
 20
-2215.044758427235
 30
0.0000000000563712
 10
3666.018463747241
 20
-2215.034630638667
 30
0.0000000000563712
 10
3666.018463747241
 20
-2215.034630638667
 30
0.0000000000563712
  0
SPLINE
  5
FBC3
330
18
100
AcDbEntity
  8
01
100
AcDbSpline
210
0.0
220
0.0
230
1.0
 70
     8
 71
     3
 72
    16
 73
    12
 74
     0
 42
0.0000000001
 43
0.0000000001
 40
0.0
 40
0.0
 40
0.0
 40
0.0
 40
0.1249999999999998
 40
0.1249999999999998
 40
0.2499999999999997
 40
0.2499999999999997
 40
0.4999999999999998
 40
0.4999999999999998
 40
0.7499999999999999
 40
0.7499999999999999
 40
1.0
 40
1.0
 40
1.0
 40
1.0
 10
3666.018463747241
 20
-2234.073368013244
 30
0.0000000000563712
 10
3666.018463747241
 20
-2234.073368013244
 30
0.0000000000563712
 10
3666.007048225114
 20
-2234.070860057253
 30
0.0000000000563712
 10
3665.962615168773
 20
-2234.060855276093
 30
0.0000000000563712
 10
3665.92891956822
 20
-2234.053198611043
 30
0.0000000000563712
 10
3665.799572246759
 20
-2234.02265410651
 30
0.0000000000563712
 10
3665.673116366452
 20
-2233.991553952734
 30
0.0000000000563712
 10
3665.372170165456
 20
-2233.908150944362
 30
0.0000000000563712
 10
3665.195376730689
 20
-2233.85500201484
 30
0.0000000000563712
 10
3664.825680458686
 20
-2233.730309688236
 30
0.0000000000563712
 10
3664.630609300451
 20
-2233.658081982505
 30
0.0000000000563712
 10
3664.43738266616
 20
-2233.579096728553
 30
0.0000000000563712
  0
SPLINE
  5
FBC4
330
18
100
AcDbEntity
  8
01
100
AcDbSpline
210
0.0
220
0.0
230
1.0
 70
     8
 71
     3
 72
    16
 73
    12
 74
     0
 42
0.0000000001
 43
0.0000000001
 40
0.0
 40
0.0
 40
0.0
 40
0.0
 40
0.1249999999999997
 40
0.1249999999999997
 40
0.2499999999999993
 40
0.2499999999999993
 40
0.4999999999999996
 40
0.4999999999999996
 40
0.7499999999999998
 40
0.7499999999999998
 40
1.0
 40
1.0
 40
1.0
 40
1.0
 10
3670.234679963457
 20
-2215.034630638667
 30
0.0000000000563712
 10
3670.234679963457
 20
-2215.034630638667
 30
0.0000000000563712
 10
3670.246095485584
 20
-2215.037138594658
 30
0.0000000000563712
 10
3670.290528541925
 20
-2215.047143375818
 30
0.0000000000563712
 10
3670.324224142478
 20
-2215.054800040868
 30
0.0000000000563712
 10
3670.45357146394
 20
-2215.0853445454
 30
0.0000000000563712
 10
3670.580027344247
 20
-2215.116444699177
 30
0.0000000000563712
 10
3670.880973545243
 20
-2215.199847707549
 30
0.0000000000563712
 10
3671.05776698001
 20
-2215.252996637071
 30
0.0000000000563712
 10
3671.427463252013
 20
-2215.377688963675
 30
0.0000000000563712
 10
3671.622534410248
 20
-2215.449916669406
 30
0.0000000000563712
 10
3671.815761044538
 20
-2215.528901923358
 30
0.0000000000563712
  0
ARC
  5
FBC5
330
18
100
AcDbEntity
  8
01
100
AcDbCircle
 10
3668.126571855349
 20
-2224.553999325955
 30
0.0000000000563712
 40
9.750000000000005
100
AcDbArc
 50
112.2332717982963
 51
247.7667282017037
  0
ARC
  5
FBC6
330
18
100
AcDbEntity
  8
01
100
AcDbCircle
 10
3668.126571855349
 20
-2224.553999325955
 30
0.0000000000563712
 40
9.750000000000009
100
AcDbArc
 50
292.2332717982963
 51
67.7667282017037
  0
CIRCLE
  5
FBC7
330
18
100
AcDbEntity
  8
01
100
AcDbCircle
 10
3668.126571855349
 20
-2224.553999325955
 30
0.0000000000563712
 40
10.3
  0
LINE
  5
FBC8
330
18
100
AcDbEntity
  8
01
100
AcDbLine
 10
3864.426575855351
 20
-2238.553994461766
 30
0.0000000000563712
 11
3864.426575855351
 21
-2199.553994461766
 31
0.0000000000563712
  0
LINE
  5
FBC9
330
18
100
AcDbEntity
  8
01
100
AcDbLine
 10
3858.126575855351
 20
-2199.053994461766
 30
0.0000000000563712
 11
3858.126575855347
 21
-2239.053994461766
 31
0.0000000000563712
  0
LINE
  5
FBCA
330
18
100
AcDbEntity
  8
01
100
AcDbLine
 10
3858.126575855347
 20
-2239.053994461766
 30
0.0000000000563712
 11
3863.926575855351
 21
-2239.053994461766
 31
0.0000000000563712
  0
ARC
  5
FBCB
330
18
100
AcDbEntity
  8
01
100
AcDbCircle
 10
3863.926575855351
 20
-2238.553994461766
 30
0.0000000000563712
 40
0.5
100
AcDbArc
 50
270.0
 51
0.0
  0
LINE
  5
FBCC
330
18
100
AcDbEntity
  8
01
100
AcDbLine
 10
3858.126575855351
 20
-2199.053994461766
 30
0.0000000000563712
 11
3863.926575855351
 21
-2199.053994461766
 31
0.0000000000563712
  0
ARC
  5
FBCD
330
18
100
AcDbEntity
  8
01
100
AcDbCircle
 10
3863.926575855351
 20
-2199.553994461766
 30
0.0000000000563712
 40
0.5
100
AcDbArc
 50
0.0
 51
90.0
  0
LINE
  5
FBCE
330
18
100
AcDbEntity
  8
01
100
AcDbLine
 10
3811.826575855351
 20
-2238.553999325955
 30
0.0000000000563712
 11
3811.826575855351
 21
-2199.553999325956
 31
0.0000000000563712
  0
LINE
  5
FBCF
330
18
100
AcDbEntity
  8
01
100
AcDbLine
 10
3818.126575855351
 20
-2199.053999325955
 30
0.0000000000563712
 11
3818.126575855346
 21
-2239.053999325955
 31
0.0000000000563712
  0
LINE
  5
FBD0
330
18
100
AcDbEntity
  8
01
100
AcDbLine
 10
3818.126575855346
 20
-2239.053999325955
 30
0.0000000000563712
 11
3812.326575855351
 21
-2239.053999325955
 31
0.0000000000563712
  0
ARC
  5
FBD1
330
18
100
AcDbEntity
  8
01
100
AcDbCircle
 10
3812.326575855351
 20
-2238.553999325955
 30
0.0000000000563712
 40
0.5
100
AcDbArc
 50
180.0
 51
270.0
  0
LINE
  5
FBD2
330
18
100
AcDbEntity
  8
01
100
AcDbLine
 10
3818.126575855351
 20
-2199.053999325955
 30
0.0000000000563712
 11
3812.326575855351
 21
-2199.053999325956
 31
0.0000000000563712
  0
ARC
  5
FBD3
330
18
100
AcDbEntity
  8
01
100
AcDbCircle
 10
3812.326575855351
 20
-2199.553999325956
 30
0.0000000000563712
 40
0.5
100
AcDbArc
 50
90.0
 51
180.0
  0
SPLINE
  5
FBD4
330
18
100
AcDbEntity
  8
01
100
AcDbSpline
210
0.0
220
0.0
230
1.0
 70
    24
 71
     1
 72
     4
 73
     2
 74
     0
 42
0.0000000001
 43
0.0000000001
 40
0.1160848018737504
 40
0.1160848018737504
 40
1.0
 40
1.0
 10
3811.826575855351
 20
-2234.303999325963
 30
0.0000000000563712
 10
3797.126551044339
 20
-2234.303999325963
 30
0.0000000000563712
  0
SPLINE
  5
FBD5
330
18
100
AcDbEntity
  8
01
100
AcDbSpline
210
0.0
220
0.0
230
1.0
 70
    24
 71
     1
 72
     4
 73
     2
 74
     0
 42
0.0000000001
 43
0.0000000001
 40
0.0
 40
0.0
 40
0.8839151981262495
 40
0.8839151981262495
 10
3797.126551044339
 20
-2214.803999325963
 30
0.0000000000563712
 10
3811.826575855351
 20
-2214.803999325963
 30
0.0000000000563712
  0
ARC
  5
FBD6
330
18
100
AcDbEntity
  8
01
100
AcDbCircle
 10
3797.126551044339
 20
-2233.303999325963
 30
0.0000000000563712
 40
1.0
100
AcDbArc
 50
180.0
 51
270.0
  0
ARC
  5
FBD7
330
18
100
AcDbEntity
  8
01
100
AcDbCircle
 10
3797.126551044339
 20
-2215.803999325963
 30
0.0000000000563712
 40
1.0
100
AcDbArc
 50
90.0
 51
180.0
  0
LINE
  5
FBD8
330
18
100
AcDbEntity
  8
01
100
AcDbLine
 10
3810.626551044339
 20
-2215.991727431191
 30
0.0000000000563712
 11
3810.626551044339
 21
-2233.116271220734
 31
0.0000000000563712
  0
SPLINE
  5
FBD9
330
18
100
AcDbEntity
  8
01
100
AcDbSpline
210
0.0
220
0.0
230
1.0
 70
     8
 71
     3
 72
    14
 73
    10
 74
     0
 42
0.0000000001
 43
0.0000000001
 40
0.0
 40
0.0
 40
0.0
 40
0.0
 40
0.25
 40
0.25
 40
0.5
 40
0.5
 40
0.75
 40
0.75
 40
1.0
 40
1.0
 40
1.0
 40
1.0
 10
3809.626551044339
 20
-2215.522803391868
 30
0.0000000000563712
 10
3809.766518722092
 20
-2215.522803391868
 30
0.0000000000563712
 10
3809.904939996237
 20
-2215.532439347175
 30
0.0000000000563712
 10
3810.154990336192
 20
-2215.571520256117
 30
0.0000000000563712
 10
3810.267307899021
 20
-2215.601326390991
 30
0.0000000000563712
 10
3810.448355270108
 20
-2215.682246127774
 30
0.0000000000563712
 10
3810.516155906412
 20
-2215.732635663966
 30
0.0000000000563712
 10
3810.605774822955
 20
-2215.852005252981
 30
0.0000000000563712
 10
3810.626551044339
 20
-2215.918804703692
 30
0.0000000000563712
 10
3810.626551044339
 20
-2215.991727431191
 30
0.0000000000563712
  0
SPLINE
  5
FBDA
330
18
100
AcDbEntity
  8
01
100
AcDbSpline
210
0.0
220
0.0
230
1.0
 70
     8
 71
     3
 72
    14
 73
    10
 74
     0
 42
0.0000000001
 43
0.0000000001
 40
0.0
 40
0.0
 40
0.0
 40
0.0
 40
0.25
 40
0.25
 40
0.5
 40
0.5
 40
0.75
 40
0.75
 40
1.0
 40
1.0
 40
1.0
 40
1.0
 10
3810.626551044339
 20
-2233.116271220734
 30
0.0000000000563712
 10
3810.626551044339
 20
-2233.189187907869
 30
0.0000000000563712
 10
3810.605190637078
 20
-2233.25697260373
 30
0.0000000000563712
 10
3810.516051445402
 20
-2233.375299477693
 30
0.0000000000563712
 10
3810.447118815248
 20
-2233.426412332461
 30
0.0000000000563712
 10
3810.267071374881
 20
-2233.506669924615
 30
0.0000000000563712
 10
3810.154365701386
 20
-2233.536632744322
 30
0.0000000000563712
 10
3809.903795087767
 20
-2233.575681119856
 30
0.0000000000563712
 10
3809.766408938448
 20
-2233.585195260057
 30
0.0000000000563712
 10
3809.626551044339
 20
-2233.585195260057
 30
0.0000000000563712
  0
LINE
  5
FBDB
330
18
100
AcDbEntity
  8
01
100
AcDbLine
 10
3809.626551044339
 20
-2233.585195260057
 30
0.0000000000563712
 11
3797.126551044339
 21
-2233.585195260057
 31
0.0000000000563712
  0
LINE
  5
FBDC
330
18
100
AcDbEntity
  8
01
100
AcDbLine
 10
3797.126551044339
 20
-2215.522803391868
 30
0.0000000000563712
 11
3809.626551044339
 21
-2215.522803391868
 31
0.0000000000563712
  0
SPLINE
  5
FBDD
330
18
100
AcDbEntity
  8
01
100
AcDbSpline
210
0.0
220
0.0
230
1.0
 70
     8
 71
     3
 72
    14
 73
    10
 74
     0
 42
0.0000000001
 43
0.0000000001
 40
0.0
 40
0.0
 40
0.0
 40
0.0
 40
0.2500000000000001
 40
0.2500000000000001
 40
0.5000000000000002
 40
0.5000000000000002
 40
0.7500000000000003
 40
0.7500000000000003
 40
1.0
 40
1.0
 40
1.0
 40
1.0
 10
3797.126551044339
 20
-2215.522803391868
 30
0.0000000000563712
 10
3796.989342129411
 20
-2215.522803391868
 30
0.0000000000563712
 10
3796.854338583899
 20
-2215.534178201964
 30
0.0000000000563712
 10
3796.607002125246
 20
-2215.577133069284
 30
0.0000000000563712
 10
3796.496500695881
 20
-2215.608377396388
 30
0.0000000000563712
 10
3796.314307022353
 20
-2215.685562913779
 30
0.0000000000563712
 10
3796.245313919968
 20
-2215.729903529039
 30
0.0000000000563712
 10
3796.150546381482
 20
-2215.827885180417
 30
0.0000000000563712
 10
3796.126551044339
 20
-2215.880378603434
 30
0.0000000000563712
 10
3796.126551044339
 20
-2215.933529501179
 30
0.0000000000563712
  0
SPLINE
  5
FBDE
330
18
100
AcDbEntity
  8
01
100
AcDbSpline
210
0.0
220
0.0
230
1.0
 70
     8
 71
     3
 72
    14
 73
    10
 74
     0
 42
0.0000000001
 43
0.0000000001
 40
0.0
 40
0.0
 40
0.0
 40
0.0
 40
0.2500000000000001
 40
0.2500000000000001
 40
0.5000000000000002
 40
0.5000000000000002
 40
0.7500000000000003
 40
0.7500000000000003
 40
1.0
 40
1.0
 40
1.0
 40
1.0
 10
3797.126551044339
 20
-2233.585195260057
 30
0.0000000000563712
 10
3796.989342129411
 20
-2233.585195260057
 30
0.0000000000563712
 10
3796.854338583899
 20
-2233.573820449962
 30
0.0000000000563712
 10
3796.607002125246
 20
-2233.530865582641
 30
0.0000000000563712
 10
3796.496500695881
 20
-2233.499621255537
 30
0.0000000000563712
 10
3796.314307022353
 20
-2233.422435738145
 30
0.0000000000563712
 10
3796.245313919968
 20
-2233.378095122886
 30
0.0000000000563712
 10
3796.150546381482
 20
-2233.280113471508
 30
0.0000000000563712
 10
3796.126551044339
 20
-2233.227620048491
 30
0.0000000000563712
 10
3796.126551044339
 20
-2233.174469150746
 30
0.0000000000563712
  0
LINE
  5
FBDF
330
18
100
AcDbEntity
  8
01
100
AcDbLine
 10
3796.126551044339
 20
-2215.933529501179
 30
0.0000000000563712
 11
3796.126551044339
 21
-2233.174469150746
 31
0.0000000000563712
  0
LINE
  5
FBE0
330
18
100
AcDbEntity
  8
01
100
AcDbLine
 10
3796.126551044339
 20
-2233.174469150746
 30
0.0000000000563712
 11
3796.126551044339
 21
-2233.303999325963
 31
0.0000000000563712
  0
LINE
  5
FBE1
330
18
100
AcDbEntity
  8
01
100
AcDbLine
 10
3865.168559544311
 20
-2221.053998005017
 30
0.0000000001126251
 11
3864.42657585535
 21
-2221.053998005017
 31
0.0000000001126251
  0
LINE
  5
FBE2
330
18
100
AcDbEntity
  8
01
100
AcDbLine
 10
3865.168559544311
 20
-2228.053998005017
 30
0.0000000001126251
 11
3864.42657585535
 21
-2228.053998005017
 31
0.0000000001126251
  0
ARC
  5
FBE3
330
18
100
AcDbEntity
  8
01
100
AcDbCircle
 10
3860.295159544311
 20
-2224.553998005017
 30
0.0000000001126251
 40
6.0
100
AcDbArc
 50
324.314670000005
 51
35.68533471265611
  0
LINE
  5
FBE4
330
18
100
AcDbEntity
  8
1CENTER
100
AcDbLine
 10
4008.126467515607
 20
-2230.553998725955
 30
0.0000000000563712
 11
4008.126467515607
 21
-2218.553998725955
 31
0.0000000000563712
  0
LINE
  5
FBE5
330
18
100
AcDbEntity
  8
01
100
AcDbLine
 10
3988.626467515609
 20
-2199.053998521827
 30
0.0000000000563712
 11
4027.626467515608
 21
-2199.053998521827
 31
0.0000000000563712
  0
ARC
  5
FBE6
330
18
100
AcDbEntity
  8
01
100
AcDbCircle
 10
4027.626467515608
 20
-2199.553998521827
 30
0.0000000000563712
 40
0.5
100
AcDbArc
 50
0.0
 51
90.0
  0
LINE
  5
FBE7
330
18
100
AcDbEntity
  8
01
100
AcDbLine
 10
3988.626467515608
 20
-2239.053998521827
 30
0.0000000000563712
 11
4027.626467515608
 21
-2239.053998521828
 31
0.0000000000563712
  0
ARC
  5
FBE8
330
18
100
AcDbEntity
  8
01
100
AcDbCircle
 10
3988.626467515608
 20
-2238.553998521827
 30
0.0000000000563712
 40
0.5
100
AcDbArc
 50
180.0
 51
270.0
  0
LINE
  5
FBE9
330
18
100
AcDbEntity
  8
01
100
AcDbLine
 10
3988.126467515608
 20
-2238.553998521827
 30
0.0000000000563712
 11
3988.126467515609
 21
-2199.553998521827
 31
0.0000000000563712
  0
ARC
  5
FBEA
330
18
100
AcDbEntity
  8
01
100
AcDbCircle
 10
3988.626467515609
 20
-2199.553998521827
 30
0.0000000000563712
 40
0.5
100
AcDbArc
 50
90.0
 51
180.0
  0
LINE
  5
FBEB
330
18
100
AcDbEntity
  8
01
100
AcDbLine
 10
4028.126467515608
 20
-2238.553998521828
 30
0.0000000000563712
 11
4028.126467515608
 21
-2199.553998521827
 31
0.0000000000563712
  0
ARC
  5
FBEC
330
18
100
AcDbEntity
  8
01
100
AcDbCircle
 10
4027.626467515608
 20
-2238.553998521828
 30
0.0000000000563712
 40
0.5
100
AcDbArc
 50
270.0
 51
0.0
  0
CIRCLE
  5
FBED
330
18
100
AcDbEntity
  8
01
100
AcDbCircle
 10
4008.126467838066
 20
-2224.5539983177
 30
0.0000000000563712
 40
3.75
  0
CIRCLE
  5
FBEE
330
18
100
AcDbEntity
  8
01
100
AcDbCircle
 10
4008.126467838066
 20
-2224.553998521827
 30
0.0000000000563712
 40
3.5000005
  0
LINE
  5
FBEF
330
18
100
AcDbEntity
  8
01
100
AcDbLine
 10
4009.126467838066
 20
-2227.908101321827
 30
0.0000000000563712
 11
4009.126467838066
 21
-2221.199894521827
 31
0.0000000000563712
  0
LINE
  5
FBF0
330
18
100
AcDbEntity
  8
01
100
AcDbLine
 10
4007.126467838066
 20
-2227.908101321827
 30
0.0000000000563712
 11
4007.126467838066
 21
-2221.199894521827
 31
0.0000000000563712
  0
LINE
  5
FBF1
330
18
100
AcDbEntity
  8
01
100
AcDbLine
 10
3985.626467515607
 20
-2219.053999325955
 30
0.0000000000563712
 11
4030.626467515607
 21
-2219.053999325955
 31
0.0000000000563712
  0
LINE
  5
FBF2
330
18
100
AcDbEntity
  8
01
100
AcDbLine
 10
4008.126467515607
 20
-2196.553999325955
 30
0.0000000000563712
 11
4008.126467515607
 21
-2241.553999325955
 31
0.0000000000563712
  0
LINE
  5
10590
330
18
100
AcDbEntity
  8
01
100
AcDbLine
 10
3952.126459515604
 20
-2196.553999325956
 30
0.0000000000563712
 11
3966.126459515604
 21
-2196.553999325956
 31
0.0000000000563712
  0
LINE
  5
10591
330
18
100
AcDbEntity
  8
01
100
AcDbLine
 10
3957.127343697664
 20
-1984.553999326984
 30
0.0000000000563712
 11
4110.881723852697
 21
-1984.553999326984
 31
0.0000000000563712
  0
LINE
  5
10592
330
18
100
AcDbEntity
  8
01
  6
BYBLOCK
100
AcDbLine
 10
3957.127343697664
 20
-1984.553999326984
 30
0.0000000000563712
 11
3957.127343697664
 21
-2024.553999326984
 31
0.0000000000563712
  0
LINE
  5
10596
330
18
100
AcDbEntity
  8
01
100
AcDbLine
 10
4008.126575855349
 20
-1989.553999328013
 30
0.0000000000563712
 11
4008.126575855349
 21
-1958.635919138764
 31
0.0000000000563712
  0
LINE
  5
10597
330
18
100
AcDbEntity
  8
01
  6
BYBLOCK
100
AcDbLine
 10
3958.626459515604
 20
-2188.653999325956
 30
0.0000000000563712
 11
3958.626459515604
 21
-2318.453999325956
 31
0.0000000000563712
  0
LINE
  5
10598
330
18
100
AcDbEntity
  8
01
  6
BYBLOCK
100
AcDbLine
 10
3958.626459515604
 20
-2317.553999325956
 30
0.0000000000563712
 11
3961.126459515604
 21
-2317.553999325956
 31
0.0000000000563712
  0
LINE
  5
10599
330
18
100
AcDbEntity
  8
01
  6
BYBLOCK
100
AcDbLine
 10
3961.126459515604
 20
-2317.553999325956
 30
0.0000000000563712
 11
3961.126459515604
 21
-2301.051055600803
 31
0.0000000000563712
  0
LINE
  5
1059A
330
18
100
AcDbEntity
  8
01
  6
BYBLOCK
100
AcDbLine
 10
3957.126459515604
 20
-2188.653999325956
 30
0.0000000000563712
 11
3957.126459515604
 21
-2318.453999325956
 31
0.0000000000563712
  0
LINE
  5
1059B
330
18
100
AcDbEntity
  8
01
  6
BYBLOCK
100
AcDbLine
 10
3957.126459515604
 20
-2318.453999325956
 30
0.0000000000563712
 11
3958.626459515604
 21
-2318.453999325956
 31
0.0000000000563712
  0
LINE
  5
1059C
330
18
100
AcDbEntity
  8
01
  6
BYBLOCK
100
AcDbLine
 10
3958.626459515604
 20
-2189.553999325956
 30
0.0000000000563712
 11
3961.126459515604
 21
-2189.553999325956
 31
0.0000000000563712
  0
LINE
  5
1059D
330
18
100
AcDbEntity
  8
01
  6
BYBLOCK
100
AcDbLine
 10
3957.126459515604
 20
-2188.653999325956
 30
0.0000000000563712
 11
3958.626459515604
 21
-2188.653999325956
 31
0.0000000000563712
  0
LINE
  5
1059E
330
18
100
AcDbEntity
  8
01
  6
BYBLOCK
100
AcDbLine
 10
3958.626459515604
 20
-2213.553999325956
 30
0.0000000000563712
 11
3959.826459515604
 21
-2213.553999325956
 31
0.0000000000563712
  0
ARC
  5
1059F
330
18
100
AcDbEntity
  8
1HIDDEN
100
AcDbCircle
 10
4025.126459515604
 20
-2217.553999325956
 30
0.0000000000563712
 40
1.0
100
AcDbArc
 50
0.0
 51
90.0
  0
LINE
  5
105A0
330
18
100
AcDbEntity
  8
01
  6
BYBLOCK
100
AcDbLine
 10
3959.826459515604
 20
-2207.853999325956
 30
0.0000000000563712
 11
3959.826459515604
 21
-2299.253999325956
 31
0.0000000000563712
  0
LINE
  5
105A1
330
18
100
AcDbEntity
  8
01
  6
BYBLOCK
100
AcDbLine
 10
3959.926459515604
 20
-2317.553999325956
 30
0.0000000000563712
 11
3959.926459515604
 21
-2300.953999325956
 31
0.0000000000563712
  0
LINE
  5
105A2
330
18
100
AcDbEntity
  8
01
  6
BYBLOCK
100
AcDbLine
 10
3959.926459515604
 20
-2300.953999325956
 30
0.0000000000563712
 11
3958.97793137818
 21
-2300.005471188532
 31
0.0000000000563712
  0
LINE
  5
105A3
330
18
100
AcDbEntity
  8
01
  6
BYBLOCK
100
AcDbLine
 10
3960.774987653027
 20
-2300.20252746338
 30
0.0000000000563712
 11
3959.826459515604
 21
-2299.253999325956
 31
0.0000000000563712
  0
ARC
  5
105A4
330
18
100
AcDbEntity
  8
01
  6
BYBLOCK
100
AcDbCircle
 10
3959.926459515604
 20
-2301.051055600803
 30
0.0000000000563712
 40
1.2
100
AcDbArc
 50
0.0
 51
45.00000000003685
  0
ARC
  5
105A5
330
18
100
AcDbEntity
  8
01
  6
BYBLOCK
100
AcDbCircle
 10
3959.826459515604
 20
-2299.156943051108
 30
0.0000000000563712
 40
1.2
100
AcDbArc
 50
180.0
 51
225.0000000000369
  0
LINE
  5
105A6
330
18
100
AcDbEntity
  8
01
  6
BYBLOCK
100
AcDbLine
 10
3961.126459515604
 20
-2189.553999325956
 30
0.0000000000563712
 11
3961.126459515604
 21
-2206.056943051108
 31
0.0000000000563712
  0
LINE
  5
105A7
330
18
100
AcDbEntity
  8
01
  6
BYBLOCK
100
AcDbLine
 10
3959.926459515604
 20
-2189.553999325956
 30
0.0000000000563712
 11
3959.926459515604
 21
-2206.153999325956
 31
0.0000000000563712
  0
LINE
  5
105A8
330
18
100
AcDbEntity
  8
01
  6
BYBLOCK
100
AcDbLine
 10
3959.926459515604
 20
-2206.153999325956
 30
0.0000000000563712
 11
3958.97793137818
 21
-2207.102527463379
 31
0.0000000000563712
  0
LINE
  5
105A9
330
18
100
AcDbEntity
  8
01
  6
BYBLOCK
100
AcDbLine
 10
3960.774987653027
 20
-2206.905471188532
 30
0.0000000000563712
 11
3959.826459515604
 21
-2207.853999325956
 31
0.0000000000563712
  0
ARC
  5
105AA
330
18
100
AcDbEntity
  8
01
  6
BYBLOCK
100
AcDbCircle
 10
3959.926459515604
 20
-2206.056943051108
 30
0.0000000000563712
 40
1.2
100
AcDbArc
 50
314.9999999999632
 51
0.0
  0
ARC
  5
105AB
330
18
100
AcDbEntity
  8
01
  6
BYBLOCK
100
AcDbCircle
 10
3959.826459515604
 20
-2207.951055600804
 30
0.0000000000563712
 40
1.2
100
AcDbArc
 50
134.9999999999631
 51
180.0
  0
CIRCLE
  5
105AC
330
18
100
AcDbEntity
  8
1HIDDEN
100
AcDbCircle
 10
4008.126459515604
 20
-2224.553999325956
 30
0.0000000000563712
 40
4.75
  0
LINE
  5
105AD
330
18
100
AcDbEntity
  8
01
  6
BYBLOCK
100
AcDbLine
 10
3959.826459515604
 20
-2290.553999325956
 30
0.0000000000563712
 11
3981.626459515608
 21
-2290.553999325956
 31
0.0000000000563712
  0
ARC
  5
105AE
330
18
100
AcDbEntity
  8
01
  6
BYBLOCK
100
AcDbCircle
 10
3960.227343697664
 20
-2000.992748783985
 30
0.0000000000563712
 40
1.6
100
AcDbArc
 50
115.94447977199
 51
180.0
  0
ARC
  5
105AF
330
18
100
AcDbEntity
  8
01
  6
BYBLOCK
100
AcDbCircle
 10
3960.227343697664
 20
-2008.115249869984
 30
0.0000000000563712
 40
1.6
100
AcDbArc
 50
180.0
 51
244.05552022801
  0
ARC
  5
105B0
330
18
100
AcDbEntity
  8
01
  6
BYBLOCK
100
AcDbCircle
 10
3959.527343697664
 20
-2009.392748783984
 30
0.0000000000563712
 40
1.6
100
AcDbArc
 50
0.0
 51
64.05552022801001
  0
ARC
  5
105B1
330
18
100
AcDbEntity
  8
01
  6
BYBLOCK
100
AcDbCircle
 10
3959.527343697664
 20
-1999.715249869985
 30
0.0000000000563712
 40
1.6
100
AcDbArc
 50
295.94447977199
 51
0.0
  0
LINE
  5
105B2
330
18
100
AcDbEntity
  8
01
  6
BYBLOCK
100
AcDbLine
 10
3961.127343697664
 20
-1999.715249869985
 30
0.0000000000563712
 11
3961.127343697664
 21
-1992.353999326984
 31
0.0000000000563712
  0
LINE
  5
105B3
330
18
100
AcDbEntity
  8
01
  6
BYBLOCK
100
AcDbLine
 10
3960.227343697664
 20
-2007.953999326985
 30
0.0000000000563712
 11
3960.227343697664
 21
-2001.153999326984
 31
0.0000000000563712
  0
LINE
  5
105B4
330
18
100
AcDbEntity
  8
01
  6
BYBLOCK
100
AcDbLine
 10
3961.127343697664
 20
-2016.553999326984
 30
0.0000000000563712
 11
3961.127343697664
 21
-2009.392748783984
 31
0.0000000000563712
  0
LINE
  5
105B5
330
18
100
AcDbEntity
  8
01
  6
BYBLOCK
100
AcDbLine
 10
3959.527343697664
 20
-1999.553999326984
 30
0.0000000000563712
 11
3959.527343697664
 21
-1992.353999326984
 31
0.0000000000563712
  0
LINE
  5
105B6
330
18
100
AcDbEntity
  8
01
  6
BYBLOCK
100
AcDbLine
 10
3959.527343697664
 20
-2009.553999326984
 30
0.0000000000563712
 11
3959.527343697664
 21
-2016.653999326984
 31
0.0000000000563712
  0
ARC
  5
105B7
330
18
100
AcDbEntity
  8
01
  6
BYBLOCK
100
AcDbCircle
 10
4024.527343697664
 20
-1996.653999326984
 30
0.0000000000563712
 40
1.6
100
AcDbArc
 50
0.0
 51
90.0
  0
LINE
  5
105B8
330
18
100
AcDbEntity
  8
01
  6
BYBLOCK
100
AcDbLine
 10
3958.627343697664
 20
-1992.153999326984
 30
0.0000000000563712
 11
3958.627343697664
 21
-2016.953999326984
 31
0.0000000000563712
  0
LINE
  5
105B9
330
18
100
AcDbEntity
  8
01
  6
BYBLOCK
100
AcDbLine
 10
4024.527343697664
 20
-1995.053999326984
 30
0.0000000000563712
 11
3961.127343697664
 21
-1995.053999326984
 31
0.0000000000563712
  0
LINE
  5
105BA
330
18
100
AcDbEntity
  8
01
  6
BYBLOCK
100
AcDbLine
 10
4024.527343697664
 20
-2012.253999326985
 30
0.0000000000563712
 11
4024.527343697664
 21
-1995.053999326984
 31
0.0000000000563712
  0
LINE
  5
105BB
330
18
100
AcDbEntity
  8
01
  6
BYBLOCK
100
AcDbLine
 10
4026.127343697664
 20
-2013.853999326984
 30
0.0000000000563712
 11
4026.127343697664
 21
-1996.653999326984
 31
0.0000000000563712
  0
LINE
  5
105BC
330
18
100
AcDbEntity
  8
01
  6
BYBLOCK
100
AcDbLine
 10
3958.627343697664
 20
-1992.353999326984
 30
0.0000000000563712
 11
3961.127343697664
 21
-1992.353999326984
 31
0.0000000000563712
  0
LINE
  5
105BD
330
18
100
AcDbEntity
  8
01
  6
BYBLOCK
100
AcDbLine
 10
3961.127343697664
 20
-2016.553999326984
 30
0.0000000000563712
 11
3959.527343697664
 21
-2016.553999326984
 31
0.0000000000563712
  0
LINE
  5
105BE
330
18
100
AcDbEntity
  8
01
  6
BYBLOCK
100
AcDbLine
 10
3959.527343697664
 20
-2016.653999326984
 30
0.0000000000563712
 11
3958.627343697664
 21
-2016.653999326984
 31
0.0000000000563712
  0
ARC
  5
105BF
330
18
100
AcDbEntity
  8
01
  6
BYBLOCK
100
AcDbCircle
 10
3955.827938625063
 20
-2010.253999326984
 30
0.0000000000563712
 40
0.3000000000000051
100
AcDbArc
 50
232.8678058729467
 51
270.0
  0
LINE
  5
105C0
330
18
100
AcDbEntity
  8
01
  6
BYBLOCK
100
AcDbLine
 10
3956.627343697664
 20
-2010.553999326984
 30
0.0000000000563712
 11
3955.827938625063
 21
-2010.553999326984
 31
0.0000000000563712
  0
LINE
  5
105C1
330
18
100
AcDbEntity
  8
01
  6
BYBLOCK
100
AcDbLine
 10
3946.227343697664
 20
-2000.88101046078
 30
0.0000000000563712
 11
3946.227343697664
 21
-2001.051632516329
 31
0.0000000000563712
  0
ARC
  5
105C2
330
18
100
AcDbEntity
  8
01
  6
BYBLOCK
100
AcDbCircle
 10
3946.527343697664
 20
-2001.051632516329
 30
0.0000000000563712
 40
0.3
100
AcDbArc
 50
180.0
 51
217.7405295629562
  0
ARC
  5
105C3
330
18
100
AcDbEntity
  8
01
  6
BYBLOCK
100
AcDbCircle
 10
3985.829644296948
 20
-1970.630929572388
 30
0.0000000000563712
 40
50.00000000000002
100
AcDbArc
 50
217.7405295629927
 51
232.8678058729676
  0
LINE
  5
105C4
330
18
100
AcDbEntity
  8
01
  6
BYBLOCK
100
AcDbLine
 10
3946.027343697664
 20
-1999.753999326984
 30
0.0000000000563712
 11
3946.027343697664
 21
-1999.053999326984
 31
0.0000000000563712
  0
ARC
  5
105C5
330
18
100
AcDbEntity
  8
01
  6
BYBLOCK
100
AcDbCircle
 10
3946.527343697664
 20
-1999.053999326984
 30
0.0000000000563712
 40
0.5000000000000142
100
AcDbArc
 50
90.0
 51
180.0
  0
LINE
  5
105C6
330
18
100
AcDbEntity
  8
01
  6
BYBLOCK
100
AcDbLine
 10
3956.627343697664
 20
-1998.553999326984
 30
0.0000000000563712
 11
3946.527343697664
 21
-1998.553999326984
 31
0.0000000000563712
  0
LINE
  5
105C7
330
18
100
AcDbEntity
  8
01
  6
BYBLOCK
100
AcDbLine
 10
3946.027343697664
 20
-2000.132678983425
 30
0.0000000000563712
 11
3946.027343697664
 21
-1999.753999326984
 31
0.0000000000563712
  0
SPLINE
  5
105C8
330
18
100
AcDbEntity
  8
01
  6
BYBLOCK
100
AcDbSpline
210
0.0
220
0.0
230
1.0
 70
     8
 71
     3
 72
     8
 73
     4
 74
     0
 42
0.0000000001
 43
0.0000000001
 40
0.0
 40
0.0
 40
0.0
 40
0.0
 40
1.0
 40
1.0
 40
1.0
 40
1.0
 10
3946.053076238928
 20
-2000.409329412874
 30
0.0000000000563712
 10
3946.035608352817
 20
-2000.316243216993
 30
0.0000000000563712
 10
3946.027343697664
 20
-2000.222977206102
 30
0.0000000000563712
 10
3946.027343697664
 20
-2000.132678983424
 30
0.0000000000563712
  0
ARC
  5
105C9
330
18
100
AcDbEntity
  8
01
  6
BYBLOCK
100
AcDbCircle
 10
3947.527343697664
 20
-2000.132678983425
 30
0.0000000000563712
 40
1.499999999999998
100
AcDbArc
 50
190.628112987605
 51
225.0000000000369
  0
LINE
  5
105CA
330
18
100
AcDbEntity
  8
01
  6
BYBLOCK
100
AcDbLine
 10
3957.127343697664
 20
-1997.703999326984
 30
0.0000000000563712
 11
3956.627343697664
 21
-1997.703999326984
 31
0.0000000000563712
  0
LINE
  5
105CB
330
18
100
AcDbEntity
  8
01
  6
BYBLOCK
100
AcDbLine
 10
3956.627343697664
 20
-2011.403999326984
 30
0.0000000000563712
 11
3957.127343697664
 21
-2011.403999326984
 31
0.0000000000563712
  0
LINE
  5
105CC
330
18
100
AcDbEntity
  8
01
  6
BYBLOCK
100
AcDbLine
 10
3956.627343697664
 20
-2011.403999326984
 30
0.0000000000563712
 11
3956.627343697664
 21
-1997.703999326984
 31
0.0000000000563712
  0
LINE
  5
105CD
330
18
100
AcDbEntity
  8
01
  6
BYBLOCK
100
AcDbLine
 10
3957.127343697664
 20
-1992.153999326984
 30
0.0000000000563712
 11
3958.627343697664
 21
-1992.153999326984
 31
0.0000000000563712
  0
LINE
  5
105CE
330
18
100
AcDbEntity
  8
01
  6
BYBLOCK
100
AcDbLine
 10
3957.127343697664
 20
-2016.953999326984
 30
0.0000000000563712
 11
3958.627343697664
 21
-2016.953999326984
 31
0.0000000000563712
  0
LINE
  5
105CF
330
18
100
AcDbEntity
  8
01
  6
BYBLOCK
100
AcDbLine
 10
3957.127343697664
 20
-2016.953999326984
 30
0.0000000000563712
 11
3957.127343697664
 21
-1992.153999326984
 31
0.0000000000563712
  0
LINE
  5
105D0
330
18
100
AcDbEntity
  8
01
  6
BYBLOCK
100
AcDbLine
 10
4026.127343697664
 20
-2012.253999326985
 30
0.0000000000563712
 11
3961.127343697664
 21
-2012.253999326985
 31
0.0000000000563712
  0
LINE
  5
105D1
330
18
100
AcDbEntity
  8
01
  6
BYBLOCK
100
AcDbLine
 10
4026.127343697664
 20
-2013.853999326984
 30
0.0000000000563712
 11
3975.727343697664
 21
-2013.853999326984
 31
0.0000000000563712
  0
LINE
  5
105D2
330
18
100
AcDbEntity
  8
01
  6
BYBLOCK
100
AcDbLine
 10
3978.564601997867
 20
-2013.853999326984
 30
0.0000000000563712
 11
3961.127343697664
 21
-2013.853999326984
 31
0.0000000000563712
  0
LINE
  5
105D3
330
18
100
AcDbEntity
  8
01
  6
BYBLOCK
100
AcDbLine
 10
3955.680897088257
 20
-2010.407552717578
 30
0.0000000000563712
 11
3946.466683525884
 21
-2001.193339155205
 31
0.0000000000563712
  0
ARC
  5
105D4
330
18
100
AcDbEntity
  8
01
  6
BYBLOCK
100
AcDbCircle
 10
3956.03445047885
 20
-2010.053999326984
 30
0.0000000000563712
 40
0.5
100
AcDbArc
 50
225.0
 51
270.0
  0
LINE
  5
105D5
330
18
100
AcDbEntity
  8
01
  6
BYBLOCK
100
AcDbLine
 10
3956.627343697664
 20
-2010.553999326984
 30
0.0000000000563712
 11
3956.03445047885
 21
-2010.553999326984
 31
0.0000000000563712
  0
LINE
  5
105D7
330
18
100
AcDbEntity
  8
01
  6
BYBLOCK
100
AcDbLine
 10
3946.126459515604
 20
-2243.52232905894
 30
0.0000000000563712
 11
3946.126459515604
 21
-2261.585669592946
 31
0.0000000000563712
  0
LINE
  5
105D8
330
18
100
AcDbEntity
  8
01
  6
BYBLOCK
100
AcDbLine
 10
3950.419352734417
 20
-2242.553999325943
 30
0.0000000000563712
 11
3957.126459515604
 21
-2242.553999325943
 31
0.0000000000563712
  0
LINE
  5
105D9
330
18
100
AcDbEntity
  8
01
  6
BYBLOCK
100
AcDbLine
 10
3950.419352734417
 20
-2262.553999325943
 30
0.0000000000563712
 11
3957.126459515604
 21
-2262.553999325943
 31
0.0000000000563712
  0
LINE
  5
105DA
330
18
100
AcDbEntity
  8
01
  6
BYBLOCK
100
AcDbLine
 10
3955.919352734418
 20
-2247.303999325943
 30
0.0000000000563712
 11
3955.919352734417
 21
-2257.803999325943
 31
0.0000000000563712
  0
ARC
  5
105DB
330
18
100
AcDbEntity
  8
01
  6
BYBLOCK
100
AcDbCircle
 10
3950.419352734417
 20
-2252.553999325943
 30
0.0000000000563712
 40
10.00000000000009
100
AcDbArc
 50
53.1301023541664
 51
115.4224671781103
  0
ARC
  5
105DC
330
18
100
AcDbEntity
  8
01
  6
BYBLOCK
100
AcDbCircle
 10
3950.419352734417
 20
-2252.553999325943
 30
0.0000000000563712
 40
10.00000000000009
100
AcDbArc
 50
244.5775328218897
 51
306.8698976458336
  0
LINE
  5
105DD
330
18
100
AcDbEntity
  8
01
  6
BYBLOCK
100
AcDbLine
 10
3956.419352734418
 20
-2244.553999325943
 30
0.0000000000563712
 11
3956.419352734418
 21
-2260.553999325943
 31
0.0000000000563712
  0
LINE
  5
105DE
330
18
100
AcDbEntity
  8
01
  6
BYBLOCK
100
AcDbLine
 10
3946.126459515604
 20
-2247.303999325943
 30
0.0000000000563712
 11
3955.919352734418
 21
-2247.303999325943
 31
0.0000000000563712
  0
LINE
  5
105DF
330
18
100
AcDbEntity
  8
01
  6
BYBLOCK
100
AcDbLine
 10
3946.126459515604
 20
-2257.803999325943
 30
0.0000000000563712
 11
3955.919352734418
 21
-2257.803999325943
 31
0.0000000000563712
  0
LINE
  5
105E0
330
18
100
AcDbEntity
  8
01
  6
BYBLOCK
100
AcDbLine
 10
3831.726575855349
 20
-2188.653999325957
 30
0.0000000000563712
 11
3844.526575855348
 21
-2188.653999325957
 31
0.0000000000563712
  0
LINE
  5
105E1
330
18
100
AcDbEntity
  8
01
  6
BYBLOCK
100
AcDbLine
 10
3831.726575855349
 20
-2318.453999325956
 30
0.0000000000563712
 11
3844.526575855348
 21
-2318.453999325956
 31
0.0000000000563712
  0
LINE
  5
105E2
330
18
100
AcDbEntity
  8
01
  6
BYBLOCK
100
AcDbLine
 10
3825.726575855349
 20
-2194.653999325957
 30
0.0000000000563712
 11
3825.726575855349
 21
-2312.453999325956
 31
0.0000000000563712
  0
LINE
  5
105E3
330
18
100
AcDbEntity
  8
01
  6
BYBLOCK
100
AcDbLine
 10
3850.526575855348
 20
-2194.653999325957
 30
0.0000000000563712
 11
3850.526575855348
 21
-2312.453999325956
 31
0.0000000000563712
  0
ARC
  5
105E4
330
18
100
AcDbEntity
  8
01
  6
BYBLOCK
100
AcDbCircle
 10
3831.726575855349
 20
-2312.453999325956
 30
0.0000000000563712
 40
6.0
100
AcDbArc
 50
180.0
 51
270.0
  0
ARC
  5
105E5
330
18
100
AcDbEntity
  8
01
  6
BYBLOCK
100
AcDbCircle
 10
3844.526575855348
 20
-2312.453999325956
 30
0.0000000000563712
 40
6.0
100
AcDbArc
 50
270.0
 51
0.0
  0
ARC
  5
105E6
330
18
100
AcDbEntity
  8
01
  6
BYBLOCK
100
AcDbCircle
 10
3831.726575855349
 20
-2194.653999325957
 30
0.0000000000563712
 40
6.0
100
AcDbArc
 50
90.0
 51
180.0
  0
ARC
  5
105E7
330
18
100
AcDbEntity
  8
01
  6
BYBLOCK
100
AcDbCircle
 10
3844.526575855348
 20
-2194.653999325957
 30
0.0000000000563712
 40
6.0
100
AcDbArc
 50
0.0
 51
90.0
  0
CIRCLE
  5
105E8
330
18
100
AcDbEntity
  8
01
  6
BYBLOCK
100
AcDbCircle
 10
3838.126575855349
 20
-2310.553999325956
 30
0.0000000000563712
 40
2.75
  0
CIRCLE
  5
105E9
330
18
100
AcDbEntity
  8
01
  6
BYBLOCK
100
AcDbCircle
 10
3838.126575855349
 20
-2310.553999325956
 30
0.0000000000563712
 40
4.25
  0
CIRCLE
  5
105EA
330
18
100
AcDbEntity
  8
01
  6
BYBLOCK
100
AcDbCircle
 10
3838.126575855349
 20
-2196.553999325956
 30
0.0000000000563712
 40
2.75
  0
CIRCLE
  5
105EB
330
18
100
AcDbEntity
  8
01
  6
BYBLOCK
100
AcDbCircle
 10
3838.126575855349
 20
-2196.553999325956
 30
0.0000000000563712
 40
4.25
  0
LINE
  5
105EC
330
18
100
AcDbEntity
  8
1CENTER
100
AcDbLine
 10
3844.001601263255
 20
-2310.553999325956
 30
0.0000000000563712
 11
3832.251550447443
 21
-2310.553999325956
 31
0.0000000000563712
  0
LINE
  5
105ED
330
18
100
AcDbEntity
  8
1CENTER
100
AcDbLine
 10
3838.126575855349
 20
-2304.67897391805
 30
0.0000000000563712
 11
3838.126575855349
 21
-2316.429024733863
 31
0.0000000000563712
  0
LINE
  5
105EE
330
18
100
AcDbEntity
  8
1CENTER
100
AcDbLine
 10
3844.001601263255
 20
-2196.553999325956
 30
0.0000000000563712
 11
3832.251550447443
 21
-2196.553999325956
 31
0.0000000000563712
  0
LINE
  5
105EF
330
18
100
AcDbEntity
  8
1CENTER
100
AcDbLine
 10
3838.126575855349
 20
-2190.67897391805
 30
0.0000000000563712
 11
3838.126575855349
 21
-2202.429024733863
 31
0.0000000000563712
  0
ARC
  5
105F0
330
18
100
AcDbEntity
  8
01
  6
BYBLOCK
100
AcDbCircle
 10
3838.126575855349
 20
-2252.553999325956
 30
0.0000000000563712
 40
10.15
100
AcDbArc
 50
231.9925780701313
 51
308.0074219298687
  0
LINE
  5
105F1
330
18
100
AcDbEntity
  8
01
  6
BYBLOCK
100
AcDbLine
 10
3831.876575855349
 20
-2244.556499716703
 30
0.0000000000563712
 11
3831.876575855349
 21
-2260.551498935209
 31
0.0000000000563712
  0
LINE
  5
105F2
330
18
100
AcDbEntity
  8
01
  6
BYBLOCK
100
AcDbLine
 10
3844.376575855349
 20
-2244.556499716703
 30
0.0000000000563712
 11
3844.376575855349
 21
-2260.551498935209
 31
0.0000000000563712
  0
ARC
  5
105F3
330
18
100
AcDbEntity
  8
01
  6
BYBLOCK
100
AcDbCircle
 10
3838.126575855349
 20
-2252.553999325956
 30
0.0000000000563712
 40
10.15
100
AcDbArc
 50
51.99257807013127
 51
128.0074219298687
  0
LINE
  5
105F4
330
18
100
AcDbEntity
  8
01
  6
BYBLOCK
100
AcDbLine
 10
3833.626575855349
 20
-2247.303999325956
 30
0.0000000000563712
 11
3833.626575855349
 21
-2257.803999325956
 31
0.0000000000563712
  0
LINE
  5
105F5
330
18
100
AcDbEntity
  8
01
  6
BYBLOCK
100
AcDbLine
 10
3843.626575855349
 20
-2247.303999325956
 30
0.0000000000563712
 11
3843.626575855349
 21
-2257.803999325956
 31
0.0000000000563712
  0
LINE
  5
105F6
330
18
100
AcDbEntity
  8
01
  6
BYBLOCK
100
AcDbLine
 10
3834.126575855349
 20
-2243.225414224238
 30
0.0000000000563712
 11
3834.126575855349
 21
-2247.303999325956
 31
0.0000000000563712
  0
LINE
  5
105F7
330
18
100
AcDbEntity
  8
01
  6
BYBLOCK
100
AcDbLine
 10
3832.626575855349
 20
-2247.303999325956
 30
0.0000000000563712
 11
3832.626575855349
 21
-2257.803999325956
 31
0.0000000000563712
  0
LINE
  5
105F8
330
18
100
AcDbEntity
  8
01
  6
BYBLOCK
100
AcDbLine
 10
3834.126575855349
 20
-2257.803999325956
 30
0.0000000000563712
 11
3834.126575855349
 21
-2261.882584427674
 31
0.0000000000563712
  0
LINE
  5
105F9
330
18
100
AcDbEntity
  8
01
  6
BYBLOCK
100
AcDbLine
 10
3832.626575855349
 20
-2247.303999325956
 30
0.0000000000563712
 11
3843.626575855349
 21
-2247.303999325956
 31
0.0000000000563712
  0
LINE
  5
105FA
330
18
100
AcDbEntity
  8
01
  6
BYBLOCK
100
AcDbLine
 10
3832.626575855349
 20
-2257.803999325956
 30
0.0000000000563712
 11
3843.626575855349
 21
-2257.803999325956
 31
0.0000000000563712
  0
LINE
  5
105FE
330
18
100
AcDbEntity
  8
01
100
AcDbLine
 10
3818.126692195091
 20
-2154.553999325956
 30
0.0000000000563712
 11
3818.126692195091
 21
-2344.553999325956
 31
0.0000000000563712
  0
LINE
  5
105FF
330
18
100
AcDbEntity
  8
01
100
AcDbLine
 10
3818.126692195091
 20
-2249.553999325956
 30
0.0000000000563712
 11
3818.126692195091
 21
-2299.553999325956
 31
0.0000000000563712
  0
LINE
  5
10600
330
18
100
AcDbEntity
  8
01
100
AcDbLine
 10
3809.626692195091
 20
-2298.553999325956
 30
0.0000000000563712
 11
3809.626692195091
 21
-2250.553999325956
 31
0.0000000000563712
  0
LINE
  5
10601
330
18
100
AcDbEntity
  8
01
100
AcDbLine
 10
3818.126692195091
 20
-2299.553999325956
 30
0.0000000000563712
 11
3810.626692195091
 21
-2299.553999325956
 31
0.0000000000563712
  0
ARC
  5
10602
330
18
100
AcDbEntity
  8
01
100
AcDbCircle
 10
3810.626692195091
 20
-2298.553999325956
 30
0.0000000000563712
 40
1.0
100
AcDbArc
 50
180.0
 51
270.0
  0
LINE
  5
10603
330
18
100
AcDbEntity
  8
01
100
AcDbLine
 10
3818.126692195091
 20
-2249.553999325956
 30
0.0000000000563712
 11
3810.626692195091
 21
-2249.553999325956
 31
0.0000000000563712
  0
ARC
  5
10604
330
18
100
AcDbEntity
  8
01
100
AcDbCircle
 10
3810.626692195091
 20
-2250.553999325956
 30
0.0000000000563712
 40
1.0
100
AcDbArc
 50
90.0
 51
180.0
  0
LINE
  5
10605
330
18
100
AcDbEntity
  8
01
100
AcDbLine
 10
3820.254977577524
 20
-2274.553999325956
 30
0.0000000000563712
 11
3797.626692195091
 21
-2274.553999325956
 31
0.0000000000563712
  0
POINT
  5
10606
330
18
100
AcDbEntity
  8
01
100
AcDbPoint
 10
3803.626575855349
 20
-2274.553999325956
 30
0.0000000000563712
 50
180.0
  0
CIRCLE
  5
10607
330
18
100
AcDbEntity
  8
01
100
AcDbCircle
 10
3803.626575855349
 20
-2274.553999325956
 30
0.0000000000563712
 40
2.5
  0
CIRCLE
  5
10608
330
18
100
AcDbEntity
  8
01
100
AcDbCircle
 10
3803.626575855349
 20
-2274.553999325956
 30
0.0000000000563712
 40
3.0
  0
LINE
  5
1060A
330
18
100
AcDbEntity
  8
1CENTER
100
AcDbLine
 10
3803.626575855349
 20
-2280.553999325956
 30
0.0000000000563712
 11
3803.626575855349
 21
-2268.553999325956
 31
0.0000000000563712
  0
LINE
  5
1060B
330
18
100
AcDbEntity
  8
01
100
AcDbLine
 10
3952.126459515891
 20
-2310.553999325667
 30
0.0000000000563712
 11
3966.126459515891
 21
-2310.553999325667
 31
0.0000000000563712
  0
LINE
  5
1060C
330
18
100
AcDbEntity
  8
01
100
AcDbLine
 10
4019.438347783145
 20
-2224.553999325956
 30
0.0000000000563712
 11
3996.814571248061
 21
-2224.553999325956
 31
0.0000000000563712
  0
LINE
  5
1060D
330
18
100
AcDbEntity
  8
01
100
AcDbLine
 10
4008.126459515604
 20
-2213.242111058414
 30
0.0000000000563712
 11
4008.126459515604
 21
-2235.865887593498
 31
0.0000000000563712
  0
LINE
  5
1060E
330
18
100
AcDbEntity
  8
01
  6
BYBLOCK
100
AcDbLine
 10
3730.126692195093
 20
-2243.52232905894
 30
0.0000000000563712
 11
3730.126692195093
 21
-2261.585669592946
 31
0.0000000000563712
  0
LINE
  5
1060F
330
18
100
AcDbEntity
  8
01
  6
BYBLOCK
100
AcDbLine
 10
3725.83379897628
 20
-2242.553999325943
 30
0.0000000000563712
 11
3719.126692195093
 21
-2242.553999325943
 31
0.0000000000563712
  0
LINE
  5
10610
330
18
100
AcDbEntity
  8
01
  6
BYBLOCK
100
AcDbLine
 10
3725.83379897628
 20
-2262.553999325943
 30
0.0000000000563712
 11
3719.126692195093
 21
-2262.553999325943
 31
0.0000000000563712
  0
ARC
  5
10611
330
18
100
AcDbEntity
  8
01
  6
BYBLOCK
100
AcDbCircle
 10
3725.83379897628
 20
-2252.553999325943
 30
0.0000000000563712
 40
10.00000000000009
100
AcDbArc
 50
64.57753282188968
 51
90.0
  0
LINE
  5
10612
330
18
100
AcDbEntity
  8
01
  6
CONTINUOUS
100
AcDbLine
 10
3729.626692195093
 20
-2260.868793518774
 30
0.0000000000563712
 11
3719.126692195093
 21
-2260.868793518774
 31
0.0000000000563712
  0
ARC
  5
10613
330
18
100
AcDbEntity
  8
01
  6
CONTINUOUS
100
AcDbCircle
 10
3729.665272442007
 20
-2260.406654287966
 30
0.0000000000563712
 40
0.4637468103423796
100
AcDbArc
 50
265.2279066161988
 51
354.2577450626333
  0
LINE
  5
10614
330
18
100
AcDbEntity
  8
01
  6
CONTINUOUS
100
AcDbLine
 10
3730.126692195093
 20
-2245.070684552395
 30
0.0000000000563712
 11
3730.126692195093
 21
-2260.037314099491
 31
0.0000000000563712
  0
ARC
  5
10615
330
18
100
AcDbEntity
  8
01
  6
CONTINUOUS
100
AcDbCircle
 10
3729.665272442007
 20
-2244.701344363918
 30
0.0000000000563712
 40
0.4637468103423387
100
AcDbArc
 50
5.742254937366722
 51
94.77209338380122
  0
ARC
  5
10616
330
18
100
AcDbEntity
  8
01
  6
BYBLOCK
100
AcDbCircle
 10
3725.83379897628
 20
-2252.553999325943
 30
0.0000000000563712
 40
10.00000000000009
100
AcDbArc
 50
270.0
 51
295.4224671781103
  0
LINE
  5
10617
330
18
100
AcDbEntity
  8
01
  6
CONTINUOUS
100
AcDbLine
 10
3719.126692195093
 20
-2244.239205133112
 30
0.0000000000563712
 11
3729.626692195093
 21
-2244.239205133112
 31
0.0000000000563712
  0
LINE
  5
10618
330
18
100
AcDbEntity
  8
01
100
AcDbLine
 10
4026.126459515604
 20
-2248.053999325958
 30
0.0000000000563712
 11
4026.126459515604
 21
-2289.553999325956
 31
0.0000000000563712
  0
ARC
  5
10619
330
18
100
AcDbEntity
  8
01
100
AcDbCircle
 10
4025.126459515604
 20
-2289.553999325956
 30
0.0000000000563712
 40
1.0
100
AcDbArc
 50
270.0
 51
0.0
  0
LINE
  5
1061A
330
18
100
AcDbEntity
  8
01
100
AcDbLine
 10
3981.626459515608
 20
-2290.553999325956
 30
0.0000000000563712
 11
4025.126459515604
 21
-2290.553999325955
 31
0.0000000000563712
  0
LINE
  5
1061B
330
18
100
AcDbEntity
  8
01
100
AcDbLine
 10
3698.126692195093
 20
-2274.553999325956
 30
0.0000000000563712
 11
3638.126692195093
 21
-2274.553999325956
 31
0.0000000000563712
  0
LINE
  5
1061C
330
18
100
AcDbEntity
  8
01
100
AcDbLine
 10
3668.126692195093
 20
-2244.553999325956
 30
0.0000000000563712
 11
3668.126692195093
 21
-2304.553999325956
 31
0.0000000000563712
  0
LINE
  5
1061D
330
18
100
AcDbEntity
  8
01
100
AcDbLine
 10
3981.62657585535
 20
-1984.553999326984
 30
0.0000000000563712
 11
4034.626575855347
 21
-1984.553999326984
 31
0.0000000000563712
  0
LINE
  5
1061E
330
18
100
AcDbEntity
  8
01
100
AcDbLine
 10
3982.12657585535
 20
-1976.053999326984
 30
0.0000000000563712
 11
4005.626587820206
 21
-1976.053999326984
 31
0.0000000000563712
  0
LINE
  5
1061F
330
18
100
AcDbEntity
  8
01
100
AcDbLine
 10
4010.626587820208
 20
-1976.053999326985
 30
0.0000000000563712
 11
4034.126575855347
 21
-1976.053999326984
 31
0.0000000000563712
  0
LINE
  5
10620
330
18
100
AcDbEntity
  8
01
100
AcDbLine
 10
4034.626575855347
 20
-1984.553999326984
 30
0.0000000000563712
 11
4034.626575855347
 21
-1976.553999326984
 31
0.0000000000563712
  0
LINE
  5
10621
330
18
100
AcDbEntity
  8
01
100
AcDbLine
 10
3981.62657585535
 20
-1984.553999326984
 30
0.0000000000563712
 11
3981.62657585535
 21
-1976.553999326984
 31
0.0000000000563712
  0
ARC
  5
10622
330
18
100
AcDbEntity
  8
01
100
AcDbCircle
 10
3982.12657585535
 20
-1976.553999326984
 30
0.0000000000563712
 40
0.5
100
AcDbArc
 50
90.0
 51
180.0
  0
ARC
  5
10623
330
18
100
AcDbEntity
  8
01
100
AcDbCircle
 10
4034.126575855347
 20
-1976.553999326984
 30
0.0000000000563712
 40
0.5
100
AcDbArc
 50
0.0
 51
90.0
  0
LINE
  5
10624
330
18
100
AcDbEntity
  8
1HIDDEN
100
AcDbLine
 10
4026.126459515604
 20
-2217.553999325956
 30
0.0000000000563712
 11
4026.126459515604
 21
-2239.053999121828
 31
0.0000000000563712
  0
LINE
  5
10625
330
18
100
AcDbEntity
  8
01
  6
BYBLOCK
100
AcDbLine
 10
3959.826459515604
 20
-2216.553999325956
 30
0.0000000000563712
 11
3988.126459515606
 21
-2216.553999325956
 31
0.0000000000563712
  0
LINE
  5
10626
330
18
100
AcDbEntity
  8
1HIDDEN
100
AcDbLine
 10
3988.126459515606
 20
-2216.553999325956
 30
0.0000000000563712
 11
4025.126459515604
 21
-2216.553999325956
 31
0.0000000000563712
  0
LINE
  5
10627
330
18
100
AcDbEntity
  8
01
  6
BYBLOCK
100
AcDbLine
 10
4026.126459515607
 20
-2239.053999121828
 30
0.0000000000563712
 11
4026.126459515607
 21
-2248.053999325958
 31
0.0000000000563712
  0
LINE
  5
10628
330
18
100
AcDbEntity
  8
01
100
AcDbLine
 10
3724.126692195093
 20
-2196.553999325956
 30
0.0000000000563712
 11
3710.126692195093
 21
-2196.553999325956
 31
0.0000000000563712
  0
LINE
  5
10629
330
18
100
AcDbEntity
  8
01
  6
BYBLOCK
100
AcDbLine
 10
3717.626692195093
 20
-2188.653999325956
 30
0.0000000000563712
 11
3717.626692195093
 21
-2318.453999325956
 31
0.0000000000563712
  0
LINE
  5
1062A
330
18
100
AcDbEntity
  8
01
  6
BYBLOCK
100
AcDbLine
 10
3717.626692195093
 20
-2317.553999325956
 30
0.0000000000563712
 11
3715.126692195093
 21
-2317.553999325956
 31
0.0000000000563712
  0
LINE
  5
1062B
330
18
100
AcDbEntity
  8
01
  6
BYBLOCK
100
AcDbLine
 10
3715.126692195093
 20
-2317.553999325956
 30
0.0000000000563712
 11
3715.126692195093
 21
-2301.051055600803
 31
0.0000000000563712
  0
LINE
  5
1062C
330
18
100
AcDbEntity
  8
01
  6
BYBLOCK
100
AcDbLine
 10
3719.126692195093
 20
-2188.653999325956
 30
0.0000000000563712
 11
3719.126692195093
 21
-2318.453999325956
 31
0.0000000000563712
  0
LINE
  5
1062D
330
18
100
AcDbEntity
  8
01
  6
BYBLOCK
100
AcDbLine
 10
3719.126692195093
 20
-2318.453999325956
 30
0.0000000000563712
 11
3717.626692195093
 21
-2318.453999325956
 31
0.0000000000563712
  0
LINE
  5
1062E
330
18
100
AcDbEntity
  8
01
  6
BYBLOCK
100
AcDbLine
 10
3717.626692195093
 20
-2189.553999325956
 30
0.0000000000563712
 11
3715.126692195093
 21
-2189.553999325956
 31
0.0000000000563712
  0
LINE
  5
1062F
330
18
100
AcDbEntity
  8
01
  6
BYBLOCK
100
AcDbLine
 10
3719.126692195093
 20
-2188.653999325956
 30
0.0000000000563712
 11
3717.626692195093
 21
-2188.653999325956
 31
0.0000000000563712
  0
LINE
  5
10630
330
18
100
AcDbEntity
  8
01
  6
BYBLOCK
100
AcDbLine
 10
3717.626692195093
 20
-2213.553999325956
 30
0.0000000000563712
 11
3716.426692195093
 21
-2213.553999325956
 31
0.0000000000563712
  0
LINE
  5
10631
330
18
100
AcDbEntity
  8
01
  6
BYBLOCK
100
AcDbLine
 10
3716.426692195093
 20
-2207.853999325956
 30
0.0000000000563712
 11
3716.426692195093
 21
-2299.253999325956
 31
0.0000000000563712
  0
LINE
  5
10632
330
18
100
AcDbEntity
  8
01
  6
BYBLOCK
100
AcDbLine
 10
3716.326692195093
 20
-2317.553999325956
 30
0.0000000000563712
 11
3716.326692195093
 21
-2300.953999325956
 31
0.0000000000563712
  0
LINE
  5
10633
330
18
100
AcDbEntity
  8
01
  6
BYBLOCK
100
AcDbLine
 10
3716.326692195093
 20
-2300.953999325956
 30
0.0000000000563712
 11
3717.275220332518
 21
-2300.005471188532
 31
0.0000000000563712
  0
LINE
  5
10634
330
18
100
AcDbEntity
  8
01
  6
BYBLOCK
100
AcDbLine
 10
3715.47816405767
 20
-2300.20252746338
 30
0.0000000000563712
 11
3716.426692195093
 21
-2299.253999325956
 31
0.0000000000563712
  0
ARC
  5
10635
330
18
100
AcDbEntity
  8
01
  6
BYBLOCK
100
AcDbCircle
 10
3716.326692195093
 20
-2301.051055600803
 30
0.0000000000563712
 40
1.2
100
AcDbArc
 50
134.9999999999631
 51
180.0
  0
ARC
  5
10636
330
18
100
AcDbEntity
  8
01
  6
BYBLOCK
100
AcDbCircle
 10
3716.426692195093
 20
-2299.156943051108
 30
0.0000000000563712
 40
1.2
100
AcDbArc
 50
314.9999999999632
 51
0.0
  0
LINE
  5
10637
330
18
100
AcDbEntity
  8
01
  6
BYBLOCK
100
AcDbLine
 10
3715.126692195093
 20
-2189.553999325956
 30
0.0000000000563712
 11
3715.126692195093
 21
-2206.056943051108
 31
0.0000000000563712
  0
LINE
  5
10638
330
18
100
AcDbEntity
  8
01
  6
BYBLOCK
100
AcDbLine
 10
3716.326692195093
 20
-2189.553999325956
 30
0.0000000000563712
 11
3716.326692195093
 21
-2206.153999325956
 31
0.0000000000563712
  0
LINE
  5
10639
330
18
100
AcDbEntity
  8
01
  6
BYBLOCK
100
AcDbLine
 10
3716.326692195093
 20
-2206.153999325956
 30
0.0000000000563712
 11
3717.275220332518
 21
-2207.102527463379
 31
0.0000000000563712
  0
LINE
  5
1063A
330
18
100
AcDbEntity
  8
01
  6
BYBLOCK
100
AcDbLine
 10
3715.47816405767
 20
-2206.905471188532
 30
0.0000000000563712
 11
3716.426692195093
 21
-2207.853999325956
 31
0.0000000000563712
  0
ARC
  5
1063B
330
18
100
AcDbEntity
  8
01
  6
BYBLOCK
100
AcDbCircle
 10
3716.326692195093
 20
-2206.056943051108
 30
0.0000000000563712
 40
1.2
100
AcDbArc
 50
180.0
 51
225.0000000000369
  0
ARC
  5
1063C
330
18
100
AcDbEntity
  8
01
  6
BYBLOCK
100
AcDbCircle
 10
3716.426692195093
 20
-2207.951055600804
 30
0.0000000000563712
 40
1.2
100
AcDbArc
 50
0.0
 51
45.00000000003685
  0
LINE
  5
1063D
330
18
100
AcDbEntity
  8
01
  6
BYBLOCK
100
AcDbLine
 10
3716.426692195093
 20
-2290.553999325956
 30
0.0000000000563712
 11
3694.62669219509
 21
-2290.553999325956
 31
0.0000000000563712
  0
LINE
  5
1063E
330
18
100
AcDbEntity
  8
01
  6
BYBLOCK
100
AcDbLine
 10
3730.126692195093
 20
-2243.52232905894
 30
0.0000000000563712
 11
3730.126692195093
 21
-2261.585669592946
 31
0.0000000000563712
  0
LINE
  5
1063F
330
18
100
AcDbEntity
  8
01
  6
BYBLOCK
100
AcDbLine
 10
3725.83379897628
 20
-2242.553999325943
 30
0.0000000000563712
 11
3719.126692195093
 21
-2242.553999325943
 31
0.0000000000563712
  0
LINE
  5
10640
330
18
100
AcDbEntity
  8
01
  6
BYBLOCK
100
AcDbLine
 10
3725.83379897628
 20
-2262.553999325943
 30
0.0000000000563712
 11
3719.126692195093
 21
-2262.553999325943
 31
0.0000000000563712
  0
LINE
  5
10641
330
18
100
AcDbEntity
  8
01
100
AcDbLine
 10
3724.126692194806
 20
-2310.553999325667
 30
0.0000000000563712
 11
3710.126692194806
 21
-2310.553999325667
 31
0.0000000000563712
  0
LINE
  5
10642
330
18
100
AcDbEntity
  8
01
100
AcDbLine
 10
3698.126692195093
 20
-2274.553999325956
 30
0.0000000000563712
 11
3638.126692195093
 21
-2274.553999325956
 31
0.0000000000563712
  0
LINE
  5
10643
330
18
100
AcDbEntity
  8
01
100
AcDbLine
 10
3668.126692195093
 20
-2244.553999325956
 30
0.0000000000563712
 11
3668.126692195093
 21
-2304.553999325956
 31
0.0000000000563712
  0
LINE
  5
10644
330
18
100
AcDbEntity
  8
01
  6
BYBLOCK
100
AcDbLine
 10
3716.426692195093
 20
-2216.553999325956
 30
0.0000000000563712
 11
3688.126692195091
 21
-2216.553999325956
 31
0.0000000000563712
  0
LINE
  5
10645
330
18
100
AcDbEntity
  8
01
  6
BYBLOCK
100
AcDbLine
 10
3650.126692195091
 20
-2239.053999121828
 30
0.0000000000563712
 11
3650.126692195091
 21
-2248.053999325958
 31
0.0000000000563712
  0
TEXT
  5
10646
330
18
100
AcDbEntity
  8
1TEXT
100
AcDbText
 10
3650.126591855349
 20
-1993.053999325956
 30
0.0
 40
20.0
  1
2-FST-X-LJ-2
100
AcDbText
  0
TEXT
  5
10647
330
18
100
AcDbEntity
  8
1TEXT
100
AcDbText
 10
3662.326591855349
 20
-2031.303999325956
 30
0.0
 40
6.0
  1
表面処理
 72
     1
 11
3676.226591855349
 21
-2031.303999325956
 31
0.0
100
AcDbText
  0
TEXT
  5
10648
330
18
100
AcDbEntity
  8
1TEXT
100
AcDbText
 10
3662.026591855349
 20
-2041.556932315243
 30
0.0
 40
6.0
  1
クローム
 72
     1
 11
3676.226591855349
 21
-2041.556932315243
 31
0.0
100
AcDbText
  0
LINE
  5
10649
330
18
100
AcDbEntity
  8
1DIM
100
AcDbLine
 10
3650.126591855349
 20
-2023.053999325956
 30
0.0000000000563712
 11
3755.126591855349
 21
-2023.053999325956
 31
0.0000000000563712
  0
LINE
  5
1064A
330
18
100
AcDbEntity
  8
1DIM
100
AcDbLine
 10
3650.126591855349
 20
-2033.553999325956
 30
0.0000000000563712
 11
3755.126591855349
 21
-2033.553999325956
 31
0.0000000000563712
  0
LINE
  5
1064B
330
18
100
AcDbEntity
  8
1DIM
100
AcDbLine
 10
3650.126591855349
 20
-2044.053999325956
 30
0.0000000000563712
 11
3755.126591855349
 21
-2044.053999325956
 31
0.0000000000563712
  0
LINE
  5
1064C
330
18
100
AcDbEntity
  8
1DIM
100
AcDbLine
 10
3650.126591855349
 20
-2044.053999325956
 30
0.0000000000563712
 11
3755.126591855349
 21
-2044.053999325956
 31
0.0000000000563712
  0
LINE
  5
1064D
330
18
100
AcDbEntity
  8
1DIM
100
AcDbLine
 10
3702.626591855349
 20
-2023.053999325956
 30
0.0000000000563712
 11
3702.626591855349
 21
-2044.053999325956
 31
0.0000000000563712
  0
TEXT
  5
1064E
330
18
100
AcDbEntity
  8
1TEXT
100
AcDbText
 10
3704.226591855349
 20
-2042.12553480143
 30
0.0
 40
6.0
  1
2-FST-C-LJ-2
 41
0.6999999999999998
 72
     1
 11
3728.726591855349
 21
-2042.12553480143
 31
0.0
100
AcDbText
  0
TEXT
  5
1064F
330
18
100
AcDbEntity
  8
1TEXT
100
AcDbText
 10
3718.426591855349
 20
-2031.303999325956
 30
0.0
 40
6.0
  1
コード
 72
     1
 11
3728.726591855349
 21
-2031.303999325956
 31
0.0
100
AcDbText
  0
LINE
  5
10650
330
18
100
AcDbEntity
  8
1DIM
100
AcDbLine
 10
3755.126591855349
 20
-2044.053999325956
 30
0.0000000000563712
 11
3755.126591855349
 21
-2023.053999325956
 31
0.0000000000563712
  0
LINE
  5
10651
330
18
100
AcDbEntity
  8
1DIM
100
AcDbLine
 10
3650.126591855349
 20
-2044.053999325956
 30
0.0000000000563712
 11
3755.126591855349
 21
-2044.053999325956
 31
0.0000000000563712
  0
LINE
  5
10652
330
18
100
AcDbEntity
  8
1DIM
100
AcDbLine
 10
3702.626591855349
 20
-2044.053999325956
 30
0.0000000000563712
 11
3702.626591855349
 21
-2054.553999325956
 31
0.0000000000563712
  0
LINE
  5
10653
330
18
100
AcDbEntity
  8
1DIM
100
AcDbLine
 10
3650.126591855349
 20
-2054.553999325956
 30
0.0000000000563712
 11
3755.126591855349
 21
-2054.553999325956
 31
0.0000000000563712
  0
TEXT
  5
10654
330
18
100
AcDbEntity
  8
1TEXT
100
AcDbText
 10
3651.426591855349
 20
-2052.020369743312
 30
0.0
 40
6.0
  1
サテンニッケル
 72
     1
 11
3676.226591855349
 21
-2052.020369743312
 31
0.0
100
AcDbText
  0
LINE
  5
10655
330
18
100
AcDbEntity
  8
1DIM
100
AcDbLine
 10
3650.126591855349
 20
-2054.553999325956
 30
0.0000000000563712
 11
3650.126591855349
 21
-2044.053999325956
 31
0.0000000000563712
  0
LINE
  5
10656
330
18
100
AcDbEntity
  8
1DIM
100
AcDbLine
 10
3755.126591855349
 20
-2054.553999325956
 30
0.0000000000563712
 11
3755.126591855349
 21
-2044.053999325956
 31
0.0000000000563712
  0
TEXT
  5
10657
330
18
100
AcDbEntity
  8
1TEXT
100
AcDbText
 10
3704.226591855349
 20
-2052.62553480143
 30
0.0
 40
6.0
  1
2-FST-N-LJ-2
 41
0.6999999999999998
 72
     1
 11
3728.726591855349
 21
-2052.62553480143
 31
0.0
100
AcDbText
  0
LINE
  5
10658
330
18
100
AcDbEntity
  8
1DIM
100
AcDbLine
 10
3650.126591855349
 20
-2044.053999325956
 30
0.0000000000563712
 11
3650.126591855349
 21
-2023.053999325956
 31
0.0000000000563712
  0
LINE
  5
10659
330
18
100
AcDbEntity
  8
1DIM
100
AcDbLine
 10
3702.626591855349
 20
-2054.553999325956
 30
0.0000000000563712
 11
3702.626591855349
 21
-2065.053999325956
 31
0.0000000000563712
  0
LINE
  5
1065A
330
18
100
AcDbEntity
  8
1DIM
100
AcDbLine
 10
3650.126591855349
 20
-2065.053999325956
 30
0.0000000000563712
 11
3755.126591855349
 21
-2065.053999325956
 31
0.0000000000563712
  0
TEXT
  5
1065B
330
18
100
AcDbEntity
  8
1TEXT
100
AcDbText
 10
3652.026591855349
 20
-2062.520369743312
 30
0.0
 40
6.0
  1
パールブラック
 72
     1
 11
3676.226591855349
 21
-2062.520369743312
 31
0.0
100
AcDbText
  0
LINE
  5
1065C
330
18
100
AcDbEntity
  8
1DIM
100
AcDbLine
 10
3650.126591855349
 20
-2065.053999325956
 30
0.0000000000563712
 11
3650.126591855349
 21
-2054.553999325956
 31
0.0000000000563712
  0
LINE
  5
1065D
330
18
100
AcDbEntity
  8
1DIM
100
AcDbLine
 10
3755.126591855349
 20
-2065.053999325956
 30
0.0000000000563712
 11
3755.126591855349
 21
-2054.553999325956
 31
0.0000000000563712
  0
TEXT
  5
1065E
330
18
100
AcDbEntity
  8
1TEXT
100
AcDbText
 10
3704.013050188682
 20
-2063.12553480143
 30
0.0
 40
6.0
  1
2-FST-GQ-LJ-2
 41
0.65
 72
     1
 11
3728.726591855349
 21
-2063.12553480143
 31
0.0
100
AcDbText
  0
POINT
  5
1065F
330
18
100
AcDbEntity
  8
01
100
AcDbPoint
 10
3872.626459515604
 20
-2274.553999325956
 30
0.0000000000563712
  0
LINE
  5
10660
330
18
100
AcDbEntity
  8
01
100
AcDbLine
 10
3872.226459505605
 20
-2276.303999325956
 30
0.0000000000563712
 11
3872.226459505605
 21
-2275.453999305956
 31
0.0000000000563712
  0
LINE
  5
10661
330
18
100
AcDbEntity
  8
01
100
AcDbLine
 10
3873.026459525606
 20
-2276.303999325956
 30
0.0000000000563712
 11
3873.026459525606
 21
-2275.453999305956
 31
0.0000000000563712
  0
LINE
  5
10662
330
18
100
AcDbEntity
  8
01
100
AcDbLine
 10
3871.726459535604
 20
-2274.953999335956
 30
0.0000000000563712
 11
3870.876459515604
 21
-2274.953999335956
 31
0.0000000000563712
  0
LINE
  5
10663
330
18
100
AcDbEntity
  8
01
100
AcDbLine
 10
3871.726459535604
 20
-2274.153999315956
 30
0.0000000000563712
 11
3870.876459515604
 21
-2274.153999315956
 31
0.0000000000563712
  0
LINE
  5
10664
330
18
100
AcDbEntity
  8
01
100
AcDbLine
 10
3870.876459515604
 20
-2274.953999335956
 30
0.0000000000563712
 11
3870.876459515604
 21
-2274.153999315956
 31
0.0000000000563712
  0
LINE
  5
10665
330
18
100
AcDbEntity
  8
01
100
AcDbLine
 10
3873.026459525606
 20
-2276.303999325956
 30
0.0000000000563712
 11
3872.226459505605
 21
-2276.303999325956
 31
0.0000000000563712
  0
LINE
  5
10666
330
18
100
AcDbEntity
  8
01
100
AcDbLine
 10
3873.026459525606
 20
-2272.803999325956
 30
0.0000000000563712
 11
3873.026459525606
 21
-2273.653999345956
 31
0.0000000000563712
  0
LINE
  5
10667
330
18
100
AcDbEntity
  8
01
100
AcDbLine
 10
3872.226459505605
 20
-2272.803999325956
 30
0.0000000000563712
 11
3872.226459505605
 21
-2273.653999345956
 31
0.0000000000563712
  0
LINE
  5
10668
330
18
100
AcDbEntity
  8
01
100
AcDbLine
 10
3873.526459495604
 20
-2274.153999315956
 30
0.0000000000563712
 11
3874.376459515604
 21
-2274.153999315956
 31
0.0000000000563712
  0
LINE
  5
10669
330
18
100
AcDbEntity
  8
01
100
AcDbLine
 10
3873.526459495604
 20
-2274.953999335956
 30
0.0000000000563712
 11
3874.376459515604
 21
-2274.953999335956
 31
0.0000000000563712
  0
LINE
  5
1066A
330
18
100
AcDbEntity
  8
01
100
AcDbLine
 10
3874.376459515604
 20
-2274.153999315956
 30
0.0000000000563712
 11
3874.376459515604
 21
-2274.953999335956
 31
0.0000000000563712
  0
LINE
  5
1066B
330
18
100
AcDbEntity
  8
01
100
AcDbLine
 10
3872.226459505605
 20
-2272.803999325956
 30
0.0000000000563712
 11
3873.026459525606
 21
-2272.803999325956
 31
0.0000000000563712
  0
CIRCLE
  5
1066C
330
18
100
AcDbEntity
  8
01
100
AcDbCircle
 10
3872.626459515604
 20
-2274.553999325956
 30
0.0000000000563712
 40
2.5
  0
ARC
  5
1066D
330
18
100
AcDbEntity
  8
01
100
AcDbCircle
 10
3873.526459495604
 20
-2273.653999345956
 30
0.0000000000563712
 40
0.5
100
AcDbArc
 50
179.999989999999
 51
270.0
  0
ARC
  5
1066E
330
18
100
AcDbEntity
  8
01
100
AcDbCircle
 10
3873.526459495604
 20
-2275.453999305956
 30
0.0000000000563712
 40
0.5
100
AcDbArc
 50
90.00000299998466
 51
180.000010000001
  0
ARC
  5
1066F
330
18
100
AcDbEntity
  8
01
100
AcDbCircle
 10
3871.726459535604
 20
-2275.453999305956
 30
0.0000000000563712
 40
0.5
100
AcDbArc
 50
0.0
 51
90.00000299998466
  0
ARC
  5
10670
330
18
100
AcDbEntity
  8
01
100
AcDbCircle
 10
3871.726459535604
 20
-2273.653999345956
 30
0.0000000000563712
 40
0.5
100
AcDbArc
 50
270.0
 51
0.0
  0
LINE
  5
10672
330
18
100
AcDbEntity
  8
1CENTER
100
AcDbLine
 10
3872.626459515604
 20
-2280.553999325956
 30
0.0000000000563712
 11
3872.626459515604
 21
-2268.553999325956
 31
0.0000000000563712
  0
LINE
  5
10673
330
18
100
AcDbEntity
  8
01
100
AcDbLine
 10
3855.998174133174
 20
-2274.553999325956
 30
0.0000000000563712
 11
3878.626459515604
 21
-2274.553999325956
 31
0.0000000000563712
  0
LINE
  5
10674
330
18
100
AcDbEntity
  8
01
  6
BYBLOCK
100
AcDbLine
 10
3957.127227357921
 20
-2024.555317639059
 30
0.0000000001127424
 11
4110.881607512953
 21
-2024.555317639059
 31
0.0000000001127424
  0
LINE
  5
10675
330
18
100
AcDbEntity
  8
1CENTER
100
AcDbLine
 10
3992.042784751663
 20
-2039.055309605806
 30
0.0000000001127424
 11
4000.176457113511
 21
-2039.055317639056
 31
0.0000000001127424
  0
LINE
  5
10676
330
18
100
AcDbEntity
  8
01
100
AcDbLine
 10
4008.126459515604
 20
-2019.555317639059
 30
0.0000000001127424
 11
4008.126459515604
 21
-2046.055317639059
 31
0.0000000001127424
  0
LINE
  5
1067B
330
18
100
AcDbEntity
  8
01
100
AcDbLine
 10
3858.126459515604
 20
-2154.553999325956
 30
0.0000000000563712
 11
3858.126459515604
 21
-2344.553999325956
 31
0.0000000000563712
  0
LINE
  5
1067C
330
18
100
AcDbEntity
  8
01
100
AcDbLine
 10
3978.126459515604
 20
-2274.553999325956
 30
0.0000000000563712
 11
4038.126459515604
 21
-2274.553999325956
 31
0.0000000000563712
  0
LINE
  5
1067D
330
18
100
AcDbEntity
  8
01
100
AcDbLine
 10
4008.126459515604
 20
-2244.553999325956
 30
0.0000000000563712
 11
4008.126459515604
 21
-2304.553999325956
 31
0.0000000000563712
  0
LINE
  5
1067F
330
18
100
AcDbEntity
  8
01
100
AcDbLine
 10
4034.126459515604
 20
-2248.053999325958
 30
0.0000000000563712
 11
3982.126459515608
 21
-2248.053999325958
 31
0.0000000000563712
  0
LINE
  5
10680
330
18
100
AcDbEntity
  8
01
100
AcDbLine
 10
3982.126459515608
 20
-2301.053999325958
 30
0.0000000000563712
 11
4034.126459515604
 21
-2301.053999325958
 31
0.0000000000563712
  0
LINE
  5
10681
330
18
100
AcDbEntity
  8
01
100
AcDbLine
 10
3981.626459515608
 20
-2248.553999325958
 30
0.0000000000563712
 11
3981.626459515608
 21
-2300.553999325958
 31
0.0000000000563712
  0
ARC
  5
10682
330
18
100
AcDbEntity
  8
01
100
AcDbCircle
 10
3982.126459515608
 20
-2300.553999325958
 30
0.0000000000563712
 40
0.5
100
AcDbArc
 50
180.0
 51
270.0
  0
ARC
  5
10683
330
18
100
AcDbEntity
  8
01
100
AcDbCircle
 10
3982.126459515608
 20
-2248.553999325958
 30
0.0000000000563712
 40
0.5
100
AcDbArc
 50
90.0
 51
180.0
  0
LINE
  5
10684
330
18
100
AcDbEntity
  8
01
100
AcDbLine
 10
4034.626459515604
 20
-2248.553999325958
 30
0.0000000000563712
 11
4034.626459515604
 21
-2263.054020067485
 31
0.0000000000563712
  0
LINE
  5
10685
330
18
100
AcDbEntity
  8
01
100
AcDbLine
 10
4034.626459515604
 20
-2275.814525408955
 30
0.0000000000563712
 11
4034.626459515604
 21
-2300.553999325958
 31
0.0000000000563712
  0
ARC
  5
10686
330
18
100
AcDbEntity
  8
01
100
AcDbCircle
 10
4034.126459515604
 20
-2300.553999325958
 30
0.0000000000563712
 40
0.5
100
AcDbArc
 50
270.0
 51
0.0
  0
ARC
  5
10687
330
18
100
AcDbEntity
  8
01
100
AcDbCircle
 10
4034.126459515604
 20
-2248.553999325958
 30
0.0000000000563712
 40
0.5
100
AcDbArc
 50
0.0
 51
90.0
  0
LINE
  5
10688
330
18
100
AcDbEntity
  8
01
100
AcDbLine
 10
3981.626459515608
 20
-2024.555317639059
 30
0.0000000001127424
 11
4034.626459515604
 21
-2024.555317639059
 31
0.0000000001127424
  0
LINE
  5
10689
330
18
100
AcDbEntity
  8
01
100
AcDbLine
 10
3982.126459515608
 20
-2033.055317639059
 30
0.0000000001127424
 11
4034.126459515604
 21
-2033.055317639059
 31
0.0000000001127424
  0
LINE
  5
1068A
330
18
100
AcDbEntity
  8
01
100
AcDbLine
 10
4034.626459515604
 20
-2024.555317639059
 30
0.0000000001127424
 11
4034.626459515604
 21
-2032.555317639059
 31
0.0000000001127424
  0
LINE
  5
1068B
330
18
100
AcDbEntity
  8
01
100
AcDbLine
 10
3981.626459515608
 20
-2024.555317639059
 30
0.0000000001127424
 11
3981.626459515608
 21
-2032.555317639059
 31
0.0000000001127424
  0
ARC
  5
1068C
330
18
100
AcDbEntity
  8
01
100
AcDbCircle
 10
3982.126459515608
 20
-2032.555317639059
 30
0.0000000001127424
 40
0.5
100
AcDbArc
 50
180.0
 51
270.0
  0
ARC
  5
1068D
330
18
100
AcDbEntity
  8
01
100
AcDbCircle
 10
4034.126459515604
 20
-2032.555317639059
 30
0.0000000001127424
 40
0.5
100
AcDbArc
 50
270.0
 51
0.0
  0
LINE
  5
1068E
330
18
100
AcDbEntity
  8
01
100
AcDbLine
 10
3858.126459515604
 20
-2301.053999325955
 30
0.0000000000563712
 11
3858.126459515604
 21
-2248.053999325958
 31
0.0000000000563712
  0
LINE
  5
1068F
330
18
100
AcDbEntity
  8
01
100
AcDbLine
 10
3866.626459515604
 20
-2300.553999325955
 30
0.0000000000563712
 11
3866.626459515604
 21
-2248.553999325958
 31
0.0000000000563712
  0
LINE
  5
10690
330
18
100
AcDbEntity
  8
01
100
AcDbLine
 10
3858.126459515604
 20
-2248.053999325958
 30
0.0000000000563712
 11
3866.126459515604
 21
-2248.053999325958
 31
0.0000000000563712
  0
LINE
  5
10691
330
18
100
AcDbEntity
  8
01
100
AcDbLine
 10
3858.126459515604
 20
-2301.053999325955
 30
0.0000000000563712
 11
3866.126459515604
 21
-2301.053999325955
 31
0.0000000000563712
  0
ARC
  5
10692
330
18
100
AcDbEntity
  8
01
100
AcDbCircle
 10
3866.126459515604
 20
-2300.553999325955
 30
0.0000000000563712
 40
0.5
100
AcDbArc
 50
270.0
 51
0.0
  0
ARC
  5
10693
330
18
100
AcDbEntity
  8
01
100
AcDbCircle
 10
3866.126459515604
 20
-2248.553999325958
 30
0.0000000000563712
 40
0.5
100
AcDbArc
 50
0.0
 51
90.0
  0
LINE
  5
10695
330
18
100
AcDbEntity
  8
01
100
AcDbLine
 10
3993.626459515635
 20
-2264.054020067485
 30
0.0000000000563712
 11
3993.626459515635
 21
-2269.554020067532
 31
0.0000000000563712
  0
ARC
  5
10696
330
18
100
AcDbEntity
  8
01
100
AcDbCircle
 10
3994.626459515635
 20
-2264.054020067485
 30
0.0000000000563712
 40
1.0
100
AcDbArc
 50
90.0
 51
180.0
  0
ARC
  5
10697
330
18
100
AcDbEntity
  8
01
100
AcDbCircle
 10
3968.659211723829
 20
-2286.186412489865
 30
0.0000000000563712
 40
30.0
100
AcDbArc
 50
9.023125614317886
 51
33.6702987525536
  0
ARC
  5
10698
330
18
100
AcDbEntity
  8
01
100
AcDbCircle
 10
4005.636858115646
 20
-2262.355002134225
 30
0.0000000000563712
 40
23.5
100
AcDbArc
 50
262.5123892563876
 51
295.8460200082835
  0
ARC
  5
10699
330
18
100
AcDbEntity
  8
01
100
AcDbCircle
 10
4059.477188914997
 20
-2373.501161669391
 30
0.0000000000563712
 40
100.0
100
AcDbArc
 50
113.3096858222589
 51
115.8460200082835
  0
ARC
  5
1069A
330
18
100
AcDbEntity
  8
01
100
AcDbCircle
 10
3968.659210522013
 20
-2286.186412489865
 30
0.0000000000563712
 40
30.0
100
AcDbArc
 50
9.02312588172323
 51
33.6702987525536
  0
ARC
  5
1069B
330
18
100
AcDbEntity
  8
01
100
AcDbCircle
 10
4003.226089709085
 20
-2280.697253786896
 30
0.0000000000563712
 40
5.0
100
AcDbArc
 50
189.0231258817232
 51
262.5123892563876
  0
LINE
  5
1069C
330
18
100
AcDbEntity
  8
01
100
AcDbLine
 10
3994.626459515635
 20
-2263.054020067485
 30
0.0000000000563712
 11
4127.126459515635
 21
-2263.054020067485
 31
0.0000000000563712
  0
LINE
  5
1069D
330
18
100
AcDbEntity
  8
01
100
AcDbLine
 10
4128.126459515635
 20
-2264.054020067485
 30
0.0000000000563712
 11
4128.126459515635
 21
-2269.594818889379
 31
0.0000000000563712
  0
ARC
  5
1069E
330
18
100
AcDbEntity
  8
01
100
AcDbCircle
 10
4127.126459515635
 20
-2264.054020067485
 30
0.0000000000563712
 40
1.0
100
AcDbArc
 50
0.0
 51
90.0
  0
ARC
  5
1069F
330
18
100
AcDbEntity
  8
01
100
AcDbCircle
 10
4018.126459515635
 20
-2277.53050376744
 30
0.0000000000563712
 40
4.5
100
AcDbArc
 50
293.3096858224813
 51
352.7690989199067
  0
ARC
  5
106A0
330
18
100
AcDbEntity
  8
01
100
AcDbCircle
 10
4127.126459515635
 20
-2269.594818889379
 30
0.0000000000563712
 40
1.0
100
AcDbArc
 50
272.3859341441362
 51
0.0
  0
LINE
  5
106A1
330
18
100
AcDbEntity
  8
01
100
AcDbLine
 10
4126.721909443469
 20
-2270.554020067485
 30
0.0000000000563712
 11
3995.35851152499
 21
-2270.554020067485
 31
0.0000000000563712
  0
ARC
  5
106A2
330
18
100
AcDbEntity
  8
01
100
AcDbCircle
 10
3995.35851152499
 20
-2268.554020067485
 30
0.0000000000563712
 40
2.0
100
AcDbArc
 50
209.9999311426791
 51
270.0
  0
LINE
  5
106A3
330
18
100
AcDbEntity
  8
01
100
AcDbLine
 10
4022.590670842872
 20
-2278.096911064146
 30
0.0000000000563712
 11
4022.626459518762
 21
-2278.083158021795
 31
0.0000000000563712
  0
LINE
  5
106A4
330
18
100
AcDbEntity
  8
01
100
AcDbLine
 10
4064.92595964343
 20
-2273.187363304868
 30
0.0000000000563712
 11
4127.168089887949
 21
-2270.593951969655
 31
0.0000000000563712
  0
ARC
  5
106A5
330
18
100
AcDbEntity
  8
01
100
AcDbCircle
 10
4068.000169264289
 20
-2484.68092066639
 30
0.0000000000563712
 40
211.5158990956101
100
AcDbArc
 50
90.83277635062193
 51
102.3971051937546
  0
LINE
  5
106A6
330
18
100
AcDbEntity
  8
01
100
AcDbLine
 10
3993.626459515604
 20
-2033.555317639059
 30
0.0000000001127424
 11
4022.626459515604
 21
-2033.555317639059
 31
0.0000000001127424
  0
LINE
  5
106A7
330
18
100
AcDbEntity
  8
01
100
AcDbLine
 10
4026.126459515602
 20
-2060.555317639059
 30
0.0000000001127424
 11
4126.126459515604
 21
-2060.555317639059
 31
0.0000000001127424
  0
ARC
  5
106A8
330
18
100
AcDbEntity
  8
01
100
AcDbCircle
 10
4026.126459515602
 20
-2057.055317639059
 30
0.0000000001127424
 40
3.5
100
AcDbArc
 50
179.9999999999739
 51
270.0
  0
LINE
  5
106A9
330
18
100
AcDbEntity
  8
01
100
AcDbLine
 10
3993.626459515604
 20
-2033.555317639059
 30
0.0000000001127424
 11
3993.626459515604
 21
-2083.555317639059
 31
0.0000000001127424
  0
ARC
  5
106AA
330
18
100
AcDbEntity
  8
01
100
AcDbCircle
 10
3995.626459515604
 20
-2083.555317639059
 30
0.0000000001127424
 40
2.0
100
AcDbArc
 50
180.0
 51
270.0
  0
LINE
  5
106AB
330
18
100
AcDbEntity
  8
01
100
AcDbLine
 10
3995.626459515604
 20
-2085.555317639059
 30
0.0000000001127424
 11
4126.126459515604
 21
-2085.555317639059
 31
0.0000000001127424
  0
LINE
  5
106AC
330
18
100
AcDbEntity
  8
01
100
AcDbLine
 10
4128.126459515604
 20
-2062.555317639059
 30
0.0000000001127424
 11
4128.126459515604
 21
-2083.555317639059
 31
0.0000000001127424
  0
ARC
  5
106AD
330
18
100
AcDbEntity
  8
01
100
AcDbCircle
 10
4126.126459515604
 20
-2062.555317639059
 30
0.0000000001127424
 40
2.0
100
AcDbArc
 50
0.0
 51
90.0
  0
ARC
  5
106AE
330
18
100
AcDbEntity
  8
01
100
AcDbCircle
 10
4126.126459515604
 20
-2083.555317639059
 30
0.0000000001127424
 40
2.0
100
AcDbArc
 50
270.0
 51
0.0
  0
LINE
  5
106AF
330
18
100
AcDbEntity
  8
01
100
AcDbLine
 10
4022.626459515604
 20
-2033.555317639059
 30
0.0000000001127424
 11
4022.626459515602
 21
-2057.055317639059
 31
0.0000000001127424
  0
LINE
  5
106B0
330
18
100
AcDbEntity
  8
01
100
AcDbLine
 10
3918.126459064861
 20
-2263.054159208355
 30
0.0000000000563712
 11
3867.126459515604
 21
-2263.054159208355
 31
0.0000000000563712
  0
LINE
  5
106B1
330
18
100
AcDbEntity
  8
01
100
AcDbLine
 10
3918.126459064861
 20
-2269.554159208355
 30
0.0000000000563712
 11
3867.126459515604
 21
-2269.554159208355
 31
0.0000000000563712
  0
ARC
  5
106B2
330
18
100
AcDbEntity
  8
01
100
AcDbCircle
 10
3918.126459064861
 20
-2264.054159208355
 30
0.0000000000563712
 40
1.0
100
AcDbArc
 50
0.0
 51
90.0
  0
LINE
  5
106B3
330
18
100
AcDbEntity
  8
01
100
AcDbLine
 10
3919.12547163038
 20
-2269.560136059147
 30
0.0000000000563712
 11
3919.126459064861
 21
-2264.054159208355
 31
0.0000000000563712
  0
LINE
  5
106B4
330
18
100
AcDbEntity
  8
01
100
AcDbLine
 10
3867.126459515604
 20
-2285.855186253171
 30
0.0000000000563712
 11
3867.126459515604
 21
-2263.054159208355
 31
0.0000000000563712
  0
ARC
  5
106B5
330
18
100
AcDbEntity
  8
01
100
AcDbCircle
 10
3867.126459515604
 20
-2204.855186253171
 30
0.0000000000563712
 40
81.0
100
AcDbArc
 50
270.0
 51
293.5404294679195
  0
LINE
  5
106B6
330
18
100
AcDbEntity
  8
01
100
AcDbLine
 10
3918.207235688849
 20
-2270.954620404564
 30
0.0000000000563712
 11
3899.477541368073
 21
-2279.114242959911
 31
0.0000000000563712
  0
ARC
  5
106B7
330
18
100
AcDbEntity
  8
01
100
AcDbCircle
 10
3917.490489384645
 20
-2269.483098589931
 30
0.0000000000563712
 40
1.636796174094678
100
AcDbArc
 50
295.9697070078264
 51
357.3023195105308
  0
LINE
  5
106B8
330
18
100
AcDbEntity
  8
1CENTER
100
AcDbLine
 10
3992.042784751663
 20
-1970.052689048163
 30
0.0000000001127424
 11
4000.176457113511
 21
-1970.052681014913
 31
0.0000000001127424
  0
LINE
  5
106B9
330
18
100
AcDbEntity
  8
01
100
AcDbLine
 10
3993.626459515604
 20
-1975.55268101491
 30
0.0000000001127424
 11
4005.626587820206
 21
-1975.55268101491
 31
0.0000000001127424
  0
LINE
  5
106BA
330
18
100
AcDbEntity
  8
01
100
AcDbLine
 10
4010.626587820208
 20
-1975.55268101491
 30
0.0000000001127424
 11
4022.626459515604
 21
-1975.55268101491
 31
0.0000000001127424
  0
LINE
  5
106BB
330
18
100
AcDbEntity
  8
01
100
AcDbLine
 10
4026.126459515602
 20
-1948.55268101491
 30
0.0000000001127424
 11
4126.126459515604
 21
-1948.55268101491
 31
0.0000000001127424
  0
LINE
  5
106BC
330
18
100
AcDbEntity
  8
01
100
AcDbLine
 10
3993.626459515604
 20
-1975.55268101491
 30
0.0000000001127424
 11
3993.626459515604
 21
-1925.55268101491
 31
0.0000000001127424
  0
ARC
  5
106BD
330
18
100
AcDbEntity
  8
01
100
AcDbCircle
 10
3995.626459515604
 20
-1925.55268101491
 30
0.0000000001127424
 40
2.0
100
AcDbArc
 50
90.0
 51
180.0
  0
LINE
  5
106BE
330
18
100
AcDbEntity
  8
01
100
AcDbLine
 10
3995.626459515604
 20
-1923.55268101491
 30
0.0000000001127424
 11
4126.126459515604
 21
-1923.55268101491
 31
0.0000000001127424
  0
LINE
  5
106BF
330
18
100
AcDbEntity
  8
01
100
AcDbLine
 10
4128.126459515604
 20
-1946.55268101491
 30
0.0000000001127424
 11
4128.126459515604
 21
-1925.55268101491
 31
0.0000000001127424
  0
ARC
  5
106C0
330
18
100
AcDbEntity
  8
01
100
AcDbCircle
 10
4126.126459515604
 20
-1946.55268101491
 30
0.0000000001127424
 40
2.0
100
AcDbArc
 50
270.0
 51
0.0
  0
ARC
  5
106C1
330
18
100
AcDbEntity
  8
01
100
AcDbCircle
 10
4126.126459515604
 20
-1925.55268101491
 30
0.0000000001127424
 40
2.0
100
AcDbArc
 50
0.0
 51
90.0
  0
LINE
  5
106C2
330
18
100
AcDbEntity
  8
01
100
AcDbLine
 10
4022.626459515604
 20
-1975.55268101491
 30
0.0000000001127424
 11
4022.626459515602
 21
-1952.05268101491
 31
0.0000000001127424
  0
ARC
  5
106C3
330
18
100
AcDbEntity
  8
01
100
AcDbCircle
 10
4026.126459515602
 20
-1952.05268101491
 30
0.0000000001127424
 40
3.5
100
AcDbArc
 50
90.0
 51
180.0000000000261
  0
LINE
  5
106C4
330
18
100
AcDbEntity
  8
01
100
AcDbLine
 10
3758.126692645836
 20
-2263.054159208355
 30
0.0000000000563712
 11
3809.126692195093
 21
-2263.054159208355
 31
0.0000000000563712
  0
LINE
  5
106C5
330
18
100
AcDbEntity
  8
01
100
AcDbLine
 10
3758.126692645836
 20
-2269.554159208355
 30
0.0000000000563712
 11
3809.126692195093
 21
-2269.554159208355
 31
0.0000000000563712
  0
ARC
  5
106C6
330
18
100
AcDbEntity
  8
01
100
AcDbCircle
 10
3758.126692645836
 20
-2264.054159208355
 30
0.0000000000563712
 40
1.0
100
AcDbArc
 50
90.0
 51
180.0
  0
LINE
  5
106C7
330
18
100
AcDbEntity
  8
01
100
AcDbLine
 10
3757.127680080318
 20
-2269.560136059147
 30
0.0000000000563712
 11
3757.126692645836
 21
-2264.054159208355
 31
0.0000000000563712
  0
LINE
  5
106C8
330
18
100
AcDbEntity
  8
01
100
AcDbLine
 10
3809.126692195093
 20
-2285.855186253171
 30
0.0000000000563712
 11
3809.126692195093
 21
-2263.054159208355
 31
0.0000000000563712
  0
ARC
  5
106C9
330
18
100
AcDbEntity
  8
01
100
AcDbCircle
 10
3809.126692195093
 20
-2204.855186253171
 30
0.0000000000563712
 40
81.0
100
AcDbArc
 50
246.4595705320805
 51
270.0
  0
LINE
  5
106CA
330
18
100
AcDbEntity
  8
01
100
AcDbLine
 10
3758.045916021848
 20
-2270.954620404564
 30
0.0000000000563712
 11
3776.775610342624
 21
-2279.114242959911
 31
0.0000000000563712
  0
ARC
  5
106CB
330
18
100
AcDbEntity
  8
01
100
AcDbCircle
 10
3758.762662326053
 20
-2269.483098589931
 30
0.0000000000563712
 40
1.636796174094678
100
AcDbArc
 50
182.6976804894692
 51
244.0302929921736
  0
LINE
  5
106CC
330
18
100
AcDbEntity
  8
01
  6
BYBLOCK
100
AcDbLine
 10
3650.126692195091
 20
-2239.053999121828
 30
0.0000000000563712
 11
3650.126692195091
 21
-2248.053999325958
 31
0.0000000000563712
  0
LINE
  5
106CD
330
18
100
AcDbEntity
  8
01
100
AcDbLine
 10
3698.126692195093
 20
-2274.553999325956
 30
0.0000000000563712
 11
3638.126692195093
 21
-2274.553999325956
 31
0.0000000000563712
  0
LINE
  5
106CE
330
18
100
AcDbEntity
  8
01
100
AcDbLine
 10
3668.126692195093
 20
-2244.553999325956
 30
0.0000000000563712
 11
3668.126692195093
 21
-2304.553999325956
 31
0.0000000000563712
  0
LINE
  5
106CF
330
18
100
AcDbEntity
  8
01
100
AcDbLine
 10
3642.126692195093
 20
-2248.053999325958
 30
0.0000000000563712
 11
3694.12669219509
 21
-2248.053999325958
 31
0.0000000000563712
  0
LINE
  5
106D0
330
18
100
AcDbEntity
  8
01
100
AcDbLine
 10
3694.12669219509
 20
-2301.053999325958
 30
0.0000000000563712
 11
3642.126692195093
 21
-2301.053999325958
 31
0.0000000000563712
  0
LINE
  5
106D1
330
18
100
AcDbEntity
  8
01
100
AcDbLine
 10
3694.62669219509
 20
-2248.553999325958
 30
0.0000000000563712
 11
3694.62669219509
 21
-2300.553999325958
 31
0.0000000000563712
  0
ARC
  5
106D2
330
18
100
AcDbEntity
  8
01
100
AcDbCircle
 10
3694.12669219509
 20
-2300.553999325958
 30
0.0000000000563712
 40
0.5
100
AcDbArc
 50
270.0
 51
0.0
  0
ARC
  5
106D3
330
18
100
AcDbEntity
  8
01
100
AcDbCircle
 10
3694.12669219509
 20
-2248.553999325958
 30
0.0000000000563712
 40
0.5
100
AcDbArc
 50
0.0
 51
90.0
  0
LINE
  5
106D4
330
18
100
AcDbEntity
  8
01
100
AcDbLine
 10
3641.626692195093
 20
-2248.553999325958
 30
0.0000000000563712
 11
3641.626692195093
 21
-2263.054020067485
 31
0.0000000000563712
  0
LINE
  5
106D5
330
18
100
AcDbEntity
  8
01
100
AcDbLine
 10
3641.626692195093
 20
-2275.814525408955
 30
0.0000000000563712
 11
3641.626692195093
 21
-2300.553999325958
 31
0.0000000000563712
  0
ARC
  5
106D6
330
18
100
AcDbEntity
  8
01
100
AcDbCircle
 10
3642.126692195093
 20
-2300.553999325958
 30
0.0000000000563712
 40
0.5
100
AcDbArc
 50
180.0
 51
270.0
  0
ARC
  5
106D7
330
18
100
AcDbEntity
  8
01
100
AcDbCircle
 10
3642.126692195093
 20
-2248.553999325958
 30
0.0000000000563712
 40
0.5
100
AcDbArc
 50
90.0
 51
180.0
  0
LINE
  5
106D8
330
18
100
AcDbEntity
  8
01
100
AcDbLine
 10
3682.626692195062
 20
-2264.054020067485
 30
0.0000000000563712
 11
3682.626692195062
 21
-2269.554020067532
 31
0.0000000000563712
  0
ARC
  5
106D9
330
18
100
AcDbEntity
  8
01
100
AcDbCircle
 10
3681.626692195062
 20
-2264.054020067485
 30
0.0000000000563712
 40
1.0
100
AcDbArc
 50
0.0
 51
90.0
  0
ARC
  5
106DA
330
18
100
AcDbEntity
  8
01
100
AcDbCircle
 10
3707.593939986868
 20
-2286.186412489865
 30
0.0000000000563712
 40
30.0
100
AcDbArc
 50
146.3297012474247
 51
170.9768743856821
  0
ARC
  5
106DB
330
18
100
AcDbEntity
  8
01
100
AcDbCircle
 10
3670.616293595051
 20
-2262.355002134225
 30
0.0000000000563712
 40
23.5
100
AcDbArc
 50
244.1539799917165
 51
277.4876107436124
  0
ARC
  5
106DC
330
18
100
AcDbEntity
  8
01
100
AcDbCircle
 10
3616.775962795701
 20
-2373.501161669391
 30
0.0000000000563712
 40
100.0
100
AcDbArc
 50
64.15397999171648
 51
66.69031417774107
  0
ARC
  5
106DD
330
18
100
AcDbEntity
  8
01
100
AcDbCircle
 10
3707.593941188684
 20
-2286.186412489865
 30
0.0000000000563712
 40
30.0
100
AcDbArc
 50
146.3297012474247
 51
170.9768741182768
  0
ARC
  5
106DE
330
18
100
AcDbEntity
  8
01
100
AcDbCircle
 10
3673.027062001612
 20
-2280.697253786896
 30
0.0000000000563712
 40
5.0
100
AcDbArc
 50
277.4876107436124
 51
350.9768741182768
  0
LINE
  5
106DF
330
18
100
AcDbEntity
  8
01
100
AcDbLine
 10
3681.626692195062
 20
-2263.054020067485
 30
0.0000000000563712
 11
3549.126692195062
 21
-2263.054020067485
 31
0.0000000000563712
  0
LINE
  5
106E0
330
18
100
AcDbEntity
  8
01
100
AcDbLine
 10
3548.126692195062
 20
-2264.054020067485
 30
0.0000000000563712
 11
3548.126692195062
 21
-2269.594818889379
 31
0.0000000000563712
  0
ARC
  5
106E1
330
18
100
AcDbEntity
  8
01
100
AcDbCircle
 10
3549.126692195062
 20
-2264.054020067485
 30
0.0000000000563712
 40
1.0
100
AcDbArc
 50
90.0
 51
180.0
  0
ARC
  5
106E2
330
18
100
AcDbEntity
  8
01
100
AcDbCircle
 10
3658.126692195062
 20
-2277.53050376744
 30
0.0000000000563712
 40
4.5
100
AcDbArc
 50
187.2309010800933
 51
246.6903141775187
  0
ARC
  5
106E3
330
18
100
AcDbEntity
  8
01
100
AcDbCircle
 10
3549.126692195062
 20
-2269.594818889379
 30
0.0000000000563712
 40
1.0
100
AcDbArc
 50
180.0
 51
267.6140658558638
  0
LINE
  5
106E4
330
18
100
AcDbEntity
  8
01
100
AcDbLine
 10
3549.531242267227
 20
-2270.554020067485
 30
0.0000000000563712
 11
3680.894640185707
 21
-2270.554020067485
 31
0.0000000000563712
  0
ARC
  5
106E5
330
18
100
AcDbEntity
  8
01
100
AcDbCircle
 10
3680.894640185707
 20
-2268.554020067485
 30
0.0000000000563712
 40
2.0
100
AcDbArc
 50
270.0
 51
330.0000688573209
  0
LINE
  5
106E6
330
18
100
AcDbEntity
  8
01
100
AcDbLine
 10
3653.662480867825
 20
-2278.096911064146
 30
0.0000000000563712
 11
3653.626692191935
 21
-2278.083158021795
 31
0.0000000000563712
  0
LINE
  5
106E7
330
18
100
AcDbEntity
  8
01
100
AcDbLine
 10
3611.327192067267
 20
-2273.187363304868
 30
0.0000000000563712
 11
3549.085061822747
 21
-2270.593951969655
 31
0.0000000000563712
  0
ARC
  5
106E8
330
18
100
AcDbEntity
  8
01
100
AcDbCircle
 10
3608.252982446409
 20
-2484.68092066639
 30
0.0000000000563712
 40
211.5158990956101
100
AcDbArc
 50
77.60289480624542
 51
89.16722364937809
  0
LINE
  5
11901
330
18
100
AcDbEntity
  8
01
100
AcDbLine
 10
3818.12657585535
 20
-2199.053999325955
 30
0.0
 11
3818.12657585535
 21
-2167.253999325955
 31
0.0
1001
ACAD
1000
DSTYLE
1002
{
1070
    40
1040
1.3
1070
    45
1040
0.5
1070
   341
1005
0
1002
}
  0
LINE
  5
11902
330
18
100
AcDbEntity
  8
01
100
AcDbLine
 10
3796.126190289631
 20
-2214.554004325954
 30
0.0
 11
3796.126190289631
 21
-2167.253999325955
 31
0.0
1001
ACAD
1000
DSTYLE
1002
{
1070
    40
1040
1.3
1070
    45
1040
0.5
1070
   341
1005
0
1002
}
  0
LINE
  5
11903
330
18
100
AcDbEntity
  8
01
100
AcDbLine
 10
3815.526575855351
 20
-2168.553999325955
 30
0.0
 11
3798.726190289631
 21
-2168.553999325955
 31
0.0
1001
ACAD
1000
DSTYLE
1002
{
1070
    40
1040
1.3
1070
    45
1040
0.5
1070
   341
1005
0
1002
}
  0
LINE
  5
11907
330
18
100
AcDbEntity
  8
01
100
AcDbLine
 10
3858.12657585535
 20
-2199.053999325955
 30
0.0
 11
3858.12657585535
 21
-2167.253999325955
 31
0.0
1001
ACAD
1000
DSTYLE
1002
{
1070
    40
1040
1.3
1070
    45
1040
0.5
1070
   271
1070
     1
1070
   341
1005
0
1002
}
  0
LINE
  5
11908
330
18
100
AcDbEntity
  8
01
100
AcDbLine
 10
3866.295159544311
 20
-2224.553997758263
 30
0.0
 11
3866.295159544311
 21
-2167.253999325955
 31
0.0
1001
ACAD
1000
DSTYLE
1002
{
1070
    40
1040
1.3
1070
    45
1040
0.5
1070
   271
1070
     1
1070
   341
1005
0
1002
}
  0
LINE
  5
11909
330
18
100
AcDbEntity
  8
01
100
AcDbLine
 10
3860.72657585535
 20
-2168.553999325955
 30
0.0
 11
3863.695159544311
 21
-2168.553999325955
 31
0.0
1001
ACAD
1000
DSTYLE
1002
{
1070
    40
1040
1.3
1070
    45
1040
0.5
1070
   271
1070
     1
1070
   341
1005
0
1002
}
  0
LINE
  5
1190D
330
18
100
AcDbEntity
  8
01
100
AcDbLine
 10
3648.126587210434
 20
-2199.553999325955
 30
0.0
 11
3648.126587210434
 21
-2190.253999325955
 31
0.0
1001
ACAD
1000
DSTYLE
1002
{
1070
     3
1000
□<>
1070
    40
1040
1.3
1070
    45
1040
0.5
1070
   271
1070
     1
1070
   272
1070
     2
1002
}
  0
LINE
  5
1190E
330
18
100
AcDbEntity
  8
01
100
AcDbLine
 10
3688.126587210434
 20
-2199.553999325956
 30
0.0
 11
3688.126587210434
 21
-2190.253999325955
 31
0.0
1001
ACAD
1000
DSTYLE
1002
{
1070
     3
1000
□<>
1070
    40
1040
1.3
1070
    45
1040
0.5
1070
   271
1070
     1
1070
   272
1070
     2
1002
}
  0
LINE
  5
1190F
330
18
100
AcDbEntity
  8
01
100
AcDbLine
 10
3650.726587210434
 20
-2191.553999325955
 30
0.0
 11
3685.526587210434
 21
-2191.553999325955
 31
0.0
1001
ACAD
1000
DSTYLE
1002
{
1070
     3
1000
□<>
1070
    40
1040
1.3
1070
    45
1040
0.5
1070
   271
1070
     1
1070
   272
1070
     2
1002
}
  0
LINE
  5
11913
330
18
100
AcDbEntity
  8
01
100
AcDbLine
 10
3988.126467193147
 20
-2199.553999325955
 30
0.0
 11
3988.126467193147
 21
-2190.253999325955
 31
0.0
1001
ACAD
1000
DSTYLE
1002
{
1070
     3
1000
□<>
1070
    40
1040
1.3
1070
    45
1040
0.5
1070
   271
1070
     1
1070
   272
1070
     2
1002
}
  0
LINE
  5
11914
330
18
100
AcDbEntity
  8
01
100
AcDbLine
 10
4028.126467193147
 20
-2199.553999325956
 30
0.0
 11
4028.126467193147
 21
-2190.253999325955
 31
0.0
1001
ACAD
1000
DSTYLE
1002
{
1070
     3
1000
□<>
1070
    40
1040
1.3
1070
    45
1040
0.5
1070
   271
1070
     1
1070
   272
1070
     2
1002
}
  0
LINE
  5
11915
330
18
100
AcDbEntity
  8
01
100
AcDbLine
 10
3990.726467193147
 20
-2191.553999325955
 30
0.0
 11
4025.526467193147
 21
-2191.553999325955
 31
0.0
1001
ACAD
1000
DSTYLE
1002
{
1070
     3
1000
□<>
1070
    40
1040
1.3
1070
    45
1040
0.5
1070
   271
1070
     1
1070
   272
1070
     2
1002
}
  0
TEXT
  5
11919
330
18
100
AcDbEntity
  8
01
  6
CONTINUOUS
100
AcDbText
 10
3919.129620608622
 20
-2061.970665993651
 30
0.0000000000563712
 40
4.55
  1
材質：亜鉛ダイキャスト
100
AcDbText
  0
TEXT
  5
1191A
330
18
100
AcDbEntity
  8
01
  6
CONTINUOUS
100
AcDbText
 10
3929.442953941955
 20
-2069.553999326985
 30
0.0000000000563712
 40
4.55
  1
仕上げ：各種メッキ
100
AcDbText
  0
LINE
  5
1191B
330
18
100
AcDbEntity
  8
01
100
AcDbLine
 10
3946.126459515604
 20
-2246.554000024087
 30
0.0
 11
3946.126459515604
 21
-2143.832507241268
 31
0.0
1001
ACAD
1000
DSTYLE
1002
{
1070
    40
1040
1.3
1070
    45
1040
0.5
1002
}
  0
LINE
  5
1191C
330
18
100
AcDbEntity
  8
01
100
AcDbLine
 10
3957.126459515604
 20
-2188.682681974798
 30
0.0
 11
3957.126459515604
 21
-2143.832507241268
 31
0.0
1001
ACAD
1000
DSTYLE
1002
{
1070
    40
1040
1.3
1070
    45
1040
0.5
1002
}
  0
LINE
  5
1191D
330
18
100
AcDbEntity
  8
01
100
AcDbLine
 10
3948.726459515604
 20
-2145.132507241268
 30
0.0
 11
3954.526459515604
 21
-2145.132507241268
 31
0.0
1001
ACAD
1000
DSTYLE
1002
{
1070
    40
1040
1.3
1070
    45
1040
0.5
1002
}
  0
LINE
  5
11921
330
18
100
AcDbEntity
  8
01
100
AcDbLine
 10
4026.126459515604
 20
-2216.561371833564
 30
0.0
 11
4054.426459515604
 21
-2216.561371833564
 31
0.0
1001
ACAD
1000
DSTYLE
1002
{
1070
    40
1040
1.3
1070
    45
1040
0.5
1002
}
  0
LINE
  5
11922
330
18
100
AcDbEntity
  8
01
100
AcDbLine
 10
4026.126459515604
 20
-2290.553999325956
 30
0.0
 11
4054.426459515604
 21
-2290.553999325956
 31
0.0
1001
ACAD
1000
DSTYLE
1002
{
1070
    40
1040
1.3
1070
    45
1040
0.5
1002
}
  0
LINE
  5
11923
330
18
100
AcDbEntity
  8
01
100
AcDbLine
 10
4053.126459515604
 20
-2219.161371833564
 30
0.0
 11
4053.126459515604
 21
-2287.953999325956
 31
0.0
1001
ACAD
1000
DSTYLE
1002
{
1070
    40
1040
1.3
1070
    45
1040
0.5
1002
}
  0
LINE
  5
11927
330
18
100
AcDbEntity
  8
01
100
AcDbLine
 10
4026.126459515604
 20
-2216.561371833564
 30
0.0
 11
4026.126459515604
 21
-2133.752639773219
 31
0.0
1001
ACAD
1000
DSTYLE
1002
{
1070
    40
1040
1.3
1070
    45
1040
0.5
1002
}
  0
LINE
  5
11928
330
18
100
AcDbEntity
  8
01
100
AcDbLine
 10
3957.126459515604
 20
-2188.682681974798
 30
0.0
 11
3957.126459515604
 21
-2133.752639773219
 31
0.0
1001
ACAD
1000
DSTYLE
1002
{
1070
    40
1040
1.3
1070
    45
1040
0.5
1002
}
  0
LINE
  5
11929
330
18
100
AcDbEntity
  8
01
100
AcDbLine
 10
4023.526459515604
 20
-2135.05263977322
 30
0.0
 11
3959.726459515604
 21
-2135.05263977322
 31
0.0
1001
ACAD
1000
DSTYLE
1002
{
1070
    40
1040
1.3
1070
    45
1040
0.5
1002
}
  0
LINE
  5
1192D
330
18
100
AcDbEntity
  8
01
100
AcDbLine
 10
3957.126459515604
 20
-2188.682681974798
 30
0.0
 11
3957.126459515604
 21
-2143.832507241268
 31
0.0
1001
ACAD
1000
DSTYLE
1002
{
1070
    40
1040
1.3
1070
    45
1040
0.5
1002
}
  0
LINE
  5
1192E
330
18
100
AcDbEntity
  8
01
100
AcDbLine
 10
4008.126459515604
 20
-2224.553999325956
 30
0.0
 11
4008.126459515604
 21
-2143.832507241268
 31
0.0
1001
ACAD
1000
DSTYLE
1002
{
1070
    40
1040
1.3
1070
    45
1040
0.5
1002
}
  0
LINE
  5
1192F
330
18
100
AcDbEntity
  8
01
100
AcDbLine
 10
3959.726459515604
 20
-2145.132507241268
 30
0.0
 11
4005.526459515604
 21
-2145.132507241268
 31
0.0
1001
ACAD
1000
DSTYLE
1002
{
1070
    40
1040
1.3
1070
    45
1040
0.5
1002
}
  0
LINE
  5
11933
330
18
100
AcDbEntity
  8
01
100
AcDbLine
 10
3844.001601263255
 20
-2196.553999325956
 30
0.0
 11
3924.287732431462
 21
-2196.553999325956
 31
0.0
1001
ACAD
1000
DSTYLE
1002
{
1070
    40
1040
1.3
1070
    45
1040
0.5
1002
}
  0
LINE
  5
11934
330
18
100
AcDbEntity
  8
01
100
AcDbLine
 10
3844.001601263255
 20
-2310.553999325956
 30
0.0
 11
3924.287732431462
 21
-2310.553999325956
 31
0.0
1001
ACAD
1000
DSTYLE
1002
{
1070
    40
1040
1.3
1070
    45
1040
0.5
1002
}
  0
LINE
  5
11935
330
18
100
AcDbEntity
  8
01
100
AcDbLine
 10
3922.987732431462
 20
-2199.153999325956
 30
0.0
 11
3922.987732431462
 21
-2307.953999325956
 31
0.0
1001
ACAD
1000
DSTYLE
1002
{
1070
    40
1040
1.3
1070
    45
1040
0.5
1002
}
  0
LINE
  5
11939
330
18
100
AcDbEntity
  8
01
100
AcDbLine
 10
3844.599661660018
 20
-2188.654444470373
 30
0.0
 11
3933.652066597687
 21
-2188.654444470373
 31
0.0
1001
ACAD
1000
DSTYLE
1002
{
1070
    40
1040
1.3
1070
    45
1040
0.5
1002
}
  0
LINE
  5
1193A
330
18
100
AcDbEntity
  8
01
100
AcDbLine
 10
3844.526575855348
 20
-2318.453999325956
 30
0.0
 11
3933.652066597687
 21
-2318.453999325956
 31
0.0
1001
ACAD
1000
DSTYLE
1002
{
1070
    40
1040
1.3
1070
    45
1040
0.5
1002
}
  0
LINE
  5
1193B
330
18
100
AcDbEntity
  8
01
100
AcDbLine
 10
3932.352066597687
 20
-2191.254444470373
 30
0.0
 11
3932.352066597687
 21
-2315.853999325956
 31
0.0
1001
ACAD
1000
DSTYLE
1002
{
1070
    40
1040
1.3
1070
    45
1040
0.5
1002
}
  0
LINE
  5
1193F
330
18
100
AcDbEntity
  8
01
100
AcDbLine
 10
3825.626575855349
 20
-2194.553999325956
 30
0.0
 11
3825.626575855349
 21
-2143.832507241268
 31
0.0
1001
ACAD
1000
DSTYLE
1002
{
1070
    40
1040
1.3
1070
    45
1040
0.5
1002
}
  0
LINE
  5
11940
330
18
100
AcDbEntity
  8
01
100
AcDbLine
 10
3850.626575855349
 20
-2194.553999325956
 30
0.0
 11
3850.626575855349
 21
-2143.832507241268
 31
0.0
1001
ACAD
1000
DSTYLE
1002
{
1070
    40
1040
1.3
1070
    45
1040
0.5
1002
}
  0
LINE
  5
11941
330
18
100
AcDbEntity
  8
01
100
AcDbLine
 10
3828.226575855349
 20
-2145.132507241268
 30
0.0
 11
3848.026575855349
 21
-2145.132507241268
 31
0.0
1001
ACAD
1000
DSTYLE
1002
{
1070
    40
1040
1.3
1070
    45
1040
0.5
1002
}
  0
LINE
  5
11945
330
18
100
AcDbEntity
  8
01
100
AcDbLine
 10
3804.925613961026
 20
-2273.803999325956
 30
0.0
 11
3803.626575855349
 21
-2273.053999325956
 31
0.0
  0
LINE
  5
11946
330
18
100
AcDbEntity
  8
01
100
AcDbLine
 10
3803.626575855349
 20
-2273.053999325956
 30
0.0
 11
3802.327537749672
 21
-2273.803999325956
 31
0.0
  0
LINE
  5
11947
330
18
100
AcDbEntity
  8
01
100
AcDbLine
 10
3802.327537749672
 20
-2273.803999325956
 30
0.0
 11
3802.327537749672
 21
-2275.303999325956
 31
0.0
  0
LINE
  5
11948
330
18
100
AcDbEntity
  8
01
100
AcDbLine
 10
3802.327537749672
 20
-2275.303999325956
 30
0.0
 11
3803.626575855349
 21
-2276.053999325956
 31
0.0
  0
LINE
  5
11949
330
18
100
AcDbEntity
  8
01
100
AcDbLine
 10
3803.626575855349
 20
-2276.053999325956
 30
0.0
 11
3804.925613961026
 21
-2275.303999325956
 31
0.0
  0
LINE
  5
1194A
330
18
100
AcDbEntity
  8
01
100
AcDbLine
 10
3804.925613961026
 20
-2275.303999325956
 30
0.0
 11
3804.925613961026
 21
-2273.803999325956
 31
0.0
  0
CIRCLE
  5
1194B
330
18
100
AcDbEntity
  8
01
100
AcDbCircle
 10
3872.626459515604
 20
-2274.553999325956
 30
0.0000000000563712
 40
3.0
  0
LINE
  5
1194C
330
18
100
AcDbEntity
  8
01
100
AcDbLine
 10
3982.126459515608
 20
-2248.053999325958
 30
0.0
 11
3971.826459515603
 21
-2248.053999325958
 31
0.0
1001
ACAD
1000
DSTYLE
1002
{
1070
     3
1000
□<>
1070
    40
1040
1.3
1070
    45
1040
0.5
1002
}
  0
LINE
  5
1194D
330
18
100
AcDbEntity
  8
01
100
AcDbLine
 10
3982.126459515608
 20
-2301.053999325958
 30
0.0
 11
3971.826459515603
 21
-2301.053999325958
 31
0.0
1001
ACAD
1000
DSTYLE
1002
{
1070
     3
1000
□<>
1070
    40
1040
1.3
1070
    45
1040
0.5
1002
}
  0
LINE
  5
1194E
330
18
100
AcDbEntity
  8
01
100
AcDbLine
 10
3973.126459515604
 20
-2250.653999325958
 30
0.0
 11
3973.126459515604
 21
-2298.453999325958
 31
0.0
1001
ACAD
1000
DSTYLE
1002
{
1070
     3
1000
□<>
1070
    40
1040
1.3
1070
    45
1040
0.5
1002
}
  0
LINE
  5
11952
330
18
100
AcDbEntity
  8
01
  6
BYBLOCK
100
AcDbLine
 10
3815.526575855351
 20
-2167.857331431956
 30
0.0
 11
3818.12657585535
 21
-2168.553999325955
 31
0.0
  0
LINE
  5
11953
330
18
100
AcDbEntity
  8
01
  6
BYBLOCK
100
AcDbLine
 10
3818.12657585535
 20
-2168.553999325955
 30
0.0
 11
3815.526575855351
 21
-2169.250667219955
 31
0.0
  0
LINE
  5
11954
330
18
100
AcDbEntity
  8
01
  6
BYBLOCK
100
AcDbLine
 10
3818.12657585535
 20
-2168.553999325955
 30
0.0
 11
3815.526575855351
 21
-2168.553999325955
 31
0.0
  0
LINE
  5
11955
330
18
100
AcDbEntity
  8
01
  6
BYBLOCK
100
AcDbLine
 10
3798.726190289631
 20
-2169.250667219955
 30
0.0
 11
3796.126190289631
 21
-2168.553999325955
 31
0.0
  0
LINE
  5
11956
330
18
100
AcDbEntity
  8
01
  6
BYBLOCK
100
AcDbLine
 10
3796.126190289631
 20
-2168.553999325955
 30
0.0
 11
3798.726190289631
 21
-2167.857331431956
 31
0.0
  0
LINE
  5
11957
330
18
100
AcDbEntity
  8
01
  6
BYBLOCK
100
AcDbLine
 10
3796.126190289631
 20
-2168.553999325955
 30
0.0
 11
3798.726190289631
 21
-2168.553999325955
 31
0.0
  0
TEXT
  5
11958
330
18
100
AcDbEntity
  8
01
  6
CONTINUOUS
100
AcDbText
 10
3803.334716405824
 20
-2167.643999325956
 30
0.0
 40
4.55
  1
22
100
AcDbText
1001
ACAD
1000
DSTYLE
1002
{
1070
    40
1040
1.3
1070
    45
1040
0.5
1070
   341
1005
0
1002
}
  0
LINE
  5
11959
330
18
100
AcDbEntity
  8
01
  6
BYBLOCK
100
AcDbLine
 10
3860.72657585535
 20
-2169.250667219955
 30
0.0
 11
3858.12657585535
 21
-2168.553999325955
 31
0.0
  0
LINE
  5
1195A
330
18
100
AcDbEntity
  8
01
  6
BYBLOCK
100
AcDbLine
 10
3858.12657585535
 20
-2168.553999325955
 30
0.0
 11
3860.72657585535
 21
-2167.857331431956
 31
0.0
  0
LINE
  5
1195B
330
18
100
AcDbEntity
  8
01
  6
BYBLOCK
100
AcDbLine
 10
3858.12657585535
 20
-2168.553999325955
 30
0.0
 11
3860.72657585535
 21
-2168.553999325955
 31
0.0
  0
LINE
  5
1195C
330
18
100
AcDbEntity
  8
01
  6
BYBLOCK
100
AcDbLine
 10
3863.695159544311
 20
-2167.857331431956
 30
0.0
 11
3866.295159544311
 21
-2168.553999325955
 31
0.0
  0
LINE
  5
1195D
330
18
100
AcDbEntity
  8
01
  6
BYBLOCK
100
AcDbLine
 10
3866.295159544311
 20
-2168.553999325955
 30
0.0
 11
3863.695159544311
 21
-2169.250667219955
 31
0.0
  0
LINE
  5
1195E
330
18
100
AcDbEntity
  8
01
  6
BYBLOCK
100
AcDbLine
 10
3866.295159544311
 20
-2168.553999325955
 30
0.0
 11
3863.695159544311
 21
-2168.553999325955
 31
0.0
  0
TEXT
  5
1195F
330
18
100
AcDbEntity
  8
01
  6
CONTINUOUS
100
AcDbText
 10
3860.694201033164
 20
-2167.643999325956
 30
0.0
 40
4.55
  1
8
100
AcDbText
1001
ACAD
1000
DSTYLE
1002
{
1070
    40
1040
1.3
1070
    45
1040
0.5
1070
   271
1070
     1
1070
   341
1005
0
1002
}
  0
LINE
  5
11960
330
18
100
AcDbEntity
  8
01
  6
BYBLOCK
100
AcDbLine
 10
3650.726587210434
 20
-2192.250667219955
 30
0.0
 11
3648.126587210434
 21
-2191.553999325955
 31
0.0
  0
LINE
  5
11961
330
18
100
AcDbEntity
  8
01
  6
BYBLOCK
100
AcDbLine
 10
3648.126587210434
 20
-2191.553999325955
 30
0.0
 11
3650.726587210434
 21
-2190.857331431956
 31
0.0
  0
LINE
  5
11962
330
18
100
AcDbEntity
  8
01
  6
BYBLOCK
100
AcDbLine
 10
3648.126587210434
 20
-2191.553999325955
 30
0.0
 11
3650.726587210434
 21
-2191.553999325955
 31
0.0
  0
LINE
  5
11963
330
18
100
AcDbEntity
  8
01
  6
BYBLOCK
100
AcDbLine
 10
3685.526587210434
 20
-2190.857331431956
 30
0.0
 11
3688.126587210434
 21
-2191.553999325955
 31
0.0
  0
LINE
  5
11964
330
18
100
AcDbEntity
  8
01
  6
BYBLOCK
100
AcDbLine
 10
3688.126587210434
 20
-2191.553999325955
 30
0.0
 11
3685.526587210434
 21
-2192.250667219955
 31
0.0
  0
LINE
  5
11965
330
18
100
AcDbEntity
  8
01
  6
BYBLOCK
100
AcDbLine
 10
3688.126587210434
 20
-2191.553999325955
 30
0.0
 11
3685.526587210434
 21
-2191.553999325955
 31
0.0
  0
TEXT
  5
11966
330
18
100
AcDbEntity
  8
01
  6
CONTINUOUS
100
AcDbText
 10
3661.7376288771
 20
-2190.643999325956
 30
0.0
 40
4.55
  1
□40
100
AcDbText
1001
ACAD
1000
DSTYLE
1002
{
1070
     3
1000
□<>
1070
    40
1040
1.3
1070
    45
1040
0.5
1070
   271
1070
     1
1070
   272
1070
     2
1002
}
  0
LINE
  5
11967
330
18
100
AcDbEntity
  8
01
  6
BYBLOCK
100
AcDbLine
 10
3990.726467193147
 20
-2192.250667219955
 30
0.0
 11
3988.126467193147
 21
-2191.553999325955
 31
0.0
  0
LINE
  5
11968
330
18
100
AcDbEntity
  8
01
  6
BYBLOCK
100
AcDbLine
 10
3988.126467193147
 20
-2191.553999325955
 30
0.0
 11
3990.726467193147
 21
-2190.857331431956
 31
0.0
  0
LINE
  5
11969
330
18
100
AcDbEntity
  8
01
  6
BYBLOCK
100
AcDbLine
 10
3988.126467193147
 20
-2191.553999325955
 30
0.0
 11
3990.726467193147
 21
-2191.553999325955
 31
0.0
  0
LINE
  5
1196A
330
18
100
AcDbEntity
  8
01
  6
BYBLOCK
100
AcDbLine
 10
4025.526467193147
 20
-2190.857331431956
 30
0.0
 11
4028.126467193147
 21
-2191.553999325955
 31
0.0
  0
LINE
  5
1196B
330
18
100
AcDbEntity
  8
01
  6
BYBLOCK
100
AcDbLine
 10
4028.126467193147
 20
-2191.553999325955
 30
0.0
 11
4025.526467193147
 21
-2192.250667219955
 31
0.0
  0
LINE
  5
1196C
330
18
100
AcDbEntity
  8
01
  6
BYBLOCK
100
AcDbLine
 10
4028.126467193147
 20
-2191.553999325955
 30
0.0
 11
4025.526467193147
 21
-2191.553999325955
 31
0.0
  0
TEXT
  5
1196D
330
18
100
AcDbEntity
  8
01
  6
CONTINUOUS
100
AcDbText
 10
4001.737508859814
 20
-2190.643999325956
 30
0.0
 40
4.55
  1
□40
100
AcDbText
1001
ACAD
1000
DSTYLE
1002
{
1070
     3
1000
□<>
1070
    40
1040
1.3
1070
    45
1040
0.5
1070
   271
1070
     1
1070
   272
1070
     2
1002
}
  0
LINE
  5
1196E
330
18
100
AcDbEntity
  8
01
  6
BYBLOCK
100
AcDbLine
 10
3948.726459515604
 20
-2145.829175135268
 30
0.0
 11
3946.126459515604
 21
-2145.132507241268
 31
0.0
  0
LINE
  5
1196F
330
18
100
AcDbEntity
  8
01
  6
BYBLOCK
100
AcDbLine
 10
3946.126459515604
 20
-2145.132507241268
 30
0.0
 11
3948.726459515604
 21
-2144.435839347268
 31
0.0
  0
LINE
  5
11970
330
18
100
AcDbEntity
  8
01
  6
BYBLOCK
100
AcDbLine
 10
3946.126459515604
 20
-2145.132507241268
 30
0.0
 11
3948.726459515604
 21
-2145.132507241268
 31
0.0
  0
LINE
  5
11971
330
18
100
AcDbEntity
  8
01
  6
BYBLOCK
100
AcDbLine
 10
3954.526459515604
 20
-2144.435839347268
 30
0.0
 11
3957.126459515604
 21
-2145.132507241268
 31
0.0
  0
LINE
  5
11972
330
18
100
AcDbEntity
  8
01
  6
BYBLOCK
100
AcDbLine
 10
3957.126459515604
 20
-2145.132507241268
 30
0.0
 11
3954.526459515604
 21
-2145.829175135268
 31
0.0
  0
LINE
  5
11973
330
18
100
AcDbEntity
  8
01
  6
BYBLOCK
100
AcDbLine
 10
3957.126459515604
 20
-2145.132507241268
 30
0.0
 11
3954.526459515604
 21
-2145.132507241268
 31
0.0
  0
TEXT
  5
11974
330
18
100
AcDbEntity
  8
01
  6
CONTINUOUS
100
AcDbText
 10
3949.351459515604
 20
-2144.222507241268
 30
0.0
 40
4.55
  1
11
100
AcDbText
1001
ACAD
1000
DSTYLE
1002
{
1070
    40
1040
1.3
1070
    45
1040
0.5
1002
}
  0
LINE
  5
11975
330
18
100
AcDbEntity
  8
01
  6
BYBLOCK
100
AcDbLine
 10
4052.429791621604
 20
-2219.161371833564
 30
0.0
 11
4053.126459515604
 21
-2216.561371833564
 31
0.0
  0
LINE
  5
11976
330
18
100
AcDbEntity
  8
01
  6
BYBLOCK
100
AcDbLine
 10
4053.126459515604
 20
-2216.561371833564
 30
0.0
 11
4053.823127409603
 21
-2219.161371833564
 31
0.0
  0
LINE
  5
11977
330
18
100
AcDbEntity
  8
01
  6
BYBLOCK
100
AcDbLine
 10
4053.126459515604
 20
-2216.561371833564
 30
0.0
 11
4053.126459515604
 21
-2219.161371833564
 31
0.0
  0
LINE
  5
11978
330
18
100
AcDbEntity
  8
01
  6
BYBLOCK
100
AcDbLine
 10
4053.823127409603
 20
-2287.953999325956
 30
0.0
 11
4053.126459515604
 21
-2290.553999325956
 31
0.0
  0
LINE
  5
11979
330
18
100
AcDbEntity
  8
01
  6
BYBLOCK
100
AcDbLine
 10
4053.126459515604
 20
-2290.553999325956
 30
0.0
 11
4052.429791621604
 21
-2287.953999325956
 31
0.0
  0
LINE
  5
1197A
330
18
100
AcDbEntity
  8
01
  6
BYBLOCK
100
AcDbLine
 10
4053.126459515604
 20
-2290.553999325956
 30
0.0
 11
4053.126459515604
 21
-2287.953999325956
 31
0.0
  0
TEXT
  5
1197B
330
18
100
AcDbEntity
  8
01
  6
CONTINUOUS
100
AcDbText
 10
4052.216459515604
 20
-2235.582655239937
 30
0.0
 40
4.55
  1
74
 50
90.0
100
AcDbText
1001
ACAD
1000
DSTYLE
1002
{
1070
    40
1040
1.3
1070
    45
1040
0.5
1002
}
  0
LINE
  5
1197C
330
18
100
AcDbEntity
  8
01
  6
BYBLOCK
100
AcDbLine
 10
4023.526459515604
 20
-2134.35597187922
 30
0.0
 11
4026.126459515604
 21
-2135.05263977322
 31
0.0
  0
LINE
  5
1197D
330
18
100
AcDbEntity
  8
01
  6
BYBLOCK
100
AcDbLine
 10
4026.126459515604
 20
-2135.05263977322
 30
0.0
 11
4023.526459515604
 21
-2135.749307667219
 31
0.0
  0
LINE
  5
1197E
330
18
100
AcDbEntity
  8
01
  6
BYBLOCK
100
AcDbLine
 10
4026.126459515604
 20
-2135.05263977322
 30
0.0
 11
4023.526459515604
 21
-2135.05263977322
 31
0.0
  0
LINE
  5
1197F
330
18
100
AcDbEntity
  8
01
  6
BYBLOCK
100
AcDbLine
 10
3959.726459515604
 20
-2135.749307667219
 30
0.0
 11
3957.126459515604
 21
-2135.05263977322
 31
0.0
  0
LINE
  5
11980
330
18
100
AcDbEntity
  8
01
  6
BYBLOCK
100
AcDbLine
 10
3957.126459515604
 20
-2135.05263977322
 30
0.0
 11
3959.726459515604
 21
-2134.35597187922
 31
0.0
  0
LINE
  5
11981
330
18
100
AcDbEntity
  8
01
  6
BYBLOCK
100
AcDbLine
 10
3957.126459515604
 20
-2135.05263977322
 30
0.0
 11
3959.726459515604
 21
-2135.05263977322
 31
0.0
  0
TEXT
  5
11982
330
18
100
AcDbEntity
  8
01
  6
CONTINUOUS
100
AcDbText
 10
3987.817940997085
 20
-2134.14263977322
 30
0.0
 40
4.55
  1
69
100
AcDbText
1001
ACAD
1000
DSTYLE
1002
{
1070
    40
1040
1.3
1070
    45
1040
0.5
1002
}
  0
LINE
  5
11983
330
18
100
AcDbEntity
  8
01
  6
BYBLOCK
100
AcDbLine
 10
3959.726459515604
 20
-2145.829175135268
 30
0.0
 11
3957.126459515604
 21
-2145.132507241268
 31
0.0
  0
LINE
  5
11984
330
18
100
AcDbEntity
  8
01
  6
BYBLOCK
100
AcDbLine
 10
3957.126459515604
 20
-2145.132507241268
 30
0.0
 11
3959.726459515604
 21
-2144.435839347268
 31
0.0
  0
LINE
  5
11985
330
18
100
AcDbEntity
  8
01
  6
BYBLOCK
100
AcDbLine
 10
3957.126459515604
 20
-2145.132507241268
 30
0.0
 11
3959.726459515604
 21
-2145.132507241268
 31
0.0
  0
LINE
  5
11986
330
18
100
AcDbEntity
  8
01
  6
BYBLOCK
100
AcDbLine
 10
4005.526459515604
 20
-2144.435839347268
 30
0.0
 11
4008.126459515604
 21
-2145.132507241268
 31
0.0
  0
LINE
  5
11987
330
18
100
AcDbEntity
  8
01
  6
BYBLOCK
100
AcDbLine
 10
4008.126459515604
 20
-2145.132507241268
 30
0.0
 11
4005.526459515604
 21
-2145.829175135268
 31
0.0
  0
LINE
  5
11988
330
18
100
AcDbEntity
  8
01
  6
BYBLOCK
100
AcDbLine
 10
4008.126459515604
 20
-2145.132507241268
 30
0.0
 11
4005.526459515604
 21
-2145.132507241268
 31
0.0
  0
TEXT
  5
11989
330
18
100
AcDbEntity
  8
01
  6
CONTINUOUS
100
AcDbText
 10
3979.577327571159
 20
-2144.222507241268
 30
0.0
 40
4.55
  1
51
100
AcDbText
1001
ACAD
1000
DSTYLE
1002
{
1070
    40
1040
1.3
1070
    45
1040
0.5
1002
}
  0
LINE
  5
1198A
330
18
100
AcDbEntity
  8
01
  6
BYBLOCK
100
AcDbLine
 10
3922.291064537462
 20
-2199.153999325956
 30
0.0
 11
3922.987732431462
 21
-2196.553999325956
 31
0.0
  0
LINE
  5
1198B
330
18
100
AcDbEntity
  8
01
  6
BYBLOCK
100
AcDbLine
 10
3922.987732431462
 20
-2196.553999325956
 30
0.0
 11
3923.684400325462
 21
-2199.153999325956
 31
0.0
  0
LINE
  5
1198C
330
18
100
AcDbEntity
  8
01
  6
BYBLOCK
100
AcDbLine
 10
3922.987732431462
 20
-2196.553999325956
 30
0.0
 11
3922.987732431462
 21
-2199.153999325956
 31
0.0
  0
LINE
  5
1198D
330
18
100
AcDbEntity
  8
01
  6
BYBLOCK
100
AcDbLine
 10
3923.684400325462
 20
-2307.953999325956
 30
0.0
 11
3922.987732431462
 21
-2310.553999325956
 31
0.0
  0
LINE
  5
1198E
330
18
100
AcDbEntity
  8
01
  6
BYBLOCK
100
AcDbLine
 10
3922.987732431462
 20
-2310.553999325956
 30
0.0
 11
3922.291064537462
 21
-2307.953999325956
 31
0.0
  0
LINE
  5
1198F
330
18
100
AcDbEntity
  8
01
  6
BYBLOCK
100
AcDbLine
 10
3922.987732431462
 20
-2310.553999325956
 30
0.0
 11
3922.987732431462
 21
-2307.953999325956
 31
0.0
  0
TEXT
  5
11990
330
18
100
AcDbEntity
  8
01
  6
CONTINUOUS
100
AcDbText
 10
3922.077732431463
 20
-2228.970976978035
 30
0.0
 40
4.55
  1
114
 50
90.0
100
AcDbText
1001
ACAD
1000
DSTYLE
1002
{
1070
    40
1040
1.3
1070
    45
1040
0.5
1002
}
  0
LINE
  5
11991
330
18
100
AcDbEntity
  8
01
  6
BYBLOCK
100
AcDbLine
 10
3931.655398703687
 20
-2191.254444470373
 30
0.0
 11
3932.352066597687
 21
-2188.654444470373
 31
0.0
  0
LINE
  5
11992
330
18
100
AcDbEntity
  8
01
  6
BYBLOCK
100
AcDbLine
 10
3932.352066597687
 20
-2188.654444470373
 30
0.0
 11
3933.048734491686
 21
-2191.254444470373
 31
0.0
  0
LINE
  5
11993
330
18
100
AcDbEntity
  8
01
  6
BYBLOCK
100
AcDbLine
 10
3932.352066597687
 20
-2188.654444470373
 30
0.0
 11
3932.352066597687
 21
-2191.254444470373
 31
0.0
  0
LINE
  5
11994
330
18
100
AcDbEntity
  8
01
  6
BYBLOCK
100
AcDbLine
 10
3933.048734491686
 20
-2315.853999325956
 30
0.0
 11
3932.352066597687
 21
-2318.453999325956
 31
0.0
  0
LINE
  5
11995
330
18
100
AcDbEntity
  8
01
  6
BYBLOCK
100
AcDbLine
 10
3932.352066597687
 20
-2318.453999325956
 30
0.0
 11
3931.655398703687
 21
-2315.853999325956
 31
0.0
  0
LINE
  5
11996
330
18
100
AcDbEntity
  8
01
  6
BYBLOCK
100
AcDbLine
 10
3932.352066597687
 20
-2318.453999325956
 30
0.0
 11
3932.352066597687
 21
-2315.853999325956
 31
0.0
  0
TEXT
  5
11997
330
18
100
AcDbEntity
  8
01
  6
CONTINUOUS
100
AcDbText
 10
3931.442066597687
 20
-2229.755540980843
 30
0.0
 40
4.55
  1
130
 50
90.0
100
AcDbText
1001
ACAD
1000
DSTYLE
1002
{
1070
    40
1040
1.3
1070
    45
1040
0.5
1002
}
  0
LINE
  5
11998
330
18
100
AcDbEntity
  8
01
  6
BYBLOCK
100
AcDbLine
 10
3828.226575855349
 20
-2145.829175135268
 30
0.0
 11
3825.626575855349
 21
-2145.132507241268
 31
0.0
  0
LINE
  5
11999
330
18
100
AcDbEntity
  8
01
  6
BYBLOCK
100
AcDbLine
 10
3825.626575855349
 20
-2145.132507241268
 30
0.0
 11
3828.226575855349
 21
-2144.435839347268
 31
0.0
  0
LINE
  5
1199A
330
18
100
AcDbEntity
  8
01
  6
BYBLOCK
100
AcDbLine
 10
3825.626575855349
 20
-2145.132507241268
 30
0.0
 11
3828.226575855349
 21
-2145.132507241268
 31
0.0
  0
LINE
  5
1199B
330
18
100
AcDbEntity
  8
01
  6
BYBLOCK
100
AcDbLine
 10
3848.026575855349
 20
-2144.435839347268
 30
0.0
 11
3850.626575855349
 21
-2145.132507241268
 31
0.0
  0
LINE
  5
1199C
330
18
100
AcDbEntity
  8
01
  6
BYBLOCK
100
AcDbLine
 10
3850.626575855349
 20
-2145.132507241268
 30
0.0
 11
3848.026575855349
 21
-2145.829175135268
 31
0.0
  0
LINE
  5
1199D
330
18
100
AcDbEntity
  8
01
  6
BYBLOCK
100
AcDbLine
 10
3850.626575855349
 20
-2145.132507241268
 30
0.0
 11
3848.026575855349
 21
-2145.132507241268
 31
0.0
  0
TEXT
  5
1199E
330
18
100
AcDbEntity
  8
01
  6
CONTINUOUS
100
AcDbText
 10
3834.334909188682
 20
-2144.222507241268
 30
0.0
 40
4.55
  1
25
100
AcDbText
1001
ACAD
1000
DSTYLE
1002
{
1070
    40
1040
1.3
1070
    45
1040
0.5
1002
}
  0
LINE
  5
1199F
330
18
100
AcDbEntity
  8
01
  6
BYBLOCK
100
AcDbLine
 10
3972.429791621604
 20
-2250.653999325958
 30
0.0
 11
3973.126459515604
 21
-2248.053999325958
 31
0.0
  0
LINE
  5
119A0
330
18
100
AcDbEntity
  8
01
  6
BYBLOCK
100
AcDbLine
 10
3973.126459515604
 20
-2248.053999325958
 30
0.0
 11
3973.823127409603
 21
-2250.653999325958
 31
0.0
  0
LINE
  5
119A1
330
18
100
AcDbEntity
  8
01
  6
BYBLOCK
100
AcDbLine
 10
3973.126459515604
 20
-2248.053999325958
 30
0.0
 11
3973.126459515604
 21
-2250.653999325958
 31
0.0
  0
LINE
  5
119A2
330
18
100
AcDbEntity
  8
01
  6
BYBLOCK
100
AcDbLine
 10
3973.823127409603
 20
-2298.453999325958
 30
0.0
 11
3973.126459515604
 21
-2301.053999325958
 31
0.0
  0
LINE
  5
119A3
330
18
100
AcDbEntity
  8
01
  6
BYBLOCK
100
AcDbLine
 10
3973.126459515604
 20
-2301.053999325958
 30
0.0
 11
3972.429791621604
 21
-2298.453999325958
 31
0.0
  0
LINE
  5
119A4
330
18
100
AcDbEntity
  8
01
  6
BYBLOCK
100
AcDbLine
 10
3973.126459515604
 20
-2301.053999325958
 30
0.0
 11
3973.126459515604
 21
-2298.453999325958
 31
0.0
  0
TEXT
  5
119A5
330
18
100
AcDbEntity
  8
01
  6
CONTINUOUS
100
AcDbText
 10
3972.216459515604
 20
-2282.582877232554
 30
0.0
 40
4.55
  1
□53
 50
90.0
100
AcDbText
1001
ACAD
1000
DSTYLE
1002
{
1070
     3
1000
□<>
1070
    40
1040
1.3
1070
    45
1040
0.5
1002
}
  0
LINE
  5
119A6
330
18
100
AcDbEntity
  8
1DIM
100
AcDbLine
 10
3638.126579855348
 20
-2274.553999325955
 30
0.0
 11
3623.13272745306
 21
-2274.553999325955
 31
0.0
1001
ACAD
1000
DSTYLE
1002
{
1070
    40
1040
1.3
1070
    45
1040
0.5
1070
   341
1005
0
1002
}
  0
LINE
  5
119A7
330
18
100
AcDbEntity
  8
1DIM
100
AcDbLine
 10
3645.626571855349
 20
-2219.053999325955
 30
0.0
 11
3623.13272745306
 21
-2219.053999325955
 31
0.0
1001
ACAD
1000
DSTYLE
1002
{
1070
    40
1040
1.3
1070
    45
1040
0.5
1070
   341
1005
0
1002
}
  0
LINE
  5
119A8
330
18
100
AcDbEntity
  8
1DIM
100
AcDbLine
 10
3624.43272745306
 20
-2271.953999325955
 30
0.0
 11
3624.43272745306
 21
-2221.653999325955
 31
0.0
1001
ACAD
1000
DSTYLE
1002
{
1070
    40
1040
1.3
1070
    45
1040
0.5
1070
   341
1005
0
1002
}
  0
SOLID
  5
119AC
330
18
100
AcDbEntity
  8
1DIM
100
AcDbTrace
 10
4005.49630887035
 20
-2050.6047563809
 30
0.0000000000563712
 11
4007.867060755665
 21
-2049.452665552859
 31
0.0000000000563712
 12
4005.998108700272
 22
-2051.311373704351
 32
0.0000000000563712
 13
4005.998108700272
 23
-2051.311373704351
 33
0.0000000000563712
1001
ACAD
1000
DSTYLE
1002
{
1070
    40
1040
1.3
1070
    45
1040
0.5
1002
}
  0
LINE
  5
119AD
330
18
100
AcDbEntity
  8
1DIM
100
AcDbLine
 10
4005.747208785311
 20
-2050.958065042625
 30
0.0000000000563712
 11
3978.279620608622
 21
-2070.463999326984
 31
0.0000000000563712
1001
ACAD
1000
DSTYLE
1002
{
1070
    40
1040
1.3
1070
    45
1040
0.5
1002
}
  0
LINE
  5
119AE
330
18
100
AcDbEntity
  8
1DIM
100
AcDbLine
 10
4024.527343697664
 20
-1995.053999326984
 30
0.0
 11
4045.087734457376
 21
-1995.053999326984
 31
0.0
1001
ACAD
1000
DSTYLE
1002
{
1070
    45
1040
0.5
1070
    40
1040
1.3
1002
}
  0
LINE
  5
119AF
330
18
100
AcDbEntity
  8
1DIM
100
AcDbLine
 10
4026.127343697664
 20
-2013.853999326984
 30
0.0
 11
4045.087734457376
 21
-2013.853999326984
 31
0.0
1001
ACAD
1000
DSTYLE
1002
{
1070
    45
1040
0.5
1070
    40
1040
1.3
1002
}
  0
LINE
  5
119B0
330
18
100
AcDbEntity
  8
1DIM
100
AcDbLine
 10
4043.787734457376
 20
-1997.653999326984
 30
0.0
 11
4043.787734457376
 21
-2011.253999326985
 31
0.0
1001
ACAD
1000
DSTYLE
1002
{
1070
    45
1040
0.5
1070
    40
1040
1.3
1002
}
  0
LINE
  5
119B4
330
18
100
AcDbEntity
  8
1DIM
100
AcDbLine
 10
4008.126459515604
 20
-2046.055317639059
 30
0.0000000001127424
 11
4008.126459515604
 21
-2110.855317639059
 31
0.0000000001127424
1001
ACAD
1000
DSTYLE
1002
{
1070
    40
1040
1.3
1070
    45
1040
0.5
1002
}
  0
LINE
  5
119B5
330
18
100
AcDbEntity
  8
1DIM
100
AcDbLine
 10
4128.126459515604
 20
-2083.555317639059
 30
0.0000000001127424
 11
4128.126459515604
 21
-2110.855317639059
 31
0.0000000001127424
1001
ACAD
1000
DSTYLE
1002
{
1070
    40
1040
1.3
1070
    45
1040
0.5
1002
}
  0
LINE
  5
119B6
330
18
100
AcDbEntity
  8
1DIM
100
AcDbLine
 10
4010.726459515604
 20
-2109.555317639059
 30
0.0000000001127424
 11
4125.526459515604
 21
-2109.555317639059
 31
0.0000000001127424
1001
ACAD
1000
DSTYLE
1002
{
1070
    40
1040
1.3
1070
    45
1040
0.5
1002
}
  0
LINE
  5
119BA
330
18
100
AcDbEntity
  8
1DIM
100
AcDbLine
 10
3993.626459515604
 20
-2083.555317639059
 30
0.0000000001127424
 11
3993.626459515604
 21
-2120.855317639059
 31
0.0000000001127424
1001
ACAD
1000
DSTYLE
1002
{
1070
    40
1040
1.3
1070
    45
1040
0.5
1002
}
  0
LINE
  5
119BB
330
18
100
AcDbEntity
  8
1DIM
100
AcDbLine
 10
4128.126459515604
 20
-2083.555317639059
 30
0.0000000001127424
 11
4128.126459515604
 21
-2120.855317639059
 31
0.0000000001127424
1001
ACAD
1000
DSTYLE
1002
{
1070
    40
1040
1.3
1070
    45
1040
0.5
1002
}
  0
LINE
  5
119BC
330
18
100
AcDbEntity
  8
1DIM
100
AcDbLine
 10
3996.226459515604
 20
-2119.555317639059
 30
0.0000000001127424
 11
4125.526459515604
 21
-2119.555317639059
 31
0.0000000001127424
1001
ACAD
1000
DSTYLE
1002
{
1070
    40
1040
1.3
1070
    45
1040
0.5
1002
}
  0
LINE
  5
119C0
330
18
100
AcDbEntity
  8
1DIM
100
AcDbLine
 10
4126.126459515604
 20
-2060.555317639059
 30
0.0000000001127424
 11
4164.426459515604
 21
-2060.555317639059
 31
0.0000000001127424
1001
ACAD
1000
DSTYLE
1002
{
1070
    40
1040
1.3
1070
    45
1040
0.5
1002
}
  0
LINE
  5
119C1
330
18
100
AcDbEntity
  8
1DIM
100
AcDbLine
 10
4110.881607512953
 20
-2024.555317639059
 30
0.0000000001127424
 11
4164.426459515605
 21
-2024.555317639059
 31
0.0000000001127424
1001
ACAD
1000
DSTYLE
1002
{
1070
    40
1040
1.3
1070
    45
1040
0.5
1002
}
  0
LINE
  5
119C2
330
18
100
AcDbEntity
  8
1DIM
100
AcDbLine
 10
4163.126459515604
 20
-2057.955317639059
 30
0.0000000001127424
 11
4163.126459515604
 21
-2027.155317639058
 31
0.0000000001127424
1001
ACAD
1000
DSTYLE
1002
{
1070
    40
1040
1.3
1070
    45
1040
0.5
1002
}
  0
LINE
  5
119C6
330
18
100
AcDbEntity
  8
1DIM
100
AcDbLine
 10
4126.126459515604
 20
-2085.555317639059
 30
0.0000000001127424
 11
4174.426459515604
 21
-2085.555317639059
 31
0.0000000001127424
1001
ACAD
1000
DSTYLE
1002
{
1070
    40
1040
1.3
1070
    45
1040
0.5
1002
}
  0
LINE
  5
119C7
330
18
100
AcDbEntity
  8
1DIM
100
AcDbLine
 10
4110.881607512953
 20
-2024.555317639059
 30
0.0000000001127424
 11
4174.426459515605
 21
-2024.555317639059
 31
0.0000000001127424
1001
ACAD
1000
DSTYLE
1002
{
1070
    40
1040
1.3
1070
    45
1040
0.5
1002
}
  0
LINE
  5
119C8
330
18
100
AcDbEntity
  8
1DIM
100
AcDbLine
 10
4173.126459515604
 20
-2082.955317639059
 30
0.0000000001127424
 11
4173.126459515604
 21
-2027.155317639058
 31
0.0000000001127424
1001
ACAD
1000
DSTYLE
1002
{
1070
    40
1040
1.3
1070
    45
1040
0.5
1002
}
  0
LINE
  5
119CC
330
18
100
AcDbEntity
  8
1DIM
100
AcDbLine
 10
4127.168089887949
 20
-2270.593951969655
 30
0.0
 11
4164.426459515605
 21
-2270.593951969655
 31
0.0
1001
ACAD
1000
DSTYLE
1002
{
1070
    40
1040
1.3
1070
    45
1040
0.5
1002
}
  0
LINE
  5
119CD
330
18
100
AcDbEntity
  8
1DIM
100
AcDbLine
 10
4127.126459515635
 20
-2263.054020067485
 30
0.0
 11
4164.426459515605
 21
-2263.054020067485
 31
0.0
1001
ACAD
1000
DSTYLE
1002
{
1070
    40
1040
1.3
1070
    45
1040
0.5
1002
}
  0
LINE
  5
119CE
330
18
100
AcDbEntity
  8
1DIM
100
AcDbLine
 10
4163.126459515604
 20
-2267.993951969655
 30
0.0
 11
4163.126459515604
 21
-2265.654020067485
 31
0.0
1001
ACAD
1000
DSTYLE
1002
{
1070
    40
1040
1.3
1070
    45
1040
0.5
1002
}
  0
LINE
  5
119CF
330
18
100
AcDbEntity
  8
1DIM
100
AcDbLine
 10
4163.126459515604
 20
-2263.054020067485
 30
0.0
 11
4163.126459515604
 21
-2249.100686734152
 31
0.0
1001
ACAD
1000
DSTYLE
1002
{
1070
    40
1040
1.3
1070
    45
1040
0.5
1002
}
  0
LINE
  5
119D3
330
18
100
AcDbEntity
  8
0
  6
BYBLOCK
100
AcDbLine
 10
3625.12939534706
 20
-2271.953999325955
 30
0.0
 11
3624.43272745306
 21
-2274.553999325955
 31
0.0
  0
LINE
  5
119D4
330
18
100
AcDbEntity
  8
0
  6
BYBLOCK
100
AcDbLine
 10
3624.43272745306
 20
-2274.553999325955
 30
0.0
 11
3623.73605955906
 21
-2271.953999325955
 31
0.0
  0
LINE
  5
119D5
330
18
100
AcDbEntity
  8
0
  6
BYBLOCK
100
AcDbLine
 10
3624.43272745306
 20
-2274.553999325955
 30
0.0
 11
3624.43272745306
 21
-2271.953999325955
 31
0.0
  0
LINE
  5
119D6
330
18
100
AcDbEntity
  8
0
  6
BYBLOCK
100
AcDbLine
 10
3623.73605955906
 20
-2221.653999325955
 30
0.0
 11
3624.43272745306
 21
-2219.053999325955
 31
0.0
  0
LINE
  5
119D7
330
18
100
AcDbEntity
  8
0
  6
BYBLOCK
100
AcDbLine
 10
3624.43272745306
 20
-2219.053999325955
 30
0.0
 11
3625.12939534706
 21
-2221.653999325955
 31
0.0
  0
LINE
  5
119D8
330
18
100
AcDbEntity
  8
0
  6
BYBLOCK
100
AcDbLine
 10
3624.43272745306
 20
-2219.053999325955
 30
0.0
 11
3624.43272745306
 21
-2221.653999325955
 31
0.0
  0
TEXT
  5
119D9
330
18
100
AcDbEntity
  8
1DIM
  6
CONTINUOUS
100
AcDbText
 10
3623.522727453061
 20
-2253.660596548176
 30
0.0
 40
4.55
  1
55.5
 50
90.0
100
AcDbText
1001
ACAD
1000
DSTYLE
1002
{
1070
    40
1040
1.3
1070
    45
1040
0.5
1070
   341
1005
0
1002
}
  0
LINE
  5
119DA
330
18
100
AcDbEntity
  8
0
  6
BYBLOCK
100
AcDbLine
 10
4043.091066563376
 20
-1997.653999326984
 30
0.0
 11
4043.787734457376
 21
-1995.053999326984
 31
0.0
  0
LINE
  5
119DB
330
18
100
AcDbEntity
  8
0
  6
BYBLOCK
100
AcDbLine
 10
4043.787734457376
 20
-1995.053999326984
 30
0.0
 11
4044.484402351376
 21
-1997.653999326984
 31
0.0
  0
LINE
  5
119DC
330
18
100
AcDbEntity
  8
0
  6
BYBLOCK
100
AcDbLine
 10
4043.787734457376
 20
-1995.053999326984
 30
0.0
 11
4043.787734457376
 21
-1997.653999326984
 31
0.0
  0
LINE
  5
119DD
330
18
100
AcDbEntity
  8
0
  6
BYBLOCK
100
AcDbLine
 10
4044.484402351376
 20
-2011.253999326985
 30
0.0
 11
4043.787734457376
 21
-2013.853999326984
 31
0.0
  0
LINE
  5
119DE
330
18
100
AcDbEntity
  8
0
  6
BYBLOCK
100
AcDbLine
 10
4043.787734457376
 20
-2013.853999326984
 30
0.0
 11
4043.091066563376
 21
-2011.253999326985
 31
0.0
  0
LINE
  5
119DF
330
18
100
AcDbEntity
  8
0
  6
BYBLOCK
100
AcDbLine
 10
4043.787734457376
 20
-2013.853999326984
 30
0.0
 11
4043.787734457376
 21
-2011.253999326985
 31
0.0
  0
TEXT
  5
119E0
330
18
100
AcDbEntity
  8
1DIM
  6
CONTINUOUS
100
AcDbText
 10
4042.877734457376
 20
-2007.488385901059
 30
0.0
 40
4.55
  1
19
 50
90.0
100
AcDbText
1001
ACAD
1000
DSTYLE
1002
{
1070
    45
1040
0.5
1070
    40
1040
1.3
1002
}
  0
LINE
  5
119E1
330
18
100
AcDbEntity
  8
0
  6
BYBLOCK
100
AcDbLine
 10
4010.726459515604
 20
-2110.251985533058
 30
0.0000000001127424
 11
4008.126459515604
 21
-2109.555317639059
 31
0.0000000001127424
  0
LINE
  5
119E2
330
18
100
AcDbEntity
  8
0
  6
BYBLOCK
100
AcDbLine
 10
4008.126459515604
 20
-2109.555317639059
 30
0.0000000001127424
 11
4010.726459515604
 21
-2108.858649745059
 31
0.0000000001127424
  0
LINE
  5
119E3
330
18
100
AcDbEntity
  8
0
  6
BYBLOCK
100
AcDbLine
 10
4008.126459515604
 20
-2109.555317639059
 30
0.0000000001127424
 11
4010.726459515604
 21
-2109.555317639059
 31
0.0000000001127424
  0
LINE
  5
119E4
330
18
100
AcDbEntity
  8
0
  6
BYBLOCK
100
AcDbLine
 10
4125.526459515604
 20
-2108.858649745059
 30
0.0000000001127424
 11
4128.126459515604
 21
-2109.555317639059
 31
0.0000000001127424
  0
LINE
  5
119E5
330
18
100
AcDbEntity
  8
0
  6
BYBLOCK
100
AcDbLine
 10
4128.126459515604
 20
-2109.555317639059
 30
0.0000000001127424
 11
4125.526459515604
 21
-2110.251985533058
 31
0.0000000001127424
  0
LINE
  5
119E6
330
18
100
AcDbEntity
  8
0
  6
BYBLOCK
100
AcDbLine
 10
4128.126459515604
 20
-2109.555317639059
 30
0.0000000001127424
 11
4125.526459515604
 21
-2109.555317639059
 31
0.0000000001127424
  0
TEXT
  5
119E7
330
18
100
AcDbEntity
  8
1DIM
  6
CONTINUOUS
100
AcDbText
 10
4063.102501182271
 20
-2108.645317639059
 30
0.0000000001127424
 40
4.55
  1
120
100
AcDbText
1001
ACAD
1000
DSTYLE
1002
{
1070
    40
1040
1.3
1070
    45
1040
0.5
1002
}
  0
LINE
  5
119E8
330
18
100
AcDbEntity
  8
0
  6
BYBLOCK
100
AcDbLine
 10
3996.226459515604
 20
-2120.251985533058
 30
0.0000000001127424
 11
3993.626459515604
 21
-2119.555317639059
 31
0.0000000001127424
  0
LINE
  5
119E9
330
18
100
AcDbEntity
  8
0
  6
BYBLOCK
100
AcDbLine
 10
3993.626459515604
 20
-2119.555317639059
 30
0.0000000001127424
 11
3996.226459515604
 21
-2118.858649745059
 31
0.0000000001127424
  0
LINE
  5
119EA
330
18
100
AcDbEntity
  8
0
  6
BYBLOCK
100
AcDbLine
 10
3993.626459515604
 20
-2119.555317639059
 30
0.0000000001127424
 11
3996.226459515604
 21
-2119.555317639059
 31
0.0000000001127424
  0
LINE
  5
119EB
330
18
100
AcDbEntity
  8
0
  6
BYBLOCK
100
AcDbLine
 10
4125.526459515604
 20
-2118.858649745059
 30
0.0000000001127424
 11
4128.126459515604
 21
-2119.555317639059
 31
0.0000000001127424
  0
LINE
  5
119EC
330
18
100
AcDbEntity
  8
0
  6
BYBLOCK
100
AcDbLine
 10
4128.126459515604
 20
-2119.555317639059
 30
0.0000000001127424
 11
4125.526459515604
 21
-2120.251985533058
 31
0.0000000001127424
  0
LINE
  5
119ED
330
18
100
AcDbEntity
  8
0
  6
BYBLOCK
100
AcDbLine
 10
4128.126459515604
 20
-2119.555317639059
 30
0.0000000001127424
 11
4125.526459515604
 21
-2119.555317639059
 31
0.0000000001127424
  0
TEXT
  5
119EE
330
18
100
AcDbEntity
  8
1DIM
  6
CONTINUOUS
100
AcDbText
 10
4052.534792848937
 20
-2118.645317639058
 30
0.0000000001127424
 40
4.55
  1
134.5
100
AcDbText
1001
ACAD
1000
DSTYLE
1002
{
1070
    40
1040
1.3
1070
    45
1040
0.5
1002
}
  0
LINE
  5
119EF
330
18
100
AcDbEntity
  8
0
  6
BYBLOCK
100
AcDbLine
 10
4163.823127409603
 20
-2057.955317639059
 30
0.0000000001127424
 11
4163.126459515604
 21
-2060.555317639059
 31
0.0000000001127424
  0
LINE
  5
119F0
330
18
100
AcDbEntity
  8
0
  6
BYBLOCK
100
AcDbLine
 10
4163.126459515604
 20
-2060.555317639059
 30
0.0000000001127424
 11
4162.429791621604
 21
-2057.955317639059
 31
0.0000000001127424
  0
LINE
  5
119F1
330
18
100
AcDbEntity
  8
0
  6
BYBLOCK
100
AcDbLine
 10
4163.126459515604
 20
-2060.555317639059
 30
0.0000000001127424
 11
4163.126459515604
 21
-2057.955317639059
 31
0.0000000001127424
  0
LINE
  5
119F2
330
18
100
AcDbEntity
  8
0
  6
BYBLOCK
100
AcDbLine
 10
4162.429791621605
 20
-2027.155317639058
 30
0.0000000001127424
 11
4163.126459515604
 21
-2024.555317639059
 31
0.0000000001127424
  0
LINE
  5
119F3
330
18
100
AcDbEntity
  8
0
  6
BYBLOCK
100
AcDbLine
 10
4163.126459515604
 20
-2024.555317639059
 30
0.0000000001127424
 11
4163.823127409604
 21
-2027.155317639058
 31
0.0000000001127424
  0
LINE
  5
119F4
330
18
100
AcDbEntity
  8
0
  6
BYBLOCK
100
AcDbLine
 10
4163.126459515604
 20
-2024.555317639059
 30
0.0000000001127424
 11
4163.126459515604
 21
-2027.155317639058
 31
0.0000000001127424
  0
TEXT
  5
119F5
330
18
100
AcDbEntity
  8
1DIM
  6
CONTINUOUS
100
AcDbText
 10
4162.216459515604
 20
-2046.346984305725
 30
0.0000000001127424
 40
4.55
  1
36
 50
90.0
100
AcDbText
1001
ACAD
1000
DSTYLE
1002
{
1070
    40
1040
1.3
1070
    45
1040
0.5
1002
}
  0
LINE
  5
119F6
330
18
100
AcDbEntity
  8
0
  6
BYBLOCK
100
AcDbLine
 10
4173.823127409603
 20
-2082.955317639059
 30
0.0000000001127424
 11
4173.126459515604
 21
-2085.555317639059
 31
0.0000000001127424
  0
LINE
  5
119F7
330
18
100
AcDbEntity
  8
0
  6
BYBLOCK
100
AcDbLine
 10
4173.126459515604
 20
-2085.555317639059
 30
0.0000000001127424
 11
4172.429791621604
 21
-2082.955317639059
 31
0.0000000001127424
  0
LINE
  5
119F8
330
18
100
AcDbEntity
  8
0
  6
BYBLOCK
100
AcDbLine
 10
4173.126459515604
 20
-2085.555317639059
 30
0.0000000001127424
 11
4173.126459515604
 21
-2082.955317639059
 31
0.0000000001127424
  0
LINE
  5
119F9
330
18
100
AcDbEntity
  8
0
  6
BYBLOCK
100
AcDbLine
 10
4172.429791621605
 20
-2027.155317639058
 30
0.0000000001127424
 11
4173.126459515604
 21
-2024.555317639059
 31
0.0000000001127424
  0
LINE
  5
119FA
330
18
100
AcDbEntity
  8
0
  6
BYBLOCK
100
AcDbLine
 10
4173.126459515604
 20
-2024.555317639059
 30
0.0000000001127424
 11
4173.823127409604
 21
-2027.155317639058
 31
0.0000000001127424
  0
LINE
  5
119FB
330
18
100
AcDbEntity
  8
0
  6
BYBLOCK
100
AcDbLine
 10
4173.126459515604
 20
-2024.555317639059
 30
0.0000000001127424
 11
4173.126459515604
 21
-2027.155317639058
 31
0.0000000001127424
  0
TEXT
  5
119FC
330
18
100
AcDbEntity
  8
1DIM
  6
CONTINUOUS
100
AcDbText
 10
4172.216459515605
 20
-2058.104449583502
 30
0.0000000001127424
 40
4.55
  1
61
 50
90.0
100
AcDbText
1001
ACAD
1000
DSTYLE
1002
{
1070
    40
1040
1.3
1070
    45
1040
0.5
1002
}
  0
LINE
  5
119FD
330
18
100
AcDbEntity
  8
0
  6
BYBLOCK
100
AcDbLine
 10
4163.823127409604
 20
-2267.993951969655
 30
0.0
 11
4163.126459515604
 21
-2270.593951969655
 31
0.0
  0
LINE
  5
119FE
330
18
100
AcDbEntity
  8
0
  6
BYBLOCK
100
AcDbLine
 10
4163.126459515604
 20
-2270.593951969655
 30
0.0
 11
4162.429791621605
 21
-2267.993951969655
 31
0.0
  0
LINE
  5
119FF
330
18
100
AcDbEntity
  8
0
  6
BYBLOCK
100
AcDbLine
 10
4163.126459515604
 20
-2270.593951969655
 30
0.0
 11
4163.126459515604
 21
-2267.993951969655
 31
0.0
  0
LINE
  5
11A00
330
18
100
AcDbEntity
  8
0
  6
BYBLOCK
100
AcDbLine
 10
4162.429791621605
 20
-2265.654020067485
 30
0.0
 11
4163.126459515604
 21
-2263.054020067485
 31
0.0
  0
LINE
  5
11A01
330
18
100
AcDbEntity
  8
0
  6
BYBLOCK
100
AcDbLine
 10
4163.126459515604
 20
-2263.054020067485
 30
0.0
 11
4163.823127409604
 21
-2265.654020067485
 31
0.0
  0
LINE
  5
11A02
330
18
100
AcDbEntity
  8
0
  6
BYBLOCK
100
AcDbLine
 10
4163.126459515604
 20
-2263.054020067485
 30
0.0
 11
4163.126459515604
 21
-2265.654020067485
 31
0.0
  0
TEXT
  5
11A03
330
18
100
AcDbEntity
  8
1DIM
  6
CONTINUOUS
100
AcDbText
 10
4162.216459515605
 20
-2259.327353400819
 30
0.0
 40
4.55
  1
7.5
 50
90.0
100
AcDbText
1001
ACAD
1000
DSTYLE
1002
{
1070
    40
1040
1.3
1070
    45
1040
0.5
1002
}
  0
VIEWPORT
  5
57
330
15
100
AcDbEntity
 67
     1
  8
0
100
AcDbViewport
 68
     1
 10
0.0
 20
0.0
 30
0.0
 40
555.8298653610772
 41
297.0
 68
     1
 69
     1
1001
ACAD
1000
MVIEW
1002
{
1070
    16
1010
0.0
1020
0.0
1030
0.0
1010
0.0
1020
0.0
1030
1.0
1040
0.0
1040
297.0
1040
5.728000000000009
1040
25.339
1040
50.0
1040
0.0
1040
0.0
1070
    16
1070
   100
1070
     0
1070
     1
1070
     0
1070
     0
1070
     0
1070
     0
1040
0.0
1040
0.0
1040
0.0
1040
10.0
1040
10.0
1040
10.0
1040
10.0
1070
     0
1002
{
1002
}
1002
}
  0
ENDSEC
  0
SECTION
  2
OBJECTS
  0
DICTIONARY
  5
C
330
0
100
AcDbDictionary
  3
ACAD_CIP_PREVIOUS_PRODUCT_INFO
350
AEA8
  3
ACAD_COLOR
350
18D
  3
ACAD_GROUP
350
D
  3
ACAD_LAYOUT
350
18E
  3
ACAD_MATERIAL
350
18C
  3
ACAD_MLEADERSTYLE
350
9583
  3
ACAD_MLINESTYLE
350
1B
  3
ACAD_PLOTSETTINGS
350
18F
  3
ACAD_SCALELIST
350
9561
  3
ACAD_VISUALSTYLE
350
9550
  3
ACDBHEADERROUNDTRIPXREC
350
11A04
  3
ACDBVARIABLEDICTIONARY
350
37
  3
CONTENTDICTIONARY
350
D8
  3
DRAWINGVARIABLESDICT
350
20
  3
DWGPROPS
350
11A07
1001
ACAD
1000
TREAT_AS_HARD
1070
     0
  0
DICTIONARY
  5
96D9
330
2
100
AcDbDictionary
  3
ACAD_LAYERSTATES
360
96DA
1001
ACAD
1000
TREAT_AS_HARD
1070
     1
  0
DICTIONARY
  5
9593
330
E
100
AcDbDictionary
  3
ADSK_XREC_LAYER_RECONCILED
360
9594
1001
ACAD
1000
TREAT_AS_HARD
1070
     1
  0
DICTIONARY
  5
9595
330
29
100
AcDbDictionary
  3
ADSK_XREC_LAYER_RECONCILED
360
9596
1001
ACAD
1000
TREAT_AS_HARD
1070
     1
  0
DICTIONARY
  5
9597
330
31
100
AcDbDictionary
  3
ADSK_XREC_LAYER_RECONCILED
360
9598
1001
ACAD
1000
TREAT_AS_HARD
1070
     1
  0
DICTIONARY
  5
959D
330
243
100
AcDbDictionary
  3
ADSK_XREC_LAYER_RECONCILED
360
959E
1001
ACAD
1000
TREAT_AS_HARD
1070
     1
  0
DICTIONARY
  5
95A3
330
24E
100
AcDbDictionary
  3
ADSK_XREC_LAYER_RECONCILED
360
95A4
1001
ACAD
1000
TREAT_AS_HARD
1070
     1
  0
DICTIONARY
  5
95AF
330
2C05
100
AcDbDictionary
  3
ADSK_XREC_LAYER_RECONCILED
360
95B0
1001
ACAD
1000
TREAT_AS_HARD
1070
     1
  0
DICTIONARY
  5
88F
330
18
100
AcDbDictionary
  3
ACAD_SORTENTS
360
890
1001
ACAD
1000
TREAT_AS_HARD
1070
     1
  0
XRECORD
  5
AEA8
102
{ACAD_REACTORS
330
C
102
}
330
C
100
AcDbXrecord
300
ACDLT
300
2012
300
ACDLT_F_S
  0
DICTIONARY
  5
18D
102
{ACAD_REACTORS
330
C
102
}
330
C
100
AcDbDictionary
1001
ACAD
1000
TREAT_AS_HARD
1070
     0
  0
DICTIONARY
  5
D
102
{ACAD_REACTORS
330
C
102
}
330
C
100
AcDbDictionary
1001
ACAD
1000
TREAT_AS_HARD
1070
     0
  0
DICTIONARY
  5
18E
102
{ACAD_REACTORS
330
C
102
}
330
C
100
AcDbDictionary
1001
ACAD
1000
TREAT_AS_HARD
1070
     0
  0
DICTIONARY
  5
18C
102
{ACAD_REACTORS
330
C
102
}
330
C
100
AcDbDictionary
  3
BYBLOCK
350
9540
  3
BYLAYER
350
9538
  3
GLOBAL
350
9548
1001
ACAD
1000
TREAT_AS_HARD
1070
     0
  0
DICTIONARY
  5
9583
102
{ACAD_REACTORS
330
C
102
}
330
C
100
AcDbDictionary
  3
STANDARD
350
9584
1001
ACAD
1000
TREAT_AS_HARD
1070
     0
  0
DICTIONARY
  5
1B
102
{ACAD_REACTORS
330
C
102
}
330
C
100
AcDbDictionary
  3
STANDARD
350
1C
1001
ACAD
1000
TREAT_AS_HARD
1070
     0
  0
DICTIONARY
  5
18F
102
{ACAD_REACTORS
330
C
102
}
330
C
100
AcDbDictionary
1001
ACAD
1000
TREAT_AS_HARD
1070
     0
  0
DICTIONARY
  5
9561
102
{ACAD_REACTORS
330
C
102
}
330
C
100
AcDbDictionary
  3
A0
350
9562
  3
A1
350
9563
  3
A2
350
9564
  3
A3
350
9565
  3
A4
350
9566
  3
A5
350
9567
  3
A6
350
9568
  3
A7
350
9569
  3
A8
350
956A
  3
A9
350
956B
  3
B0
350
956C
  3
B1
350
956D
  3
B2
350
956E
  3
B3
350
956F
  3
B4
350
9570
  3
B5
350
9571
  3
B6
350
9572
  3
B7
350
9573
  3
B8
350
9574
  3
B9
350
9575
  3
C0
350
9576
  3
C1
350
9577
  3
C2
350
9578
  3
C3
350
9579
  3
C4
350
957A
  3
C5
350
957B
  3
C6
350
957C
  3
C7
350
957D
  3
C8
350
957E
  3
C9
350
957F
  3
D0
350
9580
  3
D1
350
9581
  3
D2
350
9582
1001
ACAD
1000
TREAT_AS_HARD
1070
     0
  0
DICTIONARY
  5
9550
102
{ACAD_REACTORS
330
C
102
}
330
C
100
AcDbDictionary
  3
2DWIREFRAME
350
9556
  3
3D_HIDDEN
350
9558
  3
3DWIREFRAME
350
9557
  3
BASIC
350
9555
  3
BRIGHTEN
350
955C
  3
COLORCHANGE
350
9560
  3
CONCEPTUAL
350
9559
  3
DIM
350
955B
  3
EDGECOLOROFF
350
A211
  3
FACEPATTERN
350
955F
  3
FLAT
350
9551
  3
FLATWITHEDGES
350
9552
  3
GOURAUD
350
9553
  3
GOURAUDWITHEDGES
350
9554
  3
HIDDEN
350
A260
  3
JITTEROFF
350
A20F
  3
LINEPATTERN
350
955E
  3
MODELING
350
A266
  3
OVERHANGOFF
350
A210
  3
REALISTIC
350
955A
  3
SHADED
350
A265
  3
SHADED_WITH_EDGES
350
A264
  3
SHADES_OF_GRAY
350
A261
  3
SKETCHY
350
A262
  3
THICKEN
350
955D
  3
WIREFRAME
350
A25F
  3
X-RAY
350
A263
1001
ACAD
1000
TREAT_AS_HARD
1070
     0
  0
DICTIONARY
  5
11A04
102
{ACAD_REACTORS
330
C
102
}
330
C
100
AcDbDictionary
  3
COLORDICT
350
11A05
  3
MATERIALDICT
350
11A06
1001
ACAD
1000
TREAT_AS_HARD
1070
     0
  0
DICTIONARY
  5
37
102
{ACAD_REACTORS
330
C
102
}
330
C
100
AcDbDictionary
  3
CANNOSCALE
350
AAE0
  3
CMLEADERSTYLE
350
9627
  3
CTABLESTYLE
350
29E
  3
DIMADEC
350
38
  3
DIMASSOC
350
1CE
  3
HIDETEXT
350
704E
  3
INDEXCTL
350
962A
  3
INTERSECTIONCOLOR
350
7052
  3
INTERSECTIONDISPLAY
350
7051
  3
MSLTSCALE
350
AB30
  3
OBSCOLOR
350
704F
  3
OBSLTYPE
350
7050
  3
PROJECTNAME
350
1CF
  3
SORTENTS
350
9629
  3
XCLIPFRAME
350
11861
1001
ACAD
1000
TREAT_AS_HARD
1070
     0
  0
DICTIONARY
  5
D8
102
{ACAD_REACTORS
330
C
102
}
330
C
100
AcDbDictionary
1001
ACAD
1000
TREAT_AS_HARD
1070
     0
  0
DICTIONARY
  5
20
102
{ACAD_REACTORS
330
C
102
}
330
C
100
AcDbDictionary
1001
DRAWINGVARIABLESXDATA
1000
POLARANG
1000
0.261799387799149410000000
1000
POLARMODE
1000
1
1000
POLARSTYLE
1000
1
1001
ACAD
1000
TREAT_AS_HARD
1070
     0
  0
XRECORD
  5
11A07
102
{ACAD_REACTORS
330
C
102
}
330
C
100
AcDbXrecord
  1
DWGPROPS COOKIE
  2

  3

  4

  6

  7

  8
3684
  9

300
=
301
=
302
=
303
=
304
=
305
=
306
=
307
=
308
=
309
=
 40
0.0
 41
2451318.246352917
 42
2458159.063982489
  1

 90
        0
  0
DICTIONARY
  5
96DA
102
{ACAD_REACTORS
330
96D9
102
}
330
96D9
100
AcDbDictionary
1001
ACAD
1000
TREAT_AS_HARD
1070
     0
  0
ACAD_PROXY_OBJECT
  5
9594
102
{ACAD_REACTORS
330
9593
102
}
330
9593
100
AcDbZombieObject
 90
      499
 91
      514
 93
       34
310
40C8804040
  0
ACAD_PROXY_OBJECT
  5
9596
102
{ACAD_REACTORS
330
9595
102
}
330
9595
100
AcDbZombieObject
 90
      499
 91
      514
 93
       34
310
40C8804040
  0
ACAD_PROXY_OBJECT
  5
9598
102
{ACAD_REACTORS
330
9597
102
}
330
9597
100
AcDbZombieObject
 90
      499
 91
      514
 93
       34
310
40C8804040
  0
ACAD_PROXY_OBJECT
  5
959E
102
{ACAD_REACTORS
330
959D
102
}
330
959D
100
AcDbZombieObject
 90
      499
 91
      514
 93
       34
310
40C8804040
  0
ACAD_PROXY_OBJECT
  5
95A4
102
{ACAD_REACTORS
330
95A3
102
}
330
95A3
100
AcDbZombieObject
 90
      499
 91
      514
 93
       34
310
40C8804040
  0
ACAD_PROXY_OBJECT
  5
95B0
102
{ACAD_REACTORS
330
95AF
102
}
330
95AF
100
AcDbZombieObject
 90
      499
 91
      514
 93
       34
310
40C8804040
  0
SORTENTSTABLE
  5
890
102
{ACAD_REACTORS
330
88F
102
}
330
88F
100
AcDbSortentsTable
330
18
331
0
  5
FBB3
331
FB8D
  5
FBC1
331
FB8E
  5
FBC2
331
FB8F
  5
FBC3
331
FB90
  5
FBC4
331
FB91
  5
FBC5
331
FB92
  5
FBC6
331
FB93
  5
FBC7
331
FB94
  5
FBC8
331
FB95
  5
FBC9
331
FB96
  5
FBCA
331
FB97
  5
FBCB
331
FB98
  5
FBCC
331
FB99
  5
FBCD
331
FB9A
  5
FBCE
331
FB9B
  5
FBCF
331
FB9C
  5
FBD0
331
FB9D
  5
FBD1
331
FB9E
  5
FBD2
331
FB9F
  5
FBD3
331
FBA0
  5
FBD4
331
FBA1
  5
FBD5
331
FBA2
  5
FBD6
331
FBA3
  5
FBD7
331
FBA4
  5
FBD8
331
FBA5
  5
FBD9
331
FBA6
  5
FBDA
331
FBA7
  5
FBDB
331
FBA8
  5
FBDC
331
FBA9
  5
FBDD
331
FBAA
  5
FBDE
331
FBAB
  5
FBDF
331
FBAC
  5
FBE0
331
FBAD
  5
FBE1
331
FBAE
  5
FBE2
331
FBAF
  5
FBE3
331
FBB0
  5
FBE4
331
FBB1
  5
FBE5
331
FBB2
  5
FBE6
331
FBB3
  5
FBE7
331
FBB4
  5
FBE8
331
FBB5
  5
FBE9
331
FBB6
  5
FBEA
331
FBB7
  5
FBEB
331
FBB8
  5
FBEC
331
FBB9
  5
FBED
331
FBBA
  5
FBEE
331
FBBB
  5
FBEF
331
FBBC
  5
FBF0
331
FBBD
  5
FBF1
331
FBBE
  5
FBF2
331
FBBF
  5
1058E
331
FBC0
  5
10590
331
FBC1
  5
10591
331
FBC2
  5
10592
331
FBC3
  5
10596
331
FBC4
  5
10597
331
FBC5
  5
10598
331
FBC6
  5
10599
331
FBC7
  5
1059A
331
FBC8
  5
1059B
331
FBC9
  5
1059C
331
FBCA
  5
1059D
331
FBCB
  5
1059E
331
FBCC
  5
1059F
331
FBCD
  5
105A0
331
FBCE
  5
105A1
331
FBCF
  5
105A2
331
FBD0
  5
105A3
331
FBD1
  5
105A4
331
FBD2
  5
105A5
331
FBD3
  5
105A6
331
FBD4
  5
105AA
331
FBD5
  5
105AB
331
FBD6
  5
105AC
331
FBD7
  5
105AD
331
FBD8
  5
105AE
331
FBD9
  5
105AF
331
FBDA
  5
105B3
331
FBDB
  5
105B4
331
FBDC
  5
105B5
331
FBDD
  5
105B6
331
FBDE
  5
105B7
331
FBDF
  5
105B8
331
FBE0
  5
105BC
331
FBE1
  5
105BD
331
FBE2
  5
105BE
331
FBE3
  5
105C2
331
FBE4
  5
105C3
331
FBE5
  5
105C4
331
FBE6
  5
105C8
331
FBE7
  5
105C9
331
FBE8
  5
105CA
331
FBE9
  5
105CB
331
FBEA
  5
105CC
331
FBEB
  5
105CD
331
FBEC
  5
105CE
331
FBED
  5
105CF
331
FBEE
  5
105D0
331
FBEF
  5
105D1
331
FBF0
  5
105D2
331
FBF1
  5
105D3
331
FBF2
  5
105D5
331
0
  5
105D4
331
10590
  5
105EE
331
10591
  5
105EF
331
10592
  5
105F0
331
10596
  5
10613
331
10597
  5
10614
331
10598
  5
10615
331
10599
  5
10616
331
1059A
  5
10617
331
1059B
  5
10618
331
1059C
  5
10619
331
1059D
  5
1061A
331
1059E
  5
1061B
331
1059F
  5
1061C
331
105A0
  5
1061D
331
105A1
  5
1061E
331
105A2
  5
1061F
331
105A3
  5
10620
331
105A4
  5
10621
331
105A5
  5
10622
331
105A6
  5
10623
331
105A7
  5
10624
331
105A8
  5
10625
331
105A9
  5
10626
331
105AA
  5
10627
331
105AB
  5
10628
331
105AC
  5
10629
331
105AD
  5
1062A
331
105AE
  5
1062B
331
105AF
  5
1062C
331
105B0
  5
1062D
331
105B1
  5
1062E
331
105B2
  5
1062F
331
105B3
  5
10630
331
105B4
  5
10631
331
105B5
  5
10632
331
105B6
  5
10633
331
105B7
  5
10637
331
105B8
  5
10638
331
105B9
  5
10639
331
105BA
  5
1063D
331
105BB
  5
1063E
331
105BC
  5
1063F
331
105BD
  5
10643
331
105BE
  5
10644
331
105BF
  5
10645
331
105C0
  5
10646
331
105C1
  5
10647
331
105C2
  5
10648
331
105C3
  5
10649
331
105C4
  5
1064A
331
105C5
  5
1064B
331
105C6
  5
1064C
331
105C7
  5
1064E
331
105C8
  5
1064F
331
105C9
  5
10650
331
105CA
  5
10651
331
105CB
  5
10652
331
105CC
  5
10653
331
105CD
  5
10654
331
105CE
  5
10655
331
105CF
  5
10656
331
105D0
  5
10657
331
105D1
  5
10658
331
105D2
  5
1065C
331
105D3
  5
1065D
331
105D4
  5
1065E
331
105D5
  5
1065F
331
0
  5
1064D
331
105D7
  5
1066A
331
105D8
  5
1066B
331
105D9
  5
1066C
331
105DA
  5
1066D
331
105DB
  5
1066E
331
105DC
  5
1066F
331
105DD
  5
10670
331
105DE
  5
10672
331
105DF
  5
10673
331
105E0
  5
10674
331
105E1
  5
10675
331
105E2
  5
10676
331
105E3
  5
10677
331
105E4
  5
10678
331
105E5
  5
10679
331
105E6
  5
1067A
331
105E7
  5
1067B
331
105E8
  5
1067C
331
105E9
  5
1067D
331
105EA
  5
1067F
331
105EB
  5
10680
331
105EC
  5
10681
331
105ED
  5
10682
331
105EE
  5
10683
331
105EF
  5
10684
331
105F0
  5
10685
331
105F1
  5
10686
331
105F2
  5
10687
331
105F3
  5
10688
331
105F4
  5
10689
331
105F5
  5
1068A
331
105F6
  5
1068B
331
105F7
  5
1068C
331
105F8
  5
1068D
331
105F9
  5
1068E
331
105FA
  5
1068F
331
105FE
  5
106AE
331
105FF
  5
106AF
331
10600
  5
106B0
331
10601
  5
106B1
331
10602
  5
106B2
331
10603
  5
106B3
331
10604
  5
106B4
331
10605
  5
106B5
331
10606
  5
106B6
331
10607
  5
106B7
331
10608
  5
106B8
331
1060A
  5
106BF
331
1060B
  5
106C0
331
1060C
  5
106C1
331
1060D
  5
106C2
331
1060E
  5
106C3
331
1060F
  5
106C4
331
10610
  5
106C5
331
10611
  5
106C6
331
10612
  5
106C7
331
10613
  5
106C8
331
10614
  5
106C9
331
10615
  5
106CA
331
10616
  5
106CB
331
10617
  5
106CC
331
10618
  5
106D0
331
10619
  5
106D1
331
1061A
  5
106D2
331
1061B
  5
106D3
331
1061C
  5
106D4
331
1061D
  5
106D5
331
1061E
  5
106D6
331
1061F
  5
106D7
331
10620
  5
106D8
331
10621
  5
106D9
331
10622
  5
106DA
331
10623
  5
106DB
331
10624
  5
106DC
331
10625
  5
106DD
331
10626
  5
106DE
331
10627
  5
106DF
331
10628
  5
106E0
331
10629
  5
106E1
331
1062A
  5
106E2
331
1062B
  5
106E3
331
1062C
  5
106E4
331
1062D
  5
106E5
331
1062E
  5
106E6
331
1062F
  5
106E7
331
10630
  5
106E8
331
10631
  5
11901
331
10632
  5
11902
331
10633
  5
11903
331
10634
  5
11904
331
10635
  5
11905
331
10636
  5
11906
331
10637
  5
11907
331
10638
  5
11908
331
10639
  5
11909
331
1063A
  5
1190A
331
1063B
  5
1190B
331
1063C
  5
1190C
331
1063D
  5
1190D
331
1063E
  5
1190E
331
1063F
  5
1190F
331
10640
  5
11910
331
10641
  5
11911
331
10642
  5
11912
331
10643
  5
11913
331
10644
  5
11914
331
10645
  5
11915
331
10646
  5
11916
331
10647
  5
11917
331
10648
  5
11918
331
10649
  5
11919
331
1064A
  5
1191A
331
1064B
  5
1191B
331
1064C
  5
1191C
331
1064D
  5
1191D
331
1064E
  5
1191E
331
1064F
  5
1191F
331
10650
  5
11920
331
10651
  5
11921
331
10652
  5
11922
331
10653
  5
11923
331
10654
  5
11924
331
10655
  5
11925
331
10656
  5
11926
331
10657
  5
11927
331
10658
  5
11928
331
10659
  5
11929
331
1065A
  5
1192A
331
1065B
  5
1192F
331
1065C
  5
11930
331
1065D
  5
11931
331
1065E
  5
11932
331
1065F
  5
11933
331
10660
  5
11934
331
10661
  5
11935
331
10662
  5
11936
331
10663
  5
11937
331
10664
  5
11938
331
10665
  5
11939
331
10666
  5
1193A
331
10667
  5
1193B
331
10668
  5
1193C
331
10669
  5
1193D
331
1066A
  5
1193E
331
1066B
  5
1193F
331
1066C
  5
11943
331
1066D
  5
11944
331
1066E
  5
11945
331
1066F
  5
11949
331
10670
  5
1194A
331
10672
  5
1194F
331
10673
  5
11950
331
10674
  5
11952
331
10675
  5
11956
331
10676
  5
11957
331
0
  5
1192B
331
0
  5
1192C
331
0
  5
1192D
331
0
  5
1192E
331
1067B
  5
11983
331
1067C
  5
11984
331
1067D
  5
11985
331
1067F
  5
11990
331
10680
  5
11991
331
10681
  5
11992
331
10682
  5
11993
331
10683
  5
11994
331
10684
  5
11995
331
10685
  5
11996
331
10686
  5
11997
331
10687
  5
11998
331
10688
  5
11999
331
10689
  5
1199A
331
1068A
  5
1199B
331
1068B
  5
1199C
331
1068C
  5
1199D
331
1068D
  5
1199E
331
1068E
  5
1199F
331
1068F
  5
119A0
331
10690
  5
119A1
331
10691
  5
119A2
331
10692
  5
119A3
331
10693
  5
119A4
331
0
  5
11951
331
10695
  5
119B0
331
10696
  5
119B1
331
10697
  5
119B2
331
10698
  5
119B3
331
10699
  5
119B4
331
1069A
  5
119B5
331
1069B
  5
119B6
331
1069C
  5
119B7
331
1069D
  5
119B8
331
1069E
  5
119B9
331
1069F
  5
119BA
331
106A0
  5
119BB
331
106A1
  5
119BC
331
106A2
  5
119BD
331
106A3
  5
119BE
331
106A4
  5
119BF
331
106A5
  5
119C0
331
106A6
  5
119C1
331
106A7
  5
119C2
331
106A8
  5
119C3
331
106A9
  5
119C4
331
106AA
  5
119C5
331
106AB
  5
119C6
331
106AC
  5
119C7
331
106AD
  5
119C8
331
106AE
  5
119C9
331
106AF
  5
119CA
331
106B0
  5
119CB
331
106B1
  5
119CC
331
106B2
  5
119CD
331
106B3
  5
119CE
331
106B4
  5
119CF
331
106B5
  5
119D0
331
106B6
  5
119D1
331
106B7
  5
119D2
331
106B8
  5
119D3
331
106B9
  5
119D4
331
106BA
  5
119D5
331
106BB
  5
119D6
331
106BC
  5
119D7
331
106BD
  5
119D8
331
106BE
  5
119D9
331
106BF
  5
119DA
331
106C0
  5
119DB
331
106C1
  5
119DC
331
106C2
  5
119DD
331
106C3
  5
119DE
331
106C4
  5
119DF
331
106C5
  5
119E0
331
106C6
  5
119E1
331
106C7
  5
119E2
331
106C8
  5
119E3
331
106C9
  5
119E4
331
106CA
  5
119E5
331
106CB
  5
119E6
331
106CC
  5
119E7
331
106CD
  5
119E8
331
106CE
  5
119E9
331
106CF
  5
119EA
331
106D0
  5
119EB
331
106D1
  5
119EC
331
106D2
  5
119ED
331
106D3
  5
119EE
331
106D4
  5
119EF
331
106D5
  5
119F0
331
106D6
  5
119F1
331
106D7
  5
119F2
331
106D8
  5
119F3
331
106D9
  5
119F4
331
106DA
  5
119F5
331
106DB
  5
119F6
331
106DC
  5
119F7
331
106DD
  5
119F8
331
106DE
  5
119F9
331
106DF
  5
119FA
331
106E0
  5
119FB
331
106E1
  5
119FC
331
106E2
  5
119FD
331
106E3
  5
119FE
331
106E4
  5
119FF
331
106E5
  5
11A00
331
106E6
  5
11A01
331
106E7
  5
11A02
331
106E8
  5
11A03
331
11901
  5
FAF6
331
11902
  5
FB8D
331
11903
  5
FB8E
331
0
  5
FB8F
331
0
  5
FB90
331
0
  5
FB91
331
11907
  5
FB9F
331
11908
  5
FBA0
331
11909
  5
FBA1
331
0
  5
FB95
331
0
  5
FB96
331
0
  5
FB97
331
1190D
  5
FBA9
331
1190E
  5
FBAA
331
1190F
  5
FBAB
331
0
  5
FB9B
331
0
  5
FB9C
331
0
  5
FB9D
331
11913
  5
105D6
331
11914
  5
105D7
331
11915
  5
105D8
331
0
  5
105A7
331
0
  5
105A8
331
0
  5
105A9
331
11919
  5
105E0
331
1191A
  5
105E1
331
1191B
  5
105E4
331
1191C
  5
105E5
331
1191D
  5
105E6
331
0
  5
105B0
331
0
  5
105B1
331
0
  5
105B2
331
11921
  5
105F1
331
11922
  5
105F2
331
11923
  5
105F3
331
0
  5
105B9
331
0
  5
105BA
331
0
  5
105BB
331
11927
  5
105FE
331
11928
  5
105FF
331
11929
  5
10600
331
0
  5
105BF
331
0
  5
105C0
331
0
  5
105C1
331
1192D
  5
10608
331
1192E
  5
1060A
331
1192F
  5
1060B
331
0
  5
105C5
331
0
  5
105C6
331
0
  5
105C7
331
11933
  5
10690
331
11934
  5
10691
331
11935
  5
10692
331
0
  5
10634
331
0
  5
10635
331
0
  5
10636
331
11939
  5
1069A
331
1193A
  5
1069B
331
1193B
  5
1069C
331
0
  5
1063A
331
0
  5
1063B
331
0
  5
1063C
331
1193F
  5
106A4
331
11940
  5
106A5
331
11941
  5
106A6
331
0
  5
10640
331
0
  5
10641
331
0
  5
10642
331
11945
  5
106B9
331
11946
  5
106BA
331
11947
  5
106BB
331
11948
  5
106BC
331
11949
  5
106BD
331
1194A
  5
106BE
331
1194C
  5
11986
331
1194D
  5
11987
331
1194E
  5
11988
331
0
  5
106CD
331
0
  5
106CE
331
0
  5
106CF
331
11952
  5
FB92
331
11953
  5
FB93
331
11954
  5
FB94
331
11955
  5
FB98
331
11956
  5
FB99
331
11957
  5
FB9A
331
11958
  5
FB9E
331
11959
  5
FBA2
331
1195A
  5
FBA3
331
1195B
  5
FBA4
331
1195C
  5
FBA5
331
1195D
  5
FBA6
331
1195E
  5
FBA7
331
1195F
  5
FBA8
331
11960
  5
FBAC
331
11961
  5
FBAD
331
11962
  5
FBAE
331
11963
  5
FBAF
331
11964
  5
FBB0
331
11965
  5
FBB1
331
11966
  5
FBB2
331
11967
  5
105D9
331
11968
  5
105DA
331
11969
  5
105DB
331
1196A
  5
105DC
331
1196B
  5
105DD
331
1196C
  5
105DE
331
1196D
  5
105DF
331
1196E
  5
105E7
331
1196F
  5
105E8
331
11970
  5
105E9
331
11971
  5
105EA
331
11972
  5
105EB
331
11973
  5
105EC
331
11974
  5
105ED
331
11975
  5
105F4
331
11976
  5
105F5
331
11977
  5
105F6
331
11978
  5
105F7
331
11979
  5
105F8
331
1197A
  5
105F9
331
1197B
  5
105FA
331
1197C
  5
10601
331
1197D
  5
10602
331
1197E
  5
10603
331
1197F
  5
10604
331
11980
  5
10605
331
11981
  5
10606
331
11982
  5
10607
331
11983
  5
1060C
331
11984
  5
1060D
331
11985
  5
1060E
331
11986
  5
1060F
331
11987
  5
10610
331
11988
  5
10611
331
11989
  5
10612
331
1198A
  5
10693
331
1198B
  5
10694
331
1198C
  5
10695
331
1198D
  5
10696
331
1198E
  5
10697
331
1198F
  5
10698
331
11990
  5
10699
331
11991
  5
1069D
331
11992
  5
1069E
331
11993
  5
1069F
331
11994
  5
106A0
331
11995
  5
106A1
331
11996
  5
106A2
331
11997
  5
106A3
331
11998
  5
106A7
331
11999
  5
106A8
331
1199A
  5
106A9
331
1199B
  5
106AA
331
1199C
  5
106AB
331
1199D
  5
106AC
331
1199E
  5
106AD
331
1199F
  5
11989
331
119A0
  5
1198A
331
119A1
  5
1198B
331
119A2
  5
1198C
331
119A3
  5
1198D
331
119A4
  5
1198E
331
119A5
  5
1198F
331
119A6
  5
FBB4
331
119A7
  5
FBB5
331
119A8
  5
FBB6
331
0
  5
FBB7
331
0
  5
FBB8
331
0
  5
FBB9
331
119AC
  5
105E2
331
119AD
  5
105E3
331
119AE
  5
10660
331
119AF
  5
10661
331
119B0
  5
10662
331
0
  5
10659
331
0
  5
1065A
331
0
  5
1065B
331
119B4
  5
11958
331
119B5
  5
11959
331
119B6
  5
1195A
331
0
  5
11940
331
0
  5
11941
331
0
  5
11942
331
119BA
  5
11962
331
119BB
  5
11963
331
119BC
  5
11964
331
0
  5
11946
331
0
  5
11947
331
0
  5
11948
331
119C0
  5
1196C
331
119C1
  5
1196D
331
119C2
  5
1196E
331
0
  5
1194C
331
0
  5
1194D
331
0
  5
1194E
331
119C6
  5
11976
331
119C7
  5
11977
331
119C8
  5
11978
331
0
  5
11953
331
0
  5
11954
331
0
  5
11955
331
119CC
  5
119A5
331
119CD
  5
119A6
331
119CE
  5
119A7
331
119CF
  5
119A8
331
0
  5
1197C
331
0
  5
1197D
331
0
  5
1197E
331
119D3
  5
FBBA
331
119D4
  5
FBBB
331
119D5
  5
FBBC
331
119D6
  5
FBBD
331
119D7
  5
FBBE
331
119D8
  5
FBBF
331
119D9
  5
FBC0
331
119DA
  5
10663
331
119DB
  5
10664
331
119DC
  5
10665
331
119DD
  5
10666
331
119DE
  5
10667
331
119DF
  5
10668
331
119E0
  5
10669
331
119E1
  5
1195B
331
119E2
  5
1195C
331
119E3
  5
1195D
331
119E4
  5
1195E
331
119E5
  5
1195F
331
119E6
  5
11960
331
119E7
  5
11961
331
119E8
  5
11965
331
119E9
  5
11966
331
119EA
  5
11967
331
119EB
  5
11968
331
119EC
  5
11969
331
119ED
  5
1196A
331
119EE
  5
1196B
331
119EF
  5
1196F
331
119F0
  5
11970
331
119F1
  5
11971
331
119F2
  5
11972
331
119F3
  5
11973
331
119F4
  5
11974
331
119F5
  5
11975
331
119F6
  5
11979
331
119F7
  5
1197A
331
119F8
  5
1197B
331
119F9
  5
1197F
331
119FA
  5
11980
331
119FB
  5
11981
331
119FC
  5
11982
331
119FD
  5
119A9
331
119FE
  5
119AA
331
119FF
  5
119AB
331
11A00
  5
119AC
331
11A01
  5
119AD
331
11A02
  5
119AE
331
11A03
  5
119AF
  0
MATERIAL
  5
9540
102
{ACAD_REACTORS
330
18C
102
}
102
{ACAD_XDICTIONARY
360
11BA2
102
}
330
18C
100
AcDbMaterial
  1
BYBLOCK
 72
     0
 73
     2
 43
0.0208333333333333
 43
0.0
 43
0.0
 43
0.0
 43
0.0
 43
0.0208333333333333
 43
0.0
 43
0.0
 43
0.0
 43
0.0
 43
1.0
 43
0.0
 43
0.0
 43
0.0
 43
0.0
 43
1.0
 77
     0
 78
     2
 47
0.0208333333333333
 47
0.0
 47
0.0
 47
0.0
 47
0.0
 47
0.0208333333333333
 47
0.0
 47
0.0
 47
0.0
 47
0.0
 47
1.0
 47
0.0
 47
0.0
 47
0.0
 47
0.0
 47
1.0
171
     0
172
     2
 49
0.0208333333333333
 49
0.0
 49
0.0
 49
0.0
 49
0.0
 49
0.0208333333333333
 49
0.0
 49
0.0
 49
0.0
 49
0.0
 49
1.0
 49
0.0
 49
0.0
 49
0.0
 49
0.0
 49
1.0
175
     0
176
     2
142
0.0208333333333333
142
0.0
142
0.0
142
0.0
142
0.0
142
0.0208333333333333
142
0.0
142
0.0
142
0.0
142
0.0
142
1.0
142
0.0
142
0.0
142
0.0
142
0.0
142
1.0
179
     0
270
     2
144
0.0208333333333333
144
0.0
144
0.0
144
0.0
144
0.0
144
0.0208333333333333
144
0.0
144
0.0
144
0.0
144
0.0
144
1.0
144
0.0
144
0.0
144
0.0
144
0.0
144
1.0
274
     2
147
0.0208333333333333
147
0.0
147
0.0
147
0.0
147
0.0
147
0.0208333333333333
147
0.0
147
0.0
147
0.0
147
0.0
147
1.0
147
0.0
147
0.0
147
0.0
147
0.0
147
1.0
  0
MATERIAL
  5
9538
102
{ACAD_REACTORS
330
18C
102
}
102
{ACAD_XDICTIONARY
360
11BA4
102
}
330
18C
100
AcDbMaterial
  1
BYLAYER
 72
     0
 73
     2
 43
0.0208333333333333
 43
0.0
 43
0.0
 43
0.0
 43
0.0
 43
0.0208333333333333
 43
0.0
 43
0.0
 43
0.0
 43
0.0
 43
1.0
 43
0.0
 43
0.0
 43
0.0
 43
0.0
 43
1.0
 77
     0
 78
     2
 47
0.0208333333333333
 47
0.0
 47
0.0
 47
0.0
 47
0.0
 47
0.0208333333333333
 47
0.0
 47
0.0
 47
0.0
 47
0.0
 47
1.0
 47
0.0
 47
0.0
 47
0.0
 47
0.0
 47
1.0
171
     0
172
     2
 49
0.0208333333333333
 49
0.0
 49
0.0
 49
0.0
 49
0.0
 49
0.0208333333333333
 49
0.0
 49
0.0
 49
0.0
 49
0.0
 49
1.0
 49
0.0
 49
0.0
 49
0.0
 49
0.0
 49
1.0
175
     0
176
     2
142
0.0208333333333333
142
0.0
142
0.0
142
0.0
142
0.0
142
0.0208333333333333
142
0.0
142
0.0
142
0.0
142
0.0
142
1.0
142
0.0
142
0.0
142
0.0
142
0.0
142
1.0
179
     0
270
     2
144
0.0208333333333333
144
0.0
144
0.0
144
0.0
144
0.0
144
0.0208333333333333
144
0.0
144
0.0
144
0.0
144
0.0
144
1.0
144
0.0
144
0.0
144
0.0
144
0.0
144
1.0
274
     2
147
0.0208333333333333
147
0.0
147
0.0
147
0.0
147
0.0
147
0.0208333333333333
147
0.0
147
0.0
147
0.0
147
0.0
147
1.0
147
0.0
147
0.0
147
0.0
147
0.0
147
1.0
  0
MATERIAL
  5
9548
102
{ACAD_REACTORS
330
18C
102
}
102
{ACAD_XDICTIONARY
360
11BA6
102
}
330
18C
100
AcDbMaterial
  1
GLOBAL
 72
     0
 73
     2
 43
0.0208333333333333
 43
0.0
 43
0.0
 43
0.0
 43
0.0
 43
0.0208333333333333
 43
0.0
 43
0.0
 43
0.0
 43
0.0
 43
1.0
 43
0.0
 43
0.0
 43
0.0
 43
0.0
 43
1.0
 77
     0
 78
     2
 47
0.0208333333333333
 47
0.0
 47
0.0
 47
0.0
 47
0.0
 47
0.0208333333333333
 47
0.0
 47
0.0
 47
0.0
 47
0.0
 47
1.0
 47
0.0
 47
0.0
 47
0.0
 47
0.0
 47
1.0
171
     0
172
     2
 49
0.0208333333333333
 49
0.0
 49
0.0
 49
0.0
 49
0.0
 49
0.0208333333333333
 49
0.0
 49
0.0
 49
0.0
 49
0.0
 49
1.0
 49
0.0
 49
0.0
 49
0.0
 49
0.0
 49
1.0
175
     0
176
     2
142
0.0208333333333333
142
0.0
142
0.0
142
0.0
142
0.0
142
0.0208333333333333
142
0.0
142
0.0
142
0.0
142
0.0
142
1.0
142
0.0
142
0.0
142
0.0
142
0.0
142
1.0
179
     0
270
     2
144
0.0208333333333333
144
0.0
144
0.0
144
0.0
144
0.0
144
0.0208333333333333
144
0.0
144
0.0
144
0.0
144
0.0
144
1.0
144
0.0
144
0.0
144
0.0
144
0.0
144
1.0
274
     2
147
0.0208333333333333
147
0.0
147
0.0
147
0.0
147
0.0
147
0.0208333333333333
147
0.0
147
0.0
147
0.0
147
0.0
147
1.0
147
0.0
147
0.0
147
0.0
147
0.0
147
1.0
  0
ACAD_PROXY_OBJECT
  5
9584
102
{ACAD_REACTORS
330
9583
102
}
330
9583
100
AcDbZombieObject
 90
      499
 91
      511
 93
      610
310
40901902A4063FBFFFFFE000000000000002040AD7A3703D0AD73F4214DD185B99185C990000000000000104090141901A00000000000004100000000000000041025764000000000000300FC0
340
12
340
0
340
F
340
0
 94
        0
1001
ACAD_MLEADERVER
1070
     2
  0
MLINESTYLE
  5
1C
102
{ACAD_REACTORS
330
1B
102
}
330
1B
100
AcDbMlineStyle
  2
STANDARD
 70
     0
  3

 62
   256
 51
90.0
 52
90.0
 71
     2
 49
0.5
 62
   256
  6
BYLAYER
 49
-0.5
 62
   256
  6
BYLAYER
  0
ACAD_PROXY_OBJECT
  5
9562
102
{ACAD_REACTORS
330
9561
102
}
330
9561
100
AcDbZombieObject
 90
      499
 91
      510
 93
       41
310
903313A31580
  0
ACAD_PROXY_OBJECT
  5
9563
102
{ACAD_REACTORS
330
9561
102
}
330
9561
100
AcDbZombieObject
 90
      499
 91
      510
 93
      105
310
903313A324000000000000004000
  0
ACAD_PROXY_OBJECT
  5
9564
102
{ACAD_REACTORS
330
9561
102
}
330
9561
100
AcDbZombieObject
 90
      499
 91
      510
 93
      105
310
903313A344000000000000104000
  0
ACAD_PROXY_OBJECT
  5
9565
102
{ACAD_REACTORS
330
9561
102
}
330
9561
100
AcDbZombieObject
 90
      499
 91
      510
 93
      105
310
903313A354000000000000144000
  0
ACAD_PROXY_OBJECT
  5
9566
102
{ACAD_REACTORS
330
9561
102
}
330
9561
100
AcDbZombieObject
 90
      499
 91
      510
 93
      105
310
903313A384000000000000204000
  0
ACAD_PROXY_OBJECT
  5
9567
102
{ACAD_REACTORS
330
9561
102
}
330
9561
100
AcDbZombieObject
 90
      499
 91
      510
 93
      113
310
904313A31304000000000000244000
  0
ACAD_PROXY_OBJECT
  5
9568
102
{ACAD_REACTORS
330
9561
102
}
330
9561
100
AcDbZombieObject
 90
      499
 91
      510
 93
      113
310
904313A31364000000000000304000
  0
ACAD_PROXY_OBJECT
  5
9569
102
{ACAD_REACTORS
330
9561
102
}
330
9561
100
AcDbZombieObject
 90
      499
 91
      510
 93
      113
310
904313A32304000000000000344000
  0
ACAD_PROXY_OBJECT
  5
956A
102
{ACAD_REACTORS
330
9561
102
}
330
9561
100
AcDbZombieObject
 90
      499
 91
      510
 93
      113
310
904313A333040000000000003E4000
  0
ACAD_PROXY_OBJECT
  5
956B
102
{ACAD_REACTORS
330
9561
102
}
330
9561
100
AcDbZombieObject
 90
      499
 91
      510
 93
      113
310
904313A34304000000000000444000
  0
ACAD_PROXY_OBJECT
  5
956C
102
{ACAD_REACTORS
330
9561
102
}
330
9561
100
AcDbZombieObject
 90
      499
 91
      510
 93
      113
310
904313A35304000000000000494000
  0
ACAD_PROXY_OBJECT
  5
956D
102
{ACAD_REACTORS
330
9561
102
}
330
9561
100
AcDbZombieObject
 90
      499
 91
      510
 93
      121
310
905313A3130304000000000000594000
  0
ACAD_PROXY_OBJECT
  5
956E
102
{ACAD_REACTORS
330
9561
102
}
330
9561
100
AcDbZombieObject
 90
      499
 91
      510
 93
      105
310
903323A310000000000000010100
  0
ACAD_PROXY_OBJECT
  5
956F
102
{ACAD_REACTORS
330
9561
102
}
330
9561
100
AcDbZombieObject
 90
      499
 91
      510
 93
      105
310
903343A310000000000000410100
  0
ACAD_PROXY_OBJECT
  5
9570
102
{ACAD_REACTORS
330
9561
102
}
330
9561
100
AcDbZombieObject
 90
      499
 91
      510
 93
      105
310
903383A310000000000000810100
  0
ACAD_PROXY_OBJECT
  5
9571
102
{ACAD_REACTORS
330
9561
102
}
330
9561
100
AcDbZombieObject
 90
      499
 91
      510
 93
      113
310
90431303A310000000000000910100
  0
ACAD_PROXY_OBJECT
  5
9572
102
{ACAD_REACTORS
330
9561
102
}
330
9561
100
AcDbZombieObject
 90
      499
 91
      510
 93
      121
310
9053130303A310000000000001650100
  0
ACAD_PROXY_OBJECT
  5
9573
102
{ACAD_REACTORS
330
9561
102
}
330
9561
100
AcDbZombieObject
 90
      499
 91
      510
 93
      257
310
90E312F31323822203D2031272D3022000000000000200FC000000000000284000
  0
ACAD_PROXY_OBJECT
  5
9574
102
{ACAD_REACTORS
330
9561
102
}
330
9561
100
AcDbZombieObject
 90
      499
 91
      510
 93
      249
310
90D312F363422203D2031272D3022000000000000240FC000000000000284000
  0
ACAD_PROXY_OBJECT
  5
9575
102
{ACAD_REACTORS
330
9561
102
}
330
9561
100
AcDbZombieObject
 90
      499
 91
      510
 93
      249
310
90D312F333222203D2031272D3022000000000000280FC000000000000284000
  0
ACAD_PROXY_OBJECT
  5
9576
102
{ACAD_REACTORS
330
9561
102
}
330
9561
100
AcDbZombieObject
 90
      499
 91
      510
 93
      249
310
90D312F313622203D2031272D30220000000000002C0FC000000000000284000
  0
ACAD_PROXY_OBJECT
  5
9577
102
{ACAD_REACTORS
330
9561
102
}
330
9561
100
AcDbZombieObject
 90
      499
 91
      510
 93
      249
310
90D332F333222203D2031272D30220000000000002E0FC000000000000284000
  0
ACAD_PROXY_OBJECT
  5
9578
102
{ACAD_REACTORS
330
9561
102
}
330
9561
100
AcDbZombieObject
 90
      499
 91
      510
 93
      241
310
90C312F3822203D2031272D3022000000000000300FC000000000000284000
  0
ACAD_PROXY_OBJECT
  5
9579
102
{ACAD_REACTORS
330
9561
102
}
330
9561
100
AcDbZombieObject
 90
      499
 91
      510
 93
      249
310
90D332F313622203D2031272D3022000000000000320FC000000000000284000
  0
ACAD_PROXY_OBJECT
  5
957A
102
{ACAD_REACTORS
330
9561
102
}
330
9561
100
AcDbZombieObject
 90
      499
 91
      510
 93
      241
310
90C312F3422203D2031272D3022000000000000340FC000000000000284000
  0
ACAD_PROXY_OBJECT
  5
957B
102
{ACAD_REACTORS
330
9561
102
}
330
9561
100
AcDbZombieObject
 90
      499
 91
      510
 93
      241
310
90C332F3822203D2031272D3022000000000000360FC000000000000284000
  0
ACAD_PROXY_OBJECT
  5
957C
102
{ACAD_REACTORS
330
9561
102
}
330
9561
100
AcDbZombieObject
 90
      499
 91
      510
 93
      241
310
90C312F3222203D2031272D3022000000000000380FC000000000000284000
  0
ACAD_PROXY_OBJECT
  5
957D
102
{ACAD_REACTORS
330
9561
102
}
330
9561
100
AcDbZombieObject
 90
      499
 91
      510
 93
      241
310
90C332F3422203D2031272D30220000000000003A0FC000000000000284000
  0
ACAD_PROXY_OBJECT
  5
957E
102
{ACAD_REACTORS
330
9561
102
}
330
9561
100
AcDbZombieObject
 90
      499
 91
      510
 93
      161
310
90A3122203D2031272D30224000000000000284000
  0
ACAD_PROXY_OBJECT
  5
957F
102
{ACAD_REACTORS
330
9561
102
}
330
9561
100
AcDbZombieObject
 90
      499
 91
      510
 93
      257
310
90E312D312F3222203D2031272D30220000000000003E0FC000000000000284000
  0
ACAD_PROXY_OBJECT
  5
9580
102
{ACAD_REACTORS
330
9561
102
}
330
9561
100
AcDbZombieObject
 90
      499
 91
      510
 93
      225
310
90A3322203D2031272D302200000000000002100000000000000284000
  0
ACAD_PROXY_OBJECT
  5
9581
102
{ACAD_REACTORS
330
9561
102
}
330
9561
100
AcDbZombieObject
 90
      499
 91
      510
 93
      225
310
90A3622203D2031272D302200000000000006100000000000000284000
  0
ACAD_PROXY_OBJECT
  5
9582
102
{ACAD_REACTORS
330
9561
102
}
330
9561
100
AcDbZombieObject
 90
      499
 91
      510
 93
      249
310
90D31272D3022203D2031272D30220000000000000A100000000000000284000
  0
ACAD_PROXY_OBJECT
  5
9556
102
{ACAD_REACTORS
330
9550
102
}
330
9550
100
AcDbZombieObject
 90
      499
 91
      509
 93
      436
310
42CC9915DA5C99599C985B595049028333333333333E3BF0000000000000FB0107901411070040501600405405064090741402480A0340
1001
ACAD
1000
AcDbSavedByObjectVersion
1070
     0
  0
ACAD_PROXY_OBJECT
  5
9558
102
{ACAD_REACTORS
330
9550
102
}
330
9550
100
AcDbZombieObject
 90
      499
 91
      509
 93
      500
310
424CD108121A5919195B90640502408333333333333E3BF0000000000000FB01079024090700405020000000000001110200405405064090740C02480A0340
1001
ACAD
1000
AcDbSavedByObjectVersion
1070
     0
  0
ACAD_PROXY_OBJECT
  5
9557
102
{ACAD_REACTORS
330
9550
102
}
330
9550
100
AcDbZombieObject
 90
      499
 91
      509
 93
      436
310
42CCD915DA5C99599C985B595059028333333333333E3BF0000000000000FB0107901411070040501600405405064090741402480A0340
1001
ACAD
1000
AcDbSavedByObjectVersion
1070
     0
  0
ACAD_PROXY_OBJECT
  5
9555
102
{ACAD_REACTORS
330
9550
102
}
330
9550
100
AcDbZombieObject
 90
      499
 91
      509
 93
      388
310
4150985CDA58D07406404333333333333E3BF0000000000000FB0107A41107004050150841D405064090741402480A0350
1001
ACAD
1000
AcDbSavedByObjectVersion
1070
     0
  0
ACAD_PROXY_OBJECT
  5
955C
102
{ACAD_REACTORS
330
9550
102
}
330
9550
100
AcDbZombieObject
 90
      499
 91
      509
 93
      428
310
42109C9A59DA1D195B90C409028333333333333E3BF0000000000000FB010790141107004050150841D405064090741402480A029950
1001
ACAD
1000
AcDbSavedByObjectVersion
1070
     0
  0
ACAD_PROXY_OBJECT
  5
9560
102
{ACAD_REACTORS
330
9550
102
}
330
9550
100
AcDbZombieObject
 90
      499
 91
      509
 93
      452
310
42D0DBDB1BDC90DA185B99D95104090240C333333333333E3BF0000000000000FB0108901411070040501508421405064090741402480A0350
1001
ACAD
1000
AcDbSavedByObjectVersion
1070
     0
  0
ACAD_PROXY_OBJECT
  5
9559
102
{ACAD_REACTORS
330
9550
102
}
330
9550
100
AcDbZombieObject
 90
      499
 91
      509
 93
      500
310
4290DBDB98D95C1D1D585B10940D028333333333333E3BF0000000000000FB0107902409070040501000000000000111010841D405064090740C02480A0340
1001
ACAD
1000
AcDbSavedByObjectVersion
1070
     0
  0
ACAD_PROXY_OBJECT
  5
955B
102
{ACAD_REACTORS
330
9550
102
}
330
9550
100
AcDbZombieObject
 90
      499
 91
      509
 93
      412
310
40D11A5B50B409028333333333333E3BF0000000000000FB010790141107004050150841D405064090741402480A02677FFFFFD0
1001
ACAD
1000
AcDbSavedByObjectVersion
1070
     0
  0
ACAD_PROXY_OBJECT
  5
A211
102
{ACAD_REACTORS
330
9550
102
}
330
9550
100
AcDbZombieObject
 90
      499
 91
      509
 93
      452
310
43115919D950DBDB1BDC93D999916409028333333333333E3BF0000000000000FB010790141107004050150841D405064090741402480A0350
1001
ACAD
1000
AcDbSavedByObjectVersion
1070
     0
  0
ACAD_PROXY_OBJECT
  5
955F
102
{ACAD_REACTORS
330
9550
102
}
330
9550
100
AcDbZombieObject
 90
      499
 91
      509
 93
      444
310
42D19858D95C185D1D195C9B90F409028333333333333E3BF0000000000000FB010790141107004050150841D405064090741402480A0350
1001
ACAD
1000
AcDbSavedByObjectVersion
1070
     0
  0
ACAD_PROXY_OBJECT
  5
9551
102
{ACAD_REACTORS
330
9550
102
}
330
9550
100
AcDbZombieObject
 90
      499
 91
      509
 93
      388
310
41119B185D240901404333333333333E3BF0000000000000F9010740A41107004050150841D405064090741402480A1B50
1001
ACAD
1000
AcDbSavedByObjectVersion
1070
     0
  0
ACAD_PROXY_OBJECT
  5
9552
102
{ACAD_REACTORS
330
9550
102
}
330
9550
100
AcDbZombieObject
 90
      499
 91
      509
 93
      476
310
43519B185D15DA5D1A115919D95CD0140901404333333333333E3BF0000000000000F9010740901411070040501600405405064090741402480A1B50
1001
ACAD
1000
AcDbSavedByObjectVersion
1070
     0
  0
ACAD_PROXY_OBJECT
  5
9553
102
{ACAD_REACTORS
330
9550
102
}
330
9550
100
AcDbZombieObject
 90
      499
 91
      509
 93
      412
310
41D1DBDD5C985D5910240902404333333333333E3BF0000000000000F9010740A411070040501641D405064090741402480A1B50
1001
ACAD
1000
AcDbSavedByObjectVersion
1070
     0
  0
ACAD_PROXY_OBJECT
  5
9554
102
{ACAD_REACTORS
330
9550
102
}
330
9550
100
AcDbZombieObject
 90
      499
 91
      509
 93
      500
310
4411DBDD5C985D5915DA5D1A115919D95CD0340902404333333333333E3BF0000000000000F9010740901411070040501600405405064090741402480A1B50
1001
ACAD
1000
AcDbSavedByObjectVersion
1070
     0
  0
ACAD_PROXY_OBJECT
  5
A260
102
{ACAD_REACTORS
330
9550
102
}
330
9550
100
AcDbZombieObject
 90
      499
 91
      509
 93
      476
310
41921A5919195B90640502408333333333333E3BF0000000000000FB01079024090700405020000000000001110200405405064090740C02480A0340
1001
ACAD
1000
AcDbSavedByObjectVersion
1070
     0
  0
ACAD_PROXY_OBJECT
  5
A20F
102
{ACAD_REACTORS
330
9550
102
}
330
9550
100
AcDbZombieObject
 90
      499
 91
      509
 93
      428
310
42529A5D1D195C93D999914409028333333333333E3BF0000000000000FB010790141107004050150A41D405064090741402480A0350
1001
ACAD
1000
AcDbSavedByObjectVersion
1070
     0
  0
ACAD_PROXY_OBJECT
  5
955E
102
{ACAD_REACTORS
330
9550
102
}
330
9550
100
AcDbZombieObject
 90
      499
 91
      509
 93
      444
310
42D31A5B995C185D1D195C9B90E409028333333333333E3BF0000000000000FB010790141107004050750841D405064090741402483A0350
1001
ACAD
1000
AcDbSavedByObjectVersion
1070
     0
  0
ACAD_PROXY_OBJECT
  5
A266
102
{ACAD_REACTORS
330
9550
102
}
330
9550
100
AcDbZombieObject
 90
      499
 91
      509
 93
      484
310
42135BD9195B1A5B99D0A409028333333333333E3BF0000000000000F901074090290700405010000000000201990108421405064090741402480A1B40
1001
ACAD
1000
AcDbSavedByObjectVersion
1070
     0
  0
ACAD_PROXY_OBJECT
  5
A210
102
{ACAD_REACTORS
330
9550
102
}
330
9550
100
AcDbZombieObject
 90
      499
 91
      509
 93
      444
310
42D3DD995C9A185B99D3D999915409028333333333333E3BF0000000000000FB010790141107004050150941D405064090741402480A0350
1001
ACAD
1000
AcDbSavedByObjectVersion
1070
     0
  0
ACAD_PROXY_OBJECT
  5
955A
102
{ACAD_REACTORS
330
9550
102
}
330
9550
100
AcDbZombieObject
 90
      499
 91
      509
 93
      420
310
425499585B1A5CDD1A58D08409028333333333333E3BF0000000000000FB01079019070040501508421405064090741402480A1B40
1001
ACAD
1000
AcDbSavedByObjectVersion
1070
     0
  0
ACAD_PROXY_OBJECT
  5
A265
102
{ACAD_REACTORS
330
9550
102
}
330
9550
100
AcDbZombieObject
 90
      499
 91
      509
 93
      420
310
4194DA1859195911B40902404333333333333E3BF0000000000000F9010740A41107004050150800405405064090840C02480A0B40
1001
ACAD
1000
AcDbSavedByObjectVersion
1070
     0
  0
ACAD_PROXY_OBJECT
  5
A264
102
{ACAD_REACTORS
330
9550
102
}
330
9550
100
AcDbZombieObject
 90
      499
 91
      509
 93
      516
310
4454DA18591959081DDA5D1A08195919D95CD1A40902404333333333333E3BF0000000000000F901074090142907004050250800405405064090740C02480A0B40
1001
ACAD
1000
AcDbSavedByObjectVersion
1070
     0
  0
ACAD_PROXY_OBJECT
  5
A261
102
{ACAD_REACTORS
330
9550
102
}
330
9550
100
AcDbZombieObject
 90
      499
 91
      509
 93
      532
310
4394DA1859195CC81BD98811DC985E5174090240C333333333333E3BF0000000000000FB01079024090741D01000000000000111010841D405064090740C02480A0340
1001
ACAD
1000
AcDbSavedByObjectVersion
1070
     0
  0
ACAD_PROXY_OBJECT
  5
A262
102
{ACAD_REACTORS
330
9550
102
}
330
9550
100
AcDbZombieObject
 90
      499
 91
      509
 93
      476
310
41D4DAD95D18DA1E51840502408333333333333E3BF0000000000000FB01079024090741D01000000000000111010B41D405064090741802480A0340
1001
ACAD
1000
AcDbSavedByObjectVersion
1070
     0
  0
ACAD_PROXY_OBJECT
  5
955D
102
{ACAD_REACTORS
330
9550
102
}
330
9550
100
AcDbZombieObject
 90
      499
 91
      509
 93
      412
310
41D51A1A58DAD95B90D409028333333333333E3BF0000000000000FB010790141107004050150C41D405064090741402480A0350
1001
ACAD
1000
AcDbSavedByObjectVersion
1070
     0
  0
ACAD_PROXY_OBJECT
  5
A25F
102
{ACAD_REACTORS
330
9550
102
}
330
9550
100
AcDbZombieObject
 90
      499
 91
      509
 93
      420
310
4255DA5C99599C985B595059028333333333333E3BF0000000000000FB0107901411070040501600405405064090740C02480A0340
1001
ACAD
1000
AcDbSavedByObjectVersion
1070
     0
  0
ACAD_PROXY_OBJECT
  5
A263
102
{ACAD_REACTORS
330
9550
102
}
330
9550
100
AcDbZombieObject
 90
      499
 91
      509
 93
      404
310
41560B54985E51940902404000000000000E03F0000000000000FB010740501907004050150841D405064090740C02480A1B40
1001
ACAD
1000
AcDbSavedByObjectVersion
1070
     0
  0
XRECORD
  5
11A05
102
{ACAD_REACTORS
330
11A04
102
}
330
11A04
100
AcDbXrecord
340
18D
  0
XRECORD
  5
11A06
102
{ACAD_REACTORS
330
11A04
102
}
330
11A04
100
AcDbXrecord
340
18C
  0
DICTIONARYVAR
  5
AAE0
102
{ACAD_REACTORS
330
37
102
}
330
37
100
DictionaryVariables
280
     0
  1
1:1
  0
DICTIONARYVAR
  5
9627
102
{ACAD_REACTORS
330
37
102
}
330
37
100
DictionaryVariables
280
     0
  1
Standard
  0
DICTIONARYVAR
  5
29E
102
{ACAD_REACTORS
330
37
102
}
330
37
100
DictionaryVariables
280
     0
  1
Standard
  0
DICTIONARYVAR
  5
38
102
{ACAD_REACTORS
330
37
102
}
330
37
100
DictionaryVariables
280
     0
  1
-1
  0
DICTIONARYVAR
  5
1CE
102
{ACAD_REACTORS
330
37
102
}
330
37
100
DictionaryVariables
280
     0
  1
2
  0
DICTIONARYVAR
  5
704E
102
{ACAD_REACTORS
330
37
102
}
330
37
100
DictionaryVariables
280
     0
  1
1
  0
DICTIONARYVAR
  5
962A
102
{ACAD_REACTORS
330
37
102
}
330
37
100
DictionaryVariables
280
     0
  1
0
  0
DICTIONARYVAR
  5
7052
102
{ACAD_REACTORS
330
37
102
}
330
37
100
DictionaryVariables
280
     0
  1
8
  0
DICTIONARYVAR
  5
7051
102
{ACAD_REACTORS
330
37
102
}
330
37
100
DictionaryVariables
280
     0
  1
1
  0
DICTIONARYVAR
  5
AB30
102
{ACAD_REACTORS
330
37
102
}
330
37
100
DictionaryVariables
280
     0
  1
0
  0
DICTIONARYVAR
  5
704F
102
{ACAD_REACTORS
330
37
102
}
330
37
100
DictionaryVariables
280
     0
  1
8
  0
DICTIONARYVAR
  5
7050
102
{ACAD_REACTORS
330
37
102
}
330
37
100
DictionaryVariables
280
     0
  1
2
  0
DICTIONARYVAR
  5
1CF
102
{ACAD_REACTORS
330
37
102
}
330
37
100
DictionaryVariables
280
     0
  1

  0
DICTIONARYVAR
  5
9629
102
{ACAD_REACTORS
330
37
102
}
330
37
100
DictionaryVariables
280
     0
  1
127
  0
DICTIONARYVAR
  5
11861
102
{ACAD_REACTORS
330
37
102
}
330
37
100
DictionaryVariables
280
     0
  1
2
  0
DICTIONARY
  5
11BA2
330
9540
100
AcDbDictionary
  3
ACAD_XREC_ROUNDTRIP
360
11BA3
1001
ACAD
1000
TREAT_AS_HARD
1070
     1
  0
DICTIONARY
  5
11BA4
330
9538
100
AcDbDictionary
  3
ACAD_XREC_ROUNDTRIP
360
11BA5
1001
ACAD
1000
TREAT_AS_HARD
1070
     1
  0
DICTIONARY
  5
11BA6
330
9548
100
AcDbDictionary
  3
ACAD_XREC_ROUNDTRIP
360
11BA7
1001
ACAD
1000
TREAT_AS_HARD
1070
     1
  0
XRECORD
  5
11BA3
102
{ACAD_REACTORS
330
11BA2
102
}
330
11BA2
100
AcDbXrecord
102
MATERIAL
148
0.0
149
0.0
149
0.0
 93
        0
 94
      127
282
     0
 72
     0
 77
     0
171
     0
175
     0
179
     0
273
     0
  0
XRECORD
  5
11BA5
102
{ACAD_REACTORS
330
11BA4
102
}
330
11BA4
100
AcDbXrecord
102
MATERIAL
148
0.0
149
0.0
149
0.0
 93
        0
 94
      127
282
     0
 72
     0
 77
     0
171
     0
175
     0
179
     0
273
     0
  0
XRECORD
  5
11BA7
102
{ACAD_REACTORS
330
11BA6
102
}
330
11BA6
100
AcDbXrecord
102
MATERIAL
148
0.0
149
0.0
149
0.0
 93
        0
 94
      127
282
     0
 72
     0
 77
     0
171
     0
175
     0
179
     0
273
     0
  0
ENDSEC
  0
EOF
